  0
SECTION
  2
HEADER
  9
$ACADVER
  1
AC1015
  9
$ACADMAINTVER
 70
    20
  9
$DWGCODEPAGE
  3
ANSI_1254
  9
$INSBASE
 10
0.0
 20
0.0
 30
0.0
  9
$EXTMIN
 10
2124.442013438013
 20
694.6177503576616
 30
0.0
  9
$EXTMAX
 10
2345.597059387507
 20
746.7345690977972
 30
0.0
  9
$LIMMIN
 10
0.0
 20
0.0
  9
$LIMMAX
 10
420.0
 20
297.0
  9
$ORTHOMODE
 70
     0
  9
$REGENMODE
 70
     1
  9
$FILLMODE
 70
     1
  9
$QTEXTMODE
 70
     0
  9
$MIRRTEXT
 70
     0
  9
$LTSCALE
 40
1.0
  9
$ATTMODE
 70
     1
  9
$TEXTSIZE
 40
2.5
  9
$TRACEWID
 40
1.0
  9
$TEXTSTYLE
  7
Standard
  9
$CLAYER
  8
0
  9
$CELTYPE
  6
ByLayer
  9
$CECOLOR
 62
   256
  9
$CELTSCALE
 40
1.0
  9
$DISPSILH
 70
     0
  9
$DIMSCALE
 40
1.0
  9
$DIMASZ
 40
2.5
  9
$DIMEXO
 40
0.625
  9
$DIMDLI
 40
3.75
  9
$DIMRND
 40
0.0
  9
$DIMDLE
 40
0.0
  9
$DIMEXE
 40
1.25
  9
$DIMTP
 40
0.0
  9
$DIMTM
 40
0.0
  9
$DIMTXT
 40
2.5
  9
$DIMCEN
 40
2.5
  9
$DIMTSZ
 40
0.0
  9
$DIMTOL
 70
     0
  9
$DIMLIM
 70
     0
  9
$DIMTIH
 70
     0
  9
$DIMTOH
 70
     0
  9
$DIMSE1
 70
     0
  9
$DIMSE2
 70
     0
  9
$DIMTAD
 70
     1
  9
$DIMZIN
 70
     8
  9
$DIMBLK
  1

  9
$DIMASO
 70
     1
  9
$DIMSHO
 70
     1
  9
$DIMPOST
  1

  9
$DIMAPOST
  1

  9
$DIMALT
 70
     0
  9
$DIMALTD
 70
     3
  9
$DIMALTF
 40
0.03937007874016
  9
$DIMLFAC
 40
1.0
  9
$DIMTOFL
 70
     1
  9
$DIMTVP
 40
0.0
  9
$DIMTIX
 70
     0
  9
$DIMSOXD
 70
     0
  9
$DIMSAH
 70
     0
  9
$DIMBLK1
  1

  9
$DIMBLK2
  1

  9
$DIMSTYLE
  2
ISO-25
  9
$DIMCLRD
 70
     0
  9
$DIMCLRE
 70
     0
  9
$DIMCLRT
 70
     0
  9
$DIMTFAC
 40
1.0
  9
$DIMGAP
 40
0.625
  9
$DIMJUST
 70
     0
  9
$DIMSD1
 70
     0
  9
$DIMSD2
 70
     0
  9
$DIMTOLJ
 70
     0
  9
$DIMTZIN
 70
     8
  9
$DIMALTZ
 70
     0
  9
$DIMALTTZ
 70
     0
  9
$DIMUPT
 70
     0
  9
$DIMDEC
 70
     2
  9
$DIMTDEC
 70
     2
  9
$DIMALTU
 70
     2
  9
$DIMALTTD
 70
     3
  9
$DIMTXSTY
  7
Standard
  9
$DIMAUNIT
 70
     0
  9
$DIMADEC
 70
     0
  9
$DIMALTRND
 40
0.0
  9
$DIMAZIN
 70
     0
  9
$DIMDSEP
 70
    44
  9
$DIMATFIT
 70
     3
  9
$DIMFRAC
 70
     0
  9
$DIMLDRBLK
  1

  9
$DIMLUNIT
 70
     2
  9
$DIMLWD
 70
    -2
  9
$DIMLWE
 70
    -2
  9
$DIMTMOVE
 70
     0
  9
$LUNITS
 70
     2
  9
$LUPREC
 70
     4
  9
$SKETCHINC
 40
1.0
  9
$FILLETRAD
 40
0.0
  9
$AUNITS
 70
     0
  9
$AUPREC
 70
     0
  9
$MENU
  1
.
  9
$ELEVATION
 40
0.0
  9
$PELEVATION
 40
0.0
  9
$THICKNESS
 40
0.0
  9
$LIMCHECK
 70
     0
  9
$CHAMFERA
 40
0.0
  9
$CHAMFERB
 40
0.0
  9
$CHAMFERC
 40
0.0
  9
$CHAMFERD
 40
0.0
  9
$SKPOLY
 70
     0
  9
$TDCREATE
 40
2458935.542840417
  9
$TDUCREATE
 40
2458935.417840417
  9
$TDUPDATE
 40
2458956.464982824
  9
$TDUUPDATE
 40
2458956.339982824
  9
$TDINDWG
 40
0.0003284259
  9
$TDUSRTIMER
 40
0.0003284259
  9
$USRTIMER
 70
     1
  9
$ANGBASE
 50
0.0
  9
$ANGDIR
 70
     0
  9
$PDMODE
 70
     0
  9
$PDSIZE
 40
0.0
  9
$PLINEWID
 40
0.0
  9
$SPLFRAME
 70
     0
  9
$SPLINETYPE
 70
     6
  9
$SPLINESEGS
 70
     8
  9
$HANDSEED
  5
85C
  9
$SURFTAB1
 70
     6
  9
$SURFTAB2
 70
     6
  9
$SURFTYPE
 70
     6
  9
$SURFU
 70
     6
  9
$SURFV
 70
     6
  9
$UCSBASE
  2

  9
$UCSNAME
  2

  9
$UCSORG
 10
0.0
 20
0.0
 30
0.0
  9
$UCSXDIR
 10
1.0
 20
0.0
 30
0.0
  9
$UCSYDIR
 10
0.0
 20
1.0
 30
0.0
  9
$UCSORTHOREF
  2

  9
$UCSORTHOVIEW
 70
     0
  9
$UCSORGTOP
 10
0.0
 20
0.0
 30
0.0
  9
$UCSORGBOTTOM
 10
0.0
 20
0.0
 30
0.0
  9
$UCSORGLEFT
 10
0.0
 20
0.0
 30
0.0
  9
$UCSORGRIGHT
 10
0.0
 20
0.0
 30
0.0
  9
$UCSORGFRONT
 10
0.0
 20
0.0
 30
0.0
  9
$UCSORGBACK
 10
0.0
 20
0.0
 30
0.0
  9
$PUCSBASE
  2

  9
$PUCSNAME
  2

  9
$PUCSORG
 10
0.0
 20
0.0
 30
0.0
  9
$PUCSXDIR
 10
1.0
 20
0.0
 30
0.0
  9
$PUCSYDIR
 10
0.0
 20
1.0
 30
0.0
  9
$PUCSORTHOREF
  2

  9
$PUCSORTHOVIEW
 70
     0
  9
$PUCSORGTOP
 10
0.0
 20
0.0
 30
0.0
  9
$PUCSORGBOTTOM
 10
0.0
 20
0.0
 30
0.0
  9
$PUCSORGLEFT
 10
0.0
 20
0.0
 30
0.0
  9
$PUCSORGRIGHT
 10
0.0
 20
0.0
 30
0.0
  9
$PUCSORGFRONT
 10
0.0
 20
0.0
 30
0.0
  9
$PUCSORGBACK
 10
0.0
 20
0.0
 30
0.0
  9
$USERI1
 70
     0
  9
$USERI2
 70
     0
  9
$USERI3
 70
     0
  9
$USERI4
 70
     0
  9
$USERI5
 70
     0
  9
$USERR1
 40
0.0
  9
$USERR2
 40
0.0
  9
$USERR3
 40
0.0
  9
$USERR4
 40
0.0
  9
$USERR5
 40
0.0
  9
$WORLDVIEW
 70
     1
  9
$SHADEDGE
 70
     3
  9
$SHADEDIF
 70
    70
  9
$TILEMODE
 70
     1
  9
$MAXACTVP
 70
    64
  9
$PINSBASE
 10
0.0
 20
0.0
 30
0.0
  9
$PLIMCHECK
 70
     0
  9
$PEXTMIN
 10
0.0
 20
0.0
 30
0.0
  9
$PEXTMAX
 10
0.0
 20
0.0
 30
0.0
  9
$PLIMMIN
 10
0.0
 20
0.0
  9
$PLIMMAX
 10
12.0
 20
9.0
  9
$UNITMODE
 70
     0
  9
$VISRETAIN
 70
     1
  9
$PLINEGEN
 70
     0
  9
$PSLTSCALE
 70
     1
  9
$TREEDEPTH
 70
  3020
  9
$CMLSTYLE
  2
Standard
  9
$CMLJUST
 70
     0
  9
$CMLSCALE
 40
20.0
  9
$PROXYGRAPHICS
 70
     1
  9
$MEASUREMENT
 70
     1
  9
$CELWEIGHT
370
    -1
  9
$ENDCAPS
280
     0
  9
$JOINSTYLE
280
     0
  9
$LWDISPLAY
290
     0
  9
$INSUNITS
 70
     4
  9
$HYPERLINKBASE
  1

  9
$STYLESHEET
  1

  9
$XEDIT
290
     1
  9
$CEPSNTYPE
380
     0
  9
$PSTYLEMODE
290
     1
  9
$FINGERPRINTGUID
  2
{3CCB09AF-525C-46A7-A5DF-15F85C9C9388}
  9
$VERSIONGUID
  2
{BCBA66EE-C79D-4BFF-B2B7-0DCFACEB9B5E}
  9
$EXTNAMES
290
     1
  9
$PSVPSCALE
 40
0.0
  9
$OLESTARTUP
290
     0
  0
ENDSEC
  0
SECTION
  2
CLASSES
  0
CLASS
  1
ACDBDICTIONARYWDFLT
  2
AcDbDictionaryWithDefault
  3
ObjectDBX Classes
 90
        0
280
     0
281
     0
  0
CLASS
  1
ACDBPLACEHOLDER
  2
AcDbPlaceHolder
  3
ObjectDBX Classes
 90
        0
280
     0
281
     0
  0
CLASS
  1
LAYOUT
  2
AcDbLayout
  3
ObjectDBX Classes
 90
        0
280
     0
281
     0
  0
CLASS
  1
DICTIONARYVAR
  2
AcDbDictionaryVar
  3
ObjectDBX Classes
 90
        0
280
     0
281
     0
  0
CLASS
  1
TABLESTYLE
  2
AcDbTableStyle
  3
ObjectDBX Classes
 90
     4095
280
     0
281
     0
  0
CLASS
  1
MATERIAL
  2
AcDbMaterial
  3
ObjectDBX Classes
 90
     1153
280
     0
281
     0
  0
CLASS
  1
VISUALSTYLE
  2
AcDbVisualStyle
  3
ObjectDBX Classes
 90
     4095
280
     0
281
     0
  0
CLASS
  1
SCALE
  2
AcDbScale
  3
ObjectDBX Classes
 90
     1153
280
     0
281
     0
  0
CLASS
  1
MLEADERSTYLE
  2
AcDbMLeaderStyle
  3
ACDB_MLEADERSTYLE_CLASS
 90
     4095
280
     0
281
     0
  0
CLASS
  1
CELLSTYLEMAP
  2
AcDbCellStyleMap
  3
ObjectDBX Classes
 90
     1152
280
     0
281
     0
  0
ENDSEC
  0
SECTION
  2
TABLES
  0
TABLE
  2
VPORT
  5
8
330
0
100
AcDbSymbolTable
 70
     1
  0
VPORT
  5
EA
330
8
100
AcDbSymbolTableRecord
100
AcDbViewportTableRecord
  2
*Active
 70
     0
 10
0.0
 20
0.0
 11
1.0
 21
1.0
 12
2232.084152895174
 22
720.1463232220445
 13
0.0
 23
0.0
 14
10.0
 24
10.0
 15
10.0
 25
10.0
 16
0.0
 26
0.0
 36
1.0
 17
0.0
 27
0.0
 37
0.0
 40
128.9037624231436
 41
1.903110047846889
 42
50.0
 43
0.0
 44
0.0
 50
0.0
 51
0.0
 71
     0
 72
  1000
 73
     1
 74
     3
 75
     0
 76
     0
 77
     0
 78
     0
281
     0
 65
     1
110
0.0
120
0.0
130
0.0
111
1.0
121
0.0
131
0.0
112
0.0
122
1.0
132
0.0
 79
     0
146
0.0
  0
ENDTAB
  0
TABLE
  2
LTYPE
  5
5
330
0
100
AcDbSymbolTable
 70
     1
  0
LTYPE
  5
14
330
5
100
AcDbSymbolTableRecord
100
AcDbLinetypeTableRecord
  2
ByBlock
 70
     0
  3

 72
    65
 73
     0
 40
0.0
  0
LTYPE
  5
15
330
5
100
AcDbSymbolTableRecord
100
AcDbLinetypeTableRecord
  2
ByLayer
 70
     0
  3

 72
    65
 73
     0
 40
0.0
  0
LTYPE
  5
16
330
5
100
AcDbSymbolTableRecord
100
AcDbLinetypeTableRecord
  2
Continuous
 70
     0
  3
Solid line
 72
    65
 73
     0
 40
0.0
  0
ENDTAB
  0
TABLE
  2
LAYER
  5
2
330
0
100
AcDbSymbolTable
 70
     1
  0
LAYER
  5
10
102
{ACAD_XDICTIONARY
360
13C
102
}
330
2
100
AcDbSymbolTableRecord
100
AcDbLayerTableRecord
  2
0
 70
     0
 62
     7
  6
Continuous
370
    -3
390
F
  0
ENDTAB
  0
TABLE
  2
STYLE
  5
3
330
0
100
AcDbSymbolTable
 70
     2
  0
STYLE
  5
11
330
3
100
AcDbSymbolTableRecord
100
AcDbTextStyleTableRecord
  2
Standard
 70
     0
 40
0.0
 41
1.0
 50
0.0
 71
     0
 42
2.5
  3
txt
  4

  0
STYLE
  5
132
330
3
100
AcDbSymbolTableRecord
100
AcDbTextStyleTableRecord
  2
Annotative
 70
     0
 40
0.0
 41
1.0
 50
0.0
 71
     0
 42
2.5
  3
txt.shx
  4

1001
AcadAnnotative
1000
AnnotativeData
1002
{
1070
     1
1070
     1
1002
}
  0
ENDTAB
  0
TABLE
  2
VIEW
  5
6
330
0
100
AcDbSymbolTable
 70
     0
  0
ENDTAB
  0
TABLE
  2
UCS
  5
7
330
0
100
AcDbSymbolTable
 70
     0
  0
ENDTAB
  0
TABLE
  2
APPID
  5
9
330
0
100
AcDbSymbolTable
 70
     7
  0
APPID
  5
12
330
9
100
AcDbSymbolTableRecord
100
AcDbRegAppTableRecord
  2
ACAD
 70
     0
  0
APPID
  5
9E
330
9
100
AcDbSymbolTableRecord
100
AcDbRegAppTableRecord
  2
ACAD_PSEXT
 70
     0
  0
APPID
  5
133
330
9
100
AcDbSymbolTableRecord
100
AcDbRegAppTableRecord
  2
AcadAnnoPO
 70
     0
  0
APPID
  5
134
330
9
100
AcDbSymbolTableRecord
100
AcDbRegAppTableRecord
  2
AcadAnnotative
 70
     0
  0
APPID
  5
135
330
9
100
AcDbSymbolTableRecord
100
AcDbRegAppTableRecord
  2
ACAD_DSTYLE_DIMJAG
 70
     0
  0
APPID
  5
136
330
9
100
AcDbSymbolTableRecord
100
AcDbRegAppTableRecord
  2
ACAD_DSTYLE_DIMTALN
 70
     0
  0
APPID
  5
165
330
9
100
AcDbSymbolTableRecord
100
AcDbRegAppTableRecord
  2
ACAD_MLEADERVER
 70
     0
  0
ENDTAB
  0
TABLE
  2
DIMSTYLE
  5
A
330
0
100
AcDbSymbolTable
 70
     2
100
AcDbDimStyleTable
 71
     2
340
27
340
137
  0
DIMSTYLE
105
27
330
A
100
AcDbSymbolTableRecord
100
AcDbDimStyleTableRecord
  2
ISO-25
 70
     0
 41
2.5
 42
0.625
 43
3.75
 44
1.25
 73
     0
 74
     0
 77
     1
 78
     8
140
2.5
141
2.5
143
0.03937007874016
147
0.625
171
     3
172
     1
271
     2
272
     2
274
     3
278
    44
283
     0
284
     8
340
11
  0
DIMSTYLE
105
137
330
A
100
AcDbSymbolTableRecord
100
AcDbDimStyleTableRecord
  2
Annotative
 70
     0
 40
0.0
 41
2.5
 42
0.625
 43
3.75
 44
1.25
 73
     0
 74
     0
 77
     1
 78
     8
140
2.5
141
2.5
143
0.03937007874016
147
0.625
171
     3
172
     1
271
     2
272
     2
274
     3
278
    44
283
     0
284
     8
340
11
1001
AcadAnnotative
1000
AnnotativeData
1002
{
1070
     1
1070
     1
1002
}
1001
ACAD_DSTYLE_DIMJAG
1070
   388
1040
1.5
1001
ACAD_DSTYLE_DIMTALN
1070
   392
1070
     0
  0
ENDTAB
  0
TABLE
  2
BLOCK_RECORD
  5
1
330
0
100
AcDbSymbolTable
 70
     5
  0
BLOCK_RECORD
  5
1F
330
1
100
AcDbSymbolTableRecord
100
AcDbBlockTableRecord
  2
*Model_Space
340
22
  0
BLOCK_RECORD
  5
D2
330
1
100
AcDbSymbolTableRecord
100
AcDbBlockTableRecord
  2
*Paper_Space
340
D3
  0
BLOCK_RECORD
  5
D6
330
1
100
AcDbSymbolTableRecord
100
AcDbBlockTableRecord
  2
*Paper_Space0
340
D7
  0
BLOCK_RECORD
  5
607
330
1
100
AcDbSymbolTableRecord
100
AcDbBlockTableRecord
  2
1
340
0
310
2800000020000000200000000100080000000000000400000000000000000000000000000000000000000000000080000080000000808000800000008000800080800000C0C0C000C0DCC000F0CAA6000020400000206000002080000020A0000020C0000020E00000400000004020000040400000406000004080000040A0
310
000040C0000040E00000600000006020000060400000606000006080000060A0000060C0000060E00000800000008020000080400000806000008080000080A0000080C0000080E00000A0000000A0200000A0400000A0600000A0800000A0A00000A0C00000A0E00000C0000000C0200000C0400000C0600000C0800000C0
310
A00000C0C00000C0E00000E0000000E0200000E0400000E0600000E0800000E0A00000E0C00000E0E00040000000400020004000400040006000400080004000A0004000C0004000E00040200000402020004020400040206000402080004020A0004020C0004020E000404000004040200040404000404060004040800040
310
40A0004040C0004040E00040600000406020004060400040606000406080004060A0004060C0004060E00040800000408020004080400040806000408080004080A0004080C0004080E00040A0000040A0200040A0400040A0600040A0800040A0A00040A0C00040A0E00040C0000040C0200040C0400040C0600040C08000
310
40C0A00040C0C00040C0E00040E0000040E0200040E0400040E0600040E0800040E0A00040E0C00040E0E00080000000800020008000400080006000800080008000A0008000C0008000E00080200000802020008020400080206000802080008020A0008020C0008020E00080400000804020008040400080406000804080
310
008040A0008040C0008040E00080600000806020008060400080606000806080008060A0008060C0008060E00080800000808020008080400080806000808080008080A0008080C0008080E00080A0000080A0200080A0400080A0600080A0800080A0A00080A0C00080A0E00080C0000080C0200080C0400080C0600080C0
310
800080C0A00080C0C00080C0E00080E0000080E0200080E0400080E0600080E0800080E0A00080E0C00080E0E000C0000000C0002000C0004000C0006000C0008000C000A000C000C000C000E000C0200000C0202000C0204000C0206000C0208000C020A000C020C000C020E000C0400000C0402000C0404000C0406000C0
310
408000C040A000C040C000C040E000C0600000C0602000C0604000C0606000C0608000C060A000C060C000C060E000C0800000C0802000C0804000C0806000C0808000C080A000C080C000C080E000C0A00000C0A02000C0A04000C0A06000C0A08000C0A0A000C0A0C000C0A0E000C0C00000C0C02000C0C04000C0C06000
310
C0C08000C0C0A000F0FBFF00A4A0A000808080000000FF0000FF000000FFFF00FF000000FF00FF00FFFF0000FFFFFF0000000000000000000000000000000000000000000000000000000000000000000000000000000000000000000000000000000000000000000000000000000000000000000000000000000000000000
310
00000000000000000000000000000000000000000000000000000000000000000000000000000000000000000000000000000000000000000000000000000000000000000000000000000000000000000000000000000000000000000000000000000000000000000000000000000000000000000000000000000000000000
310
00000000000000000000000000000000000000000000000000000000000000000000000000000000000000000000000000000000000000000000000000000000000000000000000000000000000000000000000000000000000000000000000000000000000000000000000000000000000000000000000000000000000000
310
00000000000000000000000000000000000000000000000000000000000000000000000000000000000000000000000000000000000000000000000000000000000000000000000000000000000000000000000000FFFFFF00FFFFFF00FFFFFF0000FFFF0000FFFFFF00FFFFFF00FFFFFF00000000FF00FF00FF00FF00FF00
310
FF0000FFFF0000FF00FF00FF00FF00FF00FF00000000FF00FF00FF00FF00FF00FF0000FFFF0000FF00FF00FF00FF00FF00FF000000FFFFFFFFFFFFFFFFFFFFFFFFFFFFFFFFFFFFFFFFFFFFFFFFFFFFFFFFFFFF0000FFFFFFFFFFFFFFFFFFFFFFFFFFFFFFFFFFFFFFFFFFFFFFFFFFFFFFFFFFFF000000FFFFFF00FFFFFF00FF
310
FFFF0000FFFF0000FFFFFF00FFFFFF00FFFFFF000000000000000000000000000000000000000000000000000000000000000000000000000000000000000000000000000000000000000000000000000000000000000000000000000000000000000000000000000000000000000000000000000000000000000000000000
310
00000000000000000000000000000000000000000000000000000000000000000000000000000000000000000000000000000000000000000000000000000000000000000000000000000000000000000000000000000000000000000000000000000000000000000000000000000000000000000000000000000000000000
310
00000000000000000000000000000000000000000000000000000000000000000000000000000000000000000000000000000000000000000000000000000000000000000000000000000000000000000000000000000000000000000000000000000000000000000000000000000000000000000000000000000000000000
310
0000000000000000000000000000000000000000000000000000000000000000000000000000000000000000000000000000000000000000
102
{BLKREFS
331
6B6
102
}
1001
ACAD
1000
DesignCenter Data
1002
{
1070
     1
1070
     4
1002
}
  0
BLOCK_RECORD
  5
6B7
330
1
100
AcDbSymbolTableRecord
100
AcDbBlockTableRecord
  2
2
340
0
310
2800000020000000200000000100080000000000000400000000000000000000000000000000000000000000000080000080000000808000800000008000800080800000C0C0C000C0DCC000F0CAA6000020400000206000002080000020A0000020C0000020E00000400000004020000040400000406000004080000040A0
310
000040C0000040E00000600000006020000060400000606000006080000060A0000060C0000060E00000800000008020000080400000806000008080000080A0000080C0000080E00000A0000000A0200000A0400000A0600000A0800000A0A00000A0C00000A0E00000C0000000C0200000C0400000C0600000C0800000C0
310
A00000C0C00000C0E00000E0000000E0200000E0400000E0600000E0800000E0A00000E0C00000E0E00040000000400020004000400040006000400080004000A0004000C0004000E00040200000402020004020400040206000402080004020A0004020C0004020E000404000004040200040404000404060004040800040
310
40A0004040C0004040E00040600000406020004060400040606000406080004060A0004060C0004060E00040800000408020004080400040806000408080004080A0004080C0004080E00040A0000040A0200040A0400040A0600040A0800040A0A00040A0C00040A0E00040C0000040C0200040C0400040C0600040C08000
310
40C0A00040C0C00040C0E00040E0000040E0200040E0400040E0600040E0800040E0A00040E0C00040E0E00080000000800020008000400080006000800080008000A0008000C0008000E00080200000802020008020400080206000802080008020A0008020C0008020E00080400000804020008040400080406000804080
310
008040A0008040C0008040E00080600000806020008060400080606000806080008060A0008060C0008060E00080800000808020008080400080806000808080008080A0008080C0008080E00080A0000080A0200080A0400080A0600080A0800080A0A00080A0C00080A0E00080C0000080C0200080C0400080C0600080C0
310
800080C0A00080C0C00080C0E00080E0000080E0200080E0400080E0600080E0800080E0A00080E0C00080E0E000C0000000C0002000C0004000C0006000C0008000C000A000C000C000C000E000C0200000C0202000C0204000C0206000C0208000C020A000C020C000C020E000C0400000C0402000C0404000C0406000C0
310
408000C040A000C040C000C040E000C0600000C0602000C0604000C0606000C0608000C060A000C060C000C060E000C0800000C0802000C0804000C0806000C0808000C080A000C080C000C080E000C0A00000C0A02000C0A04000C0A06000C0A08000C0A0A000C0A0C000C0A0E000C0C00000C0C02000C0C04000C0C06000
310
C0C08000C0C0A000F0FBFF00A4A0A000808080000000FF0000FF000000FFFF00FF000000FF00FF00FFFF0000FFFFFF0000000000000000000000000000000000000000000000000000000000000000000000000000000000000000000000000000000000000000000000000000000000000000000000000000000000000000
310
00000000000000000000000000000000000000000000000000000000000000000000000000000000000000000000000000000000000000000000000000000000000000000000000000000000000000000000000000000000000000000000000000000000000000000000000000000000000000000000000000000000000000
310
00000000000000000000000000000000000000000000000000000000000000000000000000000000000000000000000000000000000000000000000000000000000000000000000000000000000000000000000000000000000000000000000000000000000000000000000000000000000000000000000000000000000000
310
00000000000000000000000000000000000000000000000000000000000000000000000000000000000000000000000000000000000000000000000000000000000000000000000000000000000000000000000000000000000000000000000000000000000000000000000000000000000000000000000000000000000000
310
000000000000000000000000000000000000000000FFFFFFFFFFFFFFFFFFFFFFFFFFFFFFFFFFFFFFFFFFFFFFFFFFFFFFFFFFFF0000FFFFFFFFFFFFFFFFFFFFFFFFFFFFFFFFFFFFFFFFFFFFFFFFFFFFFFFFFFFF0000000000000000000000000000000000000000000000000000000000000000000000000000000000000000
310
00000000000000000000000000000000000000000000000000000000000000000000000000000000000000000000000000000000000000000000000000000000000000000000000000000000000000000000000000000000000000000000000000000000000000000000000000000000000000000000000000000000000000
310
00000000000000000000000000000000000000000000000000000000000000000000000000000000000000000000000000000000000000000000000000000000000000000000000000000000000000000000000000000000000000000000000000000000000000000000000000000000000000000000000000000000000000
310
00000000000000000000000000000000000000000000000000000000000000000000000000000000000000000000000000000000000000000000000000000000000000000000000000000000000000000000000000000000000000000000000000000000000000000000000000000000000000000000000000000000000000
310
0000000000000000000000000000000000000000000000000000000000000000000000000000000000000000000000000000000000000000
102
{BLKREFS
331
751
102
}
1001
ACAD
1000
DesignCenter Data
1002
{
1070
     1
1070
     4
1002
}
  0
BLOCK_RECORD
  5
752
330
1
100
AcDbSymbolTableRecord
100
AcDbBlockTableRecord
  2
3
340
0
310
2800000020000000200000000100080000000000000400000000000000000000000000000000000000000000000080000080000000808000800000008000800080800000C0C0C000C0DCC000F0CAA6000020400000206000002080000020A0000020C0000020E00000400000004020000040400000406000004080000040A0
310
000040C0000040E00000600000006020000060400000606000006080000060A0000060C0000060E00000800000008020000080400000806000008080000080A0000080C0000080E00000A0000000A0200000A0400000A0600000A0800000A0A00000A0C00000A0E00000C0000000C0200000C0400000C0600000C0800000C0
310
A00000C0C00000C0E00000E0000000E0200000E0400000E0600000E0800000E0A00000E0C00000E0E00040000000400020004000400040006000400080004000A0004000C0004000E00040200000402020004020400040206000402080004020A0004020C0004020E000404000004040200040404000404060004040800040
310
40A0004040C0004040E00040600000406020004060400040606000406080004060A0004060C0004060E00040800000408020004080400040806000408080004080A0004080C0004080E00040A0000040A0200040A0400040A0600040A0800040A0A00040A0C00040A0E00040C0000040C0200040C0400040C0600040C08000
310
40C0A00040C0C00040C0E00040E0000040E0200040E0400040E0600040E0800040E0A00040E0C00040E0E00080000000800020008000400080006000800080008000A0008000C0008000E00080200000802020008020400080206000802080008020A0008020C0008020E00080400000804020008040400080406000804080
310
008040A0008040C0008040E00080600000806020008060400080606000806080008060A0008060C0008060E00080800000808020008080400080806000808080008080A0008080C0008080E00080A0000080A0200080A0400080A0600080A0800080A0A00080A0C00080A0E00080C0000080C0200080C0400080C0600080C0
310
800080C0A00080C0C00080C0E00080E0000080E0200080E0400080E0600080E0800080E0A00080E0C00080E0E000C0000000C0002000C0004000C0006000C0008000C000A000C000C000C000E000C0200000C0202000C0204000C0206000C0208000C020A000C020C000C020E000C0400000C0402000C0404000C0406000C0
310
408000C040A000C040C000C040E000C0600000C0602000C0604000C0606000C0608000C060A000C060C000C060E000C0800000C0802000C0804000C0806000C0808000C080A000C080C000C080E000C0A00000C0A02000C0A04000C0A06000C0A08000C0A0A000C0A0C000C0A0E000C0C00000C0C02000C0C04000C0C06000
310
C0C08000C0C0A000F0FBFF00A4A0A000808080000000FF0000FF000000FFFF00FF000000FF00FF00FFFF0000FFFFFF000000000000000000000000000000000000000000000000000000000000000000000000000000000000000000FFFFFFFFFFFFFFFF000000000000000000000000000000000000000000000000FFFFFF
310
FFFFFFFFFF000000000000000000000000000000000000000000000000FF000000000000FF000000000000000000000000000000000000000000000000FF000000000000FF000000000000000000000000000000000000000000000000FF000000000000FF000000000000000000000000000000000000000000000000FF00
310
0000000000FF000000000000000000000000000000000000000000000000FF000000000000FF000000000000000000000000000000000000000000000000FF000000000000FF000000000000000000000000000000000000000000000000FF000000000000FF000000000000000000000000000000000000000000000000FF
310
000000000000FF000000000000000000000000000000000000000000000000FF000000000000FF000000000000000000000000000000000000000000000000FF000000000000FF000000000000000000000000000000000000000000000000FF000000000000FF000000000000000000000000000000000000000000000000
310
FF000000000000FF000000000000000000000000000000000000000000000000FF000000000000FF0000000000000000000000000000000000000000000000FFFFFFFFFFFFFFFFFFFF00000000000000000000000000000000000000000000FF0000000000000000FF00000000000000000000000000000000000000000000
310
FF0000000000000000FF00000000000000000000000000000000000000000000FF0000000000000000FF00000000000000000000000000000000000000000000FF0000000000000000FF00000000000000000000000000000000000000000000FFFFFFFFFFFFFFFFFFFF000000000000000000000000000000000000000000
310
00FFFFFFFFFFFFFFFFFFFF00000000000000000000000000000000000000000000FFA4A4A4A4A4A4A4A4FF00000000000000000000000000000000000000000000FF0000000000000000FF00000000000000000000000000000000000000000000FF0000000000000000FF0000000000000000000000000000000000000000
310
0000FF0000000000000000FF00000000000000000000000000000000000000000000FF0000000000000000FF00000000000000000000000000000000000000000000FF0000000000000000FF00000000000000000000000000000000000000000000FF0000000000000000FF00000000000000000000000000000000000000
310
000000FFFFFFFFFFFFFFFFFFFF00000000000000000000000000000000000000000000000000000000000000000000000000000000000000
102
{BLKREFS
331
775
102
}
1001
ACAD
1000
DesignCenter Data
1002
{
1070
     1
1070
     4
1002
}
  0
BLOCK_RECORD
  5
776
330
1
100
AcDbSymbolTableRecord
100
AcDbBlockTableRecord
  2
4
340
0
310
2800000020000000200000000100080000000000000400000000000000000000000000000000000000000000000080000080000000808000800000008000800080800000C0C0C000C0DCC000F0CAA6000020400000206000002080000020A0000020C0000020E00000400000004020000040400000406000004080000040A0
310
000040C0000040E00000600000006020000060400000606000006080000060A0000060C0000060E00000800000008020000080400000806000008080000080A0000080C0000080E00000A0000000A0200000A0400000A0600000A0800000A0A00000A0C00000A0E00000C0000000C0200000C0400000C0600000C0800000C0
310
A00000C0C00000C0E00000E0000000E0200000E0400000E0600000E0800000E0A00000E0C00000E0E00040000000400020004000400040006000400080004000A0004000C0004000E00040200000402020004020400040206000402080004020A0004020C0004020E000404000004040200040404000404060004040800040
310
40A0004040C0004040E00040600000406020004060400040606000406080004060A0004060C0004060E00040800000408020004080400040806000408080004080A0004080C0004080E00040A0000040A0200040A0400040A0600040A0800040A0A00040A0C00040A0E00040C0000040C0200040C0400040C0600040C08000
310
40C0A00040C0C00040C0E00040E0000040E0200040E0400040E0600040E0800040E0A00040E0C00040E0E00080000000800020008000400080006000800080008000A0008000C0008000E00080200000802020008020400080206000802080008020A0008020C0008020E00080400000804020008040400080406000804080
310
008040A0008040C0008040E00080600000806020008060400080606000806080008060A0008060C0008060E00080800000808020008080400080806000808080008080A0008080C0008080E00080A0000080A0200080A0400080A0600080A0800080A0A00080A0C00080A0E00080C0000080C0200080C0400080C0600080C0
310
800080C0A00080C0C00080C0E00080E0000080E0200080E0400080E0600080E0800080E0A00080E0C00080E0E000C0000000C0002000C0004000C0006000C0008000C000A000C000C000C000E000C0200000C0202000C0204000C0206000C0208000C020A000C020C000C020E000C0400000C0402000C0404000C0406000C0
310
408000C040A000C040C000C040E000C0600000C0602000C0604000C0606000C0608000C060A000C060C000C060E000C0800000C0802000C0804000C0806000C0808000C080A000C080C000C080E000C0A00000C0A02000C0A04000C0A06000C0A08000C0A0A000C0A0C000C0A0E000C0C00000C0C02000C0C04000C0C06000
310
C0C08000C0C0A000F0FBFF00A4A0A000808080000000FF0000FF000000FFFF00FF000000FF00FF00FFFF0000FFFFFF0000000000000000000000000000000000000000000000000000000000000000000000000000000000000000000000000000000000000000000000000000000000000000000000000000000000000000
310
00000000000000000000000000000000000000000000000000000000000000000000000000000000000000000000000000000000000000000000000000000000000000000000000000000000000000000000000000000000000000000000000000000000000000000000000000000000000000000000000000000000000000
310
000000000000000000000000FFFFFF0000000000000000000000000000000000000000000000000000000000FFFFFF00000000000000000000000000000000000000000000000000FFFFFF00FF00FF00000000000000000000000000000000000000000000000000FF00FF00FFFFFF00000000000000000000000000000000
310
0000000000FFFFFF00FF00FFFFFFFFFFFFFF00000000000000000000000000000000000000FF00FF00FFFFFFFFFFFFFFFFFF000000000000000000000000000000FFFFFF00FF00FF00FFFFFF00FF00FFFF00000000000000000000000000000000FF0000FFFF00FFFFFFFFFFFFFFFFFFFF000000000000000000000000FFFF
310
FFFFFF0000FFFFFFFFFFFF0000FFFFFFFF00000000000000000000FFFF00FF0000FFFF00FFFFFFFFFFFFFFFFFFFF000000000000000000000000FFFFFFFFFF0000FFFFFFFFFFFFFFFFFFFFFFFF00000000000000000000FFFFFFFF0000FFFFFFFFFFFFFFFFFFFFFFFFFF00000000000000000000000000FF00FF00FFFFFFFF
310
FFFFFFFFFFFFFF00FFFF0000000000000000000000000000FF00FFFFFFFF00FFFF00FFFFFFFFFF0000000000000000000000000000000000FFFFFFFFFFFFFFFFFFFFFF00000000000000000000000000000000000000FFFFFFFFFFFFFF00FFFFFFFFFF00000000000000000000000000000000000000FFFFFFFFFFFFFFFFFF
310
000000000000000000000000000000000000000000000000FFFF00FF00FFFFFF00000000000000000000000000000000000000000000000000FFFFFF0000000000000000000000000000000000000000000000000000000000FFFFFF0000000000000000000000000000000000000000000000000000000000000000000000
310
00000000000000000000000000000000000000000000000000000000000000000000000000000000000000000000000000000000000000000000000000000000000000000000000000000000000000000000000000000000000000000000000000000000000000000000000000000000000000000000000000000000000000
310
0000000000000000000000000000000000000000000000000000000000000000000000000000000000000000000000000000000000000000
102
{BLKREFS
331
841
102
}
1001
ACAD
1000
DesignCenter Data
1002
{
1070
     1
1070
     4
1002
}
  0
ENDTAB
  0
ENDSEC
  0
SECTION
  2
BLOCKS
  0
BLOCK
  5
20
330
1F
100
AcDbEntity
  8
0
100
AcDbBlockBegin
  2
*Model_Space
 70
     0
 10
0.0
 20
0.0
 30
0.0
  3
*Model_Space
  1

  0
ENDBLK
  5
21
330
1F
100
AcDbEntity
  8
0
100
AcDbBlockEnd
  0
BLOCK
  5
D4
330
D2
100
AcDbEntity
 67
     1
  8
0
100
AcDbBlockBegin
  2
*Paper_Space
 70
     0
 10
0.0
 20
0.0
 30
0.0
  3
*Paper_Space
  1

  0
ENDBLK
  5
D5
330
D2
100
AcDbEntity
 67
     1
  8
0
100
AcDbBlockEnd
  0
BLOCK
  5
D8
330
D6
100
AcDbEntity
 67
     1
  8
0
100
AcDbBlockBegin
  2
*Paper_Space0
 70
     0
 10
0.0
 20
0.0
 30
0.0
  3
*Paper_Space0
  1

  0
ENDBLK
  5
D9
330
D6
100
AcDbEntity
 67
     1
  8
0
100
AcDbBlockEnd
  0
BLOCK
  5
608
330
607
100
AcDbEntity
  8
0
100
AcDbBlockBegin
  2
1
 70
     0
 10
0.0
 20
0.0
 30
0.0
  3
1
  1

  0
ARC
  5
60A
330
607
100
AcDbEntity
  8
0
  6
Continuous
 62
     7
370
    15
100
AcDbCircle
 10
2151.501956959607
 20
739.2735923368841
 30
0.0
 40
0.200000000000017
100
AcDbArc
 50
180.0
 51
270.0
  0
ARC
  5
60B
330
607
100
AcDbEntity
  8
0
  6
Continuous
 62
     7
370
    15
100
AcDbCircle
 10
2157.951956959607
 20
739.2735923368841
 30
0.0
 40
0.1999999999999886
100
AcDbArc
 50
270.0
 51
0.0
  0
ARC
  5
60C
330
607
100
AcDbEntity
  8
0
  6
Continuous
 62
     7
370
    15
100
AcDbCircle
 10
2166.501956959609
 20
739.2735923368841
 30
0.0
 40
0.200000000000017
100
AcDbArc
 50
180.0
 51
270.0
  0
ARC
  5
60D
330
607
100
AcDbEntity
  8
0
  6
Continuous
 62
     7
370
    15
100
AcDbCircle
 10
2172.951956959609
 20
739.2735923368841
 30
0.0
 40
0.1999999999999886
100
AcDbArc
 50
270.0
 51
0.0
  0
ARC
  5
60E
330
607
100
AcDbEntity
  8
0
  6
Continuous
 62
     7
370
    15
100
AcDbCircle
 10
2181.501956959609
 20
739.2735923368841
 30
0.0
 40
0.200000000000017
100
AcDbArc
 50
180.0
 51
270.0
  0
ARC
  5
60F
330
607
100
AcDbEntity
  8
0
  6
Continuous
 62
     7
370
    15
100
AcDbCircle
 10
2187.951956959609
 20
739.2735923368841
 30
0.0
 40
0.200000000000017
100
AcDbArc
 50
270.0
 51
0.0
  0
ARC
  5
610
330
607
100
AcDbEntity
  8
0
  6
Continuous
 62
     7
370
    15
100
AcDbCircle
 10
2196.501956959609
 20
739.2735923368841
 30
0.0
 40
0.200000000000017
100
AcDbArc
 50
180.0
 51
270.0
  0
ARC
  5
611
330
607
100
AcDbEntity
  8
0
  6
Continuous
 62
     7
370
    15
100
AcDbCircle
 10
2202.951956959608
 20
739.2735923368841
 30
0.0
 40
0.1999999999999886
100
AcDbArc
 50
270.0
 51
0.0
  0
ARC
  5
612
330
607
100
AcDbEntity
  8
0
  6
Continuous
 62
     7
370
    15
100
AcDbCircle
 10
2211.501956959609
 20
739.2735923368841
 30
0.0
 40
0.1999999999999886
100
AcDbArc
 50
180.0
 51
270.0
  0
ARC
  5
613
330
607
100
AcDbEntity
  8
0
  6
Continuous
 62
     7
370
    15
100
AcDbCircle
 10
2217.951956959609
 20
739.2735923368841
 30
0.0
 40
0.1999999999999886
100
AcDbArc
 50
270.0
 51
0.0
  0
ARC
  5
614
330
607
100
AcDbEntity
  8
0
  6
Continuous
 62
     7
370
    15
100
AcDbCircle
 10
2226.501956959609
 20
739.2735923368841
 30
0.0
 40
0.2000000000000455
100
AcDbArc
 50
180.0
 51
270.0
  0
ARC
  5
615
330
607
100
AcDbEntity
  8
0
  6
Continuous
 62
     7
370
    15
100
AcDbCircle
 10
2232.951956959609
 20
739.2735923368841
 30
0.0
 40
0.1999999999999886
100
AcDbArc
 50
270.0
 51
0.0
  0
ARC
  5
616
330
607
100
AcDbEntity
  8
0
  6
Continuous
 62
     7
370
    15
100
AcDbCircle
 10
2241.501956959609
 20
739.2735923368841
 30
0.0
 40
0.2000000000000455
100
AcDbArc
 50
180.0
 51
270.0
  0
ARC
  5
617
330
607
100
AcDbEntity
  8
0
  6
Continuous
 62
     7
370
    15
100
AcDbCircle
 10
2247.951956959608
 20
739.2735923368841
 30
0.0
 40
0.1999999999999886
100
AcDbArc
 50
270.0
 51
0.0
  0
LINE
  5
618
330
607
100
AcDbEntity
  8
0
  6
Continuous
 62
     7
370
    15
100
AcDbLine
 10
2158.151956959607
 20
739.2735923368841
 30
0.0
 11
2158.151956959607
 21
744.4735923368841
 31
0.0
  0
LINE
  5
619
330
607
100
AcDbEntity
  8
0
  6
Continuous
 62
     7
370
    15
100
AcDbLine
 10
2151.301956959607
 20
744.4735923368841
 30
0.0
 11
2151.301956959607
 21
739.2735923368841
 31
0.0
  0
LINE
  5
61A
330
607
100
AcDbEntity
  8
0
  6
Continuous
 62
     7
370
    15
100
AcDbLine
 10
2173.151956959609
 20
739.2735923368841
 30
0.0
 11
2173.151956959609
 21
744.4735923368841
 31
0.0
  0
LINE
  5
61B
330
607
100
AcDbEntity
  8
0
  6
Continuous
 62
     7
370
    15
100
AcDbLine
 10
2166.301956959609
 20
744.4735923368841
 30
0.0
 11
2166.301956959609
 21
739.2735923368841
 31
0.0
  0
LINE
  5
61C
330
607
100
AcDbEntity
  8
0
  6
Continuous
 62
     7
370
    15
100
AcDbLine
 10
2188.151956959609
 20
739.2735923368841
 30
0.0
 11
2188.151956959609
 21
744.4735923368841
 31
0.0
  0
LINE
  5
61D
330
607
100
AcDbEntity
  8
0
  6
Continuous
 62
     7
370
    15
100
AcDbLine
 10
2181.301956959609
 20
744.4735923368841
 30
0.0
 11
2181.301956959609
 21
739.2735923368841
 31
0.0
  0
LINE
  5
61E
330
607
100
AcDbEntity
  8
0
  6
Continuous
 62
     7
370
    15
100
AcDbLine
 10
2203.151956959608
 20
739.2735923368841
 30
0.0
 11
2203.151956959608
 21
744.4735923368841
 31
0.0
  0
LINE
  5
61F
330
607
100
AcDbEntity
  8
0
  6
Continuous
 62
     7
370
    15
100
AcDbLine
 10
2196.301956959608
 20
744.4735923368841
 30
0.0
 11
2196.301956959608
 21
739.2735923368841
 31
0.0
  0
LINE
  5
620
330
607
100
AcDbEntity
  8
0
  6
Continuous
 62
     7
370
    15
100
AcDbLine
 10
2218.151956959609
 20
739.2735923368841
 30
0.0
 11
2218.151956959609
 21
744.4735923368841
 31
0.0
  0
LINE
  5
621
330
607
100
AcDbEntity
  8
0
  6
Continuous
 62
     7
370
    15
100
AcDbLine
 10
2211.301956959609
 20
744.4735923368841
 30
0.0
 11
2211.301956959609
 21
739.2735923368841
 31
0.0
  0
LINE
  5
622
330
607
100
AcDbEntity
  8
0
  6
Continuous
 62
     7
370
    15
100
AcDbLine
 10
2233.151956959609
 20
739.2735923368841
 30
0.0
 11
2233.151956959609
 21
744.4735923368841
 31
0.0
  0
LINE
  5
623
330
607
100
AcDbEntity
  8
0
  6
Continuous
 62
     7
370
    15
100
AcDbLine
 10
2226.301956959609
 20
744.4735923368841
 30
0.0
 11
2226.301956959609
 21
739.2735923368841
 31
0.0
  0
LINE
  5
624
330
607
100
AcDbEntity
  8
0
  6
Continuous
 62
     7
370
    15
100
AcDbLine
 10
2248.151956959608
 20
739.2735923368841
 30
0.0
 11
2248.151956959608
 21
744.4735923368841
 31
0.0
  0
LINE
  5
625
330
607
100
AcDbEntity
  8
0
  6
Continuous
 62
     7
370
    15
100
AcDbLine
 10
2241.301956959608
 20
744.4735923368841
 30
0.0
 11
2241.301956959608
 21
739.2735923368841
 31
0.0
  0
LINE
  5
626
330
607
100
AcDbEntity
  8
0
  6
Continuous
 62
     7
370
    15
100
AcDbLine
 10
2157.725279353067
 20
734.1735923369204
 30
0.0
 11
2157.625279353029
 21
734.2735923369015
 31
0.0
  0
LINE
  5
627
330
607
100
AcDbEntity
  8
0
  6
Continuous
 62
     7
370
    15
100
AcDbLine
 10
2151.825279353007
 20
734.2735923369015
 30
0.0
 11
2151.725279352969
 21
734.1735923369204
 31
0.0
  0
LINE
  5
628
330
607
100
AcDbEntity
  8
0
  6
Continuous
 62
     7
370
    15
100
AcDbLine
 10
2157.725279353018
 20
723.4735923368841
 30
0.0
 11
2157.725279353018
 21
734.1735923369204
 31
0.0
  0
LINE
  5
629
330
607
100
AcDbEntity
  8
0
  6
Continuous
 62
     7
370
    15
100
AcDbLine
 10
2151.725279353018
 20
734.1735923369204
 30
0.0
 11
2151.725279353018
 21
723.4735923368841
 31
0.0
  0
LINE
  5
62A
330
607
100
AcDbEntity
  8
0
  6
Continuous
 62
     7
370
    15
100
AcDbLine
 10
2172.728634566198
 20
723.4735923368841
 30
0.0
 11
2172.728634566198
 21
734.1735923369204
 31
0.0
  0
LINE
  5
62B
330
607
100
AcDbEntity
  8
0
  6
Continuous
 62
     7
370
    15
100
AcDbLine
 10
2166.728634566198
 20
734.1735923369204
 30
0.0
 11
2166.728634566198
 21
723.4735923368841
 31
0.0
  0
LINE
  5
62C
330
607
100
AcDbEntity
  8
0
  6
Continuous
 62
     7
370
    15
100
AcDbLine
 10
2172.728634566247
 20
734.1735923369204
 30
0.0
 11
2172.628634566209
 21
734.2735923369015
 31
0.0
  0
LINE
  5
62D
330
607
100
AcDbEntity
  8
0
  6
Continuous
 62
     7
370
    15
100
AcDbLine
 10
2166.828634566187
 20
734.2735923369015
 30
0.0
 11
2166.728634566149
 21
734.1735923369204
 31
0.0
  0
LINE
  5
62E
330
607
100
AcDbEntity
  8
0
  6
Continuous
 62
     7
370
    15
100
AcDbLine
 10
2187.728634566247
 20
734.1735923369204
 30
0.0
 11
2187.628634566209
 21
734.2735923369015
 31
0.0
  0
LINE
  5
62F
330
607
100
AcDbEntity
  8
0
  6
Continuous
 62
     7
370
    15
100
AcDbLine
 10
2181.828634566187
 20
734.2735923369015
 30
0.0
 11
2181.728634566149
 21
734.1735923369204
 31
0.0
  0
LINE
  5
630
330
607
100
AcDbEntity
  8
0
  6
Continuous
 62
     7
370
    15
100
AcDbLine
 10
2187.728634566198
 20
723.4735923368841
 30
0.0
 11
2187.728634566198
 21
734.1735923369204
 31
0.0
  0
LINE
  5
631
330
607
100
AcDbEntity
  8
0
  6
Continuous
 62
     7
370
    15
100
AcDbLine
 10
2181.728634566198
 20
734.1735923369204
 30
0.0
 11
2181.728634566198
 21
723.4735923368841
 31
0.0
  0
LINE
  5
632
330
607
100
AcDbEntity
  8
0
  6
Continuous
 62
     7
370
    15
100
AcDbLine
 10
2202.728634566198
 20
723.4735923368841
 30
0.0
 11
2202.728634566198
 21
734.1735923369204
 31
0.0
  0
LINE
  5
633
330
607
100
AcDbEntity
  8
0
  6
Continuous
 62
     7
370
    15
100
AcDbLine
 10
2196.728634566198
 20
734.1735923369204
 30
0.0
 11
2196.728634566198
 21
723.4735923368841
 31
0.0
  0
LINE
  5
634
330
607
100
AcDbEntity
  8
0
  6
Continuous
 62
     7
370
    15
100
AcDbLine
 10
2202.728634566247
 20
734.1735923369204
 30
0.0
 11
2202.628634566209
 21
734.2735923369015
 31
0.0
  0
LINE
  5
635
330
607
100
AcDbEntity
  8
0
  6
Continuous
 62
     7
370
    15
100
AcDbLine
 10
2196.828634566187
 20
734.2735923369015
 30
0.0
 11
2196.728634566149
 21
734.1735923369204
 31
0.0
  0
LINE
  5
636
330
607
100
AcDbEntity
  8
0
  6
Continuous
 62
     7
370
    15
100
AcDbLine
 10
2217.728634566247
 20
734.1735923369204
 30
0.0
 11
2217.628634566209
 21
734.2735923369015
 31
0.0
  0
LINE
  5
637
330
607
100
AcDbEntity
  8
0
  6
Continuous
 62
     7
370
    15
100
AcDbLine
 10
2211.828634566187
 20
734.2735923369015
 30
0.0
 11
2211.728634566149
 21
734.1735923369204
 31
0.0
  0
LINE
  5
638
330
607
100
AcDbEntity
  8
0
  6
Continuous
 62
     7
370
    15
100
AcDbLine
 10
2217.728634566198
 20
723.4735923368841
 30
0.0
 11
2217.728634566198
 21
734.1735923369204
 31
0.0
  0
LINE
  5
639
330
607
100
AcDbEntity
  8
0
  6
Continuous
 62
     7
370
    15
100
AcDbLine
 10
2211.728634566198
 20
734.1735923369204
 30
0.0
 11
2211.728634566198
 21
723.4735923368841
 31
0.0
  0
LINE
  5
63A
330
607
100
AcDbEntity
  8
0
  6
Continuous
 62
     7
370
    15
100
AcDbLine
 10
2232.728634566198
 20
723.4735923368841
 30
0.0
 11
2232.728634566198
 21
734.1735923369204
 31
0.0
  0
LINE
  5
63B
330
607
100
AcDbEntity
  8
0
  6
Continuous
 62
     7
370
    15
100
AcDbLine
 10
2226.728634566198
 20
734.1735923369204
 30
0.0
 11
2226.728634566198
 21
723.4735923368841
 31
0.0
  0
LINE
  5
63C
330
607
100
AcDbEntity
  8
0
  6
Continuous
 62
     7
370
    15
100
AcDbLine
 10
2232.728634566247
 20
734.1735923369204
 30
0.0
 11
2232.628634566209
 21
734.2735923369015
 31
0.0
  0
LINE
  5
63D
330
607
100
AcDbEntity
  8
0
  6
Continuous
 62
     7
370
    15
100
AcDbLine
 10
2226.828634566187
 20
734.2735923369015
 30
0.0
 11
2226.728634566149
 21
734.1735923369204
 31
0.0
  0
LINE
  5
63E
330
607
100
AcDbEntity
  8
0
  6
Continuous
 62
     7
370
    15
100
AcDbLine
 10
2247.728634566247
 20
734.1735923369204
 30
0.0
 11
2247.628634566209
 21
734.2735923369015
 31
0.0
  0
LINE
  5
63F
330
607
100
AcDbEntity
  8
0
  6
Continuous
 62
     7
370
    15
100
AcDbLine
 10
2241.828634566187
 20
734.2735923369015
 30
0.0
 11
2241.728634566149
 21
734.1735923369204
 31
0.0
  0
LINE
  5
640
330
607
100
AcDbEntity
  8
0
  6
Continuous
 62
     7
370
    15
100
AcDbLine
 10
2247.728634566198
 20
723.4735923368841
 30
0.0
 11
2247.728634566198
 21
734.1735923369204
 31
0.0
  0
LINE
  5
641
330
607
100
AcDbEntity
  8
0
  6
Continuous
 62
     7
370
    15
100
AcDbLine
 10
2241.728634566198
 20
734.1735923369204
 30
0.0
 11
2241.728634566198
 21
723.4735923368841
 31
0.0
  0
LINE
  5
642
330
607
100
AcDbEntity
  8
0
  6
Continuous
 62
     7
370
    15
100
AcDbLine
 10
2157.726956959607
 20
738.173592336884
 30
0.0
 11
2157.726956959607
 21
739.0735923368841
 31
0.0
  0
LINE
  5
643
330
607
100
AcDbEntity
  8
0
  6
Continuous
 62
     7
370
    15
100
AcDbLine
 10
2151.726956959607
 20
739.0735923368841
 30
0.0
 11
2151.726956959607
 21
738.173592336884
 31
0.0
  0
LINE
  5
644
330
607
100
AcDbEntity
  8
0
  6
Continuous
 62
     7
370
    15
100
AcDbLine
 10
2151.725279353032
 20
723.4735923368841
 30
0.0
 11
2151.925279352989
 21
723.273592336928
 31
0.0
  0
LINE
  5
645
330
607
100
AcDbEntity
  8
0
  6
Continuous
 62
     7
370
    15
100
AcDbLine
 10
2157.525279353048
 20
723.273592336928
 30
0.0
 11
2157.725279353004
 21
723.4735923368841
 31
0.0
  0
LINE
  5
646
330
607
100
AcDbEntity
  8
0
  6
Continuous
 62
     7
370
    15
100
AcDbLine
 10
2172.726956959609
 20
738.173592336884
 30
0.0
 11
2172.726956959609
 21
739.0735923368841
 31
0.0
  0
LINE
  5
647
330
607
100
AcDbEntity
  8
0
  6
Continuous
 62
     7
370
    15
100
AcDbLine
 10
2166.726956959609
 20
739.0735923368841
 30
0.0
 11
2166.726956959609
 21
738.173592336884
 31
0.0
  0
LINE
  5
648
330
607
100
AcDbEntity
  8
0
  6
Continuous
 62
     7
370
    15
100
AcDbLine
 10
2166.728634566212
 20
723.4735923368841
 30
0.0
 11
2166.928634566168
 21
723.273592336928
 31
0.0
  0
LINE
  5
649
330
607
100
AcDbEntity
  8
0
  6
Continuous
 62
     7
370
    15
100
AcDbLine
 10
2172.528634566228
 20
723.273592336928
 30
0.0
 11
2172.728634566184
 21
723.4735923368841
 31
0.0
  0
LINE
  5
64A
330
607
100
AcDbEntity
  8
0
  6
Continuous
 62
     7
370
    15
100
AcDbLine
 10
2187.726956959609
 20
738.173592336884
 30
0.0
 11
2187.726956959609
 21
739.0735923368841
 31
0.0
  0
LINE
  5
64B
330
607
100
AcDbEntity
  8
0
  6
Continuous
 62
     7
370
    15
100
AcDbLine
 10
2181.726956959609
 20
739.0735923368841
 30
0.0
 11
2181.726956959609
 21
738.173592336884
 31
0.0
  0
LINE
  5
64C
330
607
100
AcDbEntity
  8
0
  6
Continuous
 62
     7
370
    15
100
AcDbLine
 10
2181.728634566212
 20
723.4735923368841
 30
0.0
 11
2181.928634566168
 21
723.273592336928
 31
0.0
  0
LINE
  5
64D
330
607
100
AcDbEntity
  8
0
  6
Continuous
 62
     7
370
    15
100
AcDbLine
 10
2187.528634566227
 20
723.273592336928
 30
0.0
 11
2187.728634566184
 21
723.4735923368841
 31
0.0
  0
LINE
  5
64E
330
607
100
AcDbEntity
  8
0
  6
Continuous
 62
     7
370
    15
100
AcDbLine
 10
2202.726956959609
 20
738.173592336884
 30
0.0
 11
2202.726956959609
 21
739.0735923368841
 31
0.0
  0
LINE
  5
64F
330
607
100
AcDbEntity
  8
0
  6
Continuous
 62
     7
370
    15
100
AcDbLine
 10
2196.726956959609
 20
739.0735923368841
 30
0.0
 11
2196.726956959609
 21
738.173592336884
 31
0.0
  0
LINE
  5
650
330
607
100
AcDbEntity
  8
0
  6
Continuous
 62
     7
370
    15
100
AcDbLine
 10
2196.728634566212
 20
723.4735923368841
 30
0.0
 11
2196.928634566168
 21
723.273592336928
 31
0.0
  0
LINE
  5
651
330
607
100
AcDbEntity
  8
0
  6
Continuous
 62
     7
370
    15
100
AcDbLine
 10
2202.528634566228
 20
723.273592336928
 30
0.0
 11
2202.728634566184
 21
723.4735923368841
 31
0.0
  0
LINE
  5
652
330
607
100
AcDbEntity
  8
0
  6
Continuous
 62
     7
370
    15
100
AcDbLine
 10
2217.726956959609
 20
738.173592336884
 30
0.0
 11
2217.726956959609
 21
739.0735923368841
 31
0.0
  0
LINE
  5
653
330
607
100
AcDbEntity
  8
0
  6
Continuous
 62
     7
370
    15
100
AcDbLine
 10
2211.726956959608
 20
739.0735923368841
 30
0.0
 11
2211.726956959608
 21
738.173592336884
 31
0.0
  0
LINE
  5
654
330
607
100
AcDbEntity
  8
0
  6
Continuous
 62
     7
370
    15
100
AcDbLine
 10
2211.728634566212
 20
723.4735923368841
 30
0.0
 11
2211.928634566168
 21
723.273592336928
 31
0.0
  0
LINE
  5
655
330
607
100
AcDbEntity
  8
0
  6
Continuous
 62
     7
370
    15
100
AcDbLine
 10
2217.528634566228
 20
723.273592336928
 30
0.0
 11
2217.728634566184
 21
723.4735923368841
 31
0.0
  0
LINE
  5
656
330
607
100
AcDbEntity
  8
0
  6
Continuous
 62
     7
370
    15
100
AcDbLine
 10
2226.728634566212
 20
723.4735923368841
 30
0.0
 11
2226.928634566168
 21
723.273592336928
 31
0.0
  0
LINE
  5
657
330
607
100
AcDbEntity
  8
0
  6
Continuous
 62
     7
370
    15
100
AcDbLine
 10
2232.528634566227
 20
723.273592336928
 30
0.0
 11
2232.728634566184
 21
723.4735923368841
 31
0.0
  0
LINE
  5
658
330
607
100
AcDbEntity
  8
0
  6
Continuous
 62
     7
370
    15
100
AcDbLine
 10
2232.726956959609
 20
738.173592336884
 30
0.0
 11
2232.726956959609
 21
739.0735923368841
 31
0.0
  0
LINE
  5
659
330
607
100
AcDbEntity
  8
0
  6
Continuous
 62
     7
370
    15
100
AcDbLine
 10
2226.726956959609
 20
739.0735923368841
 30
0.0
 11
2226.726956959609
 21
738.173592336884
 31
0.0
  0
LINE
  5
65A
330
607
100
AcDbEntity
  8
0
  6
Continuous
 62
     7
370
    15
100
AcDbLine
 10
2241.728634566212
 20
723.4735923368841
 30
0.0
 11
2241.928634566168
 21
723.273592336928
 31
0.0
  0
LINE
  5
65B
330
607
100
AcDbEntity
  8
0
  6
Continuous
 62
     7
370
    15
100
AcDbLine
 10
2247.528634566228
 20
723.273592336928
 30
0.0
 11
2247.728634566184
 21
723.4735923368841
 31
0.0
  0
LINE
  5
65C
330
607
100
AcDbEntity
  8
0
  6
Continuous
 62
     7
370
    15
100
AcDbLine
 10
2247.726956959609
 20
738.173592336884
 30
0.0
 11
2247.726956959609
 21
739.0735923368841
 31
0.0
  0
LINE
  5
65D
330
607
100
AcDbEntity
  8
0
  6
Continuous
 62
     7
370
    15
100
AcDbLine
 10
2241.726956959609
 20
739.0735923368841
 30
0.0
 11
2241.726956959609
 21
738.173592336884
 31
0.0
  0
LINE
  5
65E
330
607
100
AcDbEntity
  8
0
  6
Continuous
 62
     7
370
    15
100
AcDbLine
 10
2158.226956959609
 20
734.2735923368841
 30
0.0
 11
2158.226956959609
 21
738.173592336884
 31
0.0
  0
LINE
  5
65F
330
607
100
AcDbEntity
  8
0
  6
Continuous
 62
     7
370
    15
100
AcDbLine
 10
2151.226956959605
 20
738.173592336884
 30
0.0
 11
2151.226956959607
 21
734.2735923368841
 31
0.0
  0
LINE
  5
660
330
607
100
AcDbEntity
  8
0
  6
Continuous
 62
     7
370
    15
100
AcDbLine
 10
2151.226956959605
 20
738.173592336884
 30
0.0
 11
2158.226956959609
 21
738.173592336884
 31
0.0
  0
LINE
  5
661
330
607
100
AcDbEntity
  8
0
  6
Continuous
 62
     7
370
    15
100
AcDbLine
 10
2151.226956959607
 20
734.2735923368841
 30
0.0
 11
2158.226956959609
 21
734.2735923368841
 31
0.0
  0
LINE
  5
662
330
607
100
AcDbEntity
  8
0
  6
Continuous
 62
     7
370
    15
100
AcDbLine
 10
2166.226956959607
 20
734.2735923368841
 30
0.0
 11
2166.226956959607
 21
738.173592336884
 31
0.0
  0
LINE
  5
663
330
607
100
AcDbEntity
  8
0
  6
Continuous
 62
     7
370
    15
100
AcDbLine
 10
2173.226956959609
 20
738.173592336884
 30
0.0
 11
2173.22695695961
 21
734.2735923368841
 31
0.0
  0
LINE
  5
664
330
607
100
AcDbEntity
  8
0
  6
Continuous
 62
     7
370
    15
100
AcDbLine
 10
2173.226956959609
 20
738.173592336884
 30
0.0
 11
2166.226956959607
 21
738.173592336884
 31
0.0
  0
LINE
  5
665
330
607
100
AcDbEntity
  8
0
  6
Continuous
 62
     7
370
    15
100
AcDbLine
 10
2173.22695695961
 20
734.2735923368841
 30
0.0
 11
2166.226956959607
 21
734.2735923368841
 31
0.0
  0
LINE
  5
666
330
607
100
AcDbEntity
  8
0
  6
Continuous
 62
     7
370
    15
100
AcDbLine
 10
2181.226956959607
 20
734.2735923368841
 30
0.0
 11
2181.226956959607
 21
738.173592336884
 31
0.0
  0
LINE
  5
667
330
607
100
AcDbEntity
  8
0
  6
Continuous
 62
     7
370
    15
100
AcDbLine
 10
2188.22695695961
 20
738.173592336884
 30
0.0
 11
2188.226956959609
 21
734.2735923368841
 31
0.0
  0
LINE
  5
668
330
607
100
AcDbEntity
  8
0
  6
Continuous
 62
     7
370
    15
100
AcDbLine
 10
2188.22695695961
 20
738.173592336884
 30
0.0
 11
2181.226956959607
 21
738.173592336884
 31
0.0
  0
LINE
  5
669
330
607
100
AcDbEntity
  8
0
  6
Continuous
 62
     7
370
    15
100
AcDbLine
 10
2188.226956959609
 20
734.2735923368841
 30
0.0
 11
2181.226956959607
 21
734.2735923368841
 31
0.0
  0
LINE
  5
66A
330
607
100
AcDbEntity
  8
0
  6
Continuous
 62
     7
370
    15
100
AcDbLine
 10
2196.226956959607
 20
734.2735923368841
 30
0.0
 11
2196.226956959607
 21
738.173592336884
 31
0.0
  0
LINE
  5
66B
330
607
100
AcDbEntity
  8
0
  6
Continuous
 62
     7
370
    15
100
AcDbLine
 10
2203.226956959611
 20
738.173592336884
 30
0.0
 11
2203.226956959609
 21
734.2735923368841
 31
0.0
  0
LINE
  5
66C
330
607
100
AcDbEntity
  8
0
  6
Continuous
 62
     7
370
    15
100
AcDbLine
 10
2203.226956959611
 20
738.173592336884
 30
0.0
 11
2196.226956959607
 21
738.173592336884
 31
0.0
  0
LINE
  5
66D
330
607
100
AcDbEntity
  8
0
  6
Continuous
 62
     7
370
    15
100
AcDbLine
 10
2203.226956959609
 20
734.2735923368841
 30
0.0
 11
2196.226956959607
 21
734.2735923368841
 31
0.0
  0
LINE
  5
66E
330
607
100
AcDbEntity
  8
0
  6
Continuous
 62
     7
370
    15
100
AcDbLine
 10
2211.226956959607
 20
734.2735923368841
 30
0.0
 11
2211.226956959607
 21
738.173592336884
 31
0.0
  0
LINE
  5
66F
330
607
100
AcDbEntity
  8
0
  6
Continuous
 62
     7
370
    15
100
AcDbLine
 10
2218.226956959611
 20
738.173592336884
 30
0.0
 11
2218.226956959609
 21
734.2735923368841
 31
0.0
  0
LINE
  5
670
330
607
100
AcDbEntity
  8
0
  6
Continuous
 62
     7
370
    15
100
AcDbLine
 10
2218.226956959611
 20
738.173592336884
 30
0.0
 11
2211.226956959607
 21
738.173592336884
 31
0.0
  0
LINE
  5
671
330
607
100
AcDbEntity
  8
0
  6
Continuous
 62
     7
370
    15
100
AcDbLine
 10
2218.226956959609
 20
734.2735923368841
 30
0.0
 11
2211.226956959607
 21
734.2735923368841
 31
0.0
  0
LINE
  5
672
330
607
100
AcDbEntity
  8
0
  6
Continuous
 62
     7
370
    15
100
AcDbLine
 10
2226.226956959607
 20
734.2735923368841
 30
0.0
 11
2226.226956959607
 21
738.173592336884
 31
0.0
  0
LINE
  5
673
330
607
100
AcDbEntity
  8
0
  6
Continuous
 62
     7
370
    15
100
AcDbLine
 10
2233.226956959611
 20
738.173592336884
 30
0.0
 11
2233.226956959609
 21
734.2735923368841
 31
0.0
  0
LINE
  5
674
330
607
100
AcDbEntity
  8
0
  6
Continuous
 62
     7
370
    15
100
AcDbLine
 10
2233.226956959611
 20
738.173592336884
 30
0.0
 11
2226.226956959607
 21
738.173592336884
 31
0.0
  0
LINE
  5
675
330
607
100
AcDbEntity
  8
0
  6
Continuous
 62
     7
370
    15
100
AcDbLine
 10
2233.226956959609
 20
734.2735923368841
 30
0.0
 11
2226.226956959607
 21
734.2735923368841
 31
0.0
  0
LINE
  5
676
330
607
100
AcDbEntity
  8
0
  6
Continuous
 62
     7
370
    15
100
AcDbLine
 10
2241.226956959607
 20
734.2735923368841
 30
0.0
 11
2241.226956959607
 21
738.173592336884
 31
0.0
  0
LINE
  5
677
330
607
100
AcDbEntity
  8
0
  6
Continuous
 62
     7
370
    15
100
AcDbLine
 10
2248.22695695961
 20
738.173592336884
 30
0.0
 11
2248.226956959609
 21
734.2735923368841
 31
0.0
  0
LINE
  5
678
330
607
100
AcDbEntity
  8
0
  6
Continuous
 62
     7
370
    15
100
AcDbLine
 10
2248.22695695961
 20
738.173592336884
 30
0.0
 11
2241.226956959607
 21
738.173592336884
 31
0.0
  0
LINE
  5
679
330
607
100
AcDbEntity
  8
0
  6
Continuous
 62
     7
370
    15
100
AcDbLine
 10
2248.226956959609
 20
734.2735923368841
 30
0.0
 11
2241.226956959607
 21
734.2735923368841
 31
0.0
  0
SPLINE
  5
67A
330
607
100
AcDbEntity
  8
0
  6
Continuous
 62
     7
370
    15
100
AcDbSpline
210
0.0
220
0.0
230
1.0
 70
    24
 71
     3
 72
    10
 73
     6
 74
     0
 42
0.0000000001
 43
0.0000000001
 40
0.0
 40
0.0
 40
0.0
 40
0.0
 40
0.5
 40
0.5
 40
1.0
 40
1.0
 40
1.0
 40
1.0
 10
2151.501956959607
 20
739.0735923368841
 30
0.0
 10
2151.501956959607
 20
739.0735923368841
 30
0.0
 10
2152.947031052605
 20
739.0735923368841
 30
0.0
 10
2156.506882866609
 20
739.0735923368841
 30
0.0
 10
2157.951956959607
 20
739.0735923368841
 30
0.0
 10
2157.951956959607
 20
739.0735923368841
 30
0.0
  0
SPLINE
  5
67B
330
607
100
AcDbEntity
  8
0
  6
Continuous
 62
     7
370
    15
100
AcDbSpline
210
0.0
220
0.0
230
1.0
 70
    24
 71
     3
 72
    30
 73
    26
 74
     0
 42
0.0000000001
 43
0.0000000001
 40
0.0
 40
0.0
 40
0.0
 40
0.0
 40
0.0172934937130203
 40
0.0344596655377185
 40
0.0515480950579254
 40
0.068609039634892
 40
0.0856929991960945
 40
0.1028502704464566
 40
0.1201305099490629
 40
0.1850828601801404
 40
0.2500881522292469
 40
0.3150405262905461
 40
0.3800458421887532
 40
0.4400038891296366
 40
0.5000143502049812
 40
0.55997241137046
 40
0.6199828837922907
 40
0.6849352340234343
 40
0.7499405260724737
 40
0.8148929001337954
 40
0.8798982160319786
 40
0.910029097664276
 40
0.9399097371916235
 40
0.9698101950927375
 40
1.0
 40
1.0
 40
1.0
 40
1.0
 10
2172.951956959609
 20
739.0735923368841
 30
0.0
 10
2172.951057894586
 20
739.0735923368841
 30
0.0
 10
2172.949266383831
 20
739.0735923368841
 30
0.0
 10
2172.934864936292
 20
739.0735923368841
 30
0.0
 10
2172.911860046879
 20
739.0735923368841
 30
0.0
 10
2172.879428002308
 20
739.0735923368841
 30
0.0
 10
2172.837793104378
 20
739.0735923368841
 30
0.0
 10
2172.786882292603
 20
739.0735923368841
 30
0.0
 10
2172.671751009705
 20
739.0735923368841
 30
0.0
 10
2172.442431046913
 20
739.0735923368841
 30
0.0
 10
2172.022934742711
 20
739.0735923368841
 30
0.0
 10
2171.5107201606
 20
739.0735923368841
 30
0.0
 10
2170.937287450163
 20
739.0735923368841
 30
0.0
 10
2170.335096005127
 20
739.0735923368841
 30
0.0
 10
2169.727133356692
 20
739.0735923368841
 30
0.0
 10
2169.118997519512
 20
739.0735923368841
 30
0.0
 10
2168.516956296766
 20
739.0735923368841
 30
0.0
 10
2167.943347798221
 20
739.0735923368841
 30
0.0
 10
2167.431245084812
 20
739.0735923368841
 30
0.0
 10
2167.011529668114
 20
739.0735923368841
 30
0.0
 10
2166.762357770257
 20
739.0735923368841
 30
0.0
 10
2166.624945761471
 20
739.0735923368841
 30
0.0
 10
2166.55423479915
 20
739.0735923368841
 30
0.0
 10
2166.5100798488
 20
739.0735923368841
 30
0.0
 10
2166.504673267274
 20
739.0735923368841
 30
0.0
 10
2166.501956959609
 20
739.0735923368841
 30
0.0
  0
SPLINE
  5
67C
330
607
100
AcDbEntity
  8
0
  6
Continuous
 62
     7
370
    15
100
AcDbSpline
210
0.0
220
0.0
230
1.0
 70
    24
 71
     3
 72
    30
 73
    26
 74
     0
 42
0.0000000001
 43
0.0000000001
 40
0.0
 40
0.0
 40
0.0
 40
0.0
 40
0.0172934937130203
 40
0.0344596655377185
 40
0.0515480950579254
 40
0.0686090396348921
 40
0.0856929991960945
 40
0.1028502704464567
 40
0.120130509949063
 40
0.1850828601801405
 40
0.250088152229247
 40
0.3150405262905462
 40
0.3800458421887532
 40
0.4400038891296367
 40
0.5000143502049813
 40
0.55997241137046
 40
0.6199828837922908
 40
0.6849352340234343
 40
0.7499405260724737
 40
0.8148929001337954
 40
0.8798982160319788
 40
0.910029097664276
 40
0.9399097371916235
 40
0.9698101950927375
 40
1.0
 40
1.0
 40
1.0
 40
1.0
 10
2187.951956959609
 20
739.0735923368841
 30
0.0
 10
2187.951057894586
 20
739.0735923368841
 30
0.0
 10
2187.949266383831
 20
739.0735923368841
 30
0.0
 10
2187.934864936292
 20
739.0735923368841
 30
0.0
 10
2187.911860046879
 20
739.0735923368841
 30
0.0
 10
2187.879428002307
 20
739.0735923368841
 30
0.0
 10
2187.837793104378
 20
739.0735923368841
 30
0.0
 10
2187.786882292602
 20
739.0735923368841
 30
0.0
 10
2187.671751009705
 20
739.0735923368841
 30
0.0
 10
2187.442431046913
 20
739.0735923368841
 30
0.0
 10
2187.022934742711
 20
739.0735923368841
 30
0.0
 10
2186.5107201606
 20
739.0735923368841
 30
0.0
 10
2185.937287450163
 20
739.0735923368841
 30
0.0
 10
2185.335096005127
 20
739.0735923368841
 30
0.0
 10
2184.727133356692
 20
739.0735923368841
 30
0.0
 10
2184.118997519512
 20
739.0735923368841
 30
0.0
 10
2183.516956296767
 20
739.0735923368841
 30
0.0
 10
2182.943347798221
 20
739.0735923368841
 30
0.0
 10
2182.431245084813
 20
739.0735923368841
 30
0.0
 10
2182.011529668114
 20
739.0735923368841
 30
0.0
 10
2181.762357770257
 20
739.0735923368841
 30
0.0
 10
2181.62494576147
 20
739.0735923368841
 30
0.0
 10
2181.55423479915
 20
739.0735923368841
 30
0.0
 10
2181.510079848799
 20
739.0735923368841
 30
0.0
 10
2181.504673267274
 20
739.0735923368841
 30
0.0
 10
2181.501956959609
 20
739.0735923368841
 30
0.0
  0
SPLINE
  5
67D
330
607
100
AcDbEntity
  8
0
  6
Continuous
 62
     7
370
    15
100
AcDbSpline
210
0.0
220
0.0
230
1.0
 70
    24
 71
     3
 72
    30
 73
    26
 74
     0
 42
0.0000000001
 43
0.0000000001
 40
0.0
 40
0.0
 40
0.0
 40
0.0
 40
0.0172934937130203
 40
0.0344596655377185
 40
0.0515480950579254
 40
0.0686090396348921
 40
0.0856929991960945
 40
0.1028502704464567
 40
0.120130509949063
 40
0.1850828601801405
 40
0.2500881522292471
 40
0.3150405262905462
 40
0.3800458421887533
 40
0.4400038891296368
 40
0.5000143502049815
 40
0.5599724113704601
 40
0.619982883792291
 40
0.6849352340234346
 40
0.7499405260724741
 40
0.8148929001337954
 40
0.8798982160319791
 40
0.9100290976642764
 40
0.9399097371916237
 40
0.9698101950927377
 40
1.0
 40
1.0
 40
1.0
 40
1.0
 10
2202.951956959608
 20
739.0735923368841
 30
0.0
 10
2202.951057894586
 20
739.0735923368841
 30
0.0
 10
2202.949266383831
 20
739.0735923368841
 30
0.0
 10
2202.934864936292
 20
739.0735923368841
 30
0.0
 10
2202.911860046879
 20
739.0735923368841
 30
0.0
 10
2202.879428002308
 20
739.0735923368841
 30
0.0
 10
2202.837793104378
 20
739.0735923368841
 30
0.0
 10
2202.786882292603
 20
739.0735923368841
 30
0.0
 10
2202.671751009705
 20
739.0735923368841
 30
0.0
 10
2202.442431046913
 20
739.0735923368841
 30
0.0
 10
2202.022934742711
 20
739.0735923368841
 30
0.0
 10
2201.5107201606
 20
739.0735923368841
 30
0.0
 10
2200.937287450163
 20
739.0735923368841
 30
0.0
 10
2200.335096005127
 20
739.0735923368841
 30
0.0
 10
2199.727133356693
 20
739.0735923368841
 30
0.0
 10
2199.118997519512
 20
739.0735923368841
 30
0.0
 10
2198.516956296766
 20
739.0735923368841
 30
0.0
 10
2197.943347798221
 20
739.0735923368841
 30
0.0
 10
2197.431245084812
 20
739.0735923368841
 30
0.0
 10
2197.011529668114
 20
739.0735923368841
 30
0.0
 10
2196.762357770257
 20
739.0735923368841
 30
0.0
 10
2196.62494576147
 20
739.0735923368841
 30
0.0
 10
2196.554234799149
 20
739.0735923368841
 30
0.0
 10
2196.510079848799
 20
739.0735923368841
 30
0.0
 10
2196.504673267274
 20
739.0735923368841
 30
0.0
 10
2196.501956959609
 20
739.0735923368841
 30
0.0
  0
SPLINE
  5
67E
330
607
100
AcDbEntity
  8
0
  6
Continuous
 62
     7
370
    15
100
AcDbSpline
210
0.0
220
0.0
230
1.0
 70
    24
 71
     3
 72
    30
 73
    26
 74
     0
 42
0.0000000001
 43
0.0000000001
 40
0.0
 40
0.0
 40
0.0
 40
0.0
 40
0.0172934937130203
 40
0.0344596655377184
 40
0.0515480950579255
 40
0.0686090396348921
 40
0.0856929991960945
 40
0.1028502704464566
 40
0.1201305099490631
 40
0.1850828601801403
 40
0.2500881522292468
 40
0.315040526290546
 40
0.3800458421887531
 40
0.4400038891296365
 40
0.5000143502049812
 40
0.55997241137046
 40
0.6199828837922908
 40
0.6849352340234343
 40
0.7499405260724739
 40
0.8148929001337952
 40
0.8798982160319789
 40
0.9100290976642762
 40
0.9399097371916237
 40
0.9698101950927377
 40
1.0
 40
1.0
 40
1.0
 40
1.0
 10
2217.951956959609
 20
739.0735923368841
 30
0.0
 10
2217.951057894586
 20
739.0735923368841
 30
0.0
 10
2217.949266383831
 20
739.0735923368841
 30
0.0
 10
2217.934864936292
 20
739.0735923368841
 30
0.0
 10
2217.911860046879
 20
739.0735923368841
 30
0.0
 10
2217.879428002308
 20
739.0735923368841
 30
0.0
 10
2217.837793104378
 20
739.0735923368841
 30
0.0
 10
2217.786882292603
 20
739.0735923368841
 30
0.0
 10
2217.671751009705
 20
739.0735923368841
 30
0.0
 10
2217.442431046913
 20
739.0735923368841
 30
0.0
 10
2217.022934742711
 20
739.0735923368841
 30
0.0
 10
2216.5107201606
 20
739.0735923368841
 30
0.0
 10
2215.937287450163
 20
739.0735923368841
 30
0.0
 10
2215.335096005127
 20
739.0735923368841
 30
0.0
 10
2214.727133356692
 20
739.0735923368841
 30
0.0
 10
2214.118997519512
 20
739.0735923368841
 30
0.0
 10
2213.516956296766
 20
739.0735923368841
 30
0.0
 10
2212.943347798221
 20
739.0735923368841
 30
0.0
 10
2212.431245084812
 20
739.0735923368841
 30
0.0
 10
2212.011529668114
 20
739.0735923368841
 30
0.0
 10
2211.762357770257
 20
739.0735923368841
 30
0.0
 10
2211.62494576147
 20
739.0735923368841
 30
0.0
 10
2211.55423479915
 20
739.0735923368841
 30
0.0
 10
2211.5100798488
 20
739.0735923368841
 30
0.0
 10
2211.504673267274
 20
739.0735923368841
 30
0.0
 10
2211.501956959609
 20
739.0735923368841
 30
0.0
  0
SPLINE
  5
67F
330
607
100
AcDbEntity
  8
0
  6
Continuous
 62
     7
370
    15
100
AcDbSpline
210
0.0
220
0.0
230
1.0
 70
    24
 71
     3
 72
    30
 73
    26
 74
     0
 42
0.0000000001
 43
0.0000000001
 40
0.0
 40
0.0
 40
0.0
 40
0.0
 40
0.0172934937130203
 40
0.0344596655377185
 40
0.0515480950579255
 40
0.0686090396348921
 40
0.0856929991960945
 40
0.1028502704464566
 40
0.1201305099490631
 40
0.1850828601801404
 40
0.2500881522292469
 40
0.3150405262905456
 40
0.3800458421887533
 40
0.4400038891296367
 40
0.5000143502049813
 40
0.5599724113704593
 40
0.6199828837922908
 40
0.6849352340234343
 40
0.749940526072474
 40
0.8148929001337958
 40
0.8798982160319789
 40
0.9100290976642765
 40
0.9399097371916235
 40
0.9698101950927378
 40
1.0
 40
1.0
 40
1.0
 40
1.0
 10
2232.951956959609
 20
739.0735923368841
 30
0.0
 10
2232.951057894586
 20
739.0735923368841
 30
0.0
 10
2232.949266383831
 20
739.0735923368841
 30
0.0
 10
2232.934864936292
 20
739.0735923368841
 30
0.0
 10
2232.911860046879
 20
739.0735923368841
 30
0.0
 10
2232.879428002307
 20
739.0735923368841
 30
0.0
 10
2232.837793104378
 20
739.0735923368841
 30
0.0
 10
2232.786882292602
 20
739.0735923368841
 30
0.0
 10
2232.671751009705
 20
739.0735923368841
 30
0.0
 10
2232.442431046913
 20
739.0735923368841
 30
0.0
 10
2232.022934742711
 20
739.0735923368841
 30
0.0
 10
2231.5107201606
 20
739.0735923368841
 30
0.0
 10
2230.937287450163
 20
739.0735923368841
 30
0.0
 10
2230.335096005127
 20
739.0735923368841
 30
0.0
 10
2229.727133356692
 20
739.0735923368841
 30
0.0
 10
2229.118997519512
 20
739.0735923368841
 30
0.0
 10
2228.516956296767
 20
739.0735923368841
 30
0.0
 10
2227.943347798222
 20
739.0735923368841
 30
0.0
 10
2227.431245084813
 20
739.0735923368841
 30
0.0
 10
2227.011529668114
 20
739.0735923368841
 30
0.0
 10
2226.762357770257
 20
739.0735923368841
 30
0.0
 10
2226.624945761471
 20
739.0735923368841
 30
0.0
 10
2226.55423479915
 20
739.0735923368841
 30
0.0
 10
2226.510079848799
 20
739.0735923368841
 30
0.0
 10
2226.504673267274
 20
739.0735923368841
 30
0.0
 10
2226.501956959609
 20
739.0735923368841
 30
0.0
  0
SPLINE
  5
680
330
607
100
AcDbEntity
  8
0
  6
Continuous
 62
     7
370
    15
100
AcDbSpline
210
0.0
220
0.0
230
1.0
 70
    24
 71
     3
 72
    30
 73
    26
 74
     0
 42
0.0000000001
 43
0.0000000001
 40
0.0
 40
0.0
 40
0.0
 40
0.0
 40
0.0172934937130203
 40
0.0344596655377185
 40
0.0515480950579255
 40
0.0686090396348921
 40
0.0856929991960945
 40
0.1028502704464566
 40
0.1201305099490631
 40
0.1850828601801403
 40
0.2500881522292468
 40
0.3150405262905455
 40
0.3800458421887533
 40
0.4400038891296367
 40
0.5000143502049813
 40
0.5599724113704593
 40
0.6199828837922908
 40
0.6849352340234344
 40
0.749940526072474
 40
0.8148929001337958
 40
0.8798982160319789
 40
0.9100290976642765
 40
0.9399097371916235
 40
0.9698101950927378
 40
1.0
 40
1.0
 40
1.0
 40
1.0
 10
2247.951956959608
 20
739.0735923368841
 30
0.0
 10
2247.951057894586
 20
739.0735923368841
 30
0.0
 10
2247.949266383831
 20
739.0735923368841
 30
0.0
 10
2247.934864936292
 20
739.0735923368841
 30
0.0
 10
2247.911860046879
 20
739.0735923368841
 30
0.0
 10
2247.879428002308
 20
739.0735923368841
 30
0.0
 10
2247.837793104378
 20
739.0735923368841
 30
0.0
 10
2247.786882292603
 20
739.0735923368841
 30
0.0
 10
2247.671751009705
 20
739.0735923368841
 30
0.0
 10
2247.442431046913
 20
739.0735923368841
 30
0.0
 10
2247.022934742711
 20
739.0735923368841
 30
0.0
 10
2246.5107201606
 20
739.0735923368841
 30
0.0
 10
2245.937287450163
 20
739.0735923368841
 30
0.0
 10
2245.335096005127
 20
739.0735923368841
 30
0.0
 10
2244.727133356692
 20
739.0735923368841
 30
0.0
 10
2244.118997519512
 20
739.0735923368841
 30
0.0
 10
2243.516956296767
 20
739.0735923368841
 30
0.0
 10
2242.943347798221
 20
739.0735923368841
 30
0.0
 10
2242.431245084812
 20
739.0735923368841
 30
0.0
 10
2242.011529668114
 20
739.0735923368841
 30
0.0
 10
2241.762357770257
 20
739.0735923368841
 30
0.0
 10
2241.62494576147
 20
739.0735923368841
 30
0.0
 10
2241.55423479915
 20
739.0735923368841
 30
0.0
 10
2241.510079848799
 20
739.0735923368841
 30
0.0
 10
2241.504673267274
 20
739.0735923368841
 30
0.0
 10
2241.501956959609
 20
739.0735923368841
 30
0.0
  0
LINE
  5
681
330
607
100
AcDbEntity
  8
0
  6
Continuous
 62
     7
370
    15
100
AcDbLine
 10
2158.151956959607
 20
744.4735923368841
 30
0.0
 11
2151.301956959607
 21
744.4735923368841
 31
0.0
  0
LINE
  5
682
330
607
100
AcDbEntity
  8
0
  6
Continuous
 62
     7
370
    15
100
AcDbLine
 10
2166.301956959609
 20
744.4735923368841
 30
0.0
 11
2173.151956959609
 21
744.4735923368841
 31
0.0
  0
LINE
  5
683
330
607
100
AcDbEntity
  8
0
  6
Continuous
 62
     7
370
    15
100
AcDbLine
 10
2181.301956959609
 20
744.4735923368841
 30
0.0
 11
2188.151956959609
 21
744.4735923368841
 31
0.0
  0
LINE
  5
684
330
607
100
AcDbEntity
  8
0
  6
Continuous
 62
     7
370
    15
100
AcDbLine
 10
2196.301956959608
 20
744.4735923368841
 30
0.0
 11
2203.151956959608
 21
744.4735923368841
 31
0.0
  0
LINE
  5
685
330
607
100
AcDbEntity
  8
0
  6
Continuous
 62
     7
370
    15
100
AcDbLine
 10
2211.301956959609
 20
744.4735923368841
 30
0.0
 11
2218.151956959609
 21
744.4735923368841
 31
0.0
  0
LINE
  5
686
330
607
100
AcDbEntity
  8
0
  6
Continuous
 62
     7
370
    15
100
AcDbLine
 10
2226.301956959609
 20
744.4735923368841
 30
0.0
 11
2233.151956959609
 21
744.4735923368841
 31
0.0
  0
LINE
  5
687
330
607
100
AcDbEntity
  8
0
  6
Continuous
 62
     7
370
    15
100
AcDbLine
 10
2241.301956959608
 20
744.4735923368841
 30
0.0
 11
2248.151956959608
 21
744.4735923368841
 31
0.0
  0
LINE
  5
688
330
607
100
AcDbEntity
  8
0
  6
Continuous
 62
     7
370
    15
100
AcDbLine
 10
2149.026956959607
 20
738.173592336884
 30
0.0
 11
2149.026956959607
 21
734.2735923368841
 31
0.0
  0
LINE
  5
689
330
607
100
AcDbEntity
  8
0
  6
Continuous
 62
     7
370
    15
100
AcDbLine
 10
2149.026956959607
 20
738.173592336884
 30
0.0
 11
2151.226956959605
 21
738.173592336884
 31
0.0
  0
LINE
  5
68A
330
607
100
AcDbEntity
  8
0
  6
Continuous
 62
     7
370
    15
100
AcDbLine
 10
2151.226956959607
 20
734.2735923368841
 30
0.0
 11
2149.026956959607
 21
734.2735923368841
 31
0.0
  0
LINE
  5
68B
330
607
100
AcDbEntity
  8
0
  6
Continuous
 62
     7
370
    15
100
AcDbLine
 10
2173.226956959609
 20
738.173592336884
 30
0.0
 11
2181.226956959607
 21
738.173592336884
 31
0.0
  0
LINE
  5
68C
330
607
100
AcDbEntity
  8
0
  6
Continuous
 62
     7
370
    15
100
AcDbLine
 10
2181.226956959607
 20
734.2735923368841
 30
0.0
 11
2173.22695695961
 21
734.2735923368841
 31
0.0
  0
LINE
  5
68D
330
607
100
AcDbEntity
  8
0
  6
Continuous
 62
     7
370
    15
100
AcDbLine
 10
2196.226956959607
 20
738.173592336884
 30
0.0
 11
2188.22695695961
 21
738.173592336884
 31
0.0
  0
LINE
  5
68E
330
607
100
AcDbEntity
  8
0
  6
Continuous
 62
     7
370
    15
100
AcDbLine
 10
2188.226956959609
 20
734.2735923368841
 30
0.0
 11
2196.226956959607
 21
734.2735923368841
 31
0.0
  0
LINE
  5
68F
330
607
100
AcDbEntity
  8
0
  6
Continuous
 62
     7
370
    15
100
AcDbLine
 10
2211.226956959607
 20
738.173592336884
 30
0.0
 11
2203.226956959611
 21
738.173592336884
 31
0.0
  0
LINE
  5
690
330
607
100
AcDbEntity
  8
0
  6
Continuous
 62
     7
370
    15
100
AcDbLine
 10
2203.226956959609
 20
734.2735923368841
 30
0.0
 11
2211.226956959607
 21
734.2735923368841
 31
0.0
  0
LINE
  5
691
330
607
100
AcDbEntity
  8
0
  6
Continuous
 62
     7
370
    15
100
AcDbLine
 10
2158.226956959609
 20
738.173592336884
 30
0.0
 11
2166.226956959607
 21
738.173592336884
 31
0.0
  0
LINE
  5
692
330
607
100
AcDbEntity
  8
0
  6
Continuous
 62
     7
370
    15
100
AcDbLine
 10
2166.226956959607
 20
734.2735923368841
 30
0.0
 11
2158.226956959609
 21
734.2735923368841
 31
0.0
  0
LINE
  5
693
330
607
100
AcDbEntity
  8
0
  6
Continuous
 62
     7
370
    15
100
AcDbLine
 10
2226.226956959607
 20
738.173592336884
 30
0.0
 11
2218.226956959611
 21
738.173592336884
 31
0.0
  0
LINE
  5
694
330
607
100
AcDbEntity
  8
0
  6
Continuous
 62
     7
370
    15
100
AcDbLine
 10
2218.226956959609
 20
734.2735923368841
 30
0.0
 11
2226.226956959607
 21
734.2735923368841
 31
0.0
  0
LINE
  5
695
330
607
100
AcDbEntity
  8
0
  6
Continuous
 62
     7
370
    15
100
AcDbLine
 10
2241.226956959607
 20
738.173592336884
 30
0.0
 11
2233.226956959611
 21
738.173592336884
 31
0.0
  0
LINE
  5
696
330
607
100
AcDbEntity
  8
0
  6
Continuous
 62
     7
370
    15
100
AcDbLine
 10
2233.226956959609
 20
734.2735923368841
 30
0.0
 11
2241.226956959607
 21
734.2735923368841
 31
0.0
  0
LINE
  5
697
330
607
100
AcDbEntity
  8
0
  6
Continuous
 62
     7
370
    15
100
AcDbLine
 10
2250.426956959609
 20
738.173592336884
 30
0.0
 11
2250.426956959609
 21
734.2735923368841
 31
0.0
  0
LINE
  5
698
330
607
100
AcDbEntity
  8
0
  6
Continuous
 62
     7
370
    15
100
AcDbLine
 10
2250.426956959609
 20
738.173592336884
 30
0.0
 11
2248.22695695961
 21
738.173592336884
 31
0.0
  0
LINE
  5
699
330
607
100
AcDbEntity
  8
0
  6
Continuous
 62
     7
370
    15
100
AcDbLine
 10
2248.226956959609
 20
734.2735923368841
 30
0.0
 11
2250.426956959609
 21
734.2735923368841
 31
0.0
  0
LINE
  5
69A
330
607
100
AcDbEntity
  8
0
  6
Continuous
 62
     7
370
    15
100
AcDbLine
 10
2151.725279352969
 20
734.1735923369204
 30
0.0
 11
2157.725279353067
 21
734.1735923369204
 31
0.0
  0
LINE
  5
69B
330
607
100
AcDbEntity
  8
0
  6
Continuous
 62
     7
370
    15
100
AcDbLine
 10
2151.725279353018
 20
723.4735923368841
 30
0.0
 11
2157.725279353018
 21
723.4735923368841
 31
0.0
  0
LINE
  5
69C
330
607
100
AcDbEntity
  8
0
  6
Continuous
 62
     7
370
    15
100
AcDbLine
 10
2172.728634566247
 20
734.1735923369204
 30
0.0
 11
2166.728634566149
 21
734.1735923369204
 31
0.0
  0
LINE
  5
69D
330
607
100
AcDbEntity
  8
0
  6
Continuous
 62
     7
370
    15
100
AcDbLine
 10
2172.728634566198
 20
723.4735923368841
 30
0.0
 11
2166.728634566198
 21
723.4735923368841
 31
0.0
  0
LINE
  5
69E
330
607
100
AcDbEntity
  8
0
  6
Continuous
 62
     7
370
    15
100
AcDbLine
 10
2187.728634566247
 20
734.1735923369204
 30
0.0
 11
2181.728634566149
 21
734.1735923369204
 31
0.0
  0
LINE
  5
69F
330
607
100
AcDbEntity
  8
0
  6
Continuous
 62
     7
370
    15
100
AcDbLine
 10
2187.728634566198
 20
723.4735923368841
 30
0.0
 11
2181.728634566198
 21
723.4735923368841
 31
0.0
  0
LINE
  5
6A0
330
607
100
AcDbEntity
  8
0
  6
Continuous
 62
     7
370
    15
100
AcDbLine
 10
2202.728634566247
 20
734.1735923369204
 30
0.0
 11
2196.728634566149
 21
734.1735923369204
 31
0.0
  0
LINE
  5
6A1
330
607
100
AcDbEntity
  8
0
  6
Continuous
 62
     7
370
    15
100
AcDbLine
 10
2202.728634566198
 20
723.4735923368841
 30
0.0
 11
2196.728634566198
 21
723.4735923368841
 31
0.0
  0
LINE
  5
6A2
330
607
100
AcDbEntity
  8
0
  6
Continuous
 62
     7
370
    15
100
AcDbLine
 10
2217.728634566247
 20
734.1735923369204
 30
0.0
 11
2211.728634566149
 21
734.1735923369204
 31
0.0
  0
LINE
  5
6A3
330
607
100
AcDbEntity
  8
0
  6
Continuous
 62
     7
370
    15
100
AcDbLine
 10
2217.728634566198
 20
723.4735923368841
 30
0.0
 11
2211.728634566198
 21
723.4735923368841
 31
0.0
  0
LINE
  5
6A4
330
607
100
AcDbEntity
  8
0
  6
Continuous
 62
     7
370
    15
100
AcDbLine
 10
2232.728634566247
 20
734.1735923369204
 30
0.0
 11
2226.728634566149
 21
734.1735923369204
 31
0.0
  0
LINE
  5
6A5
330
607
100
AcDbEntity
  8
0
  6
Continuous
 62
     7
370
    15
100
AcDbLine
 10
2232.728634566198
 20
723.4735923368841
 30
0.0
 11
2226.728634566198
 21
723.4735923368841
 31
0.0
  0
LINE
  5
6A6
330
607
100
AcDbEntity
  8
0
  6
Continuous
 62
     7
370
    15
100
AcDbLine
 10
2247.728634566247
 20
734.1735923369204
 30
0.0
 11
2241.728634566149
 21
734.1735923369204
 31
0.0
  0
LINE
  5
6A7
330
607
100
AcDbEntity
  8
0
  6
Continuous
 62
     7
370
    15
100
AcDbLine
 10
2247.728634566198
 20
723.4735923368841
 30
0.0
 11
2241.728634566198
 21
723.4735923368841
 31
0.0
  0
LINE
  5
6A8
330
607
100
AcDbEntity
  8
0
  6
Continuous
 62
     7
370
    15
100
AcDbLine
 10
2151.925279352989
 20
723.273592336928
 30
0.0
 11
2157.525279353048
 21
723.273592336928
 31
0.0
  0
LINE
  5
6A9
330
607
100
AcDbEntity
  8
0
  6
Continuous
 62
     7
370
    15
100
AcDbLine
 10
2172.528634566228
 20
723.273592336928
 30
0.0
 11
2166.928634566168
 21
723.273592336928
 31
0.0
  0
LINE
  5
6AA
330
607
100
AcDbEntity
  8
0
  6
Continuous
 62
     7
370
    15
100
AcDbLine
 10
2187.528634566227
 20
723.273592336928
 30
0.0
 11
2181.928634566168
 21
723.273592336928
 31
0.0
  0
LINE
  5
6AB
330
607
100
AcDbEntity
  8
0
  6
Continuous
 62
     7
370
    15
100
AcDbLine
 10
2202.528634566228
 20
723.273592336928
 30
0.0
 11
2196.928634566168
 21
723.273592336928
 31
0.0
  0
LINE
  5
6AC
330
607
100
AcDbEntity
  8
0
  6
Continuous
 62
     7
370
    15
100
AcDbLine
 10
2217.528634566228
 20
723.273592336928
 30
0.0
 11
2211.928634566168
 21
723.273592336928
 31
0.0
  0
LINE
  5
6AD
330
607
100
AcDbEntity
  8
0
  6
Continuous
 62
     7
370
    15
100
AcDbLine
 10
2232.528634566227
 20
723.273592336928
 30
0.0
 11
2226.928634566168
 21
723.273592336928
 31
0.0
  0
LINE
  5
6AE
330
607
100
AcDbEntity
  8
0
  6
Continuous
 62
     7
370
    15
100
AcDbLine
 10
2247.528634566228
 20
723.273592336928
 30
0.0
 11
2241.928634566168
 21
723.273592336928
 31
0.0
  0
LINE
  5
6AF
330
607
100
AcDbEntity
  8
0
  6
Continuous
 62
     8
370
    15
100
AcDbLine
 10
2158.151956959607
 20
739.2735923368841
 30
0.0
 11
2151.301956959607
 21
739.2735923368841
 31
0.0
  0
LINE
  5
6B0
330
607
100
AcDbEntity
  8
0
  6
Continuous
 62
     8
370
    15
100
AcDbLine
 10
2166.301956959609
 20
739.2735923368841
 30
0.0
 11
2173.151956959609
 21
739.2735923368841
 31
0.0
  0
LINE
  5
6B1
330
607
100
AcDbEntity
  8
0
  6
Continuous
 62
     8
370
    15
100
AcDbLine
 10
2181.301956959609
 20
739.2735923368841
 30
0.0
 11
2188.151956959609
 21
739.2735923368841
 31
0.0
  0
LINE
  5
6B2
330
607
100
AcDbEntity
  8
0
  6
Continuous
 62
     8
370
    15
100
AcDbLine
 10
2196.301956959608
 20
739.2735923368841
 30
0.0
 11
2203.151956959608
 21
739.2735923368841
 31
0.0
  0
LINE
  5
6B3
330
607
100
AcDbEntity
  8
0
  6
Continuous
 62
     8
370
    15
100
AcDbLine
 10
2211.301956959609
 20
739.2735923368841
 30
0.0
 11
2218.151956959609
 21
739.2735923368841
 31
0.0
  0
LINE
  5
6B4
330
607
100
AcDbEntity
  8
0
  6
Continuous
 62
     8
370
    15
100
AcDbLine
 10
2226.301956959609
 20
739.2735923368841
 30
0.0
 11
2233.151956959609
 21
739.2735923368841
 31
0.0
  0
LINE
  5
6B5
330
607
100
AcDbEntity
  8
0
  6
Continuous
 62
     8
370
    15
100
AcDbLine
 10
2241.301956959608
 20
739.2735923368841
 30
0.0
 11
2248.151956959608
 21
739.2735923368841
 31
0.0
  0
ENDBLK
  5
609
330
607
100
AcDbEntity
  8
0
100
AcDbBlockEnd
  0
BLOCK
  5
6B8
330
6B7
100
AcDbEntity
  8
0
100
AcDbBlockBegin
  2
2
 70
     0
 10
0.0
 20
0.0
 30
0.0
  3
2
  1

  0
CIRCLE
  5
6BA
330
6B7
100
AcDbEntity
  8
0
  6
Continuous
 62
     7
370
    15
100
AcDbCircle
 10
2214.726956959609
 20
701.6822567887157
 30
0.0
 40
2.475000000004001
  0
ARC
  5
6BB
330
6B7
100
AcDbEntity
  8
0
  6
Continuous
 62
     7
370
    15
100
AcDbCircle
 10
2214.726956959609
 20
701.6822567887157
 30
0.0
 40
2.145679479869426
100
AcDbArc
 50
166.5246847195515
 51
193.4753152804485
  0
ARC
  5
6BC
330
6B7
100
AcDbEntity
  8
0
  6
Continuous
 62
     7
370
    15
100
AcDbCircle
 10
2214.726956959609
 20
701.6822567887157
 30
0.0
 40
2.197439522055198
100
AcDbArc
 50
193.1521401048725
 51
346.8478598951275
  0
ARC
  5
6BD
330
6B7
100
AcDbEntity
  8
0
  6
Continuous
 62
     7
370
    15
100
AcDbCircle
 10
2214.726956959609
 20
701.6822567887157
 30
0.0
 40
2.145679479869426
100
AcDbArc
 50
346.5246847195578
 51
13.4753152804485
  0
ARC
  5
6BE
330
6B7
100
AcDbEntity
  8
0
  6
Continuous
 62
     7
370
    15
100
AcDbCircle
 10
2214.726956959609
 20
701.6822567887157
 30
0.0
 40
2.197439522055226
100
AcDbArc
 50
13.1521401048725
 51
166.8478598951211
  0
CIRCLE
  5
6BF
330
6B7
100
AcDbEntity
  8
0
  6
Continuous
 62
     7
370
    15
100
AcDbCircle
 10
2154.726956959607
 20
701.6822567887155
 30
0.0
 40
2.475000000004001
  0
ARC
  5
6C0
330
6B7
100
AcDbEntity
  8
0
  6
Continuous
 62
     7
370
    15
100
AcDbCircle
 10
2154.726956959607
 20
701.6822567887155
 30
0.0
 40
2.197439522055226
100
AcDbArc
 50
13.15214010487884
 51
166.8478598951275
  0
ARC
  5
6C1
330
6B7
100
AcDbEntity
  8
0
  6
Continuous
 62
     7
370
    15
100
AcDbCircle
 10
2154.726956959607
 20
701.6822567887155
 30
0.0
 40
2.145679479869426
100
AcDbArc
 50
166.5246847195515
 51
193.4753152804485
  0
ARC
  5
6C2
330
6B7
100
AcDbEntity
  8
0
  6
Continuous
 62
     7
370
    15
100
AcDbCircle
 10
2154.726956959607
 20
701.6822567887155
 30
0.0
 40
2.197439522055226
100
AcDbArc
 50
193.1521401048788
 51
346.8478598951275
  0
ARC
  5
6C3
330
6B7
100
AcDbEntity
  8
0
  6
Continuous
 62
     7
370
    15
100
AcDbCircle
 10
2154.726956959607
 20
701.6822567887155
 30
0.0
 40
2.145679479869398
100
AcDbArc
 50
346.5246847195578
 51
13.4753152804485
  0
CIRCLE
  5
6C4
330
6B7
100
AcDbEntity
  8
0
  6
Continuous
 62
     7
370
    15
100
AcDbCircle
 10
2229.726956959609
 20
701.6822567887158
 30
0.0
 40
2.475000000004001
  0
CIRCLE
  5
6C5
330
6B7
100
AcDbEntity
  8
0
  6
Continuous
 62
     7
370
    15
100
AcDbCircle
 10
2229.726956959609
 20
701.6822567887158
 30
0.0
 40
3.425000000000011
  0
ARC
  5
6C6
330
6B7
100
AcDbEntity
  8
0
  6
Continuous
 62
     7
370
    15
100
AcDbCircle
 10
2229.726956959609
 20
701.6822567887158
 30
0.0
 40
2.145679479869398
100
AcDbArc
 50
166.5246847195515
 51
193.4753152804485
  0
ARC
  5
6C7
330
6B7
100
AcDbEntity
  8
0
  6
Continuous
 62
     7
370
    15
100
AcDbCircle
 10
2229.726956959609
 20
701.6822567887158
 30
0.0
 40
2.19743952205517
100
AcDbArc
 50
193.1521401048725
 51
346.8478598951275
  0
ARC
  5
6C8
330
6B7
100
AcDbEntity
  8
0
  6
Continuous
 62
     7
370
    15
100
AcDbCircle
 10
2229.726956959609
 20
701.6822567887158
 30
0.0
 40
2.145679479869454
100
AcDbArc
 50
346.5246847195578
 51
13.4753152804485
  0
ARC
  5
6C9
330
6B7
100
AcDbEntity
  8
0
  6
Continuous
 62
     7
370
    15
100
AcDbCircle
 10
2229.726956959609
 20
701.6822567887158
 30
0.0
 40
2.197439522055281
100
AcDbArc
 50
13.1521401048725
 51
166.8478598951211
  0
CIRCLE
  5
6CA
330
6B7
100
AcDbEntity
  8
0
  6
Continuous
 62
     7
370
    15
100
AcDbCircle
 10
2184.726956959609
 20
701.6822567887157
 30
0.0
 40
2.475000000004001
  0
CIRCLE
  5
6CB
330
6B7
100
AcDbEntity
  8
0
  6
Continuous
 62
     7
370
    15
100
AcDbCircle
 10
2184.726956959609
 20
701.6822567887157
 30
0.0
 40
3.425000000000011
  0
ARC
  5
6CC
330
6B7
100
AcDbEntity
  8
0
  6
Continuous
 62
     7
370
    15
100
AcDbCircle
 10
2184.726956959609
 20
701.6822567887157
 30
0.0
 40
2.145679479869426
100
AcDbArc
 50
166.5246847195515
 51
193.4753152804485
  0
ARC
  5
6CD
330
6B7
100
AcDbEntity
  8
0
  6
Continuous
 62
     7
370
    15
100
AcDbCircle
 10
2184.726956959609
 20
701.6822567887157
 30
0.0
 40
2.197439522055198
100
AcDbArc
 50
193.1521401048725
 51
346.8478598951212
  0
ARC
  5
6CE
330
6B7
100
AcDbEntity
  8
0
  6
Continuous
 62
     7
370
    15
100
AcDbCircle
 10
2184.726956959609
 20
701.6822567887157
 30
0.0
 40
2.145679479869398
100
AcDbArc
 50
346.5246847195578
 51
13.4753152804485
  0
ARC
  5
6CF
330
6B7
100
AcDbEntity
  8
0
  6
Continuous
 62
     7
370
    15
100
AcDbCircle
 10
2184.726956959609
 20
701.6822567887157
 30
0.0
 40
2.197439522055198
100
AcDbArc
 50
13.1521401048725
 51
166.8478598951211
  0
CIRCLE
  5
6D0
330
6B7
100
AcDbEntity
  8
0
  6
Continuous
 62
     7
370
    15
100
AcDbCircle
 10
2199.726956959609
 20
701.6822567887157
 30
0.0
 40
2.475000000004001
  0
ARC
  5
6D1
330
6B7
100
AcDbEntity
  8
0
  6
Continuous
 62
     7
370
    15
100
AcDbCircle
 10
2199.726956959609
 20
701.6822567887157
 30
0.0
 40
2.145679479869398
100
AcDbArc
 50
166.5246847195515
 51
193.4753152804485
  0
ARC
  5
6D2
330
6B7
100
AcDbEntity
  8
0
  6
Continuous
 62
     7
370
    15
100
AcDbCircle
 10
2199.726956959609
 20
701.6822567887157
 30
0.0
 40
2.197439522055226
100
AcDbArc
 50
193.1521401048725
 51
346.8478598951212
  0
ARC
  5
6D3
330
6B7
100
AcDbEntity
  8
0
  6
Continuous
 62
     7
370
    15
100
AcDbCircle
 10
2199.726956959609
 20
701.6822567887157
 30
0.0
 40
2.145679479869426
100
AcDbArc
 50
346.5246847195578
 51
13.4753152804485
  0
ARC
  5
6D4
330
6B7
100
AcDbEntity
  8
0
  6
Continuous
 62
     7
370
    15
100
AcDbCircle
 10
2199.726956959609
 20
701.6822567887157
 30
0.0
 40
2.197439522055226
100
AcDbArc
 50
13.1521401048725
 51
166.8478598951211
  0
CIRCLE
  5
6D5
330
6B7
100
AcDbEntity
  8
0
  6
Continuous
 62
     7
370
    15
100
AcDbCircle
 10
2154.726956959607
 20
701.6822567887155
 30
0.0
 40
3.425000000000011
  0
CIRCLE
  5
6D6
330
6B7
100
AcDbEntity
  8
0
  6
Continuous
 62
     7
370
    15
100
AcDbCircle
 10
2169.726956959609
 20
701.6822567887155
 30
0.0
 40
2.475000000004001
  0
ARC
  5
6D7
330
6B7
100
AcDbEntity
  8
0
  6
Continuous
 62
     7
370
    15
100
AcDbCircle
 10
2169.726956959609
 20
701.6822567887155
 30
0.0
 40
2.145679479869371
100
AcDbArc
 50
166.5246847195515
 51
193.4753152804485
  0
ARC
  5
6D8
330
6B7
100
AcDbEntity
  8
0
  6
Continuous
 62
     7
370
    15
100
AcDbCircle
 10
2169.726956959609
 20
701.6822567887155
 30
0.0
 40
2.197439522055198
100
AcDbArc
 50
193.1521401048725
 51
346.8478598951275
  0
ARC
  5
6D9
330
6B7
100
AcDbEntity
  8
0
  6
Continuous
 62
     7
370
    15
100
AcDbCircle
 10
2169.726956959609
 20
701.6822567887155
 30
0.0
 40
2.145679479869454
100
AcDbArc
 50
346.5246847195578
 51
13.4753152804485
  0
ARC
  5
6DA
330
6B7
100
AcDbEntity
  8
0
  6
Continuous
 62
     7
370
    15
100
AcDbCircle
 10
2169.726956959609
 20
701.6822567887155
 30
0.0
 40
2.197439522055253
100
AcDbArc
 50
13.1521401048725
 51
166.8478598951211
  0
CIRCLE
  5
6DB
330
6B7
100
AcDbEntity
  8
0
  6
Continuous
 62
     7
370
    15
100
AcDbCircle
 10
2199.726956959609
 20
701.6822567887157
 30
0.0
 40
3.424999999999982
  0
CIRCLE
  5
6DC
330
6B7
100
AcDbEntity
  8
0
  6
Continuous
 62
     7
370
    15
100
AcDbCircle
 10
2244.726956959609
 20
701.6822567887158
 30
0.0
 40
2.475000000004001
  0
CIRCLE
  5
6DD
330
6B7
100
AcDbEntity
  8
0
  6
Continuous
 62
     7
370
    15
100
AcDbCircle
 10
2244.726956959609
 20
701.6822567887158
 30
0.0
 40
3.425000000000011
  0
CIRCLE
  5
6DE
330
6B7
100
AcDbEntity
  8
0
  6
Continuous
 62
     7
370
    15
100
AcDbCircle
 10
2169.726956959609
 20
701.6822567887155
 30
0.0
 40
3.425000000000011
  0
CIRCLE
  5
6DF
330
6B7
100
AcDbEntity
  8
0
  6
Continuous
 62
     7
370
    15
100
AcDbCircle
 10
2214.726956959609
 20
701.6822567887157
 30
0.0
 40
3.424999999999982
  0
ARC
  5
6E0
330
6B7
100
AcDbEntity
  8
0
  6
Continuous
 62
     7
370
    15
100
AcDbCircle
 10
2244.726956959609
 20
701.6822567887158
 30
0.0
 40
2.145679479869398
100
AcDbArc
 50
166.5246847195515
 51
193.4753152804485
  0
ARC
  5
6E1
330
6B7
100
AcDbEntity
  8
0
  6
Continuous
 62
     7
370
    15
100
AcDbCircle
 10
2244.726956959609
 20
701.6822567887158
 30
0.0
 40
2.19743952205517
100
AcDbArc
 50
193.1521401048725
 51
346.8478598951212
  0
ARC
  5
6E2
330
6B7
100
AcDbEntity
  8
0
  6
Continuous
 62
     7
370
    15
100
AcDbCircle
 10
2244.726956959609
 20
701.6822567887158
 30
0.0
 40
2.145679479869454
100
AcDbArc
 50
346.5246847195578
 51
13.4753152804485
  0
ARC
  5
6E3
330
6B7
100
AcDbEntity
  8
0
  6
Continuous
 62
     7
370
    15
100
AcDbCircle
 10
2244.726956959609
 20
701.6822567887158
 30
0.0
 40
2.197439522055226
100
AcDbArc
 50
13.1521401048725
 51
166.8478598951211
  0
SPLINE
  5
6E4
330
6B7
100
AcDbEntity
  8
0
  6
Continuous
 62
     7
370
    15
100
AcDbSpline
210
0.0
220
0.0
230
1.0
 70
     8
 71
     3
 72
    26
 73
    22
 74
     0
 42
0.0000000001
 43
0.0000000001
 40
0.0
 40
0.0
 40
0.0
 40
0.0
 40
0.0230715729476342
 40
0.046009032497359
 40
0.0688963121643152
 40
0.0918178967114747
 40
0.1148578935298943
 40
0.1672666081108501
 40
0.2198734143150276
 40
0.2872072951295931
 40
0.3550347613670424
 40
0.4272288750175969
 40
0.5000425990362797
 40
0.5721736231559386
 40
0.6450487461993218
 40
0.7123665728304424
 40
0.7802169049632344
 40
0.8396683342519311
 40
0.8991910480712959
 40
0.9495075749985694
 40
1.0
 40
1.0
 40
1.0
 40
1.0
 10
2227.802000064465
 20
702.1822567887157
 30
0.0
 10
2227.812799038892
 20
702.2210282560506
 30
0.0
 10
2227.834334214081
 20
702.298345814963
 30
0.0
 10
2227.875320270664
 20
702.4114072228374
 30
0.0
 10
2227.922509927624
 20
702.5216800772938
 30
0.0
 10
2227.97653683053
 20
702.6290002354261
 30
0.0
 10
2228.062748432735
 20
702.7774000622879
 30
0.0
 10
2228.193838055948
 20
702.9591833305588
 30
0.0
 10
2228.402384487792
 20
703.1768357630404
 30
0.0
 10
2228.664352793444
 20
703.3763356742858
 30
0.0
 10
2228.988486055675
 20
703.5408144570022
 30
0.0
 10
2229.346429085095
 20
703.6473434156946
 30
0.0
 10
2229.725768102821
 20
703.6829123750976
 30
0.0
 10
2230.106274136788
 20
703.6475282976641
 30
0.0
 10
2230.463459529866
 20
703.5415335013267
 30
0.0
 10
2230.788995736582
 20
703.3771253510169
 30
0.0
 10
2231.060286257252
 20
703.1701104169497
 30
0.0
 10
2231.284979452156
 20
702.9323187982245
 30
0.0
 10
2231.450855535475
 20
702.6867963014844
 30
0.0
 10
2231.575698534794
 20
702.4352878041591
 30
0.0
 10
2231.626479212946
 20
702.2666985157478
 30
0.0
 10
2231.651913854752
 20
702.1822567887157
 30
0.0
  0
LINE
  5
6E5
330
6B7
100
AcDbEntity
  8
0
  6
Continuous
 62
     7
370
    15
100
AcDbLine
 10
2231.651913854752
 20
702.1822567887157
 30
0.0
 11
2227.802000064465
 21
702.1822567887157
 31
0.0
  0
SPLINE
  5
6E6
330
6B7
100
AcDbEntity
  8
0
  6
Continuous
 62
     7
370
    15
100
AcDbSpline
210
0.0
220
0.0
230
1.0
 70
     8
 71
     3
 72
    26
 73
    22
 74
     0
 42
0.0000000001
 43
0.0000000001
 40
0.0
 40
0.0
 40
0.0
 40
0.0
 40
0.0230715729476349
 40
0.0460090324973593
 40
0.0688963121643149
 40
0.0918178967114757
 40
0.1148578935298945
 40
0.1672666081108504
 40
0.2198734143150288
 40
0.2872072951295932
 40
0.3550347613670425
 40
0.427228875017597
 40
0.5000425990362782
 40
0.57217362315594
 40
0.6450487461993231
 40
0.7123665728304425
 40
0.7802169049632334
 40
0.8396683342519322
 40
0.8991910480712963
 40
0.9495075749985691
 40
0.9999999999999998
 40
0.9999999999999998
 40
0.9999999999999998
 40
0.9999999999999998
 10
2212.802000064465
 20
702.1822567887157
 30
0.0
 10
2212.812799038891
 20
702.2210282560506
 30
0.0
 10
2212.834334214081
 20
702.298345814963
 30
0.0
 10
2212.875320270665
 20
702.4114072228372
 30
0.0
 10
2212.922509927624
 20
702.5216800772937
 30
0.0
 10
2212.97653683053
 20
702.6290002354261
 30
0.0
 10
2213.062748432735
 20
702.7774000622878
 30
0.0
 10
2213.193838055948
 20
702.9591833305586
 30
0.0
 10
2213.402384487792
 20
703.1768357630403
 30
0.0
 10
2213.664352793444
 20
703.3763356742857
 30
0.0
 10
2213.988486055676
 20
703.5408144570022
 30
0.0
 10
2214.346429085094
 20
703.6473434156945
 30
0.0
 10
2214.725768102821
 20
703.6829123750975
 30
0.0
 10
2215.106274136788
 20
703.6475282976641
 30
0.0
 10
2215.463459529865
 20
703.5415335013266
 30
0.0
 10
2215.788995736582
 20
703.3771253510169
 30
0.0
 10
2216.060286257253
 20
703.1701104169497
 30
0.0
 10
2216.284979452156
 20
702.9323187982243
 30
0.0
 10
2216.450855535475
 20
702.6867963014844
 30
0.0
 10
2216.575698534795
 20
702.4352878041591
 30
0.0
 10
2216.626479212946
 20
702.2666985157478
 30
0.0
 10
2216.651913854752
 20
702.1822567887157
 30
0.0
  0
LINE
  5
6E7
330
6B7
100
AcDbEntity
  8
0
  6
Continuous
 62
     7
370
    15
100
AcDbLine
 10
2216.651913854752
 20
702.1822567887157
 30
0.0
 11
2212.802000064465
 21
702.1822567887157
 31
0.0
  0
SPLINE
  5
6E8
330
6B7
100
AcDbEntity
  8
0
  6
Continuous
 62
     7
370
    15
100
AcDbSpline
210
0.0
220
0.0
230
1.0
 70
     8
 71
     3
 72
    26
 73
    22
 74
     0
 42
0.0000000001
 43
0.0000000001
 40
0.0
 40
0.0
 40
0.0
 40
0.0
 40
0.0230715729476349
 40
0.0460090324973593
 40
0.0688963121643149
 40
0.0918178967114757
 40
0.1148578935298945
 40
0.1672666081108504
 40
0.2198734143150288
 40
0.2872072951295932
 40
0.3550347613670424
 40
0.427228875017597
 40
0.5000425990362782
 40
0.57217362315594
 40
0.6450487461993231
 40
0.7123665728304426
 40
0.7802169049632334
 40
0.8396683342519322
 40
0.8991910480712963
 40
0.9495075749985691
 40
0.9999999999999998
 40
0.9999999999999998
 40
0.9999999999999998
 40
0.9999999999999998
 10
2197.802000064465
 20
702.1822567887157
 30
0.0
 10
2197.812799038892
 20
702.2210282560505
 30
0.0
 10
2197.834334214081
 20
702.2983458149629
 30
0.0
 10
2197.875320270664
 20
702.4114072228371
 30
0.0
 10
2197.922509927624
 20
702.5216800772937
 30
0.0
 10
2197.97653683053
 20
702.629000235426
 30
0.0
 10
2198.062748432735
 20
702.7774000622878
 30
0.0
 10
2198.193838055948
 20
702.9591833305586
 30
0.0
 10
2198.402384487792
 20
703.1768357630403
 30
0.0
 10
2198.664352793445
 20
703.3763356742857
 30
0.0
 10
2198.988486055675
 20
703.540814457002
 30
0.0
 10
2199.346429085094
 20
703.6473434156945
 30
0.0
 10
2199.725768102821
 20
703.6829123750975
 30
0.0
 10
2200.106274136788
 20
703.6475282976641
 30
0.0
 10
2200.463459529865
 20
703.5415335013266
 30
0.0
 10
2200.788995736582
 20
703.3771253510168
 30
0.0
 10
2201.060286257252
 20
703.1701104169497
 30
0.0
 10
2201.284979452156
 20
702.9323187982243
 30
0.0
 10
2201.450855535476
 20
702.6867963014844
 30
0.0
 10
2201.575698534794
 20
702.435287804159
 30
0.0
 10
2201.626479212947
 20
702.2666985157477
 30
0.0
 10
2201.651913854752
 20
702.1822567887157
 30
0.0
  0
LINE
  5
6E9
330
6B7
100
AcDbEntity
  8
0
  6
Continuous
 62
     7
370
    15
100
AcDbLine
 10
2201.651913854752
 20
702.1822567887157
 30
0.0
 11
2197.802000064465
 21
702.1822567887157
 31
0.0
  0
SPLINE
  5
6EA
330
6B7
100
AcDbEntity
  8
0
  6
Continuous
 62
     7
370
    15
100
AcDbSpline
210
0.0
220
0.0
230
1.0
 70
     8
 71
     3
 72
    26
 73
    22
 74
     0
 42
0.0000000001
 43
0.0000000001
 40
0.0
 40
0.0
 40
0.0
 40
0.0
 40
0.0230715729476342
 40
0.046009032497359
 40
0.0688963121643151
 40
0.0918178967114747
 40
0.1148578935298942
 40
0.16726660811085
 40
0.2198734143150275
 40
0.287207295129593
 40
0.3550347613670422
 40
0.4272288750175968
 40
0.5000425990362794
 40
0.5721736231559384
 40
0.6450487461993215
 40
0.7123665728304422
 40
0.7802169049632342
 40
0.8396683342519311
 40
0.8991910480712959
 40
0.9495075749985694
 40
1.0
 40
1.0
 40
1.0
 40
1.0
 10
2242.802000064465
 20
702.1822567887158
 30
0.0
 10
2242.812799038892
 20
702.2210282560506
 30
0.0
 10
2242.834334214081
 20
702.2983458149631
 30
0.0
 10
2242.875320270664
 20
702.4114072228374
 30
0.0
 10
2242.922509927624
 20
702.5216800772938
 30
0.0
 10
2242.97653683053
 20
702.6290002354262
 30
0.0
 10
2243.062748432735
 20
702.7774000622879
 30
0.0
 10
2243.193838055947
 20
702.9591833305588
 30
0.0
 10
2243.402384487792
 20
703.1768357630405
 30
0.0
 10
2243.664352793445
 20
703.3763356742858
 30
0.0
 10
2243.988486055676
 20
703.5408144570022
 30
0.0
 10
2244.346429085094
 20
703.6473434156946
 30
0.0
 10
2244.725768102822
 20
703.6829123750976
 30
0.0
 10
2245.106274136788
 20
703.6475282976643
 30
0.0
 10
2245.463459529865
 20
703.5415335013267
 30
0.0
 10
2245.788995736582
 20
703.377125351017
 30
0.0
 10
2246.060286257252
 20
703.1701104169499
 30
0.0
 10
2246.284979452156
 20
702.9323187982245
 30
0.0
 10
2246.450855535476
 20
702.6867963014844
 30
0.0
 10
2246.575698534794
 20
702.4352878041593
 30
0.0
 10
2246.626479212947
 20
702.266698515748
 30
0.0
 10
2246.651913854752
 20
702.1822567887158
 30
0.0
  0
LINE
  5
6EB
330
6B7
100
AcDbEntity
  8
0
  6
Continuous
 62
     7
370
    15
100
AcDbLine
 10
2246.651913854752
 20
702.1822567887158
 30
0.0
 11
2242.802000064465
 21
702.1822567887158
 31
0.0
  0
SPLINE
  5
6EC
330
6B7
100
AcDbEntity
  8
0
  6
Continuous
 62
     7
370
    15
100
AcDbSpline
210
0.0
220
0.0
230
1.0
 70
     8
 71
     3
 72
    14
 73
    10
 74
     0
 42
0.0000000001
 43
0.0000000001
 40
0.0
 40
0.0
 40
0.0
 40
0.0
 40
0.25
 40
0.25
 40
0.5
 40
0.5
 40
0.75
 40
0.75
 40
1.0
 40
1.0
 40
1.0
 40
1.0
 10
2152.802000064464
 20
702.1822567887156
 30
0.0
 10
2152.912719309849
 20
702.6085163383741
 30
0.0
 10
2153.161824686982
 20
702.9860113562318
 30
0.0
 10
2153.858555894376
 20
703.5248893058062
 30
0.0
 10
2154.286552651075
 20
703.6710903785767
 30
0.0
 10
2155.167361268139
 20
703.6710903785767
 30
0.0
 10
2155.595358024838
 20
703.5248893058062
 30
0.0
 10
2156.292089232233
 20
702.9860113562318
 30
0.0
 10
2156.541194609365
 20
702.6085163383741
 30
0.0
 10
2156.651913854751
 20
702.1822567887156
 30
0.0
  0
LINE
  5
6ED
330
6B7
100
AcDbEntity
  8
0
  6
Continuous
 62
     7
370
    15
100
AcDbLine
 10
2152.802000064464
 20
702.1822567887156
 30
0.0
 11
2156.651913854751
 21
702.1822567887156
 31
0.0
  0
SPLINE
  5
6EE
330
6B7
100
AcDbEntity
  8
0
  6
Continuous
 62
     7
370
    15
100
AcDbSpline
210
0.0
220
0.0
230
1.0
 70
     8
 71
     3
 72
    26
 73
    22
 74
     0
 42
0.0000000001
 43
0.0000000001
 40
0.0
 40
0.0
 40
0.0
 40
0.0
 40
0.0230715729476345
 40
0.0460090324973591
 40
0.068896312164315
 40
0.0918178967114755
 40
0.1148578935298947
 40
0.1672666081108498
 40
0.2198734143150281
 40
0.2872072951295931
 40
0.3550347613670426
 40
0.4272288750175976
 40
0.5000425990362788
 40
0.5721736231559394
 40
0.645048746199323
 40
0.7123665728304424
 40
0.7802169049632333
 40
0.8396683342519317
 40
0.8991910480712959
 40
0.9495075749985691
 40
0.9999999999999998
 40
0.9999999999999998
 40
0.9999999999999998
 40
0.9999999999999998
 10
2167.802000064465
 20
702.1822567887156
 30
0.0
 10
2167.812799038892
 20
702.2210282560504
 30
0.0
 10
2167.834334214081
 20
702.2983458149627
 30
0.0
 10
2167.875320270665
 20
702.411407222837
 30
0.0
 10
2167.922509927624
 20
702.5216800772934
 30
0.0
 10
2167.97653683053
 20
702.6290002354259
 30
0.0
 10
2168.062748432735
 20
702.7774000622875
 30
0.0
 10
2168.193838055948
 20
702.9591833305585
 30
0.0
 10
2168.402384487792
 20
703.1768357630402
 30
0.0
 10
2168.664352793444
 20
703.3763356742857
 30
0.0
 10
2168.988486055676
 20
703.5408144570019
 30
0.0
 10
2169.346429085095
 20
703.6473434156944
 30
0.0
 10
2169.725768102821
 20
703.6829123750974
 30
0.0
 10
2170.106274136788
 20
703.6475282976639
 30
0.0
 10
2170.463459529865
 20
703.5415335013265
 30
0.0
 10
2170.788995736582
 20
703.3771253510167
 30
0.0
 10
2171.060286257253
 20
703.1701104169496
 30
0.0
 10
2171.284979452156
 20
702.9323187982242
 30
0.0
 10
2171.450855535475
 20
702.6867963014843
 30
0.0
 10
2171.575698534795
 20
702.435287804159
 30
0.0
 10
2171.626479212946
 20
702.2666985157476
 30
0.0
 10
2171.651913854752
 20
702.1822567887156
 30
0.0
  0
LINE
  5
6EF
330
6B7
100
AcDbEntity
  8
0
  6
Continuous
 62
     7
370
    15
100
AcDbLine
 10
2171.651913854752
 20
702.1822567887156
 30
0.0
 11
2167.802000064465
 21
702.1822567887156
 31
0.0
  0
SPLINE
  5
6F0
330
6B7
100
AcDbEntity
  8
0
  6
Continuous
 62
     7
370
    15
100
AcDbSpline
210
0.0
220
0.0
230
1.0
 70
     8
 71
     3
 72
    26
 73
    22
 74
     0
 42
0.0000000001
 43
0.0000000001
 40
0.0
 40
0.0
 40
0.0
 40
0.0
 40
0.0230715729476346
 40
0.0460090324973592
 40
0.0688963121643151
 40
0.0918178967114755
 40
0.1148578935298948
 40
0.1672666081108498
 40
0.2198734143150282
 40
0.2872072951295933
 40
0.3550347613670425
 40
0.4272288750175978
 40
0.500042599036279
 40
0.57217362315594
 40
0.6450487461993232
 40
0.7123665728304428
 40
0.7802169049632336
 40
0.8396683342519322
 40
0.8991910480712963
 40
0.9495075749985691
 40
1.0
 40
1.0
 40
1.0
 40
1.0
 10
2182.802000064465
 20
702.1822567887157
 30
0.0
 10
2182.812799038892
 20
702.2210282560504
 30
0.0
 10
2182.834334214081
 20
702.2983458149629
 30
0.0
 10
2182.875320270664
 20
702.4114072228371
 30
0.0
 10
2182.922509927624
 20
702.5216800772936
 30
0.0
 10
2182.97653683053
 20
702.629000235426
 30
0.0
 10
2183.062748432735
 20
702.7774000622876
 30
0.0
 10
2183.193838055948
 20
702.9591833305585
 30
0.0
 10
2183.402384487792
 20
703.1768357630402
 30
0.0
 10
2183.664352793444
 20
703.3763356742857
 30
0.0
 10
2183.988486055675
 20
703.540814457002
 30
0.0
 10
2184.346429085094
 20
703.6473434156944
 30
0.0
 10
2184.725768102822
 20
703.6829123750974
 30
0.0
 10
2185.106274136788
 20
703.647528297664
 30
0.0
 10
2185.463459529865
 20
703.5415335013265
 30
0.0
 10
2185.788995736582
 20
703.3771253510167
 30
0.0
 10
2186.060286257252
 20
703.1701104169497
 30
0.0
 10
2186.284979452156
 20
702.9323187982242
 30
0.0
 10
2186.450855535476
 20
702.6867963014843
 30
0.0
 10
2186.575698534794
 20
702.435287804159
 30
0.0
 10
2186.626479212947
 20
702.2666985157477
 30
0.0
 10
2186.651913854752
 20
702.1822567887157
 30
0.0
  0
LINE
  5
6F1
330
6B7
100
AcDbEntity
  8
0
  6
Continuous
 62
     7
370
    15
100
AcDbLine
 10
2186.651913854752
 20
702.1822567887157
 30
0.0
 11
2182.802000064465
 21
702.1822567887157
 31
0.0
  0
SPLINE
  5
6F2
330
6B7
100
AcDbEntity
  8
0
  6
Continuous
 62
     7
370
    15
100
AcDbSpline
210
0.0
220
0.0
230
1.0
 70
     8
 71
     3
 72
    10
 73
     6
 74
     0
 42
0.0000000001
 43
0.0000000001
 40
0.0
 40
0.0
 40
0.0
 40
0.0
 40
0.5
 40
0.5
 40
1.0
 40
1.0
 40
1.0
 40
1.0
 10
2156.651913854751
 20
701.1822567887155
 30
0.0
 10
2156.541194609365
 20
700.755997239057
 30
0.0
 10
2156.292089232233
 20
700.3785022211992
 30
0.0
 10
2155.595358024838
 20
699.8396242716248
 30
0.0
 10
2155.167361268139
 20
699.6934231988543
 30
0.0
 10
2154.726956959607
 20
699.6934231988543
 30
0.0
  0
SPLINE
  5
6F3
330
6B7
100
AcDbEntity
  8
0
  6
Continuous
 62
     7
370
    15
100
AcDbSpline
210
0.0
220
0.0
230
1.0
 70
     8
 71
     3
 72
    10
 73
     6
 74
     0
 42
0.0000000001
 43
0.0000000001
 40
0.0
 40
0.0
 40
0.0
 40
0.0
 40
0.5
 40
0.5
 40
1.0
 40
1.0
 40
1.0
 40
1.0
 10
2154.726956959607
 20
699.6934231988543
 30
0.0
 10
2154.286552651075
 20
699.6934231988543
 30
0.0
 10
2153.858555894376
 20
699.8396242716248
 30
0.0
 10
2153.161824686982
 20
700.3785022211992
 30
0.0
 10
2152.912719309849
 20
700.755997239057
 30
0.0
 10
2152.802000064464
 20
701.1822567887155
 30
0.0
  0
LINE
  5
6F4
330
6B7
100
AcDbEntity
  8
0
  6
Continuous
 62
     7
370
    15
100
AcDbLine
 10
2156.651913854751
 20
701.1822567887155
 30
0.0
 11
2152.802000064464
 21
701.1822567887155
 31
0.0
  0
SPLINE
  5
6F5
330
6B7
100
AcDbEntity
  8
0
  6
Continuous
 62
     7
370
    15
100
AcDbSpline
210
0.0
220
0.0
230
1.0
 70
     8
 71
     3
 72
    19
 73
    15
 74
     0
 42
0.0000000001
 43
0.0000000001
 40
0.0
 40
0.0
 40
0.0
 40
0.0
 40
0.0488679617767452
 40
0.0974204996714143
 40
0.1458568154919773
 40
0.1943775425164284
 40
0.2431822730058973
 40
0.3715078253163599
 40
0.5000352027282094
 40
0.6283607973257652
 40
0.7568882170903875
 40
0.8379484026938426
 40
0.9186755957281175
 40
1.0
 40
1.0
 40
1.0
 40
1.0
 10
2231.651913854752
 20
701.1822567887158
 30
0.0
 10
2231.640431196263
 20
701.1411930794188
 30
0.0
 10
2231.617539995423
 20
701.0593307112612
 30
0.0
 10
2231.573486314442
 20
700.9398389891099
 30
0.0
 10
2231.522498191564
 20
700.8235385609996
 30
0.0
 10
2231.463868926507
 20
700.7106090819803
 30
0.0
 10
2231.362234883548
 20
700.541961073628
 30
0.0
 10
2231.198549353847
 20
700.3296992228427
 30
0.0
 10
2230.949557657165
 20
700.1018069401876
 30
0.0
 10
2230.666258682488
 20
699.9179914978423
 30
0.0
 10
2230.393702205244
 20
699.8017258555193
 30
0.0
 10
2230.149110489404
 20
699.7349657465941
 30
0.0
 10
2229.939339061616
 20
699.6998985533256
 30
0.0
 10
2229.797924712435
 20
699.695586946888
 30
0.0
 10
2229.726956959609
 20
699.6934231988546
 30
0.0
  0
SPLINE
  5
6F6
330
6B7
100
AcDbEntity
  8
0
  6
Continuous
 62
     7
370
    15
100
AcDbSpline
210
0.0
220
0.0
230
1.0
 70
     8
 71
     3
 72
    19
 73
    15
 74
     0
 42
0.0000000001
 43
0.0000000001
 40
0.0
 40
0.0
 40
0.0
 40
0.0
 40
0.0488679617766784
 40
0.0974204996713085
 40
0.1458568154918755
 40
0.1943775425163595
 40
0.2431822730058919
 40
0.3715078253162689
 40
0.5000352027282089
 40
0.6283607973257652
 40
0.756888217090385
 40
0.8379484026938238
 40
0.9186755957280942
 40
1.0
 40
1.0
 40
1.0
 40
1.0
 10
2229.726956959609
 20
699.6934231988546
 30
0.0
 10
2229.684325338729
 20
699.6942134952344
 30
0.0
 10
2229.599337267671
 20
699.695788986935
 30
0.0
 10
2229.472608085178
 20
699.7083871127983
 30
0.0
 10
2229.347224355886
 20
699.7284992653952
 30
0.0
 10
2229.223182297722
 20
699.756854613377
 30
0.0
 10
2229.03439970177
 20
699.8128256851485
 30
0.0
 10
2228.787804068734
 20
699.9178906160225
 30
0.0
 10
2228.504633736104
 20
700.101592331388
 30
0.0
 10
2228.255499624008
 20
700.3295805330314
 30
0.0
 10
2228.074446472897
 20
700.5641535266718
 30
0.0
 10
2227.948339295708
 20
700.7841057929992
 30
0.0
 10
2227.861661078764
 20
700.9783238319832
 30
0.0
 10
2227.821935869206
 20
701.1141123286615
 30
0.0
 10
2227.802000064465
 20
701.1822567887158
 30
0.0
  0
LINE
  5
6F7
330
6B7
100
AcDbEntity
  8
0
  6
Continuous
 62
     7
370
    15
100
AcDbLine
 10
2227.802000064465
 20
701.1822567887158
 30
0.0
 11
2231.651913854752
 21
701.1822567887158
 31
0.0
  0
SPLINE
  5
6F8
330
6B7
100
AcDbEntity
  8
0
  6
Continuous
 62
     7
370
    15
100
AcDbSpline
210
0.0
220
0.0
230
1.0
 70
     8
 71
     3
 72
    19
 73
    15
 74
     0
 42
0.0000000001
 43
0.0000000001
 40
0.0
 40
0.0
 40
0.0
 40
0.0
 40
0.0488679617767452
 40
0.0974204996714143
 40
0.1458568154919773
 40
0.1943775425164284
 40
0.2431822730058974
 40
0.37150782531636
 40
0.5000352027282094
 40
0.6283607973257653
 40
0.7568882170903875
 40
0.8379484026938426
 40
0.9186755957281175
 40
1.0
 40
1.0
 40
1.0
 40
1.0
 10
2246.651913854752
 20
701.1822567887159
 30
0.0
 10
2246.640431196262
 20
701.1411930794188
 30
0.0
 10
2246.617539995423
 20
701.0593307112614
 30
0.0
 10
2246.573486314442
 20
700.9398389891099
 30
0.0
 10
2246.522498191564
 20
700.8235385609997
 30
0.0
 10
2246.463868926507
 20
700.7106090819804
 30
0.0
 10
2246.362234883548
 20
700.5419610736281
 30
0.0
 10
2246.198549353848
 20
700.3296992228428
 30
0.0
 10
2245.949557657166
 20
700.1018069401878
 30
0.0
 10
2245.666258682488
 20
699.9179914978424
 30
0.0
 10
2245.393702205243
 20
699.8017258555193
 30
0.0
 10
2245.149110489403
 20
699.7349657465941
 30
0.0
 10
2244.939339061617
 20
699.6998985533257
 30
0.0
 10
2244.797924712435
 20
699.695586946888
 30
0.0
 10
2244.726956959609
 20
699.6934231988546
 30
0.0
  0
SPLINE
  5
6F9
330
6B7
100
AcDbEntity
  8
0
  6
Continuous
 62
     7
370
    15
100
AcDbSpline
210
0.0
220
0.0
230
1.0
 70
     8
 71
     3
 72
    19
 73
    15
 74
     0
 42
0.0000000001
 43
0.0000000001
 40
0.0
 40
0.0
 40
0.0
 40
0.0
 40
0.0488679617766784
 40
0.0974204996713085
 40
0.1458568154918755
 40
0.1943775425163596
 40
0.2431822730058919
 40
0.3715078253162689
 40
0.500035202728209
 40
0.6283607973257652
 40
0.756888217090385
 40
0.8379484026938238
 40
0.9186755957280942
 40
1.0
 40
1.0
 40
1.0
 40
1.0
 10
2244.726956959609
 20
699.6934231988546
 30
0.0
 10
2244.684325338729
 20
699.6942134952344
 30
0.0
 10
2244.599337267672
 20
699.695788986935
 30
0.0
 10
2244.472608085178
 20
699.7083871127983
 30
0.0
 10
2244.347224355886
 20
699.7284992653952
 30
0.0
 10
2244.223182297722
 20
699.7568546133772
 30
0.0
 10
2244.03439970177
 20
699.8128256851485
 30
0.0
 10
2243.787804068734
 20
699.9178906160225
 30
0.0
 10
2243.504633736104
 20
700.1015923313881
 30
0.0
 10
2243.255499624008
 20
700.3295805330314
 30
0.0
 10
2243.074446472897
 20
700.5641535266718
 30
0.0
 10
2242.948339295708
 20
700.7841057929992
 30
0.0
 10
2242.861661078764
 20
700.9783238319832
 30
0.0
 10
2242.821935869206
 20
701.1141123286616
 30
0.0
 10
2242.802000064465
 20
701.1822567887159
 30
0.0
  0
LINE
  5
6FA
330
6B7
100
AcDbEntity
  8
0
  6
Continuous
 62
     7
370
    15
100
AcDbLine
 10
2242.802000064465
 20
701.1822567887159
 30
0.0
 11
2246.651913854752
 21
701.1822567887159
 31
0.0
  0
SPLINE
  5
6FB
330
6B7
100
AcDbEntity
  8
0
  6
Continuous
 62
     7
370
    15
100
AcDbSpline
210
0.0
220
0.0
230
1.0
 70
     8
 71
     3
 72
    19
 73
    15
 74
     0
 42
0.0000000001
 43
0.0000000001
 40
0.0
 40
0.0
 40
0.0
 40
0.0
 40
0.0488679617767459
 40
0.0974204996714149
 40
0.1458568154919767
 40
0.1943775425164291
 40
0.2431822730058979
 40
0.3715078253163588
 40
0.50003520272821
 40
0.6283607973257657
 40
0.7568882170903853
 40
0.8379484026938454
 40
0.9186755957281148
 40
1.0
 40
1.0
 40
1.0
 40
1.0
 10
2201.651913854752
 20
701.1822567887157
 30
0.0
 10
2201.640431196262
 20
701.1411930794187
 30
0.0
 10
2201.617539995423
 20
701.0593307112611
 30
0.0
 10
2201.573486314442
 20
700.9398389891098
 30
0.0
 10
2201.522498191564
 20
700.8235385609995
 30
0.0
 10
2201.463868926507
 20
700.7106090819802
 30
0.0
 10
2201.362234883548
 20
700.5419610736279
 30
0.0
 10
2201.198549353847
 20
700.3296992228426
 30
0.0
 10
2200.949557657165
 20
700.1018069401875
 30
0.0
 10
2200.666258682488
 20
699.9179914978421
 30
0.0
 10
2200.393702205243
 20
699.801725855519
 30
0.0
 10
2200.149110489403
 20
699.7349657465941
 30
0.0
 10
2199.939339061617
 20
699.6998985533255
 30
0.0
 10
2199.797924712435
 20
699.6955869468879
 30
0.0
 10
2199.726956959609
 20
699.6934231988545
 30
0.0
  0
SPLINE
  5
6FC
330
6B7
100
AcDbEntity
  8
0
  6
Continuous
 62
     7
370
    15
100
AcDbSpline
210
0.0
220
0.0
230
1.0
 70
     8
 71
     3
 72
    19
 73
    15
 74
     0
 42
0.0000000001
 43
0.0000000001
 40
0.0
 40
0.0
 40
0.0
 40
0.0
 40
0.0488679617766757
 40
0.097420499671311
 40
0.1458568154918727
 40
0.1943775425163592
 40
0.2431822730058941
 40
0.3715078253162684
 40
0.5000352027282084
 40
0.6283607973257645
 40
0.756888217090384
 40
0.8379484026938241
 40
0.9186755957280944
 40
1.0
 40
1.0
 40
1.0
 40
1.0
 10
2199.726956959609
 20
699.6934231988545
 30
0.0
 10
2199.684325338729
 20
699.6942134952343
 30
0.0
 10
2199.599337267671
 20
699.6957889869349
 30
0.0
 10
2199.472608085178
 20
699.7083871127982
 30
0.0
 10
2199.347224355886
 20
699.7284992653951
 30
0.0
 10
2199.223182297722
 20
699.7568546133769
 30
0.0
 10
2199.03439970177
 20
699.8128256851482
 30
0.0
 10
2198.787804068734
 20
699.9178906160224
 30
0.0
 10
2198.504633736104
 20
700.1015923313879
 30
0.0
 10
2198.255499624008
 20
700.3295805330314
 30
0.0
 10
2198.074446472897
 20
700.5641535266716
 30
0.0
 10
2197.948339295708
 20
700.784105792999
 30
0.0
 10
2197.861661078764
 20
700.9783238319831
 30
0.0
 10
2197.821935869206
 20
701.1141123286614
 30
0.0
 10
2197.802000064465
 20
701.1822567887157
 30
0.0
  0
LINE
  5
6FD
330
6B7
100
AcDbEntity
  8
0
  6
Continuous
 62
     7
370
    15
100
AcDbLine
 10
2197.802000064465
 20
701.1822567887157
 30
0.0
 11
2201.651913854752
 21
701.1822567887157
 31
0.0
  0
SPLINE
  5
6FE
330
6B7
100
AcDbEntity
  8
0
  6
Continuous
 62
     7
370
    15
100
AcDbSpline
210
0.0
220
0.0
230
1.0
 70
     8
 71
     3
 72
    19
 73
    15
 74
     0
 42
0.0000000001
 43
0.0000000001
 40
0.0
 40
0.0
 40
0.0
 40
0.0
 40
0.0488679617767459
 40
0.097420499671415
 40
0.1458568154919768
 40
0.1943775425164291
 40
0.243182273005898
 40
0.3715078253163589
 40
0.50003520272821
 40
0.6283607973257657
 40
0.7568882170903853
 40
0.8379484026938454
 40
0.9186755957281148
 40
1.0
 40
1.0
 40
1.0
 40
1.0
 10
2216.651913854752
 20
701.1822567887157
 30
0.0
 10
2216.640431196262
 20
701.1411930794187
 30
0.0
 10
2216.617539995423
 20
701.0593307112612
 30
0.0
 10
2216.573486314442
 20
700.9398389891098
 30
0.0
 10
2216.522498191563
 20
700.8235385609996
 30
0.0
 10
2216.463868926507
 20
700.7106090819802
 30
0.0
 10
2216.362234883547
 20
700.541961073628
 30
0.0
 10
2216.198549353848
 20
700.3296992228427
 30
0.0
 10
2215.949557657165
 20
700.1018069401876
 30
0.0
 10
2215.666258682488
 20
699.9179914978423
 30
0.0
 10
2215.393702205243
 20
699.8017258555192
 30
0.0
 10
2215.149110489404
 20
699.7349657465941
 30
0.0
 10
2214.939339061617
 20
699.6998985533255
 30
0.0
 10
2214.797924712435
 20
699.6955869468879
 30
0.0
 10
2214.726956959609
 20
699.6934231988545
 30
0.0
  0
SPLINE
  5
6FF
330
6B7
100
AcDbEntity
  8
0
  6
Continuous
 62
     7
370
    15
100
AcDbSpline
210
0.0
220
0.0
230
1.0
 70
     8
 71
     3
 72
    19
 73
    15
 74
     0
 42
0.0000000001
 43
0.0000000001
 40
0.0
 40
0.0
 40
0.0
 40
0.0
 40
0.0488679617766757
 40
0.097420499671311
 40
0.1458568154918727
 40
0.1943775425163592
 40
0.2431822730058941
 40
0.3715078253162684
 40
0.5000352027282084
 40
0.6283607973257645
 40
0.756888217090384
 40
0.8379484026938241
 40
0.9186755957280944
 40
1.0
 40
1.0
 40
1.0
 40
1.0
 10
2214.726956959609
 20
699.6934231988545
 30
0.0
 10
2214.684325338729
 20
699.6942134952343
 30
0.0
 10
2214.599337267671
 20
699.6957889869349
 30
0.0
 10
2214.472608085178
 20
699.7083871127983
 30
0.0
 10
2214.347224355886
 20
699.7284992653951
 30
0.0
 10
2214.223182297722
 20
699.756854613377
 30
0.0
 10
2214.034399701771
 20
699.8128256851483
 30
0.0
 10
2213.787804068735
 20
699.9178906160224
 30
0.0
 10
2213.504633736103
 20
700.101592331388
 30
0.0
 10
2213.255499624009
 20
700.3295805330314
 30
0.0
 10
2213.074446472897
 20
700.5641535266716
 30
0.0
 10
2212.948339295708
 20
700.784105792999
 30
0.0
 10
2212.861661078763
 20
700.9783238319831
 30
0.0
 10
2212.821935869206
 20
701.1141123286615
 30
0.0
 10
2212.802000064465
 20
701.1822567887157
 30
0.0
  0
LINE
  5
700
330
6B7
100
AcDbEntity
  8
0
  6
Continuous
 62
     7
370
    15
100
AcDbLine
 10
2212.802000064465
 20
701.1822567887157
 30
0.0
 11
2216.651913854752
 21
701.1822567887157
 31
0.0
  0
SPLINE
  5
701
330
6B7
100
AcDbEntity
  8
0
  6
Continuous
 62
     7
370
    15
100
AcDbSpline
210
0.0
220
0.0
230
1.0
 70
     8
 71
     3
 72
    19
 73
    15
 74
     0
 42
0.0000000001
 43
0.0000000001
 40
0.0
 40
0.0
 40
0.0
 40
0.0
 40
0.0488679617767459
 40
0.0974204996714149
 40
0.1458568154919773
 40
0.194377542516429
 40
0.2431822730058978
 40
0.3715078253163588
 40
0.5000352027282089
 40
0.6283607973257657
 40
0.7568882170903854
 40
0.8379484026938449
 40
0.9186755957281148
 40
1.0
 40
1.0
 40
1.0
 40
1.0
 10
2171.651913854752
 20
701.1822567887155
 30
0.0
 10
2171.640431196262
 20
701.1411930794186
 30
0.0
 10
2171.617539995423
 20
701.059330711261
 30
0.0
 10
2171.573486314442
 20
700.9398389891097
 30
0.0
 10
2171.522498191563
 20
700.8235385609993
 30
0.0
 10
2171.463868926507
 20
700.7106090819801
 30
0.0
 10
2171.362234883547
 20
700.5419610736278
 30
0.0
 10
2171.198549353848
 20
700.3296992228424
 30
0.0
 10
2170.949557657166
 20
700.1018069401874
 30
0.0
 10
2170.666258682488
 20
699.917991497842
 30
0.0
 10
2170.393702205243
 20
699.8017258555189
 30
0.0
 10
2170.149110489404
 20
699.7349657465939
 30
0.0
 10
2169.939339061617
 20
699.6998985533253
 30
0.0
 10
2169.797924712435
 20
699.6955869468878
 30
0.0
 10
2169.726956959609
 20
699.6934231988543
 30
0.0
  0
SPLINE
  5
702
330
6B7
100
AcDbEntity
  8
0
  6
Continuous
 62
     7
370
    15
100
AcDbSpline
210
0.0
220
0.0
230
1.0
 70
     8
 71
     3
 72
    19
 73
    15
 74
     0
 42
0.0000000001
 43
0.0000000001
 40
0.0
 40
0.0
 40
0.0
 40
0.0
 40
0.0488679617766764
 40
0.0974204996713111
 40
0.1458568154918728
 40
0.1943775425163587
 40
0.2431822730058942
 40
0.3715078253162693
 40
0.5000352027282091
 40
0.6283607973257638
 40
0.7568882170903847
 40
0.8379484026938241
 40
0.9186755957280945
 40
1.0
 40
1.0
 40
1.0
 40
1.0
 10
2169.726956959609
 20
699.6934231988543
 30
0.0
 10
2169.684325338729
 20
699.6942134952341
 30
0.0
 10
2169.599337267671
 20
699.6957889869348
 30
0.0
 10
2169.472608085178
 20
699.708387112798
 30
0.0
 10
2169.347224355886
 20
699.7284992653949
 30
0.0
 10
2169.223182297722
 20
699.7568546133768
 30
0.0
 10
2169.03439970177
 20
699.8128256851481
 30
0.0
 10
2168.787804068734
 20
699.9178906160222
 30
0.0
 10
2168.504633736104
 20
700.1015923313878
 30
0.0
 10
2168.255499624008
 20
700.3295805330313
 30
0.0
 10
2168.074446472898
 20
700.5641535266716
 30
0.0
 10
2167.948339295708
 20
700.7841057929988
 30
0.0
 10
2167.861661078763
 20
700.9783238319831
 30
0.0
 10
2167.821935869206
 20
701.1141123286613
 30
0.0
 10
2167.802000064465
 20
701.1822567887155
 30
0.0
  0
LINE
  5
703
330
6B7
100
AcDbEntity
  8
0
  6
Continuous
 62
     7
370
    15
100
AcDbLine
 10
2167.802000064465
 20
701.1822567887155
 30
0.0
 11
2171.651913854752
 21
701.1822567887155
 31
0.0
  0
SPLINE
  5
704
330
6B7
100
AcDbEntity
  8
0
  6
Continuous
 62
     7
370
    15
100
AcDbSpline
210
0.0
220
0.0
230
1.0
 70
     8
 71
     3
 72
    19
 73
    15
 74
     0
 42
0.0000000001
 43
0.0000000001
 40
0.0
 40
0.0
 40
0.0
 40
0.0
 40
0.0488679617767459
 40
0.0974204996714149
 40
0.1458568154919767
 40
0.194377542516429
 40
0.2431822730058979
 40
0.3715078253163588
 40
0.500035202728209
 40
0.6283607973257657
 40
0.7568882170903854
 40
0.8379484026938454
 40
0.9186755957281148
 40
1.0
 40
1.0
 40
1.0
 40
1.0
 10
2186.651913854752
 20
701.1822567887157
 30
0.0
 10
2186.640431196263
 20
701.1411930794186
 30
0.0
 10
2186.617539995423
 20
701.0593307112611
 30
0.0
 10
2186.573486314442
 20
700.9398389891097
 30
0.0
 10
2186.522498191564
 20
700.8235385609995
 30
0.0
 10
2186.463868926507
 20
700.7106090819802
 30
0.0
 10
2186.362234883548
 20
700.5419610736279
 30
0.0
 10
2186.198549353847
 20
700.3296992228426
 30
0.0
 10
2185.949557657165
 20
700.1018069401875
 30
0.0
 10
2185.666258682488
 20
699.9179914978421
 30
0.0
 10
2185.393702205243
 20
699.801725855519
 30
0.0
 10
2185.149110489403
 20
699.7349657465939
 30
0.0
 10
2184.939339061616
 20
699.6998985533253
 30
0.0
 10
2184.797924712435
 20
699.6955869468878
 30
0.0
 10
2184.726956959609
 20
699.6934231988543
 30
0.0
  0
SPLINE
  5
705
330
6B7
100
AcDbEntity
  8
0
  6
Continuous
 62
     7
370
    15
100
AcDbSpline
210
0.0
220
0.0
230
1.0
 70
     8
 71
     3
 72
    19
 73
    15
 74
     0
 42
0.0000000001
 43
0.0000000001
 40
0.0
 40
0.0
 40
0.0
 40
0.0
 40
0.0488679617766757
 40
0.097420499671311
 40
0.1458568154918727
 40
0.1943775425163593
 40
0.2431822730058942
 40
0.3715078253162698
 40
0.5000352027282098
 40
0.6283607973257639
 40
0.7568882170903844
 40
0.8379484026938245
 40
0.9186755957280945
 40
1.0
 40
1.0
 40
1.0
 40
1.0
 10
2184.726956959609
 20
699.6934231988543
 30
0.0
 10
2184.684325338729
 20
699.6942134952341
 30
0.0
 10
2184.599337267671
 20
699.6957889869348
 30
0.0
 10
2184.472608085178
 20
699.7083871127982
 30
0.0
 10
2184.347224355886
 20
699.728499265395
 30
0.0
 10
2184.223182297722
 20
699.7568546133769
 30
0.0
 10
2184.03439970177
 20
699.8128256851482
 30
0.0
 10
2183.787804068734
 20
699.9178906160222
 30
0.0
 10
2183.504633736104
 20
700.1015923313879
 30
0.0
 10
2183.255499624008
 20
700.3295805330313
 30
0.0
 10
2183.074446472897
 20
700.5641535266716
 30
0.0
 10
2182.948339295708
 20
700.7841057929989
 30
0.0
 10
2182.861661078764
 20
700.9783238319831
 30
0.0
 10
2182.821935869206
 20
701.1141123286614
 30
0.0
 10
2182.802000064465
 20
701.1822567887157
 30
0.0
  0
LINE
  5
706
330
6B7
100
AcDbEntity
  8
0
  6
Continuous
 62
     7
370
    15
100
AcDbLine
 10
2182.802000064465
 20
701.1822567887157
 30
0.0
 11
2186.651913854752
 21
701.1822567887157
 31
0.0
  0
ARC
  5
707
330
6B7
100
AcDbEntity
  8
0
  6
Continuous
 62
     7
370
    15
100
AcDbCircle
 10
2214.726956959609
 20
701.6822567887157
 30
0.0
 40
2.188421798069978
100
AcDbArc
 50
193.2073141036489
 51
346.792685896351
  0
SPLINE
  5
708
330
6B7
100
AcDbEntity
  8
0
  6
Continuous
 62
     7
370
    15
100
AcDbSpline
210
0.0
220
0.0
230
1.0
 70
    24
 71
     3
 72
    10
 73
     6
 74
     0
 42
0.0000000001
 43
0.0000000001
 40
0.0
 40
0.0
 40
0.0
 40
0.0
 40
0.5
 40
0.5
 40
1.0
 40
1.0
 40
1.0
 40
1.0
 10
2212.596419476656
 20
701.1822567887157
 30
0.0
 10
2212.599810214942
 20
701.1822567887157
 30
0.0
 10
2212.624186250716
 20
701.1822567887157
 30
0.0
 10
2212.699848828371
 20
701.1822567887157
 30
0.0
 10
2212.750567837544
 20
701.1822567887157
 30
0.0
 10
2212.802000064465
 20
701.1822567887157
 30
0.0
  0
SPLINE
  5
709
330
6B7
100
AcDbEntity
  8
0
  6
Continuous
 62
     7
370
    15
100
AcDbSpline
210
0.0
220
0.0
230
1.0
 70
    24
 71
     3
 72
    10
 73
     6
 74
     0
 42
0.0000000001
 43
0.0000000001
 40
0.0
 40
0.0
 40
0.0
 40
0.0
 40
0.5
 40
0.5
 40
1.0
 40
1.0
 40
1.0
 40
1.0
 10
2216.651913854752
 20
701.1822567887157
 30
0.0
 10
2216.703380438345
 20
701.1822567887157
 30
0.0
 10
2216.753779680312
 20
701.1822567887157
 30
0.0
 10
2216.829829678605
 20
701.1822567887157
 30
0.0
 10
2216.854101125242
 20
701.1822567887157
 30
0.0
 10
2216.857494442562
 20
701.1822567887157
 30
0.0
  0
ARC
  5
70A
330
6B7
100
AcDbEntity
  8
0
  6
Continuous
 62
     7
370
    15
100
AcDbCircle
 10
2199.726956959609
 20
701.6822567887157
 30
0.0
 40
2.188421798069978
100
AcDbArc
 50
193.2073141036489
 51
346.792685896351
  0
SPLINE
  5
70B
330
6B7
100
AcDbEntity
  8
0
  6
Continuous
 62
     7
370
    15
100
AcDbSpline
210
0.0
220
0.0
230
1.0
 70
    24
 71
     3
 72
    10
 73
     6
 74
     0
 42
0.0000000001
 43
0.0000000001
 40
0.0
 40
0.0
 40
0.0
 40
0.0
 40
0.5
 40
0.5
 40
1.0
 40
1.0
 40
1.0
 40
1.0
 10
2197.596419476656
 20
701.1822567887157
 30
0.0
 10
2197.599810214942
 20
701.1822567887157
 30
0.0
 10
2197.624186250716
 20
701.1822567887157
 30
0.0
 10
2197.699848828371
 20
701.1822567887157
 30
0.0
 10
2197.750567837544
 20
701.1822567887157
 30
0.0
 10
2197.802000064465
 20
701.1822567887157
 30
0.0
  0
SPLINE
  5
70C
330
6B7
100
AcDbEntity
  8
0
  6
Continuous
 62
     7
370
    15
100
AcDbSpline
210
0.0
220
0.0
230
1.0
 70
    24
 71
     3
 72
    10
 73
     6
 74
     0
 42
0.0000000001
 43
0.0000000001
 40
0.0
 40
0.0
 40
0.0
 40
0.0
 40
0.5
 40
0.5
 40
1.0
 40
1.0
 40
1.0
 40
1.0
 10
2201.651913854752
 20
701.1822567887157
 30
0.0
 10
2201.703380438345
 20
701.1822567887157
 30
0.0
 10
2201.753779680312
 20
701.1822567887157
 30
0.0
 10
2201.829829678604
 20
701.1822567887157
 30
0.0
 10
2201.854101125242
 20
701.1822567887157
 30
0.0
 10
2201.857494442562
 20
701.1822567887157
 30
0.0
  0
ARC
  5
70D
330
6B7
100
AcDbEntity
  8
0
  6
Continuous
 62
     7
370
    15
100
AcDbCircle
 10
2154.726956959607
 20
701.6822567887155
 30
0.0
 40
2.188421798069978
100
AcDbArc
 50
193.2073141036489
 51
346.792685896351
  0
SPLINE
  5
70E
330
6B7
100
AcDbEntity
  8
0
  6
Continuous
 62
     7
370
    15
100
AcDbSpline
210
0.0
220
0.0
230
1.0
 70
    24
 71
     3
 72
    10
 73
     6
 74
     0
 42
0.0000000001
 43
0.0000000001
 40
0.0
 40
0.0
 40
0.0
 40
0.0
 40
0.5
 40
0.5
 40
1.0
 40
1.0
 40
1.0
 40
1.0
 10
2152.802000064464
 20
701.1822567887155
 30
0.0
 10
2152.750533480872
 20
701.1822567887155
 30
0.0
 10
2152.700134238905
 20
701.1822567887155
 30
0.0
 10
2152.624084240612
 20
701.1822567887155
 30
0.0
 10
2152.599812793974
 20
701.1822567887155
 30
0.0
 10
2152.596419476654
 20
701.1822567887155
 30
0.0
  0
SPLINE
  5
70F
330
6B7
100
AcDbEntity
  8
0
  6
Continuous
 62
     7
370
    15
100
AcDbSpline
210
0.0
220
0.0
230
1.0
 70
    24
 71
     3
 72
    10
 73
     6
 74
     0
 42
0.0000000001
 43
0.0000000001
 40
0.0
 40
0.0
 40
0.0
 40
0.0
 40
0.5
 40
0.5
 40
1.0
 40
1.0
 40
1.0
 40
1.0
 10
2156.85749444256
 20
701.1822567887155
 30
0.0
 10
2156.854103704274
 20
701.1822567887155
 30
0.0
 10
2156.829727668499
 20
701.1822567887155
 30
0.0
 10
2156.754065090845
 20
701.1822567887155
 30
0.0
 10
2156.703346081672
 20
701.1822567887155
 30
0.0
 10
2156.651913854751
 20
701.1822567887155
 30
0.0
  0
ARC
  5
710
330
6B7
100
AcDbEntity
  8
0
  6
Continuous
 62
     7
370
    15
100
AcDbCircle
 10
2184.726956959609
 20
701.6822567887157
 30
0.0
 40
2.188421798069978
100
AcDbArc
 50
193.2073141036489
 51
346.792685896351
  0
SPLINE
  5
711
330
6B7
100
AcDbEntity
  8
0
  6
Continuous
 62
     7
370
    15
100
AcDbSpline
210
0.0
220
0.0
230
1.0
 70
    24
 71
     3
 72
    10
 73
     6
 74
     0
 42
0.0000000001
 43
0.0000000001
 40
0.0
 40
0.0
 40
0.0
 40
0.0
 40
0.5
 40
0.5
 40
1.0
 40
1.0
 40
1.0
 40
1.0
 10
2182.596419476656
 20
701.1822567887157
 30
0.0
 10
2182.599810214941
 20
701.1822567887157
 30
0.0
 10
2182.624186250716
 20
701.1822567887157
 30
0.0
 10
2182.699848828371
 20
701.1822567887157
 30
0.0
 10
2182.750567837544
 20
701.1822567887157
 30
0.0
 10
2182.802000064465
 20
701.1822567887157
 30
0.0
  0
SPLINE
  5
712
330
6B7
100
AcDbEntity
  8
0
  6
Continuous
 62
     7
370
    15
100
AcDbSpline
210
0.0
220
0.0
230
1.0
 70
    24
 71
     3
 72
    10
 73
     6
 74
     0
 42
0.0000000001
 43
0.0000000001
 40
0.0
 40
0.0
 40
0.0
 40
0.0
 40
0.5
 40
0.5
 40
1.0
 40
1.0
 40
1.0
 40
1.0
 10
2186.651913854752
 20
701.1822567887157
 30
0.0
 10
2186.703380438345
 20
701.1822567887157
 30
0.0
 10
2186.753779680312
 20
701.1822567887157
 30
0.0
 10
2186.829829678604
 20
701.1822567887157
 30
0.0
 10
2186.854101125242
 20
701.1822567887157
 30
0.0
 10
2186.857494442562
 20
701.1822567887157
 30
0.0
  0
ARC
  5
713
330
6B7
100
AcDbEntity
  8
0
  6
Continuous
 62
     7
370
    15
100
AcDbCircle
 10
2244.726956959609
 20
701.6822567887158
 30
0.0
 40
2.188421798070006
100
AcDbArc
 50
193.2073141036489
 51
346.792685896351
  0
SPLINE
  5
714
330
6B7
100
AcDbEntity
  8
0
  6
Continuous
 62
     7
370
    15
100
AcDbSpline
210
0.0
220
0.0
230
1.0
 70
    24
 71
     3
 72
    10
 73
     6
 74
     0
 42
0.0000000001
 43
0.0000000001
 40
0.0
 40
0.0
 40
0.0
 40
0.0
 40
0.5
 40
0.5
 40
1.0
 40
1.0
 40
1.0
 40
1.0
 10
2242.596419476656
 20
701.1822567887159
 30
0.0
 10
2242.599810214942
 20
701.1822567887159
 30
0.0
 10
2242.624186250717
 20
701.1822567887159
 30
0.0
 10
2242.699848828371
 20
701.1822567887159
 30
0.0
 10
2242.750567837544
 20
701.1822567887159
 30
0.0
 10
2242.802000064465
 20
701.1822567887159
 30
0.0
  0
SPLINE
  5
715
330
6B7
100
AcDbEntity
  8
0
  6
Continuous
 62
     7
370
    15
100
AcDbSpline
210
0.0
220
0.0
230
1.0
 70
    24
 71
     3
 72
    10
 73
     6
 74
     0
 42
0.0000000001
 43
0.0000000001
 40
0.0
 40
0.0
 40
0.0
 40
0.0
 40
0.5
 40
0.5
 40
1.0
 40
1.0
 40
1.0
 40
1.0
 10
2246.651913854752
 20
701.1822567887159
 30
0.0
 10
2246.703380438344
 20
701.1822567887159
 30
0.0
 10
2246.753779680312
 20
701.1822567887159
 30
0.0
 10
2246.829829678604
 20
701.1822567887159
 30
0.0
 10
2246.854101125242
 20
701.1822567887159
 30
0.0
 10
2246.857494442562
 20
701.1822567887159
 30
0.0
  0
ARC
  5
716
330
6B7
100
AcDbEntity
  8
0
  6
Continuous
 62
     7
370
    15
100
AcDbCircle
 10
2169.726956959609
 20
701.6822567887155
 30
0.0
 40
2.188421798070006
100
AcDbArc
 50
193.2073141036489
 51
346.792685896351
  0
SPLINE
  5
717
330
6B7
100
AcDbEntity
  8
0
  6
Continuous
 62
     7
370
    15
100
AcDbSpline
210
0.0
220
0.0
230
1.0
 70
    24
 71
     3
 72
    10
 73
     6
 74
     0
 42
0.0000000001
 43
0.0000000001
 40
0.0
 40
0.0
 40
0.0
 40
0.0
 40
0.5
 40
0.5
 40
1.0
 40
1.0
 40
1.0
 40
1.0
 10
2167.596419476656
 20
701.1822567887155
 30
0.0
 10
2167.599810214941
 20
701.1822567887155
 30
0.0
 10
2167.624186250717
 20
701.1822567887155
 30
0.0
 10
2167.699848828371
 20
701.1822567887155
 30
0.0
 10
2167.750567837543
 20
701.1822567887155
 30
0.0
 10
2167.802000064465
 20
701.1822567887155
 30
0.0
  0
SPLINE
  5
718
330
6B7
100
AcDbEntity
  8
0
  6
Continuous
 62
     7
370
    15
100
AcDbSpline
210
0.0
220
0.0
230
1.0
 70
    24
 71
     3
 72
    10
 73
     6
 74
     0
 42
0.0000000001
 43
0.0000000001
 40
0.0
 40
0.0
 40
0.0
 40
0.0
 40
0.5
 40
0.5
 40
1.0
 40
1.0
 40
1.0
 40
1.0
 10
2171.651913854752
 20
701.1822567887155
 30
0.0
 10
2171.703380438344
 20
701.1822567887155
 30
0.0
 10
2171.753779680312
 20
701.1822567887155
 30
0.0
 10
2171.829829678604
 20
701.1822567887155
 30
0.0
 10
2171.854101125242
 20
701.1822567887155
 30
0.0
 10
2171.857494442562
 20
701.1822567887155
 30
0.0
  0
ARC
  5
719
330
6B7
100
AcDbEntity
  8
0
  6
Continuous
 62
     7
370
    15
100
AcDbCircle
 10
2229.726956959609
 20
701.6822567887158
 30
0.0
 40
2.188421798070006
100
AcDbArc
 50
193.2073141036489
 51
346.792685896351
  0
SPLINE
  5
71A
330
6B7
100
AcDbEntity
  8
0
  6
Continuous
 62
     7
370
    15
100
AcDbSpline
210
0.0
220
0.0
230
1.0
 70
    24
 71
     3
 72
    10
 73
     6
 74
     0
 42
0.0000000001
 43
0.0000000001
 40
0.0
 40
0.0
 40
0.0
 40
0.0
 40
0.5
 40
0.5
 40
1.0
 40
1.0
 40
1.0
 40
1.0
 10
2227.596419476656
 20
701.1822567887158
 30
0.0
 10
2227.599810214941
 20
701.1822567887158
 30
0.0
 10
2227.624186250716
 20
701.1822567887158
 30
0.0
 10
2227.699848828371
 20
701.1822567887158
 30
0.0
 10
2227.750567837543
 20
701.1822567887158
 30
0.0
 10
2227.802000064465
 20
701.1822567887158
 30
0.0
  0
SPLINE
  5
71B
330
6B7
100
AcDbEntity
  8
0
  6
Continuous
 62
     7
370
    15
100
AcDbSpline
210
0.0
220
0.0
230
1.0
 70
    24
 71
     3
 72
    10
 73
     6
 74
     0
 42
0.0000000001
 43
0.0000000001
 40
0.0
 40
0.0
 40
0.0
 40
0.0
 40
0.5
 40
0.5
 40
1.0
 40
1.0
 40
1.0
 40
1.0
 10
2231.651913854752
 20
701.1822567887158
 30
0.0
 10
2231.703380438345
 20
701.1822567887158
 30
0.0
 10
2231.753779680312
 20
701.1822567887158
 30
0.0
 10
2231.829829678604
 20
701.1822567887158
 30
0.0
 10
2231.854101125242
 20
701.1822567887158
 30
0.0
 10
2231.857494442562
 20
701.1822567887158
 30
0.0
  0
ARC
  5
71C
330
6B7
100
AcDbEntity
  8
0
  6
Continuous
 62
     7
370
    15
100
AcDbCircle
 10
2214.726956959609
 20
701.6822567887157
 30
0.0
 40
2.188421798069978
100
AcDbArc
 50
13.20731410364895
 51
166.792685896351
  0
SPLINE
  5
71D
330
6B7
100
AcDbEntity
  8
0
  6
Continuous
 62
     7
370
    15
100
AcDbSpline
210
0.0
220
0.0
230
1.0
 70
    24
 71
     3
 72
    10
 73
     6
 74
     0
 42
0.0000000001
 43
0.0000000001
 40
0.0
 40
0.0
 40
0.0
 40
0.0
 40
0.5
 40
0.5
 40
1.0
 40
1.0
 40
1.0
 40
1.0
 10
2212.802000064465
 20
702.1822567887157
 30
0.0
 10
2212.750533480873
 20
702.1822567887157
 30
0.0
 10
2212.700134238906
 20
702.1822567887157
 30
0.0
 10
2212.624084240613
 20
702.1822567887157
 30
0.0
 10
2212.599812793976
 20
702.1822567887157
 30
0.0
 10
2212.596419476656
 20
702.1822567887157
 30
0.0
  0
SPLINE
  5
71E
330
6B7
100
AcDbEntity
  8
0
  6
Continuous
 62
     7
370
    15
100
AcDbSpline
210
0.0
220
0.0
230
1.0
 70
    24
 71
     3
 72
    10
 73
     6
 74
     0
 42
0.0000000001
 43
0.0000000001
 40
0.0
 40
0.0
 40
0.0
 40
0.0
 40
0.5
 40
0.5
 40
1.0
 40
1.0
 40
1.0
 40
1.0
 10
2216.857494442562
 20
702.1822567887157
 30
0.0
 10
2216.854103704276
 20
702.1822567887157
 30
0.0
 10
2216.829727668502
 20
702.1822567887157
 30
0.0
 10
2216.754065090847
 20
702.1822567887157
 30
0.0
 10
2216.703346081674
 20
702.1822567887157
 30
0.0
 10
2216.651913854752
 20
702.1822567887157
 30
0.0
  0
ARC
  5
71F
330
6B7
100
AcDbEntity
  8
0
  6
Continuous
 62
     7
370
    15
100
AcDbCircle
 10
2244.726956959609
 20
701.6822567887158
 30
0.0
 40
2.188421798070006
100
AcDbArc
 50
13.20731410364895
 51
166.792685896351
  0
SPLINE
  5
720
330
6B7
100
AcDbEntity
  8
0
  6
Continuous
 62
     7
370
    15
100
AcDbSpline
210
0.0
220
0.0
230
1.0
 70
    24
 71
     3
 72
    10
 73
     6
 74
     0
 42
0.0000000001
 43
0.0000000001
 40
0.0
 40
0.0
 40
0.0
 40
0.0
 40
0.5
 40
0.5
 40
1.0
 40
1.0
 40
1.0
 40
1.0
 10
2242.802000064465
 20
702.1822567887158
 30
0.0
 10
2242.750533480873
 20
702.1822567887158
 30
0.0
 10
2242.700134238906
 20
702.1822567887158
 30
0.0
 10
2242.624084240613
 20
702.1822567887158
 30
0.0
 10
2242.599812793976
 20
702.1822567887158
 30
0.0
 10
2242.596419476656
 20
702.1822567887158
 30
0.0
  0
SPLINE
  5
721
330
6B7
100
AcDbEntity
  8
0
  6
Continuous
 62
     7
370
    15
100
AcDbSpline
210
0.0
220
0.0
230
1.0
 70
    24
 71
     3
 72
    10
 73
     6
 74
     0
 42
0.0000000001
 43
0.0000000001
 40
0.0
 40
0.0
 40
0.0
 40
0.0
 40
0.5
 40
0.5
 40
1.0
 40
1.0
 40
1.0
 40
1.0
 10
2246.857494442562
 20
702.1822567887158
 30
0.0
 10
2246.854103704276
 20
702.1822567887158
 30
0.0
 10
2246.829727668501
 20
702.1822567887158
 30
0.0
 10
2246.754065090847
 20
702.1822567887158
 30
0.0
 10
2246.703346081674
 20
702.1822567887158
 30
0.0
 10
2246.651913854752
 20
702.1822567887158
 30
0.0
  0
ARC
  5
722
330
6B7
100
AcDbEntity
  8
0
  6
Continuous
 62
     7
370
    15
100
AcDbCircle
 10
2199.726956959609
 20
701.6822567887157
 30
0.0
 40
2.188421798069978
100
AcDbArc
 50
13.20731410364895
 51
166.792685896351
  0
SPLINE
  5
723
330
6B7
100
AcDbEntity
  8
0
  6
Continuous
 62
     7
370
    15
100
AcDbSpline
210
0.0
220
0.0
230
1.0
 70
    24
 71
     3
 72
    10
 73
     6
 74
     0
 42
0.0000000001
 43
0.0000000001
 40
0.0
 40
0.0
 40
0.0
 40
0.0
 40
0.5
 40
0.5
 40
1.0
 40
1.0
 40
1.0
 40
1.0
 10
2197.802000064465
 20
702.1822567887157
 30
0.0
 10
2197.750533480873
 20
702.1822567887157
 30
0.0
 10
2197.700134238906
 20
702.1822567887157
 30
0.0
 10
2197.624084240613
 20
702.1822567887157
 30
0.0
 10
2197.599812793976
 20
702.1822567887157
 30
0.0
 10
2197.596419476656
 20
702.1822567887157
 30
0.0
  0
SPLINE
  5
724
330
6B7
100
AcDbEntity
  8
0
  6
Continuous
 62
     7
370
    15
100
AcDbSpline
210
0.0
220
0.0
230
1.0
 70
    24
 71
     3
 72
    10
 73
     6
 74
     0
 42
0.0000000001
 43
0.0000000001
 40
0.0
 40
0.0
 40
0.0
 40
0.0
 40
0.5
 40
0.5
 40
1.0
 40
1.0
 40
1.0
 40
1.0
 10
2201.857494442562
 20
702.1822567887157
 30
0.0
 10
2201.854103704276
 20
702.1822567887157
 30
0.0
 10
2201.829727668501
 20
702.1822567887157
 30
0.0
 10
2201.754065090847
 20
702.1822567887157
 30
0.0
 10
2201.703346081674
 20
702.1822567887157
 30
0.0
 10
2201.651913854752
 20
702.1822567887157
 30
0.0
  0
ARC
  5
725
330
6B7
100
AcDbEntity
  8
0
  6
Continuous
 62
     7
370
    15
100
AcDbCircle
 10
2184.726956959609
 20
701.6822567887157
 30
0.0
 40
2.188421798069978
100
AcDbArc
 50
13.20731410364895
 51
166.792685896351
  0
SPLINE
  5
726
330
6B7
100
AcDbEntity
  8
0
  6
Continuous
 62
     7
370
    15
100
AcDbSpline
210
0.0
220
0.0
230
1.0
 70
    24
 71
     3
 72
    10
 73
     6
 74
     0
 42
0.0000000001
 43
0.0000000001
 40
0.0
 40
0.0
 40
0.0
 40
0.0
 40
0.5
 40
0.5
 40
1.0
 40
1.0
 40
1.0
 40
1.0
 10
2182.802000064465
 20
702.1822567887157
 30
0.0
 10
2182.750533480873
 20
702.1822567887157
 30
0.0
 10
2182.700134238906
 20
702.1822567887157
 30
0.0
 10
2182.624084240613
 20
702.1822567887157
 30
0.0
 10
2182.599812793975
 20
702.1822567887157
 30
0.0
 10
2182.596419476656
 20
702.1822567887157
 30
0.0
  0
SPLINE
  5
727
330
6B7
100
AcDbEntity
  8
0
  6
Continuous
 62
     7
370
    15
100
AcDbSpline
210
0.0
220
0.0
230
1.0
 70
    24
 71
     3
 72
    10
 73
     6
 74
     0
 42
0.0000000001
 43
0.0000000001
 40
0.0
 40
0.0
 40
0.0
 40
0.0
 40
0.5
 40
0.5
 40
1.0
 40
1.0
 40
1.0
 40
1.0
 10
2186.857494442562
 20
702.1822567887157
 30
0.0
 10
2186.854103704276
 20
702.1822567887157
 30
0.0
 10
2186.829727668501
 20
702.1822567887157
 30
0.0
 10
2186.754065090847
 20
702.1822567887157
 30
0.0
 10
2186.703346081674
 20
702.1822567887157
 30
0.0
 10
2186.651913854752
 20
702.1822567887157
 30
0.0
  0
ARC
  5
728
330
6B7
100
AcDbEntity
  8
0
  6
Continuous
 62
     7
370
    15
100
AcDbCircle
 10
2169.726956959609
 20
701.6822567887155
 30
0.0
 40
2.188421798070006
100
AcDbArc
 50
13.20731410364895
 51
166.792685896351
  0
SPLINE
  5
729
330
6B7
100
AcDbEntity
  8
0
  6
Continuous
 62
     7
370
    15
100
AcDbSpline
210
0.0
220
0.0
230
1.0
 70
    24
 71
     3
 72
    10
 73
     6
 74
     0
 42
0.0000000001
 43
0.0000000001
 40
0.0
 40
0.0
 40
0.0
 40
0.0
 40
0.5
 40
0.5
 40
1.0
 40
1.0
 40
1.0
 40
1.0
 10
2167.802000064465
 20
702.1822567887156
 30
0.0
 10
2167.750533480873
 20
702.1822567887156
 30
0.0
 10
2167.700134238906
 20
702.1822567887156
 30
0.0
 10
2167.624084240614
 20
702.1822567887156
 30
0.0
 10
2167.599812793976
 20
702.1822567887156
 30
0.0
 10
2167.596419476656
 20
702.1822567887156
 30
0.0
  0
SPLINE
  5
72A
330
6B7
100
AcDbEntity
  8
0
  6
Continuous
 62
     7
370
    15
100
AcDbSpline
210
0.0
220
0.0
230
1.0
 70
    24
 71
     3
 72
    10
 73
     6
 74
     0
 42
0.0000000001
 43
0.0000000001
 40
0.0
 40
0.0
 40
0.0
 40
0.0
 40
0.5
 40
0.5
 40
1.0
 40
1.0
 40
1.0
 40
1.0
 10
2171.857494442562
 20
702.1822567887156
 30
0.0
 10
2171.854103704276
 20
702.1822567887156
 30
0.0
 10
2171.829727668501
 20
702.1822567887156
 30
0.0
 10
2171.754065090847
 20
702.1822567887156
 30
0.0
 10
2171.703346081674
 20
702.1822567887156
 30
0.0
 10
2171.651913854752
 20
702.1822567887156
 30
0.0
  0
ARC
  5
72B
330
6B7
100
AcDbEntity
  8
0
  6
Continuous
 62
     7
370
    15
100
AcDbCircle
 10
2154.726956959607
 20
701.6822567887155
 30
0.0
 40
2.188421798069978
100
AcDbArc
 50
13.20731410364895
 51
166.792685896351
  0
SPLINE
  5
72C
330
6B7
100
AcDbEntity
  8
0
  6
Continuous
 62
     7
370
    15
100
AcDbSpline
210
0.0
220
0.0
230
1.0
 70
    24
 71
     3
 72
    10
 73
     6
 74
     0
 42
0.0000000001
 43
0.0000000001
 40
0.0
 40
0.0
 40
0.0
 40
0.0
 40
0.5
 40
0.5
 40
1.0
 40
1.0
 40
1.0
 40
1.0
 10
2152.596419476654
 20
702.1822567887156
 30
0.0
 10
2152.59981021494
 20
702.1822567887156
 30
0.0
 10
2152.624186250715
 20
702.1822567887156
 30
0.0
 10
2152.699848828369
 20
702.1822567887156
 30
0.0
 10
2152.750567837542
 20
702.1822567887156
 30
0.0
 10
2152.802000064464
 20
702.1822567887156
 30
0.0
  0
SPLINE
  5
72D
330
6B7
100
AcDbEntity
  8
0
  6
Continuous
 62
     7
370
    15
100
AcDbSpline
210
0.0
220
0.0
230
1.0
 70
    24
 71
     3
 72
    10
 73
     6
 74
     0
 42
0.0000000001
 43
0.0000000001
 40
0.0
 40
0.0
 40
0.0
 40
0.0
 40
0.5
 40
0.5
 40
1.0
 40
1.0
 40
1.0
 40
1.0
 10
2156.651913854751
 20
702.1822567887156
 30
0.0
 10
2156.703380438343
 20
702.1822567887156
 30
0.0
 10
2156.75377968031
 20
702.1822567887156
 30
0.0
 10
2156.829829678603
 20
702.1822567887156
 30
0.0
 10
2156.85410112524
 20
702.1822567887156
 30
0.0
 10
2156.85749444256
 20
702.1822567887156
 30
0.0
  0
ARC
  5
72E
330
6B7
100
AcDbEntity
  8
0
  6
Continuous
 62
     7
370
    15
100
AcDbCircle
 10
2229.726956959609
 20
701.6822567887158
 30
0.0
 40
2.188421798070006
100
AcDbArc
 50
13.20731410364895
 51
166.792685896351
  0
SPLINE
  5
72F
330
6B7
100
AcDbEntity
  8
0
  6
Continuous
 62
     7
370
    15
100
AcDbSpline
210
0.0
220
0.0
230
1.0
 70
    24
 71
     3
 72
    10
 73
     6
 74
     0
 42
0.0000000001
 43
0.0000000001
 40
0.0
 40
0.0
 40
0.0
 40
0.0
 40
0.5
 40
0.5
 40
1.0
 40
1.0
 40
1.0
 40
1.0
 10
2227.802000064465
 20
702.1822567887157
 30
0.0
 10
2227.750533480873
 20
702.1822567887157
 30
0.0
 10
2227.700134238906
 20
702.1822567887157
 30
0.0
 10
2227.624084240613
 20
702.1822567887157
 30
0.0
 10
2227.599812793976
 20
702.1822567887157
 30
0.0
 10
2227.596419476656
 20
702.1822567887157
 30
0.0
  0
SPLINE
  5
730
330
6B7
100
AcDbEntity
  8
0
  6
Continuous
 62
     7
370
    15
100
AcDbSpline
210
0.0
220
0.0
230
1.0
 70
    24
 71
     3
 72
    10
 73
     6
 74
     0
 42
0.0000000001
 43
0.0000000001
 40
0.0
 40
0.0
 40
0.0
 40
0.0
 40
0.5
 40
0.5
 40
1.0
 40
1.0
 40
1.0
 40
1.0
 10
2231.857494442562
 20
702.1822567887157
 30
0.0
 10
2231.854103704276
 20
702.1822567887157
 30
0.0
 10
2231.829727668501
 20
702.1822567887157
 30
0.0
 10
2231.754065090847
 20
702.1822567887157
 30
0.0
 10
2231.703346081674
 20
702.1822567887157
 30
0.0
 10
2231.651913854752
 20
702.1822567887157
 30
0.0
  0
ARC
  5
731
330
6B7
100
AcDbEntity
  8
0
  6
Continuous
 62
     7
370
    15
100
AcDbCircle
 10
2214.726956959609
 20
715.6572567887206
 30
0.0
 40
17.67500000000501
100
AcDbArc
 50
258.5788137250069
 51
281.4211862749931
  0
LINE
  5
732
330
6B7
100
AcDbEntity
  8
0
  6
Continuous
 62
     7
370
    15
100
AcDbLine
 10
2211.226956959607
 20
698.3322567887157
 30
0.0
 11
2203.226956959611
 21
698.3322567887157
 31
0.0
  0
ARC
  5
733
330
6B7
100
AcDbEntity
  8
0
  6
Continuous
 62
     7
370
    15
100
AcDbCircle
 10
2199.726956959609
 20
715.6572567887204
 30
0.0
 40
17.67500000000503
100
AcDbArc
 50
258.5788137250069
 51
281.4211862749931
  0
LINE
  5
734
330
6B7
100
AcDbEntity
  8
0
  6
Continuous
 62
     7
370
    15
100
AcDbLine
 10
2196.226956959607
 20
698.3322567887157
 30
0.0
 11
2188.22695695961
 21
698.3322567887157
 31
0.0
  0
ARC
  5
735
330
6B7
100
AcDbEntity
  8
0
  6
Continuous
 62
     7
370
    15
100
AcDbCircle
 10
2184.726956959609
 20
715.6572567887203
 30
0.0
 40
17.675000000005
100
AcDbArc
 50
258.5788137250069
 51
281.4211862749931
  0
LINE
  5
736
330
6B7
100
AcDbEntity
  8
0
  6
Continuous
 62
     7
370
    15
100
AcDbLine
 10
2173.226956959609
 20
698.3322567887157
 30
0.0
 11
2181.226956959607
 21
698.3322567887157
 31
0.0
  0
LINE
  5
737
330
6B7
100
AcDbEntity
  8
0
  6
Continuous
 62
     7
370
    15
100
AcDbLine
 10
2158.226956959609
 20
698.3322567887157
 30
0.0
 11
2166.226956959607
 21
698.3322567887157
 31
0.0
  0
ARC
  5
738
330
6B7
100
AcDbEntity
  8
0
  6
Continuous
 62
     7
370
    15
100
AcDbCircle
 10
2154.726956959607
 20
715.6572567887203
 30
0.0
 40
17.67500000000501
100
AcDbArc
 50
258.5788137250069
 51
281.4211862749931
  0
ARC
  5
739
330
6B7
100
AcDbEntity
  8
0
  6
Continuous
 62
     7
370
    15
100
AcDbCircle
 10
2154.726956959607
 20
687.7072567887108
 30
0.0
 40
17.67500000000479
100
AcDbArc
 50
78.57881372500691
 51
101.4211862749931
  0
LINE
  5
73A
330
6B7
100
AcDbEntity
  8
0
  6
Continuous
 62
     7
370
    15
100
AcDbLine
 10
2166.226956959609
 20
705.0322567887156
 30
0.0
 11
2158.226956959607
 21
705.0322567887156
 31
0.0
  0
LINE
  5
73B
330
6B7
100
AcDbEntity
  8
0
  6
Continuous
 62
     7
370
    15
100
AcDbLine
 10
2181.226956959608
 20
705.0322567887157
 30
0.0
 11
2173.226956959609
 21
705.0322567887157
 31
0.0
  0
LINE
  5
73C
330
6B7
100
AcDbEntity
  8
0
  6
Continuous
 62
     7
370
    15
100
AcDbLine
 10
2188.226956959609
 20
705.0322567887157
 30
0.0
 11
2196.226956959609
 21
705.0322567887158
 31
0.0
  0
ARC
  5
73D
330
6B7
100
AcDbEntity
  8
0
  6
Continuous
 62
     7
370
    15
100
AcDbCircle
 10
2199.726956959609
 20
687.7072567887108
 30
0.0
 40
17.67500000000479
100
AcDbArc
 50
78.57881372500691
 51
101.4211862749931
  0
LINE
  5
73E
330
6B7
100
AcDbEntity
  8
0
  6
Continuous
 62
     7
370
    15
100
AcDbLine
 10
2203.226956959609
 20
705.0322567887158
 30
0.0
 11
2211.226956959609
 21
705.0322567887158
 31
0.0
  0
LINE
  5
73F
330
6B7
100
AcDbEntity
  8
0
  6
Continuous
 62
     7
370
    15
100
AcDbLine
 10
2218.226956959609
 20
705.0322567887158
 30
0.0
 11
2226.226956959609
 21
705.0322567887159
 31
0.0
  0
ARC
  5
740
330
6B7
100
AcDbEntity
  8
0
  6
Continuous
 62
     7
370
    15
100
AcDbCircle
 10
2229.726956959609
 20
687.7072567887109
 30
0.0
 40
17.67500000000478
100
AcDbArc
 50
78.57881372500691
 51
101.4211862749931
  0
ARC
  5
741
330
6B7
100
AcDbEntity
  8
0
  6
Continuous
 62
     7
370
    15
100
AcDbCircle
 10
2244.726956959609
 20
687.7072567887111
 30
0.0
 40
17.67500000000479
100
AcDbArc
 50
78.57881372500691
 51
101.4211862749931
  0
LINE
  5
742
330
6B7
100
AcDbEntity
  8
0
  6
Continuous
 62
     7
370
    15
100
AcDbLine
 10
2250.426956959609
 20
705.0322567887159
 30
0.0
 11
2250.426956959609
 21
698.3322567887159
 31
0.0
  0
LINE
  5
743
330
6B7
100
AcDbEntity
  8
0
  6
Continuous
 62
     7
370
    15
100
AcDbLine
 10
2250.426956959609
 20
698.3322567887159
 30
0.0
 11
2248.22695695961
 21
698.3322567887159
 31
0.0
  0
ARC
  5
744
330
6B7
100
AcDbEntity
  8
0
  6
Continuous
 62
     7
370
    15
100
AcDbCircle
 10
2244.726956959609
 20
715.6572567887207
 30
0.0
 40
17.67500000000503
100
AcDbArc
 50
258.5788137250069
 51
281.4211862749931
  0
LINE
  5
745
330
6B7
100
AcDbEntity
  8
0
  6
Continuous
 62
     7
370
    15
100
AcDbLine
 10
2241.226956959607
 20
698.3322567887158
 30
0.0
 11
2233.226956959611
 21
698.3322567887158
 31
0.0
  0
ARC
  5
746
330
6B7
100
AcDbEntity
  8
0
  6
Continuous
 62
     7
370
    15
100
AcDbCircle
 10
2229.726956959609
 20
715.6572567887206
 30
0.0
 40
17.67500000000503
100
AcDbArc
 50
258.5788137250069
 51
281.4211862749931
  0
ARC
  5
747
330
6B7
100
AcDbEntity
  8
0
  6
Continuous
 62
     7
370
    15
100
AcDbCircle
 10
2169.726956959609
 20
715.6572567887203
 30
0.0
 40
17.67500000000498
100
AcDbArc
 50
258.5788137250069
 51
281.4211862749931
  0
LINE
  5
748
330
6B7
100
AcDbEntity
  8
0
  6
Continuous
 62
     7
370
    15
100
AcDbLine
 10
2151.226956959607
 20
705.0322567887156
 30
0.0
 11
2149.026956959607
 21
705.0322567887156
 31
0.0
  0
LINE
  5
749
330
6B7
100
AcDbEntity
  8
0
  6
Continuous
 62
     7
370
    15
100
AcDbLine
 10
2248.226956959609
 20
705.0322567887159
 30
0.0
 11
2250.426956959609
 21
705.0322567887159
 31
0.0
  0
LINE
  5
74A
330
6B7
100
AcDbEntity
  8
0
  6
Continuous
 62
     7
370
    15
100
AcDbLine
 10
2233.226956959609
 20
705.0322567887159
 30
0.0
 11
2241.226956959609
 21
705.0322567887159
 31
0.0
  0
ARC
  5
74B
330
6B7
100
AcDbEntity
  8
0
  6
Continuous
 62
     7
370
    15
100
AcDbCircle
 10
2184.726956959609
 20
687.7072567887108
 30
0.0
 40
17.67500000000479
100
AcDbArc
 50
78.57881372500691
 51
101.4211862749931
  0
LINE
  5
74C
330
6B7
100
AcDbEntity
  8
0
  6
Continuous
 62
     7
370
    15
100
AcDbLine
 10
2226.226956959607
 20
698.3322567887158
 30
0.0
 11
2218.226956959611
 21
698.3322567887157
 31
0.0
  0
ARC
  5
74D
330
6B7
100
AcDbEntity
  8
0
  6
Continuous
 62
     7
370
    15
100
AcDbCircle
 10
2214.726956959609
 20
687.7072567887109
 30
0.0
 40
17.67500000000478
100
AcDbArc
 50
78.57881372500691
 51
101.4211862749931
  0
ARC
  5
74E
330
6B7
100
AcDbEntity
  8
0
  6
Continuous
 62
     7
370
    15
100
AcDbCircle
 10
2169.726956959609
 20
687.7072567887108
 30
0.0
 40
17.67500000000485
100
AcDbArc
 50
78.57881372500691
 51
101.4211862749931
  0
LINE
  5
74F
330
6B7
100
AcDbEntity
  8
0
  6
Continuous
 62
     7
370
    15
100
AcDbLine
 10
2149.026956959607
 20
705.0322567887156
 30
0.0
 11
2149.026956959607
 21
698.3322567887157
 31
0.0
  0
LINE
  5
750
330
6B7
100
AcDbEntity
  8
0
  6
Continuous
 62
     7
370
    15
100
AcDbLine
 10
2149.026956959607
 20
698.3322567887157
 30
0.0
 11
2151.226956959605
 21
698.3322567887157
 31
0.0
  0
ENDBLK
  5
6B9
330
6B7
100
AcDbEntity
  8
0
100
AcDbBlockEnd
  0
BLOCK
  5
753
330
752
100
AcDbEntity
  8
0
100
AcDbBlockBegin
  2
3
 70
     0
 10
0.0
 20
0.0
 30
0.0
  3
3
  1

  0
LINE
  5
755
330
752
100
AcDbEntity
  8
0
  6
Continuous
 62
     7
370
    15
100
AcDbLine
 10
2124.442013438013
 20
738.173592336884
 30
0.0
 11
2124.442013438013
 21
734.2735923368841
 31
0.0
  0
LINE
  5
756
330
752
100
AcDbEntity
  8
0
  6
Continuous
 62
     7
370
    15
100
AcDbLine
 10
2131.842013438014
 20
734.2735923368841
 30
0.0
 11
2131.842013438014
 21
738.173592336884
 31
0.0
  0
ARC
  5
757
330
752
100
AcDbEntity
  8
0
  6
Continuous
 62
     7
370
    15
100
AcDbCircle
 10
2124.917013438013
 20
739.2735923368841
 30
0.0
 40
0.200000000000017
100
AcDbArc
 50
180.0
 51
270.0
  0
ARC
  5
758
330
752
100
AcDbEntity
  8
0
  6
Continuous
 62
     7
370
    15
100
AcDbCircle
 10
2131.367013438014
 20
739.2735923368841
 30
0.0
 40
0.1999999999999886
100
AcDbArc
 50
270.0
 51
0.0
  0
LINE
  5
759
330
752
100
AcDbEntity
  8
0
  6
Continuous
 62
     7
370
    15
100
AcDbLine
 10
2131.567013438013
 20
739.2735923368841
 30
0.0
 11
2131.567013438013
 21
744.4735923368841
 31
0.0
  0
LINE
  5
75A
330
752
100
AcDbEntity
  8
0
  6
Continuous
 62
     7
370
    15
100
AcDbLine
 10
2124.717013438013
 20
744.4735923368841
 30
0.0
 11
2124.717013438013
 21
739.2735923368841
 31
0.0
  0
LINE
  5
75B
330
752
100
AcDbEntity
  8
0
  6
Continuous
 62
     7
370
    15
100
AcDbLine
 10
2131.142013438062
 20
734.1735923369204
 30
0.0
 11
2131.042013438024
 21
734.2735923369015
 31
0.0
  0
LINE
  5
75C
330
752
100
AcDbEntity
  8
0
  6
Continuous
 62
     7
370
    15
100
AcDbLine
 10
2125.242013438002
 20
734.2735923369015
 30
0.0
 11
2125.142013437965
 21
734.1735923369204
 31
0.0
  0
LINE
  5
75D
330
752
100
AcDbEntity
  8
0
  6
Continuous
 62
     7
370
    15
100
AcDbLine
 10
2131.142013438013
 20
723.4735923368841
 30
0.0
 11
2131.142013438013
 21
734.1735923369204
 31
0.0
  0
LINE
  5
75E
330
752
100
AcDbEntity
  8
0
  6
Continuous
 62
     7
370
    15
100
AcDbLine
 10
2125.142013438013
 20
734.1735923369204
 30
0.0
 11
2125.142013438013
 21
723.4735923368841
 31
0.0
  0
LINE
  5
75F
330
752
100
AcDbEntity
  8
0
  6
Continuous
 62
     7
370
    15
100
AcDbLine
 10
2125.142013438027
 20
723.4735923368841
 30
0.0
 11
2125.342013437983
 21
723.273592336928
 31
0.0
  0
LINE
  5
760
330
752
100
AcDbEntity
  8
0
  6
Continuous
 62
     7
370
    15
100
AcDbLine
 10
2130.942013438044
 20
723.273592336928
 30
0.0
 11
2131.142013438
 21
723.4735923368841
 31
0.0
  0
LINE
  5
761
330
752
100
AcDbEntity
  8
0
  6
Continuous
 62
     7
370
    15
100
AcDbLine
 10
2131.142013438013
 20
738.173592336884
 30
0.0
 11
2131.142013438013
 21
739.0735923368841
 31
0.0
  0
LINE
  5
762
330
752
100
AcDbEntity
  8
0
  6
Continuous
 62
     7
370
    15
100
AcDbLine
 10
2125.142013438013
 20
739.0735923368841
 30
0.0
 11
2125.142013438013
 21
738.173592336884
 31
0.0
  0
LINE
  5
763
330
752
100
AcDbEntity
  8
0
  6
Continuous
 62
     7
370
    15
100
AcDbLine
 10
2131.492013438014
 20
738.173592336884
 30
0.0
 11
2124.792013438014
 21
738.173592336884
 31
0.0
  0
LINE
  5
764
330
752
100
AcDbEntity
  8
0
  6
Continuous
 62
     7
370
    15
100
AcDbLine
 10
2131.492013438014
 20
738.173592336884
 30
0.0
 11
2131.492013438014
 21
734.2735923368841
 31
0.0
  0
LINE
  5
765
330
752
100
AcDbEntity
  8
0
  6
Continuous
 62
     7
370
    15
100
AcDbLine
 10
2124.792013438014
 20
738.173592336884
 30
0.0
 11
2124.792013438014
 21
734.2735923368841
 31
0.0
  0
LINE
  5
766
330
752
100
AcDbEntity
  8
0
  6
Continuous
 62
     7
370
    15
100
AcDbLine
 10
2124.792013438014
 20
734.2735923368841
 30
0.0
 11
2131.492013438014
 21
734.2735923368841
 31
0.0
  0
LINE
  5
767
330
752
100
AcDbEntity
  8
0
  6
Continuous
 62
     7
370
    15
100
AcDbLine
 10
2124.792013438014
 20
738.173592336884
 30
0.0
 11
2124.442013438013
 21
738.173592336884
 31
0.0
  0
LINE
  5
768
330
752
100
AcDbEntity
  8
0
  6
Continuous
 62
     7
370
    15
100
AcDbLine
 10
2124.792013438014
 20
734.2735923368841
 30
0.0
 11
2124.442013438013
 21
734.2735923368841
 31
0.0
  0
LINE
  5
769
330
752
100
AcDbEntity
  8
0
  6
Continuous
 62
     7
370
    15
100
AcDbLine
 10
2131.842013438014
 20
738.173592336884
 30
0.0
 11
2131.492013438014
 21
738.173592336884
 31
0.0
  0
LINE
  5
76A
330
752
100
AcDbEntity
  8
0
  6
Continuous
 62
     7
370
    15
100
AcDbLine
 10
2131.842013438014
 20
734.2735923368841
 30
0.0
 11
2131.492013438014
 21
734.2735923368841
 31
0.0
  0
SPLINE
  5
76B
330
752
100
AcDbEntity
  8
0
  6
Continuous
 62
     7
370
    15
100
AcDbSpline
210
0.0
220
0.0
230
1.0
 70
    24
 71
     3
 72
    22
 73
    18
 74
     0
 42
0.0000000001
 43
0.0000000001
 40
0.0
 40
0.0
 40
0.0
 40
0.0
 40
0.0345767369425583
 40
0.068898905576792
 40
0.1030656356827384
 40
0.1371774121935309
 40
0.1713352050309756
 40
0.2056395777922316
 40
0.2401898141702156
 40
0.370056015009088
 40
0.5000280681034757
 40
0.6298943165886659
 40
0.7598664173671197
 40
0.8201306883705267
 40
0.8798809851167735
 40
0.9396575701707888
 40
1.0
 40
1.0
 40
1.0
 40
1.0
 10
2128.142013438013
 20
739.0735923368841
 30
0.0
 10
2128.083674238098
 20
739.0735923368841
 30
0.0
 10
2127.967425355703
 20
739.0735923368841
 30
0.0
 10
2127.794020531035
 20
739.0735923368841
 30
0.0
 10
2127.62239719398
 20
739.0735923368841
 30
0.0
 10
2127.452558461776
 20
739.0735923368841
 30
0.0
 10
2127.284513530005
 20
739.0735923368841
 30
0.0
 10
2127.118248924585
 20
739.0735923368841
 30
0.0
 10
2126.803326516728
 20
739.0735923368841
 30
0.0
 10
2126.358272872979
 20
739.0735923368841
 30
0.0
 10
2125.846337209607
 20
739.0735923368841
 30
0.0
 10
2125.426574883106
 20
739.0735923368841
 30
0.0
 10
2125.177404094194
 20
739.0735923368841
 30
0.0
 10
2125.039970111235
 20
739.0735923368841
 30
0.0
 10
2124.969243087754
 20
739.0735923368841
 30
0.0
 10
2124.925095537347
 20
739.0735923368841
 30
0.0
 10
2124.919715918383
 20
739.0735923368841
 30
0.0
 10
2124.917013438013
 20
739.0735923368841
 30
0.0
  0
SPLINE
  5
76C
330
752
100
AcDbEntity
  8
0
  6
Continuous
 62
     7
370
    15
100
AcDbSpline
210
0.0
220
0.0
230
1.0
 70
    24
 71
     3
 72
    22
 73
    18
 74
     0
 42
0.0000000001
 43
0.0000000001
 40
0.0
 40
0.0
 40
0.0
 40
0.0
 40
0.0345391614887368
 40
0.0688357986754425
 40
0.1029895277956236
 40
0.1371012171073349
 40
0.171272107159667
 40
0.2056029147619393
 40
0.2401929598423603
 40
0.3700588287086891
 40
0.5000305495597695
 40
0.6298964660721063
 40
0.7598682346073091
 40
0.8201119842015359
 40
0.8798553991925299
 40
0.9396384390827632
 40
1.0
 40
1.0
 40
1.0
 40
1.0
 10
2131.367013438014
 20
739.0735923368841
 30
0.0
 10
2131.366140541481
 20
739.0735923368841
 30
0.0
 10
2131.364400877651
 20
739.0735923368841
 30
0.0
 10
2131.350045579187
 20
739.0735923368841
 30
0.0
 10
2131.327064201562
 20
739.0735923368841
 30
0.0
 10
2131.294630017523
 20
739.0735923368841
 30
0.0
 10
2131.252968755961
 20
739.0735923368841
 30
0.0
 10
2131.202005633547
 20
739.0735923368841
 30
0.0
 10
2131.086830211354
 20
739.0735923368841
 30
0.0
 10
2130.857498157194
 20
739.0735923368841
 30
0.0
 10
2130.437963190928
 20
739.0735923368841
 30
0.0
 10
2129.92587806626
 20
739.0735923368841
 30
0.0
 10
2129.442111970059
 20
739.0735923368841
 30
0.0
 10
2129.042916566847
 20
739.0735923368841
 30
0.0
 10
2128.747586197533
 20
739.0735923368841
 30
0.0
 10
2128.446652585827
 20
739.0735923368841
 30
0.0
 10
2128.243885276087
 20
739.0735923368841
 30
0.0
 10
2128.142013438013
 20
739.0735923368841
 30
0.0
  0
LINE
  5
76D
330
752
100
AcDbEntity
  8
0
  6
Continuous
 62
     7
370
    15
100
AcDbLine
 10
2128.142013438013
 20
744.4735923368841
 30
0.0
 11
2131.567013438013
 21
744.4735923368841
 31
0.0
  0
LINE
  5
76E
330
752
100
AcDbEntity
  8
0
  6
Continuous
 62
     7
370
    15
100
AcDbLine
 10
2124.717013438013
 20
744.4735923368841
 30
0.0
 11
2128.142013438013
 21
744.4735923368841
 31
0.0
  0
LINE
  5
76F
330
752
100
AcDbEntity
  8
0
  6
Continuous
 62
     7
370
    15
100
AcDbLine
 10
2128.142013438013
 20
734.1735923369204
 30
0.0
 11
2125.142013437965
 21
734.1735923369204
 31
0.0
  0
LINE
  5
770
330
752
100
AcDbEntity
  8
0
  6
Continuous
 62
     7
370
    15
100
AcDbLine
 10
2131.142013438062
 20
734.1735923369204
 30
0.0
 11
2128.142013438013
 21
734.1735923369204
 31
0.0
  0
LINE
  5
771
330
752
100
AcDbEntity
  8
0
  6
Continuous
 62
     7
370
    15
100
AcDbLine
 10
2128.142013438013
 20
723.4735923368841
 30
0.0
 11
2125.142013438013
 21
723.4735923368841
 31
0.0
  0
LINE
  5
772
330
752
100
AcDbEntity
  8
0
  6
Continuous
 62
     7
370
    15
100
AcDbLine
 10
2131.142013438013
 20
723.4735923368841
 30
0.0
 11
2128.142013438013
 21
723.4735923368841
 31
0.0
  0
LINE
  5
773
330
752
100
AcDbEntity
  8
0
  6
Continuous
 62
     7
370
    15
100
AcDbLine
 10
2130.942013438044
 20
723.273592336928
 30
0.0
 11
2125.342013437983
 21
723.273592336928
 31
0.0
  0
LINE
  5
774
330
752
100
AcDbEntity
  8
0
  6
Continuous
 62
     8
370
    15
100
AcDbLine
 10
2124.717013438013
 20
739.2735923368841
 30
0.0
 11
2131.567013438013
 21
739.2735923368841
 31
0.0
  0
ENDBLK
  5
754
330
752
100
AcDbEntity
  8
0
100
AcDbBlockEnd
  0
BLOCK
  5
777
330
776
100
AcDbEntity
  8
0
100
AcDbBlockBegin
  2
4
 70
     0
 10
0.0
 20
0.0
 30
0.0
  3
4
  1

  0
LINE
  5
779
330
776
100
AcDbEntity
  8
0
  6
Continuous
 62
     7
370
    15
100
AcDbLine
 10
2342.575384652596
 20
709.9221525807008
 30
0.0
 11
2342.688971765637
 21
714.473850662903
 31
0.0
  0
LINE
  5
77A
330
776
100
AcDbEntity
  8
0
  6
Continuous
 62
     7
370
    15
100
AcDbLine
 10
2335.841103676393
 20
714.6447384398801
 30
0.0
 11
2335.727516563353
 21
710.0930403576779
 31
0.0
  0
SPLINE
  5
77B
330
776
100
AcDbEntity
  8
0
  6
Continuous
 62
     7
370
    15
100
AcDbSpline
210
0.0
220
0.0
230
1.0
 70
     8
 71
     3
 72
    21
 73
    17
 74
     0
 42
0.0000000001
 43
0.0000000001
 40
0.0
 40
0.0
 40
0.0
 40
0.0
 40
0.0345268427619617
 40
0.1188253585482298
 40
0.1970267502115536
 40
0.2761434942309612
 40
0.3551937677414254
 40
0.4336617004661125
 40
0.5113319301575461
 40
0.5881973397859471
 40
0.6637896647847516
 40
0.7368172532986383
 40
0.8114744525443953
 40
0.8658109926817253
 40
0.9168520652094098
 40
1.0
 40
1.0
 40
1.0
 40
1.0
 10
2335.735589606798
 20
710.1169610694028
 30
0.0
 10
2335.732236303643
 20
710.081974401385
 30
0.0
 10
2335.720695791457
 20
709.9615665378487
 30
0.0
 10
2335.768543058098
 20
709.7618258140352
 30
0.0
 10
2335.87340571369
 20
709.5290493187153
 30
0.0
 10
2336.030074716504
 20
709.3157918785404
 30
0.0
 10
2336.232383490847
 20
709.1183855243253
 30
0.0
 10
2336.475937158929
 20
708.9388048831501
 30
0.0
 10
2336.755259455132
 20
708.7782245535702
 30
0.0
 10
2337.064789775475
 20
708.6378279647907
 30
0.0
 10
2337.396658614189
 20
708.5191926562337
 30
0.0
 10
2337.748611555374
 20
708.4213002079811
 30
0.0
 10
2338.084093829008
 20
708.3511743085905
 30
0.0
 10
2338.392702732374
 20
708.3041172988859
 30
0.0
 10
2338.721895734692
 20
708.2669235848567
 30
0.0
 10
2338.960037858555
 20
708.2566870157636
 30
0.0
 10
2339.107598572967
 20
708.2503440999282
 30
0.0
  0
SPLINE
  5
77C
330
776
100
AcDbEntity
  8
0
  6
Continuous
 62
     7
370
    15
100
AcDbSpline
210
0.0
220
0.0
230
1.0
 70
     8
 71
     3
 72
    22
 73
    18
 74
     0
 42
0.0000000001
 43
0.0000000001
 40
0.0
 40
0.0
 40
0.0
 40
0.0
 40
0.0919725135729811
 40
0.1289697595443299
 40
0.1900182276140559
 40
0.2526828706492694
 40
0.3191782269918591
 40
0.3877329305671066
 40
0.457670234121942
 40
0.5284910395551642
 40
0.5999119852591742
 40
0.6718151317349889
 40
0.744189190742251
 40
0.8170882126546302
 40
0.8908226713450289
 40
0.9662537852465915
 40
1.0
 40
1.0
 40
1.0
 40
1.0
 10
2339.107598572967
 20
708.2503440999282
 30
0.0
 10
2339.266837394518
 20
708.2493878829323
 30
0.0
 10
2339.490132286957
 20
708.248047014109
 30
0.0
 10
2339.814758914428
 20
708.2679284819165
 30
0.0
 10
2340.085631669235
 20
708.2941729182274
 30
0.0
 10
2340.397681812659
 20
708.3405372361506
 30
0.0
 10
2340.709869089202
 20
708.4045285687345
 30
0.0
 10
2341.017039948458
 20
708.4875348133152
 30
0.0
 10
2341.310154397942
 20
708.5889698509265
 30
0.0
 10
2341.583009155343
 20
708.7081491074326
 30
0.0
 10
2341.830750070396
 20
708.8442653734396
 30
0.0
 10
2342.04969451392
 20
708.9966857542201
 30
0.0
 10
2342.23636039902
 20
709.1651313146276
 30
0.0
 10
2342.388626589695
 20
709.349733057181
 30
0.0
 10
2342.498745498469
 20
709.5514505595746
 30
0.0
 10
2342.561068294745
 20
709.7271407566418
 30
0.0
 10
2342.564409337942
 20
709.8352902865861
 30
0.0
 10
2342.56544203917
 20
709.8687188134418
 30
0.0
  0
LINE
  5
77D
330
776
100
AcDbEntity
  8
0
  6
Continuous
 62
     7
370
    15
100
AcDbLine
 10
2342.126488881289
 20
708.9698958973131
 30
0.0
 11
2342.129138019755
 21
709.0760529969891
 31
0.0
  0
LINE
  5
77E
330
776
100
AcDbEntity
  8
0
  6
Continuous
 62
     7
370
    15
100
AcDbLine
 10
2336.131042589819
 20
709.2272265306195
 30
0.0
 11
2336.128356248374
 21
709.1195786216726
 31
0.0
  0
LINE
  5
77F
330
776
100
AcDbEntity
  8
0
  6
Continuous
 62
     7
370
    15
100
AcDbLine
 10
2341.80662793944
 20
696.1020266088817
 30
0.0
 11
2341.979819907729
 21
703.042228968191
 31
0.0
  0
LINE
  5
780
330
776
100
AcDbEntity
  8
0
  6
Continuous
 62
     7
370
    15
100
AcDbLine
 10
2336.01712533186
 20
704.6119965241314
 30
0.0
 11
2335.808495306526
 21
696.2517093332412
 31
0.0
  0
LINE
  5
781
330
776
100
AcDbEntity
  8
0
  6
Continuous
 62
     7
370
    15
100
AcDbLine
 10
2331.478421381058
 20
715.0092272691131
 30
0.0
 11
2331.592008494098
 21
719.5609253513152
 31
0.0
  0
LINE
  5
782
330
776
100
AcDbEntity
  8
0
  6
Continuous
 62
     7
370
    15
100
AcDbLine
 10
2324.744140404855
 20
719.7318131282924
 30
0.0
 11
2324.630553291815
 21
715.1801150460902
 31
0.0
  0
LINE
  5
783
330
776
100
AcDbEntity
  8
0
  6
Continuous
 62
     7
370
    15
100
AcDbLine
 10
2336.286202378644
 20
695.440110842916
 30
0.0
 11
2336.449924259781
 21
695.3141626739664
 31
0.0
  0
LINE
  5
784
330
776
100
AcDbEntity
  8
0
  6
Continuous
 62
     7
370
    15
100
AcDbLine
 10
2341.119233763415
 20
695.1976405811493
 30
0.0
 11
2341.289033989603
 21
695.315265743471
 31
0.0
  0
SPLINE
  5
785
330
776
100
AcDbEntity
  8
0
  6
Continuous
 62
     7
370
    15
100
AcDbSpline
210
0.0
220
0.0
230
1.0
 70
     8
 71
     3
 72
    21
 73
    17
 74
     0
 42
0.0000000001
 43
0.0000000001
 40
0.0
 40
0.0
 40
0.0
 40
0.0
 40
0.0345268427619832
 40
0.1188253585482535
 40
0.1970267502115774
 40
0.2761434942309865
 40
0.355193767741451
 40
0.4336617004661431
 40
0.5113319301575822
 40
0.5881973397859763
 40
0.6637896647847902
 40
0.7368172532986844
 40
0.8114744525444193
 40
0.8658109926817298
 40
0.9168520652093876
 40
0.9999999999999998
 40
0.9999999999999998
 40
0.9999999999999998
 40
0.9999999999999998
 10
2324.63862633526
 20
715.204035757815
 30
0.0
 10
2324.635273032106
 20
715.1690490897972
 30
0.0
 10
2324.623732519919
 20
715.0486412262608
 30
0.0
 10
2324.67157978656
 20
714.8489005024473
 30
0.0
 10
2324.776442442153
 20
714.6161240071275
 30
0.0
 10
2324.933111444966
 20
714.4028665669526
 30
0.0
 10
2325.135420219309
 20
714.2054602127375
 30
0.0
 10
2325.378973887391
 20
714.0258795715623
 30
0.0
 10
2325.658296183594
 20
713.8652992419824
 30
0.0
 10
2325.967826503937
 20
713.724902653203
 30
0.0
 10
2326.299695342652
 20
713.606267344646
 30
0.0
 10
2326.651648283836
 20
713.5083748963934
 30
0.0
 10
2326.98713055747
 20
713.4382489970026
 30
0.0
 10
2327.295739460836
 20
713.3911919872981
 30
0.0
 10
2327.624932463154
 20
713.3539982732689
 30
0.0
 10
2327.863074587018
 20
713.3437617041758
 30
0.0
 10
2328.010635301428
 20
713.3374187883405
 30
0.0
  0
SPLINE
  5
786
330
776
100
AcDbEntity
  8
0
  6
Continuous
 62
     7
370
    15
100
AcDbSpline
210
0.0
220
0.0
230
1.0
 70
     8
 71
     3
 72
    22
 73
    18
 74
     0
 42
0.0000000001
 43
0.0000000001
 40
0.0
 40
0.0
 40
0.0
 40
0.0
 40
0.0919725135729802
 40
0.1289697595443252
 40
0.1900182276140743
 40
0.2526828706492759
 40
0.3191782269918809
 40
0.3877329305670945
 40
0.4576702341219037
 40
0.5284910395551521
 40
0.5999119852591357
 40
0.671815131734998
 40
0.7441891907422526
 40
0.8170882126546265
 40
0.8908226713450423
 40
0.9662537852466005
 40
1.0
 40
1.0
 40
1.0
 40
1.0
 10
2328.010635301428
 20
713.3374187883405
 30
0.0
 10
2328.16987412298
 20
713.3364625713445
 30
0.0
 10
2328.393169015419
 20
713.3351217025213
 30
0.0
 10
2328.71779564289
 20
713.3550031703288
 30
0.0
 10
2328.988668397697
 20
713.3812476066396
 30
0.0
 10
2329.300718541121
 20
713.4276119245629
 30
0.0
 10
2329.612905817664
 20
713.4916032571468
 30
0.0
 10
2329.92007667692
 20
713.5746095017275
 30
0.0
 10
2330.213191126404
 20
713.6760445393388
 30
0.0
 10
2330.486045883804
 20
713.7952237958447
 30
0.0
 10
2330.733786798858
 20
713.9313400618519
 30
0.0
 10
2330.952731242382
 20
714.0837604426324
 30
0.0
 10
2331.139397127482
 20
714.2522060030398
 30
0.0
 10
2331.291663318157
 20
714.4368077455933
 30
0.0
 10
2331.40178222693
 20
714.6385252479868
 30
0.0
 10
2331.464105023207
 20
714.8142154450542
 30
0.0
 10
2331.467446066405
 20
714.9223649749983
 30
0.0
 10
2331.468478767632
 20
714.955793501854
 30
0.0
  0
LINE
  5
787
330
776
100
AcDbEntity
  8
0
  6
Continuous
 62
     7
370
    15
100
AcDbLine
 10
2331.02952560975
 20
714.0569705857253
 30
0.0
 11
2331.032174748218
 21
714.1631276854013
 31
0.0
  0
LINE
  5
788
330
776
100
AcDbEntity
  8
0
  6
Continuous
 62
     7
370
    15
100
AcDbLine
 10
2325.034079318281
 20
714.3143012190318
 30
0.0
 11
2325.031392976836
 21
714.2066533100849
 31
0.0
  0
LINE
  5
789
330
776
100
AcDbEntity
  8
0
  6
Continuous
 62
     7
370
    15
100
AcDbLine
 10
2330.709664667903
 20
701.1891012972939
 30
0.0
 11
2330.859535008295
 21
707.194752138168
 31
0.0
  0
LINE
  5
78A
330
776
100
AcDbEntity
  8
0
  6
Continuous
 62
     7
370
    15
100
AcDbLine
 10
2324.920162060323
 20
709.6990712125436
 30
0.0
 11
2324.711532034988
 21
701.3387840216535
 31
0.0
  0
LINE
  5
78B
330
776
100
AcDbEntity
  8
0
  6
Continuous
 62
     7
370
    15
100
AcDbLine
 10
2320.38145810952
 20
720.0963019575254
 30
0.0
 11
2320.495045222561
 21
724.6480000397276
 31
0.0
  0
LINE
  5
78C
330
776
100
AcDbEntity
  8
0
  6
Continuous
 62
     7
370
    15
100
AcDbLine
 10
2313.647177133317
 20
724.8188878167046
 30
0.0
 11
2313.533590020277
 21
720.2671897345026
 31
0.0
  0
LINE
  5
78D
330
776
100
AcDbEntity
  8
0
  6
Continuous
 62
     7
370
    15
100
AcDbLine
 10
2325.189239107106
 20
700.5271855313282
 30
0.0
 11
2325.352960988243
 21
700.4012373623786
 31
0.0
  0
LINE
  5
78E
330
776
100
AcDbEntity
  8
0
  6
Continuous
 62
     7
370
    15
100
AcDbLine
 10
2330.022270491877
 20
700.2847152695615
 30
0.0
 11
2330.192070718066
 21
700.4023404318833
 31
0.0
  0
SPLINE
  5
78F
330
776
100
AcDbEntity
  8
0
  6
Continuous
 62
     7
370
    15
100
AcDbSpline
210
0.0
220
0.0
230
1.0
 70
     8
 71
     3
 72
    21
 73
    17
 74
     0
 42
0.0000000001
 43
0.0000000001
 40
0.0
 40
0.0
 40
0.0
 40
0.0
 40
0.0345268427619736
 40
0.1188253585482362
 40
0.1970267502115604
 40
0.2761434942309693
 40
0.3551937677414256
 40
0.4336617004661133
 40
0.5113319301575442
 40
0.588197339785936
 40
0.6637896647847512
 40
0.7368172532986335
 40
0.8114744525443862
 40
0.8658109926817109
 40
0.9168520652093826
 40
1.0
 40
1.0
 40
1.0
 40
1.0
 10
2313.541663063722
 20
720.2911104462274
 30
0.0
 10
2313.538309760567
 20
720.2561237782096
 30
0.0
 10
2313.526769248381
 20
720.1357159146732
 30
0.0
 10
2313.574616515022
 20
719.9359751908597
 30
0.0
 10
2313.679479170614
 20
719.70319869554
 30
0.0
 10
2313.836148173428
 20
719.489941255365
 30
0.0
 10
2314.038456947771
 20
719.2925349011499
 30
0.0
 10
2314.282010615853
 20
719.1129542599746
 30
0.0
 10
2314.561332912056
 20
718.9523739303949
 30
0.0
 10
2314.870863232399
 20
718.8119773416153
 30
0.0
 10
2315.202732071113
 20
718.6933420330583
 30
0.0
 10
2315.554685012298
 20
718.5954495848057
 30
0.0
 10
2315.890167285932
 20
718.525323685415
 30
0.0
 10
2316.198776189297
 20
718.4782666757103
 30
0.0
 10
2316.527969191616
 20
718.4410729616813
 30
0.0
 10
2316.76611131548
 20
718.4308363925882
 30
0.0
 10
2316.91367202989
 20
718.4244934767528
 30
0.0
  0
SPLINE
  5
790
330
776
100
AcDbEntity
  8
0
  6
Continuous
 62
     7
370
    15
100
AcDbSpline
210
0.0
220
0.0
230
1.0
 70
     8
 71
     3
 72
    22
 73
    18
 74
     0
 42
0.0000000001
 43
0.0000000001
 40
0.0
 40
0.0
 40
0.0
 40
0.0
 40
0.0919725135729912
 40
0.1289697595443322
 40
0.1900182276140593
 40
0.2526828706493053
 40
0.3191782269918855
 40
0.3877329305671344
 40
0.4576702341219225
 40
0.5284910395551546
 40
0.5999119852591713
 40
0.6718151317350154
 40
0.7441891907422557
 40
0.8170882126546416
 40
0.890822671345043
 40
0.9662537852466128
 40
0.9999999999999998
 40
0.9999999999999998
 40
0.9999999999999998
 40
0.9999999999999998
 10
2316.91367202989
 20
718.4244934767528
 30
0.0
 10
2317.072910851442
 20
718.4235372597568
 30
0.0
 10
2317.296205743881
 20
718.4221963909337
 30
0.0
 10
2317.620832371352
 20
718.442077858741
 30
0.0
 10
2317.891705126159
 20
718.4683222950519
 30
0.0
 10
2318.203755269583
 20
718.5146866129752
 30
0.0
 10
2318.515942546127
 20
718.5786779455591
 30
0.0
 10
2318.823113405382
 20
718.6616841901399
 30
0.0
 10
2319.116227854866
 20
718.7631192277511
 30
0.0
 10
2319.389082612266
 20
718.8822984842571
 30
0.0
 10
2319.63682352732
 20
719.0184147502642
 30
0.0
 10
2319.855767970844
 20
719.1708351310446
 30
0.0
 10
2320.042433855943
 20
719.3392806914522
 30
0.0
 10
2320.194700046618
 20
719.5238824340056
 30
0.0
 10
2320.304818955392
 20
719.7255999363992
 30
0.0
 10
2320.367141751669
 20
719.9012901334664
 30
0.0
 10
2320.370482794866
 20
720.0094396634105
 30
0.0
 10
2320.371515496093
 20
720.0428681902662
 30
0.0
  0
LINE
  5
791
330
776
100
AcDbEntity
  8
0
  6
Continuous
 62
     7
370
    15
100
AcDbLine
 10
2319.932562338212
 20
719.1440452741375
 30
0.0
 11
2319.93521147668
 21
719.2502023738136
 31
0.0
  0
LINE
  5
792
330
776
100
AcDbEntity
  8
0
  6
Continuous
 62
     7
370
    15
100
AcDbLine
 10
2313.937116046743
 20
719.401375907444
 30
0.0
 11
2313.934429705299
 21
719.2937279984971
 31
0.0
  0
LINE
  5
793
330
776
100
AcDbEntity
  8
0
  6
Continuous
 62
     7
370
    15
100
AcDbLine
 10
2319.612701396364
 20
706.2761759857062
 30
0.0
 11
2319.762571736757
 21
712.2818268265802
 31
0.0
  0
LINE
  5
794
330
776
100
AcDbEntity
  8
0
  6
Continuous
 62
     7
370
    15
100
AcDbLine
 10
2313.823198788784
 20
714.7861459009559
 30
0.0
 11
2313.61456876345
 21
706.4258587100657
 31
0.0
  0
LINE
  5
795
330
776
100
AcDbEntity
  8
0
  6
Continuous
 62
     7
370
    15
100
AcDbLine
 10
2309.284494837982
 20
725.1833766459377
 30
0.0
 11
2309.398081951023
 21
729.7350747281398
 31
0.0
  0
LINE
  5
796
330
776
100
AcDbEntity
  8
0
  6
Continuous
 62
     7
370
    15
100
AcDbLine
 10
2302.550213861779
 20
729.9059625051169
 30
0.0
 11
2302.436626748738
 21
725.3542644229148
 31
0.0
  0
LINE
  5
797
330
776
100
AcDbEntity
  8
0
  6
Continuous
 62
     7
370
    15
100
AcDbLine
 10
2314.092275835568
 20
705.6142602197406
 30
0.0
 11
2314.255997716705
 21
705.4883120507909
 31
0.0
  0
LINE
  5
798
330
776
100
AcDbEntity
  8
0
  6
Continuous
 62
     7
370
    15
100
AcDbLine
 10
2318.925307220339
 20
705.3717899579738
 30
0.0
 11
2319.095107446528
 21
705.4894151202956
 31
0.0
  0
SPLINE
  5
799
330
776
100
AcDbEntity
  8
0
  6
Continuous
 62
     7
370
    15
100
AcDbSpline
210
0.0
220
0.0
230
1.0
 70
     8
 71
     3
 72
    21
 73
    17
 74
     0
 42
0.0000000001
 43
0.0000000001
 40
0.0
 40
0.0
 40
0.0
 40
0.0
 40
0.0345268427619726
 40
0.1188253585482278
 40
0.1970267502115497
 40
0.276143494230956
 40
0.355193767741411
 40
0.4336617004660996
 40
0.5113319301575303
 40
0.5881973397859319
 40
0.6637896647847406
 40
0.7368172532986332
 40
0.8114744525443908
 40
0.865810992681718
 40
0.9168520652093929
 40
1.0
 40
1.0
 40
1.0
 40
1.0
 10
2302.444699792184
 20
725.3781851346396
 30
0.0
 10
2302.441346489029
 20
725.3431984666219
 30
0.0
 10
2302.429805976843
 20
725.2227906030855
 30
0.0
 10
2302.477653243483
 20
725.0230498792721
 30
0.0
 10
2302.582515899077
 20
724.7902733839522
 30
0.0
 10
2302.73918490189
 20
724.5770159437774
 30
0.0
 10
2302.941493676233
 20
724.3796095895621
 30
0.0
 10
2303.185047344315
 20
724.200028948387
 30
0.0
 10
2303.464369640518
 20
724.0394486188071
 30
0.0
 10
2303.773899960861
 20
723.8990520300276
 30
0.0
 10
2304.105768799575
 20
723.7804167214705
 30
0.0
 10
2304.45772174076
 20
723.6825242732179
 30
0.0
 10
2304.793204014394
 20
723.6123983738273
 30
0.0
 10
2305.10181291776
 20
723.5653413641228
 30
0.0
 10
2305.431005920078
 20
723.5281476500936
 30
0.0
 10
2305.669148043942
 20
723.5179110810004
 30
0.0
 10
2305.816708758352
 20
723.5115681651651
 30
0.0
  0
SPLINE
  5
79A
330
776
100
AcDbEntity
  8
0
  6
Continuous
 62
     7
370
    15
100
AcDbSpline
210
0.0
220
0.0
230
1.0
 70
     8
 71
     3
 72
    22
 73
    18
 74
     0
 42
0.0000000001
 43
0.0000000001
 40
0.0
 40
0.0
 40
0.0
 40
0.0
 40
0.0919725135729918
 40
0.1289697595443339
 40
0.1900182276140688
 40
0.2526828706492945
 40
0.319178226991878
 40
0.3877329305671257
 40
0.4576702341219144
 40
0.528491039555159
 40
0.5999119852591735
 40
0.6718151317350041
 40
0.7441891907422559
 40
0.8170882126546285
 40
0.8908226713450325
 40
0.9662537852466025
 40
0.9999999999999998
 40
0.9999999999999998
 40
0.9999999999999998
 40
0.9999999999999998
 10
2305.816708758352
 20
723.5115681651651
 30
0.0
 10
2305.975947579904
 20
723.5106119481692
 30
0.0
 10
2306.199242472343
 20
723.5092710793459
 30
0.0
 10
2306.523869099814
 20
723.5291525471533
 30
0.0
 10
2306.794741854621
 20
723.5553969834642
 30
0.0
 10
2307.106791998045
 20
723.6017613013874
 30
0.0
 10
2307.418979274588
 20
723.6657526339713
 30
0.0
 10
2307.726150133844
 20
723.7487588785521
 30
0.0
 10
2308.019264583328
 20
723.8501939161634
 30
0.0
 10
2308.292119340729
 20
723.9693731726694
 30
0.0
 10
2308.539860255782
 20
724.1054894386764
 30
0.0
 10
2308.758804699306
 20
724.2579098194569
 30
0.0
 10
2308.945470584406
 20
724.4263553798645
 30
0.0
 10
2309.097736775081
 20
724.6109571224178
 30
0.0
 10
2309.207855683854
 20
724.8126746248114
 30
0.0
 10
2309.270178480131
 20
724.9883648218786
 30
0.0
 10
2309.273519523328
 20
725.0965143518229
 30
0.0
 10
2309.274552224556
 20
725.1299428786786
 30
0.0
  0
LINE
  5
79B
330
776
100
AcDbEntity
  8
0
  6
Continuous
 62
     7
370
    15
100
AcDbLine
 10
2308.835599066674
 20
724.2311199625499
 30
0.0
 11
2308.838248205141
 21
724.3372770622259
 31
0.0
  0
LINE
  5
79C
330
776
100
AcDbEntity
  8
0
  6
Continuous
 62
     7
370
    15
100
AcDbLine
 10
2302.840152775205
 20
724.4884505958562
 30
0.0
 11
2302.83746643376
 21
724.3808026869094
 31
0.0
  0
LINE
  5
79D
330
776
100
AcDbEntity
  8
0
  6
Continuous
 62
     7
370
    15
100
AcDbLine
 10
2308.515738124826
 20
711.3632506741185
 30
0.0
 11
2308.665608465219
 21
717.3689015149927
 31
0.0
  0
LINE
  5
79E
330
776
100
AcDbEntity
  8
0
  6
Continuous
 62
     7
370
    15
100
AcDbLine
 10
2302.726235517246
 20
719.8732205893682
 30
0.0
 11
2302.517605491912
 21
711.512933398478
 31
0.0
  0
LINE
  5
79F
330
776
100
AcDbEntity
  8
0
  6
Continuous
 62
     7
370
    15
100
AcDbLine
 10
2298.187531566444
 20
730.27045133435
 30
0.0
 11
2298.301118679485
 21
734.822149416552
 31
0.0
  0
LINE
  5
7A0
330
776
100
AcDbEntity
  8
0
  6
Continuous
 62
     7
370
    15
100
AcDbLine
 10
2291.453250590241
 20
734.9930371935291
 30
0.0
 11
2291.3396634772
 21
730.4413391113271
 31
0.0
  0
LINE
  5
7A1
330
776
100
AcDbEntity
  8
0
  6
Continuous
 62
     7
370
    15
100
AcDbLine
 10
2302.99531256403
 20
710.7013349081528
 30
0.0
 11
2303.159034445167
 21
710.5753867392031
 31
0.0
  0
LINE
  5
7A2
330
776
100
AcDbEntity
  8
0
  6
Continuous
 62
     7
370
    15
100
AcDbLine
 10
2307.828343948802
 20
710.4588646463861
 30
0.0
 11
2307.99814417499
 21
710.576489808708
 31
0.0
  0
SPLINE
  5
7A3
330
776
100
AcDbEntity
  8
0
  6
Continuous
 62
     7
370
    15
100
AcDbSpline
210
0.0
220
0.0
230
1.0
 70
     8
 71
     3
 72
    21
 73
    17
 74
     0
 42
0.0000000001
 43
0.0000000001
 40
0.0
 40
0.0
 40
0.0
 40
0.0
 40
0.0345268427619644
 40
0.1188253585482255
 40
0.1970267502115445
 40
0.2761434942309486
 40
0.3551937677414061
 40
0.4336617004660936
 40
0.5113319301575223
 40
0.5881973397859204
 40
0.6637896647847357
 40
0.7368172532986196
 40
0.8114744525443768
 40
0.8658109926817015
 40
0.9168520652093652
 40
1.0
 40
1.0
 40
1.0
 40
1.0
 10
2291.347736520646
 20
730.4652598230521
 30
0.0
 10
2291.344383217492
 20
730.4302731550342
 30
0.0
 10
2291.332842705305
 20
730.3098652914979
 30
0.0
 10
2291.380689971946
 20
730.1101245676843
 30
0.0
 10
2291.485552627539
 20
729.8773480723646
 30
0.0
 10
2291.642221630352
 20
729.6640906321897
 30
0.0
 10
2291.844530404695
 20
729.4666842779745
 30
0.0
 10
2292.088084072777
 20
729.2871036367992
 30
0.0
 10
2292.367406368979
 20
729.1265233072195
 30
0.0
 10
2292.676936689323
 20
728.9861267184399
 30
0.0
 10
2293.008805528037
 20
728.8674914098829
 30
0.0
 10
2293.360758469222
 20
728.7695989616302
 30
0.0
 10
2293.696240742856
 20
728.6994730622396
 30
0.0
 10
2294.004849646221
 20
728.652416052535
 30
0.0
 10
2294.33404264854
 20
728.6152223385059
 30
0.0
 10
2294.572184772404
 20
728.6049857694126
 30
0.0
 10
2294.719745486814
 20
728.5986428535774
 30
0.0
  0
SPLINE
  5
7A4
330
776
100
AcDbEntity
  8
0
  6
Continuous
 62
     7
370
    15
100
AcDbSpline
210
0.0
220
0.0
230
1.0
 70
     8
 71
     3
 72
    22
 73
    18
 74
     0
 42
0.0000000001
 43
0.0000000001
 40
0.0
 40
0.0
 40
0.0
 40
0.0
 40
0.0919725135729921
 40
0.1289697595443343
 40
0.1900182276140696
 40
0.2526828706492952
 40
0.3191782269918769
 40
0.3877329305671344
 40
0.457670234121941
 40
0.5284910395551882
 40
0.5999119852591948
 40
0.671815131735019
 40
0.7441891907422548
 40
0.8170882126546375
 40
0.890822671345027
 40
0.9662537852466076
 40
1.0
 40
1.0
 40
1.0
 40
1.0
 10
2294.719745486814
 20
728.5986428535774
 30
0.0
 10
2294.878984308366
 20
728.5976866365814
 30
0.0
 10
2295.102279200806
 20
728.5963457677581
 30
0.0
 10
2295.426905828276
 20
728.6162272355656
 30
0.0
 10
2295.697778583083
 20
728.6424716718764
 30
0.0
 10
2296.009828726507
 20
728.6888359897998
 30
0.0
 10
2296.322016003051
 20
728.7528273223837
 30
0.0
 10
2296.629186862306
 20
728.8358335669644
 30
0.0
 10
2296.92230131179
 20
728.9372686045757
 30
0.0
 10
2297.195156069191
 20
729.0564478610816
 30
0.0
 10
2297.442896984244
 20
729.1925641270887
 30
0.0
 10
2297.661841427768
 20
729.3449845078692
 30
0.0
 10
2297.848507312868
 20
729.5134300682767
 30
0.0
 10
2298.000773503543
 20
729.6980318108301
 30
0.0
 10
2298.110892412316
 20
729.8997493132236
 30
0.0
 10
2298.173215208593
 20
730.0754395102909
 30
0.0
 10
2298.176556251791
 20
730.1835890402351
 30
0.0
 10
2298.177588953017
 20
730.2170175670908
 30
0.0
  0
LINE
  5
7A5
330
776
100
AcDbEntity
  8
0
  6
Continuous
 62
     7
370
    15
100
AcDbLine
 10
2297.738635795136
 20
729.3181946509622
 30
0.0
 11
2297.741284933604
 21
729.4243517506381
 31
0.0
  0
LINE
  5
7A6
330
776
100
AcDbEntity
  8
0
  6
Continuous
 62
     7
370
    15
100
AcDbLine
 10
2291.743189503667
 20
729.5755252842686
 30
0.0
 11
2291.740503162222
 21
729.4678773753217
 31
0.0
  0
LINE
  5
7A7
330
776
100
AcDbEntity
  8
0
  6
Continuous
 62
     7
370
    15
100
AcDbLine
 10
2297.418774853288
 20
716.4503253625309
 30
0.0
 11
2297.568645193681
 21
722.4559762034049
 31
0.0
  0
LINE
  5
7A8
330
776
100
AcDbEntity
  8
0
  6
Continuous
 62
     7
370
    15
100
AcDbLine
 10
2291.629272245709
 20
724.9602952777804
 30
0.0
 11
2291.420642220375
 21
716.6000080868903
 31
0.0
  0
LINE
  5
7A9
330
776
100
AcDbEntity
  8
0
  6
Continuous
 62
     7
370
    15
100
AcDbLine
 10
2287.090568294906
 20
735.3575260227622
 30
0.0
 11
2287.204155407946
 21
739.9092241049643
 31
0.0
  0
LINE
  5
7AA
330
776
100
AcDbEntity
  8
0
  6
Continuous
 62
     7
370
    15
100
AcDbLine
 10
2280.356287318703
 20
740.0801118819414
 30
0.0
 11
2280.242700205663
 21
735.5284137997394
 31
0.0
  0
LINE
  5
7AB
330
776
100
AcDbEntity
  8
0
  6
Continuous
 62
     7
370
    15
100
AcDbLine
 10
2291.898349292492
 20
715.7884095965652
 30
0.0
 11
2292.062071173629
 21
715.6624614276154
 31
0.0
  0
LINE
  5
7AC
330
776
100
AcDbEntity
  8
0
  6
Continuous
 62
     7
370
    15
100
AcDbLine
 10
2296.731380677263
 20
715.5459393347983
 30
0.0
 11
2296.901180903452
 21
715.6635644971202
 31
0.0
  0
SPLINE
  5
7AD
330
776
100
AcDbEntity
  8
0
  6
Continuous
 62
     7
370
    15
100
AcDbSpline
210
0.0
220
0.0
230
1.0
 70
     8
 71
     3
 72
    21
 73
    17
 74
     0
 42
0.0000000001
 43
0.0000000001
 40
0.0
 40
0.0
 40
0.0
 40
0.0
 40
0.0345268427619666
 40
0.1188253585482355
 40
0.1970267502115573
 40
0.2761434942309651
 40
0.3551937677414234
 40
0.4336617004661125
 40
0.5113319301575438
 40
0.5881973397859408
 40
0.6637896647847557
 40
0.7368172532986402
 40
0.8114744525443924
 40
0.8658109926817152
 40
0.916852065209381
 40
1.0
 40
1.0
 40
1.0
 40
1.0
 10
2280.250773249108
 20
735.5523345114642
 30
0.0
 10
2280.247419945954
 20
735.5173478434465
 30
0.0
 10
2280.235879433766
 20
735.39693997991
 30
0.0
 10
2280.283726700408
 20
735.1971992560966
 30
0.0
 10
2280.388589356
 20
734.9644227607767
 30
0.0
 10
2280.545258358814
 20
734.7511653206018
 30
0.0
 10
2280.747567133158
 20
734.5537589663868
 30
0.0
 10
2280.991120801239
 20
734.3741783252116
 30
0.0
 10
2281.270443097442
 20
734.2135979956316
 30
0.0
 10
2281.579973417785
 20
734.0732014068521
 30
0.0
 10
2281.9118422565
 20
733.9545660982952
 30
0.0
 10
2282.263795197684
 20
733.8566736500426
 30
0.0
 10
2282.599277471318
 20
733.7865477506518
 30
0.0
 10
2282.907886374684
 20
733.7394907409473
 30
0.0
 10
2283.237079377002
 20
733.7022970269181
 30
0.0
 10
2283.475221500866
 20
733.6920604578249
 30
0.0
 10
2283.622782215276
 20
733.6857175419896
 30
0.0
  0
SPLINE
  5
7AE
330
776
100
AcDbEntity
  8
0
  6
Continuous
 62
     7
370
    15
100
AcDbSpline
210
0.0
220
0.0
230
1.0
 70
     8
 71
     3
 72
    22
 73
    18
 74
     0
 42
0.0000000001
 43
0.0000000001
 40
0.0
 40
0.0
 40
0.0
 40
0.0
 40
0.0919725135729923
 40
0.1289697595443345
 40
0.1900182276140494
 40
0.2526828706492874
 40
0.3191782269918552
 40
0.38773293056711
 40
0.4576702341219149
 40
0.5284910395551537
 40
0.5999119852591646
 40
0.671815131734998
 40
0.7441891907422525
 40
0.8170882126546267
 40
0.8908226713450154
 40
0.9662537852465959
 40
1.0
 40
1.0
 40
1.0
 40
1.0
 10
2283.622782215276
 20
733.6857175419896
 30
0.0
 10
2283.782021036828
 20
733.6847613249936
 30
0.0
 10
2284.005315929267
 20
733.6834204561704
 30
0.0
 10
2284.329942556738
 20
733.7033019239778
 30
0.0
 10
2284.600815311545
 20
733.7295463602887
 30
0.0
 10
2284.912865454969
 20
733.7759106782121
 30
0.0
 10
2285.225052731512
 20
733.8399020107959
 30
0.0
 10
2285.532223590768
 20
733.9229082553766
 30
0.0
 10
2285.825338040252
 20
734.0243432929879
 30
0.0
 10
2286.098192797653
 20
734.1435225494939
 30
0.0
 10
2286.345933712706
 20
734.2796388155009
 30
0.0
 10
2286.56487815623
 20
734.4320591962814
 30
0.0
 10
2286.75154404133
 20
734.600504756689
 30
0.0
 10
2286.903810232005
 20
734.7851064992424
 30
0.0
 10
2287.013929140778
 20
734.9868240016359
 30
0.0
 10
2287.076251937055
 20
735.1625141987032
 30
0.0
 10
2287.079592980253
 20
735.2706637286473
 30
0.0
 10
2287.080625681479
 20
735.304092255503
 30
0.0
  0
LINE
  5
7AF
330
776
100
AcDbEntity
  8
0
  6
Continuous
 62
     7
370
    15
100
AcDbLine
 10
2286.641672523598
 20
734.4052693393745
 30
0.0
 11
2286.644321662066
 21
734.5114264390505
 31
0.0
  0
LINE
  5
7B0
330
776
100
AcDbEntity
  8
0
  6
Continuous
 62
     7
370
    15
100
AcDbLine
 10
2280.646226232129
 20
734.6625999726809
 30
0.0
 11
2280.643539890684
 21
734.5549520637339
 31
0.0
  0
LINE
  5
7B1
330
776
100
AcDbEntity
  8
0
  6
Continuous
 62
     7
370
    15
100
AcDbLine
 10
2286.32181158175
 20
721.5374000509431
 30
0.0
 11
2286.471681922143
 21
727.5430508918173
 31
0.0
  0
LINE
  5
7B2
330
776
100
AcDbEntity
  8
0
  6
Continuous
 62
     7
370
    15
100
AcDbLine
 10
2280.53230897417
 20
730.0473699661927
 30
0.0
 11
2280.323678948837
 21
721.6870827753027
 31
0.0
  0
LINE
  5
7B3
330
776
100
AcDbEntity
  8
0
  6
Continuous
 62
     7
370
    15
100
AcDbLine
 10
2275.993605023367
 20
740.4446007111751
 30
0.0
 11
2276.107192136407
 21
744.9962987933773
 31
0.0
  0
LINE
  5
7B4
330
776
100
AcDbEntity
  8
0
  6
Continuous
 62
     7
370
    15
100
AcDbLine
 10
2269.259324047164
 20
745.1671865703542
 30
0.0
 11
2269.145736934123
 21
740.6154884881522
 31
0.0
  0
LINE
  5
7B5
330
776
100
AcDbEntity
  8
0
  6
Continuous
 62
     7
370
    15
100
AcDbLine
 10
2280.801386020954
 20
720.8754842849774
 30
0.0
 11
2280.965107902091
 21
720.7495361160278
 31
0.0
  0
LINE
  5
7B6
330
776
100
AcDbEntity
  8
0
  6
Continuous
 62
     7
370
    15
100
AcDbLine
 10
2285.634417405725
 20
720.6330140232106
 30
0.0
 11
2285.804217631914
 21
720.7506391855324
 31
0.0
  0
SPLINE
  5
7B7
330
776
100
AcDbEntity
  8
0
  6
Continuous
 62
     7
370
    15
100
AcDbSpline
210
0.0
220
0.0
230
1.0
 70
     8
 71
     3
 72
    23
 73
    19
 74
     0
 42
0.0000000001
 43
0.0000000001
 40
0.0
 40
0.0
 40
0.0
 40
0.0
 40
0.0645948469808434
 40
0.148672379642199
 40
0.1824937577468597
 40
0.2383017852649778
 40
0.2955872542292674
 40
0.3563746055572788
 40
0.419044528400398
 40
0.4829783679337116
 40
0.5477198689645522
 40
0.6130099938315814
 40
0.6787409270398147
 40
0.7449023493388133
 40
0.8115436713827479
 40
0.8789487157635809
 40
0.9479047733591698
 40
1.0
 40
1.0
 40
1.0
 40
1.0
 10
2272.160443655663
 20
738.7937129096585
 30
0.0
 10
2272.282102622491
 20
738.7852268898409
 30
0.0
 10
2272.562114557629
 20
738.7656953510425
 30
0.0
 10
2272.908416745316
 20
738.7712250598883
 30
0.0
 10
2273.232960553135
 20
738.7901632680189
 30
0.0
 10
2273.503858224631
 20
738.8166914740383
 30
0.0
 10
2273.815900391358
 20
738.8629650082926
 30
0.0
 10
2274.128089985842
 20
738.9269824773787
 30
0.0
 10
2274.435260107093
 20
739.0099813475458
 30
0.0
 10
2274.72837508082
 20
739.1114183940328
 30
0.0
 10
2275.00122847748
 20
739.2305972191827
 30
0.0
 10
2275.24897436436
 20
739.3667131561677
 30
0.0
 10
2275.467900106833
 20
739.5191353086239
 30
0.0
 10
2275.654636477729
 20
739.6875740464833
 30
0.0
 10
2275.806636410699
 20
739.8722016003027
 30
0.0
 10
2275.917769223159
 20
740.0738208032024
 30
0.0
 10
2275.984451993821
 20
740.2721792705899
 30
0.0
 10
2275.986949187502
 20
740.4035015939419
 30
0.0
 10
2275.988023871439
 20
740.4600170306939
 30
0.0
  0
LINE
  5
7B8
330
776
100
AcDbEntity
  8
0
  6
Continuous
 62
     7
370
    15
100
AcDbLine
 10
2275.544709252059
 20
739.4923440277873
 30
0.0
 11
2275.547358390527
 21
739.5985011274633
 31
0.0
  0
LINE
  5
7B9
330
776
100
AcDbEntity
  8
0
  6
Continuous
 62
     7
370
    15
100
AcDbLine
 10
2275.222366131718
 20
726.6256126206915
 30
0.0
 11
2275.37223647211
 21
732.6312634615655
 31
0.0
  0
LINE
  5
7BA
330
776
100
AcDbEntity
  8
0
  6
Continuous
 62
     7
370
    15
100
AcDbLine
 10
2269.43286588194
 20
735.1356770185433
 30
0.0
 11
2269.224233498803
 21
726.7752953450511
 31
0.0
  0
LINE
  5
7BB
330
776
100
AcDbEntity
  8
0
  6
Continuous
 62
     7
370
    15
100
AcDbLine
 10
2269.701940570922
 20
725.9636968547258
 30
0.0
 11
2269.865662452058
 21
725.8377486857762
 31
0.0
  0
LINE
  5
7BC
330
776
100
AcDbEntity
  8
0
  6
Continuous
 62
     7
370
    15
100
AcDbLine
 10
2274.534971955692
 20
725.721226592959
 30
0.0
 11
2274.704772181881
 21
725.8388517552808
 31
0.0
  0
LWPOLYLINE
  5
7BD
330
776
100
AcDbEntity
  8
0
  6
Continuous
 62
     7
370
    15
100
AcDbPolyline
 90
       38
 70
   128
 43
0.0
 10
2337.434038781208
 20
715.3986618749885
 10
2337.179095246909
 20
715.2424261240777
 10
2336.984160479725
 20
715.0665379215954
 10
2336.85484239799
 20
714.8760572508884
 10
2336.794861247467
 20
714.6764638940453
 10
2336.805942576648
 20
714.4734997885441
 10
2336.88776759587
 20
714.273003842164
 10
2337.037982348308
 20
714.0807439582403
 10
2337.252265429028
 20
713.9022511035872
 10
2337.524452303943
 20
713.7426601926515
 10
2337.846712652233
 20
713.6065623653745
 10
2338.209775630412
 20
713.4978729084544
 10
2338.603196577628
 20
713.4197186196762
 10
2339.015657489528
 20
713.3743478556331
 10
2339.435292616643
 20
713.3630658506001
 10
2339.850029820392
 20
713.386197167321
 10
2340.247937866535
 20
713.4430763599287
 10
2340.617569665052
 20
713.5320671176118
 10
2340.94829158209
 20
713.6506093382966
 10
2341.230589350235
 20
713.7952927781234
 10
2341.45634177668
 20
713.9619551579528
 10
2341.61905437514
 20
714.1458019045585
 10
2341.714046200408
 20
714.3415440817697
 10
2341.738584510623
 20
714.5435505435349
 10
2341.691963383276
 20
714.7460099317412
 10
2341.575524023318
 20
714.943097858407
 10
2341.392616179135
 20
715.129144462719
 10
2341.148501776384
 20
715.2987975226055
 10
2340.850203541974
 20
715.4471764284201
 10
2340.506302972999
 20
715.5700125891952
 10
2340.126693462691
 20
715.6637722322328
 10
2339.722295685508
 20
715.7257580633101
 10
2339.304743429214
 20
715.7541868629245
 10
2338.886048911986
 20
715.7482407862712
 10
2338.478257212771
 20
715.7080908911496
 10
2338.093099756291
 20
715.6348922169418
 10
2337.741656821314
 20
715.5307505562319
 10
2337.434038781208
 20
715.3986618749885
  0
LWPOLYLINE
  5
7BE
330
776
100
AcDbEntity
  8
0
  6
Continuous
 62
     7
370
    15
100
AcDbPolyline
 90
       44
 70
   128
 43
0.0
 10
2341.798844334682
 20
713.3977458308707
 10
2342.10719494275
 20
713.5819990899847
 10
2342.354969904048
 20
713.7870817051269
 10
2342.536888325452
 20
714.0086226964098
 10
2342.649072931646
 20
714.2419003022325
 10
2342.689132702518
 20
714.4819426154319
 10
2342.656213833604
 20
714.7236335508518
 10
2342.551017933441
 20
714.9618218858153
 10
2342.375787070004
 20
715.1914310494935
 10
2342.134255984923
 20
715.4075673211986
 10
2341.831572493941
 20
715.6056241315442
 10
2341.474187770162
 20
715.7813802434741
 10
2341.069718848503
 20
715.9310897206018
 10
2340.626786281809
 20
716.0515617653401
 10
2340.154830408742
 20
716.1402287252132
 10
2339.66391014935
 20
716.1952008179105
 10
2339.16448861665
 20
716.2153064087159
 10
2338.667210113541
 20
716.200116981868
 10
2338.182673267967
 20
716.1499562736285
 10
2337.721205141563
 20
716.0658933724072
 10
2337.292641126264
 20
715.9497199329979
 10
2336.906115320006
 20
715.803911990567
 10
2336.569865849281
 20
715.631577188263
 10
2336.29105928778
 20
715.4363885431977
 10
2336.075637913309
 20
715.222506162464
 10
2335.928193058462
 20
714.9944885776753
 10
2335.851867254335
 20
714.7571955877785
 10
2335.848287252927
 20
714.5156846808771
 10
2335.917529355755
 20
714.2751032426524
 10
2336.058117787611
 20
714.0405788487747
 10
2336.267056150153
 20
713.8171099795299
 10
2336.539891284932
 20
713.6094594858905
 10
2336.870808184731
 20
713.4220530776158
 10
2337.252753930355
 20
713.2588849969326
 10
2337.67758801135
 20
713.1234328881963
 10
2338.136255826855
 20
713.0185836779395
 10
2338.618981668699
 20
712.9465720450449
 10
2339.115477073647
 20
712.9089327924445
 10
2339.615160104135
 20
712.90646813546
 10
2340.107380883892
 20
712.9392306039762
 10
2340.581648581566
 20
713.0065219228572
 10
2341.027855004581
 20
713.106907894469
 10
2341.436490037714
 20
713.2382489661115
 10
2341.798844334682
 20
713.3977458308707
  0
LINE
  5
7BF
330
776
100
AcDbEntity
  8
0
  6
Continuous
 62
     7
370
    15
100
AcDbLine
 10
2335.728283818244
 20
710.1133884108532
 30
0.0
 11
2335.727516563353
 21
710.0930403576779
 31
0.0
  0
LINE
  5
7C0
330
776
100
AcDbEntity
  8
0
  6
Continuous
 62
     7
370
    15
100
AcDbLine
 10
2342.572971146028
 20
709.8769032592132
 30
0.0
 11
2342.575384652596
 21
709.9221525807008
 31
0.0
  0
LWPOLYLINE
  5
7C1
330
776
100
AcDbEntity
  8
0
  6
Continuous
 62
     7
370
    15
100
AcDbPolyline
 90
       17
 70
   128
 43
0.0
 10
2341.346815219139
 20
708.0273223218104
 10
2341.003896077973
 20
707.8780995647226
 10
2340.614771931256
 20
707.7576032995286
 10
2340.189024306908
 20
707.6688005441816
 10
2339.737136524414
 20
707.6138779172376
 10
2339.270235560713
 20
707.5941877960501
 10
2338.799818067082
 20
707.6102150167501
 10
2338.337467283444
 20
707.6615649359727
 10
2337.894567820545
 20
707.7469731482862
 10
2337.48202533306
 20
707.8643366200497
 10
2337.109997986182
 20
708.0107654730815
 10
2336.787646327879
 20
708.1826541430502
 10
2336.522907725801
 20
708.3757701604358
 10
2336.32230092295
 20
708.5853583679745
 10
2336.190765524586
 20
708.8062580084137
 10
2336.131540368759
 20
709.0330297994816
 10
2336.128356248374
 20
709.1195786216726
  0
ARC
  5
7C2
330
776
100
AcDbEntity
  8
0
  6
Continuous
 62
     7
370
    15
100
AcDbCircle
 10
2340.927273531448
 20
709.1681070990999
 30
0.0
 40
1.215485555572658
100
AcDbArc
 50
290.1917987864429
 51
350.6147706150084
  0
LWPOLYLINE
  5
7C3
330
776
100
AcDbEntity
  8
0
  6
Continuous
 62
     7
370
    15
100
AcDbPolyline
 90
       17
 70
   128
 43
0.0
 10
2319.152888676063
 20
718.2014716986349
 10
2318.809969534898
 20
718.0522489415472
 10
2318.42084538818
 20
717.9317526763532
 10
2317.995097763831
 20
717.8429499210061
 10
2317.543209981339
 20
717.7880272940623
 10
2317.076309017636
 20
717.7683371728745
 10
2316.605891524007
 20
717.7843643935745
 10
2316.143540740368
 20
717.8357143127972
 10
2315.700641277469
 20
717.9211225251107
 10
2315.288098789984
 20
718.0384859968743
 10
2314.916071443106
 20
718.184914849906
 10
2314.593719784802
 20
718.3568035198748
 10
2314.328981182725
 20
718.5499195372604
 10
2314.128374379873
 20
718.7595077447991
 10
2313.99683898151
 20
718.9804073852382
 10
2313.937613825684
 20
719.2071791763061
 10
2313.934429705299
 20
719.2937279984971
  0
ARC
  5
7C4
330
776
100
AcDbEntity
  8
0
  6
Continuous
 62
     7
370
    15
100
AcDbCircle
 10
2318.733346988372
 20
719.3422564759248
 30
0.0
 40
1.215485555573366
100
AcDbArc
 50
290.1917987864696
 51
350.6147706149891
  0
LWPOLYLINE
  5
7C5
330
776
100
AcDbEntity
  8
0
  6
Continuous
 62
     7
370
    15
100
AcDbPolyline
 90
       17
 70
   128
 43
0.0
 10
2296.958962132987
 20
728.3756210754595
 10
2296.616042991821
 20
728.2263983183717
 10
2296.226918845104
 20
728.1059020531777
 10
2295.801171220755
 20
728.0170992978306
 10
2295.349283438263
 20
727.9621766708868
 10
2294.882382474561
 20
727.9424865496991
 10
2294.41196498093
 20
727.9585137703991
 10
2293.949614197293
 20
728.0098636896219
 10
2293.506714734393
 20
728.0952719019353
 10
2293.094172246908
 20
728.2126353736988
 10
2292.72214490003
 20
728.3590642267306
 10
2292.399793241727
 20
728.5309528966994
 10
2292.135054639649
 20
728.7240689140848
 10
2291.934447836798
 20
728.9336571216237
 10
2291.802912438434
 20
729.1545567620627
 10
2291.743687282608
 20
729.3813285531307
 10
2291.740503162222
 20
729.4678773753217
  0
ARC
  5
7C6
330
776
100
AcDbEntity
  8
0
  6
Continuous
 62
     7
370
    15
100
AcDbCircle
 10
2296.539420445296
 20
729.516405852749
 30
0.0
 40
1.215485555572671
100
AcDbArc
 50
290.1917987864429
 51
350.6147706150084
  0
LWPOLYLINE
  5
7C7
330
776
100
AcDbEntity
  8
0
  6
Continuous
 62
     7
370
    15
100
AcDbPolyline
 90
       22
 70
   128
 43
0.0
 10
2269.546576619145
 20
739.6420267521468
 10
2269.549760739531
 20
739.5554779299558
 10
2269.608985895357
 20
739.3287061388879
 10
2269.74052129372
 20
739.1078064984488
 10
2269.941128096572
 20
738.8982182909099
 10
2270.205866698649
 20
738.7051022735245
 10
2270.528218356953
 20
738.5332136035557
 10
2270.900245703831
 20
738.3867847505239
 10
2271.312788191316
 20
738.2694212787604
 10
2271.755687654215
 20
738.1840130664469
 10
2272.218038437854
 20
738.1326631472242
 10
2272.688455931484
 20
738.1166359265242
 10
2273.155356895185
 20
738.1363260477119
 10
2273.607244677678
 20
738.1912486746558
 10
2274.032992302027
 20
738.2800514300029
 10
2274.422116448745
 20
738.4005476951967
 10
2274.76503558991
 20
738.5497704522846
 10
2275.053305918184
 20
738.7240453417447
 10
2275.279829261371
 20
738.9190811374135
 10
2275.439027862974
 20
739.1300754107147
 10
2275.52698172507
 20
739.3518327823901
 10
2275.544709252059
 20
739.4923440277873
  0
LWPOLYLINE
  5
7C8
330
776
100
AcDbEntity
  8
0
  6
Continuous
 62
     7
370
    15
100
AcDbPolyline
 90
       17
 70
   128
 43
0.0
 10
2285.861998861449
 20
733.4626957638718
 10
2285.519079720284
 20
733.313473006784
 10
2285.129955573566
 20
733.19297674159
 10
2284.704207949217
 20
733.104173986243
 10
2284.252320166725
 20
733.049251359299
 10
2283.785419203023
 20
733.0295612381114
 10
2283.315001709393
 20
733.0455884588113
 10
2282.852650925755
 20
733.0969383780341
 10
2282.409751462855
 20
733.1823465903475
 10
2281.99720897537
 20
733.2997100621111
 10
2281.625181628492
 20
733.4461389151429
 10
2281.302829970189
 20
733.6180275851116
 10
2281.038091368111
 20
733.8111436024972
 10
2280.837484565259
 20
734.0207318100359
 10
2280.705949166896
 20
734.2416314504751
 10
2280.64672401107
 20
734.468403241543
 10
2280.643539890684
 20
734.5549520637339
  0
ARC
  5
7C9
330
776
100
AcDbEntity
  8
0
  6
Continuous
 62
     7
370
    15
100
AcDbCircle
 10
2285.442457173758
 20
734.6034805411614
 30
0.0
 40
1.215485555572866
100
AcDbArc
 50
290.1917987864429
 51
350.6147706150021
  0
LWPOLYLINE
  5
7CA
330
776
100
AcDbEntity
  8
0
  6
Continuous
 62
     7
370
    15
100
AcDbPolyline
 90
       17
 70
   128
 43
0.0
 10
2308.055925404525
 20
723.2885463870472
 10
2307.71300626336
 20
723.1393236299594
 10
2307.323882116642
 20
723.0188273647654
 10
2306.898134492293
 20
722.9300246094184
 10
2306.446246709801
 20
722.8751019824746
 10
2305.979345746099
 20
722.8554118612869
 10
2305.508928252469
 20
722.8714390819868
 10
2305.04657746883
 20
722.9227890012095
 10
2304.603678005931
 20
723.0081972135231
 10
2304.191135518446
 20
723.1255606852865
 10
2303.819108171568
 20
723.2719895383183
 10
2303.496756513265
 20
723.4438782082872
 10
2303.232017911187
 20
723.6369942256726
 10
2303.031411108335
 20
723.8465824332114
 10
2302.899875709972
 20
724.0674820736504
 10
2302.840650554146
 20
724.2942538647183
 10
2302.83746643376
 20
724.3808026869094
  0
ARC
  5
7CB
330
776
100
AcDbEntity
  8
0
  6
Continuous
 62
     7
370
    15
100
AcDbCircle
 10
2307.636383716834
 20
724.4293311643367
 30
0.0
 40
1.215485555572672
100
AcDbArc
 50
290.1917987864429
 51
350.6147706150084
  0
LWPOLYLINE
  5
7CC
330
776
100
AcDbEntity
  8
0
  6
Continuous
 62
     7
370
    15
100
AcDbPolyline
 90
       17
 70
   128
 43
0.0
 10
2330.249851947601
 20
713.1143970102226
 10
2329.906932806435
 20
712.9651742531349
 10
2329.517808659718
 20
712.8446779879408
 10
2329.092061035369
 20
712.7558752325938
 10
2328.640173252876
 20
712.7009526056499
 10
2328.173272289174
 20
712.6812624844623
 10
2327.702854795544
 20
712.6972897051623
 10
2327.240504011906
 20
712.7486396243849
 10
2326.797604549007
 20
712.8340478366984
 10
2326.385062061522
 20
712.9514113084621
 10
2326.013034714645
 20
713.0978401614937
 10
2325.69068305634
 20
713.2697288314626
 10
2325.425944454263
 20
713.4628448488481
 10
2325.225337651412
 20
713.6724330563867
 10
2325.093802253048
 20
713.8933326968259
 10
2325.034577097222
 20
714.1201044878938
 10
2325.031392976836
 20
714.2066533100849
  0
ARC
  5
7CD
330
776
100
AcDbEntity
  8
0
  6
Continuous
 62
     7
370
    15
100
AcDbCircle
 10
2329.83031025991
 20
714.2551817875125
 30
0.0
 40
1.215485555573188
100
AcDbArc
 50
290.1917987864696
 51
350.6147706149956
  0
LINE
  5
7CE
330
776
100
AcDbEntity
  8
0
  6
Continuous
 62
     7
370
    15
100
AcDbLine
 10
2323.188377083775
 20
714.1641942137092
 30
0.0
 11
2317.269996672291
 21
716.8773007141945
 31
0.0
  0
ARC
  5
7CF
330
776
100
AcDbEntity
  8
0
  6
Continuous
 62
     7
370
    15
100
AcDbCircle
 10
2322.746300355867
 20
735.6586033941677
 30
0.0
 40
19.56341566269853
100
AcDbArc
 50
237.0003955997924
 51
253.7442270732511
  0
LINE
  5
7D0
330
776
100
AcDbEntity
  8
0
  6
Continuous
 62
     7
370
    15
100
AcDbLine
 10
2312.091413812237
 20
719.2512689021214
 30
0.0
 11
2306.173033400753
 21
721.9643754026068
 31
0.0
  0
ARC
  5
7D1
330
776
100
AcDbEntity
  8
0
  6
Continuous
 62
     7
370
    15
100
AcDbCircle
 10
2311.649337084329
 20
740.7456780825794
 30
0.0
 40
19.56341566269794
100
AcDbArc
 50
237.0003955997924
 51
253.7442270732511
  0
LINE
  5
7D2
330
776
100
AcDbEntity
  8
0
  6
Continuous
 62
     7
370
    15
100
AcDbLine
 10
2300.994450540699
 20
724.3383435905338
 30
0.0
 11
2295.076070129215
 21
727.0514500910191
 31
0.0
  0
ARC
  5
7D3
330
776
100
AcDbEntity
  8
0
  6
Continuous
 62
     7
370
    15
100
AcDbCircle
 10
2300.552373812791
 20
745.8327527709938
 30
0.0
 40
19.5634156627002
100
AcDbArc
 50
237.0003955997924
 51
253.7442270732511
  0
LINE
  5
7D4
330
776
100
AcDbEntity
  8
0
  6
Continuous
 62
     7
370
    15
100
AcDbLine
 10
2283.979106857675
 20
732.138524779432
 30
0.0
 11
2289.897487269161
 21
729.4254182789461
 31
0.0
  0
ARC
  5
7D5
330
776
100
AcDbEntity
  8
0
  6
Continuous
 62
     7
370
    15
100
AcDbCircle
 10
2289.45541054126
 20
750.9198274594211
 30
0.0
 40
19.56341566271616
100
AcDbArc
 50
237.0003955998178
 51
253.7442270732511
  0
LINE
  5
7D6
330
776
100
AcDbEntity
  8
0
  6
Continuous
 62
     7
370
    15
100
AcDbLine
 10
2272.882143586137
 20
737.2255994678442
 30
0.0
 11
2278.800523997623
 21
734.5124929673584
 31
0.0
  0
ARC
  5
7D7
330
776
100
AcDbEntity
  8
0
  6
Continuous
 62
     7
370
    15
100
AcDbCircle
 10
2278.358447269715
 20
756.0069021478202
 30
0.0
 40
19.56341566270161
100
AcDbArc
 50
237.0003955997924
 51
253.7442270732511
  0
LINE
  5
7D8
330
776
100
AcDbEntity
  8
0
  6
Continuous
 62
     7
370
    15
100
AcDbLine
 10
2266.076006112927
 20
740.3456719434045
 30
0.0
 11
2267.703560726084
 21
739.5995676557713
 31
0.0
  0
LINE
  5
7D9
330
776
100
AcDbEntity
  8
0
  6
Continuous
 62
     7
370
    15
100
AcDbLine
 10
2269.178686652423
 20
741.9358598364436
 30
0.0
 11
2266.076006112927
 21
740.3456719434045
 31
0.0
  0
ARC
  5
7DA
330
776
100
AcDbEntity
  8
0
  6
Continuous
 62
     7
370
    15
100
AcDbCircle
 10
2268.820909082791
 20
726.800434300141
 30
0.0
 40
15.34778442616444
100
AcDbArc
 50
56.07002028011939
 51
62.17539761209016
  0
LINE
  5
7DB
330
776
100
AcDbEntity
  8
0
  6
Continuous
 62
     7
370
    15
100
AcDbLine
 10
2280.309257367413
 20
738.1955130629328
 30
0.0
 11
2277.38772514512
 21
739.5348031241635
 31
0.0
  0
ARC
  5
7DC
330
776
100
AcDbEntity
  8
0
  6
Continuous
 62
     7
370
    15
100
AcDbCircle
 10
2279.923412802868
 20
721.7221853624987
 30
0.0
 40
15.33736896095578
100
AcDbArc
 50
56.06879000694368
 51
62.12599126953153
  0
LINE
  5
7DD
330
776
100
AcDbEntity
  8
0
  6
Continuous
 62
     7
370
    15
100
AcDbLine
 10
2291.406220638952
 20
733.1084383745205
 30
0.0
 11
2288.484688416659
 21
734.4477284357507
 31
0.0
  0
ARC
  5
7DE
330
776
100
AcDbEntity
  8
0
  6
Continuous
 62
     7
370
    15
100
AcDbCircle
 10
2291.020376074419
 20
716.6351106741098
 30
0.0
 40
15.33736896092902
100
AcDbArc
 50
56.06879000694368
 51
62.12599126953153
  0
LINE
  5
7DF
330
776
100
AcDbEntity
  8
0
  6
Continuous
 62
     7
370
    15
100
AcDbLine
 10
2299.581651688197
 20
729.3606537473384
 30
0.0
 11
2302.50318391049
 21
728.0213636861081
 31
0.0
  0
ARC
  5
7E0
330
776
100
AcDbEntity
  8
0
  6
Continuous
 62
     7
370
    15
100
AcDbCircle
 10
2302.117339345957
 20
711.5480359856974
 30
0.0
 40
15.33736896092919
100
AcDbArc
 50
56.06879000694368
 51
62.12599126953153
  0
LINE
  5
7E1
330
776
100
AcDbEntity
  8
0
  6
Continuous
 62
     7
370
    15
100
AcDbLine
 10
2310.678614959735
 20
724.2735790589262
 30
0.0
 11
2313.600147182028
 21
722.9342889976959
 31
0.0
  0
ARC
  5
7E2
330
776
100
AcDbEntity
  8
0
  6
Continuous
 62
     7
370
    15
100
AcDbCircle
 10
2313.214302617484
 20
706.4609612972667
 30
0.0
 40
15.33736896095035
100
AcDbArc
 50
56.06879000694368
 51
62.12599126953153
  0
LINE
  5
7E3
330
776
100
AcDbEntity
  8
0
  6
Continuous
 62
     7
370
    15
100
AcDbLine
 10
2321.775578231273
 20
719.1865043705139
 30
0.0
 11
2324.697110453566
 21
717.8472143092837
 31
0.0
  0
ARC
  5
7E4
330
776
100
AcDbEntity
  8
0
  6
Continuous
 62
     7
370
    15
100
AcDbCircle
 10
2324.311265889032
 20
701.3738866088726
 30
0.0
 40
15.33736896092926
100
AcDbArc
 50
56.06879000694368
 51
62.12599126953153
  0
LINE
  5
7E5
330
776
100
AcDbEntity
  8
0
  6
Continuous
 62
     7
370
    15
100
AcDbLine
 10
2332.872541502811
 20
714.0994296821015
 30
0.0
 11
2335.794073725104
 21
712.7601396208714
 31
0.0
  0
ARC
  5
7E6
330
776
100
AcDbEntity
  8
0
  6
Continuous
 62
     7
370
    15
100
AcDbCircle
 10
2335.408229160571
 20
696.2868119204605
 30
0.0
 40
15.33736896092917
100
AcDbArc
 50
56.06879000694368
 51
62.12599126953153
  0
LINE
  5
7E7
330
776
100
AcDbEntity
  8
0
  6
Continuous
 62
     7
370
    15
100
AcDbLine
 10
2343.969504774348
 20
709.0123549936893
 30
0.0
 11
2345.597059387507
 21
708.2662507060555
 31
0.0
  0
LINE
  5
7E8
330
776
100
AcDbEntity
  8
0
  6
Continuous
 62
     7
370
    15
100
AcDbLine
 10
2345.597059387507
 20
708.2662507060555
 30
0.0
 11
2341.091477828524
 21
705.9570470497368
 31
0.0
  0
LINE
  5
7E9
330
776
100
AcDbEntity
  8
0
  6
Continuous
 62
     7
370
    15
100
AcDbLine
 10
2341.091477828524
 20
705.9570470497368
 30
0.0
 11
2339.463923215367
 21
706.7031513373699
 31
0.0
  0
ARC
  5
7EA
330
776
100
AcDbEntity
  8
0
  6
Continuous
 62
     7
370
    15
100
AcDbCircle
 10
2344.940226898944
 20
725.4844540173458
 30
0.0
 40
19.5634156627014
100
AcDbArc
 50
237.0003955997924
 51
253.7442270732511
  0
LINE
  5
7EB
330
776
100
AcDbEntity
  8
0
  6
Continuous
 62
     7
370
    15
100
AcDbLine
 10
2334.285340355313
 20
709.077119525297
 30
0.0
 11
2328.366959943829
 21
711.7902260257822
 31
0.0
  0
ARC
  5
7EC
330
776
100
AcDbEntity
  8
0
  6
Continuous
 62
     7
370
    15
100
AcDbCircle
 10
2333.843263627406
 20
730.5715287057569
 30
0.0
 40
19.56341566270011
100
AcDbArc
 50
237.0003955997924
 51
253.7442270732511
  0
LINE
  5
7ED
330
776
100
AcDbEntity
  8
0
  6
Continuous
 62
     7
370
    15
100
AcDbLine
 10
2339.378732880585
 20
703.2893777757189
 30
0.0
 11
2341.006287493744
 21
702.5432734880853
 31
0.0
  0
LINE
  5
7EE
330
776
100
AcDbEntity
  8
0
  6
Continuous
 62
     7
370
    15
100
AcDbLine
 10
2339.463923215367
 20
706.7031513373699
 30
0.0
 11
2339.378732880585
 21
703.2893777757189
 31
0.0
  0
LINE
  5
7EF
330
776
100
AcDbEntity
  8
0
  6
Continuous
 62
     7
370
    15
100
AcDbLine
 10
2341.091477828524
 20
705.9570470497368
 30
0.0
 11
2341.006287493744
 21
702.5432734880853
 31
0.0
  0
LINE
  5
7F0
330
776
100
AcDbEntity
  8
0
  6
Continuous
 62
     7
370
    15
100
AcDbLine
 10
2345.597059387507
 20
708.2662507060555
 30
0.0
 11
2345.511869052727
 21
704.852477144404
 31
0.0
  0
LINE
  5
7F1
330
776
100
AcDbEntity
  8
0
  6
Continuous
 62
     7
370
    15
100
AcDbLine
 10
2341.006287493744
 20
702.5432734880853
 30
0.0
 11
2345.511869052727
 21
704.852477144404
 31
0.0
  0
ARC
  5
7F2
330
776
100
AcDbEntity
  8
0
  6
Continuous
 62
     7
370
    15
100
AcDbCircle
 10
2344.855036564165
 20
722.0706804556986
 30
0.0
 40
19.56341566270588
100
AcDbArc
 50
237.0003955998178
 51
253.7442270732511
  0
LINE
  5
7F3
330
776
100
AcDbEntity
  8
0
  6
Continuous
 62
     7
370
    15
100
AcDbLine
 10
2334.200150020532
 20
705.6633459636453
 30
0.0
 11
2334.285340355313
 21
709.077119525297
 31
0.0
  0
LWPOLYLINE
  5
7F4
330
776
100
AcDbEntity
  8
0
  6
Continuous
 62
     7
370
    15
100
AcDbPolyline
 90
       17
 70
   128
 43
0.0
 10
2341.026954277291
 20
695.159453033379
 10
2340.684035136125
 20
695.0102302762912
 10
2340.294910989408
 20
694.8897340110972
 10
2339.869163365059
 20
694.8009312557502
 10
2339.417275582567
 20
694.7460086288063
 10
2338.950374618864
 20
694.7263185076186
 10
2338.479957125235
 20
694.7423457283186
 10
2338.017606341596
 20
694.7936956475412
 10
2337.574706878697
 20
694.8791038598548
 10
2337.162164391212
 20
694.9964673316184
 10
2336.790137044334
 20
695.1428961846501
 10
2336.46778538603
 20
695.314784854619
 10
2336.203046783953
 20
695.5079008720044
 10
2336.002439981101
 20
695.7174890795431
 10
2335.870904582738
 20
695.9383887199822
 10
2335.811679426912
 20
696.1651605110501
 10
2335.808495306526
 20
696.2517093332412
  0
ARC
  5
7F5
330
776
100
AcDbEntity
  8
0
  6
Continuous
 62
     7
370
    15
100
AcDbCircle
 10
2340.6074125896
 20
696.3002378106685
 30
0.0
 40
1.215485555572791
100
AcDbArc
 50
290.1917987864452
 51
350.6147706150084
  0
LINE
  5
7F6
330
776
100
AcDbEntity
  8
0
  6
Continuous
 62
     7
370
    15
100
AcDbLine
 10
2328.366959943829
 20
711.7902260257822
 30
0.0
 11
2328.281769609047
 21
708.3764524641313
 31
0.0
  0
LINE
  5
7F7
330
776
100
AcDbEntity
  8
0
  6
Continuous
 62
     7
370
    15
100
AcDbLine
 10
2328.281769609047
 20
708.3764524641313
 30
0.0
 11
2334.200150020532
 21
705.6633459636453
 31
0.0
  0
LWPOLYLINE
  5
7F8
330
776
100
AcDbEntity
  8
0
  6
Continuous
 62
     7
370
    15
100
AcDbPolyline
 90
       38
 70
   128
 43
0.0
 10
2326.33707550967
 20
720.4857365634008
 10
2326.082131975372
 20
720.3295008124901
 10
2325.887197208187
 20
720.1536126100078
 10
2325.757879126452
 20
719.9631319393006
 10
2325.697897975928
 20
719.7635385824575
 10
2325.70897930511
 20
719.5605744769563
 10
2325.790804324332
 20
719.3600785305762
 10
2325.941019076769
 20
719.1678186466528
 10
2326.15530215749
 20
718.9893257919995
 10
2326.427489032406
 20
718.8297348810638
 10
2326.749749380695
 20
718.6936370537869
 10
2327.112812358874
 20
718.5849475968667
 10
2327.50623330609
 20
718.5067933080886
 10
2327.918694217991
 20
718.4614225440453
 10
2328.338329345104
 20
718.4501405390124
 10
2328.753066548854
 20
718.4732718557333
 10
2329.150974594996
 20
718.5301510483411
 10
2329.520606393515
 20
718.6191418060241
 10
2329.851328310551
 20
718.737684026709
 10
2330.133626078698
 20
718.8823674665357
 10
2330.359378505141
 20
719.049029846365
 10
2330.522091103603
 20
719.2328765929708
 10
2330.617082928871
 20
719.4286187701821
 10
2330.641621239085
 20
719.6306252319471
 10
2330.595000111738
 20
719.8330846201535
 10
2330.47856075178
 20
720.0301725468193
 10
2330.295652907597
 20
720.2162191511312
 10
2330.051538504846
 20
720.3858722110178
 10
2329.753240270436
 20
720.5342511168323
 10
2329.409339701461
 20
720.6570872776076
 10
2329.029730191154
 20
720.750846920645
 10
2328.62533241397
 20
720.8128327517223
 10
2328.207780157675
 20
720.8412615513367
 10
2327.789085640448
 20
720.8353154746835
 10
2327.381293941233
 20
720.795165579562
 10
2326.996136484753
 20
720.721966905354
 10
2326.644693549776
 20
720.6178252446441
 10
2326.33707550967
 20
720.4857365634008
  0
LWPOLYLINE
  5
7F9
330
776
100
AcDbEntity
  8
0
  6
Continuous
 62
     7
370
    15
100
AcDbPolyline
 90
       44
 70
   128
 43
0.0
 10
2330.701881063145
 20
718.4848205192829
 10
2331.010231671212
 20
718.6690737783971
 10
2331.258006632511
 20
718.8741563935392
 10
2331.439925053913
 20
719.095697384822
 10
2331.552109660108
 20
719.3289749906448
 10
2331.59216943098
 20
719.5690173038443
 10
2331.559250562066
 20
719.810708239264
 10
2331.454054661902
 20
720.0488965742275
 10
2331.278823798466
 20
720.2785057379058
 10
2331.037292713385
 20
720.4946420096108
 10
2330.734609222402
 20
720.6926988199565
 10
2330.377224498624
 20
720.8684549318864
 10
2329.972755576965
 20
721.018164409014
 10
2329.529823010271
 20
721.1386364537523
 10
2329.057867137204
 20
721.2273034136254
 10
2328.566946877812
 20
721.2822755063228
 10
2328.067525345112
 20
721.3023810971281
 10
2327.570246842003
 20
721.2871916702802
 10
2327.085709996429
 20
721.2370309620407
 10
2326.624241870025
 20
721.1529680608195
 10
2326.195677854727
 20
721.0367946214102
 10
2325.809152048468
 20
720.8909866789793
 10
2325.472902577743
 20
720.7186518766753
 10
2325.194096016241
 20
720.5234632316099
 10
2324.978674641771
 20
720.3095808508763
 10
2324.831229786925
 20
720.0815632660876
 10
2324.754903982796
 20
719.8442702761909
 10
2324.75132398139
 20
719.6027593692895
 10
2324.820566084218
 20
719.3621779310648
 10
2324.961154516073
 20
719.1276535371871
 10
2325.170092878615
 20
718.9041846679422
 10
2325.442928013394
 20
718.6965341743027
 10
2325.773844913193
 20
718.5091277660281
 10
2326.155790658817
 20
718.3459596853448
 10
2326.580624739812
 20
718.2105075766086
 10
2327.039292555316
 20
718.1056583663518
 10
2327.522018397161
 20
718.0336467334572
 10
2328.01851380211
 20
717.9960074808567
 10
2328.518196832598
 20
717.9935428238723
 10
2329.010417612354
 20
718.0263052923885
 10
2329.484685310028
 20
718.0935966112695
 10
2329.930891733043
 20
718.1939825828813
 10
2330.339526766175
 20
718.3253236545238
 10
2330.701881063145
 20
718.4848205192829
  0
LINE
  5
7FA
330
776
100
AcDbEntity
  8
0
  6
Continuous
 62
     7
370
    15
100
AcDbLine
 10
2324.631320546707
 20
715.2004630992653
 30
0.0
 11
2324.630553291815
 21
715.1801150460902
 31
0.0
  0
LINE
  5
7FB
330
776
100
AcDbEntity
  8
0
  6
Continuous
 62
     7
370
    15
100
AcDbLine
 10
2331.47600787449
 20
714.9639779476254
 30
0.0
 11
2331.478421381058
 21
715.0092272691131
 31
0.0
  0
ARC
  5
7FC
330
776
100
AcDbEntity
  8
0
  6
Continuous
 62
     7
370
    15
100
AcDbCircle
 10
2338.883447036344
 20
699.217771830825
 30
0.0
 40
4.600021473163395
100
AcDbArc
 50
238.0604509445414
 51
299.0805229891927
  0
LINE
  5
7FD
330
776
100
AcDbEntity
  8
0
  6
Continuous
 62
     7
370
    15
100
AcDbLine
 10
2323.103186748995
 20
710.7504206520578
 30
0.0
 11
2323.188377083775
 21
714.1641942137092
 31
0.0
  0
ARC
  5
7FE
330
776
100
AcDbEntity
  8
0
  6
Continuous
 62
     7
370
    15
100
AcDbCircle
 10
2333.758073292627
 20
727.1577551441102
 30
0.0
 40
19.56341566270505
100
AcDbArc
 50
237.0003955998178
 51
253.7442270732511
  0
LWPOLYLINE
  5
7FF
330
776
100
AcDbEntity
  8
0
  6
Continuous
 62
     7
370
    15
100
AcDbPolyline
 90
       17
 70
   128
 43
0.0
 10
2329.929991005753
 20
700.2465277217914
 10
2329.587071864588
 20
700.0973049647035
 10
2329.19794771787
 20
699.9768086995096
 10
2328.772200093522
 20
699.8880059441624
 10
2328.320312311029
 20
699.8330833172186
 10
2327.853411347327
 20
699.813393196031
 10
2327.382993853697
 20
699.8294204167309
 10
2326.920643070058
 20
699.8807703359537
 10
2326.477743607159
 20
699.966178548267
 10
2326.065201119674
 20
700.0835420200306
 10
2325.693173772796
 20
700.2299708730625
 10
2325.370822114493
 20
700.4018595430312
 10
2325.106083512415
 20
700.5949755604167
 10
2324.905476709564
 20
700.8045637679555
 10
2324.7739413112
 20
701.0254634083946
 10
2324.714716155373
 20
701.2522351994625
 10
2324.711532034988
 20
701.3387840216535
  0
ARC
  5
800
330
776
100
AcDbEntity
  8
0
  6
Continuous
 62
     7
370
    15
100
AcDbCircle
 10
2329.510449318062
 20
701.3873124990809
 30
0.0
 40
1.215485555572804
100
AcDbArc
 50
290.1917987864429
 51
350.6147706150021
  0
LINE
  5
801
330
776
100
AcDbEntity
  8
0
  6
Continuous
 62
     7
370
    15
100
AcDbLine
 10
2317.269996672291
 20
716.8773007141945
 30
0.0
 11
2317.184806337509
 21
713.4635271525436
 31
0.0
  0
LINE
  5
802
330
776
100
AcDbEntity
  8
0
  6
Continuous
 62
     7
370
    15
100
AcDbLine
 10
2317.184806337509
 20
713.4635271525436
 30
0.0
 11
2323.103186748995
 21
710.7504206520578
 31
0.0
  0
LWPOLYLINE
  5
803
330
776
100
AcDbEntity
  8
0
  6
Continuous
 62
     7
370
    15
100
AcDbPolyline
 90
       38
 70
   128
 43
0.0
 10
2315.240112238132
 20
725.5728112518132
 10
2314.985168703834
 20
725.4165755009023
 10
2314.790233936649
 20
725.2406872984201
 10
2314.660915854914
 20
725.0502066277128
 10
2314.60093470439
 20
724.8506132708699
 10
2314.612016033572
 20
724.6476491653687
 10
2314.693841052794
 20
724.4471532189885
 10
2314.844055805231
 20
724.254893335065
 10
2315.058338885952
 20
724.0764004804118
 10
2315.330525760867
 20
723.916809569476
 10
2315.652786109156
 20
723.7807117421992
 10
2316.015849087337
 20
723.672022285279
 10
2316.409270034553
 20
723.5938679965008
 10
2316.821730946452
 20
723.5484972324576
 10
2317.241366073567
 20
723.5372152274246
 10
2317.656103277316
 20
723.5603465441455
 10
2318.054011323459
 20
723.6172257367533
 10
2318.423643121977
 20
723.7062164944363
 10
2318.754365039014
 20
723.8247587151212
 10
2319.03666280716
 20
723.9694421549479
 10
2319.262415233604
 20
724.1361045347773
 10
2319.425127832064
 20
724.3199512813832
 10
2319.520119657333
 20
724.5156934585943
 10
2319.544657967547
 20
724.7176999203595
 10
2319.4980368402
 20
724.9201593085659
 10
2319.381597480242
 20
725.1172472352315
 10
2319.198689636059
 20
725.3032938395436
 10
2318.954575233308
 20
725.4729468994301
 10
2318.656276998898
 20
725.6213258052447
 10
2318.312376429924
 20
725.7441619660198
 10
2317.932766919616
 20
725.8379216090572
 10
2317.528369142432
 20
725.8999074401345
 10
2317.110816886137
 20
725.9283362397489
 10
2316.69212236891
 20
725.9223901630957
 10
2316.284330669695
 20
725.8822402679742
 10
2315.899173213215
 20
725.8090415937663
 10
2315.547730278238
 20
725.7048999330565
 10
2315.240112238132
 20
725.5728112518132
  0
LWPOLYLINE
  5
804
330
776
100
AcDbEntity
  8
0
  6
Continuous
 62
     7
370
    15
100
AcDbPolyline
 90
       44
 70
   128
 43
0.0
 10
2319.604917791607
 20
723.5718952076953
 10
2319.913268399674
 20
723.7561484668093
 10
2320.161043360973
 20
723.9612310819515
 10
2320.342961782376
 20
724.1827720732343
 10
2320.45514638857
 20
724.4160496790571
 10
2320.495206159443
 20
724.6560919922565
 10
2320.462287290528
 20
724.8977829276762
 10
2320.357091390364
 20
725.1359712626398
 10
2320.181860526928
 20
725.365580426318
 10
2319.940329441847
 20
725.581716698023
 10
2319.637645950864
 20
725.7797735083687
 10
2319.280261227087
 20
725.9555296202988
 10
2318.875792305427
 20
726.1052390974263
 10
2318.432859738733
 20
726.2257111421646
 10
2317.960903865666
 20
726.3143781020377
 10
2317.469983606274
 20
726.369350194735
 10
2316.970562073574
 20
726.3894557855405
 10
2316.473283570466
 20
726.3742663586924
 10
2315.988746724892
 20
726.324105650453
 10
2315.527278598487
 20
726.2400427492317
 10
2315.098714583188
 20
726.1238693098225
 10
2314.71218877693
 20
725.9780613673917
 10
2314.375939306206
 20
725.8057265650875
 10
2314.097132744704
 20
725.6105379200222
 10
2313.881711370233
 20
725.3966555392885
 10
2313.734266515387
 20
725.1686379544999
 10
2313.657940711259
 20
724.9313449646031
 10
2313.654360709851
 20
724.6898340577017
 10
2313.723602812679
 20
724.449252619477
 10
2313.864191244535
 20
724.2147282255993
 10
2314.073129607077
 20
723.9912593563546
 10
2314.345964741855
 20
723.783608862715
 10
2314.676881641656
 20
723.5962024544403
 10
2315.058827387279
 20
723.433034373757
 10
2315.483661468274
 20
723.2975822650208
 10
2315.942329283779
 20
723.1927330547641
 10
2316.425055125623
 20
723.1207214218694
 10
2316.921550530572
 20
723.0830821692689
 10
2317.421233561059
 20
723.0806175122845
 10
2317.913454340816
 20
723.1133799808008
 10
2318.38772203849
 20
723.1806712996818
 10
2318.833928461506
 20
723.2810572712935
 10
2319.242563494638
 20
723.412398342936
 10
2319.604917791607
 20
723.5718952076953
  0
LINE
  5
805
330
776
100
AcDbEntity
  8
0
  6
Continuous
 62
     7
370
    15
100
AcDbLine
 10
2313.534357275169
 20
720.2875377876777
 30
0.0
 11
2313.533590020277
 21
720.2671897345026
 31
0.0
  0
LINE
  5
806
330
776
100
AcDbEntity
  8
0
  6
Continuous
 62
     7
370
    15
100
AcDbLine
 10
2320.379044602952
 20
720.0510526360377
 30
0.0
 11
2320.38145810952
 21
720.0963019575254
 31
0.0
  0
ARC
  5
807
330
776
100
AcDbEntity
  8
0
  6
Continuous
 62
     7
370
    15
100
AcDbCircle
 10
2327.786483764807
 20
704.304846519237
 30
0.0
 40
4.600021473163166
100
AcDbArc
 50
238.0604509445414
 51
299.0805229891927
  0
LINE
  5
808
330
776
100
AcDbEntity
  8
0
  6
Continuous
 62
     7
370
    15
100
AcDbLine
 10
2312.006223477457
 20
715.83749534047
 30
0.0
 11
2312.091413812237
 21
719.2512689021214
 31
0.0
  0
ARC
  5
809
330
776
100
AcDbEntity
  8
0
  6
Continuous
 62
     7
370
    15
100
AcDbCircle
 10
2322.66111002109
 20
732.2448298325227
 30
0.0
 40
19.56341566270545
100
AcDbArc
 50
237.0003955998178
 51
253.7442270732511
  0
LWPOLYLINE
  5
80A
330
776
100
AcDbEntity
  8
0
  6
Continuous
 62
     7
370
    15
100
AcDbPolyline
 90
       17
 70
   128
 43
0.0
 10
2318.833027734215
 20
705.3336024102036
 10
2318.490108593049
 20
705.1843796531158
 10
2318.100984446332
 20
705.0638833879218
 10
2317.675236821983
 20
704.9750806325747
 10
2317.22334903949
 20
704.9201580056309
 10
2316.756448075788
 20
704.9004678844433
 10
2316.286030582159
 20
704.9164951051432
 10
2315.82367979852
 20
704.9678450243659
 10
2315.380780335621
 20
705.0532532366794
 10
2314.968237848136
 20
705.1706167084429
 10
2314.596210501258
 20
705.3170455614747
 10
2314.273858842955
 20
705.4889342314435
 10
2314.009120240877
 20
705.682050248829
 10
2313.808513438026
 20
705.8916384563677
 10
2313.676978039662
 20
706.1125380968069
 10
2313.617752883835
 20
706.3393098878748
 10
2313.61456876345
 20
706.4258587100657
  0
ARC
  5
80B
330
776
100
AcDbEntity
  8
0
  6
Continuous
 62
     7
370
    15
100
AcDbCircle
 10
2318.413486046524
 20
706.4743871874932
 30
0.0
 40
1.215485555572924
100
AcDbArc
 50
290.1917987864429
 51
350.6147706150021
  0
LINE
  5
80C
330
776
100
AcDbEntity
  8
0
  6
Continuous
 62
     7
370
    15
100
AcDbLine
 10
2306.173033400753
 20
721.9643754026068
 30
0.0
 11
2306.087843065971
 21
718.5506018409559
 31
0.0
  0
LINE
  5
80D
330
776
100
AcDbEntity
  8
0
  6
Continuous
 62
     7
370
    15
100
AcDbLine
 10
2306.087843065971
 20
718.5506018409559
 30
0.0
 11
2312.006223477457
 21
715.83749534047
 31
0.0
  0
LWPOLYLINE
  5
80E
330
776
100
AcDbEntity
  8
0
  6
Continuous
 62
     7
370
    15
100
AcDbPolyline
 90
       38
 70
   128
 43
0.0
 10
2304.143148966594
 20
730.6598859402254
 10
2303.888205432296
 20
730.5036501893146
 10
2303.693270665112
 20
730.3277619868323
 10
2303.563952583376
 20
730.1372813161252
 10
2303.503971432852
 20
729.9376879592822
 10
2303.515052762034
 20
729.7347238537809
 10
2303.596877781256
 20
729.5342279074009
 10
2303.747092533693
 20
729.3419680234773
 10
2303.961375614413
 20
729.1634751688241
 10
2304.233562489329
 20
729.0038842578883
 10
2304.555822837619
 20
728.8677864306114
 10
2304.918885815799
 20
728.7590969736912
 10
2305.312306763015
 20
728.6809426849131
 10
2305.724767674914
 20
728.63557192087
 10
2306.144402802029
 20
728.6242899158369
 10
2306.559140005778
 20
728.6474212325578
 10
2306.957048051921
 20
728.7043004251657
 10
2307.326679850439
 20
728.7932911828486
 10
2307.657401767475
 20
728.9118334035334
 10
2307.939699535622
 20
729.0565168433602
 10
2308.165451962066
 20
729.2231792231896
 10
2308.328164560526
 20
729.4070259697954
 10
2308.423156385794
 20
729.6027681470065
 10
2308.447694696009
 20
729.8047746087718
 10
2308.401073568662
 20
730.0072339969781
 10
2308.284634208704
 20
730.2043219236439
 10
2308.101726364521
 20
730.3903685279558
 10
2307.85761196177
 20
730.5600215878423
 10
2307.55931372736
 20
730.7084004936569
 10
2307.215413158386
 20
730.8312366544321
 10
2306.835803648077
 20
730.9249962974695
 10
2306.431405870894
 20
730.9869821285468
 10
2306.013853614599
 20
731.0154109281612
 10
2305.595159097372
 20
731.009464851508
 10
2305.187367398157
 20
730.9693149563864
 10
2304.802209941677
 20
730.8961162821786
 10
2304.4507670067
 20
730.7919746214687
 10
2304.143148966594
 20
730.6598859402254
  0
LWPOLYLINE
  5
80F
330
776
100
AcDbEntity
  8
0
  6
Continuous
 62
     7
370
    15
100
AcDbPolyline
 90
       44
 70
   128
 43
0.0
 10
2308.507954520069
 20
728.6589698961075
 10
2308.816305128136
 20
728.8432231552215
 10
2309.064080089434
 20
729.0483057703639
 10
2309.245998510838
 20
729.2698467616467
 10
2309.358183117032
 20
729.5031243674693
 10
2309.398242887905
 20
729.7431666806687
 10
2309.36532401899
 20
729.9848576160886
 10
2309.260128118826
 20
730.2230459510521
 10
2309.08489725539
 20
730.4526551147302
 10
2308.843366170309
 20
730.6687913864355
 10
2308.540682679326
 20
730.866848196781
 10
2308.183297955548
 20
731.042604308711
 10
2307.778829033889
 20
731.1923137858386
 10
2307.335896467195
 20
731.3127858305769
 10
2306.863940594128
 20
731.4014527904499
 10
2306.373020334736
 20
731.4564248831473
 10
2305.873598802036
 20
731.4765304739528
 10
2305.376320298927
 20
731.4613410471046
 10
2304.891783453354
 20
731.4111803388652
 10
2304.430315326949
 20
731.3271174376441
 10
2304.001751311651
 20
731.2109439982348
 10
2303.615225505392
 20
731.0651360558039
 10
2303.278976034667
 20
730.8928012534997
 10
2303.000169473166
 20
730.6976126084345
 10
2302.784748098695
 20
730.4837302277008
 10
2302.637303243848
 20
730.2557126429121
 10
2302.56097743972
 20
730.0184196530153
 10
2302.557397438313
 20
729.776908746114
 10
2302.626639541141
 20
729.5363273078893
 10
2302.767227972998
 20
729.3018029140116
 10
2302.976166335539
 20
729.0783340447668
 10
2303.249001470318
 20
728.8706835511272
 10
2303.579918370118
 20
728.6832771428525
 10
2303.961864115741
 20
728.5201090621694
 10
2304.386698196736
 20
728.3846569534331
 10
2304.845366012241
 20
728.2798077431764
 10
2305.328091854085
 20
728.2077961102817
 10
2305.824587259033
 20
728.1701568576813
 10
2306.324270289521
 20
728.1676922006968
 10
2306.816491069278
 20
728.200454669213
 10
2307.290758766952
 20
728.2677459880941
 10
2307.736965189968
 20
728.3681319597057
 10
2308.1456002231
 20
728.4994730313483
 10
2308.507954520069
 20
728.6589698961075
  0
LINE
  5
810
330
776
100
AcDbEntity
  8
0
  6
Continuous
 62
     7
370
    15
100
AcDbLine
 10
2302.437394003631
 20
725.37461247609
 30
0.0
 11
2302.436626748738
 21
725.3542644229148
 31
0.0
  0
LINE
  5
811
330
776
100
AcDbEntity
  8
0
  6
Continuous
 62
     7
370
    15
100
AcDbLine
 10
2309.282081331414
 20
725.13812732445
 30
0.0
 11
2309.284494837982
 21
725.1833766459377
 31
0.0
  0
ARC
  5
812
330
776
100
AcDbEntity
  8
0
  6
Continuous
 62
     7
370
    15
100
AcDbCircle
 10
2316.689520493269
 20
709.3919212076497
 30
0.0
 40
4.600021473163492
100
AcDbArc
 50
238.0604509445414
 51
299.0805229891927
  0
LINE
  5
813
330
776
100
AcDbEntity
  8
0
  6
Continuous
 62
     7
370
    15
100
AcDbLine
 10
2300.909260205919
 20
720.9245700288822
 30
0.0
 11
2300.994450540699
 21
724.3383435905338
 31
0.0
  0
ARC
  5
814
330
776
100
AcDbEntity
  8
0
  6
Continuous
 62
     7
370
    15
100
AcDbCircle
 10
2311.564146749552
 20
737.3319045209371
 30
0.0
 40
19.56341566270782
100
AcDbArc
 50
237.0003955998178
 51
253.7442270732511
  0
LWPOLYLINE
  5
815
330
776
100
AcDbEntity
  8
0
  6
Continuous
 62
     7
370
    15
100
AcDbPolyline
 90
       17
 70
   128
 43
0.0
 10
2307.736064462677
 20
710.4206770986158
 10
2307.393145321511
 20
710.271454341528
 10
2307.004021174794
 20
710.150958076334
 10
2306.578273550445
 20
710.062155320987
 10
2306.126385767953
 20
710.0072326940431
 10
2305.65948480425
 20
709.9875425728555
 10
2305.189067310621
 20
710.0035697935554
 10
2304.726716526982
 20
710.0549197127782
 10
2304.283817064083
 20
710.1403279250916
 10
2303.871274576598
 20
710.2576913968552
 10
2303.49924722972
 20
710.4041202498869
 10
2303.176895571417
 20
710.5760089198557
 10
2302.912156969339
 20
710.7691249372412
 10
2302.711550166488
 20
710.97871314478
 10
2302.580014768124
 20
711.1996127852192
 10
2302.520789612298
 20
711.426384576287
 10
2302.517605491912
 20
711.512933398478
  0
ARC
  5
816
330
776
100
AcDbEntity
  8
0
  6
Continuous
 62
     7
370
    15
100
AcDbCircle
 10
2307.316522774986
 20
711.5614618759056
 30
0.0
 40
1.215485555573051
100
AcDbArc
 50
290.1917987864696
 51
350.6147706150021
  0
LINE
  5
817
330
776
100
AcDbEntity
  8
0
  6
Continuous
 62
     7
370
    15
100
AcDbLine
 10
2295.076070129215
 20
727.0514500910191
 30
0.0
 11
2294.990879794433
 21
723.6376765293681
 31
0.0
  0
LINE
  5
818
330
776
100
AcDbEntity
  8
0
  6
Continuous
 62
     7
370
    15
100
AcDbLine
 10
2294.990879794433
 20
723.6376765293681
 30
0.0
 11
2300.909260205919
 21
720.9245700288822
 31
0.0
  0
LWPOLYLINE
  5
819
330
776
100
AcDbEntity
  8
0
  6
Continuous
 62
     7
370
    15
100
AcDbPolyline
 90
       38
 70
   128
 43
0.0
 10
2293.046185695057
 20
735.7469606286376
 10
2292.791242160758
 20
735.5907248777269
 10
2292.596307393573
 20
735.4148366752446
 10
2292.466989311838
 20
735.2243560045375
 10
2292.407008161315
 20
735.0247626476945
 10
2292.418089490496
 20
734.8217985421931
 10
2292.499914509718
 20
734.6213025958132
 10
2292.650129262155
 20
734.4290427118895
 10
2292.864412342876
 20
734.2505498572363
 10
2293.136599217792
 20
734.0909589463006
 10
2293.458859566081
 20
733.9548611190236
 10
2293.82192254426
 20
733.8461716621035
 10
2294.215343491476
 20
733.7680173733254
 10
2294.627804403376
 20
733.7226466092822
 10
2295.04743953049
 20
733.7113646042491
 10
2295.46217673424
 20
733.7344959209701
 10
2295.860084780383
 20
733.7913751135779
 10
2296.229716578901
 20
733.8803658712609
 10
2296.560438495937
 20
733.9989080919457
 10
2296.842736264084
 20
734.1435915317724
 10
2297.068488690528
 20
734.3102539116018
 10
2297.231201288988
 20
734.4941006582076
 10
2297.326193114257
 20
734.6898428354188
 10
2297.350731424471
 20
734.891849297184
 10
2297.304110297124
 20
735.0943086853903
 10
2297.187670937166
 20
735.2913966120561
 10
2297.004763092983
 20
735.477443216368
 10
2296.760648690232
 20
735.6470962762545
 10
2296.462350455822
 20
735.7954751820692
 10
2296.118449886847
 20
735.9183113428444
 10
2295.738840376539
 20
736.0120709858818
 10
2295.334442599356
 20
736.0740568169591
 10
2294.916890343062
 20
736.1024856165735
 10
2294.498195825834
 20
736.0965395399203
 10
2294.090404126619
 20
736.0563896447988
 10
2293.705246670139
 20
735.9831909705908
 10
2293.353803735162
 20
735.8790493098809
 10
2293.046185695057
 20
735.7469606286376
  0
LWPOLYLINE
  5
81A
330
776
100
AcDbEntity
  8
0
  6
Continuous
 62
     7
370
    15
100
AcDbPolyline
 90
       44
 70
   128
 43
0.0
 10
2297.410991248531
 20
733.7460445845198
 10
2297.719341856598
 20
733.9302978436339
 10
2297.967116817897
 20
734.1353804587761
 10
2298.1490352393
 20
734.356921450059
 10
2298.261219845494
 20
734.5901990558815
 10
2298.301279616367
 20
734.8302413690809
 10
2298.268360747452
 20
735.0719323045009
 10
2298.163164847288
 20
735.3101206394645
 10
2297.987933983852
 20
735.5397298031426
 10
2297.746402898771
 20
735.7558660748477
 10
2297.443719407788
 20
735.9539228851932
 10
2297.08633468401
 20
736.1296789971232
 10
2296.681865762352
 20
736.2793884742508
 10
2296.238933195658
 20
736.3998605189892
 10
2295.76697732259
 20
736.4885274788623
 10
2295.276057063198
 20
736.5434995715595
 10
2294.776635530498
 20
736.5636051623651
 10
2294.279357027389
 20
736.548415735517
 10
2293.794820181815
 20
736.4982550272775
 10
2293.333352055411
 20
736.4141921260563
 10
2292.904788040112
 20
736.2980186866471
 10
2292.518262233854
 20
736.1522107442161
 10
2292.18201276313
 20
735.979875941912
 10
2291.903206201628
 20
735.7846872968468
 10
2291.687784827157
 20
735.5708049161131
 10
2291.540339972311
 20
735.3427873313243
 10
2291.464014168183
 20
735.1054943414276
 10
2291.460434166776
 20
734.8639834345263
 10
2291.529676269603
 20
734.6234019963016
 10
2291.670264701459
 20
734.3888776024239
 10
2291.879203064001
 20
734.165408733179
 10
2292.152038198779
 20
733.9577582395395
 10
2292.482955098579
 20
733.7703518312649
 10
2292.864900844203
 20
733.6071837505817
 10
2293.289734925198
 20
733.4717316418455
 10
2293.748402740703
 20
733.3668824315886
 10
2294.231128582547
 20
733.294870798694
 10
2294.727623987496
 20
733.2572315460935
 10
2295.227307017983
 20
733.2547668891091
 10
2295.71952779774
 20
733.2875293576253
 10
2296.193795495414
 20
733.3548206765064
 10
2296.640001918429
 20
733.455206648118
 10
2297.048636951561
 20
733.5865477197605
 10
2297.410991248531
 20
733.7460445845198
  0
LINE
  5
81B
330
776
100
AcDbEntity
  8
0
  6
Continuous
 62
     7
370
    15
100
AcDbLine
 10
2291.340430732093
 20
730.4616871645023
 30
0.0
 11
2291.3396634772
 21
730.4413391113271
 31
0.0
  0
LINE
  5
81C
330
776
100
AcDbEntity
  8
0
  6
Continuous
 62
     7
370
    15
100
AcDbLine
 10
2298.185118059876
 20
730.2252020128622
 30
0.0
 11
2298.187531566444
 21
730.27045133435
 31
0.0
  0
ARC
  5
81D
330
776
100
AcDbEntity
  8
0
  6
Continuous
 62
     7
370
    15
100
AcDbCircle
 10
2305.592557221731
 20
714.4789958960618
 30
0.0
 40
4.600021473163371
100
AcDbArc
 50
238.0604509445414
 51
299.0805229891927
  0
LINE
  5
81E
330
776
100
AcDbEntity
  8
0
  6
Continuous
 62
     7
370
    15
100
AcDbLine
 10
2289.81229693438
 20
726.0116447172945
 30
0.0
 11
2289.897487269161
 21
729.4254182789461
 31
0.0
  0
ARC
  5
81F
330
776
100
AcDbEntity
  8
0
  6
Continuous
 62
     7
370
    15
100
AcDbCircle
 10
2300.467183478014
 20
742.4189792093493
 30
0.0
 40
19.5634156627076
100
AcDbArc
 50
237.0003955998178
 51
253.7442270732511
  0
LWPOLYLINE
  5
820
330
776
100
AcDbEntity
  8
0
  6
Continuous
 62
     7
370
    15
100
AcDbPolyline
 90
       17
 70
   128
 43
0.0
 10
2296.639101191139
 20
715.5077517870282
 10
2296.296182049974
 20
715.3585290299403
 10
2295.907057903256
 20
715.2380327647463
 10
2295.481310278907
 20
715.1492300093994
 10
2295.029422496415
 20
715.0943073824554
 10
2294.562521532713
 20
715.0746172612677
 10
2294.092104039083
 20
715.0906444819677
 10
2293.629753255444
 20
715.1419944011904
 10
2293.186853792545
 20
715.2274026135039
 10
2292.77431130506
 20
715.3447660852674
 10
2292.402283958182
 20
715.4911949382992
 10
2292.079932299879
 20
715.663083608268
 10
2291.815193697801
 20
715.8561996256535
 10
2291.61458689495
 20
716.0657878331923
 10
2291.483051496586
 20
716.2866874736314
 10
2291.42382634076
 20
716.5134592646993
 10
2291.420642220375
 20
716.6000080868903
  0
ARC
  5
821
330
776
100
AcDbEntity
  8
0
  6
Continuous
 62
     7
370
    15
100
AcDbCircle
 10
2296.219559503448
 20
716.6485365643175
 30
0.0
 40
1.215485555572631
100
AcDbArc
 50
290.1917987864429
 51
350.6147706150084
  0
LINE
  5
822
330
776
100
AcDbEntity
  8
0
  6
Continuous
 62
     7
370
    15
100
AcDbLine
 10
2283.979106857675
 20
732.138524779432
 30
0.0
 11
2283.893916522896
 21
728.72475121778
 31
0.0
  0
LINE
  5
823
330
776
100
AcDbEntity
  8
0
  6
Continuous
 62
     7
370
    15
100
AcDbLine
 10
2289.81229693438
 20
726.0116447172945
 30
0.0
 11
2283.893916522896
 21
728.72475121778
 31
0.0
  0
LWPOLYLINE
  5
824
330
776
100
AcDbEntity
  8
0
  6
Continuous
 62
     7
370
    15
100
AcDbPolyline
 90
       38
 70
   128
 43
0.0
 10
2281.949222423518
 20
740.8340353170499
 10
2281.69427888922
 20
740.6777995661391
 10
2281.499344122035
 20
740.5019113636568
 10
2281.3700260403
 20
740.3114306929498
 10
2281.310044889776
 20
740.1118373361067
 10
2281.321126218958
 20
739.9088732306054
 10
2281.40295123818
 20
739.7083772842254
 10
2281.553165990617
 20
739.5161174003018
 10
2281.767449071338
 20
739.3376245456486
 10
2282.039635946254
 20
739.1780336347129
 10
2282.361896294542
 20
739.041935807436
 10
2282.724959272723
 20
738.9332463505158
 10
2283.118380219939
 20
738.8550920617376
 10
2283.530841131838
 20
738.8097212976945
 10
2283.950476258953
 20
738.7984392926616
 10
2284.365213462702
 20
738.8215706093824
 10
2284.763121508845
 20
738.8784498019902
 10
2285.132753307363
 20
738.9674405596731
 10
2285.463475224399
 20
739.0859827803581
 10
2285.745772992545
 20
739.2306662201848
 10
2285.97152541899
 20
739.3973286000142
 10
2286.13423801745
 20
739.5811753466199
 10
2286.229229842718
 20
739.7769175238311
 10
2286.253768152933
 20
739.9789239855963
 10
2286.207147025586
 20
740.1813833738026
 10
2286.090707665628
 20
740.3784713004683
 10
2285.907799821445
 20
740.5645179047804
 10
2285.663685418694
 20
740.734170964667
 10
2285.365387184284
 20
740.8825498704815
 10
2285.02148661531
 20
741.0053860312566
 10
2284.641877105001
 20
741.099145674294
 10
2284.237479327818
 20
741.1611315053715
 10
2283.819927071523
 20
741.1895603049859
 10
2283.401232554297
 20
741.1836142283325
 10
2282.993440855081
 20
741.143464333211
 10
2282.608283398601
 20
741.070265659003
 10
2282.256840463624
 20
740.9661239982933
 10
2281.949222423518
 20
740.8340353170499
  0
LWPOLYLINE
  5
825
330
776
100
AcDbEntity
  8
0
  6
Continuous
 62
     7
370
    15
100
AcDbPolyline
 90
       44
 70
   128
 43
0.0
 10
2286.314027976993
 20
738.8331192729321
 10
2286.622378585061
 20
739.0173725320461
 10
2286.870153546358
 20
739.2224551471883
 10
2287.052071967762
 20
739.4439961384712
 10
2287.164256573956
 20
739.6772737442939
 10
2287.204316344829
 20
739.9173160574933
 10
2287.171397475914
 20
740.1590069929132
 10
2287.066201575751
 20
740.3971953278767
 10
2286.890970712315
 20
740.6268044915549
 10
2286.649439627233
 20
740.84294076326
 10
2286.34675613625
 20
741.0409975736056
 10
2285.989371412473
 20
741.2167536855355
 10
2285.584902490813
 20
741.3664631626631
 10
2285.141969924119
 20
741.4869352074015
 10
2284.670014051052
 20
741.5756021672746
 10
2284.17909379166
 20
741.6305742599718
 10
2283.67967225896
 20
741.6506798507773
 10
2283.182393755851
 20
741.6354904239292
 10
2282.697856910278
 20
741.5853297156898
 10
2282.236388783873
 20
741.5012668144686
 10
2281.807824768574
 20
741.3850933750593
 10
2281.421298962316
 20
741.2392854326284
 10
2281.085049491591
 20
741.0669506303243
 10
2280.80624293009
 20
740.8717619852591
 10
2280.59082155562
 20
740.6578796045254
 10
2280.443376700772
 20
740.4298620197367
 10
2280.367050896645
 20
740.19256902984
 10
2280.363470895237
 20
739.9510581229385
 10
2280.432712998065
 20
739.7104766847138
 10
2280.573301429921
 20
739.4759522908361
 10
2280.782239792463
 20
739.2524834215913
 10
2281.055074927242
 20
739.0448329279519
 10
2281.385991827042
 20
738.8574265196771
 10
2281.767937572665
 20
738.694258438994
 10
2282.19277165366
 20
738.5588063302577
 10
2282.651439469165
 20
738.4539571200009
 10
2283.134165311008
 20
738.3819454871062
 10
2283.630660715958
 20
738.3443062345058
 10
2284.130343746445
 20
738.3418415775214
 10
2284.622564526202
 20
738.3746040460376
 10
2285.096832223876
 20
738.4418953649186
 10
2285.543038646892
 20
738.5422813365303
 10
2285.951673680024
 20
738.6736224081728
 10
2286.314027976993
 20
738.8331192729321
  0
LINE
  5
826
330
776
100
AcDbEntity
  8
0
  6
Continuous
 62
     7
370
    15
100
AcDbLine
 10
2280.243467460555
 20
735.5487618529146
 30
0.0
 11
2280.242700205663
 21
735.5284137997394
 31
0.0
  0
LINE
  5
827
330
776
100
AcDbEntity
  8
0
  6
Continuous
 62
     7
370
    15
100
AcDbLine
 10
2287.088154788338
 20
735.3122767012745
 30
0.0
 11
2287.090568294906
 21
735.3575260227622
 31
0.0
  0
ARC
  5
828
330
776
100
AcDbEntity
  8
0
  6
Continuous
 62
     7
370
    15
100
AcDbCircle
 10
2294.495593950192
 20
719.5660705844741
 30
0.0
 40
4.600021473163327
100
AcDbArc
 50
238.0604509445414
 51
299.0805229891927
  0
LINE
  5
829
330
776
100
AcDbEntity
  8
0
  6
Continuous
 62
     7
370
    15
100
AcDbLine
 10
2278.715333662843
 20
731.0987194057068
 30
0.0
 11
2278.800523997623
 21
734.5124929673584
 31
0.0
  0
ARC
  5
82A
330
776
100
AcDbEntity
  8
0
  6
Continuous
 62
     7
370
    15
100
AcDbCircle
 10
2289.370220206477
 20
747.5060538977641
 30
0.0
 40
19.5634156627105
100
AcDbArc
 50
237.0003955998178
 51
253.7442270732511
  0
LWPOLYLINE
  5
82B
330
776
100
AcDbEntity
  8
0
  6
Continuous
 62
     7
370
    15
100
AcDbPolyline
 90
       17
 70
   128
 43
0.0
 10
2285.542137919601
 20
720.5948264754404
 10
2285.199218778435
 20
720.4456037183526
 10
2284.810094631718
 20
720.3251074531586
 10
2284.384347007369
 20
720.2363046978116
 10
2283.932459224877
 20
720.1813820708677
 10
2283.465558261175
 20
720.16169194968
 10
2282.995140767544
 20
720.1777191703801
 10
2282.532789983906
 20
720.2290690896027
 10
2282.089890521007
 20
720.3144773019162
 10
2281.677348033523
 20
720.4318407736798
 10
2281.305320686644
 20
720.5782696267115
 10
2280.98296902834
 20
720.7501582966804
 10
2280.718230426263
 20
720.9432743140658
 10
2280.517623623412
 20
721.1528625216045
 10
2280.386088225048
 20
721.3737621620436
 10
2280.326863069221
 20
721.6005339531116
 10
2280.323678948837
 20
721.6870827753027
  0
ARC
  5
82C
330
776
100
AcDbEntity
  8
0
  6
Continuous
 62
     7
370
    15
100
AcDbCircle
 10
2285.12259623191
 20
721.73561125273
 30
0.0
 40
1.21548555557299
100
AcDbArc
 50
290.1917987864696
 51
350.6147706150021
  0
LINE
  5
82D
330
776
100
AcDbEntity
  8
0
  6
Continuous
 62
     7
370
    15
100
AcDbLine
 10
2272.796953251357
 20
733.8118259061928
 30
0.0
 11
2272.882143586137
 21
737.2255994678442
 31
0.0
  0
LINE
  5
82E
330
776
100
AcDbEntity
  8
0
  6
Continuous
 62
     7
370
    15
100
AcDbLine
 10
2278.715333662843
 20
731.0987194057068
 30
0.0
 11
2272.796953251357
 21
733.8118259061928
 31
0.0
  0
LWPOLYLINE
  5
82F
330
776
100
AcDbEntity
  8
0
  6
Continuous
 62
     7
370
    15
100
AcDbPolyline
 90
       38
 70
   128
 43
0.0
 10
2274.514257031592
 20
744.2423753582841
 10
2274.206638991487
 20
744.1102866770407
 10
2273.85519605651
 20
744.0061450163308
 10
2273.470038600029
 20
743.9329463421229
 10
2273.062246900815
 20
743.8927964470013
 10
2272.643552383588
 20
743.8868503703481
 10
2272.226000127293
 20
743.9152791699625
 10
2271.82160235011
 20
743.9772650010398
 10
2271.441992839801
 20
744.0710246440772
 10
2271.098092270827
 20
744.1938608048523
 10
2270.799794036417
 20
744.3422397106671
 10
2270.555679633666
 20
744.5118927705536
 10
2270.372771789483
 20
744.6979393748655
 10
2270.256332429525
 20
744.8950273015314
 10
2270.209711302178
 20
745.0974866897377
 10
2270.234249612393
 20
745.2994931515028
 10
2270.329241437661
 20
745.495235328714
 10
2270.491954036121
 20
745.6790820753198
 10
2270.717706462566
 20
745.8457444551491
 10
2271.000004230712
 20
745.9904278949759
 10
2271.330726147748
 20
746.1089701156607
 10
2271.700357946266
 20
746.1979608733438
 10
2272.098265992409
 20
746.2548400659516
 10
2272.513003196158
 20
746.2779713826725
 10
2272.932638323273
 20
746.2666893776395
 10
2273.345099235173
 20
746.2213186135962
 10
2273.738520182388
 20
746.1431643248181
 10
2274.101583160568
 20
746.034474867898
 10
2274.423843508857
 20
745.8983770406209
 10
2274.696030383773
 20
745.7387861296853
 10
2274.910313464494
 20
745.5602932750321
 10
2275.060528216931
 20
745.3680333911084
 10
2275.142353236153
 20
745.1675374447285
 10
2275.153434565334
 20
744.9645733392271
 10
2275.093453414811
 20
744.7649799823842
 10
2274.964135333076
 20
744.574499311677
 10
2274.769200565891
 20
744.3986111091947
 10
2274.514257031592
 20
744.2423753582841
  0
LWPOLYLINE
  5
830
330
776
100
AcDbEntity
  8
0
  6
Continuous
 62
     7
370
    15
100
AcDbPolyline
 90
       44
 70
   128
 43
0.0
 10
2270.149451478118
 20
746.2432914023866
 10
2270.511805775087
 20
746.4027882671457
 10
2270.920440808219
 20
746.5341293387884
 10
2271.366647231235
 20
746.6345153104001
 10
2271.840914928909
 20
746.7018066292809
 10
2272.333135708665
 20
746.7345690977972
 10
2272.832818739153
 20
746.7321044408129
 10
2273.329314144102
 20
746.6944651882124
 10
2273.812039985946
 20
746.6224535553177
 10
2274.270707801451
 20
746.5176043450609
 10
2274.695541882445
 20
746.3821522363247
 10
2275.077487628069
 20
746.2189841556415
 10
2275.408404527869
 20
746.0315777473668
 10
2275.681239662648
 20
745.8239272537273
 10
2275.890178025189
 20
745.6004583844825
 10
2276.030766457045
 20
745.3659339906048
 10
2276.100008559874
 20
745.12535255238
 10
2276.096428558466
 20
744.8838416454787
 10
2276.020102754338
 20
744.6465486555819
 10
2275.872657899492
 20
744.4185310707933
 10
2275.657236525021
 20
744.2046486900595
 10
2275.378429963519
 20
744.0094600449943
 10
2275.042180492794
 20
743.8371252426902
 10
2274.655654686537
 20
743.6913173002594
 10
2274.227090671237
 20
743.57514386085
 10
2273.765622544833
 20
743.4910809596288
 10
2273.28108569926
 20
743.4409202513893
 10
2272.783807196151
 20
743.4257308245413
 10
2272.284385663451
 20
743.4458364153467
 10
2271.793465404059
 20
743.5008085080442
 10
2271.321509530991
 20
743.5894754679172
 10
2270.878576964297
 20
743.7099475126556
 10
2270.474108042638
 20
743.8596569897831
 10
2270.11672331886
 20
744.0354131017131
 10
2269.814039827878
 20
744.2334699120586
 10
2269.572508742796
 20
744.4496061837638
 10
2269.39727787936
 20
744.679215347442
 10
2269.292081979196
 20
744.9174036824055
 10
2269.259163110282
 20
745.1590946178254
 10
2269.299222881155
 20
745.3991369310248
 10
2269.411407487349
 20
745.6324145368475
 10
2269.593325908752
 20
745.8539555281303
 10
2269.84110087005
 20
746.0590381432726
 10
2270.149451478118
 20
746.2432914023866
  0
ARC
  5
831
330
776
100
AcDbEntity
  8
0
  6
Continuous
 62
     7
370
    15
100
AcDbCircle
 10
2283.398630678655
 20
724.6531452728859
 30
0.0
 40
4.600021473162943
100
AcDbArc
 50
238.0604509445414
 51
299.0805229891927
  0
LINE
  5
832
330
776
100
AcDbEntity
  8
0
  6
Continuous
 62
     7
370
    15
100
AcDbLine
 10
2267.703560726084
 20
739.5995676557713
 30
0.0
 11
2267.618370391305
 21
736.185794094119
 31
0.0
  0
ARC
  5
833
330
776
100
AcDbEntity
  8
0
  6
Continuous
 62
     7
370
    15
100
AcDbCircle
 10
2278.273256934938
 20
752.5931285861742
 30
0.0
 40
19.56341566270769
100
AcDbArc
 50
237.0003955998178
 51
253.7442270732511
  0
LWPOLYLINE
  5
834
330
776
100
AcDbEntity
  8
0
  6
Continuous
 62
     7
370
    15
100
AcDbPolyline
 90
       22
 70
   128
 43
0.0
 10
2269.224233498803
 20
726.7752953450511
 10
2269.227417619189
 20
726.68874652286
 10
2269.286642775015
 20
726.4619747317921
 10
2269.418178173379
 20
726.2410750913529
 10
2269.61878497623
 20
726.0314868838142
 10
2269.883523578307
 20
725.8383708664287
 10
2270.205875236611
 20
725.6664821964599
 10
2270.577902583489
 20
725.5200533434281
 10
2270.990445070975
 20
725.4026898716646
 10
2271.433344533873
 20
725.3172816593511
 10
2271.895695317512
 20
725.2659317401285
 10
2272.366112811142
 20
725.2499045194285
 10
2272.833013774844
 20
725.2695946406161
 10
2273.284901557337
 20
725.32451726756
 10
2273.710649181685
 20
725.413320022907
 10
2274.099773328403
 20
725.533816288101
 10
2274.442692469568
 20
725.6830390451888
 10
2274.730962797843
 20
725.8573139346489
 10
2274.95748614103
 20
726.0523497303177
 10
2275.116684742632
 20
726.2633440036189
 10
2275.204638604729
 20
726.4851013752943
 10
2275.222366131718
 20
726.6256126206915
  0
LINE
  5
835
330
776
100
AcDbEntity
  8
0
  6
Continuous
 62
     7
370
    15
100
AcDbLine
 10
2266.076006112927
 20
740.3456719434045
 30
0.0
 11
2265.990815778146
 21
736.9318983817529
 31
0.0
  0
LINE
  5
836
330
776
100
AcDbEntity
  8
0
  6
Continuous
 62
     7
370
    15
100
AcDbLine
 10
2267.618370391305
 20
736.185794094119
 30
0.0
 11
2265.990815778146
 21
736.9318983817529
 31
0.0
  0
LINE
  5
837
330
776
100
AcDbEntity
  8
0
  6
Continuous
 62
     7
370
    15
100
AcDbLine
 10
2274.290364224187
 20
725.5758013968753
 30
0.0
 11
2274.534971955692
 21
725.721226592959
 31
0.0
  0
ARC
  5
838
330
776
100
AcDbEntity
  8
0
  6
Continuous
 62
     7
370
    15
100
AcDbCircle
 10
2272.325286289106
 20
729.8836041622015
 30
0.0
 40
4.734838535356161
100
AcDbArc
 50
238.7030486694141
 51
294.5209117696861
  0
LWPOLYLINE
  5
839
330
776
100
AcDbEntity
  8
0
  6
Continuous
 62
     8
370
    15
100
AcDbPolyline
 90
       24
 70
   128
 43
0.0
 10
2335.727516563353
 20
710.0930403576779
 10
2335.727355626471
 20
710.084948405149
 10
2335.760274495386
 20
709.8432574697292
 10
2335.865470395549
 20
709.6050691347657
 10
2336.040701258985
 20
709.3754599710875
 10
2336.282232344066
 20
709.1593236993824
 10
2336.584915835049
 20
708.9612668890367
 10
2336.942300558827
 20
708.7855107771067
 10
2337.346769480486
 20
708.6358012999792
 10
2337.78970204718
 20
708.5153292552408
 10
2338.261657920247
 20
708.4266622953678
 10
2338.75257817964
 20
708.3716902026704
 10
2339.251999712339
 20
708.351584611865
 10
2339.749278215448
 20
708.366774038713
 10
2340.233815061022
 20
708.4169347469525
 10
2340.695283187427
 20
708.5009976481737
 10
2341.123847202725
 20
708.6171710875831
 10
2341.510373008983
 20
708.7629790300138
 10
2341.846622479708
 20
708.935313832318
 10
2342.125429041209
 20
709.1305024773832
 10
2342.340850415681
 20
709.344384858117
 10
2342.488295270527
 20
709.5724024429056
 10
2342.564621074655
 20
709.8096954328024
 10
2342.572971146028
 20
709.8769032592132
  0
LWPOLYLINE
  5
83A
330
776
100
AcDbEntity
  8
0
  6
Continuous
 62
     8
370
    15
100
AcDbPolyline
 90
       24
 70
   128
 43
0.0
 10
2324.630553291815
 20
715.1801150460902
 10
2324.630392354933
 20
715.1720230935612
 10
2324.663311223847
 20
714.9303321581414
 10
2324.768507124011
 20
714.6921438231779
 10
2324.943737987447
 20
714.4625346594997
 10
2325.185269072528
 20
714.2463983877946
 10
2325.487952563511
 20
714.048341577449
 10
2325.845337287289
 20
713.8725854655191
 10
2326.249806208948
 20
713.7228759883915
 10
2326.692738775642
 20
713.6024039436531
 10
2327.164694648709
 20
713.51373698378
 10
2327.655614908102
 20
713.4587648910827
 10
2328.155036440801
 20
713.4386593002773
 10
2328.65231494391
 20
713.4538487271254
 10
2329.136851789484
 20
713.5040094353647
 10
2329.598319915888
 20
713.588072336586
 10
2330.026883931187
 20
713.7042457759953
 10
2330.413409737445
 20
713.8500537184262
 10
2330.74965920817
 20
714.0223885207302
 10
2331.028465769672
 20
714.2175771657955
 10
2331.243887144142
 20
714.4314595465292
 10
2331.391331998989
 20
714.6594771313178
 10
2331.467657803117
 20
714.8967701212146
 10
2331.47600787449
 20
714.9639779476254
  0
LWPOLYLINE
  5
83B
330
776
100
AcDbEntity
  8
0
  6
Continuous
 62
     8
370
    15
100
AcDbPolyline
 90
       24
 70
   128
 43
0.0
 10
2313.533590020277
 20
720.2671897345026
 10
2313.533429083395
 20
720.2590977819735
 10
2313.56634795231
 20
720.0174068465537
 10
2313.671543852473
 20
719.7792185115901
 10
2313.846774715909
 20
719.5496093479119
 10
2314.088305800991
 20
719.3334730762069
 10
2314.390989291974
 20
719.1354162658613
 10
2314.748374015751
 20
718.9596601539314
 10
2315.15284293741
 20
718.8099506768037
 10
2315.595775504104
 20
718.6894786320654
 10
2316.067731377171
 20
718.6008116721922
 10
2316.558651636563
 20
718.545839579495
 10
2317.058073169263
 20
718.5257339886895
 10
2317.555351672372
 20
718.5409234155376
 10
2318.039888517946
 20
718.5910841237771
 10
2318.50135664435
 20
718.6751470249983
 10
2318.929920659649
 20
718.7913204644075
 10
2319.316446465908
 20
718.9371284068385
 10
2319.652695936632
 20
719.1094632091425
 10
2319.931502498134
 20
719.3046518542078
 10
2320.146923872604
 20
719.5185342349414
 10
2320.294368727451
 20
719.7465518197303
 10
2320.370694531579
 20
719.9838448096269
 10
2320.379044602952
 20
720.0510526360377
  0
LWPOLYLINE
  5
83C
330
776
100
AcDbEntity
  8
0
  6
Continuous
 62
     8
370
    15
100
AcDbPolyline
 90
       24
 70
   128
 43
0.0
 10
2302.436626748738
 20
725.3542644229148
 10
2302.436465811857
 20
725.3461724703859
 10
2302.469384680772
 20
725.104481534966
 10
2302.574580580935
 20
724.8662932000025
 10
2302.749811444371
 20
724.6366840363243
 10
2302.991342529453
 20
724.4205477646191
 10
2303.294026020435
 20
724.2224909542735
 10
2303.651410744213
 20
724.0467348423436
 10
2304.055879665872
 20
723.8970253652159
 10
2304.498812232566
 20
723.7765533204776
 10
2304.970768105633
 20
723.6878863606046
 10
2305.461688365026
 20
723.6329142679074
 10
2305.961109897725
 20
723.6128086771018
 10
2306.458388400834
 20
723.6279981039499
 10
2306.942925246408
 20
723.6781588121893
 10
2307.404393372812
 20
723.7622217134105
 10
2307.832957388111
 20
723.8783951528198
 10
2308.219483194369
 20
724.0242030952507
 10
2308.555732665094
 20
724.1965378975549
 10
2308.834539226596
 20
724.39172654262
 10
2309.049960601067
 20
724.6056089233538
 10
2309.197405455913
 20
724.8336265081425
 10
2309.273731260041
 20
725.0709194980392
 10
2309.282081331414
 20
725.13812732445
  0
LWPOLYLINE
  5
83D
330
776
100
AcDbEntity
  8
0
  6
Continuous
 62
     8
370
    15
100
AcDbPolyline
 90
       24
 70
   128
 43
0.0
 10
2291.3396634772
 20
730.4413391113271
 10
2291.339502540319
 20
730.4332471587981
 10
2291.372421409234
 20
730.1915562233782
 10
2291.477617309397
 20
729.9533678884147
 10
2291.652848172833
 20
729.7237587247366
 10
2291.894379257914
 20
729.5076224530314
 10
2292.197062748897
 20
729.3095656426859
 10
2292.554447472675
 20
729.1338095307558
 10
2292.958916394335
 20
728.9841000536283
 10
2293.401848961028
 20
728.86362800889
 10
2293.873804834095
 20
728.7749610490169
 10
2294.364725093487
 20
728.7199889563196
 10
2294.864146626188
 20
728.6998833655141
 10
2295.361425129296
 20
728.7150727923622
 10
2295.84596197487
 20
728.7652335006016
 10
2296.307430101274
 20
728.8492964018228
 10
2296.735994116573
 20
728.9654698412321
 10
2297.122519922831
 20
729.111277783663
 10
2297.458769393556
 20
729.2836125859671
 10
2297.737575955058
 20
729.4788012310324
 10
2297.952997329529
 20
729.692683611766
 10
2298.100442184375
 20
729.9207011965547
 10
2298.176767988503
 20
730.1579941864515
 10
2298.185118059876
 20
730.2252020128622
  0
LWPOLYLINE
  5
83E
330
776
100
AcDbEntity
  8
0
  6
Continuous
 62
     8
370
    15
100
AcDbPolyline
 90
       24
 70
   128
 43
0.0
 10
2280.242700205663
 20
735.5284137997394
 10
2280.242539268781
 20
735.5203218472104
 10
2280.275458137695
 20
735.2786309117905
 10
2280.380654037859
 20
735.0404425768271
 10
2280.555884901295
 20
734.8108334131488
 10
2280.797415986377
 20
734.5946971414437
 10
2281.10009947736
 20
734.3966403310981
 10
2281.457484201137
 20
734.2208842191682
 10
2281.861953122796
 20
734.0711747420406
 10
2282.30488568949
 20
733.9507026973023
 10
2282.776841562557
 20
733.8620357374292
 10
2283.267761821949
 20
733.8070636447318
 10
2283.767183354649
 20
733.7869580539263
 10
2284.264461857758
 20
733.8021474807744
 10
2284.748998703332
 20
733.8523081890139
 10
2285.210466829736
 20
733.936371090235
 10
2285.639030845035
 20
734.0525445296443
 10
2286.025556651293
 20
734.1983524720752
 10
2286.361806122018
 20
734.3706872743794
 10
2286.64061268352
 20
734.5658759194447
 10
2286.85603405799
 20
734.7797583001782
 10
2287.003478912837
 20
735.007775884967
 10
2287.079804716965
 20
735.2450688748638
 10
2287.088154788338
 20
735.3122767012745
  0
LWPOLYLINE
  5
83F
330
776
100
AcDbEntity
  8
0
  6
Continuous
 62
     8
370
    15
100
AcDbPolyline
 90
       18
 70
   128
 43
0.0
 10
2275.103477592413
 20
739.3684958791428
 10
2274.741123295444
 20
739.2089990143836
 10
2274.332488262312
 20
739.077657942741
 10
2273.886281839296
 20
738.9772719711294
 10
2273.412014141622
 20
738.9099806522485
 10
2272.919793361866
 20
738.8772181837322
 10
2272.420110331378
 20
738.8796828407167
 10
2271.923614926429
 20
738.9173220933169
 10
2271.440889084585
 20
738.9893337262117
 10
2270.98222126908
 20
739.0941829364685
 10
2270.557387188086
 20
739.2296350452047
 10
2270.175441442462
 20
739.392803125888
 10
2269.844524542662
 20
739.5802095341626
 10
2269.571689407884
 20
739.7878600278021
 10
2269.362751045342
 20
740.0113288970469
 10
2269.222162613486
 20
740.2458532909246
 10
2269.152920510657
 20
740.4864347291493
 10
2269.145736934123
 20
740.6154884881522
  0
ARC
  5
840
330
776
100
AcDbEntity
  8
0
  6
Continuous
 62
     8
370
    15
100
AcDbCircle
 10
2274.606595060578
 20
740.6857030468695
 30
0.0
 40
1.407809281527016
100
AcDbArc
 50
290.6676935229129
 51
350.1388758785389
  0
ENDBLK
  5
778
330
776
100
AcDbEntity
  8
0
100
AcDbBlockEnd
  0
ENDSEC
  0
SECTION
  2
ENTITIES
  0
INSERT
  5
6B6
330
1F
100
AcDbEntity
  8
0
100
AcDbBlockReference
  2
1
 10
0.0
 20
0.0
 30
0.0
  0
INSERT
  5
751
330
1F
100
AcDbEntity
  8
0
100
AcDbBlockReference
  2
2
 10
0.0
 20
0.0
 30
0.0
  0
INSERT
  5
775
330
1F
100
AcDbEntity
  8
0
100
AcDbBlockReference
  2
3
 10
0.0
 20
0.0
 30
0.0
  0
INSERT
  5
841
330
1F
100
AcDbEntity
  8
0
100
AcDbBlockReference
  2
4
 10
0.0
 20
0.0
 30
0.0
  0
ENDSEC
  0
SECTION
  2
OBJECTS
  0
DICTIONARY
  5
C
330
0
100
AcDbDictionary
281
     1
  3
ACAD_COLOR
350
6B
  3
ACAD_GROUP
350
D
  3
ACAD_LAYOUT
350
1A
  3
ACAD_MATERIAL
350
6A
  3
ACAD_MLEADERSTYLE
350
12D
  3
ACAD_MLINESTYLE
350
17
  3
ACAD_PLOTSETTINGS
350
19
  3
ACAD_PLOTSTYLENAME
350
E
  3
ACAD_SCALELIST
350
10C
  3
ACAD_TABLESTYLE
350
7E
  3
ACAD_VISUALSTYLE
350
EF
  3
ACDB_RECOMPOSE_DATA
350
15D
  3
AcDbVariableDictionary
350
5E
  3
DWGPROPS
350
84F
  0
DICTIONARY
  5
13C
330
10
100
AcDbDictionary
280
     1
281
     1
  3
ADSK_XREC_LAYER_RECONCILED
360
842
  0
DICTIONARY
  5
6B
102
{ACAD_REACTORS
330
C
102
}
330
C
100
AcDbDictionary
281
     1
  0
DICTIONARY
  5
D
102
{ACAD_REACTORS
330
C
102
}
330
C
100
AcDbDictionary
281
     1
  0
DICTIONARY
  5
1A
102
{ACAD_REACTORS
330
C
102
}
330
C
100
AcDbDictionary
281
     1
  3
Layout1
350
D3
  3
Layout2
350
D7
  3
Model
350
22
  0
DICTIONARY
  5
6A
102
{ACAD_REACTORS
330
C
102
}
330
C
100
AcDbDictionary
281
     1
  3
ByBlock
350
ED
  3
ByLayer
350
EC
  3
Global
350
EE
  0
DICTIONARY
  5
12D
102
{ACAD_REACTORS
330
C
102
}
330
C
100
AcDbDictionary
281
     1
  3
Annotative
350
13B
  3
Standard
350
12E
  0
DICTIONARY
  5
17
102
{ACAD_REACTORS
330
C
102
}
330
C
100
AcDbDictionary
281
     1
  3
Standard
350
18
  0
DICTIONARY
  5
19
102
{ACAD_REACTORS
330
C
102
}
330
C
100
AcDbDictionary
281
     1
  0
ACDBDICTIONARYWDFLT
  5
E
102
{ACAD_REACTORS
330
C
102
}
330
C
100
AcDbDictionary
281
     1
  3
Normal
350
F
100
AcDbDictionaryWithDefault
340
F
  0
DICTIONARY
  5
10C
102
{ACAD_REACTORS
330
C
102
}
330
C
100
AcDbDictionary
281
     1
  3
A0
350
10D
  3
A1
350
188
  3
A2
350
189
  3
A3
350
18A
  3
A4
350
18B
  3
A5
350
18C
  3
A6
350
18D
  3
A7
350
18E
  3
A8
350
18F
  3
A9
350
190
  3
B0
350
191
  3
B1
350
192
  3
B2
350
193
  3
B3
350
194
  3
B4
350
195
  3
B5
350
196
  3
B6
350
197
  3
B7
350
198
  3
B8
350
199
  3
B9
350
19A
  3
C0
350
19B
  3
C1
350
19C
  3
C2
350
19D
  3
C3
350
19E
  3
C4
350
19F
  3
C5
350
1A0
  3
C6
350
1A1
  3
C7
350
1A2
  3
C8
350
1A3
  3
C9
350
1A4
  3
D0
350
1A5
  3
D1
350
1A6
  3
D2
350
1A7
  0
DICTIONARY
  5
7E
102
{ACAD_REACTORS
330
C
102
}
330
C
100
AcDbDictionary
281
     1
  3
Standard
350
7F
  0
DICTIONARY
  5
EF
102
{ACAD_REACTORS
330
C
102
}
330
C
100
AcDbDictionary
281
     1
  3
2dWireframe
350
F5
  3
3D Hidden
350
F7
  3
3dWireframe
350
F6
  3
Basic
350
F4
  3
Brighten
350
FB
  3
ColorChange
350
FF
  3
Conceptual
350
F8
  3
Dim
350
FA
  3
Facepattern
350
FE
  3
Flat
350
F0
  3
FlatWithEdges
350
F1
  3
Gouraud
350
F2
  3
GouraudWithEdges
350
F3
  3
Linepattern
350
FD
  3
Realistic
350
F9
  3
Thicken
350
FC
  0
XRECORD
  5
15D
102
{ACAD_REACTORS
330
C
102
}
330
C
100
AcDbXrecord
280
     1
 90
        1
330
7F
  0
DICTIONARY
  5
5E
102
{ACAD_REACTORS
330
C
102
}
330
C
100
AcDbDictionary
281
     1
  3
CANNOSCALE
350
146
  3
CMLEADERSTYLE
350
145
  3
CTABLESTYLE
350
84
  3
DIMASSOC
350
5F
  3
HIDETEXT
350
63
  3
INDEXCTL
350
84B
  3
LIGHTINGUNITS
350
849
  3
MSLTSCALE
350
848
  3
PSOLHEIGHT
350
84D
  3
PSOLWIDTH
350
84C
  3
SORTENTS
350
84A
  0
XRECORD
  5
84F
102
{ACAD_REACTORS
330
C
102
}
330
C
100
AcDbXrecord
280
     1
  1
DWGPROPS COOKIE
  2

  3

  4

  6

  7

  8
orhan kara
  9

300
=
301
=
302
=
303
=
304
=
305
=
306
=
307
=
308
=
309
=
 40
0.0003284027777778
 41
2458935.542840417
 42
2458956.464982824
  1

 90
        0
  0
XRECORD
  5
842
102
{ACAD_REACTORS
330
13C
102
}
330
13C
100
AcDbXrecord
280
     1
290
     1
  0
LAYOUT
  5
D3
102
{ACAD_XDICTIONARY
360
853
102
}
102
{ACAD_REACTORS
330
1A
102
}
330
1A
100
AcDbPlotSettings
  1

  2
C:\Documents and Settings\basas\Application Data\Autodesk\AutoCAD 2005\R16.1\enu\plotters\Default Windows System Printer.pc3
  4

  6

 40
0.0
 41
0.0
 42
0.0
 43
0.0
 44
0.0
 45
0.0
 46
0.0
 47
0.0
 48
0.0
 49
0.0
140
0.0
141
0.0
142
1.0
143
1.0
 70
   688
 72
     0
 73
     0
 74
     5
  7

 75
    16
147
1.0
148
0.0
149
0.0
100
AcDbLayout
  1
Layout1
 70
     1
 71
     1
 10
0.0
 20
0.0
 11
12.0
 21
9.0
 12
0.0
 22
0.0
 32
0.0
 14
0.0
 24
0.0
 34
0.0
 15
0.0
 25
0.0
 35
0.0
146
0.0
 13
0.0
 23
0.0
 33
0.0
 16
1.0
 26
0.0
 36
0.0
 17
0.0
 27
1.0
 37
0.0
 76
     0
330
D2
  0
LAYOUT
  5
D7
102
{ACAD_XDICTIONARY
360
855
102
}
102
{ACAD_REACTORS
330
1A
102
}
330
1A
100
AcDbPlotSettings
  1

  2
C:\Documents and Settings\basas\Application Data\Autodesk\AutoCAD 2005\R16.1\enu\plotters\Default Windows System Printer.pc3
  4

  6

 40
0.0
 41
0.0
 42
0.0
 43
0.0
 44
0.0
 45
0.0
 46
0.0
 47
0.0
 48
0.0
 49
0.0
140
0.0
141
0.0
142
1.0
143
1.0
 70
   688
 72
     0
 73
     0
 74
     5
  7

 75
    16
147
1.0
148
0.0
149
0.0
100
AcDbLayout
  1
Layout2
 70
     1
 71
     2
 10
0.0
 20
0.0
 11
12.0
 21
9.0
 12
0.0
 22
0.0
 32
0.0
 14
0.0
 24
0.0
 34
0.0
 15
0.0
 25
0.0
 35
0.0
146
0.0
 13
0.0
 23
0.0
 33
0.0
 16
1.0
 26
0.0
 36
0.0
 17
0.0
 27
1.0
 37
0.0
 76
     0
330
D6
  0
LAYOUT
  5
22
102
{ACAD_XDICTIONARY
360
850
102
}
102
{ACAD_REACTORS
330
1A
102
}
330
1A
100
AcDbPlotSettings
  1

  2
none_device
  4
ISO_A4_(210.00_x_297.00_MM)
  6

 40
7.5
 41
20.0
 42
7.5
 43
20.0
 44
210.0
 45
297.0
 46
11.54999923706054
 47
-13.65000009536743
 48
0.0
 49
0.0
140
0.0
141
0.0
142
1.0
143
8.704084754739808
 70
 11952
 72
     1
 73
     0
 74
     0
  7

 75
     0
147
0.1148885871608098
148
0.0
149
0.0
100
AcDbLayout
  1
Model
 70
     1
 71
     0
 10
0.0
 20
0.0
 11
12.0
 21
9.0
 12
0.0
 22
0.0
 32
0.0
 14
0.0
 24
0.0
 34
0.0
 15
0.0
 25
0.0
 35
0.0
146
0.0
 13
0.0
 23
0.0
 33
0.0
 16
1.0
 26
0.0
 36
0.0
 17
0.0
 27
1.0
 37
0.0
 76
     0
330
1F
331
EA
1001
ACAD_PSEXT
1000
None
1000
None
1000
Not applicable
1000
The layout will not be plotted unless a new plotter configuration name is selected.
1070
     0
  0
MATERIAL
  5
ED
102
{ACAD_XDICTIONARY
360
859
102
}
102
{ACAD_REACTORS
330
6A
102
}
330
6A
100
AcDbMaterial
  1
ByBlock
  0
MATERIAL
  5
EC
102
{ACAD_XDICTIONARY
360
857
102
}
102
{ACAD_REACTORS
330
6A
102
}
330
6A
100
AcDbMaterial
  1
ByLayer
  0
MATERIAL
  5
EE
102
{ACAD_XDICTIONARY
360
173
102
}
102
{ACAD_REACTORS
330
6A
102
}
330
6A
100
AcDbMaterial
  1
Global
 43
0.0007999999797903
 43
0.0
 43
0.0
 43
0.0
 43
0.0
 43
0.0007999999797903
 43
0.0
 43
0.0
 43
0.0
 43
0.0
 43
1.0
 43
0.0
 43
0.0
 43
0.0
 43
0.0
 43
1.0
 49
0.0007999999797903
 49
0.0
 49
0.0
 49
0.0
 49
0.0
 49
0.0007999999797903
 49
0.0
 49
0.0
 49
0.0
 49
0.0
 49
1.0
 49
0.0
 49
0.0
 49
0.0
 49
0.0
 49
1.0
142
0.0007999999797903
142
0.0
142
0.0
142
0.0
142
0.0
142
0.0007999999797903
142
0.0
142
0.0
142
0.0
142
0.0
142
1.0
142
0.0
142
0.0
142
0.0
142
0.0
142
1.0
144
0.0007999999797903
144
0.0
144
0.0
144
0.0
144
0.0
144
0.0007999999797903
144
0.0
144
0.0
144
0.0
144
0.0
144
1.0
144
0.0
144
0.0
144
0.0
144
0.0
144
1.0
1001
ACAD
1070
    -1
1070
     3
1070
     0
1000

1071
        0
1070
     0
  0
MLEADERSTYLE
  5
13B
102
{ACAD_REACTORS
330
12D
102
}
330
12D
100
AcDbMLeaderStyle
170
     2
171
     1
172
     0
 90
        2
 40
0.0
 41
0.0
173
     1
 91
-1056964608
340
14
 92
       -2
290
     1
 42
2.0
291
     1
 43
8.0
  3
Standard
 44
4.0
300

342
11
174
     1
178
     1
175
     1
176
     0
 93
-1056964608
 45
4.0
292
     0
297
     0
 46
4.0
 94
-1056964608
 47
1.0
 49
1.0
140
1.0
293
     1
141
0.0
294
     1
177
     0
142
1.0
295
     0
296
     1
143
3.75
1001
ACAD_MLEADERVER
1070
     2
  0
MLEADERSTYLE
  5
12E
102
{ACAD_REACTORS
330
12D
102
}
330
12D
100
AcDbMLeaderStyle
170
     2
171
     1
172
     0
 90
        2
 40
0.0
 41
0.0
173
     1
 91
-1056964608
340
14
 92
       -2
290
     1
 42
2.0
291
     1
 43
8.0
  3
Standard
 44
4.0
300

342
11
174
     1
178
     1
175
     1
176
     0
 93
-1056964608
 45
4.0
292
     0
297
     0
 46
4.0
 94
-1056964608
 47
1.0
 49
1.0
140
1.0
293
     1
141
0.0
294
     1
177
     0
142
1.0
295
     0
296
     0
143
3.75
1001
ACAD_MLEADERVER
1070
     2
  0
MLINESTYLE
  5
18
102
{ACAD_REACTORS
330
17
102
}
330
17
100
AcDbMlineStyle
  2
STANDARD
 70
     0
  3

 62
   256
 51
90.0
 52
90.0
 71
     2
 49
0.5
 62
   256
  6
BYLAYER
 49
-0.5
 62
   256
  6
BYLAYER
  0
ACDBPLACEHOLDER
  5
F
102
{ACAD_REACTORS
330
E
102
}
330
E
  0
SCALE
  5
10D
102
{ACAD_REACTORS
330
10C
102
}
330
10C
100
AcDbScale
 70
     0
300
1:1
140
1.0
141
1.0
290
     1
  0
SCALE
  5
188
102
{ACAD_REACTORS
330
10C
102
}
330
10C
100
AcDbScale
 70
     0
300
1:2
140
1.0
141
2.0
290
     0
  0
SCALE
  5
189
102
{ACAD_REACTORS
330
10C
102
}
330
10C
100
AcDbScale
 70
     0
300
1:4
140
1.0
141
4.0
290
     0
  0
SCALE
  5
18A
102
{ACAD_REACTORS
330
10C
102
}
330
10C
100
AcDbScale
 70
     0
300
1:5
140
1.0
141
5.0
290
     0
  0
SCALE
  5
18B
102
{ACAD_REACTORS
330
10C
102
}
330
10C
100
AcDbScale
 70
     0
300
1:8
140
1.0
141
8.0
290
     0
  0
SCALE
  5
18C
102
{ACAD_REACTORS
330
10C
102
}
330
10C
100
AcDbScale
 70
     0
300
1:10
140
1.0
141
10.0
290
     0
  0
SCALE
  5
18D
102
{ACAD_REACTORS
330
10C
102
}
330
10C
100
AcDbScale
 70
     0
300
1:16
140
1.0
141
16.0
290
     0
  0
SCALE
  5
18E
102
{ACAD_REACTORS
330
10C
102
}
330
10C
100
AcDbScale
 70
     0
300
1:20
140
1.0
141
20.0
290
     0
  0
SCALE
  5
18F
102
{ACAD_REACTORS
330
10C
102
}
330
10C
100
AcDbScale
 70
     0
300
1:30
140
1.0
141
30.0
290
     0
  0
SCALE
  5
190
102
{ACAD_REACTORS
330
10C
102
}
330
10C
100
AcDbScale
 70
     0
300
1:40
140
1.0
141
40.0
290
     0
  0
SCALE
  5
191
102
{ACAD_REACTORS
330
10C
102
}
330
10C
100
AcDbScale
 70
     0
300
1:50
140
1.0
141
50.0
290
     0
  0
SCALE
  5
192
102
{ACAD_REACTORS
330
10C
102
}
330
10C
100
AcDbScale
 70
     0
300
1:100
140
1.0
141
100.0
290
     0
  0
SCALE
  5
193
102
{ACAD_REACTORS
330
10C
102
}
330
10C
100
AcDbScale
 70
     0
300
2:1
140
2.0
141
1.0
290
     0
  0
SCALE
  5
194
102
{ACAD_REACTORS
330
10C
102
}
330
10C
100
AcDbScale
 70
     0
300
4:1
140
4.0
141
1.0
290
     0
  0
SCALE
  5
195
102
{ACAD_REACTORS
330
10C
102
}
330
10C
100
AcDbScale
 70
     0
300
8:1
140
8.0
141
1.0
290
     0
  0
SCALE
  5
196
102
{ACAD_REACTORS
330
10C
102
}
330
10C
100
AcDbScale
 70
     0
300
10:1
140
10.0
141
1.0
290
     0
  0
SCALE
  5
197
102
{ACAD_REACTORS
330
10C
102
}
330
10C
100
AcDbScale
 70
     0
300
100:1
140
100.0
141
1.0
290
     0
  0
SCALE
  5
198
102
{ACAD_REACTORS
330
10C
102
}
330
10C
100
AcDbScale
 70
     0
300
1/128" = 1'-0"
140
0.0078125
141
12.0
290
     0
  0
SCALE
  5
199
102
{ACAD_REACTORS
330
10C
102
}
330
10C
100
AcDbScale
 70
     0
300
1/64" = 1'-0"
140
0.015625
141
12.0
290
     0
  0
SCALE
  5
19A
102
{ACAD_REACTORS
330
10C
102
}
330
10C
100
AcDbScale
 70
     0
300
1/32" = 1'-0"
140
0.03125
141
12.0
290
     0
  0
SCALE
  5
19B
102
{ACAD_REACTORS
330
10C
102
}
330
10C
100
AcDbScale
 70
     0
300
1/16" = 1'-0"
140
0.0625
141
12.0
290
     0
  0
SCALE
  5
19C
102
{ACAD_REACTORS
330
10C
102
}
330
10C
100
AcDbScale
 70
     0
300
3/32" = 1'-0"
140
0.09375
141
12.0
290
     0
  0
SCALE
  5
19D
102
{ACAD_REACTORS
330
10C
102
}
330
10C
100
AcDbScale
 70
     0
300
1/8" = 1'-0"
140
0.125
141
12.0
290
     0
  0
SCALE
  5
19E
102
{ACAD_REACTORS
330
10C
102
}
330
10C
100
AcDbScale
 70
     0
300
3/16" = 1'-0"
140
0.1875
141
12.0
290
     0
  0
SCALE
  5
19F
102
{ACAD_REACTORS
330
10C
102
}
330
10C
100
AcDbScale
 70
     0
300
1/4" = 1'-0"
140
0.25
141
12.0
290
     0
  0
SCALE
  5
1A0
102
{ACAD_REACTORS
330
10C
102
}
330
10C
100
AcDbScale
 70
     0
300
3/8" = 1'-0"
140
0.375
141
12.0
290
     0
  0
SCALE
  5
1A1
102
{ACAD_REACTORS
330
10C
102
}
330
10C
100
AcDbScale
 70
     0
300
1/2" = 1'-0"
140
0.5
141
12.0
290
     0
  0
SCALE
  5
1A2
102
{ACAD_REACTORS
330
10C
102
}
330
10C
100
AcDbScale
 70
     0
300
3/4" = 1'-0"
140
0.75
141
12.0
290
     0
  0
SCALE
  5
1A3
102
{ACAD_REACTORS
330
10C
102
}
330
10C
100
AcDbScale
 70
     0
300
1" = 1'-0"
140
1.0
141
12.0
290
     0
  0
SCALE
  5
1A4
102
{ACAD_REACTORS
330
10C
102
}
330
10C
100
AcDbScale
 70
     0
300
1-1/2" = 1'-0"
140
1.5
141
12.0
290
     0
  0
SCALE
  5
1A5
102
{ACAD_REACTORS
330
10C
102
}
330
10C
100
AcDbScale
 70
     0
300
3" = 1'-0"
140
3.0
141
12.0
290
     0
  0
SCALE
  5
1A6
102
{ACAD_REACTORS
330
10C
102
}
330
10C
100
AcDbScale
 70
     0
300
6" = 1'-0"
140
6.0
141
12.0
290
     0
  0
SCALE
  5
1A7
102
{ACAD_REACTORS
330
10C
102
}
330
10C
100
AcDbScale
 70
     0
300
1'-0" = 1'-0"
140
12.0
141
12.0
290
     0
  0
TABLESTYLE
  5
7F
102
{ACAD_XDICTIONARY
360
162
102
}
102
{ACAD_REACTORS
330
7E
102
}
330
7E
100
AcDbTableStyle
  3
Standard
 70
     0
 71
     0
 40
1.5
 41
1.5
280
     0
281
     0
  7
Standard
140
4.5
170
     2
 62
     0
 63
     7
283
     0
274
    -2
284
     1
 64
     0
275
    -2
285
     1
 65
     0
276
    -2
286
     1
 66
     0
277
    -2
287
     1
 67
     0
278
    -2
288
     1
 68
     0
279
    -2
289
     1
 69
     0
  7
Standard
140
6.0
170
     5
 62
     0
 63
     7
283
     0
274
    -2
284
     1
 64
     0
275
    -2
285
     1
 65
     0
276
    -2
286
     1
 66
     0
277
    -2
287
     1
 67
     0
278
    -2
288
     1
 68
     0
279
    -2
289
     1
 69
     0
  7
Standard
140
4.5
170
     5
 62
     0
 63
     7
283
     0
274
    -2
284
     1
 64
     0
275
    -2
285
     1
 65
     0
276
    -2
286
     1
 66
     0
277
    -2
287
     1
 67
     0
278
    -2
288
     1
 68
     0
279
    -2
289
     1
 69
     0
  0
VISUALSTYLE
  5
F5
102
{ACAD_REACTORS
330
EF
102
}
330
EF
100
AcDbVisualStyle
  2
2dWireframe
 70
     4
 71
     0
 72
     2
 73
     1
 90
        0
 40
-0.6
 41
-30.0
 62
     5
 63
     7
 74
     1
 91
        4
 64
     7
 65
   257
 75
     1
175
     1
 42
1.0
 92
        0
 66
   257
 43
1.0
 76
     1
 77
     6
 78
     2
 67
     7
 79
     5
170
     0
171
     0
290
     0
174
     0
 93
        1
 44
0.0
173
     0
291
     0
 45
0.0
1001
ACAD
1000
AcDbSavedByObjectVersion
1070
     0
  0
VISUALSTYLE
  5
F7
102
{ACAD_REACTORS
330
EF
102
}
330
EF
100
AcDbVisualStyle
  2
3D Hidden
 70
     6
 71
     1
 72
     2
 73
     2
 90
        0
 40
-0.6
 41
-30.0
 62
     5
 63
     7
 74
     2
 91
        2
 64
     7
 65
   257
 75
     2
175
     1
 42
40.0
 92
        0
 66
   257
 43
1.0
 76
     1
 77
     6
 78
     2
 67
     7
 79
     3
170
     0
171
     0
290
     0
174
     0
 93
        1
 44
0.0
173
     0
291
     0
 45
0.0
1001
ACAD
1000
AcDbSavedByObjectVersion
1070
     0
  0
VISUALSTYLE
  5
F6
102
{ACAD_REACTORS
330
EF
102
}
330
EF
100
AcDbVisualStyle
  2
3dWireframe
 70
     5
 71
     0
 72
     2
 73
     1
 90
        0
 40
-0.6
 41
-30.0
 62
     5
 63
     7
 74
     1
 91
        4
 64
     7
 65
   257
 75
     1
175
     1
 42
1.0
 92
        0
 66
   257
 43
1.0
 76
     1
 77
     6
 78
     2
 67
     7
 79
     5
170
     0
171
     0
290
     0
174
     0
 93
        1
 44
0.0
173
     0
291
     0
 45
0.0
1001
ACAD
1000
AcDbSavedByObjectVersion
1070
     0
  0
VISUALSTYLE
  5
F4
102
{ACAD_REACTORS
330
EF
102
}
330
EF
100
AcDbVisualStyle
  2
Basic
 70
     7
 71
     1
 72
     0
 73
     1
 90
        0
 40
-0.6
 41
-30.0
 62
     5
 63
     7
 74
     0
 91
        4
 64
     7
 65
   257
 75
     1
175
     1
 42
1.0
 92
        8
 66
     7
 43
1.0
 76
     1
 77
     6
 78
     2
 67
     7
 79
     5
170
     0
171
     0
290
     0
174
     0
 93
        1
 44
0.0
173
     0
291
     1
 45
0.0
1001
ACAD
1000
AcDbSavedByObjectVersion
1070
     0
  0
VISUALSTYLE
  5
FB
102
{ACAD_REACTORS
330
EF
102
}
330
EF
100
AcDbVisualStyle
  2
Brighten
 70
    12
 71
     2
 72
     2
 73
     1
 90
        0
 40
-0.6
 41
-30.0
 62
     5
 63
     7
 74
     1
 91
        4
 64
     7
 65
   257
 75
     1
175
     1
 42
1.0
 92
        8
 66
     7
 43
1.0
 76
     1
 77
     6
 78
     2
 67
     7
 79
     5
170
     0
171
     0
290
     0
174
     0
 93
        1
 44
50.0
173
     0
291
     1
 45
0.0
1001
ACAD
1000
AcDbSavedByObjectVersion
1070
     0
  0
VISUALSTYLE
  5
FF
102
{ACAD_REACTORS
330
EF
102
}
330
EF
100
AcDbVisualStyle
  2
ColorChange
 70
    16
 71
     2
 72
     2
 73
     3
 90
        0
 40
-0.6
 41
-30.0
 62
     5
 63
     8
 74
     1
 91
        4
 64
     7
 65
   257
 75
     1
175
     1
 42
1.0
 92
        8
 66
     8
 43
1.0
 76
     1
 77
     6
 78
     2
 67
     7
 79
     5
170
     0
171
     0
290
     0
174
     0
 93
        1
 44
0.0
173
     0
291
     1
 45
0.0
1001
ACAD
1000
AcDbSavedByObjectVersion
1070
     0
  0
VISUALSTYLE
  5
F8
102
{ACAD_REACTORS
330
EF
102
}
330
EF
100
AcDbVisualStyle
  2
Conceptual
 70
     9
 71
     3
 72
     2
 73
     1
 90
        0
 40
-0.6
 41
-30.0
 62
     5
 63
     7
 74
     2
 91
        2
 64
     7
 65
   257
 75
     1
175
     1
 42
40.0
 92
        8
 66
     7
 43
1.0
 76
     1
 77
     6
 78
     2
 67
     7
 79
     3
170
     0
171
     0
290
     0
174
     0
 93
        1
 44
0.0
173
     0
291
     0
 45
0.0
1001
ACAD
1000
AcDbSavedByObjectVersion
1070
     0
  0
VISUALSTYLE
  5
FA
102
{ACAD_REACTORS
330
EF
102
}
330
EF
100
AcDbVisualStyle
  2
Dim
 70
    11
 71
     2
 72
     2
 73
     1
 90
        0
 40
-0.6
 41
-30.0
 62
     5
 63
     7
 74
     1
 91
        4
 64
     7
 65
   257
 75
     1
175
     1
 42
1.0
 92
        8
 66
     7
 43
1.0
 76
     1
 77
     6
 78
     2
 67
     7
 79
     5
170
     0
171
     0
290
     0
174
     0
 93
        1
 44
-50.0
173
     0
291
     1
 45
0.0
1001
ACAD
1000
AcDbSavedByObjectVersion
1070
     0
  0
VISUALSTYLE
  5
FE
102
{ACAD_REACTORS
330
EF
102
}
330
EF
100
AcDbVisualStyle
  2
Facepattern
 70
    15
 71
     2
 72
     2
 73
     1
 90
        0
 40
-0.6
 41
-30.0
 62
     5
 63
     7
 74
     1
 91
        4
 64
     7
 65
   257
 75
     1
175
     1
 42
1.0
 92
        8
 66
     7
 43
1.0
 76
     1
 77
     6
 78
     2
 67
     7
 79
     5
170
     0
171
     0
290
     0
174
     0
 93
        1
 44
0.0
173
     0
291
     1
 45
0.0
1001
ACAD
1000
AcDbSavedByObjectVersion
1070
     0
  0
VISUALSTYLE
  5
F0
102
{ACAD_REACTORS
330
EF
102
}
330
EF
100
AcDbVisualStyle
  2
Flat
 70
     0
 71
     2
 72
     1
 73
     1
 90
        2
 40
-0.6
 41
30.0
 62
     5
 63
     7
 74
     0
 91
        4
 64
     7
 65
   257
 75
     1
175
     1
 42
1.0
 92
        8
 66
     7
 43
1.0
 76
     1
 77
     6
 78
     2
 67
     7
 79
     5
170
     0
171
     0
290
     0
174
     0
 93
        1
 44
0.0
173
     0
291
     1
 45
0.0
1001
ACAD
1000
AcDbSavedByObjectVersion
1070
     0
  0
VISUALSTYLE
  5
F1
102
{ACAD_REACTORS
330
EF
102
}
330
EF
100
AcDbVisualStyle
  2
FlatWithEdges
 70
     1
 71
     2
 72
     1
 73
     1
 90
        2
 40
-0.6
 41
30.0
 62
     5
 63
     7
 74
     1
 91
        4
 64
     7
 65
   257
 75
     1
175
     1
 42
1.0
 92
        0
 66
   257
 43
1.0
 76
     1
 77
     6
 78
     2
 67
     7
 79
     5
170
     0
171
     0
290
     0
174
     0
 93
        1
 44
0.0
173
     0
291
     1
 45
0.0
1001
ACAD
1000
AcDbSavedByObjectVersion
1070
     0
  0
VISUALSTYLE
  5
F2
102
{ACAD_REACTORS
330
EF
102
}
330
EF
100
AcDbVisualStyle
  2
Gouraud
 70
     2
 71
     2
 72
     2
 73
     1
 90
        2
 40
-0.6
 41
30.0
 62
     5
 63
     7
 74
     0
 91
        4
 64
     7
 65
   257
 75
     1
175
     1
 42
1.0
 92
        0
 66
     7
 43
1.0
 76
     1
 77
     6
 78
     2
 67
     7
 79
     5
170
     0
171
     0
290
     0
174
     0
 93
        1
 44
0.0
173
     0
291
     1
 45
0.0
1001
ACAD
1000
AcDbSavedByObjectVersion
1070
     0
  0
VISUALSTYLE
  5
F3
102
{ACAD_REACTORS
330
EF
102
}
330
EF
100
AcDbVisualStyle
  2
GouraudWithEdges
 70
     3
 71
     2
 72
     2
 73
     1
 90
        2
 40
-0.6
 41
30.0
 62
     5
 63
     7
 74
     1
 91
        4
 64
     7
 65
   257
 75
     1
175
     1
 42
1.0
 92
        0
 66
   257
 43
1.0
 76
     1
 77
     6
 78
     2
 67
     7
 79
     5
170
     0
171
     0
290
     0
174
     0
 93
        1
 44
0.0
173
     0
291
     1
 45
0.0
1001
ACAD
1000
AcDbSavedByObjectVersion
1070
     0
  0
VISUALSTYLE
  5
FD
102
{ACAD_REACTORS
330
EF
102
}
330
EF
100
AcDbVisualStyle
  2
Linepattern
 70
    14
 71
     2
 72
     2
 73
     1
 90
        0
 40
-0.6
 41
-30.0
 62
     5
 63
     7
 74
     1
 91
        4
 64
     7
 65
   257
 75
     7
175
     7
 42
1.0
 92
        8
 66
     7
 43
1.0
 76
     1
 77
     6
 78
     2
 67
     7
 79
     5
170
     0
171
     0
290
     0
174
     0
 93
        1
 44
0.0
173
     0
291
     1
 45
0.0
1001
ACAD
1000
AcDbSavedByObjectVersion
1070
     0
  0
VISUALSTYLE
  5
F9
102
{ACAD_REACTORS
330
EF
102
}
330
EF
100
AcDbVisualStyle
  2
Realistic
 70
     8
 71
     2
 72
     2
 73
     1
 90
        0
 40
-0.6
 41
-30.0
 62
     5
 63
     7
 74
     1
 91
        0
 64
     7
 65
   257
 75
     1
175
     1
 42
1.0
 92
        8
 66
     8
 43
1.0
 76
     1
 77
     6
 78
     2
 67
     7
 79
     5
170
     0
171
     0
290
     0
174
     0
 93
       13
 44
0.0
173
     0
291
     0
 45
0.0
1001
ACAD
1000
AcDbSavedByObjectVersion
1070
     0
  0
VISUALSTYLE
  5
FC
102
{ACAD_REACTORS
330
EF
102
}
330
EF
100
AcDbVisualStyle
  2
Thicken
 70
    13
 71
     2
 72
     2
 73
     1
 90
        0
 40
-0.6
 41
-30.0
 62
     5
 63
     7
 74
     1
 91
        4
 64
     7
 65
   257
 75
     1
175
     1
 42
1.0
 92
       12
 66
     7
 43
1.0
 76
     1
 77
     6
 78
     2
 67
     7
 79
     5
170
     0
171
     0
290
     0
174
     0
 93
        1
 44
0.0
173
     0
291
     1
 45
0.0
1001
ACAD
1000
AcDbSavedByObjectVersion
1070
     0
  0
DICTIONARYVAR
  5
146
102
{ACAD_REACTORS
330
5E
102
}
330
5E
100
DictionaryVariables
280
     0
  1
1:1
  0
DICTIONARYVAR
  5
145
102
{ACAD_REACTORS
330
5E
102
}
330
5E
100
DictionaryVariables
280
     0
  1
STANDARD
  0
DICTIONARYVAR
  5
84
102
{ACAD_REACTORS
330
5E
102
}
330
5E
100
DictionaryVariables
280
     0
  1
STANDARD
  0
DICTIONARYVAR
  5
5F
102
{ACAD_REACTORS
330
5E
102
}
330
5E
100
DictionaryVariables
280
     0
  1
2
  0
DICTIONARYVAR
  5
63
102
{ACAD_REACTORS
330
5E
102
}
330
5E
100
DictionaryVariables
280
     0
  1
1
  0
DICTIONARYVAR
  5
84B
102
{ACAD_REACTORS
330
5E
102
}
330
5E
100
DictionaryVariables
280
     0
  1
0
  0
DICTIONARYVAR
  5
849
102
{ACAD_REACTORS
330
5E
102
}
330
5E
100
DictionaryVariables
280
     0
  1
2
  0
DICTIONARYVAR
  5
848
102
{ACAD_REACTORS
330
5E
102
}
330
5E
100
DictionaryVariables
280
     0
  1
1
  0
DICTIONARYVAR
  5
84D
102
{ACAD_REACTORS
330
5E
102
}
330
5E
100
DictionaryVariables
280
     0
  1
80.000000
  0
DICTIONARYVAR
  5
84C
102
{ACAD_REACTORS
330
5E
102
}
330
5E
100
DictionaryVariables
280
     0
  1
5.000000
  0
DICTIONARYVAR
  5
84A
102
{ACAD_REACTORS
330
5E
102
}
330
5E
100
DictionaryVariables
280
     0
  1
127
  0
DICTIONARY
  5
853
330
D3
100
AcDbDictionary
280
     1
281
     1
  3
ACAD_XREC_ROUNDTRIP
360
854
  0
DICTIONARY
  5
855
330
D7
100
AcDbDictionary
280
     1
281
     1
  3
ACAD_XREC_ROUNDTRIP
360
856
  0
DICTIONARY
  5
850
330
22
100
AcDbDictionary
280
     1
281
     1
  3
ACAD_XREC_ROUNDTRIP
360
851
  0
DICTIONARY
  5
859
330
ED
100
AcDbDictionary
280
     1
281
     1
  3
ACAD_XREC_ROUNDTRIP
360
85A
  0
DICTIONARY
  5
857
330
EC
100
AcDbDictionary
280
     1
281
     1
  3
ACAD_XREC_ROUNDTRIP
360
858
  0
DICTIONARY
  5
173
330
EE
100
AcDbDictionary
280
     1
281
     1
  3
ACAD_XREC_ROUNDTRIP
360
85B
  3
BUMPTILE
360
175
  3
DIFFUSETILE
360
174
  3
OPACITYTILE
360
176
  3
REFLECTIONTILE
360
177
  0
DICTIONARY
  5
162
330
7F
100
AcDbDictionary
280
     1
281
     1
  3
ACAD_ROUNDTRIP_2008_TABLESTYLE_CELLSTYLEMAP
360
84E
  3
ACAD_XREC_ROUNDTRIP
360
852
  0
XRECORD
  5
854
102
{ACAD_REACTORS
330
853
102
}
330
853
100
AcDbXrecord
280
     1
102
SHADEPLOT
 70
     0
102
SHADEPLOTRESLEVEL
 70
     2
102
SHADEPLOTCUSTOMDPI
 70
   300
  0
XRECORD
  5
856
102
{ACAD_REACTORS
330
855
102
}
330
855
100
AcDbXrecord
280
     1
102
SHADEPLOT
 70
     0
102
SHADEPLOTRESLEVEL
 70
     2
102
SHADEPLOTCUSTOMDPI
 70
   300
  0
XRECORD
  5
851
102
{ACAD_REACTORS
330
850
102
}
330
850
100
AcDbXrecord
280
     1
102
SHADEPLOT
 70
     0
102
SHADEPLOTRESLEVEL
 70
     2
102
SHADEPLOTCUSTOMDPI
 70
   300
  0
XRECORD
  5
85A
102
{ACAD_REACTORS
330
859
102
}
330
859
100
AcDbXrecord
280
     1
102
MATERIAL
148
0.0
149
0.0
149
0.0
 93
        0
 94
       63
282
     0
 72
     1
 77
     1
171
     1
175
     1
179
     1
273
     0
  0
XRECORD
  5
858
102
{ACAD_REACTORS
330
857
102
}
330
857
100
AcDbXrecord
280
     1
102
MATERIAL
148
0.0
149
0.0
149
0.0
 93
        0
 94
       63
282
     0
 72
     1
 77
     1
171
     1
175
     1
179
     1
273
     0
  0
XRECORD
  5
85B
102
{ACAD_REACTORS
330
173
102
}
330
173
100
AcDbXrecord
280
     1
102
MATERIAL
148
0.0
149
0.0
149
0.0
 93
        0
 94
       63
282
     0
 72
     1
 77
     1
171
     1
175
     1
179
     1
273
     0
  0
XRECORD
  5
175
102
{ACAD_REACTORS
330
173
102
}
330
173
100
AcDbXrecord
280
     1
270
     1
271
     1
  0
XRECORD
  5
174
102
{ACAD_REACTORS
330
173
102
}
330
173
100
AcDbXrecord
280
     1
270
     1
271
     1
  0
XRECORD
  5
176
102
{ACAD_REACTORS
330
173
102
}
330
173
100
AcDbXrecord
280
     1
270
     1
271
     1
  0
XRECORD
  5
177
102
{ACAD_REACTORS
330
173
102
}
330
173
100
AcDbXrecord
280
     1
270
     1
271
     1
  0
CELLSTYLEMAP
  5
84E
102
{ACAD_REACTORS
330
162
102
}
330
162
100
AcDbCellStyleMap
 90
        3
300
CELLSTYLE
  1
TABLEFORMAT_BEGIN
 90
        5
170
     1
 91
        0
 92
    32768
 62
   257
 93
        1
300
CONTENTFORMAT
  1
CONTENTFORMAT_BEGIN
 90
        0
 91
        0
 92
      512
 93
        0
300

 40
0.0
140
1.0
 94
        5
 62
     0
340
11
144
6.0
309
CONTENTFORMAT_END
171
     1
301
MARGIN
  1
CELLMARGIN_BEGIN
 40
1.5
 40
1.5
 40
1.5
 40
1.5
 40
4.5
 40
4.5
309
CELLMARGIN_END
 94
        6
 95
        1
302
GRIDFORMAT
  1
GRIDFORMAT_BEGIN
 90
        0
 91
        1
 62
     0
 92
       -2
340
14
 93
        0
 40
1.125
309
GRIDFORMAT_END
 95
        2
302
GRIDFORMAT
  1
GRIDFORMAT_BEGIN
 90
        0
 91
        1
 62
     0
 92
       -2
340
14
 93
        0
 40
1.125
309
GRIDFORMAT_END
 95
        4
302
GRIDFORMAT
  1
GRIDFORMAT_BEGIN
 90
        0
 91
        1
 62
     0
 92
       -2
340
14
 93
        0
 40
1.125
309
GRIDFORMAT_END
 95
        8
302
GRIDFORMAT
  1
GRIDFORMAT_BEGIN
 90
        0
 91
        1
 62
     0
 92
       -2
340
14
 93
        0
 40
1.125
309
GRIDFORMAT_END
 95
       16
302
GRIDFORMAT
  1
GRIDFORMAT_BEGIN
 90
        0
 91
        1
 62
     0
 92
       -2
340
14
 93
        0
 40
1.125
309
GRIDFORMAT_END
 95
       32
302
GRIDFORMAT
  1
GRIDFORMAT_BEGIN
 90
        0
 91
        1
 62
     0
 92
       -2
340
14
 93
        0
 40
1.125
309
GRIDFORMAT_END
309
TABLEFORMAT_END
  1
CELLSTYLE_BEGIN
 90
        1
 91
        1
300
_TITLE
309
CELLSTYLE_END
300
CELLSTYLE
  1
TABLEFORMAT_BEGIN
 90
        5
170
     1
 91
        0
 92
        0
 62
   257
 93
        1
300
CONTENTFORMAT
  1
CONTENTFORMAT_BEGIN
 90
        0
 91
        0
 92
      512
 93
        0
300

 40
0.0
140
1.0
 94
        5
 62
     0
340
11
144
4.5
309
CONTENTFORMAT_END
171
     1
301
MARGIN
  1
CELLMARGIN_BEGIN
 40
1.5
 40
1.5
 40
1.5
 40
1.5
 40
4.5
 40
4.5
309
CELLMARGIN_END
 94
        6
 95
        1
302
GRIDFORMAT
  1
GRIDFORMAT_BEGIN
 90
        0
 91
        1
 62
     0
 92
       -2
340
14
 93
        0
 40
1.125
309
GRIDFORMAT_END
 95
        2
302
GRIDFORMAT
  1
GRIDFORMAT_BEGIN
 90
        0
 91
        1
 62
     0
 92
       -2
340
14
 93
        0
 40
1.125
309
GRIDFORMAT_END
 95
        4
302
GRIDFORMAT
  1
GRIDFORMAT_BEGIN
 90
        0
 91
        1
 62
     0
 92
       -2
340
14
 93
        0
 40
1.125
309
GRIDFORMAT_END
 95
        8
302
GRIDFORMAT
  1
GRIDFORMAT_BEGIN
 90
        0
 91
        1
 62
     0
 92
       -2
340
14
 93
        0
 40
1.125
309
GRIDFORMAT_END
 95
       16
302
GRIDFORMAT
  1
GRIDFORMAT_BEGIN
 90
        0
 91
        1
 62
     0
 92
       -2
340
14
 93
        0
 40
1.125
309
GRIDFORMAT_END
 95
       32
302
GRIDFORMAT
  1
GRIDFORMAT_BEGIN
 90
        0
 91
        1
 62
     0
 92
       -2
340
14
 93
        0
 40
1.125
309
GRIDFORMAT_END
309
TABLEFORMAT_END
  1
CELLSTYLE_BEGIN
 90
        2
 91
        1
300
_HEADER
309
CELLSTYLE_END
300
CELLSTYLE
  1
TABLEFORMAT_BEGIN
 90
        5
170
     1
 91
        0
 92
        0
 62
   257
 93
        1
300
CONTENTFORMAT
  1
CONTENTFORMAT_BEGIN
 90
        0
 91
        0
 92
      512
 93
        0
300

 40
0.0
140
1.0
 94
        2
 62
     0
340
11
144
4.5
309
CONTENTFORMAT_END
171
     1
301
MARGIN
  1
CELLMARGIN_BEGIN
 40
1.5
 40
1.5
 40
1.5
 40
1.5
 40
4.5
 40
4.5
309
CELLMARGIN_END
 94
        6
 95
        1
302
GRIDFORMAT
  1
GRIDFORMAT_BEGIN
 90
        0
 91
        1
 62
     0
 92
       -2
340
14
 93
        0
 40
1.125
309
GRIDFORMAT_END
 95
        2
302
GRIDFORMAT
  1
GRIDFORMAT_BEGIN
 90
        0
 91
        1
 62
     0
 92
       -2
340
14
 93
        0
 40
1.125
309
GRIDFORMAT_END
 95
        4
302
GRIDFORMAT
  1
GRIDFORMAT_BEGIN
 90
        0
 91
        1
 62
     0
 92
       -2
340
14
 93
        0
 40
1.125
309
GRIDFORMAT_END
 95
        8
302
GRIDFORMAT
  1
GRIDFORMAT_BEGIN
 90
        0
 91
        1
 62
     0
 92
       -2
340
14
 93
        0
 40
1.125
309
GRIDFORMAT_END
 95
       16
302
GRIDFORMAT
  1
GRIDFORMAT_BEGIN
 90
        0
 91
        1
 62
     0
 92
       -2
340
14
 93
        0
 40
1.125
309
GRIDFORMAT_END
 95
       32
302
GRIDFORMAT
  1
GRIDFORMAT_BEGIN
 90
        0
 91
        1
 62
     0
 92
       -2
340
14
 93
        0
 40
1.125
309
GRIDFORMAT_END
309
TABLEFORMAT_END
  1
CELLSTYLE_BEGIN
 90
        3
 91
        2
300
_DATA
309
CELLSTYLE_END
  0
XRECORD
  5
852
102
{ACAD_REACTORS
330
162
102
}
330
162
100
AcDbXrecord
280
     1
102
ACAD_ROUNDTRIP_PRE2007_TABLESTYLE
 90
      512
 91
        0
  1

 92
      512
 93
        0
  2

 94
      512
 95
        0
  3

  0
ENDSEC
  0
EOF
