  0
SECTION
  2
HEADER
  9
$ACADVER
  1
AC1015
  9
$ACADMAINTVER
 70
    20
  9
$DWGCODEPAGE
  3
ANSI_1254
  9
$INSBASE
 10
0.0
 20
0.0
 30
0.0
  9
$EXTMIN
 10
2397.306127902199
 20
946.5015050044595
 30
0.0
  9
$EXTMAX
 10
2567.151387186053
 20
995.8145709258145
 30
0.0
  9
$LIMMIN
 10
0.0
 20
0.0
  9
$LIMMAX
 10
420.0
 20
297.0
  9
$ORTHOMODE
 70
     0
  9
$REGENMODE
 70
     1
  9
$FILLMODE
 70
     1
  9
$QTEXTMODE
 70
     0
  9
$MIRRTEXT
 70
     0
  9
$LTSCALE
 40
1.0
  9
$ATTMODE
 70
     1
  9
$TEXTSIZE
 40
2.5
  9
$TRACEWID
 40
1.0
  9
$TEXTSTYLE
  7
Standard
  9
$CLAYER
  8
0
  9
$CELTYPE
  6
ByLayer
  9
$CECOLOR
 62
   256
  9
$CELTSCALE
 40
1.0
  9
$DISPSILH
 70
     0
  9
$DIMSCALE
 40
1.0
  9
$DIMASZ
 40
2.5
  9
$DIMEXO
 40
0.625
  9
$DIMDLI
 40
3.75
  9
$DIMRND
 40
0.0
  9
$DIMDLE
 40
0.0
  9
$DIMEXE
 40
1.25
  9
$DIMTP
 40
0.0
  9
$DIMTM
 40
0.0
  9
$DIMTXT
 40
2.5
  9
$DIMCEN
 40
2.5
  9
$DIMTSZ
 40
0.0
  9
$DIMTOL
 70
     0
  9
$DIMLIM
 70
     0
  9
$DIMTIH
 70
     0
  9
$DIMTOH
 70
     0
  9
$DIMSE1
 70
     0
  9
$DIMSE2
 70
     0
  9
$DIMTAD
 70
     1
  9
$DIMZIN
 70
     8
  9
$DIMBLK
  1

  9
$DIMASO
 70
     1
  9
$DIMSHO
 70
     1
  9
$DIMPOST
  1

  9
$DIMAPOST
  1

  9
$DIMALT
 70
     0
  9
$DIMALTD
 70
     3
  9
$DIMALTF
 40
0.03937007874016
  9
$DIMLFAC
 40
1.0
  9
$DIMTOFL
 70
     1
  9
$DIMTVP
 40
0.0
  9
$DIMTIX
 70
     0
  9
$DIMSOXD
 70
     0
  9
$DIMSAH
 70
     0
  9
$DIMBLK1
  1

  9
$DIMBLK2
  1

  9
$DIMSTYLE
  2
ISO-25
  9
$DIMCLRD
 70
     0
  9
$DIMCLRE
 70
     0
  9
$DIMCLRT
 70
     0
  9
$DIMTFAC
 40
1.0
  9
$DIMGAP
 40
0.625
  9
$DIMJUST
 70
     0
  9
$DIMSD1
 70
     0
  9
$DIMSD2
 70
     0
  9
$DIMTOLJ
 70
     0
  9
$DIMTZIN
 70
     8
  9
$DIMALTZ
 70
     0
  9
$DIMALTTZ
 70
     0
  9
$DIMUPT
 70
     0
  9
$DIMDEC
 70
     2
  9
$DIMTDEC
 70
     2
  9
$DIMALTU
 70
     2
  9
$DIMALTTD
 70
     3
  9
$DIMTXSTY
  7
Standard
  9
$DIMAUNIT
 70
     0
  9
$DIMADEC
 70
     0
  9
$DIMALTRND
 40
0.0
  9
$DIMAZIN
 70
     0
  9
$DIMDSEP
 70
    44
  9
$DIMATFIT
 70
     3
  9
$DIMFRAC
 70
     0
  9
$DIMLDRBLK
  1

  9
$DIMLUNIT
 70
     2
  9
$DIMLWD
 70
    -2
  9
$DIMLWE
 70
    -2
  9
$DIMTMOVE
 70
     0
  9
$LUNITS
 70
     2
  9
$LUPREC
 70
     4
  9
$SKETCHINC
 40
1.0
  9
$FILLETRAD
 40
0.0
  9
$AUNITS
 70
     0
  9
$AUPREC
 70
     0
  9
$MENU
  1
.
  9
$ELEVATION
 40
0.0
  9
$PELEVATION
 40
0.0
  9
$THICKNESS
 40
0.0
  9
$LIMCHECK
 70
     0
  9
$CHAMFERA
 40
0.0
  9
$CHAMFERB
 40
0.0
  9
$CHAMFERC
 40
0.0
  9
$CHAMFERD
 40
0.0
  9
$SKPOLY
 70
     0
  9
$TDCREATE
 40
2458935.539757616
  9
$TDUCREATE
 40
2458935.414757616
  9
$TDUPDATE
 40
2458956.462803935
  9
$TDUUPDATE
 40
2458956.337803935
  9
$TDINDWG
 40
0.0006264699
  9
$TDUSRTIMER
 40
0.0006264699
  9
$USRTIMER
 70
     1
  9
$ANGBASE
 50
0.0
  9
$ANGDIR
 70
     0
  9
$PDMODE
 70
     0
  9
$PDSIZE
 40
0.0
  9
$PLINEWID
 40
0.0
  9
$SPLFRAME
 70
     0
  9
$SPLINETYPE
 70
     6
  9
$SPLINESEGS
 70
     8
  9
$HANDSEED
  5
6A6
  9
$SURFTAB1
 70
     6
  9
$SURFTAB2
 70
     6
  9
$SURFTYPE
 70
     6
  9
$SURFU
 70
     6
  9
$SURFV
 70
     6
  9
$UCSBASE
  2

  9
$UCSNAME
  2

  9
$UCSORG
 10
0.0
 20
0.0
 30
0.0
  9
$UCSXDIR
 10
1.0
 20
0.0
 30
0.0
  9
$UCSYDIR
 10
0.0
 20
1.0
 30
0.0
  9
$UCSORTHOREF
  2

  9
$UCSORTHOVIEW
 70
     0
  9
$UCSORGTOP
 10
0.0
 20
0.0
 30
0.0
  9
$UCSORGBOTTOM
 10
0.0
 20
0.0
 30
0.0
  9
$UCSORGLEFT
 10
0.0
 20
0.0
 30
0.0
  9
$UCSORGRIGHT
 10
0.0
 20
0.0
 30
0.0
  9
$UCSORGFRONT
 10
0.0
 20
0.0
 30
0.0
  9
$UCSORGBACK
 10
0.0
 20
0.0
 30
0.0
  9
$PUCSBASE
  2

  9
$PUCSNAME
  2

  9
$PUCSORG
 10
0.0
 20
0.0
 30
0.0
  9
$PUCSXDIR
 10
1.0
 20
0.0
 30
0.0
  9
$PUCSYDIR
 10
0.0
 20
1.0
 30
0.0
  9
$PUCSORTHOREF
  2

  9
$PUCSORTHOVIEW
 70
     0
  9
$PUCSORGTOP
 10
0.0
 20
0.0
 30
0.0
  9
$PUCSORGBOTTOM
 10
0.0
 20
0.0
 30
0.0
  9
$PUCSORGLEFT
 10
0.0
 20
0.0
 30
0.0
  9
$PUCSORGRIGHT
 10
0.0
 20
0.0
 30
0.0
  9
$PUCSORGFRONT
 10
0.0
 20
0.0
 30
0.0
  9
$PUCSORGBACK
 10
0.0
 20
0.0
 30
0.0
  9
$USERI1
 70
     0
  9
$USERI2
 70
     0
  9
$USERI3
 70
     0
  9
$USERI4
 70
     0
  9
$USERI5
 70
     0
  9
$USERR1
 40
0.0
  9
$USERR2
 40
0.0
  9
$USERR3
 40
0.0
  9
$USERR4
 40
0.0
  9
$USERR5
 40
0.0
  9
$WORLDVIEW
 70
     1
  9
$SHADEDGE
 70
     3
  9
$SHADEDIF
 70
    70
  9
$TILEMODE
 70
     1
  9
$MAXACTVP
 70
    64
  9
$PINSBASE
 10
0.0
 20
0.0
 30
0.0
  9
$PLIMCHECK
 70
     0
  9
$PEXTMIN
 10
0.0
 20
0.0
 30
0.0
  9
$PEXTMAX
 10
0.0
 20
0.0
 30
0.0
  9
$PLIMMIN
 10
0.0
 20
0.0
  9
$PLIMMAX
 10
12.0
 20
9.0
  9
$UNITMODE
 70
     0
  9
$VISRETAIN
 70
     1
  9
$PLINEGEN
 70
     0
  9
$PSLTSCALE
 70
     1
  9
$TREEDEPTH
 70
  3020
  9
$CMLSTYLE
  2
Standard
  9
$CMLJUST
 70
     0
  9
$CMLSCALE
 40
20.0
  9
$PROXYGRAPHICS
 70
     1
  9
$MEASUREMENT
 70
     1
  9
$CELWEIGHT
370
    -1
  9
$ENDCAPS
280
     0
  9
$JOINSTYLE
280
     0
  9
$LWDISPLAY
290
     0
  9
$INSUNITS
 70
     4
  9
$HYPERLINKBASE
  1

  9
$STYLESHEET
  1

  9
$XEDIT
290
     1
  9
$CEPSNTYPE
380
     0
  9
$PSTYLEMODE
290
     1
  9
$FINGERPRINTGUID
  2
{EEC319E0-2CB2-4CF4-808C-BE29C4889B9E}
  9
$VERSIONGUID
  2
{9AB0BD37-39BD-4182-AA1D-A765592763E0}
  9
$EXTNAMES
290
     1
  9
$PSVPSCALE
 40
0.0
  9
$OLESTARTUP
290
     0
  0
ENDSEC
  0
SECTION
  2
CLASSES
  0
CLASS
  1
ACDBDICTIONARYWDFLT
  2
AcDbDictionaryWithDefault
  3
ObjectDBX Classes
 90
        0
280
     0
281
     0
  0
CLASS
  1
ACDBPLACEHOLDER
  2
AcDbPlaceHolder
  3
ObjectDBX Classes
 90
        0
280
     0
281
     0
  0
CLASS
  1
LAYOUT
  2
AcDbLayout
  3
ObjectDBX Classes
 90
        0
280
     0
281
     0
  0
CLASS
  1
DICTIONARYVAR
  2
AcDbDictionaryVar
  3
ObjectDBX Classes
 90
        0
280
     0
281
     0
  0
CLASS
  1
TABLESTYLE
  2
AcDbTableStyle
  3
ObjectDBX Classes
 90
     4095
280
     0
281
     0
  0
CLASS
  1
MATERIAL
  2
AcDbMaterial
  3
ObjectDBX Classes
 90
     1153
280
     0
281
     0
  0
CLASS
  1
VISUALSTYLE
  2
AcDbVisualStyle
  3
ObjectDBX Classes
 90
     4095
280
     0
281
     0
  0
CLASS
  1
SCALE
  2
AcDbScale
  3
ObjectDBX Classes
 90
     1153
280
     0
281
     0
  0
CLASS
  1
MLEADERSTYLE
  2
AcDbMLeaderStyle
  3
ACDB_MLEADERSTYLE_CLASS
 90
     4095
280
     0
281
     0
  0
CLASS
  1
CELLSTYLEMAP
  2
AcDbCellStyleMap
  3
ObjectDBX Classes
 90
     1152
280
     0
281
     0
  0
ENDSEC
  0
SECTION
  2
TABLES
  0
TABLE
  2
VPORT
  5
8
330
0
100
AcDbSymbolTable
 70
     1
  0
VPORT
  5
EA
330
8
100
AcDbSymbolTableRecord
100
AcDbViewportTableRecord
  2
*Active
 70
     0
 10
0.0
 20
0.0
 11
1.0
 21
1.0
 12
2497.292602551011
 22
979.9923100144038
 13
0.0
 23
0.0
 14
10.0
 24
10.0
 15
10.0
 25
10.0
 16
0.0
 26
0.0
 36
1.0
 17
0.0
 27
0.0
 37
0.0
 40
201.479567918707
 41
1.903110047846889
 42
50.0
 43
0.0
 44
0.0
 50
0.0
 51
0.0
 71
     0
 72
  1000
 73
     1
 74
     3
 75
     0
 76
     0
 77
     0
 78
     0
281
     0
 65
     1
110
0.0
120
0.0
130
0.0
111
1.0
121
0.0
131
0.0
112
0.0
122
1.0
132
0.0
 79
     0
146
0.0
  0
ENDTAB
  0
TABLE
  2
LTYPE
  5
5
330
0
100
AcDbSymbolTable
 70
     1
  0
LTYPE
  5
14
330
5
100
AcDbSymbolTableRecord
100
AcDbLinetypeTableRecord
  2
ByBlock
 70
     0
  3

 72
    65
 73
     0
 40
0.0
  0
LTYPE
  5
15
330
5
100
AcDbSymbolTableRecord
100
AcDbLinetypeTableRecord
  2
ByLayer
 70
     0
  3

 72
    65
 73
     0
 40
0.0
  0
LTYPE
  5
16
330
5
100
AcDbSymbolTableRecord
100
AcDbLinetypeTableRecord
  2
Continuous
 70
     0
  3
Solid line
 72
    65
 73
     0
 40
0.0
  0
ENDTAB
  0
TABLE
  2
LAYER
  5
2
330
0
100
AcDbSymbolTable
 70
     1
  0
LAYER
  5
10
102
{ACAD_XDICTIONARY
360
13C
102
}
330
2
100
AcDbSymbolTableRecord
100
AcDbLayerTableRecord
  2
0
 70
     0
 62
     7
  6
Continuous
370
    -3
390
F
  0
ENDTAB
  0
TABLE
  2
STYLE
  5
3
330
0
100
AcDbSymbolTable
 70
     2
  0
STYLE
  5
11
330
3
100
AcDbSymbolTableRecord
100
AcDbTextStyleTableRecord
  2
Standard
 70
     0
 40
0.0
 41
1.0
 50
0.0
 71
     0
 42
2.5
  3
txt
  4

  0
STYLE
  5
132
330
3
100
AcDbSymbolTableRecord
100
AcDbTextStyleTableRecord
  2
Annotative
 70
     0
 40
0.0
 41
1.0
 50
0.0
 71
     0
 42
2.5
  3
txt.shx
  4

1001
AcadAnnotative
1000
AnnotativeData
1002
{
1070
     1
1070
     1
1002
}
  0
ENDTAB
  0
TABLE
  2
VIEW
  5
6
330
0
100
AcDbSymbolTable
 70
     0
  0
ENDTAB
  0
TABLE
  2
UCS
  5
7
330
0
100
AcDbSymbolTable
 70
     0
  0
ENDTAB
  0
TABLE
  2
APPID
  5
9
330
0
100
AcDbSymbolTable
 70
     7
  0
APPID
  5
12
330
9
100
AcDbSymbolTableRecord
100
AcDbRegAppTableRecord
  2
ACAD
 70
     0
  0
APPID
  5
9E
330
9
100
AcDbSymbolTableRecord
100
AcDbRegAppTableRecord
  2
ACAD_PSEXT
 70
     0
  0
APPID
  5
133
330
9
100
AcDbSymbolTableRecord
100
AcDbRegAppTableRecord
  2
AcadAnnoPO
 70
     0
  0
APPID
  5
134
330
9
100
AcDbSymbolTableRecord
100
AcDbRegAppTableRecord
  2
AcadAnnotative
 70
     0
  0
APPID
  5
135
330
9
100
AcDbSymbolTableRecord
100
AcDbRegAppTableRecord
  2
ACAD_DSTYLE_DIMJAG
 70
     0
  0
APPID
  5
136
330
9
100
AcDbSymbolTableRecord
100
AcDbRegAppTableRecord
  2
ACAD_DSTYLE_DIMTALN
 70
     0
  0
APPID
  5
165
330
9
100
AcDbSymbolTableRecord
100
AcDbRegAppTableRecord
  2
ACAD_MLEADERVER
 70
     0
  0
ENDTAB
  0
TABLE
  2
DIMSTYLE
  5
A
330
0
100
AcDbSymbolTable
 70
     2
100
AcDbDimStyleTable
 71
     2
340
27
340
137
  0
DIMSTYLE
105
27
330
A
100
AcDbSymbolTableRecord
100
AcDbDimStyleTableRecord
  2
ISO-25
 70
     0
 41
2.5
 42
0.625
 43
3.75
 44
1.25
 73
     0
 74
     0
 77
     1
 78
     8
140
2.5
141
2.5
143
0.03937007874016
147
0.625
171
     3
172
     1
271
     2
272
     2
274
     3
278
    44
283
     0
284
     8
340
11
  0
DIMSTYLE
105
137
330
A
100
AcDbSymbolTableRecord
100
AcDbDimStyleTableRecord
  2
Annotative
 70
     0
 40
0.0
 41
2.5
 42
0.625
 43
3.75
 44
1.25
 73
     0
 74
     0
 77
     1
 78
     8
140
2.5
141
2.5
143
0.03937007874016
147
0.625
171
     3
172
     1
271
     2
272
     2
274
     3
278
    44
283
     0
284
     8
340
11
1001
AcadAnnotative
1000
AnnotativeData
1002
{
1070
     1
1070
     1
1002
}
1001
ACAD_DSTYLE_DIMJAG
1070
   388
1040
1.5
1001
ACAD_DSTYLE_DIMTALN
1070
   392
1070
     0
  0
ENDTAB
  0
TABLE
  2
BLOCK_RECORD
  5
1
330
0
100
AcDbSymbolTable
 70
     5
  0
BLOCK_RECORD
  5
1F
330
1
100
AcDbSymbolTableRecord
100
AcDbBlockTableRecord
  2
*Model_Space
340
22
  0
BLOCK_RECORD
  5
D2
330
1
100
AcDbSymbolTableRecord
100
AcDbBlockTableRecord
  2
*Paper_Space
340
D3
  0
BLOCK_RECORD
  5
D6
330
1
100
AcDbSymbolTableRecord
100
AcDbBlockTableRecord
  2
*Paper_Space0
340
D7
  0
BLOCK_RECORD
  5
4E3
330
1
100
AcDbSymbolTableRecord
100
AcDbBlockTableRecord
  2
1
340
0
310
2800000020000000200000000100080000000000000400000000000000000000000000000000000000000000000080000080000000808000800000008000800080800000C0C0C000C0DCC000F0CAA6000020400000206000002080000020A0000020C0000020E00000400000004020000040400000406000004080000040A0
310
000040C0000040E00000600000006020000060400000606000006080000060A0000060C0000060E00000800000008020000080400000806000008080000080A0000080C0000080E00000A0000000A0200000A0400000A0600000A0800000A0A00000A0C00000A0E00000C0000000C0200000C0400000C0600000C0800000C0
310
A00000C0C00000C0E00000E0000000E0200000E0400000E0600000E0800000E0A00000E0C00000E0E00040000000400020004000400040006000400080004000A0004000C0004000E00040200000402020004020400040206000402080004020A0004020C0004020E000404000004040200040404000404060004040800040
310
40A0004040C0004040E00040600000406020004060400040606000406080004060A0004060C0004060E00040800000408020004080400040806000408080004080A0004080C0004080E00040A0000040A0200040A0400040A0600040A0800040A0A00040A0C00040A0E00040C0000040C0200040C0400040C0600040C08000
310
40C0A00040C0C00040C0E00040E0000040E0200040E0400040E0600040E0800040E0A00040E0C00040E0E00080000000800020008000400080006000800080008000A0008000C0008000E00080200000802020008020400080206000802080008020A0008020C0008020E00080400000804020008040400080406000804080
310
008040A0008040C0008040E00080600000806020008060400080606000806080008060A0008060C0008060E00080800000808020008080400080806000808080008080A0008080C0008080E00080A0000080A0200080A0400080A0600080A0800080A0A00080A0C00080A0E00080C0000080C0200080C0400080C0600080C0
310
800080C0A00080C0C00080C0E00080E0000080E0200080E0400080E0600080E0800080E0A00080E0C00080E0E000C0000000C0002000C0004000C0006000C0008000C000A000C000C000C000E000C0200000C0202000C0204000C0206000C0208000C020A000C020C000C020E000C0400000C0402000C0404000C0406000C0
310
408000C040A000C040C000C040E000C0600000C0602000C0604000C0606000C0608000C060A000C060C000C060E000C0800000C0802000C0804000C0806000C0808000C080A000C080C000C080E000C0A00000C0A02000C0A04000C0A06000C0A08000C0A0A000C0A0C000C0A0E000C0C00000C0C02000C0C04000C0C06000
310
C0C08000C0C0A000F0FBFF00A4A0A000808080000000FF0000FF000000FFFF00FF000000FF00FF00FFFF0000FFFFFF0000000000000000000000000000000000000000000000000000000000000000000000000000000000000000000000000000000000000000000000000000000000000000000000000000000000000000
310
00000000000000000000000000000000000000000000000000000000000000000000000000000000000000000000000000000000000000000000000000000000000000000000000000000000000000000000000000000000000000000000000000000000000000000000000000000000000000000000000000000000000000
310
00000000000000000000000000000000000000000000000000000000000000000000000000000000000000000000000000000000000000000000000000000000000000000000000000000000000000000000000000000000000000000000000000000000000000000000000000000000000000000000000000000000000000
310
000000000000000000000000000000000000000000FFFFFFFF0000FFFFFFFF0000FFFFFFFF0000FFFFFFFF0000FFFFFFFF00000000FF0000FF0000FF0000FF0000FF0000FF0000FF0000FF0000FF0000FF00000000FF0000FF0000FF0000FF0000FF0000FF0000FF0000FF0000FF0000FF00000000FF0000FF0000FF0000FF
310
0000FF0000FF0000FF0000FF0000FF0000FF00000000FF0000FF0000FF0000FF0000FF0000FF0000FF0000FF0000FF0000FF000000FFFFFFFFFFFFFFFFFFFFFFFFFFFFFFFFFFFFFFFFFFFFFFFFFFFFFFFFFFFF0000FFFFFFFFFFFFFFFFFFFFFFFFFFFFFFFFFFFFFFFFFFFFFFFFFFFFFFFFFFFF000000FFFFFFFF0000FFFFFF
310
FF0000FFFFFFFF0000FFFFFFFF0000FFFFFFFF00000000FF0000FF0000FF0000FF0000FF0000FF0000FF0000FF0000FF0000FF00000000FFFFFFFF0000FFFFFFFF0000FFFFFFFF0000FFFFFFFF0000FFFFFFFF0000000000000000000000000000000000000000000000000000000000000000000000000000000000000000
310
00000000000000000000000000000000000000000000000000000000000000000000000000000000000000000000000000000000000000000000000000000000000000000000000000000000000000000000000000000000000000000000000000000000000000000000000000000000000000000000000000000000000000
310
00000000000000000000000000000000000000000000000000000000000000000000000000000000000000000000000000000000000000000000000000000000000000000000000000000000000000000000000000000000000000000000000000000000000000000000000000000000000000000000000000000000000000
310
0000000000000000000000000000000000000000000000000000000000000000000000000000000000000000000000000000000000000000
102
{BLKREFS
331
562
102
}
1001
ACAD
1000
DesignCenter Data
1002
{
1070
     1
1070
     4
1002
}
  0
BLOCK_RECORD
  5
563
330
1
100
AcDbSymbolTableRecord
100
AcDbBlockTableRecord
  2
2
340
0
310
2800000020000000200000000100080000000000000400000000000000000000000000000000000000000000000080000080000000808000800000008000800080800000C0C0C000C0DCC000F0CAA6000020400000206000002080000020A0000020C0000020E00000400000004020000040400000406000004080000040A0
310
000040C0000040E00000600000006020000060400000606000006080000060A0000060C0000060E00000800000008020000080400000806000008080000080A0000080C0000080E00000A0000000A0200000A0400000A0600000A0800000A0A00000A0C00000A0E00000C0000000C0200000C0400000C0600000C0800000C0
310
A00000C0C00000C0E00000E0000000E0200000E0400000E0600000E0800000E0A00000E0C00000E0E00040000000400020004000400040006000400080004000A0004000C0004000E00040200000402020004020400040206000402080004020A0004020C0004020E000404000004040200040404000404060004040800040
310
40A0004040C0004040E00040600000406020004060400040606000406080004060A0004060C0004060E00040800000408020004080400040806000408080004080A0004080C0004080E00040A0000040A0200040A0400040A0600040A0800040A0A00040A0C00040A0E00040C0000040C0200040C0400040C0600040C08000
310
40C0A00040C0C00040C0E00040E0000040E0200040E0400040E0600040E0800040E0A00040E0C00040E0E00080000000800020008000400080006000800080008000A0008000C0008000E00080200000802020008020400080206000802080008020A0008020C0008020E00080400000804020008040400080406000804080
310
008040A0008040C0008040E00080600000806020008060400080606000806080008060A0008060C0008060E00080800000808020008080400080806000808080008080A0008080C0008080E00080A0000080A0200080A0400080A0600080A0800080A0A00080A0C00080A0E00080C0000080C0200080C0400080C0600080C0
310
800080C0A00080C0C00080C0E00080E0000080E0200080E0400080E0600080E0800080E0A00080E0C00080E0E000C0000000C0002000C0004000C0006000C0008000C000A000C000C000C000E000C0200000C0202000C0204000C0206000C0208000C020A000C020C000C020E000C0400000C0402000C0404000C0406000C0
310
408000C040A000C040C000C040E000C0600000C0602000C0604000C0606000C0608000C060A000C060C000C060E000C0800000C0802000C0804000C0806000C0808000C080A000C080C000C080E000C0A00000C0A02000C0A04000C0A06000C0A08000C0A0A000C0A0C000C0A0E000C0C00000C0C02000C0C04000C0C06000
310
C0C08000C0C0A000F0FBFF00A4A0A000808080000000FF0000FF000000FFFF00FF000000FF00FF00FFFF0000FFFFFF000000000000000000000000000000000000000000000000000000000000000000000000000000000000000000FFFFFFFFFFFFFFFF000000000000000000000000000000000000000000000000FFFFFF
310
FFFFFFFFFF000000000000000000000000000000000000000000000000FF000000000000FF000000000000000000000000000000000000000000000000FF000000000000FF000000000000000000000000000000000000000000000000FF000000000000FF000000000000000000000000000000000000000000000000FF00
310
0000000000FF000000000000000000000000000000000000000000000000FF000000000000FF000000000000000000000000000000000000000000000000FF000000000000FF000000000000000000000000000000000000000000000000FF000000000000FF000000000000000000000000000000000000000000000000FF
310
000000000000FF000000000000000000000000000000000000000000000000FF000000000000FF000000000000000000000000000000000000000000000000FF000000000000FF000000000000000000000000000000000000000000000000FF000000000000FF000000000000000000000000000000000000000000000000
310
FF000000000000FF000000000000000000000000000000000000000000000000FF000000000000FF0000000000000000000000000000000000000000000000FFFFFFFFFFFFFFFFFFFF00000000000000000000000000000000000000000000FF0000000000000000FF00000000000000000000000000000000000000000000
310
FF0000000000000000FF00000000000000000000000000000000000000000000FF0000000000000000FF00000000000000000000000000000000000000000000FF0000000000000000FF00000000000000000000000000000000000000000000FFFFFFFFFFFFFFFFFFFF000000000000000000000000000000000000000000
310
00FFFFFFFFFFFFFFFFFFFF00000000000000000000000000000000000000000000FFA4A4A4A4A4A4A4A4FF00000000000000000000000000000000000000000000FF0000000000000000FF00000000000000000000000000000000000000000000FF0000000000000000FF0000000000000000000000000000000000000000
310
0000FF0000000000000000FF00000000000000000000000000000000000000000000FF0000000000000000FF00000000000000000000000000000000000000000000FF0000000000000000FF00000000000000000000000000000000000000000000FF0000000000000000FF00000000000000000000000000000000000000
310
000000FFFFFFFFFFFFFFFFFFFF00000000000000000000000000000000000000000000000000000000000000000000000000000000000000
102
{BLKREFS
331
586
102
}
1001
ACAD
1000
DesignCenter Data
1002
{
1070
     1
1070
     4
1002
}
  0
BLOCK_RECORD
  5
587
330
1
100
AcDbSymbolTableRecord
100
AcDbBlockTableRecord
  2
3
340
0
310
2800000020000000200000000100080000000000000400000000000000000000000000000000000000000000000080000080000000808000800000008000800080800000C0C0C000C0DCC000F0CAA6000020400000206000002080000020A0000020C0000020E00000400000004020000040400000406000004080000040A0
310
000040C0000040E00000600000006020000060400000606000006080000060A0000060C0000060E00000800000008020000080400000806000008080000080A0000080C0000080E00000A0000000A0200000A0400000A0600000A0800000A0A00000A0C00000A0E00000C0000000C0200000C0400000C0600000C0800000C0
310
A00000C0C00000C0E00000E0000000E0200000E0400000E0600000E0800000E0A00000E0C00000E0E00040000000400020004000400040006000400080004000A0004000C0004000E00040200000402020004020400040206000402080004020A0004020C0004020E000404000004040200040404000404060004040800040
310
40A0004040C0004040E00040600000406020004060400040606000406080004060A0004060C0004060E00040800000408020004080400040806000408080004080A0004080C0004080E00040A0000040A0200040A0400040A0600040A0800040A0A00040A0C00040A0E00040C0000040C0200040C0400040C0600040C08000
310
40C0A00040C0C00040C0E00040E0000040E0200040E0400040E0600040E0800040E0A00040E0C00040E0E00080000000800020008000400080006000800080008000A0008000C0008000E00080200000802020008020400080206000802080008020A0008020C0008020E00080400000804020008040400080406000804080
310
008040A0008040C0008040E00080600000806020008060400080606000806080008060A0008060C0008060E00080800000808020008080400080806000808080008080A0008080C0008080E00080A0000080A0200080A0400080A0600080A0800080A0A00080A0C00080A0E00080C0000080C0200080C0400080C0600080C0
310
800080C0A00080C0C00080C0E00080E0000080E0200080E0400080E0600080E0800080E0A00080E0C00080E0E000C0000000C0002000C0004000C0006000C0008000C000A000C000C000C000E000C0200000C0202000C0204000C0206000C0208000C020A000C020C000C020E000C0400000C0402000C0404000C0406000C0
310
408000C040A000C040C000C040E000C0600000C0602000C0604000C0606000C0608000C060A000C060C000C060E000C0800000C0802000C0804000C0806000C0808000C080A000C080C000C080E000C0A00000C0A02000C0A04000C0A06000C0A08000C0A0A000C0A0C000C0A0E000C0C00000C0C02000C0C04000C0C06000
310
C0C08000C0C0A000F0FBFF00A4A0A000808080000000FF0000FF000000FFFF00FF000000FF00FF00FFFF0000FFFFFF0000000000000000000000000000000000000000000000000000000000000000000000000000000000000000000000000000000000000000000000000000000000000000000000000000000000000000
310
00000000000000000000000000000000000000000000000000000000000000000000000000000000000000000000000000000000000000000000000000000000000000000000000000000000000000000000000000000000000000000000000000000000000000000000000000000000000000000000000000000000000000
310
00000000000000000000000000000000000000000000000000000000000000000000000000000000000000000000000000000000000000000000000000000000000000000000000000000000000000000000000000000000000000000000000000000000000000000000000000000000000000000000000000000000000000
310
0000000000000000000000000000000000000000000000000000000000000000000000000000000000000000000000000000000000000000000000000000000000000000000000000000000000000000000000000000000000000000000000000000000000000000000000000000000000000000FFFFFFFFFFFFFFFFFFFFFF
310
FFFFFFFFFFFFFFFFFFFFFFFFFFFFFFFFFFFFFF0000FFFFFFFFFF0000FFFFFFFF0000FFFFFFFF0000FFFFFFFF0000FFFFFFFFFF0000FF00FFFFFF000000FFFFFF000000FFFF00000000FFFF000000FFFFFF00FF0000FFFFFFFFFFFFFFFFFFFFFFFFFFFFFFFFFFFFFFFFFFFFFFFFFFFFFFFFFFFF000000000000000000000000
310
00000000000000000000000000000000000000000000000000000000000000000000000000000000000000000000000000000000000000000000000000000000000000000000000000000000000000000000000000000000000000000000000000000000000000000000000000000000000000000000000000000000000000
310
00000000000000000000000000000000000000000000000000000000000000000000000000000000000000000000000000000000000000000000000000000000000000000000000000000000000000000000000000000000000000000000000000000000000000000000000000000000000000000000000000000000000000
310
00000000000000000000000000000000000000000000000000000000000000000000000000000000000000000000000000000000000000000000000000000000000000000000000000000000000000000000000000000000000000000000000000000000000000000000000000000000000000000000000000000000000000
310
0000000000000000000000000000000000000000000000000000000000000000000000000000000000000000000000000000000000000000
102
{BLKREFS
331
5F7
102
}
1001
ACAD
1000
DesignCenter Data
1002
{
1070
     1
1070
     4
1002
}
  0
BLOCK_RECORD
  5
5F8
330
1
100
AcDbSymbolTableRecord
100
AcDbBlockTableRecord
  2
4
340
0
310
2800000020000000200000000100080000000000000400000000000000000000000000000000000000000000000080000080000000808000800000008000800080800000C0C0C000C0DCC000F0CAA6000020400000206000002080000020A0000020C0000020E00000400000004020000040400000406000004080000040A0
310
000040C0000040E00000600000006020000060400000606000006080000060A0000060C0000060E00000800000008020000080400000806000008080000080A0000080C0000080E00000A0000000A0200000A0400000A0600000A0800000A0A00000A0C00000A0E00000C0000000C0200000C0400000C0600000C0800000C0
310
A00000C0C00000C0E00000E0000000E0200000E0400000E0600000E0800000E0A00000E0C00000E0E00040000000400020004000400040006000400080004000A0004000C0004000E00040200000402020004020400040206000402080004020A0004020C0004020E000404000004040200040404000404060004040800040
310
40A0004040C0004040E00040600000406020004060400040606000406080004060A0004060C0004060E00040800000408020004080400040806000408080004080A0004080C0004080E00040A0000040A0200040A0400040A0600040A0800040A0A00040A0C00040A0E00040C0000040C0200040C0400040C0600040C08000
310
40C0A00040C0C00040C0E00040E0000040E0200040E0400040E0600040E0800040E0A00040E0C00040E0E00080000000800020008000400080006000800080008000A0008000C0008000E00080200000802020008020400080206000802080008020A0008020C0008020E00080400000804020008040400080406000804080
310
008040A0008040C0008040E00080600000806020008060400080606000806080008060A0008060C0008060E00080800000808020008080400080806000808080008080A0008080C0008080E00080A0000080A0200080A0400080A0600080A0800080A0A00080A0C00080A0E00080C0000080C0200080C0400080C0600080C0
310
800080C0A00080C0C00080C0E00080E0000080E0200080E0400080E0600080E0800080E0A00080E0C00080E0E000C0000000C0002000C0004000C0006000C0008000C000A000C000C000C000E000C0200000C0202000C0204000C0206000C0208000C020A000C020C000C020E000C0400000C0402000C0404000C0406000C0
310
408000C040A000C040C000C040E000C0600000C0602000C0604000C0606000C0608000C060A000C060C000C060E000C0800000C0802000C0804000C0806000C0808000C080A000C080C000C080E000C0A00000C0A02000C0A04000C0A06000C0A08000C0A0A000C0A0C000C0A0E000C0C00000C0C02000C0C04000C0C06000
310
C0C08000C0C0A000F0FBFF00A4A0A000808080000000FF0000FF000000FFFF00FF000000FF00FF00FFFF0000FFFFFF0000000000000000000000000000000000000000000000000000000000000000000000000000000000000000000000000000000000000000000000000000000000000000000000000000000000000000
310
00000000000000000000000000000000000000000000000000000000000000000000000000000000000000000000000000000000000000000000000000000000000000000000000000000000000000000000000000000000000000000000000000000000000000000000FFFFFF000000000000000000000000000000000000
310
0000000000000000000000FFFFFFFF00000000000000000000000000000000000000000000000000000000FF0000FF00000000000000000000000000000000000000000000FFFFFFFF0000FF0000FF00000000000000000000000000000000000000000000FF0000FF0000FF00FFFF00000000000000000000000000000000
310
00FFFFFF0000FF0000FF0000FFFFFF00FFFF000000000000000000000000000000FFFF00FF00FF0000FFFFFF00FFFFFF00FF000000000000000000000000000000FF0000FF00FF00FFFF00FFFFFFFFFFFFFF000000000000000000FFFFFFFF0000FF0000FFFFFFFFFFFFFF00FF0000FF0000000000000000000000FF0000FF
310
0000FF00FFFF00FFFFFFFF0000FFFFFFFF000000000000FFFFFFFF00FF0000FF0000FFFFFF00FFFFFF00FFFFFFFFFFFFFF000000000000FFFF00FF0000FF00FFFFFF00FFFFFF00FF000000FF00FFFFFFFF000000000000FF0000FF0000FFFFFF00FFFFFFFFFFFFFFFFFFFFFF0000000000000000000000FF0000FFFFFFFFFF
310
FFFF00FF0000FF00FFFFFFFFFF0000000000000000000000FF00FFFF00FFFFFFFF0000FFFFFFFF0000000000000000000000000000000000FFFFFF00FFFFFF00FFFFFFFFFFFFFF000000000000000000000000000000FFFF00FFFFFF00FF000000FF00FFFFFFFF000000000000000000000000000000FFFFFFFFFFFFFFFFFF
310
FFFFFF0000000000000000000000000000000000000000FFFFFF0000FF00FFFFFFFFFF00000000000000000000000000000000000000000000FFFFFFFF00000000000000000000000000000000000000000000000000000000FFFFFFFF00000000000000000000000000000000000000000000000000000000FFFFFFFF0000
310
00000000000000000000000000000000000000000000000000000000000000000000000000000000000000000000000000000000000000000000000000000000000000000000000000000000000000000000000000000000000000000000000000000000000000000000000000000000000000000000000000000000000000
310
0000000000000000000000000000000000000000000000000000000000000000000000000000000000000000000000000000000000000000
102
{BLKREFS
331
68B
102
}
1001
ACAD
1000
DesignCenter Data
1002
{
1070
     1
1070
     4
1002
}
  0
ENDTAB
  0
ENDSEC
  0
SECTION
  2
BLOCKS
  0
BLOCK
  5
20
330
1F
100
AcDbEntity
  8
0
100
AcDbBlockBegin
  2
*Model_Space
 70
     0
 10
0.0
 20
0.0
 30
0.0
  3
*Model_Space
  1

  0
ENDBLK
  5
21
330
1F
100
AcDbEntity
  8
0
100
AcDbBlockEnd
  0
BLOCK
  5
D4
330
D2
100
AcDbEntity
 67
     1
  8
0
100
AcDbBlockBegin
  2
*Paper_Space
 70
     0
 10
0.0
 20
0.0
 30
0.0
  3
*Paper_Space
  1

  0
ENDBLK
  5
D5
330
D2
100
AcDbEntity
 67
     1
  8
0
100
AcDbBlockEnd
  0
BLOCK
  5
D8
330
D6
100
AcDbEntity
 67
     1
  8
0
100
AcDbBlockBegin
  2
*Paper_Space0
 70
     0
 10
0.0
 20
0.0
 30
0.0
  3
*Paper_Space0
  1

  0
ENDBLK
  5
D9
330
D6
100
AcDbEntity
 67
     1
  8
0
100
AcDbBlockEnd
  0
BLOCK
  5
4E4
330
4E3
100
AcDbEntity
  8
0
100
AcDbBlockBegin
  2
1
 70
     0
 10
0.0
 20
0.0
 30
0.0
  3
1
  1

  0
ARC
  5
4E6
330
4E3
100
AcDbEntity
  8
0
  6
Continuous
 62
     7
370
    15
100
AcDbCircle
 10
2424.366071423794
 20
987.7928405526281
 30
0.0
 40
0.200000000000017
100
AcDbArc
 50
180.0
 51
270.0
  0
ARC
  5
4E7
330
4E3
100
AcDbEntity
  8
0
  6
Continuous
 62
     7
370
    15
100
AcDbCircle
 10
2430.816071423793
 20
987.7928405526281
 30
0.0
 40
0.1999999999999886
100
AcDbArc
 50
270.0
 51
0.0
  0
ARC
  5
4E8
330
4E3
100
AcDbEntity
  8
0
  6
Continuous
 62
     7
370
    15
100
AcDbCircle
 10
2439.366071423795
 20
987.7928405526281
 30
0.0
 40
0.200000000000017
100
AcDbArc
 50
180.0
 51
270.0
  0
ARC
  5
4E9
330
4E3
100
AcDbEntity
  8
0
  6
Continuous
 62
     7
370
    15
100
AcDbCircle
 10
2445.816071423795
 20
987.7928405526281
 30
0.0
 40
0.1999999999999886
100
AcDbArc
 50
270.0
 51
0.0
  0
ARC
  5
4EA
330
4E3
100
AcDbEntity
  8
0
  6
Continuous
 62
     7
370
    15
100
AcDbCircle
 10
2454.366071423795
 20
987.7928405526281
 30
0.0
 40
0.200000000000017
100
AcDbArc
 50
180.0
 51
270.0
  0
ARC
  5
4EB
330
4E3
100
AcDbEntity
  8
0
  6
Continuous
 62
     7
370
    15
100
AcDbCircle
 10
2460.816071423795
 20
987.7928405526281
 30
0.0
 40
0.200000000000017
100
AcDbArc
 50
270.0
 51
0.0
  0
ARC
  5
4EC
330
4E3
100
AcDbEntity
  8
0
  6
Continuous
 62
     7
370
    15
100
AcDbCircle
 10
2469.366071423795
 20
987.7928405526281
 30
0.0
 40
0.200000000000017
100
AcDbArc
 50
180.0
 51
270.0
  0
ARC
  5
4ED
330
4E3
100
AcDbEntity
  8
0
  6
Continuous
 62
     7
370
    15
100
AcDbCircle
 10
2475.816071423795
 20
987.7928405526281
 30
0.0
 40
0.1999999999999886
100
AcDbArc
 50
270.0
 51
0.0
  0
ARC
  5
4EE
330
4E3
100
AcDbEntity
  8
0
  6
Continuous
 62
     7
370
    15
100
AcDbCircle
 10
2484.366071423795
 20
987.7928405526281
 30
0.0
 40
0.1999999999999886
100
AcDbArc
 50
180.0
 51
270.0
  0
ARC
  5
4EF
330
4E3
100
AcDbEntity
  8
0
  6
Continuous
 62
     7
370
    15
100
AcDbCircle
 10
2490.816071423795
 20
987.7928405526281
 30
0.0
 40
0.1999999999999886
100
AcDbArc
 50
270.0
 51
0.0
  0
LINE
  5
4F0
330
4E3
100
AcDbEntity
  8
0
  6
Continuous
 62
     7
370
    15
100
AcDbLine
 10
2431.016071423793
 20
987.7928405526281
 30
0.0
 11
2431.016071423793
 21
992.9928405526281
 31
0.0
  0
LINE
  5
4F1
330
4E3
100
AcDbEntity
  8
0
  6
Continuous
 62
     7
370
    15
100
AcDbLine
 10
2424.166071423794
 20
992.9928405526281
 30
0.0
 11
2424.166071423794
 21
987.7928405526281
 31
0.0
  0
LINE
  5
4F2
330
4E3
100
AcDbEntity
  8
0
  6
Continuous
 62
     7
370
    15
100
AcDbLine
 10
2446.016071423795
 20
987.7928405526281
 30
0.0
 11
2446.016071423795
 21
992.9928405526281
 31
0.0
  0
LINE
  5
4F3
330
4E3
100
AcDbEntity
  8
0
  6
Continuous
 62
     7
370
    15
100
AcDbLine
 10
2439.166071423795
 20
992.9928405526281
 30
0.0
 11
2439.166071423795
 21
987.7928405526281
 31
0.0
  0
LINE
  5
4F4
330
4E3
100
AcDbEntity
  8
0
  6
Continuous
 62
     7
370
    15
100
AcDbLine
 10
2461.016071423795
 20
987.7928405526281
 30
0.0
 11
2461.016071423795
 21
992.9928405526281
 31
0.0
  0
LINE
  5
4F5
330
4E3
100
AcDbEntity
  8
0
  6
Continuous
 62
     7
370
    15
100
AcDbLine
 10
2454.166071423795
 20
992.9928405526281
 30
0.0
 11
2454.166071423795
 21
987.7928405526281
 31
0.0
  0
LINE
  5
4F6
330
4E3
100
AcDbEntity
  8
0
  6
Continuous
 62
     7
370
    15
100
AcDbLine
 10
2476.016071423794
 20
987.7928405526281
 30
0.0
 11
2476.016071423794
 21
992.9928405526281
 31
0.0
  0
LINE
  5
4F7
330
4E3
100
AcDbEntity
  8
0
  6
Continuous
 62
     7
370
    15
100
AcDbLine
 10
2469.166071423795
 20
992.9928405526281
 30
0.0
 11
2469.166071423795
 21
987.7928405526281
 31
0.0
  0
LINE
  5
4F8
330
4E3
100
AcDbEntity
  8
0
  6
Continuous
 62
     7
370
    15
100
AcDbLine
 10
2491.016071423795
 20
987.7928405526281
 30
0.0
 11
2491.016071423795
 21
992.9928405526281
 31
0.0
  0
LINE
  5
4F9
330
4E3
100
AcDbEntity
  8
0
  6
Continuous
 62
     7
370
    15
100
AcDbLine
 10
2484.166071423795
 20
992.9928405526281
 30
0.0
 11
2484.166071423795
 21
987.7928405526281
 31
0.0
  0
LINE
  5
4FA
330
4E3
100
AcDbEntity
  8
0
  6
Continuous
 62
     7
370
    15
100
AcDbLine
 10
2430.589393817204
 20
971.9928405526282
 30
0.0
 11
2430.589393817204
 21
982.6928405526643
 31
0.0
  0
LINE
  5
4FB
330
4E3
100
AcDbEntity
  8
0
  6
Continuous
 62
     7
370
    15
100
AcDbLine
 10
2424.589393817204
 20
982.6928405526643
 30
0.0
 11
2424.589393817204
 21
971.9928405526282
 31
0.0
  0
LINE
  5
4FC
330
4E3
100
AcDbEntity
  8
0
  6
Continuous
 62
     7
370
    15
100
AcDbLine
 10
2430.589393817253
 20
982.6928405526643
 30
0.0
 11
2430.489393817215
 21
982.7928405526455
 31
0.0
  0
LINE
  5
4FD
330
4E3
100
AcDbEntity
  8
0
  6
Continuous
 62
     7
370
    15
100
AcDbLine
 10
2424.689393817193
 20
982.7928405526455
 30
0.0
 11
2424.589393817155
 21
982.6928405526643
 31
0.0
  0
LINE
  5
4FE
330
4E3
100
AcDbEntity
  8
0
  6
Continuous
 62
     7
370
    15
100
AcDbLine
 10
2445.592749030384
 20
971.9928405526282
 30
0.0
 11
2445.592749030384
 21
982.6928405526643
 31
0.0
  0
LINE
  5
4FF
330
4E3
100
AcDbEntity
  8
0
  6
Continuous
 62
     7
370
    15
100
AcDbLine
 10
2439.592749030384
 20
982.6928405526643
 30
0.0
 11
2439.592749030384
 21
971.9928405526282
 31
0.0
  0
LINE
  5
500
330
4E3
100
AcDbEntity
  8
0
  6
Continuous
 62
     7
370
    15
100
AcDbLine
 10
2445.592749030433
 20
982.6928405526643
 30
0.0
 11
2445.492749030395
 21
982.7928405526455
 31
0.0
  0
LINE
  5
501
330
4E3
100
AcDbEntity
  8
0
  6
Continuous
 62
     7
370
    15
100
AcDbLine
 10
2439.692749030373
 20
982.7928405526455
 30
0.0
 11
2439.592749030335
 21
982.6928405526643
 31
0.0
  0
LINE
  5
502
330
4E3
100
AcDbEntity
  8
0
  6
Continuous
 62
     7
370
    15
100
AcDbLine
 10
2460.592749030433
 20
982.6928405526643
 30
0.0
 11
2460.492749030395
 21
982.7928405526455
 31
0.0
  0
LINE
  5
503
330
4E3
100
AcDbEntity
  8
0
  6
Continuous
 62
     7
370
    15
100
AcDbLine
 10
2454.692749030373
 20
982.7928405526455
 30
0.0
 11
2454.592749030335
 21
982.6928405526643
 31
0.0
  0
LINE
  5
504
330
4E3
100
AcDbEntity
  8
0
  6
Continuous
 62
     7
370
    15
100
AcDbLine
 10
2460.592749030384
 20
971.9928405526282
 30
0.0
 11
2460.592749030384
 21
982.6928405526643
 31
0.0
  0
LINE
  5
505
330
4E3
100
AcDbEntity
  8
0
  6
Continuous
 62
     7
370
    15
100
AcDbLine
 10
2454.592749030384
 20
982.6928405526643
 30
0.0
 11
2454.592749030384
 21
971.9928405526282
 31
0.0
  0
LINE
  5
506
330
4E3
100
AcDbEntity
  8
0
  6
Continuous
 62
     7
370
    15
100
AcDbLine
 10
2475.592749030433
 20
982.6928405526643
 30
0.0
 11
2475.492749030395
 21
982.7928405526455
 31
0.0
  0
LINE
  5
507
330
4E3
100
AcDbEntity
  8
0
  6
Continuous
 62
     7
370
    15
100
AcDbLine
 10
2469.692749030373
 20
982.7928405526455
 30
0.0
 11
2469.592749030335
 21
982.6928405526643
 31
0.0
  0
LINE
  5
508
330
4E3
100
AcDbEntity
  8
0
  6
Continuous
 62
     7
370
    15
100
AcDbLine
 10
2475.592749030384
 20
971.9928405526282
 30
0.0
 11
2475.592749030384
 21
982.6928405526643
 31
0.0
  0
LINE
  5
509
330
4E3
100
AcDbEntity
  8
0
  6
Continuous
 62
     7
370
    15
100
AcDbLine
 10
2469.592749030384
 20
982.6928405526643
 30
0.0
 11
2469.592749030384
 21
971.9928405526282
 31
0.0
  0
LINE
  5
50A
330
4E3
100
AcDbEntity
  8
0
  6
Continuous
 62
     7
370
    15
100
AcDbLine
 10
2490.592749030384
 20
971.9928405526282
 30
0.0
 11
2490.592749030384
 21
982.6928405526643
 31
0.0
  0
LINE
  5
50B
330
4E3
100
AcDbEntity
  8
0
  6
Continuous
 62
     7
370
    15
100
AcDbLine
 10
2484.592749030384
 20
982.6928405526643
 30
0.0
 11
2484.592749030384
 21
971.9928405526282
 31
0.0
  0
LINE
  5
50C
330
4E3
100
AcDbEntity
  8
0
  6
Continuous
 62
     7
370
    15
100
AcDbLine
 10
2490.592749030433
 20
982.6928405526643
 30
0.0
 11
2490.492749030395
 21
982.7928405526455
 31
0.0
  0
LINE
  5
50D
330
4E3
100
AcDbEntity
  8
0
  6
Continuous
 62
     7
370
    15
100
AcDbLine
 10
2484.692749030373
 20
982.7928405526455
 30
0.0
 11
2484.592749030335
 21
982.6928405526643
 31
0.0
  0
LINE
  5
50E
330
4E3
100
AcDbEntity
  8
0
  6
Continuous
 62
     7
370
    15
100
AcDbLine
 10
2430.591071423793
 20
986.692840552628
 30
0.0
 11
2430.591071423793
 21
987.5928405526281
 31
0.0
  0
LINE
  5
50F
330
4E3
100
AcDbEntity
  8
0
  6
Continuous
 62
     7
370
    15
100
AcDbLine
 10
2424.591071423793
 20
987.5928405526281
 30
0.0
 11
2424.591071423793
 21
986.692840552628
 31
0.0
  0
LINE
  5
510
330
4E3
100
AcDbEntity
  8
0
  6
Continuous
 62
     7
370
    15
100
AcDbLine
 10
2424.589393817218
 20
971.9928405526282
 30
0.0
 11
2424.789393817174
 21
971.792840552672
 31
0.0
  0
LINE
  5
511
330
4E3
100
AcDbEntity
  8
0
  6
Continuous
 62
     7
370
    15
100
AcDbLine
 10
2430.389393817234
 20
971.792840552672
 30
0.0
 11
2430.58939381719
 21
971.9928405526282
 31
0.0
  0
LINE
  5
512
330
4E3
100
AcDbEntity
  8
0
  6
Continuous
 62
     7
370
    15
100
AcDbLine
 10
2445.591071423795
 20
986.692840552628
 30
0.0
 11
2445.591071423795
 21
987.5928405526281
 31
0.0
  0
LINE
  5
513
330
4E3
100
AcDbEntity
  8
0
  6
Continuous
 62
     7
370
    15
100
AcDbLine
 10
2439.591071423795
 20
987.5928405526281
 30
0.0
 11
2439.591071423795
 21
986.692840552628
 31
0.0
  0
LINE
  5
514
330
4E3
100
AcDbEntity
  8
0
  6
Continuous
 62
     7
370
    15
100
AcDbLine
 10
2439.592749030398
 20
971.9928405526282
 30
0.0
 11
2439.792749030354
 21
971.792840552672
 31
0.0
  0
LINE
  5
515
330
4E3
100
AcDbEntity
  8
0
  6
Continuous
 62
     7
370
    15
100
AcDbLine
 10
2445.392749030414
 20
971.792840552672
 30
0.0
 11
2445.59274903037
 21
971.9928405526282
 31
0.0
  0
LINE
  5
516
330
4E3
100
AcDbEntity
  8
0
  6
Continuous
 62
     7
370
    15
100
AcDbLine
 10
2460.591071423795
 20
986.692840552628
 30
0.0
 11
2460.591071423795
 21
987.5928405526281
 31
0.0
  0
LINE
  5
517
330
4E3
100
AcDbEntity
  8
0
  6
Continuous
 62
     7
370
    15
100
AcDbLine
 10
2454.591071423795
 20
987.5928405526281
 30
0.0
 11
2454.591071423795
 21
986.692840552628
 31
0.0
  0
LINE
  5
518
330
4E3
100
AcDbEntity
  8
0
  6
Continuous
 62
     7
370
    15
100
AcDbLine
 10
2454.592749030398
 20
971.9928405526282
 30
0.0
 11
2454.792749030354
 21
971.792840552672
 31
0.0
  0
LINE
  5
519
330
4E3
100
AcDbEntity
  8
0
  6
Continuous
 62
     7
370
    15
100
AcDbLine
 10
2460.392749030414
 20
971.792840552672
 30
0.0
 11
2460.59274903037
 21
971.9928405526282
 31
0.0
  0
LINE
  5
51A
330
4E3
100
AcDbEntity
  8
0
  6
Continuous
 62
     7
370
    15
100
AcDbLine
 10
2469.592749030398
 20
971.9928405526282
 30
0.0
 11
2469.792749030354
 21
971.792840552672
 31
0.0
  0
LINE
  5
51B
330
4E3
100
AcDbEntity
  8
0
  6
Continuous
 62
     7
370
    15
100
AcDbLine
 10
2475.392749030414
 20
971.792840552672
 30
0.0
 11
2475.59274903037
 21
971.9928405526282
 31
0.0
  0
LINE
  5
51C
330
4E3
100
AcDbEntity
  8
0
  6
Continuous
 62
     7
370
    15
100
AcDbLine
 10
2475.591071423795
 20
986.692840552628
 30
0.0
 11
2475.591071423795
 21
987.5928405526281
 31
0.0
  0
LINE
  5
51D
330
4E3
100
AcDbEntity
  8
0
  6
Continuous
 62
     7
370
    15
100
AcDbLine
 10
2469.591071423795
 20
987.5928405526281
 30
0.0
 11
2469.591071423795
 21
986.692840552628
 31
0.0
  0
LINE
  5
51E
330
4E3
100
AcDbEntity
  8
0
  6
Continuous
 62
     7
370
    15
100
AcDbLine
 10
2490.591071423795
 20
986.692840552628
 30
0.0
 11
2490.591071423795
 21
987.5928405526281
 31
0.0
  0
LINE
  5
51F
330
4E3
100
AcDbEntity
  8
0
  6
Continuous
 62
     7
370
    15
100
AcDbLine
 10
2484.591071423795
 20
987.5928405526281
 30
0.0
 11
2484.591071423795
 21
986.692840552628
 31
0.0
  0
LINE
  5
520
330
4E3
100
AcDbEntity
  8
0
  6
Continuous
 62
     7
370
    15
100
AcDbLine
 10
2484.592749030398
 20
971.9928405526282
 30
0.0
 11
2484.792749030354
 21
971.792840552672
 31
0.0
  0
LINE
  5
521
330
4E3
100
AcDbEntity
  8
0
  6
Continuous
 62
     7
370
    15
100
AcDbLine
 10
2490.392749030414
 20
971.792840552672
 30
0.0
 11
2490.59274903037
 21
971.9928405526282
 31
0.0
  0
LINE
  5
522
330
4E3
100
AcDbEntity
  8
0
  6
Continuous
 62
     7
370
    15
100
AcDbLine
 10
2424.091071423791
 20
986.692840552628
 30
0.0
 11
2431.091071423795
 21
986.692840552628
 31
0.0
  0
LINE
  5
523
330
4E3
100
AcDbEntity
  8
0
  6
Continuous
 62
     7
370
    15
100
AcDbLine
 10
2431.091071423795
 20
982.792840552628
 30
0.0
 11
2431.091071423795
 21
986.692840552628
 31
0.0
  0
LINE
  5
524
330
4E3
100
AcDbEntity
  8
0
  6
Continuous
 62
     7
370
    15
100
AcDbLine
 10
2424.091071423791
 20
986.692840552628
 30
0.0
 11
2424.091071423793
 21
982.792840552628
 31
0.0
  0
LINE
  5
525
330
4E3
100
AcDbEntity
  8
0
  6
Continuous
 62
     7
370
    15
100
AcDbLine
 10
2424.091071423793
 20
982.792840552628
 30
0.0
 11
2431.091071423795
 21
982.792840552628
 31
0.0
  0
LINE
  5
526
330
4E3
100
AcDbEntity
  8
0
  6
Continuous
 62
     7
370
    15
100
AcDbLine
 10
2439.091071423793
 20
982.792840552628
 30
0.0
 11
2439.091071423793
 21
986.692840552628
 31
0.0
  0
LINE
  5
527
330
4E3
100
AcDbEntity
  8
0
  6
Continuous
 62
     7
370
    15
100
AcDbLine
 10
2446.091071423795
 20
986.692840552628
 30
0.0
 11
2446.091071423796
 21
982.792840552628
 31
0.0
  0
LINE
  5
528
330
4E3
100
AcDbEntity
  8
0
  6
Continuous
 62
     7
370
    15
100
AcDbLine
 10
2446.091071423795
 20
986.692840552628
 30
0.0
 11
2439.091071423793
 21
986.692840552628
 31
0.0
  0
LINE
  5
529
330
4E3
100
AcDbEntity
  8
0
  6
Continuous
 62
     7
370
    15
100
AcDbLine
 10
2446.091071423796
 20
982.792840552628
 30
0.0
 11
2439.091071423793
 21
982.792840552628
 31
0.0
  0
LINE
  5
52A
330
4E3
100
AcDbEntity
  8
0
  6
Continuous
 62
     7
370
    15
100
AcDbLine
 10
2454.091071423793
 20
982.792840552628
 30
0.0
 11
2454.091071423793
 21
986.692840552628
 31
0.0
  0
LINE
  5
52B
330
4E3
100
AcDbEntity
  8
0
  6
Continuous
 62
     7
370
    15
100
AcDbLine
 10
2461.091071423797
 20
986.692840552628
 30
0.0
 11
2461.091071423795
 21
982.792840552628
 31
0.0
  0
LINE
  5
52C
330
4E3
100
AcDbEntity
  8
0
  6
Continuous
 62
     7
370
    15
100
AcDbLine
 10
2461.091071423797
 20
986.692840552628
 30
0.0
 11
2454.091071423793
 21
986.692840552628
 31
0.0
  0
LINE
  5
52D
330
4E3
100
AcDbEntity
  8
0
  6
Continuous
 62
     7
370
    15
100
AcDbLine
 10
2461.091071423795
 20
982.792840552628
 30
0.0
 11
2454.091071423793
 21
982.792840552628
 31
0.0
  0
LINE
  5
52E
330
4E3
100
AcDbEntity
  8
0
  6
Continuous
 62
     7
370
    15
100
AcDbLine
 10
2469.091071423793
 20
982.792840552628
 30
0.0
 11
2469.091071423793
 21
986.692840552628
 31
0.0
  0
LINE
  5
52F
330
4E3
100
AcDbEntity
  8
0
  6
Continuous
 62
     7
370
    15
100
AcDbLine
 10
2476.091071423797
 20
986.692840552628
 30
0.0
 11
2476.091071423795
 21
982.792840552628
 31
0.0
  0
LINE
  5
530
330
4E3
100
AcDbEntity
  8
0
  6
Continuous
 62
     7
370
    15
100
AcDbLine
 10
2476.091071423797
 20
986.692840552628
 30
0.0
 11
2469.091071423793
 21
986.692840552628
 31
0.0
  0
LINE
  5
531
330
4E3
100
AcDbEntity
  8
0
  6
Continuous
 62
     7
370
    15
100
AcDbLine
 10
2476.091071423795
 20
982.792840552628
 30
0.0
 11
2469.091071423793
 21
982.792840552628
 31
0.0
  0
LINE
  5
532
330
4E3
100
AcDbEntity
  8
0
  6
Continuous
 62
     7
370
    15
100
AcDbLine
 10
2484.091071423793
 20
982.792840552628
 30
0.0
 11
2484.091071423793
 21
986.692840552628
 31
0.0
  0
LINE
  5
533
330
4E3
100
AcDbEntity
  8
0
  6
Continuous
 62
     7
370
    15
100
AcDbLine
 10
2491.091071423797
 20
986.692840552628
 30
0.0
 11
2491.091071423795
 21
982.792840552628
 31
0.0
  0
LINE
  5
534
330
4E3
100
AcDbEntity
  8
0
  6
Continuous
 62
     7
370
    15
100
AcDbLine
 10
2491.091071423797
 20
986.692840552628
 30
0.0
 11
2484.091071423793
 21
986.692840552628
 31
0.0
  0
LINE
  5
535
330
4E3
100
AcDbEntity
  8
0
  6
Continuous
 62
     7
370
    15
100
AcDbLine
 10
2491.091071423795
 20
982.792840552628
 30
0.0
 11
2484.091071423793
 21
982.792840552628
 31
0.0
  0
SPLINE
  5
536
330
4E3
100
AcDbEntity
  8
0
  6
Continuous
 62
     7
370
    15
100
AcDbSpline
210
0.0
220
0.0
230
1.0
 70
    24
 71
     3
 72
    10
 73
     6
 74
     0
 42
0.0000000001
 43
0.0000000001
 40
0.0
 40
0.0
 40
0.0
 40
0.0
 40
0.5
 40
0.5
 40
1.0
 40
1.0
 40
1.0
 40
1.0
 10
2424.366071423794
 20
987.5928405526281
 30
0.0
 10
2424.366071423794
 20
987.5928405526281
 30
0.0
 10
2425.811145516791
 20
987.5928405526281
 30
0.0
 10
2429.370997330795
 20
987.5928405526281
 30
0.0
 10
2430.816071423793
 20
987.5928405526281
 30
0.0
 10
2430.816071423793
 20
987.5928405526281
 30
0.0
  0
SPLINE
  5
537
330
4E3
100
AcDbEntity
  8
0
  6
Continuous
 62
     7
370
    15
100
AcDbSpline
210
0.0
220
0.0
230
1.0
 70
    24
 71
     3
 72
    30
 73
    26
 74
     0
 42
0.0000000001
 43
0.0000000001
 40
0.0
 40
0.0
 40
0.0
 40
0.0
 40
0.0172934937130203
 40
0.0344596655377185
 40
0.0515480950579254
 40
0.068609039634892
 40
0.0856929991960945
 40
0.1028502704464566
 40
0.1201305099490629
 40
0.1850828601801404
 40
0.2500881522292469
 40
0.3150405262905461
 40
0.3800458421887532
 40
0.4400038891296366
 40
0.5000143502049812
 40
0.55997241137046
 40
0.6199828837922907
 40
0.6849352340234343
 40
0.7499405260724737
 40
0.8148929001337954
 40
0.8798982160319786
 40
0.910029097664276
 40
0.9399097371916235
 40
0.9698101950927375
 40
1.0
 40
1.0
 40
1.0
 40
1.0
 10
2445.816071423795
 20
987.5928405526281
 30
0.0
 10
2445.815172358772
 20
987.5928405526281
 30
0.0
 10
2445.813380848017
 20
987.5928405526281
 30
0.0
 10
2445.798979400478
 20
987.5928405526281
 30
0.0
 10
2445.775974511065
 20
987.5928405526281
 30
0.0
 10
2445.743542466494
 20
987.5928405526281
 30
0.0
 10
2445.701907568564
 20
987.5928405526281
 30
0.0
 10
2445.650996756789
 20
987.5928405526281
 30
0.0
 10
2445.535865473891
 20
987.5928405526281
 30
0.0
 10
2445.306545511099
 20
987.5928405526281
 30
0.0
 10
2444.887049206898
 20
987.5928405526281
 30
0.0
 10
2444.374834624786
 20
987.5928405526281
 30
0.0
 10
2443.801401914349
 20
987.5928405526281
 30
0.0
 10
2443.199210469313
 20
987.5928405526281
 30
0.0
 10
2442.591247820879
 20
987.5928405526281
 30
0.0
 10
2441.983111983698
 20
987.5928405526281
 30
0.0
 10
2441.381070760952
 20
987.5928405526281
 30
0.0
 10
2440.807462262407
 20
987.5928405526281
 30
0.0
 10
2440.295359548999
 20
987.5928405526281
 30
0.0
 10
2439.8756441323
 20
987.5928405526281
 30
0.0
 10
2439.626472234443
 20
987.5928405526281
 30
0.0
 10
2439.489060225657
 20
987.5928405526281
 30
0.0
 10
2439.418349263336
 20
987.5928405526281
 30
0.0
 10
2439.374194312986
 20
987.5928405526281
 30
0.0
 10
2439.36878773146
 20
987.5928405526281
 30
0.0
 10
2439.366071423795
 20
987.5928405526281
 30
0.0
  0
SPLINE
  5
538
330
4E3
100
AcDbEntity
  8
0
  6
Continuous
 62
     7
370
    15
100
AcDbSpline
210
0.0
220
0.0
230
1.0
 70
    24
 71
     3
 72
    30
 73
    26
 74
     0
 42
0.0000000001
 43
0.0000000001
 40
0.0
 40
0.0
 40
0.0
 40
0.0
 40
0.0172934937130203
 40
0.0344596655377185
 40
0.0515480950579254
 40
0.0686090396348921
 40
0.0856929991960945
 40
0.1028502704464567
 40
0.120130509949063
 40
0.1850828601801405
 40
0.250088152229247
 40
0.3150405262905462
 40
0.3800458421887532
 40
0.4400038891296367
 40
0.5000143502049813
 40
0.55997241137046
 40
0.6199828837922908
 40
0.6849352340234343
 40
0.7499405260724737
 40
0.8148929001337954
 40
0.8798982160319788
 40
0.910029097664276
 40
0.9399097371916235
 40
0.9698101950927375
 40
1.0
 40
1.0
 40
1.0
 40
1.0
 10
2460.816071423795
 20
987.5928405526281
 30
0.0
 10
2460.815172358772
 20
987.5928405526281
 30
0.0
 10
2460.813380848017
 20
987.5928405526281
 30
0.0
 10
2460.798979400478
 20
987.5928405526281
 30
0.0
 10
2460.775974511065
 20
987.5928405526281
 30
0.0
 10
2460.743542466494
 20
987.5928405526281
 30
0.0
 10
2460.701907568564
 20
987.5928405526281
 30
0.0
 10
2460.650996756789
 20
987.5928405526281
 30
0.0
 10
2460.535865473891
 20
987.5928405526281
 30
0.0
 10
2460.306545511099
 20
987.5928405526281
 30
0.0
 10
2459.887049206897
 20
987.5928405526281
 30
0.0
 10
2459.374834624786
 20
987.5928405526281
 30
0.0
 10
2458.801401914349
 20
987.5928405526281
 30
0.0
 10
2458.199210469313
 20
987.5928405526281
 30
0.0
 10
2457.591247820879
 20
987.5928405526281
 30
0.0
 10
2456.983111983698
 20
987.5928405526281
 30
0.0
 10
2456.381070760953
 20
987.5928405526281
 30
0.0
 10
2455.807462262407
 20
987.5928405526281
 30
0.0
 10
2455.295359548999
 20
987.5928405526281
 30
0.0
 10
2454.8756441323
 20
987.5928405526281
 30
0.0
 10
2454.626472234443
 20
987.5928405526281
 30
0.0
 10
2454.489060225657
 20
987.5928405526281
 30
0.0
 10
2454.418349263336
 20
987.5928405526281
 30
0.0
 10
2454.374194312985
 20
987.5928405526281
 30
0.0
 10
2454.36878773146
 20
987.5928405526281
 30
0.0
 10
2454.366071423795
 20
987.5928405526281
 30
0.0
  0
SPLINE
  5
539
330
4E3
100
AcDbEntity
  8
0
  6
Continuous
 62
     7
370
    15
100
AcDbSpline
210
0.0
220
0.0
230
1.0
 70
    24
 71
     3
 72
    30
 73
    26
 74
     0
 42
0.0000000001
 43
0.0000000001
 40
0.0
 40
0.0
 40
0.0
 40
0.0
 40
0.0172934937130203
 40
0.0344596655377185
 40
0.0515480950579254
 40
0.0686090396348921
 40
0.0856929991960945
 40
0.1028502704464567
 40
0.120130509949063
 40
0.1850828601801405
 40
0.2500881522292471
 40
0.3150405262905462
 40
0.3800458421887533
 40
0.4400038891296368
 40
0.5000143502049815
 40
0.5599724113704601
 40
0.619982883792291
 40
0.6849352340234346
 40
0.7499405260724741
 40
0.8148929001337954
 40
0.8798982160319791
 40
0.9100290976642764
 40
0.9399097371916237
 40
0.9698101950927377
 40
1.0
 40
1.0
 40
1.0
 40
1.0
 10
2475.816071423795
 20
987.5928405526281
 30
0.0
 10
2475.815172358772
 20
987.5928405526281
 30
0.0
 10
2475.813380848017
 20
987.5928405526281
 30
0.0
 10
2475.798979400478
 20
987.5928405526281
 30
0.0
 10
2475.775974511066
 20
987.5928405526281
 30
0.0
 10
2475.743542466494
 20
987.5928405526281
 30
0.0
 10
2475.701907568564
 20
987.5928405526281
 30
0.0
 10
2475.650996756789
 20
987.5928405526281
 30
0.0
 10
2475.535865473891
 20
987.5928405526281
 30
0.0
 10
2475.306545511099
 20
987.5928405526281
 30
0.0
 10
2474.887049206897
 20
987.5928405526281
 30
0.0
 10
2474.374834624786
 20
987.5928405526281
 30
0.0
 10
2473.801401914349
 20
987.5928405526281
 30
0.0
 10
2473.199210469313
 20
987.5928405526281
 30
0.0
 10
2472.591247820878
 20
987.5928405526281
 30
0.0
 10
2471.983111983699
 20
987.5928405526281
 30
0.0
 10
2471.381070760953
 20
987.5928405526281
 30
0.0
 10
2470.807462262407
 20
987.5928405526281
 30
0.0
 10
2470.295359548999
 20
987.5928405526281
 30
0.0
 10
2469.8756441323
 20
987.5928405526281
 30
0.0
 10
2469.626472234443
 20
987.5928405526281
 30
0.0
 10
2469.489060225657
 20
987.5928405526281
 30
0.0
 10
2469.418349263336
 20
987.5928405526281
 30
0.0
 10
2469.374194312985
 20
987.5928405526281
 30
0.0
 10
2469.36878773146
 20
987.5928405526281
 30
0.0
 10
2469.366071423795
 20
987.5928405526281
 30
0.0
  0
SPLINE
  5
53A
330
4E3
100
AcDbEntity
  8
0
  6
Continuous
 62
     7
370
    15
100
AcDbSpline
210
0.0
220
0.0
230
1.0
 70
    24
 71
     3
 72
    30
 73
    26
 74
     0
 42
0.0000000001
 43
0.0000000001
 40
0.0
 40
0.0
 40
0.0
 40
0.0
 40
0.0172934937130203
 40
0.0344596655377184
 40
0.0515480950579255
 40
0.0686090396348921
 40
0.0856929991960945
 40
0.1028502704464566
 40
0.1201305099490631
 40
0.1850828601801403
 40
0.2500881522292468
 40
0.315040526290546
 40
0.3800458421887531
 40
0.4400038891296365
 40
0.5000143502049812
 40
0.55997241137046
 40
0.6199828837922908
 40
0.6849352340234343
 40
0.7499405260724739
 40
0.8148929001337952
 40
0.8798982160319789
 40
0.9100290976642762
 40
0.9399097371916237
 40
0.9698101950927377
 40
1.0
 40
1.0
 40
1.0
 40
1.0
 10
2490.816071423795
 20
987.5928405526281
 30
0.0
 10
2490.815172358772
 20
987.5928405526281
 30
0.0
 10
2490.813380848017
 20
987.5928405526281
 30
0.0
 10
2490.798979400478
 20
987.5928405526281
 30
0.0
 10
2490.775974511065
 20
987.5928405526281
 30
0.0
 10
2490.743542466494
 20
987.5928405526281
 30
0.0
 10
2490.701907568564
 20
987.5928405526281
 30
0.0
 10
2490.650996756789
 20
987.5928405526281
 30
0.0
 10
2490.535865473891
 20
987.5928405526281
 30
0.0
 10
2490.306545511099
 20
987.5928405526281
 30
0.0
 10
2489.887049206898
 20
987.5928405526281
 30
0.0
 10
2489.374834624786
 20
987.5928405526281
 30
0.0
 10
2488.801401914349
 20
987.5928405526281
 30
0.0
 10
2488.199210469313
 20
987.5928405526281
 30
0.0
 10
2487.591247820879
 20
987.5928405526281
 30
0.0
 10
2486.983111983698
 20
987.5928405526281
 30
0.0
 10
2486.381070760952
 20
987.5928405526281
 30
0.0
 10
2485.807462262407
 20
987.5928405526281
 30
0.0
 10
2485.295359548999
 20
987.5928405526281
 30
0.0
 10
2484.8756441323
 20
987.5928405526281
 30
0.0
 10
2484.626472234443
 20
987.5928405526281
 30
0.0
 10
2484.489060225657
 20
987.5928405526281
 30
0.0
 10
2484.418349263336
 20
987.5928405526281
 30
0.0
 10
2484.374194312986
 20
987.5928405526281
 30
0.0
 10
2484.36878773146
 20
987.5928405526281
 30
0.0
 10
2484.366071423795
 20
987.5928405526281
 30
0.0
  0
LINE
  5
53B
330
4E3
100
AcDbEntity
  8
0
  6
Continuous
 62
     7
370
    15
100
AcDbLine
 10
2431.016071423793
 20
992.9928405526281
 30
0.0
 11
2424.166071423794
 21
992.9928405526281
 31
0.0
  0
LINE
  5
53C
330
4E3
100
AcDbEntity
  8
0
  6
Continuous
 62
     7
370
    15
100
AcDbLine
 10
2439.166071423795
 20
992.9928405526281
 30
0.0
 11
2446.016071423795
 21
992.9928405526281
 31
0.0
  0
LINE
  5
53D
330
4E3
100
AcDbEntity
  8
0
  6
Continuous
 62
     7
370
    15
100
AcDbLine
 10
2454.166071423795
 20
992.9928405526281
 30
0.0
 11
2461.016071423795
 21
992.9928405526281
 31
0.0
  0
LINE
  5
53E
330
4E3
100
AcDbEntity
  8
0
  6
Continuous
 62
     7
370
    15
100
AcDbLine
 10
2469.166071423795
 20
992.9928405526281
 30
0.0
 11
2476.016071423794
 21
992.9928405526281
 31
0.0
  0
LINE
  5
53F
330
4E3
100
AcDbEntity
  8
0
  6
Continuous
 62
     7
370
    15
100
AcDbLine
 10
2484.166071423795
 20
992.9928405526281
 30
0.0
 11
2491.016071423795
 21
992.9928405526281
 31
0.0
  0
LINE
  5
540
330
4E3
100
AcDbEntity
  8
0
  6
Continuous
 62
     7
370
    15
100
AcDbLine
 10
2421.891071423794
 20
986.692840552628
 30
0.0
 11
2421.891071423794
 21
982.792840552628
 31
0.0
  0
LINE
  5
541
330
4E3
100
AcDbEntity
  8
0
  6
Continuous
 62
     7
370
    15
100
AcDbLine
 10
2421.891071423794
 20
986.692840552628
 30
0.0
 11
2424.091071423791
 21
986.692840552628
 31
0.0
  0
LINE
  5
542
330
4E3
100
AcDbEntity
  8
0
  6
Continuous
 62
     7
370
    15
100
AcDbLine
 10
2424.091071423793
 20
982.792840552628
 30
0.0
 11
2421.891071423794
 21
982.792840552628
 31
0.0
  0
LINE
  5
543
330
4E3
100
AcDbEntity
  8
0
  6
Continuous
 62
     7
370
    15
100
AcDbLine
 10
2446.091071423795
 20
986.692840552628
 30
0.0
 11
2454.091071423793
 21
986.692840552628
 31
0.0
  0
LINE
  5
544
330
4E3
100
AcDbEntity
  8
0
  6
Continuous
 62
     7
370
    15
100
AcDbLine
 10
2454.091071423793
 20
982.792840552628
 30
0.0
 11
2446.091071423796
 21
982.792840552628
 31
0.0
  0
LINE
  5
545
330
4E3
100
AcDbEntity
  8
0
  6
Continuous
 62
     7
370
    15
100
AcDbLine
 10
2469.091071423793
 20
986.692840552628
 30
0.0
 11
2461.091071423797
 21
986.692840552628
 31
0.0
  0
LINE
  5
546
330
4E3
100
AcDbEntity
  8
0
  6
Continuous
 62
     7
370
    15
100
AcDbLine
 10
2461.091071423795
 20
982.792840552628
 30
0.0
 11
2469.091071423793
 21
982.792840552628
 31
0.0
  0
LINE
  5
547
330
4E3
100
AcDbEntity
  8
0
  6
Continuous
 62
     7
370
    15
100
AcDbLine
 10
2484.091071423793
 20
986.692840552628
 30
0.0
 11
2476.091071423797
 21
986.692840552628
 31
0.0
  0
LINE
  5
548
330
4E3
100
AcDbEntity
  8
0
  6
Continuous
 62
     7
370
    15
100
AcDbLine
 10
2476.091071423795
 20
982.792840552628
 30
0.0
 11
2484.091071423793
 21
982.792840552628
 31
0.0
  0
LINE
  5
549
330
4E3
100
AcDbEntity
  8
0
  6
Continuous
 62
     7
370
    15
100
AcDbLine
 10
2431.091071423795
 20
986.692840552628
 30
0.0
 11
2439.091071423793
 21
986.692840552628
 31
0.0
  0
LINE
  5
54A
330
4E3
100
AcDbEntity
  8
0
  6
Continuous
 62
     7
370
    15
100
AcDbLine
 10
2439.091071423793
 20
982.792840552628
 30
0.0
 11
2431.091071423795
 21
982.792840552628
 31
0.0
  0
LINE
  5
54B
330
4E3
100
AcDbEntity
  8
0
  6
Continuous
 62
     7
370
    15
100
AcDbLine
 10
2493.291071423795
 20
986.692840552628
 30
0.0
 11
2493.291071423795
 21
982.792840552628
 31
0.0
  0
LINE
  5
54C
330
4E3
100
AcDbEntity
  8
0
  6
Continuous
 62
     7
370
    15
100
AcDbLine
 10
2493.291071423795
 20
986.692840552628
 30
0.0
 11
2491.091071423797
 21
986.692840552628
 31
0.0
  0
LINE
  5
54D
330
4E3
100
AcDbEntity
  8
0
  6
Continuous
 62
     7
370
    15
100
AcDbLine
 10
2491.091071423795
 20
982.792840552628
 30
0.0
 11
2493.291071423795
 21
982.792840552628
 31
0.0
  0
LINE
  5
54E
330
4E3
100
AcDbEntity
  8
0
  6
Continuous
 62
     7
370
    15
100
AcDbLine
 10
2424.589393817155
 20
982.6928405526643
 30
0.0
 11
2430.589393817253
 21
982.6928405526643
 31
0.0
  0
LINE
  5
54F
330
4E3
100
AcDbEntity
  8
0
  6
Continuous
 62
     7
370
    15
100
AcDbLine
 10
2424.589393817204
 20
971.9928405526282
 30
0.0
 11
2430.589393817204
 21
971.9928405526282
 31
0.0
  0
LINE
  5
550
330
4E3
100
AcDbEntity
  8
0
  6
Continuous
 62
     7
370
    15
100
AcDbLine
 10
2445.592749030433
 20
982.6928405526643
 30
0.0
 11
2439.592749030335
 21
982.6928405526643
 31
0.0
  0
LINE
  5
551
330
4E3
100
AcDbEntity
  8
0
  6
Continuous
 62
     7
370
    15
100
AcDbLine
 10
2445.592749030384
 20
971.9928405526282
 30
0.0
 11
2439.592749030384
 21
971.9928405526282
 31
0.0
  0
LINE
  5
552
330
4E3
100
AcDbEntity
  8
0
  6
Continuous
 62
     7
370
    15
100
AcDbLine
 10
2460.592749030433
 20
982.6928405526643
 30
0.0
 11
2454.592749030335
 21
982.6928405526643
 31
0.0
  0
LINE
  5
553
330
4E3
100
AcDbEntity
  8
0
  6
Continuous
 62
     7
370
    15
100
AcDbLine
 10
2460.592749030384
 20
971.9928405526282
 30
0.0
 11
2454.592749030384
 21
971.9928405526282
 31
0.0
  0
LINE
  5
554
330
4E3
100
AcDbEntity
  8
0
  6
Continuous
 62
     7
370
    15
100
AcDbLine
 10
2475.592749030433
 20
982.6928405526643
 30
0.0
 11
2469.592749030335
 21
982.6928405526643
 31
0.0
  0
LINE
  5
555
330
4E3
100
AcDbEntity
  8
0
  6
Continuous
 62
     7
370
    15
100
AcDbLine
 10
2475.592749030384
 20
971.9928405526282
 30
0.0
 11
2469.592749030384
 21
971.9928405526282
 31
0.0
  0
LINE
  5
556
330
4E3
100
AcDbEntity
  8
0
  6
Continuous
 62
     7
370
    15
100
AcDbLine
 10
2490.592749030433
 20
982.6928405526643
 30
0.0
 11
2484.592749030335
 21
982.6928405526643
 31
0.0
  0
LINE
  5
557
330
4E3
100
AcDbEntity
  8
0
  6
Continuous
 62
     7
370
    15
100
AcDbLine
 10
2490.592749030384
 20
971.9928405526282
 30
0.0
 11
2484.592749030384
 21
971.9928405526282
 31
0.0
  0
LINE
  5
558
330
4E3
100
AcDbEntity
  8
0
  6
Continuous
 62
     7
370
    15
100
AcDbLine
 10
2424.789393817174
 20
971.792840552672
 30
0.0
 11
2430.389393817234
 21
971.792840552672
 31
0.0
  0
LINE
  5
559
330
4E3
100
AcDbEntity
  8
0
  6
Continuous
 62
     7
370
    15
100
AcDbLine
 10
2445.392749030414
 20
971.792840552672
 30
0.0
 11
2439.792749030354
 21
971.792840552672
 31
0.0
  0
LINE
  5
55A
330
4E3
100
AcDbEntity
  8
0
  6
Continuous
 62
     7
370
    15
100
AcDbLine
 10
2460.392749030414
 20
971.792840552672
 30
0.0
 11
2454.792749030354
 21
971.792840552672
 31
0.0
  0
LINE
  5
55B
330
4E3
100
AcDbEntity
  8
0
  6
Continuous
 62
     7
370
    15
100
AcDbLine
 10
2475.392749030414
 20
971.792840552672
 30
0.0
 11
2469.792749030354
 21
971.792840552672
 31
0.0
  0
LINE
  5
55C
330
4E3
100
AcDbEntity
  8
0
  6
Continuous
 62
     7
370
    15
100
AcDbLine
 10
2490.392749030414
 20
971.792840552672
 30
0.0
 11
2484.792749030354
 21
971.792840552672
 31
0.0
  0
LINE
  5
55D
330
4E3
100
AcDbEntity
  8
0
  6
Continuous
 62
     8
370
    15
100
AcDbLine
 10
2431.016071423793
 20
987.7928405526281
 30
0.0
 11
2424.166071423794
 21
987.7928405526281
 31
0.0
  0
LINE
  5
55E
330
4E3
100
AcDbEntity
  8
0
  6
Continuous
 62
     8
370
    15
100
AcDbLine
 10
2439.166071423795
 20
987.7928405526281
 30
0.0
 11
2446.016071423795
 21
987.7928405526281
 31
0.0
  0
LINE
  5
55F
330
4E3
100
AcDbEntity
  8
0
  6
Continuous
 62
     8
370
    15
100
AcDbLine
 10
2454.166071423795
 20
987.7928405526281
 30
0.0
 11
2461.016071423795
 21
987.7928405526281
 31
0.0
  0
LINE
  5
560
330
4E3
100
AcDbEntity
  8
0
  6
Continuous
 62
     8
370
    15
100
AcDbLine
 10
2469.166071423795
 20
987.7928405526281
 30
0.0
 11
2476.016071423794
 21
987.7928405526281
 31
0.0
  0
LINE
  5
561
330
4E3
100
AcDbEntity
  8
0
  6
Continuous
 62
     8
370
    15
100
AcDbLine
 10
2484.166071423795
 20
987.7928405526281
 30
0.0
 11
2491.016071423795
 21
987.7928405526281
 31
0.0
  0
ENDBLK
  5
4E5
330
4E3
100
AcDbEntity
  8
0
100
AcDbBlockEnd
  0
BLOCK
  5
564
330
563
100
AcDbEntity
  8
0
100
AcDbBlockBegin
  2
2
 70
     0
 10
0.0
 20
0.0
 30
0.0
  3
2
  1

  0
LINE
  5
566
330
563
100
AcDbEntity
  8
0
  6
Continuous
 62
     7
370
    15
100
AcDbLine
 10
2397.306127902199
 20
986.692840552628
 30
0.0
 11
2397.306127902199
 21
982.792840552628
 31
0.0
  0
LINE
  5
567
330
563
100
AcDbEntity
  8
0
  6
Continuous
 62
     7
370
    15
100
AcDbLine
 10
2404.7061279022
 20
982.792840552628
 30
0.0
 11
2404.7061279022
 21
986.692840552628
 31
0.0
  0
ARC
  5
568
330
563
100
AcDbEntity
  8
0
  6
Continuous
 62
     7
370
    15
100
AcDbCircle
 10
2397.7811279022
 20
987.7928405526281
 30
0.0
 40
0.200000000000017
100
AcDbArc
 50
180.0
 51
270.0
  0
ARC
  5
569
330
563
100
AcDbEntity
  8
0
  6
Continuous
 62
     7
370
    15
100
AcDbCircle
 10
2404.231127902199
 20
987.7928405526281
 30
0.0
 40
0.1999999999999886
100
AcDbArc
 50
270.0
 51
0.0
  0
LINE
  5
56A
330
563
100
AcDbEntity
  8
0
  6
Continuous
 62
     7
370
    15
100
AcDbLine
 10
2404.4311279022
 20
987.7928405526281
 30
0.0
 11
2404.4311279022
 21
992.9928405526281
 31
0.0
  0
LINE
  5
56B
330
563
100
AcDbEntity
  8
0
  6
Continuous
 62
     7
370
    15
100
AcDbLine
 10
2397.5811279022
 20
992.9928405526281
 30
0.0
 11
2397.5811279022
 21
987.7928405526281
 31
0.0
  0
LINE
  5
56C
330
563
100
AcDbEntity
  8
0
  6
Continuous
 62
     7
370
    15
100
AcDbLine
 10
2404.0061279022
 20
971.9928405526282
 30
0.0
 11
2404.0061279022
 21
982.6928405526643
 31
0.0
  0
LINE
  5
56D
330
563
100
AcDbEntity
  8
0
  6
Continuous
 62
     7
370
    15
100
AcDbLine
 10
2398.006127902199
 20
982.6928405526643
 30
0.0
 11
2398.006127902199
 21
971.9928405526282
 31
0.0
  0
LINE
  5
56E
330
563
100
AcDbEntity
  8
0
  6
Continuous
 62
     7
370
    15
100
AcDbLine
 10
2404.006127902249
 20
982.6928405526643
 30
0.0
 11
2403.906127902211
 21
982.7928405526455
 31
0.0
  0
LINE
  5
56F
330
563
100
AcDbEntity
  8
0
  6
Continuous
 62
     7
370
    15
100
AcDbLine
 10
2398.106127902188
 20
982.7928405526455
 30
0.0
 11
2398.00612790215
 21
982.6928405526643
 31
0.0
  0
LINE
  5
570
330
563
100
AcDbEntity
  8
0
  6
Continuous
 62
     7
370
    15
100
AcDbLine
 10
2398.006127902213
 20
971.9928405526282
 30
0.0
 11
2398.20612790217
 21
971.792840552672
 31
0.0
  0
LINE
  5
571
330
563
100
AcDbEntity
  8
0
  6
Continuous
 62
     7
370
    15
100
AcDbLine
 10
2403.80612790223
 20
971.792840552672
 30
0.0
 11
2404.006127902186
 21
971.9928405526282
 31
0.0
  0
LINE
  5
572
330
563
100
AcDbEntity
  8
0
  6
Continuous
 62
     7
370
    15
100
AcDbLine
 10
2404.0061279022
 20
986.692840552628
 30
0.0
 11
2404.0061279022
 21
987.5928405526281
 31
0.0
  0
LINE
  5
573
330
563
100
AcDbEntity
  8
0
  6
Continuous
 62
     7
370
    15
100
AcDbLine
 10
2398.006127902199
 20
987.5928405526281
 30
0.0
 11
2398.006127902199
 21
986.692840552628
 31
0.0
  0
LINE
  5
574
330
563
100
AcDbEntity
  8
0
  6
Continuous
 62
     7
370
    15
100
AcDbLine
 10
2404.3561279022
 20
986.692840552628
 30
0.0
 11
2404.3561279022
 21
982.792840552628
 31
0.0
  0
LINE
  5
575
330
563
100
AcDbEntity
  8
0
  6
Continuous
 62
     7
370
    15
100
AcDbLine
 10
2397.656127902199
 20
986.692840552628
 30
0.0
 11
2397.656127902199
 21
982.792840552628
 31
0.0
  0
LINE
  5
576
330
563
100
AcDbEntity
  8
0
  6
Continuous
 62
     7
370
    15
100
AcDbLine
 10
2404.3561279022
 20
986.692840552628
 30
0.0
 11
2397.656127902199
 21
986.692840552628
 31
0.0
  0
LINE
  5
577
330
563
100
AcDbEntity
  8
0
  6
Continuous
 62
     7
370
    15
100
AcDbLine
 10
2397.656127902199
 20
982.792840552628
 30
0.0
 11
2404.3561279022
 21
982.792840552628
 31
0.0
  0
LINE
  5
578
330
563
100
AcDbEntity
  8
0
  6
Continuous
 62
     7
370
    15
100
AcDbLine
 10
2397.656127902199
 20
986.692840552628
 30
0.0
 11
2397.306127902199
 21
986.692840552628
 31
0.0
  0
LINE
  5
579
330
563
100
AcDbEntity
  8
0
  6
Continuous
 62
     7
370
    15
100
AcDbLine
 10
2397.656127902199
 20
982.792840552628
 30
0.0
 11
2397.306127902199
 21
982.792840552628
 31
0.0
  0
LINE
  5
57A
330
563
100
AcDbEntity
  8
0
  6
Continuous
 62
     7
370
    15
100
AcDbLine
 10
2404.7061279022
 20
986.692840552628
 30
0.0
 11
2404.3561279022
 21
986.692840552628
 31
0.0
  0
LINE
  5
57B
330
563
100
AcDbEntity
  8
0
  6
Continuous
 62
     7
370
    15
100
AcDbLine
 10
2404.7061279022
 20
982.792840552628
 30
0.0
 11
2404.3561279022
 21
982.792840552628
 31
0.0
  0
SPLINE
  5
57C
330
563
100
AcDbEntity
  8
0
  6
Continuous
 62
     7
370
    15
100
AcDbSpline
210
0.0
220
0.0
230
1.0
 70
    24
 71
     3
 72
    22
 73
    18
 74
     0
 42
0.0000000001
 43
0.0000000001
 40
0.0
 40
0.0
 40
0.0
 40
0.0
 40
0.0345767369425583
 40
0.068898905576792
 40
0.1030656356827384
 40
0.1371774121935309
 40
0.1713352050309756
 40
0.2056395777922316
 40
0.2401898141702156
 40
0.370056015009088
 40
0.5000280681034757
 40
0.6298943165886671
 40
0.7598664173671196
 40
0.820130688370528
 40
0.8798809851167721
 40
0.9396575701707874
 40
1.0
 40
1.0
 40
1.0
 40
1.0
 10
2401.0061279022
 20
987.5928405526281
 30
0.0
 10
2400.947788702284
 20
987.5928405526281
 30
0.0
 10
2400.831539819889
 20
987.5928405526281
 30
0.0
 10
2400.658134995222
 20
987.5928405526281
 30
0.0
 10
2400.486511658167
 20
987.5928405526281
 30
0.0
 10
2400.316672925961
 20
987.5928405526281
 30
0.0
 10
2400.148627994191
 20
987.5928405526281
 30
0.0
 10
2399.982363388772
 20
987.5928405526281
 30
0.0
 10
2399.667440980914
 20
987.5928405526281
 30
0.0
 10
2399.222387337164
 20
987.5928405526281
 30
0.0
 10
2398.710451673793
 20
987.5928405526281
 30
0.0
 10
2398.290689347291
 20
987.5928405526281
 30
0.0
 10
2398.04151855838
 20
987.5928405526281
 30
0.0
 10
2397.904084575421
 20
987.5928405526281
 30
0.0
 10
2397.833357551939
 20
987.5928405526281
 30
0.0
 10
2397.789210001532
 20
987.5928405526281
 30
0.0
 10
2397.783830382569
 20
987.5928405526281
 30
0.0
 10
2397.7811279022
 20
987.5928405526281
 30
0.0
  0
SPLINE
  5
57D
330
563
100
AcDbEntity
  8
0
  6
Continuous
 62
     7
370
    15
100
AcDbSpline
210
0.0
220
0.0
230
1.0
 70
    24
 71
     3
 72
    22
 73
    18
 74
     0
 42
0.0000000001
 43
0.0000000001
 40
0.0
 40
0.0
 40
0.0
 40
0.0
 40
0.0345391614887341
 40
0.0688357986754411
 40
0.1029895277956235
 40
0.1371012171073349
 40
0.1712721071596669
 40
0.2056029147619379
 40
0.2401929598423603
 40
0.3700588287086903
 40
0.5000305495597695
 40
0.6298964660721064
 40
0.7598682346073091
 40
0.8201119842015359
 40
0.8798553991925299
 40
0.9396384390827632
 40
1.0
 40
1.0
 40
1.0
 40
1.0
 10
2404.231127902199
 20
987.5928405526281
 30
0.0
 10
2404.230255005667
 20
987.5928405526281
 30
0.0
 10
2404.228515341837
 20
987.5928405526281
 30
0.0
 10
2404.214160043373
 20
987.5928405526281
 30
0.0
 10
2404.191178665748
 20
987.5928405526281
 30
0.0
 10
2404.158744481708
 20
987.5928405526281
 30
0.0
 10
2404.117083220147
 20
987.5928405526281
 30
0.0
 10
2404.066120097733
 20
987.5928405526281
 30
0.0
 10
2403.95094467554
 20
987.5928405526281
 30
0.0
 10
2403.72161262138
 20
987.5928405526281
 30
0.0
 10
2403.302077655113
 20
987.5928405526281
 30
0.0
 10
2402.789992530446
 20
987.5928405526281
 30
0.0
 10
2402.306226434245
 20
987.5928405526281
 30
0.0
 10
2401.907031031034
 20
987.5928405526281
 30
0.0
 10
2401.61170066172
 20
987.5928405526281
 30
0.0
 10
2401.310767050013
 20
987.5928405526281
 30
0.0
 10
2401.107999740273
 20
987.5928405526281
 30
0.0
 10
2401.0061279022
 20
987.5928405526281
 30
0.0
  0
LINE
  5
57E
330
563
100
AcDbEntity
  8
0
  6
Continuous
 62
     7
370
    15
100
AcDbLine
 10
2401.0061279022
 20
992.9928405526281
 30
0.0
 11
2404.4311279022
 21
992.9928405526281
 31
0.0
  0
LINE
  5
57F
330
563
100
AcDbEntity
  8
0
  6
Continuous
 62
     7
370
    15
100
AcDbLine
 10
2397.5811279022
 20
992.9928405526281
 30
0.0
 11
2401.0061279022
 21
992.9928405526281
 31
0.0
  0
LINE
  5
580
330
563
100
AcDbEntity
  8
0
  6
Continuous
 62
     7
370
    15
100
AcDbLine
 10
2401.0061279022
 20
982.6928405526643
 30
0.0
 11
2398.00612790215
 21
982.6928405526643
 31
0.0
  0
LINE
  5
581
330
563
100
AcDbEntity
  8
0
  6
Continuous
 62
     7
370
    15
100
AcDbLine
 10
2404.0061279022
 20
982.6928405526643
 30
0.0
 11
2401.0061279022
 21
982.6928405526643
 31
0.0
  0
LINE
  5
582
330
563
100
AcDbEntity
  8
0
  6
Continuous
 62
     7
370
    15
100
AcDbLine
 10
2401.0061279022
 20
971.9928405526282
 30
0.0
 11
2398.006127902199
 21
971.9928405526282
 31
0.0
  0
LINE
  5
583
330
563
100
AcDbEntity
  8
0
  6
Continuous
 62
     7
370
    15
100
AcDbLine
 10
2404.0061279022
 20
971.9928405526282
 30
0.0
 11
2401.0061279022
 21
971.9928405526282
 31
0.0
  0
LINE
  5
584
330
563
100
AcDbEntity
  8
0
  6
Continuous
 62
     7
370
    15
100
AcDbLine
 10
2403.80612790223
 20
971.792840552672
 30
0.0
 11
2398.20612790217
 21
971.792840552672
 31
0.0
  0
LINE
  5
585
330
563
100
AcDbEntity
  8
0
  6
Continuous
 62
     8
370
    15
100
AcDbLine
 10
2397.5811279022
 20
987.7928405526281
 30
0.0
 11
2404.4311279022
 21
987.7928405526281
 31
0.0
  0
ENDBLK
  5
565
330
563
100
AcDbEntity
  8
0
100
AcDbBlockEnd
  0
BLOCK
  5
588
330
587
100
AcDbEntity
  8
0
100
AcDbBlockBegin
  2
3
 70
     0
 10
0.0
 20
0.0
 30
0.0
  3
3
  1

  0
CIRCLE
  5
58A
330
587
100
AcDbEntity
  8
0
  6
Continuous
 62
     7
370
    15
100
AcDbCircle
 10
2472.591071423795
 20
950.2015050044597
 30
0.0
 40
2.475000000004001
  0
ARC
  5
58B
330
587
100
AcDbEntity
  8
0
  6
Continuous
 62
     7
370
    15
100
AcDbCircle
 10
2472.591071423795
 20
950.2015050044597
 30
0.0
 40
2.145679479869398
100
AcDbArc
 50
166.5246847195515
 51
193.4753152804485
  0
ARC
  5
58C
330
587
100
AcDbEntity
  8
0
  6
Continuous
 62
     7
370
    15
100
AcDbCircle
 10
2472.591071423795
 20
950.2015050044597
 30
0.0
 40
2.197439522055226
100
AcDbArc
 50
193.1521401048725
 51
346.8478598951212
  0
ARC
  5
58D
330
587
100
AcDbEntity
  8
0
  6
Continuous
 62
     7
370
    15
100
AcDbCircle
 10
2472.591071423795
 20
950.2015050044597
 30
0.0
 40
2.145679479869426
100
AcDbArc
 50
346.5246847195578
 51
13.4753152804485
  0
ARC
  5
58E
330
587
100
AcDbEntity
  8
0
  6
Continuous
 62
     7
370
    15
100
AcDbCircle
 10
2472.591071423795
 20
950.2015050044597
 30
0.0
 40
2.197439522055226
100
AcDbArc
 50
13.1521401048725
 51
166.8478598951211
  0
CIRCLE
  5
58F
330
587
100
AcDbEntity
  8
0
  6
Continuous
 62
     7
370
    15
100
AcDbCircle
 10
2442.591071423795
 20
950.2015050044596
 30
0.0
 40
2.475000000004001
  0
CIRCLE
  5
590
330
587
100
AcDbEntity
  8
0
  6
Continuous
 62
     7
370
    15
100
AcDbCircle
 10
2442.591071423795
 20
950.2015050044596
 30
0.0
 40
3.425000000000011
  0
ARC
  5
591
330
587
100
AcDbEntity
  8
0
  6
Continuous
 62
     7
370
    15
100
AcDbCircle
 10
2442.591071423795
 20
950.2015050044596
 30
0.0
 40
2.145679479869371
100
AcDbArc
 50
166.5246847195515
 51
193.4753152804485
  0
ARC
  5
592
330
587
100
AcDbEntity
  8
0
  6
Continuous
 62
     7
370
    15
100
AcDbCircle
 10
2442.591071423795
 20
950.2015050044596
 30
0.0
 40
2.197439522055198
100
AcDbArc
 50
193.1521401048725
 51
346.8478598951275
  0
ARC
  5
593
330
587
100
AcDbEntity
  8
0
  6
Continuous
 62
     7
370
    15
100
AcDbCircle
 10
2442.591071423795
 20
950.2015050044596
 30
0.0
 40
2.145679479869454
100
AcDbArc
 50
346.5246847195578
 51
13.4753152804485
  0
ARC
  5
594
330
587
100
AcDbEntity
  8
0
  6
Continuous
 62
     7
370
    15
100
AcDbCircle
 10
2442.591071423795
 20
950.2015050044596
 30
0.0
 40
2.197439522055253
100
AcDbArc
 50
13.1521401048725
 51
166.8478598951211
  0
CIRCLE
  5
595
330
587
100
AcDbEntity
  8
0
  6
Continuous
 62
     7
370
    15
100
AcDbCircle
 10
2427.591071423793
 20
950.2015050044596
 30
0.0
 40
2.475000000004001
  0
CIRCLE
  5
596
330
587
100
AcDbEntity
  8
0
  6
Continuous
 62
     7
370
    15
100
AcDbCircle
 10
2427.591071423793
 20
950.2015050044596
 30
0.0
 40
3.425000000000011
  0
CIRCLE
  5
597
330
587
100
AcDbEntity
  8
0
  6
Continuous
 62
     7
370
    15
100
AcDbCircle
 10
2487.591071423795
 20
950.2015050044597
 30
0.0
 40
2.475000000004001
  0
ARC
  5
598
330
587
100
AcDbEntity
  8
0
  6
Continuous
 62
     7
370
    15
100
AcDbCircle
 10
2487.591071423795
 20
950.2015050044597
 30
0.0
 40
2.145679479869426
100
AcDbArc
 50
166.5246847195515
 51
193.4753152804485
  0
ARC
  5
599
330
587
100
AcDbEntity
  8
0
  6
Continuous
 62
     7
370
    15
100
AcDbCircle
 10
2487.591071423795
 20
950.2015050044597
 30
0.0
 40
2.197439522055198
100
AcDbArc
 50
193.1521401048725
 51
346.8478598951275
  0
ARC
  5
59A
330
587
100
AcDbEntity
  8
0
  6
Continuous
 62
     7
370
    15
100
AcDbCircle
 10
2487.591071423795
 20
950.2015050044597
 30
0.0
 40
2.145679479869426
100
AcDbArc
 50
346.5246847195578
 51
13.4753152804485
  0
ARC
  5
59B
330
587
100
AcDbEntity
  8
0
  6
Continuous
 62
     7
370
    15
100
AcDbCircle
 10
2487.591071423795
 20
950.2015050044597
 30
0.0
 40
2.197439522055226
100
AcDbArc
 50
13.1521401048725
 51
166.8478598951211
  0
CIRCLE
  5
59C
330
587
100
AcDbEntity
  8
0
  6
Continuous
 62
     7
370
    15
100
AcDbCircle
 10
2457.591071423795
 20
950.2015050044597
 30
0.0
 40
2.475000000004001
  0
CIRCLE
  5
59D
330
587
100
AcDbEntity
  8
0
  6
Continuous
 62
     7
370
    15
100
AcDbCircle
 10
2457.591071423795
 20
950.2015050044597
 30
0.0
 40
3.425000000000011
  0
ARC
  5
59E
330
587
100
AcDbEntity
  8
0
  6
Continuous
 62
     7
370
    15
100
AcDbCircle
 10
2457.591071423795
 20
950.2015050044597
 30
0.0
 40
2.145679479869426
100
AcDbArc
 50
166.5246847195515
 51
193.4753152804485
  0
ARC
  5
59F
330
587
100
AcDbEntity
  8
0
  6
Continuous
 62
     7
370
    15
100
AcDbCircle
 10
2457.591071423795
 20
950.2015050044597
 30
0.0
 40
2.197439522055198
100
AcDbArc
 50
193.1521401048725
 51
346.8478598951212
  0
ARC
  5
5A0
330
587
100
AcDbEntity
  8
0
  6
Continuous
 62
     7
370
    15
100
AcDbCircle
 10
2457.591071423795
 20
950.2015050044597
 30
0.0
 40
2.145679479869398
100
AcDbArc
 50
346.5246847195578
 51
13.4753152804485
  0
ARC
  5
5A1
330
587
100
AcDbEntity
  8
0
  6
Continuous
 62
     7
370
    15
100
AcDbCircle
 10
2457.591071423795
 20
950.2015050044597
 30
0.0
 40
2.197439522055198
100
AcDbArc
 50
13.1521401048725
 51
166.8478598951211
  0
CIRCLE
  5
5A2
330
587
100
AcDbEntity
  8
0
  6
Continuous
 62
     7
370
    15
100
AcDbCircle
 10
2472.591071423795
 20
950.2015050044597
 30
0.0
 40
3.424999999999982
  0
ARC
  5
5A3
330
587
100
AcDbEntity
  8
0
  6
Continuous
 62
     7
370
    15
100
AcDbCircle
 10
2427.591071423793
 20
950.2015050044596
 30
0.0
 40
2.197439522055226
100
AcDbArc
 50
13.15214010487884
 51
166.8478598951275
  0
ARC
  5
5A4
330
587
100
AcDbEntity
  8
0
  6
Continuous
 62
     7
370
    15
100
AcDbCircle
 10
2427.591071423793
 20
950.2015050044596
 30
0.0
 40
2.145679479869426
100
AcDbArc
 50
166.5246847195515
 51
193.4753152804485
  0
ARC
  5
5A5
330
587
100
AcDbEntity
  8
0
  6
Continuous
 62
     7
370
    15
100
AcDbCircle
 10
2427.591071423793
 20
950.2015050044596
 30
0.0
 40
2.197439522055226
100
AcDbArc
 50
193.1521401048788
 51
346.8478598951275
  0
ARC
  5
5A6
330
587
100
AcDbEntity
  8
0
  6
Continuous
 62
     7
370
    15
100
AcDbCircle
 10
2427.591071423793
 20
950.2015050044596
 30
0.0
 40
2.145679479869398
100
AcDbArc
 50
346.5246847195578
 51
13.4753152804485
  0
CIRCLE
  5
5A7
330
587
100
AcDbEntity
  8
0
  6
Continuous
 62
     7
370
    15
100
AcDbCircle
 10
2487.591071423795
 20
950.2015050044597
 30
0.0
 40
3.424999999999982
  0
SPLINE
  5
5A8
330
587
100
AcDbEntity
  8
0
  6
Continuous
 62
     7
370
    15
100
AcDbSpline
210
0.0
220
0.0
230
1.0
 70
     8
 71
     3
 72
    26
 73
    22
 74
     0
 42
0.0000000001
 43
0.0000000001
 40
0.0
 40
0.0
 40
0.0
 40
0.0
 40
0.0230715729476345
 40
0.0460090324973591
 40
0.068896312164315
 40
0.0918178967114755
 40
0.1148578935298947
 40
0.1672666081108498
 40
0.2198734143150281
 40
0.2872072951295931
 40
0.3550347613670426
 40
0.4272288750175976
 40
0.5000425990362788
 40
0.5721736231559394
 40
0.645048746199323
 40
0.7123665728304424
 40
0.7802169049632333
 40
0.8396683342519317
 40
0.8991910480712959
 40
0.9495075749985691
 40
0.9999999999999998
 40
0.9999999999999998
 40
0.9999999999999998
 40
0.9999999999999998
 10
2440.666114528652
 20
950.7015050044596
 30
0.0
 10
2440.676913503078
 20
950.7402764717944
 30
0.0
 10
2440.698448678267
 20
950.8175940307067
 30
0.0
 10
2440.73943473485
 20
950.930655438581
 30
0.0
 10
2440.78662439181
 20
951.0409282930375
 30
0.0
 10
2440.840651294716
 20
951.1482484511699
 30
0.0
 10
2440.926862896921
 20
951.2966482780315
 30
0.0
 10
2441.057952520134
 20
951.4784315463025
 30
0.0
 10
2441.266498951979
 20
951.6960839787842
 30
0.0
 10
2441.528467257631
 20
951.8955838900296
 30
0.0
 10
2441.852600519862
 20
952.0600626727459
 30
0.0
 10
2442.21054354928
 20
952.1665916314384
 30
0.0
 10
2442.589882567008
 20
952.2021605908415
 30
0.0
 10
2442.970388600974
 20
952.1667765134079
 30
0.0
 10
2443.327573994051
 20
952.0607817170706
 30
0.0
 10
2443.653110200768
 20
951.8963735667608
 30
0.0
 10
2443.924400721439
 20
951.6893586326936
 30
0.0
 10
2444.149093916343
 20
951.4515670139683
 30
0.0
 10
2444.314969999662
 20
951.2060445172282
 30
0.0
 10
2444.439812998981
 20
950.954536019903
 30
0.0
 10
2444.490593677132
 20
950.7859467314917
 30
0.0
 10
2444.516028318938
 20
950.7015050044596
 30
0.0
  0
LINE
  5
5A9
330
587
100
AcDbEntity
  8
0
  6
Continuous
 62
     7
370
    15
100
AcDbLine
 10
2444.516028318938
 20
950.7015050044596
 30
0.0
 11
2440.666114528652
 21
950.7015050044596
 31
0.0
  0
SPLINE
  5
5AA
330
587
100
AcDbEntity
  8
0
  6
Continuous
 62
     7
370
    15
100
AcDbSpline
210
0.0
220
0.0
230
1.0
 70
     8
 71
     3
 72
    26
 73
    22
 74
     0
 42
0.0000000001
 43
0.0000000001
 40
0.0
 40
0.0
 40
0.0
 40
0.0
 40
0.0230715729476346
 40
0.0460090324973592
 40
0.0688963121643151
 40
0.0918178967114755
 40
0.1148578935298948
 40
0.1672666081108498
 40
0.2198734143150282
 40
0.2872072951295933
 40
0.3550347613670425
 40
0.4272288750175978
 40
0.500042599036279
 40
0.57217362315594
 40
0.6450487461993232
 40
0.7123665728304428
 40
0.7802169049632336
 40
0.8396683342519322
 40
0.8991910480712963
 40
0.9495075749985691
 40
1.0
 40
1.0
 40
1.0
 40
1.0
 10
2455.666114528651
 20
950.7015050044596
 30
0.0
 10
2455.676913503078
 20
950.7402764717944
 30
0.0
 10
2455.698448678267
 20
950.8175940307069
 30
0.0
 10
2455.739434734851
 20
950.9306554385812
 30
0.0
 10
2455.78662439181
 20
951.0409282930377
 30
0.0
 10
2455.840651294716
 20
951.14824845117
 30
0.0
 10
2455.926862896922
 20
951.2966482780317
 30
0.0
 10
2456.057952520134
 20
951.4784315463025
 30
0.0
 10
2456.266498951978
 20
951.6960839787842
 30
0.0
 10
2456.52846725763
 20
951.8955838900296
 30
0.0
 10
2456.852600519861
 20
952.060062672746
 30
0.0
 10
2457.210543549281
 20
952.1665916314384
 30
0.0
 10
2457.589882567007
 20
952.2021605908415
 30
0.0
 10
2457.970388600974
 20
952.1667765134081
 30
0.0
 10
2458.327573994051
 20
952.0607817170706
 30
0.0
 10
2458.653110200768
 20
951.8963735667608
 30
0.0
 10
2458.924400721438
 20
951.6893586326936
 30
0.0
 10
2459.149093916343
 20
951.4515670139683
 30
0.0
 10
2459.314969999662
 20
951.2060445172282
 30
0.0
 10
2459.439812998981
 20
950.954536019903
 30
0.0
 10
2459.490593677133
 20
950.7859467314917
 30
0.0
 10
2459.516028318938
 20
950.7015050044596
 30
0.0
  0
LINE
  5
5AB
330
587
100
AcDbEntity
  8
0
  6
Continuous
 62
     7
370
    15
100
AcDbLine
 10
2459.516028318938
 20
950.7015050044596
 30
0.0
 11
2455.666114528651
 21
950.7015050044596
 31
0.0
  0
SPLINE
  5
5AC
330
587
100
AcDbEntity
  8
0
  6
Continuous
 62
     7
370
    15
100
AcDbSpline
210
0.0
220
0.0
230
1.0
 70
     8
 71
     3
 72
    26
 73
    22
 74
     0
 42
0.0000000001
 43
0.0000000001
 40
0.0
 40
0.0
 40
0.0
 40
0.0
 40
0.0230715729476349
 40
0.0460090324973593
 40
0.0688963121643149
 40
0.0918178967114757
 40
0.1148578935298945
 40
0.1672666081108504
 40
0.2198734143150288
 40
0.2872072951295932
 40
0.3550347613670424
 40
0.427228875017597
 40
0.5000425990362782
 40
0.57217362315594
 40
0.6450487461993231
 40
0.7123665728304426
 40
0.7802169049632334
 40
0.8396683342519322
 40
0.8991910480712963
 40
0.9495075749985691
 40
0.9999999999999998
 40
0.9999999999999998
 40
0.9999999999999998
 40
0.9999999999999998
 10
2470.666114528651
 20
950.7015050044596
 30
0.0
 10
2470.676913503078
 20
950.7402764717946
 30
0.0
 10
2470.698448678267
 20
950.8175940307069
 30
0.0
 10
2470.739434734851
 20
950.9306554385812
 30
0.0
 10
2470.78662439181
 20
951.0409282930377
 30
0.0
 10
2470.840651294716
 20
951.14824845117
 30
0.0
 10
2470.926862896921
 20
951.2966482780319
 30
0.0
 10
2471.057952520134
 20
951.4784315463026
 30
0.0
 10
2471.266498951978
 20
951.6960839787843
 30
0.0
 10
2471.52846725763
 20
951.8955838900298
 30
0.0
 10
2471.852600519861
 20
952.060062672746
 30
0.0
 10
2472.210543549281
 20
952.1665916314386
 30
0.0
 10
2472.589882567008
 20
952.2021605908415
 30
0.0
 10
2472.970388600974
 20
952.1667765134081
 30
0.0
 10
2473.327573994052
 20
952.0607817170706
 30
0.0
 10
2473.653110200768
 20
951.8963735667609
 30
0.0
 10
2473.924400721438
 20
951.6893586326936
 30
0.0
 10
2474.149093916342
 20
951.4515670139685
 30
0.0
 10
2474.314969999662
 20
951.2060445172284
 30
0.0
 10
2474.43981299898
 20
950.954536019903
 30
0.0
 10
2474.490593677133
 20
950.7859467314917
 30
0.0
 10
2474.516028318939
 20
950.7015050044596
 30
0.0
  0
LINE
  5
5AD
330
587
100
AcDbEntity
  8
0
  6
Continuous
 62
     7
370
    15
100
AcDbLine
 10
2474.516028318939
 20
950.7015050044596
 30
0.0
 11
2470.666114528651
 21
950.7015050044596
 31
0.0
  0
SPLINE
  5
5AE
330
587
100
AcDbEntity
  8
0
  6
Continuous
 62
     7
370
    15
100
AcDbSpline
210
0.0
220
0.0
230
1.0
 70
     8
 71
     3
 72
    26
 73
    22
 74
     0
 42
0.0000000001
 43
0.0000000001
 40
0.0
 40
0.0
 40
0.0
 40
0.0
 40
0.0230715729476349
 40
0.0460090324973593
 40
0.0688963121643149
 40
0.0918178967114757
 40
0.1148578935298945
 40
0.1672666081108504
 40
0.2198734143150288
 40
0.2872072951295932
 40
0.3550347613670425
 40
0.427228875017597
 40
0.5000425990362782
 40
0.57217362315594
 40
0.6450487461993231
 40
0.7123665728304425
 40
0.7802169049632334
 40
0.8396683342519322
 40
0.8991910480712963
 40
0.9495075749985691
 40
0.9999999999999998
 40
0.9999999999999998
 40
0.9999999999999998
 40
0.9999999999999998
 10
2485.666114528652
 20
950.7015050044596
 30
0.0
 10
2485.676913503078
 20
950.7402764717946
 30
0.0
 10
2485.698448678267
 20
950.817594030707
 30
0.0
 10
2485.73943473485
 20
950.9306554385814
 30
0.0
 10
2485.78662439181
 20
951.0409282930377
 30
0.0
 10
2485.840651294716
 20
951.14824845117
 30
0.0
 10
2485.926862896921
 20
951.2966482780319
 30
0.0
 10
2486.057952520134
 20
951.4784315463026
 30
0.0
 10
2486.266498951978
 20
951.6960839787843
 30
0.0
 10
2486.528467257631
 20
951.8955838900298
 30
0.0
 10
2486.852600519862
 20
952.0600626727462
 30
0.0
 10
2487.210543549281
 20
952.1665916314386
 30
0.0
 10
2487.589882567008
 20
952.2021605908415
 30
0.0
 10
2487.970388600974
 20
952.1667765134081
 30
0.0
 10
2488.327573994052
 20
952.0607817170706
 30
0.0
 10
2488.653110200768
 20
951.8963735667609
 30
0.0
 10
2488.924400721439
 20
951.6893586326938
 30
0.0
 10
2489.149093916342
 20
951.4515670139685
 30
0.0
 10
2489.314969999662
 20
951.2060445172284
 30
0.0
 10
2489.439812998981
 20
950.9545360199032
 30
0.0
 10
2489.490593677132
 20
950.7859467314919
 30
0.0
 10
2489.516028318938
 20
950.7015050044596
 30
0.0
  0
LINE
  5
5AF
330
587
100
AcDbEntity
  8
0
  6
Continuous
 62
     7
370
    15
100
AcDbLine
 10
2489.516028318938
 20
950.7015050044596
 30
0.0
 11
2485.666114528652
 21
950.7015050044596
 31
0.0
  0
SPLINE
  5
5B0
330
587
100
AcDbEntity
  8
0
  6
Continuous
 62
     7
370
    15
100
AcDbSpline
210
0.0
220
0.0
230
1.0
 70
     8
 71
     3
 72
    14
 73
    10
 74
     0
 42
0.0000000001
 43
0.0000000001
 40
0.0
 40
0.0
 40
0.0
 40
0.0
 40
0.25
 40
0.25
 40
0.5
 40
0.5
 40
0.75
 40
0.75
 40
1.0
 40
1.0
 40
1.0
 40
1.0
 10
2425.66611452865
 20
950.7015050044596
 30
0.0
 10
2425.776833774035
 20
951.1277645541181
 30
0.0
 10
2426.025939151168
 20
951.5052595719758
 30
0.0
 10
2426.722670358562
 20
952.0441375215503
 30
0.0
 10
2427.150667115261
 20
952.1903385943208
 30
0.0
 10
2428.031475732325
 20
952.1903385943208
 30
0.0
 10
2428.459472489024
 20
952.0441375215503
 30
0.0
 10
2429.156203696419
 20
951.5052595719758
 30
0.0
 10
2429.405309073552
 20
951.1277645541181
 30
0.0
 10
2429.516028318937
 20
950.7015050044596
 30
0.0
  0
LINE
  5
5B1
330
587
100
AcDbEntity
  8
0
  6
Continuous
 62
     7
370
    15
100
AcDbLine
 10
2425.66611452865
 20
950.7015050044596
 30
0.0
 11
2429.516028318937
 21
950.7015050044596
 31
0.0
  0
SPLINE
  5
5B2
330
587
100
AcDbEntity
  8
0
  6
Continuous
 62
     7
370
    15
100
AcDbSpline
210
0.0
220
0.0
230
1.0
 70
     8
 71
     3
 72
    10
 73
     6
 74
     0
 42
0.0000000001
 43
0.0000000001
 40
0.0
 40
0.0
 40
0.0
 40
0.0
 40
0.5
 40
0.5
 40
1.0
 40
1.0
 40
1.0
 40
1.0
 10
2429.516028318937
 20
949.7015050044595
 30
0.0
 10
2429.405309073552
 20
949.2752454548011
 30
0.0
 10
2429.156203696419
 20
948.8977504369433
 30
0.0
 10
2428.459472489024
 20
948.3588724873689
 30
0.0
 10
2428.031475732325
 20
948.2126714145984
 30
0.0
 10
2427.591071423793
 20
948.2126714145984
 30
0.0
  0
SPLINE
  5
5B3
330
587
100
AcDbEntity
  8
0
  6
Continuous
 62
     7
370
    15
100
AcDbSpline
210
0.0
220
0.0
230
1.0
 70
     8
 71
     3
 72
    10
 73
     6
 74
     0
 42
0.0000000001
 43
0.0000000001
 40
0.0
 40
0.0
 40
0.0
 40
0.0
 40
0.5
 40
0.5
 40
1.0
 40
1.0
 40
1.0
 40
1.0
 10
2427.591071423793
 20
948.2126714145984
 30
0.0
 10
2427.150667115261
 20
948.2126714145984
 30
0.0
 10
2426.722670358562
 20
948.3588724873689
 30
0.0
 10
2426.025939151168
 20
948.8977504369433
 30
0.0
 10
2425.776833774035
 20
949.2752454548011
 30
0.0
 10
2425.66611452865
 20
949.7015050044595
 30
0.0
  0
LINE
  5
5B4
330
587
100
AcDbEntity
  8
0
  6
Continuous
 62
     7
370
    15
100
AcDbLine
 10
2429.516028318937
 20
949.7015050044595
 30
0.0
 11
2425.66611452865
 21
949.7015050044595
 31
0.0
  0
SPLINE
  5
5B5
330
587
100
AcDbEntity
  8
0
  6
Continuous
 62
     7
370
    15
100
AcDbSpline
210
0.0
220
0.0
230
1.0
 70
     8
 71
     3
 72
    19
 73
    15
 74
     0
 42
0.0000000001
 43
0.0000000001
 40
0.0
 40
0.0
 40
0.0
 40
0.0
 40
0.0488679617767459
 40
0.0974204996714149
 40
0.1458568154919773
 40
0.194377542516429
 40
0.2431822730058978
 40
0.3715078253163588
 40
0.5000352027282089
 40
0.6283607973257657
 40
0.7568882170903854
 40
0.8379484026938449
 40
0.9186755957281148
 40
1.0
 40
1.0
 40
1.0
 40
1.0
 10
2444.516028318938
 20
949.7015050044595
 30
0.0
 10
2444.504545660449
 20
949.6604412951626
 30
0.0
 10
2444.48165445961
 20
949.5785789270051
 30
0.0
 10
2444.437600778628
 20
949.4590872048537
 30
0.0
 10
2444.38661265575
 20
949.3427867767435
 30
0.0
 10
2444.327983390693
 20
949.2298572977242
 30
0.0
 10
2444.226349347733
 20
949.0612092893718
 30
0.0
 10
2444.062663818034
 20
948.8489474385865
 30
0.0
 10
2443.813672121351
 20
948.6210551559315
 30
0.0
 10
2443.530373146674
 20
948.437239713586
 30
0.0
 10
2443.25781666943
 20
948.3209740712629
 30
0.0
 10
2443.01322495359
 20
948.2542139623379
 30
0.0
 10
2442.803453525803
 20
948.2191467690695
 30
0.0
 10
2442.662039176621
 20
948.2148351626319
 30
0.0
 10
2442.591071423795
 20
948.2126714145984
 30
0.0
  0
SPLINE
  5
5B6
330
587
100
AcDbEntity
  8
0
  6
Continuous
 62
     7
370
    15
100
AcDbSpline
210
0.0
220
0.0
230
1.0
 70
     8
 71
     3
 72
    19
 73
    15
 74
     0
 42
0.0000000001
 43
0.0000000001
 40
0.0
 40
0.0
 40
0.0
 40
0.0
 40
0.0488679617766764
 40
0.0974204996713111
 40
0.1458568154918728
 40
0.1943775425163587
 40
0.2431822730058942
 40
0.3715078253162693
 40
0.5000352027282091
 40
0.6283607973257638
 40
0.7568882170903847
 40
0.8379484026938241
 40
0.9186755957280945
 40
1.0
 40
1.0
 40
1.0
 40
1.0
 10
2442.591071423795
 20
948.2126714145984
 30
0.0
 10
2442.548439802915
 20
948.2134617109782
 30
0.0
 10
2442.463451731857
 20
948.2150372026788
 30
0.0
 10
2442.336722549364
 20
948.2276353285421
 30
0.0
 10
2442.211338820072
 20
948.2477474811389
 30
0.0
 10
2442.087296761908
 20
948.2761028291209
 30
0.0
 10
2441.898514165957
 20
948.3320739008922
 30
0.0
 10
2441.651918532921
 20
948.4371388317663
 30
0.0
 10
2441.36874820029
 20
948.6208405471318
 30
0.0
 10
2441.119614088195
 20
948.8488287487752
 30
0.0
 10
2440.938560937083
 20
949.0834017424155
 30
0.0
 10
2440.812453759895
 20
949.3033540087429
 30
0.0
 10
2440.72577554295
 20
949.497572047727
 30
0.0
 10
2440.686050333392
 20
949.6333605444053
 30
0.0
 10
2440.666114528652
 20
949.7015050044595
 30
0.0
  0
LINE
  5
5B7
330
587
100
AcDbEntity
  8
0
  6
Continuous
 62
     7
370
    15
100
AcDbLine
 10
2440.666114528652
 20
949.7015050044595
 30
0.0
 11
2444.516028318938
 21
949.7015050044595
 31
0.0
  0
SPLINE
  5
5B8
330
587
100
AcDbEntity
  8
0
  6
Continuous
 62
     7
370
    15
100
AcDbSpline
210
0.0
220
0.0
230
1.0
 70
     8
 71
     3
 72
    19
 73
    15
 74
     0
 42
0.0000000001
 43
0.0000000001
 40
0.0
 40
0.0
 40
0.0
 40
0.0
 40
0.0488679617767459
 40
0.0974204996714149
 40
0.1458568154919767
 40
0.194377542516429
 40
0.2431822730058979
 40
0.3715078253163588
 40
0.500035202728209
 40
0.6283607973257657
 40
0.7568882170903854
 40
0.8379484026938454
 40
0.9186755957281148
 40
1.0
 40
1.0
 40
1.0
 40
1.0
 10
2459.516028318938
 20
949.7015050044597
 30
0.0
 10
2459.504545660449
 20
949.6604412951626
 30
0.0
 10
2459.481654459609
 20
949.5785789270051
 30
0.0
 10
2459.437600778628
 20
949.4590872048537
 30
0.0
 10
2459.38661265575
 20
949.3427867767435
 30
0.0
 10
2459.327983390693
 20
949.2298572977242
 30
0.0
 10
2459.226349347734
 20
949.0612092893719
 30
0.0
 10
2459.062663818034
 20
948.8489474385866
 30
0.0
 10
2458.813672121352
 20
948.6210551559315
 30
0.0
 10
2458.530373146674
 20
948.4372397135862
 30
0.0
 10
2458.257816669429
 20
948.3209740712631
 30
0.0
 10
2458.01322495359
 20
948.2542139623379
 30
0.0
 10
2457.803453525803
 20
948.2191467690695
 30
0.0
 10
2457.662039176621
 20
948.2148351626319
 30
0.0
 10
2457.591071423795
 20
948.2126714145984
 30
0.0
  0
SPLINE
  5
5B9
330
587
100
AcDbEntity
  8
0
  6
Continuous
 62
     7
370
    15
100
AcDbSpline
210
0.0
220
0.0
230
1.0
 70
     8
 71
     3
 72
    19
 73
    15
 74
     0
 42
0.0000000001
 43
0.0000000001
 40
0.0
 40
0.0
 40
0.0
 40
0.0
 40
0.0488679617766757
 40
0.097420499671311
 40
0.1458568154918727
 40
0.1943775425163593
 40
0.2431822730058942
 40
0.3715078253162698
 40
0.5000352027282098
 40
0.6283607973257639
 40
0.7568882170903844
 40
0.8379484026938245
 40
0.9186755957280945
 40
1.0
 40
1.0
 40
1.0
 40
1.0
 10
2457.591071423795
 20
948.2126714145984
 30
0.0
 10
2457.548439802915
 20
948.2134617109782
 30
0.0
 10
2457.463451731857
 20
948.2150372026788
 30
0.0
 10
2457.336722549364
 20
948.2276353285422
 30
0.0
 10
2457.211338820072
 20
948.2477474811391
 30
0.0
 10
2457.087296761908
 20
948.2761028291209
 30
0.0
 10
2456.898514165957
 20
948.3320739008922
 30
0.0
 10
2456.65191853292
 20
948.4371388317663
 30
0.0
 10
2456.36874820029
 20
948.620840547132
 30
0.0
 10
2456.119614088195
 20
948.8488287487752
 30
0.0
 10
2455.938560937084
 20
949.0834017424155
 30
0.0
 10
2455.812453759894
 20
949.3033540087429
 30
0.0
 10
2455.72577554295
 20
949.497572047727
 30
0.0
 10
2455.686050333392
 20
949.6333605444055
 30
0.0
 10
2455.666114528651
 20
949.7015050044597
 30
0.0
  0
LINE
  5
5BA
330
587
100
AcDbEntity
  8
0
  6
Continuous
 62
     7
370
    15
100
AcDbLine
 10
2455.666114528651
 20
949.7015050044597
 30
0.0
 11
2459.516028318938
 21
949.7015050044597
 31
0.0
  0
SPLINE
  5
5BB
330
587
100
AcDbEntity
  8
0
  6
Continuous
 62
     7
370
    15
100
AcDbSpline
210
0.0
220
0.0
230
1.0
 70
     8
 71
     3
 72
    19
 73
    15
 74
     0
 42
0.0000000001
 43
0.0000000001
 40
0.0
 40
0.0
 40
0.0
 40
0.0
 40
0.0488679617767459
 40
0.0974204996714149
 40
0.1458568154919767
 40
0.1943775425164291
 40
0.2431822730058979
 40
0.3715078253163588
 40
0.50003520272821
 40
0.6283607973257657
 40
0.7568882170903853
 40
0.8379484026938454
 40
0.9186755957281148
 40
1.0
 40
1.0
 40
1.0
 40
1.0
 10
2474.516028318939
 20
949.7015050044597
 30
0.0
 10
2474.504545660449
 20
949.6604412951628
 30
0.0
 10
2474.481654459609
 20
949.5785789270051
 30
0.0
 10
2474.437600778628
 20
949.4590872048538
 30
0.0
 10
2474.38661265575
 20
949.3427867767435
 30
0.0
 10
2474.327983390693
 20
949.2298572977242
 30
0.0
 10
2474.226349347734
 20
949.0612092893719
 30
0.0
 10
2474.062663818033
 20
948.8489474385866
 30
0.0
 10
2473.813672121352
 20
948.6210551559315
 30
0.0
 10
2473.530373146674
 20
948.4372397135862
 30
0.0
 10
2473.257816669429
 20
948.3209740712631
 30
0.0
 10
2473.01322495359
 20
948.2542139623381
 30
0.0
 10
2472.803453525802
 20
948.2191467690695
 30
0.0
 10
2472.662039176621
 20
948.2148351626319
 30
0.0
 10
2472.591071423795
 20
948.2126714145985
 30
0.0
  0
SPLINE
  5
5BC
330
587
100
AcDbEntity
  8
0
  6
Continuous
 62
     7
370
    15
100
AcDbSpline
210
0.0
220
0.0
230
1.0
 70
     8
 71
     3
 72
    19
 73
    15
 74
     0
 42
0.0000000001
 43
0.0000000001
 40
0.0
 40
0.0
 40
0.0
 40
0.0
 40
0.0488679617766757
 40
0.097420499671311
 40
0.1458568154918727
 40
0.1943775425163592
 40
0.2431822730058941
 40
0.3715078253162684
 40
0.5000352027282084
 40
0.6283607973257645
 40
0.756888217090384
 40
0.8379484026938241
 40
0.9186755957280944
 40
1.0
 40
1.0
 40
1.0
 40
1.0
 10
2472.591071423795
 20
948.2126714145985
 30
0.0
 10
2472.548439802915
 20
948.2134617109784
 30
0.0
 10
2472.463451731857
 20
948.215037202679
 30
0.0
 10
2472.336722549364
 20
948.2276353285422
 30
0.0
 10
2472.211338820072
 20
948.2477474811391
 30
0.0
 10
2472.087296761908
 20
948.2761028291209
 30
0.0
 10
2471.898514165957
 20
948.3320739008922
 30
0.0
 10
2471.65191853292
 20
948.4371388317665
 30
0.0
 10
2471.36874820029
 20
948.620840547132
 30
0.0
 10
2471.119614088195
 20
948.8488287487754
 30
0.0
 10
2470.938560937084
 20
949.0834017424157
 30
0.0
 10
2470.812453759894
 20
949.3033540087431
 30
0.0
 10
2470.72577554295
 20
949.497572047727
 30
0.0
 10
2470.686050333393
 20
949.6333605444055
 30
0.0
 10
2470.666114528651
 20
949.7015050044597
 30
0.0
  0
LINE
  5
5BD
330
587
100
AcDbEntity
  8
0
  6
Continuous
 62
     7
370
    15
100
AcDbLine
 10
2470.666114528651
 20
949.7015050044597
 30
0.0
 11
2474.516028318939
 21
949.7015050044597
 31
0.0
  0
SPLINE
  5
5BE
330
587
100
AcDbEntity
  8
0
  6
Continuous
 62
     7
370
    15
100
AcDbSpline
210
0.0
220
0.0
230
1.0
 70
     8
 71
     3
 72
    19
 73
    15
 74
     0
 42
0.0000000001
 43
0.0000000001
 40
0.0
 40
0.0
 40
0.0
 40
0.0
 40
0.0488679617767459
 40
0.097420499671415
 40
0.1458568154919768
 40
0.1943775425164291
 40
0.243182273005898
 40
0.3715078253163589
 40
0.50003520272821
 40
0.6283607973257657
 40
0.7568882170903853
 40
0.8379484026938454
 40
0.9186755957281148
 40
1.0
 40
1.0
 40
1.0
 40
1.0
 10
2489.516028318938
 20
949.7015050044597
 30
0.0
 10
2489.504545660448
 20
949.6604412951628
 30
0.0
 10
2489.48165445961
 20
949.5785789270053
 30
0.0
 10
2489.437600778628
 20
949.4590872048538
 30
0.0
 10
2489.38661265575
 20
949.3427867767437
 30
0.0
 10
2489.327983390693
 20
949.2298572977242
 30
0.0
 10
2489.226349347734
 20
949.0612092893721
 30
0.0
 10
2489.062663818033
 20
948.8489474385866
 30
0.0
 10
2488.813672121351
 20
948.6210551559317
 30
0.0
 10
2488.530373146674
 20
948.4372397135864
 30
0.0
 10
2488.25781666943
 20
948.3209740712633
 30
0.0
 10
2488.01322495359
 20
948.2542139623381
 30
0.0
 10
2487.803453525803
 20
948.2191467690695
 30
0.0
 10
2487.662039176621
 20
948.2148351626319
 30
0.0
 10
2487.591071423795
 20
948.2126714145985
 30
0.0
  0
SPLINE
  5
5BF
330
587
100
AcDbEntity
  8
0
  6
Continuous
 62
     7
370
    15
100
AcDbSpline
210
0.0
220
0.0
230
1.0
 70
     8
 71
     3
 72
    19
 73
    15
 74
     0
 42
0.0000000001
 43
0.0000000001
 40
0.0
 40
0.0
 40
0.0
 40
0.0
 40
0.0488679617766757
 40
0.097420499671311
 40
0.1458568154918727
 40
0.1943775425163592
 40
0.2431822730058941
 40
0.3715078253162684
 40
0.5000352027282084
 40
0.6283607973257645
 40
0.756888217090384
 40
0.8379484026938241
 40
0.9186755957280944
 40
1.0
 40
1.0
 40
1.0
 40
1.0
 10
2487.591071423795
 20
948.2126714145985
 30
0.0
 10
2487.548439802915
 20
948.2134617109784
 30
0.0
 10
2487.463451731857
 20
948.215037202679
 30
0.0
 10
2487.336722549364
 20
948.2276353285422
 30
0.0
 10
2487.211338820072
 20
948.2477474811391
 30
0.0
 10
2487.087296761908
 20
948.2761028291211
 30
0.0
 10
2486.898514165956
 20
948.3320739008924
 30
0.0
 10
2486.651918532921
 20
948.4371388317665
 30
0.0
 10
2486.36874820029
 20
948.620840547132
 30
0.0
 10
2486.119614088194
 20
948.8488287487754
 30
0.0
 10
2485.938560937083
 20
949.0834017424157
 30
0.0
 10
2485.812453759895
 20
949.3033540087431
 30
0.0
 10
2485.72577554295
 20
949.4975720477272
 30
0.0
 10
2485.686050333392
 20
949.6333605444055
 30
0.0
 10
2485.666114528652
 20
949.7015050044597
 30
0.0
  0
LINE
  5
5C0
330
587
100
AcDbEntity
  8
0
  6
Continuous
 62
     7
370
    15
100
AcDbLine
 10
2485.666114528652
 20
949.7015050044597
 30
0.0
 11
2489.516028318938
 21
949.7015050044597
 31
0.0
  0
ARC
  5
5C1
330
587
100
AcDbEntity
  8
0
  6
Continuous
 62
     7
370
    15
100
AcDbCircle
 10
2472.591071423795
 20
950.2015050044597
 30
0.0
 40
2.188421798069978
100
AcDbArc
 50
193.2073141036489
 51
346.792685896351
  0
SPLINE
  5
5C2
330
587
100
AcDbEntity
  8
0
  6
Continuous
 62
     7
370
    15
100
AcDbSpline
210
0.0
220
0.0
230
1.0
 70
    24
 71
     3
 72
    10
 73
     6
 74
     0
 42
0.0000000001
 43
0.0000000001
 40
0.0
 40
0.0
 40
0.0
 40
0.0
 40
0.5
 40
0.5
 40
1.0
 40
1.0
 40
1.0
 40
1.0
 10
2470.460533940842
 20
949.7015050044597
 30
0.0
 10
2470.463924679128
 20
949.7015050044597
 30
0.0
 10
2470.488300714903
 20
949.7015050044597
 30
0.0
 10
2470.563963292557
 20
949.7015050044597
 30
0.0
 10
2470.61468230173
 20
949.7015050044597
 30
0.0
 10
2470.666114528651
 20
949.7015050044597
 30
0.0
  0
SPLINE
  5
5C3
330
587
100
AcDbEntity
  8
0
  6
Continuous
 62
     7
370
    15
100
AcDbSpline
210
0.0
220
0.0
230
1.0
 70
    24
 71
     3
 72
    10
 73
     6
 74
     0
 42
0.0000000001
 43
0.0000000001
 40
0.0
 40
0.0
 40
0.0
 40
0.0
 40
0.5
 40
0.5
 40
1.0
 40
1.0
 40
1.0
 40
1.0
 10
2474.516028318939
 20
949.7015050044597
 30
0.0
 10
2474.567494902531
 20
949.7015050044597
 30
0.0
 10
2474.617894144498
 20
949.7015050044597
 30
0.0
 10
2474.693944142791
 20
949.7015050044597
 30
0.0
 10
2474.718215589428
 20
949.7015050044597
 30
0.0
 10
2474.721608906748
 20
949.7015050044597
 30
0.0
  0
ARC
  5
5C4
330
587
100
AcDbEntity
  8
0
  6
Continuous
 62
     7
370
    15
100
AcDbCircle
 10
2442.591071423795
 20
950.2015050044596
 30
0.0
 40
2.188421798070006
100
AcDbArc
 50
193.2073141036489
 51
346.792685896351
  0
SPLINE
  5
5C5
330
587
100
AcDbEntity
  8
0
  6
Continuous
 62
     7
370
    15
100
AcDbSpline
210
0.0
220
0.0
230
1.0
 70
    24
 71
     3
 72
    10
 73
     6
 74
     0
 42
0.0000000001
 43
0.0000000001
 40
0.0
 40
0.0
 40
0.0
 40
0.0
 40
0.5
 40
0.5
 40
1.0
 40
1.0
 40
1.0
 40
1.0
 10
2440.460533940842
 20
949.7015050044595
 30
0.0
 10
2440.463924679128
 20
949.7015050044595
 30
0.0
 10
2440.488300714902
 20
949.7015050044595
 30
0.0
 10
2440.563963292557
 20
949.7015050044595
 30
0.0
 10
2440.61468230173
 20
949.7015050044595
 30
0.0
 10
2440.666114528652
 20
949.7015050044595
 30
0.0
  0
SPLINE
  5
5C6
330
587
100
AcDbEntity
  8
0
  6
Continuous
 62
     7
370
    15
100
AcDbSpline
210
0.0
220
0.0
230
1.0
 70
    24
 71
     3
 72
    10
 73
     6
 74
     0
 42
0.0000000001
 43
0.0000000001
 40
0.0
 40
0.0
 40
0.0
 40
0.0
 40
0.5
 40
0.5
 40
1.0
 40
1.0
 40
1.0
 40
1.0
 10
2444.516028318938
 20
949.7015050044595
 30
0.0
 10
2444.567494902531
 20
949.7015050044595
 30
0.0
 10
2444.617894144498
 20
949.7015050044595
 30
0.0
 10
2444.693944142791
 20
949.7015050044595
 30
0.0
 10
2444.718215589428
 20
949.7015050044595
 30
0.0
 10
2444.721608906748
 20
949.7015050044595
 30
0.0
  0
ARC
  5
5C7
330
587
100
AcDbEntity
  8
0
  6
Continuous
 62
     7
370
    15
100
AcDbCircle
 10
2457.591071423795
 20
950.2015050044597
 30
0.0
 40
2.188421798069978
100
AcDbArc
 50
193.2073141036489
 51
346.792685896351
  0
SPLINE
  5
5C8
330
587
100
AcDbEntity
  8
0
  6
Continuous
 62
     7
370
    15
100
AcDbSpline
210
0.0
220
0.0
230
1.0
 70
    24
 71
     3
 72
    10
 73
     6
 74
     0
 42
0.0000000001
 43
0.0000000001
 40
0.0
 40
0.0
 40
0.0
 40
0.0
 40
0.5
 40
0.5
 40
1.0
 40
1.0
 40
1.0
 40
1.0
 10
2455.460533940842
 20
949.7015050044597
 30
0.0
 10
2455.463924679128
 20
949.7015050044597
 30
0.0
 10
2455.488300714903
 20
949.7015050044597
 30
0.0
 10
2455.563963292557
 20
949.7015050044597
 30
0.0
 10
2455.614682301729
 20
949.7015050044597
 30
0.0
 10
2455.666114528651
 20
949.7015050044597
 30
0.0
  0
SPLINE
  5
5C9
330
587
100
AcDbEntity
  8
0
  6
Continuous
 62
     7
370
    15
100
AcDbSpline
210
0.0
220
0.0
230
1.0
 70
    24
 71
     3
 72
    10
 73
     6
 74
     0
 42
0.0000000001
 43
0.0000000001
 40
0.0
 40
0.0
 40
0.0
 40
0.0
 40
0.5
 40
0.5
 40
1.0
 40
1.0
 40
1.0
 40
1.0
 10
2459.516028318938
 20
949.7015050044597
 30
0.0
 10
2459.567494902531
 20
949.7015050044597
 30
0.0
 10
2459.617894144498
 20
949.7015050044597
 30
0.0
 10
2459.69394414279
 20
949.7015050044597
 30
0.0
 10
2459.718215589428
 20
949.7015050044597
 30
0.0
 10
2459.721608906748
 20
949.7015050044597
 30
0.0
  0
ARC
  5
5CA
330
587
100
AcDbEntity
  8
0
  6
Continuous
 62
     7
370
    15
100
AcDbCircle
 10
2487.591071423795
 20
950.2015050044597
 30
0.0
 40
2.188421798069978
100
AcDbArc
 50
193.2073141036489
 51
346.792685896351
  0
SPLINE
  5
5CB
330
587
100
AcDbEntity
  8
0
  6
Continuous
 62
     7
370
    15
100
AcDbSpline
210
0.0
220
0.0
230
1.0
 70
    24
 71
     3
 72
    10
 73
     6
 74
     0
 42
0.0000000001
 43
0.0000000001
 40
0.0
 40
0.0
 40
0.0
 40
0.0
 40
0.5
 40
0.5
 40
1.0
 40
1.0
 40
1.0
 40
1.0
 10
2485.460533940842
 20
949.7015050044597
 30
0.0
 10
2485.463924679128
 20
949.7015050044597
 30
0.0
 10
2485.488300714902
 20
949.7015050044597
 30
0.0
 10
2485.563963292557
 20
949.7015050044597
 30
0.0
 10
2485.61468230173
 20
949.7015050044597
 30
0.0
 10
2485.666114528652
 20
949.7015050044597
 30
0.0
  0
SPLINE
  5
5CC
330
587
100
AcDbEntity
  8
0
  6
Continuous
 62
     7
370
    15
100
AcDbSpline
210
0.0
220
0.0
230
1.0
 70
    24
 71
     3
 72
    10
 73
     6
 74
     0
 42
0.0000000001
 43
0.0000000001
 40
0.0
 40
0.0
 40
0.0
 40
0.0
 40
0.5
 40
0.5
 40
1.0
 40
1.0
 40
1.0
 40
1.0
 10
2489.516028318938
 20
949.7015050044597
 30
0.0
 10
2489.567494902531
 20
949.7015050044597
 30
0.0
 10
2489.617894144498
 20
949.7015050044597
 30
0.0
 10
2489.69394414279
 20
949.7015050044597
 30
0.0
 10
2489.718215589428
 20
949.7015050044597
 30
0.0
 10
2489.721608906748
 20
949.7015050044597
 30
0.0
  0
ARC
  5
5CD
330
587
100
AcDbEntity
  8
0
  6
Continuous
 62
     7
370
    15
100
AcDbCircle
 10
2427.591071423793
 20
950.2015050044596
 30
0.0
 40
2.188421798069978
100
AcDbArc
 50
193.2073141036489
 51
346.792685896351
  0
SPLINE
  5
5CE
330
587
100
AcDbEntity
  8
0
  6
Continuous
 62
     7
370
    15
100
AcDbSpline
210
0.0
220
0.0
230
1.0
 70
    24
 71
     3
 72
    10
 73
     6
 74
     0
 42
0.0000000001
 43
0.0000000001
 40
0.0
 40
0.0
 40
0.0
 40
0.0
 40
0.5
 40
0.5
 40
1.0
 40
1.0
 40
1.0
 40
1.0
 10
2425.66611452865
 20
949.7015050044595
 30
0.0
 10
2425.614647945058
 20
949.7015050044595
 30
0.0
 10
2425.564248703091
 20
949.7015050044595
 30
0.0
 10
2425.488198704798
 20
949.7015050044595
 30
0.0
 10
2425.46392725816
 20
949.7015050044595
 30
0.0
 10
2425.46053394084
 20
949.7015050044595
 30
0.0
  0
SPLINE
  5
5CF
330
587
100
AcDbEntity
  8
0
  6
Continuous
 62
     7
370
    15
100
AcDbSpline
210
0.0
220
0.0
230
1.0
 70
    24
 71
     3
 72
    10
 73
     6
 74
     0
 42
0.0000000001
 43
0.0000000001
 40
0.0
 40
0.0
 40
0.0
 40
0.0
 40
0.5
 40
0.5
 40
1.0
 40
1.0
 40
1.0
 40
1.0
 10
2429.721608906746
 20
949.7015050044595
 30
0.0
 10
2429.71821816846
 20
949.7015050044595
 30
0.0
 10
2429.693842132686
 20
949.7015050044595
 30
0.0
 10
2429.618179555031
 20
949.7015050044595
 30
0.0
 10
2429.567460545859
 20
949.7015050044595
 30
0.0
 10
2429.516028318937
 20
949.7015050044595
 30
0.0
  0
ARC
  5
5D0
330
587
100
AcDbEntity
  8
0
  6
Continuous
 62
     7
370
    15
100
AcDbCircle
 10
2442.591071423795
 20
950.2015050044596
 30
0.0
 40
2.188421798070006
100
AcDbArc
 50
13.20731410364895
 51
166.792685896351
  0
SPLINE
  5
5D1
330
587
100
AcDbEntity
  8
0
  6
Continuous
 62
     7
370
    15
100
AcDbSpline
210
0.0
220
0.0
230
1.0
 70
    24
 71
     3
 72
    10
 73
     6
 74
     0
 42
0.0000000001
 43
0.0000000001
 40
0.0
 40
0.0
 40
0.0
 40
0.0
 40
0.5
 40
0.5
 40
1.0
 40
1.0
 40
1.0
 40
1.0
 10
2440.666114528652
 20
950.7015050044596
 30
0.0
 10
2440.614647945059
 20
950.7015050044596
 30
0.0
 10
2440.564248703092
 20
950.7015050044596
 30
0.0
 10
2440.488198704799
 20
950.7015050044596
 30
0.0
 10
2440.463927258162
 20
950.7015050044596
 30
0.0
 10
2440.460533940842
 20
950.7015050044596
 30
0.0
  0
SPLINE
  5
5D2
330
587
100
AcDbEntity
  8
0
  6
Continuous
 62
     7
370
    15
100
AcDbSpline
210
0.0
220
0.0
230
1.0
 70
    24
 71
     3
 72
    10
 73
     6
 74
     0
 42
0.0000000001
 43
0.0000000001
 40
0.0
 40
0.0
 40
0.0
 40
0.0
 40
0.5
 40
0.5
 40
1.0
 40
1.0
 40
1.0
 40
1.0
 10
2444.721608906748
 20
950.7015050044596
 30
0.0
 10
2444.718218168462
 20
950.7015050044596
 30
0.0
 10
2444.693842132688
 20
950.7015050044596
 30
0.0
 10
2444.618179555033
 20
950.7015050044596
 30
0.0
 10
2444.56746054586
 20
950.7015050044596
 30
0.0
 10
2444.516028318938
 20
950.7015050044596
 30
0.0
  0
ARC
  5
5D3
330
587
100
AcDbEntity
  8
0
  6
Continuous
 62
     7
370
    15
100
AcDbCircle
 10
2472.591071423795
 20
950.2015050044597
 30
0.0
 40
2.188421798069978
100
AcDbArc
 50
13.20731410364895
 51
166.792685896351
  0
SPLINE
  5
5D4
330
587
100
AcDbEntity
  8
0
  6
Continuous
 62
     7
370
    15
100
AcDbSpline
210
0.0
220
0.0
230
1.0
 70
    24
 71
     3
 72
    10
 73
     6
 74
     0
 42
0.0000000001
 43
0.0000000001
 40
0.0
 40
0.0
 40
0.0
 40
0.0
 40
0.5
 40
0.5
 40
1.0
 40
1.0
 40
1.0
 40
1.0
 10
2470.666114528651
 20
950.7015050044596
 30
0.0
 10
2470.614647945059
 20
950.7015050044596
 30
0.0
 10
2470.564248703092
 20
950.7015050044596
 30
0.0
 10
2470.4881987048
 20
950.7015050044596
 30
0.0
 10
2470.463927258162
 20
950.7015050044596
 30
0.0
 10
2470.460533940842
 20
950.7015050044596
 30
0.0
  0
SPLINE
  5
5D5
330
587
100
AcDbEntity
  8
0
  6
Continuous
 62
     7
370
    15
100
AcDbSpline
210
0.0
220
0.0
230
1.0
 70
    24
 71
     3
 72
    10
 73
     6
 74
     0
 42
0.0000000001
 43
0.0000000001
 40
0.0
 40
0.0
 40
0.0
 40
0.0
 40
0.5
 40
0.5
 40
1.0
 40
1.0
 40
1.0
 40
1.0
 10
2474.721608906748
 20
950.7015050044596
 30
0.0
 10
2474.718218168462
 20
950.7015050044596
 30
0.0
 10
2474.693842132687
 20
950.7015050044596
 30
0.0
 10
2474.618179555033
 20
950.7015050044596
 30
0.0
 10
2474.56746054586
 20
950.7015050044596
 30
0.0
 10
2474.516028318939
 20
950.7015050044596
 30
0.0
  0
ARC
  5
5D6
330
587
100
AcDbEntity
  8
0
  6
Continuous
 62
     7
370
    15
100
AcDbCircle
 10
2427.591071423793
 20
950.2015050044596
 30
0.0
 40
2.188421798069978
100
AcDbArc
 50
13.20731410364895
 51
166.792685896351
  0
SPLINE
  5
5D7
330
587
100
AcDbEntity
  8
0
  6
Continuous
 62
     7
370
    15
100
AcDbSpline
210
0.0
220
0.0
230
1.0
 70
    24
 71
     3
 72
    10
 73
     6
 74
     0
 42
0.0000000001
 43
0.0000000001
 40
0.0
 40
0.0
 40
0.0
 40
0.0
 40
0.5
 40
0.5
 40
1.0
 40
1.0
 40
1.0
 40
1.0
 10
2425.46053394084
 20
950.7015050044596
 30
0.0
 10
2425.463924679126
 20
950.7015050044596
 30
0.0
 10
2425.488300714901
 20
950.7015050044596
 30
0.0
 10
2425.563963292555
 20
950.7015050044596
 30
0.0
 10
2425.614682301728
 20
950.7015050044596
 30
0.0
 10
2425.66611452865
 20
950.7015050044596
 30
0.0
  0
SPLINE
  5
5D8
330
587
100
AcDbEntity
  8
0
  6
Continuous
 62
     7
370
    15
100
AcDbSpline
210
0.0
220
0.0
230
1.0
 70
    24
 71
     3
 72
    10
 73
     6
 74
     0
 42
0.0000000001
 43
0.0000000001
 40
0.0
 40
0.0
 40
0.0
 40
0.0
 40
0.5
 40
0.5
 40
1.0
 40
1.0
 40
1.0
 40
1.0
 10
2429.516028318937
 20
950.7015050044596
 30
0.0
 10
2429.567494902529
 20
950.7015050044596
 30
0.0
 10
2429.617894144496
 20
950.7015050044596
 30
0.0
 10
2429.693944142789
 20
950.7015050044596
 30
0.0
 10
2429.718215589427
 20
950.7015050044596
 30
0.0
 10
2429.721608906746
 20
950.7015050044596
 30
0.0
  0
ARC
  5
5D9
330
587
100
AcDbEntity
  8
0
  6
Continuous
 62
     7
370
    15
100
AcDbCircle
 10
2487.591071423795
 20
950.2015050044597
 30
0.0
 40
2.188421798069978
100
AcDbArc
 50
13.20731410364895
 51
166.792685896351
  0
SPLINE
  5
5DA
330
587
100
AcDbEntity
  8
0
  6
Continuous
 62
     7
370
    15
100
AcDbSpline
210
0.0
220
0.0
230
1.0
 70
    24
 71
     3
 72
    10
 73
     6
 74
     0
 42
0.0000000001
 43
0.0000000001
 40
0.0
 40
0.0
 40
0.0
 40
0.0
 40
0.5
 40
0.5
 40
1.0
 40
1.0
 40
1.0
 40
1.0
 10
2485.666114528652
 20
950.7015050044596
 30
0.0
 10
2485.614647945059
 20
950.7015050044596
 30
0.0
 10
2485.564248703092
 20
950.7015050044596
 30
0.0
 10
2485.488198704799
 20
950.7015050044596
 30
0.0
 10
2485.463927258162
 20
950.7015050044596
 30
0.0
 10
2485.460533940842
 20
950.7015050044596
 30
0.0
  0
SPLINE
  5
5DB
330
587
100
AcDbEntity
  8
0
  6
Continuous
 62
     7
370
    15
100
AcDbSpline
210
0.0
220
0.0
230
1.0
 70
    24
 71
     3
 72
    10
 73
     6
 74
     0
 42
0.0000000001
 43
0.0000000001
 40
0.0
 40
0.0
 40
0.0
 40
0.0
 40
0.5
 40
0.5
 40
1.0
 40
1.0
 40
1.0
 40
1.0
 10
2489.721608906748
 20
950.7015050044596
 30
0.0
 10
2489.718218168462
 20
950.7015050044596
 30
0.0
 10
2489.693842132687
 20
950.7015050044596
 30
0.0
 10
2489.618179555033
 20
950.7015050044596
 30
0.0
 10
2489.56746054586
 20
950.7015050044596
 30
0.0
 10
2489.516028318938
 20
950.7015050044596
 30
0.0
  0
ARC
  5
5DC
330
587
100
AcDbEntity
  8
0
  6
Continuous
 62
     7
370
    15
100
AcDbCircle
 10
2457.591071423795
 20
950.2015050044597
 30
0.0
 40
2.188421798069978
100
AcDbArc
 50
13.20731410364895
 51
166.792685896351
  0
SPLINE
  5
5DD
330
587
100
AcDbEntity
  8
0
  6
Continuous
 62
     7
370
    15
100
AcDbSpline
210
0.0
220
0.0
230
1.0
 70
    24
 71
     3
 72
    10
 73
     6
 74
     0
 42
0.0000000001
 43
0.0000000001
 40
0.0
 40
0.0
 40
0.0
 40
0.0
 40
0.5
 40
0.5
 40
1.0
 40
1.0
 40
1.0
 40
1.0
 10
2455.666114528651
 20
950.7015050044596
 30
0.0
 10
2455.614647945059
 20
950.7015050044596
 30
0.0
 10
2455.564248703092
 20
950.7015050044596
 30
0.0
 10
2455.488198704799
 20
950.7015050044596
 30
0.0
 10
2455.463927258162
 20
950.7015050044596
 30
0.0
 10
2455.460533940842
 20
950.7015050044596
 30
0.0
  0
SPLINE
  5
5DE
330
587
100
AcDbEntity
  8
0
  6
Continuous
 62
     7
370
    15
100
AcDbSpline
210
0.0
220
0.0
230
1.0
 70
    24
 71
     3
 72
    10
 73
     6
 74
     0
 42
0.0000000001
 43
0.0000000001
 40
0.0
 40
0.0
 40
0.0
 40
0.0
 40
0.5
 40
0.5
 40
1.0
 40
1.0
 40
1.0
 40
1.0
 10
2459.721608906748
 20
950.7015050044596
 30
0.0
 10
2459.718218168462
 20
950.7015050044596
 30
0.0
 10
2459.693842132687
 20
950.7015050044596
 30
0.0
 10
2459.618179555033
 20
950.7015050044596
 30
0.0
 10
2459.56746054586
 20
950.7015050044596
 30
0.0
 10
2459.516028318938
 20
950.7015050044596
 30
0.0
  0
LINE
  5
5DF
330
587
100
AcDbEntity
  8
0
  6
Continuous
 62
     7
370
    15
100
AcDbLine
 10
2469.091071423793
 20
946.8515050044597
 30
0.0
 11
2461.091071423797
 21
946.8515050044597
 31
0.0
  0
ARC
  5
5E0
330
587
100
AcDbEntity
  8
0
  6
Continuous
 62
     7
370
    15
100
AcDbCircle
 10
2457.591071423795
 20
964.1765050044643
 30
0.0
 40
17.675000000005
100
AcDbArc
 50
258.5788137250069
 51
281.4211862749931
  0
LINE
  5
5E1
330
587
100
AcDbEntity
  8
0
  6
Continuous
 62
     7
370
    15
100
AcDbLine
 10
2446.091071423795
 20
946.8515050044597
 30
0.0
 11
2454.091071423793
 21
946.8515050044597
 31
0.0
  0
ARC
  5
5E2
330
587
100
AcDbEntity
  8
0
  6
Continuous
 62
     7
370
    15
100
AcDbCircle
 10
2442.591071423795
 20
964.1765050044643
 30
0.0
 40
17.67500000000498
100
AcDbArc
 50
258.5788137250069
 51
281.4211862749931
  0
LINE
  5
5E3
330
587
100
AcDbEntity
  8
0
  6
Continuous
 62
     7
370
    15
100
AcDbLine
 10
2431.091071423795
 20
946.8515050044597
 30
0.0
 11
2439.091071423793
 21
946.8515050044597
 31
0.0
  0
ARC
  5
5E4
330
587
100
AcDbEntity
  8
0
  6
Continuous
 62
     7
370
    15
100
AcDbCircle
 10
2427.591071423793
 20
964.1765050044643
 30
0.0
 40
17.67500000000501
100
AcDbArc
 50
258.5788137250069
 51
281.4211862749931
  0
LINE
  5
5E5
330
587
100
AcDbEntity
  8
0
  6
Continuous
 62
     7
370
    15
100
AcDbLine
 10
2421.891071423794
 20
946.8515050044597
 30
0.0
 11
2424.091071423791
 21
946.8515050044597
 31
0.0
  0
LINE
  5
5E6
330
587
100
AcDbEntity
  8
0
  6
Continuous
 62
     7
370
    15
100
AcDbLine
 10
2421.891071423794
 20
953.5515050044596
 30
0.0
 11
2421.891071423794
 21
946.8515050044597
 31
0.0
  0
LINE
  5
5E7
330
587
100
AcDbEntity
  8
0
  6
Continuous
 62
     7
370
    15
100
AcDbLine
 10
2424.091071423793
 20
953.5515050044596
 30
0.0
 11
2421.891071423794
 21
953.5515050044596
 31
0.0
  0
ARC
  5
5E8
330
587
100
AcDbEntity
  8
0
  6
Continuous
 62
     7
370
    15
100
AcDbCircle
 10
2427.591071423793
 20
936.2265050044548
 30
0.0
 40
17.67500000000479
100
AcDbArc
 50
78.57881372500691
 51
101.4211862749931
  0
LINE
  5
5E9
330
587
100
AcDbEntity
  8
0
  6
Continuous
 62
     7
370
    15
100
AcDbLine
 10
2439.091071423795
 20
953.5515050044596
 30
0.0
 11
2431.091071423793
 21
953.5515050044596
 31
0.0
  0
ARC
  5
5EA
330
587
100
AcDbEntity
  8
0
  6
Continuous
 62
     7
370
    15
100
AcDbCircle
 10
2442.591071423795
 20
936.2265050044548
 30
0.0
 40
17.67500000000485
100
AcDbArc
 50
78.57881372500691
 51
101.4211862749931
  0
LINE
  5
5EB
330
587
100
AcDbEntity
  8
0
  6
Continuous
 62
     7
370
    15
100
AcDbLine
 10
2454.091071423795
 20
953.5515050044597
 30
0.0
 11
2446.091071423795
 21
953.5515050044597
 31
0.0
  0
ARC
  5
5EC
330
587
100
AcDbEntity
  8
0
  6
Continuous
 62
     7
370
    15
100
AcDbCircle
 10
2457.591071423795
 20
936.2265050044548
 30
0.0
 40
17.67500000000479
100
AcDbArc
 50
78.57881372500691
 51
101.4211862749931
  0
LINE
  5
5ED
330
587
100
AcDbEntity
  8
0
  6
Continuous
 62
     7
370
    15
100
AcDbLine
 10
2461.091071423795
 20
953.5515050044597
 30
0.0
 11
2469.091071423795
 21
953.5515050044597
 31
0.0
  0
ARC
  5
5EE
330
587
100
AcDbEntity
  8
0
  6
Continuous
 62
     7
370
    15
100
AcDbCircle
 10
2472.591071423795
 20
936.2265050044548
 30
0.0
 40
17.67500000000479
100
AcDbArc
 50
78.57881372500691
 51
101.4211862749931
  0
LINE
  5
5EF
330
587
100
AcDbEntity
  8
0
  6
Continuous
 62
     7
370
    15
100
AcDbLine
 10
2476.091071423795
 20
953.5515050044597
 30
0.0
 11
2484.091071423795
 21
953.5515050044597
 31
0.0
  0
ARC
  5
5F0
330
587
100
AcDbEntity
  8
0
  6
Continuous
 62
     7
370
    15
100
AcDbCircle
 10
2487.591071423795
 20
936.226505004455
 30
0.0
 40
17.67500000000478
100
AcDbArc
 50
78.57881372500691
 51
101.4211862749931
  0
LINE
  5
5F1
330
587
100
AcDbEntity
  8
0
  6
Continuous
 62
     7
370
    15
100
AcDbLine
 10
2491.091071423795
 20
953.5515050044597
 30
0.0
 11
2493.291071423795
 21
953.5515050044597
 31
0.0
  0
LINE
  5
5F2
330
587
100
AcDbEntity
  8
0
  6
Continuous
 62
     7
370
    15
100
AcDbLine
 10
2493.291071423795
 20
953.5515050044597
 30
0.0
 11
2493.291071423795
 21
946.8515050044597
 31
0.0
  0
LINE
  5
5F3
330
587
100
AcDbEntity
  8
0
  6
Continuous
 62
     7
370
    15
100
AcDbLine
 10
2493.291071423795
 20
946.8515050044597
 30
0.0
 11
2491.091071423797
 21
946.8515050044597
 31
0.0
  0
ARC
  5
5F4
330
587
100
AcDbEntity
  8
0
  6
Continuous
 62
     7
370
    15
100
AcDbCircle
 10
2487.591071423795
 20
964.1765050044647
 30
0.0
 40
17.67500000000501
100
AcDbArc
 50
258.5788137250069
 51
281.4211862749931
  0
LINE
  5
5F5
330
587
100
AcDbEntity
  8
0
  6
Continuous
 62
     7
370
    15
100
AcDbLine
 10
2484.091071423793
 20
946.8515050044597
 30
0.0
 11
2476.091071423797
 21
946.8515050044597
 31
0.0
  0
ARC
  5
5F6
330
587
100
AcDbEntity
  8
0
  6
Continuous
 62
     7
370
    15
100
AcDbCircle
 10
2472.591071423795
 20
964.1765050044645
 30
0.0
 40
17.67500000000503
100
AcDbArc
 50
258.5788137250069
 51
281.4211862749931
  0
ENDBLK
  5
589
330
587
100
AcDbEntity
  8
0
100
AcDbBlockEnd
  0
BLOCK
  5
5F9
330
5F8
100
AcDbEntity
  8
0
100
AcDbBlockBegin
  2
4
 70
     0
 10
0.0
 20
0.0
 30
0.0
  3
4
  1

  0
LINE
  5
5FB
330
5F8
100
AcDbEntity
  8
0
  6
Continuous
 62
     7
370
    15
100
AcDbLine
 10
2564.129712451142
 20
969.1754705602418
 30
0.0
 11
2564.243299564183
 21
973.727168642444
 31
0.0
  0
LINE
  5
5FC
330
5F8
100
AcDbEntity
  8
0
  6
Continuous
 62
     7
370
    15
100
AcDbLine
 10
2557.395431474939
 20
973.8980564194211
 30
0.0
 11
2557.281844361899
 21
969.3463583372189
 31
0.0
  0
SPLINE
  5
5FD
330
5F8
100
AcDbEntity
  8
0
  6
Continuous
 62
     7
370
    15
100
AcDbSpline
210
0.0
220
0.0
230
1.0
 70
     8
 71
     3
 72
    24
 73
    20
 74
     0
 42
0.0000000001
 43
0.0000000001
 40
0.0
 40
0.0
 40
0.0
 40
0.0
 40
0.0083656737898311
 40
0.0785697177908228
 40
0.145175968466551
 40
0.2129633558599489
 40
0.2815714352197213
 40
0.3503983961614316
 40
0.4190582575533636
 40
0.4872986875319747
 40
0.5550966322521834
 40
0.6223189310781124
 40
0.6886348440254516
 40
0.7532644022927141
 40
0.8140164427669404
 40
0.8676457421612354
 40
0.9096711510917366
 40
0.9581785062129306
 40
1.0
 40
1.0
 40
1.0
 40
1.0
 10
2557.28412252528
 20
969.344843640291
 30
0.0
 10
2557.283179257141
 20
969.3364571568345
 30
0.0
 10
2557.274320160635
 20
969.2576919963721
 30
0.0
 10
2557.30026834334
 20
969.1106941650188
 30
0.0
 10
2557.363977527983
 20
968.9103069660413
 30
0.0
 10
2557.470246327262
 20
968.7205022529417
 30
0.0
 10
2557.61302278187
 20
968.5398804504512
 30
0.0
 10
2557.790807960366
 20
968.3704859636677
 30
0.0
 10
2557.999888127491
 20
968.2138943232263
 30
0.0
 10
2558.237121345554
 20
968.0711071196569
 30
0.0
 10
2558.499129382574
 20
967.9429806208682
 30
0.0
 10
2558.782093361424
 20
967.8303893972328
 30
0.0
 10
2559.080643363698
 20
967.7344019294185
 30
0.0
 10
2559.385595791347
 20
967.6564023425633
 30
0.0
 10
2559.68210776091
 20
967.5974838471134
 30
0.0
 10
2559.948403000003
 20
967.5574219841061
 30
0.0
 10
2560.197880704319
 20
967.529702491886
 30
0.0
 10
2560.429441305608
 20
967.5116429818235
 30
0.0
 10
2560.588352042902
 20
967.5061877880782
 30
0.0
 10
2560.661926371512
 20
967.5036620794694
 30
0.0
  0
SPLINE
  5
5FE
330
5F8
100
AcDbEntity
  8
0
  6
Continuous
 62
     7
370
    15
100
AcDbSpline
210
0.0
220
0.0
230
1.0
 70
     8
 71
     3
 72
    24
 73
    20
 74
     0
 42
0.0000000001
 43
0.0000000001
 40
0.0
 40
0.0
 40
0.0
 40
0.0
 40
0.0762664275517485
 40
0.1069924462638745
 40
0.1577844096482346
 40
0.2100906140739683
 40
0.2657624140773803
 40
0.3233493758173936
 40
0.3822804130182966
 40
0.4421157608203452
 40
0.5025703363789514
 40
0.56346571355448
 40
0.6247077865197026
 40
0.6862694722321105
 40
0.7480986386279576
 40
0.8102351853100431
 40
0.872844693679286
 40
0.9364329541883401
 40
1.0
 40
1.0
 40
1.0
 40
1.0
 10
2560.661926371512
 20
967.5036620794694
 30
0.0
 10
2560.7972316578
 20
967.5024632312426
 30
0.0
 10
2560.987048383679
 20
967.5007813941801
 30
0.0
 10
2561.264347729899
 20
967.5141301067451
 30
0.0
 10
2561.497280517036
 20
967.5323353032569
 30
0.0
 10
2561.768338398617
 20
967.565208189562
 30
0.0
 10
2562.043341201417
 20
967.6112876734423
 30
0.0
 10
2562.318822960948
 20
967.6718514511959
 30
0.0
 10
2562.58765878728
 20
967.7467529230696
 30
0.0
 10
2562.844882981604
 20
967.8357067474172
 30
0.0
 10
2563.086466348084
 20
967.9382141378516
 30
0.0
 10
2563.3092134283
 20
968.0537356193804
 30
0.0
 10
2563.510544027074
 20
968.1818051641185
 30
0.0
 10
2563.688229110179
 20
968.3220729012287
 30
0.0
 10
2563.840092297065
 20
968.4743683142301
 30
0.0
 10
2563.96418165789
 20
968.6386796021963
 30
0.0
 10
2564.056865871112
 20
968.8152110994808
 30
0.0
 10
2564.118034790091
 20
969.0021240025595
 30
0.0
 10
2564.125576819666
 20
969.1311935513471
 30
0.0
 10
2564.129347205293
 20
969.1957175587051
 30
0.0
  0
LINE
  5
5FF
330
5F8
100
AcDbEntity
  8
0
  6
Continuous
 62
     7
370
    15
100
AcDbLine
 10
2563.680816679835
 20
968.223213876854
 30
0.0
 11
2563.683320901946
 21
968.3235638433265
 31
0.0
  0
LINE
  5
600
330
5F8
100
AcDbEntity
  8
0
  6
Continuous
 62
     7
370
    15
100
AcDbLine
 10
2557.685315775316
 20
968.4783560390917
 30
0.0
 11
2557.68268404692
 21
968.3728966012136
 31
0.0
  0
LINE
  5
601
330
5F8
100
AcDbEntity
  8
0
  6
Continuous
 62
     7
370
    15
100
AcDbLine
 10
2563.360955737986
 20
955.3553445884226
 30
0.0
 11
2563.534147706274
 21
962.295546947732
 31
0.0
  0
LINE
  5
602
330
5F8
100
AcDbEntity
  8
0
  6
Continuous
 62
     7
370
    15
100
AcDbLine
 10
2557.571453130406
 20
963.8653145036723
 30
0.0
 11
2557.362823105072
 21
955.5050273127822
 31
0.0
  0
LINE
  5
603
330
5F8
100
AcDbEntity
  8
0
  6
Continuous
 62
     7
370
    15
100
AcDbLine
 10
2553.032749179604
 20
974.2625452486542
 30
0.0
 11
2553.146336292645
 21
978.8142433308562
 31
0.0
  0
LINE
  5
604
330
5F8
100
AcDbEntity
  8
0
  6
Continuous
 62
     7
370
    15
100
AcDbLine
 10
2546.298468203401
 20
978.9851311078333
 30
0.0
 11
2546.18488109036
 21
974.4334330256313
 31
0.0
  0
LINE
  5
605
330
5F8
100
AcDbEntity
  8
0
  6
Continuous
 62
     7
370
    15
100
AcDbLine
 10
2557.84053017719
 20
954.6934288224569
 30
0.0
 11
2558.004252058327
 21
954.5674806535073
 31
0.0
  0
LINE
  5
606
330
5F8
100
AcDbEntity
  8
0
  6
Continuous
 62
     7
370
    15
100
AcDbLine
 10
2562.673561561961
 20
954.4509585606901
 30
0.0
 11
2562.843361788149
 21
954.568583723012
 31
0.0
  0
SPLINE
  5
607
330
5F8
100
AcDbEntity
  8
0
  6
Continuous
 62
     7
370
    15
100
AcDbSpline
210
0.0
220
0.0
230
1.0
 70
     8
 71
     3
 72
    24
 73
    20
 74
     0
 42
0.0000000001
 43
0.0000000001
 40
0.0
 40
0.0
 40
0.0
 40
0.0
 40
0.0083656737897985
 40
0.0785697177907944
 40
0.1451759684665172
 40
0.2129633558599067
 40
0.2815714352196758
 40
0.3503983961613877
 40
0.4190582575533221
 40
0.4872986875319276
 40
0.5550966322521406
 40
0.6223189310780669
 40
0.6886348440254081
 40
0.7532644022926795
 40
0.814016442766915
 40
0.8676457421612228
 40
0.9096711510917362
 40
0.9581785062129702
 40
1.0
 40
1.0
 40
1.0
 40
1.0
 10
2546.187159253742
 20
974.4319183287032
 30
0.0
 10
2546.186215985604
 20
974.4235318452467
 30
0.0
 10
2546.177356889097
 20
974.3447666847844
 30
0.0
 10
2546.203305071803
 20
974.1977688534312
 30
0.0
 10
2546.267014256445
 20
973.9973816544537
 30
0.0
 10
2546.373283055724
 20
973.8075769413539
 30
0.0
 10
2546.516059510333
 20
973.6269551388636
 30
0.0
 10
2546.693844688828
 20
973.4575606520801
 30
0.0
 10
2546.902924855952
 20
973.3009690116388
 30
0.0
 10
2547.140158074015
 20
973.1581818080693
 30
0.0
 10
2547.402166111036
 20
973.0300553092806
 30
0.0
 10
2547.685130089886
 20
972.9174640856452
 30
0.0
 10
2547.98368009216
 20
972.8214766178309
 30
0.0
 10
2548.288632519808
 20
972.7434770309756
 30
0.0
 10
2548.585144489372
 20
972.6845585355256
 30
0.0
 10
2548.851439728465
 20
972.6444966725184
 30
0.0
 10
2549.100917432781
 20
972.6167771802982
 30
0.0
 10
2549.332478034069
 20
972.5987176702359
 30
0.0
 10
2549.491388771365
 20
972.5932624764904
 30
0.0
 10
2549.564963099974
 20
972.5907367678816
 30
0.0
  0
SPLINE
  5
608
330
5F8
100
AcDbEntity
  8
0
  6
Continuous
 62
     7
370
    15
100
AcDbSpline
210
0.0
220
0.0
230
1.0
 70
     8
 71
     3
 72
    24
 73
    20
 74
     0
 42
0.0000000001
 43
0.0000000001
 40
0.0
 40
0.0
 40
0.0
 40
0.0
 40
0.0762664275517481
 40
0.1069924462638665
 40
0.157784409648238
 40
0.2100906140739707
 40
0.2657624140773931
 40
0.3233493758174282
 40
0.3822804130183182
 40
0.4421157608203994
 40
0.5025703363790053
 40
0.5634657135545084
 40
0.6247077865197362
 40
0.6862694722321613
 40
0.7480986386279828
 40
0.810235185310074
 40
0.8728446936793343
 40
0.9364329541883913
 40
1.0
 40
1.0
 40
1.0
 40
1.0
 10
2549.564963099974
 20
972.5907367678816
 30
0.0
 10
2549.700268386262
 20
972.5895379196549
 30
0.0
 10
2549.89008511214
 20
972.5878560825924
 30
0.0
 10
2550.167384458361
 20
972.6012047951574
 30
0.0
 10
2550.400317245498
 20
972.6194099916691
 30
0.0
 10
2550.671375127079
 20
972.6522828779744
 30
0.0
 10
2550.946377929879
 20
972.6983623618545
 30
0.0
 10
2551.221859689409
 20
972.7589261396081
 30
0.0
 10
2551.490695515742
 20
972.833827611482
 30
0.0
 10
2551.747919710066
 20
972.9227814358294
 30
0.0
 10
2551.989503076546
 20
973.0252888262642
 30
0.0
 10
2552.212250156762
 20
973.1408103077928
 30
0.0
 10
2552.413580755537
 20
973.2688798525309
 30
0.0
 10
2552.591265838641
 20
973.4091475896411
 30
0.0
 10
2552.743129025528
 20
973.5614430026425
 30
0.0
 10
2552.867218386352
 20
973.7257542906087
 30
0.0
 10
2552.959902599574
 20
973.9022857878934
 30
0.0
 10
2553.021071518554
 20
974.0891986909719
 30
0.0
 10
2553.028613548127
 20
974.2182682397594
 30
0.0
 10
2553.032383933755
 20
974.2827922471175
 30
0.0
  0
LINE
  5
609
330
5F8
100
AcDbEntity
  8
0
  6
Continuous
 62
     7
370
    15
100
AcDbLine
 10
2552.583853408296
 20
973.3102885652662
 30
0.0
 11
2552.586357630409
 21
973.4106385317389
 31
0.0
  0
LINE
  5
60A
330
5F8
100
AcDbEntity
  8
0
  6
Continuous
 62
     7
370
    15
100
AcDbLine
 10
2546.588352503778
 20
973.5654307275039
 30
0.0
 11
2546.585720775382
 21
973.4599712896258
 31
0.0
  0
LINE
  5
60B
330
5F8
100
AcDbEntity
  8
0
  6
Continuous
 62
     7
370
    15
100
AcDbLine
 10
2552.263992466448
 20
960.4424192768348
 30
0.0
 11
2552.413862806841
 21
966.448070117709
 31
0.0
  0
LINE
  5
60C
330
5F8
100
AcDbEntity
  8
0
  6
Continuous
 62
     7
370
    15
100
AcDbLine
 10
2546.474489858868
 20
968.9523891920845
 30
0.0
 11
2546.265859833534
 21
960.5921020011944
 31
0.0
  0
LINE
  5
60D
330
5F8
100
AcDbEntity
  8
0
  6
Continuous
 62
     7
370
    15
100
AcDbLine
 10
2541.935785908066
 20
979.3496199370665
 30
0.0
 11
2542.049373021106
 21
983.9013180192685
 31
0.0
  0
LINE
  5
60E
330
5F8
100
AcDbEntity
  8
0
  6
Continuous
 62
     7
370
    15
100
AcDbLine
 10
2535.201504931863
 20
984.0722057962455
 30
0.0
 11
2535.087917818823
 21
979.5205077140435
 31
0.0
  0
LINE
  5
60F
330
5F8
100
AcDbEntity
  8
0
  6
Continuous
 62
     7
370
    15
100
AcDbLine
 10
2546.743566905652
 20
959.7805035108692
 30
0.0
 11
2546.907288786789
 21
959.6545553419195
 31
0.0
  0
LINE
  5
610
330
5F8
100
AcDbEntity
  8
0
  6
Continuous
 62
     7
370
    15
100
AcDbLine
 10
2551.576598290423
 20
959.5380332491025
 30
0.0
 11
2551.746398516611
 21
959.6556584114244
 31
0.0
  0
SPLINE
  5
611
330
5F8
100
AcDbEntity
  8
0
  6
Continuous
 62
     7
370
    15
100
AcDbSpline
210
0.0
220
0.0
230
1.0
 70
     8
 71
     3
 72
    24
 73
    20
 74
     0
 42
0.0000000001
 43
0.0000000001
 40
0.0
 40
0.0
 40
0.0
 40
0.0
 40
0.0083656737898509
 40
0.0785697177908439
 40
0.1451759684665728
 40
0.2129633558599658
 40
0.2815714352197442
 40
0.3503983961614484
 40
0.4190582575533878
 40
0.4872986875319944
 40
0.55509663225221
 40
0.6223189310781381
 40
0.6886348440254733
 40
0.7532644022927433
 40
0.814016442766972
 40
0.8676457421612793
 40
0.9096711510918185
 40
0.9581785062131499
 40
1.0
 40
1.0
 40
1.0
 40
1.0
 10
2535.090195982204
 20
979.5189930171154
 30
0.0
 10
2535.089252714066
 20
979.510606533659
 30
0.0
 10
2535.080393617559
 20
979.4318413731966
 30
0.0
 10
2535.106341800264
 20
979.2848435418433
 30
0.0
 10
2535.170050984907
 20
979.084456342866
 30
0.0
 10
2535.276319784186
 20
978.8946516297661
 30
0.0
 10
2535.419096238795
 20
978.7140298272756
 30
0.0
 10
2535.596881417291
 20
978.5446353404921
 30
0.0
 10
2535.805961584415
 20
978.3880437000508
 30
0.0
 10
2536.043194802477
 20
978.2452564964815
 30
0.0
 10
2536.305202839499
 20
978.1171299976929
 30
0.0
 10
2536.588166818348
 20
978.0045387740575
 30
0.0
 10
2536.886716820623
 20
977.9085513062431
 30
0.0
 10
2537.191669248271
 20
977.830551719388
 30
0.0
 10
2537.488181217834
 20
977.7716332239378
 30
0.0
 10
2537.754476456928
 20
977.7315713609308
 30
0.0
 10
2538.003954161244
 20
977.7038518687104
 30
0.0
 10
2538.235514762532
 20
977.6857923586481
 30
0.0
 10
2538.394425499827
 20
977.6803371649027
 30
0.0
 10
2538.467999828436
 20
977.6778114562938
 30
0.0
  0
SPLINE
  5
612
330
5F8
100
AcDbEntity
  8
0
  6
Continuous
 62
     7
370
    15
100
AcDbSpline
210
0.0
220
0.0
230
1.0
 70
     8
 71
     3
 72
    24
 73
    20
 74
     0
 42
0.0000000001
 43
0.0000000001
 40
0.0
 40
0.0
 40
0.0
 40
0.0
 40
0.0762664275517475
 40
0.106992446263866
 40
0.1577844096482426
 40
0.2100906140739881
 40
0.2657624140773945
 40
0.3233493758174311
 40
0.382280413018308
 40
0.4421157608203812
 40
0.5025703363789934
 40
0.563465713554488
 40
0.6247077865197212
 40
0.6862694722321506
 40
0.7480986386279892
 40
0.8102351853100927
 40
0.8728446936793369
 40
0.9364329541883948
 40
1.0
 40
1.0
 40
1.0
 40
1.0
 10
2538.467999828436
 20
977.6778114562938
 30
0.0
 10
2538.603305114723
 20
977.6766126080671
 30
0.0
 10
2538.793121840603
 20
977.6749307710048
 30
0.0
 10
2539.070421186823
 20
977.6882794835696
 30
0.0
 10
2539.30335397396
 20
977.7064846800813
 30
0.0
 10
2539.574411855542
 20
977.7393575663866
 30
0.0
 10
2539.849414658342
 20
977.7854370502668
 30
0.0
 10
2540.124896417872
 20
977.8460008280204
 30
0.0
 10
2540.393732244205
 20
977.9209022998943
 30
0.0
 10
2540.650956438528
 20
978.0098561242416
 30
0.0
 10
2540.892539805007
 20
978.1123635146764
 30
0.0
 10
2541.115286885224
 20
978.227884996205
 30
0.0
 10
2541.316617483998
 20
978.3559545409431
 30
0.0
 10
2541.494302567103
 20
978.4962222780533
 30
0.0
 10
2541.64616575399
 20
978.6485176910549
 30
0.0
 10
2541.770255114814
 20
978.8128289790209
 30
0.0
 10
2541.862939328036
 20
978.9893604763056
 30
0.0
 10
2541.924108247016
 20
979.1762733793843
 30
0.0
 10
2541.931650276589
 20
979.3053429281718
 30
0.0
 10
2541.935420662217
 20
979.3698669355297
 30
0.0
  0
LINE
  5
613
330
5F8
100
AcDbEntity
  8
0
  6
Continuous
 62
     7
370
    15
100
AcDbLine
 10
2541.486890136758
 20
978.3973632536785
 30
0.0
 11
2541.489394358871
 21
978.4977132201511
 31
0.0
  0
LINE
  5
614
330
5F8
100
AcDbEntity
  8
0
  6
Continuous
 62
     7
370
    15
100
AcDbLine
 10
2535.49138923224
 20
978.6525054159163
 30
0.0
 11
2535.488757503844
 21
978.547045978038
 31
0.0
  0
LINE
  5
615
330
5F8
100
AcDbEntity
  8
0
  6
Continuous
 62
     7
370
    15
100
AcDbLine
 10
2541.16702919491
 20
965.5294939652472
 30
0.0
 11
2541.316899535303
 21
971.5351448061213
 31
0.0
  0
LINE
  5
616
330
5F8
100
AcDbEntity
  8
0
  6
Continuous
 62
     7
370
    15
100
AcDbLine
 10
2535.377526587331
 20
974.039463880497
 30
0.0
 11
2535.168896561996
 21
965.6791766896066
 31
0.0
  0
LINE
  5
617
330
5F8
100
AcDbEntity
  8
0
  6
Continuous
 62
     7
370
    15
100
AcDbLine
 10
2530.838822636528
 20
984.4366946254787
 30
0.0
 11
2530.952409749569
 21
988.9883927076807
 31
0.0
  0
LINE
  5
618
330
5F8
100
AcDbEntity
  8
0
  6
Continuous
 62
     7
370
    15
100
AcDbLine
 10
2524.104541660325
 20
989.1592804846579
 30
0.0
 11
2523.990954547285
 21
984.6075824024557
 31
0.0
  0
LINE
  5
619
330
5F8
100
AcDbEntity
  8
0
  6
Continuous
 62
     7
370
    15
100
AcDbLine
 10
2535.646603634114
 20
964.8675781992816
 30
0.0
 11
2535.810325515251
 21
964.7416300303317
 31
0.0
  0
LINE
  5
61A
330
5F8
100
AcDbEntity
  8
0
  6
Continuous
 62
     7
370
    15
100
AcDbLine
 10
2540.479635018885
 20
964.6251079375147
 30
0.0
 11
2540.649435245073
 21
964.7427330998366
 31
0.0
  0
SPLINE
  5
61B
330
5F8
100
AcDbEntity
  8
0
  6
Continuous
 62
     7
370
    15
100
AcDbSpline
210
0.0
220
0.0
230
1.0
 70
     8
 71
     3
 72
    24
 73
    20
 74
     0
 42
0.0000000001
 43
0.0000000001
 40
0.0
 40
0.0
 40
0.0
 40
0.0
 40
0.0083656737898962
 40
0.0785697177908962
 40
0.1451759684666178
 40
0.2129633558600073
 40
0.2815714352197834
 40
0.3503983961614845
 40
0.41905825755342
 40
0.4872986875320266
 40
0.5550966322522367
 40
0.6223189310781623
 40
0.6886348440254975
 40
0.7532644022927655
 40
0.814016442766993
 40
0.867645742161291
 40
0.9096711510918279
 40
0.9581785062131496
 40
1.0
 40
1.0
 40
1.0
 40
1.0
 10
2523.993232710666
 20
984.6060677055277
 30
0.0
 10
2523.992289442528
 20
984.5976812220712
 30
0.0
 10
2523.983430346021
 20
984.5189160616088
 30
0.0
 10
2524.009378528726
 20
984.3719182302555
 30
0.0
 10
2524.073087713369
 20
984.171531031278
 30
0.0
 10
2524.179356512648
 20
983.9817263181783
 30
0.0
 10
2524.322132967257
 20
983.8011045156878
 30
0.0
 10
2524.499918145753
 20
983.6317100289043
 30
0.0
 10
2524.708998312877
 20
983.475118388463
 30
0.0
 10
2524.94623153094
 20
983.3323311848936
 30
0.0
 10
2525.208239567961
 20
983.2042046861049
 30
0.0
 10
2525.491203546811
 20
983.0916134624697
 30
0.0
 10
2525.789753549084
 20
982.9956259946554
 30
0.0
 10
2526.094705976733
 20
982.9176264078002
 30
0.0
 10
2526.391217946296
 20
982.8587079123501
 30
0.0
 10
2526.657513185389
 20
982.818646049343
 30
0.0
 10
2526.906990889706
 20
982.7909265571229
 30
0.0
 10
2527.138551490994
 20
982.7728670470603
 30
0.0
 10
2527.297462228289
 20
982.7674118533151
 30
0.0
 10
2527.371036556898
 20
982.7648861447061
 30
0.0
  0
SPLINE
  5
61C
330
5F8
100
AcDbEntity
  8
0
  6
Continuous
 62
     7
370
    15
100
AcDbSpline
210
0.0
220
0.0
230
1.0
 70
     8
 71
     3
 72
    24
 73
    20
 74
     0
 42
0.0000000001
 43
0.0000000001
 40
0.0
 40
0.0
 40
0.0
 40
0.0
 40
0.0762664275517373
 40
0.1069924462638509
 40
0.1577844096482273
 40
0.2100906140739591
 40
0.2657624140773649
 40
0.3233493758174107
 40
0.3822804130182942
 40
0.4421157608203637
 40
0.5025703363789722
 40
0.5634657135544772
 40
0.6247077865197061
 40
0.6862694722321319
 40
0.7480986386279676
 40
0.810235185310063
 40
0.8728446936793073
 40
0.9364329541883648
 40
1.0
 40
1.0
 40
1.0
 40
1.0
 10
2527.371036556898
 20
982.7648861447061
 30
0.0
 10
2527.506341843186
 20
982.7636872964795
 30
0.0
 10
2527.696158569064
 20
982.762005459417
 30
0.0
 10
2527.973457915285
 20
982.7753541719818
 30
0.0
 10
2528.206390702422
 20
982.7935593684937
 30
0.0
 10
2528.477448584004
 20
982.8264322547989
 30
0.0
 10
2528.752451386803
 20
982.8725117386792
 30
0.0
 10
2529.027933146334
 20
982.9330755164328
 30
0.0
 10
2529.296768972667
 20
983.0079769883067
 30
0.0
 10
2529.55399316699
 20
983.0969308126539
 30
0.0
 10
2529.795576533469
 20
983.1994382030885
 30
0.0
 10
2530.018323613686
 20
983.3149596846173
 30
0.0
 10
2530.21965421246
 20
983.4430292293554
 30
0.0
 10
2530.397339295566
 20
983.5832969664656
 30
0.0
 10
2530.549202482452
 20
983.7355923794669
 30
0.0
 10
2530.673291843277
 20
983.8999036674332
 30
0.0
 10
2530.765976056498
 20
984.0764351647178
 30
0.0
 10
2530.827144975478
 20
984.2633480677964
 30
0.0
 10
2530.834687005051
 20
984.3924176165838
 30
0.0
 10
2530.838457390679
 20
984.4569416239421
 30
0.0
  0
LINE
  5
61D
330
5F8
100
AcDbEntity
  8
0
  6
Continuous
 62
     7
370
    15
100
AcDbLine
 10
2530.389926865221
 20
983.4844379420909
 30
0.0
 11
2530.392431087332
 21
983.5847879085633
 31
0.0
  0
LINE
  5
61E
330
5F8
100
AcDbEntity
  8
0
  6
Continuous
 62
     7
370
    15
100
AcDbLine
 10
2524.394425960702
 20
983.7395801043285
 30
0.0
 11
2524.391794232306
 21
983.6341206664503
 31
0.0
  0
LINE
  5
61F
330
5F8
100
AcDbEntity
  8
0
  6
Continuous
 62
     7
370
    15
100
AcDbLine
 10
2530.070065923372
 20
970.6165686536595
 30
0.0
 11
2530.219936263765
 21
976.6222194945337
 31
0.0
  0
LINE
  5
620
330
5F8
100
AcDbEntity
  8
0
  6
Continuous
 62
     7
370
    15
100
AcDbLine
 10
2524.280563315792
 20
979.1265385689092
 30
0.0
 11
2524.071933290458
 21
970.766251378019
 31
0.0
  0
LINE
  5
621
330
5F8
100
AcDbEntity
  8
0
  6
Continuous
 62
     7
370
    15
100
AcDbLine
 10
2519.74185936499
 20
989.5237693138914
 30
0.0
 11
2519.855446478029
 21
994.0754673960936
 31
0.0
  0
LINE
  5
622
330
5F8
100
AcDbEntity
  8
0
  6
Continuous
 62
     7
370
    15
100
AcDbLine
 10
2513.007578388786
 20
994.2463551730707
 30
0.0
 11
2512.893991275745
 21
989.6946570908687
 31
0.0
  0
LINE
  5
623
330
5F8
100
AcDbEntity
  8
0
  6
Continuous
 62
     7
370
    15
100
AcDbLine
 10
2524.549640362576
 20
969.9546528876938
 30
0.0
 11
2524.713362243713
 21
969.8287047187442
 31
0.0
  0
LINE
  5
624
330
5F8
100
AcDbEntity
  8
0
  6
Continuous
 62
     7
370
    15
100
AcDbLine
 10
2529.382671747347
 20
969.7121826259271
 30
0.0
 11
2529.552471973536
 21
969.8298077882489
 31
0.0
  0
SPLINE
  5
625
330
5F8
100
AcDbEntity
  8
0
  6
Continuous
 62
     7
370
    15
100
AcDbSpline
210
0.0
220
0.0
230
1.0
 70
     8
 71
     3
 72
    24
 73
    20
 74
     0
 42
0.0000000001
 43
0.0000000001
 40
0.0
 40
0.0
 40
0.0
 40
0.0
 40
0.0157570988400421
 40
0.0854378572747376
 40
0.1515476395475377
 40
0.2188297546036322
 40
0.2869264443679627
 40
0.3552403842188521
 40
0.4233884700434178
 40
0.4911202508045375
 40
0.5584128444954565
 40
0.6251340830304911
 40
0.6909556916887408
 40
0.7551035153853255
 40
0.8154027234571627
 40
0.8686322818009049
 40
0.9103444425379359
 40
0.9584902344575967
 40
1.0
 40
1.0
 40
1.0
 40
1.0
 10
2512.898576642597
 20
989.7157357521704
 30
0.0
 10
2512.896669795932
 20
989.6998248635318
 30
0.0
 10
2512.886330526321
 20
989.6135531299842
 30
0.0
 10
2512.911961652438
 20
989.4590085764477
 30
0.0
 10
2512.976245576165
 20
989.2586015383095
 30
0.0
 10
2513.082360105013
 20
989.0688021504015
 30
0.0
 10
2513.225178652177
 20
988.8881788949371
 30
0.0
 10
2513.402952477069
 20
988.7187848000635
 30
0.0
 10
2513.612035678781
 20
988.5621930548726
 30
0.0
 10
2513.849268090215
 20
988.4194058791468
 30
0.0
 10
2514.111276341226
 20
988.2912793729715
 30
0.0
 10
2514.394240263476
 20
988.1786881512898
 30
0.0
 10
2514.692790280605
 20
988.0827006829626
 30
0.0
 10
2514.997742704432
 20
988.0047010962394
 30
0.0
 10
2515.294254674931
 20
987.945782600757
 30
0.0
 10
2515.560549913815
 20
987.9057207377572
 30
0.0
 10
2515.81002761817
 20
987.878001245536
 30
0.0
 10
2516.041588219459
 20
987.8599417354726
 30
0.0
 10
2516.200498956769
 20
987.8544865417273
 30
0.0
 10
2516.274073285396
 20
987.8519608331179
 30
0.0
  0
SPLINE
  5
626
330
5F8
100
AcDbEntity
  8
0
  6
Continuous
 62
     7
370
    15
100
AcDbSpline
210
0.0
220
0.0
230
1.0
 70
     8
 71
     3
 72
    24
 73
    20
 74
     0
 42
0.0000000001
 43
0.0000000001
 40
0.0
 40
0.0
 40
0.0
 40
0.0
 40
0.0780064755200283
 40
0.1094335202062109
 40
0.1613843218347763
 40
0.2148839124984366
 40
0.2718258861015125
 40
0.3307267165952312
 40
0.3910022881500626
 40
0.4522028025013755
 40
0.5140366725294321
 40
0.5763214012333638
 40
0.6389607357252475
 40
0.7019269750524794
 40
0.7651667977381301
 40
0.8287210137098917
 40
0.8927589821722047
 40
0.957798033382113
 40
1.0
 40
1.0
 40
1.0
 40
1.0
 10
2516.274073285396
 20
987.8519608331179
 30
0.0
 10
2516.409378571672
 20
987.8507619848921
 30
0.0
 10
2516.599195297539
 20
987.849080147831
 30
0.0
 10
2516.876494643762
 20
987.8624288603944
 30
0.0
 10
2517.109427430841
 20
987.8806340569136
 30
0.0
 10
2517.380485312679
 20
987.9135069431901
 30
0.0
 10
2517.655488114451
 20
987.9595864271884
 30
0.0
 10
2517.930969878026
 20
988.0201502044799
 30
0.0
 10
2518.199805688744
 20
988.0950516781403
 30
0.0
 10
2518.457029942672
 20
988.1840054956709
 30
0.0
 10
2518.698613083265
 20
988.2865129119412
 30
0.0
 10
2518.921361015751
 20
988.4020342959944
 30
0.0
 10
2519.122688406201
 20
988.5301042076765
 30
0.0
 10
2519.300385554231
 20
988.6703705648935
 30
0.0
 10
2519.452203403293
 20
988.822671163288
 30
0.0
 10
2519.576463358586
 20
988.9869629399671
 30
0.0
 10
2519.668502225449
 20
989.1635682470216
 30
0.0
 10
2519.724641453766
 20
989.3282628194224
 30
0.0
 10
2519.731781858972
 20
989.4345847147844
 30
0.0
 10
2519.734591783274
 20
989.4764249842046
 30
0.0
  0
LINE
  5
627
330
5F8
100
AcDbEntity
  8
0
  6
Continuous
 62
     7
370
    15
100
AcDbLine
 10
2519.292963593681
 20
988.5715126305038
 30
0.0
 11
2519.295467815793
 21
988.6718625969768
 31
0.0
  0
LINE
  5
628
330
5F8
100
AcDbEntity
  8
0
  6
Continuous
 62
     7
370
    15
100
AcDbLine
 10
2513.297462689163
 20
988.8266547927413
 30
0.0
 11
2513.294830960767
 21
988.7211953548632
 31
0.0
  0
LINE
  5
629
330
5F8
100
AcDbEntity
  8
0
  6
Continuous
 62
     7
370
    15
100
AcDbLine
 10
2518.97062047334
 20
975.7047812234079
 30
0.0
 11
2519.120490813732
 21
981.7104320642821
 31
0.0
  0
LINE
  5
62A
330
5F8
100
AcDbEntity
  8
0
  6
Continuous
 62
     7
370
    15
100
AcDbLine
 10
2513.181120223562
 20
984.2148456212598
 30
0.0
 11
2512.972487840425
 21
975.8544639477674
 31
0.0
  0
LINE
  5
62B
330
5F8
100
AcDbEntity
  8
0
  6
Continuous
 62
     7
370
    15
100
AcDbLine
 10
2513.450194912543
 20
975.0428654574422
 30
0.0
 11
2513.61391679368
 21
974.9169172884926
 31
0.0
  0
LINE
  5
62C
330
5F8
100
AcDbEntity
  8
0
  6
Continuous
 62
     7
370
    15
100
AcDbLine
 10
2518.283226297314
 20
974.8003951956755
 30
0.0
 11
2518.453026523503
 21
974.9180203579973
 31
0.0
  0
LWPOLYLINE
  5
62D
330
5F8
100
AcDbEntity
  8
0
  6
Continuous
 62
     7
370
    15
100
AcDbPolyline
 90
       44
 70
   128
 43
0.0
 10
2558.988366579754
 20
974.6519798545294
 10
2558.765543877573
 20
974.5188333388192
 10
2558.586494817949
 20
974.3706349526942
 10
2558.45503552073
 20
974.2105432874604
 10
2558.373967812605
 20
974.0419704190189
 10
2558.345019511025
 20
973.8685091853927
 10
2558.368807598781
 20
973.693856611622
 10
2558.444825074082
 20
973.5217351140933
 10
2558.571451756419
 20
973.3558131636979
 10
2558.745988817902
 20
973.1996270987428
 10
2558.964716304087
 20
973.0565057540403
 10
2559.222972418349
 20
972.9294995125725
 10
2559.515252879987
 20
972.8213152918742
 10
2559.835328238401
 20
972.7342588507857
 10
2560.176376643027
 20
972.6701856462058
 10
2560.531129239231
 20
972.6304612872493
 10
2560.892025091328
 20
972.6159324296601
 10
2561.251372330802
 20
972.6269087308129
 10
2561.601512095122
 20
972.6631562499058
 10
2561.934981763108
 20
972.7239024340001
 10
2562.24467400774
 20
972.8078525836464
 10
2562.523988276497
 20
972.9132174471549
 10
2562.766971470671
 20
973.0377513553895
 10
2562.968444825333
 20
973.1788000843055
 10
2563.124114285717
 20
973.3333574251277
 10
2563.230662027541
 20
973.4981292564718
 10
2563.285817170669
 20
973.6696037528208
 10
2563.288404178986
 20
973.8441262329907
 10
2563.238367914899
 20
974.017977053314
 10
2563.136774814506
 20
974.1874508853864
 10
2562.985790158363
 20
974.3489356887096
 10
2562.788631922281
 20
974.4989896950624
 10
2562.549502191769
 20
974.634414763816
 10
2562.273497601865
 20
974.7523245447478
 10
2561.966500711219
 20
974.8502059955866
 10
2561.635054625562
 20
974.9259729431443
 10
2561.286223542769
 20
974.9780105464772
 10
2560.927442191746
 20
975.0052097144148
 10
2560.566357374094
 20
975.0069907439144
 10
2560.210664985802
 20
974.9833156754245
 10
2559.867945992591
 20
974.9346891019266
 10
2559.545504854792
 20
974.8621474144114
 10
2559.250213845448
 20
974.7672367130054
 10
2558.988366579754
 20
974.6519798545294
  0
LWPOLYLINE
  5
62E
330
5F8
100
AcDbEntity
  8
0
  6
Continuous
 62
     7
370
    15
100
AcDbPolyline
 90
       52
 70
   128
 43
0.0
 10
2563.353172133228
 20
972.6510638104116
 10
2563.617006725074
 20
972.804931378401
 10
2563.838431928003
 20
972.974074365489
 10
2564.014091161646
 20
973.1559287364065
 10
2564.14132161108
 20
973.3477377642625
 10
2564.218194592382
 20
973.5465938197137
 10
2564.243544789515
 20
973.7494824476627
 10
2564.216987919332
 20
973.9533280633226
 10
2564.138926556914
 20
974.1550405749491
 10
2564.010544032944
 20
974.3515622264801
 10
2563.833786495619
 20
974.5399139500019
 10
2563.611333409029
 20
974.7172405253806
 10
2563.34655693521
 20
974.8808538624908
 10
2563.043470815606
 20
975.0282737499196
 10
2562.706669526843
 20
975.1572654524453
 10
2562.341258633141
 20
975.2658735873447
 10
2561.95277739117
 20
975.3524517660016
 10
2561.547114780561
 20
975.4156875514805
 10
2561.130420232983
 20
975.4546223537326
 10
2560.709010413021
 20
975.4686659608438
 10
2560.289273463983
 20
975.4576054860454
 10
2559.877572170163
 20
975.4216085948611
 10
2559.480147503508
 20
975.3612209634678
 10
2559.103024016853
 20
975.2773580068017
 10
2558.751918517836
 20
975.1712910018008
 10
2558.432153407927
 20
975.0446278161422
 10
2558.14857600024
 20
974.8992885346069
 10
2557.905485039212
 20
974.7374763525526
 10
2557.70656553602
 20
974.5616441777166
 10
2557.554832907566
 20
974.3744574466363
 10
2557.452587265828
 20
974.1787537193472
 10
2557.401378550511
 20
973.9774996648653
 10
2557.401983033542
 20
973.7737460895099
 10
2557.454391551573
 20
973.570581689788
 10
2557.557809644892
 20
973.3710862309052
 10
2557.710669600625
 20
973.1782838606637
 10
2557.910654217659
 20
972.9950972664646
 10
2558.154731933052
 20
972.8243033703455
 10
2558.439202777439
 20
972.6684912336741
 10
2558.759754462793
 20
972.5300228096159
 10
2559.111527752314
 20
972.4109971383331
 10
2559.489190121514
 20
972.3132185276741
 10
2559.887016593842
 20
972.2381692017062
 10
2560.298976525499
 20
972.1869868317103
 10
2560.718825023851
 20
972.1604472902431
 10
2561.140197613633
 20
972.1589528897
 10
2561.556706715907
 20
972.1825262836704
 10
2561.962038477248
 20
972.2308101235309
 10
2562.350048481328
 20
972.3030724754869
 10
2562.714854891999
 20
972.3982179159429
 10
2563.05092761594
 20
972.5148041370079
 10
2563.353172133228
 20
972.6510638104116
  0
LINE
  5
62F
330
5F8
100
AcDbEntity
  8
0
  6
Continuous
 62
     7
370
    15
100
AcDbLine
 10
2564.129712451142
 20
969.1754705602418
 30
0.0
 11
2564.129956189022
 21
969.1925817616708
 31
0.0
  0
LWPOLYLINE
  5
630
330
5F8
100
AcDbEntity
  8
0
  6
Continuous
 62
     7
370
    15
100
AcDbPolyline
 90
       20
 70
   128
 43
0.0
 10
2562.901143017685
 20
967.2806403013513
 10
2562.618829057519
 20
967.1543840270404
 10
2562.303371143837
 20
967.0476962842521
 10
2561.960166849003
 20
966.9624025298451
 10
2561.595088493656
 20
966.8999621636054
 10
2561.214382669674
 20
966.8614435575106
 10
2560.824563359259
 20
966.8475057755911
 10
2560.432300478888
 20
966.8583872971591
 10
2560.044305755202
 20
966.8939019363641
 10
2559.667217885494
 20
966.9534420278823
 10
2559.307488947765
 20
967.0359888242408
 10
2558.971274003874
 20
967.1401299268673
 10
2558.664325784728
 20
967.2640834526225
 10
2558.391896259458
 20
967.4057285223144
 10
2558.158646772774
 20
967.5626415495289
 10
2557.968568288061
 20
967.7321377088659
 10
2557.824913100894
 20
967.9113168740464
 10
2557.730139191353
 20
968.0971132398758
 10
2557.685868167305
 20
968.2863477790226
 10
2557.68268404692
 20
968.3728966012136
  0
ARC
  5
631
330
5F8
100
AcDbEntity
  8
0
  6
Continuous
 62
     7
370
    15
100
AcDbCircle
 10
2562.496623983751
 20
968.4089987092052
 30
0.0
 40
1.198677748767191
100
AcDbArc
 50
289.7228712338765
 51
351.0836981675788
  0
LWPOLYLINE
  5
632
330
5F8
100
AcDbEntity
  8
0
  6
Continuous
 62
     7
370
    15
100
AcDbPolyline
 90
       20
 70
   128
 43
0.0
 10
2540.707216474609
 20
977.4547896781758
 10
2540.424902514443
 20
977.3285334038648
 10
2540.109444600761
 20
977.2218456610767
 10
2539.766240305927
 20
977.1365519066698
 10
2539.40116195058
 20
977.07411154043
 10
2539.020456126598
 20
977.0355929343352
 10
2538.630636816182
 20
977.0216551524155
 10
2538.238373935812
 20
977.0325366739836
 10
2537.850379212125
 20
977.0680513131885
 10
2537.473291342418
 20
977.127591404707
 10
2537.113562404689
 20
977.2101382010655
 10
2536.777347460798
 20
977.3142793036917
 10
2536.470399241652
 20
977.4382328294471
 10
2536.197969716382
 20
977.5798778991388
 10
2535.964720229698
 20
977.7367909263535
 10
2535.774641744986
 20
977.9062870856906
 10
2535.630986557818
 20
978.085466250871
 10
2535.536212648276
 20
978.2712626167004
 10
2535.49194162423
 20
978.460497155847
 10
2535.488757503844
 20
978.547045978038
  0
ARC
  5
633
330
5F8
100
AcDbEntity
  8
0
  6
Continuous
 62
     7
370
    15
100
AcDbCircle
 10
2540.302697440675
 20
978.5831480860293
 30
0.0
 40
1.198677748766569
100
AcDbArc
 50
289.7228712338742
 51
351.0836981675917
  0
LWPOLYLINE
  5
634
330
5F8
100
AcDbEntity
  8
0
  6
Continuous
 62
     7
370
    15
100
AcDbPolyline
 90
       26
 70
   128
 43
0.0
 10
2513.294830960767
 20
988.7211953548632
 10
2513.298015081153
 20
988.6346465326722
 10
2513.342286105199
 20
988.4454119935256
 10
2513.437060014741
 20
988.259615627696
 10
2513.580715201908
 20
988.0804364625157
 10
2513.770793686621
 20
987.9109403031785
 10
2514.004043173305
 20
987.754027275964
 10
2514.276472698575
 20
987.6123822062721
 10
2514.583420917721
 20
987.4884286805169
 10
2514.919635861612
 20
987.3842875778905
 10
2515.279364799341
 20
987.3017407815321
 10
2515.656452669048
 20
987.2422006900135
 10
2516.044447392735
 20
987.2066860508088
 10
2516.436710273105
 20
987.1958045292407
 10
2516.826529583521
 20
987.2097423111604
 10
2517.207235407502
 20
987.248260917255
 10
2517.57231376285
 20
987.3107012834948
 10
2517.915518057684
 20
987.3959950379017
 10
2518.230975971366
 20
987.50268278069
 10
2518.513289931532
 20
987.6289390550011
 10
2518.75762946805
 20
987.7726035809764
 10
2518.959813863709
 20
987.9312182187456
 10
2519.11638368744
 20
988.10206902788
 10
2519.224659986152
 20
988.2822327036663
 10
2519.282790122353
 20
988.4686265956613
 10
2519.292963593681
 20
988.5715126305038
  0
LWPOLYLINE
  5
635
330
5F8
100
AcDbEntity
  8
0
  6
Continuous
 62
     7
370
    15
100
AcDbPolyline
 90
       20
 70
   128
 43
0.0
 10
2529.610253203071
 20
982.5418643665882
 10
2529.327939242905
 20
982.4156080922771
 10
2529.012481329223
 20
982.3089203494889
 10
2528.669277034389
 20
982.223626595082
 10
2528.304198679041
 20
982.1611862288422
 10
2527.92349285506
 20
982.1226676227476
 10
2527.533673544644
 20
982.1087298408279
 10
2527.141410664274
 20
982.119611362396
 10
2526.753415940588
 20
982.1551260016008
 10
2526.37632807088
 20
982.2146660931192
 10
2526.016599133151
 20
982.2972128894777
 10
2525.68038418926
 20
982.401353992104
 10
2525.373435970114
 20
982.5253075178594
 10
2525.101006444844
 20
982.6669525875511
 10
2524.867756958161
 20
982.8238656147657
 10
2524.677678473448
 20
982.993361774103
 10
2524.53402328628
 20
983.1725409392833
 10
2524.439249376738
 20
983.3583373051126
 10
2524.394978352692
 20
983.5475718442594
 10
2524.391794232306
 20
983.6341206664503
  0
ARC
  5
636
330
5F8
100
AcDbEntity
  8
0
  6
Continuous
 62
     7
370
    15
100
AcDbCircle
 10
2529.205734169137
 20
983.6702227744416
 30
0.0
 40
1.198677748766418
100
AcDbArc
 50
289.7228712338476
 51
351.0836981675981
  0
LWPOLYLINE
  5
637
330
5F8
100
AcDbEntity
  8
0
  6
Continuous
 62
     7
370
    15
100
AcDbPolyline
 90
       20
 70
   128
 43
0.0
 10
2551.804179746147
 20
972.3677149897635
 10
2551.521865785981
 20
972.2414587154526
 10
2551.206407872299
 20
972.1347709726645
 10
2550.863203577465
 20
972.0494772182574
 10
2550.498125222118
 20
971.9870368520176
 10
2550.117419398136
 20
971.948518245923
 10
2549.727600087721
 20
971.9345804640033
 10
2549.33533720735
 20
971.9454619855714
 10
2548.947342483663
 20
971.9809766247763
 10
2548.570254613956
 20
972.0405167162946
 10
2548.210525676227
 20
972.1230635126531
 10
2547.874310732336
 20
972.2272046152795
 10
2547.56736251319
 20
972.3511581410347
 10
2547.294932987921
 20
972.4928032107266
 10
2547.061683501236
 20
972.6497162379411
 10
2546.871605016523
 20
972.8192123972783
 10
2546.727949829356
 20
972.9983915624588
 10
2546.633175919814
 20
973.184187928288
 10
2546.588904895767
 20
973.3734224674348
 10
2546.585720775382
 20
973.4599712896258
  0
ARC
  5
638
330
5F8
100
AcDbEntity
  8
0
  6
Continuous
 62
     7
370
    15
100
AcDbCircle
 10
2551.399660712213
 20
973.4960733976173
 30
0.0
 40
1.198677748766992
100
AcDbArc
 50
289.7228712338742
 51
351.0836981675853
  0
LINE
  5
639
330
5F8
100
AcDbEntity
  8
0
  6
Continuous
 62
     7
370
    15
100
AcDbLine
 10
2544.742704882321
 20
973.4175121932501
 30
0.0
 11
2538.824324470837
 21
976.1306186937355
 31
0.0
  0
ARC
  5
63A
330
5F8
100
AcDbEntity
  8
0
  6
Continuous
 62
     7
370
    15
100
AcDbCircle
 10
2544.300628154414
 20
994.9119213737098
 30
0.0
 40
19.56341566269993
100
AcDbArc
 50
237.0003955997924
 51
253.7442270732511
  0
LINE
  5
63B
330
5F8
100
AcDbEntity
  8
0
  6
Continuous
 62
     7
370
    15
100
AcDbLine
 10
2527.727361199297
 20
981.2176933821485
 30
0.0
 11
2533.645741610783
 21
978.5045868816624
 31
0.0
  0
ARC
  5
63C
330
5F8
100
AcDbEntity
  8
0
  6
Continuous
 62
     7
370
    15
100
AcDbCircle
 10
2533.203664882881
 20
999.9989960621354
 30
0.0
 40
19.56341566271367
100
AcDbArc
 50
237.0003955998178
 51
253.7442270732511
  0
LINE
  5
63D
330
5F8
100
AcDbEntity
  8
0
  6
Continuous
 62
     7
370
    15
100
AcDbLine
 10
2516.630397927759
 20
986.3047680705607
 30
0.0
 11
2522.548778339245
 21
983.5916615700748
 31
0.0
  0
ARC
  5
63E
330
5F8
100
AcDbEntity
  8
0
  6
Continuous
 62
     7
370
    15
100
AcDbCircle
 10
2522.106701611336
 20
1005.086070750534
 30
0.0
 40
19.56341566269884
100
AcDbArc
 50
237.0003955997924
 51
253.7442270732511
  0
LINE
  5
63F
330
5F8
100
AcDbEntity
  8
0
  6
Continuous
 62
     7
370
    15
100
AcDbLine
 10
2509.824260454548
 20
989.4248405461208
 30
0.0
 11
2511.451815067705
 21
988.6787362584877
 31
0.0
  0
LINE
  5
640
330
5F8
100
AcDbEntity
  8
0
  6
Continuous
 62
     7
370
    15
100
AcDbLine
 10
2512.926940994045
 20
991.0150284391599
 30
0.0
 11
2509.824260454548
 21
989.4248405461208
 31
0.0
  0
ARC
  5
641
330
5F8
100
AcDbEntity
  8
0
  6
Continuous
 62
     7
370
    15
100
AcDbCircle
 10
2512.572498611197
 20
975.8849157444551
 30
0.0
 40
15.34151462240704
100
AcDbArc
 50
56.06927989274347
 51
62.14566118905681
  0
LINE
  5
642
330
5F8
100
AcDbEntity
  8
0
  6
Continuous
 62
     7
370
    15
100
AcDbLine
 10
2524.057511709035
 20
987.2746816656492
 30
0.0
 11
2521.135979486742
 21
988.61397172688
 31
0.0
  0
ARC
  5
643
330
5F8
100
AcDbEntity
  8
0
  6
Continuous
 62
     7
370
    15
100
AcDbCircle
 10
2523.673151659707
 20
970.8037187492022
 30
0.0
 40
15.33457822803218
100
AcDbArc
 50
56.06846008100751
 51
62.11274654344315
  0
LINE
  5
644
330
5F8
100
AcDbEntity
  8
0
  6
Continuous
 62
     7
370
    15
100
AcDbLine
 10
2535.154474980574
 20
982.187606977237
 30
0.0
 11
2532.232942758281
 21
983.5268970384671
 31
0.0
  0
ARC
  5
645
330
5F8
100
AcDbEntity
  8
0
  6
Continuous
 62
     7
370
    15
100
AcDbCircle
 10
2534.770114931275
 20
965.7166440608394
 30
0.0
 40
15.33457822797445
100
AcDbArc
 50
56.06846008100388
 51
62.11274654344618
  0
LINE
  5
646
330
5F8
100
AcDbEntity
  8
0
  6
Continuous
 62
     7
370
    15
100
AcDbLine
 10
2543.329906029818
 20
978.4398223500549
 30
0.0
 11
2546.251438252112
 21
977.1005322888246
 31
0.0
  0
ARC
  5
647
330
5F8
100
AcDbEntity
  8
0
  6
Continuous
 62
     7
370
    15
100
AcDbCircle
 10
2545.867078202796
 20
960.629569372401
 30
0.0
 40
15.33457822800555
100
AcDbArc
 50
56.06846008100388
 51
62.11274654344315
  0
LINE
  5
648
330
5F8
100
AcDbEntity
  8
0
  6
Continuous
 62
     7
370
    15
100
AcDbLine
 10
2554.426869301356
 20
973.3527476616426
 30
0.0
 11
2557.34840152365
 21
972.0134576004124
 31
0.0
  0
ARC
  5
649
330
5F8
100
AcDbEntity
  8
0
  6
Continuous
 62
     7
370
    15
100
AcDbCircle
 10
2556.964041474323
 20
955.5424946839696
 30
0.0
 40
15.33457822802752
100
AcDbArc
 50
56.06846008100751
 51
62.11274654344315
  0
LINE
  5
64A
330
5F8
100
AcDbEntity
  8
0
  6
Continuous
 62
     7
370
    15
100
AcDbLine
 10
2565.523832572894
 20
968.2656729732302
 30
0.0
 11
2567.151387186053
 21
967.5195686855966
 31
0.0
  0
LINE
  5
64B
330
5F8
100
AcDbEntity
  8
0
  6
Continuous
 62
     7
370
    15
100
AcDbLine
 10
2567.151387186053
 20
967.5195686855966
 30
0.0
 11
2562.64580562707
 21
965.2103650292778
 31
0.0
  0
LINE
  5
64C
330
5F8
100
AcDbEntity
  8
0
  6
Continuous
 62
     7
370
    15
100
AcDbLine
 10
2562.64580562707
 20
965.2103650292778
 30
0.0
 11
2561.018251013913
 21
965.9564693169111
 31
0.0
  0
ARC
  5
64D
330
5F8
100
AcDbEntity
  8
0
  6
Continuous
 62
     7
370
    15
100
AcDbCircle
 10
2566.494554697489
 20
984.7377719968841
 30
0.0
 40
19.56341566269846
100
AcDbArc
 50
237.0003955997924
 51
253.7442270732511
  0
LINE
  5
64E
330
5F8
100
AcDbEntity
  8
0
  6
Continuous
 62
     7
370
    15
100
AcDbLine
 10
2555.839668153859
 20
968.3304375048379
 30
0.0
 11
2549.921287742375
 21
971.0435440053233
 31
0.0
  0
ARC
  5
64F
330
5F8
100
AcDbEntity
  8
0
  6
Continuous
 62
     7
370
    15
100
AcDbCircle
 10
2555.397591425951
 20
989.8248466852958
 30
0.0
 40
19.56341566269794
100
AcDbArc
 50
237.0003955997924
 51
253.7442270732511
  0
LINE
  5
650
330
5F8
100
AcDbEntity
  8
0
  6
Continuous
 62
     7
370
    15
100
AcDbLine
 10
2560.93306067913
 20
962.5426957552599
 30
0.0
 11
2562.56061529229
 21
961.7965914676263
 31
0.0
  0
LINE
  5
651
330
5F8
100
AcDbEntity
  8
0
  6
Continuous
 62
     7
370
    15
100
AcDbLine
 10
2561.018251013913
 20
965.9564693169111
 30
0.0
 11
2560.93306067913
 21
962.5426957552599
 31
0.0
  0
LINE
  5
652
330
5F8
100
AcDbEntity
  8
0
  6
Continuous
 62
     7
370
    15
100
AcDbLine
 10
2562.64580562707
 20
965.2103650292778
 30
0.0
 11
2562.56061529229
 21
961.7965914676263
 31
0.0
  0
LINE
  5
653
330
5F8
100
AcDbEntity
  8
0
  6
Continuous
 62
     7
370
    15
100
AcDbLine
 10
2567.151387186053
 20
967.5195686855966
 30
0.0
 11
2567.066196851273
 21
964.1057951239449
 31
0.0
  0
LINE
  5
654
330
5F8
100
AcDbEntity
  8
0
  6
Continuous
 62
     7
370
    15
100
AcDbLine
 10
2562.56061529229
 20
961.7965914676263
 30
0.0
 11
2567.066196851273
 21
964.1057951239449
 31
0.0
  0
ARC
  5
655
330
5F8
100
AcDbEntity
  8
0
  6
Continuous
 62
     7
370
    15
100
AcDbCircle
 10
2566.40936436271
 20
981.3239984352367
 30
0.0
 40
19.56341566270294
100
AcDbArc
 50
237.0003955997959
 51
253.7442270732511
  0
LINE
  5
656
330
5F8
100
AcDbEntity
  8
0
  6
Continuous
 62
     7
370
    15
100
AcDbLine
 10
2555.754477819079
 20
964.9166639431864
 30
0.0
 11
2555.839668153859
 21
968.3304375048379
 31
0.0
  0
LWPOLYLINE
  5
657
330
5F8
100
AcDbEntity
  8
0
  6
Continuous
 62
     7
370
    15
100
AcDbPolyline
 90
       20
 70
   128
 43
0.0
 10
2562.581282075837
 20
954.4127710129199
 10
2562.298968115671
 20
954.2865147386089
 10
2561.983510201989
 20
954.1798269958208
 10
2561.640305907154
 20
954.0945332414137
 10
2561.275227551807
 20
954.0320928751739
 10
2560.894521727826
 20
953.9935742690794
 10
2560.50470241741
 20
953.9796364871596
 10
2560.11243953704
 20
953.9905180087277
 10
2559.724444813353
 20
954.0260326479327
 10
2559.347356943646
 20
954.0855727394511
 10
2558.987628005918
 20
954.1681195358094
 10
2558.651413062026
 20
954.2722606384359
 10
2558.34446484288
 20
954.3962141641911
 10
2558.072035317611
 20
954.5378592338829
 10
2557.838785830926
 20
954.6947722610976
 10
2557.648707346214
 20
954.8642684204347
 10
2557.505052159046
 20
955.0434475856151
 10
2557.410278249504
 20
955.2292439514445
 10
2557.366007225458
 20
955.4184784905912
 10
2557.362823105072
 20
955.5050273127822
  0
ARC
  5
658
330
5F8
100
AcDbEntity
  8
0
  6
Continuous
 62
     7
370
    15
100
AcDbCircle
 10
2562.176763041903
 20
955.5411294207736
 30
0.0
 40
1.198677748766752
100
AcDbArc
 50
289.7228712338742
 51
351.0836981675917
  0
LINE
  5
659
330
5F8
100
AcDbEntity
  8
0
  6
Continuous
 62
     7
370
    15
100
AcDbLine
 10
2549.921287742375
 20
971.0435440053233
 30
0.0
 11
2549.836097407593
 21
967.6297704436722
 31
0.0
  0
LINE
  5
65A
330
5F8
100
AcDbEntity
  8
0
  6
Continuous
 62
     7
370
    15
100
AcDbLine
 10
2549.836097407593
 20
967.6297704436722
 30
0.0
 11
2555.754477819079
 21
964.9166639431864
 31
0.0
  0
LWPOLYLINE
  5
65B
330
5F8
100
AcDbEntity
  8
0
  6
Continuous
 62
     7
370
    15
100
AcDbPolyline
 90
       44
 70
   128
 43
0.0
 10
2547.891403308216
 20
979.7390545429419
 10
2547.668580606036
 20
979.6059080272314
 10
2547.489531546411
 20
979.4577096411066
 10
2547.358072249192
 20
979.2976179758728
 10
2547.277004541067
 20
979.1290451074312
 10
2547.248056239487
 20
978.9555838738051
 10
2547.271844327243
 20
978.7809313000343
 10
2547.347861802544
 20
978.6088098025055
 10
2547.474488484881
 20
978.4428878521101
 10
2547.649025546363
 20
978.286701787155
 10
2547.867753032548
 20
978.1435804424527
 10
2548.126009146812
 20
978.0165742009847
 10
2548.418289608449
 20
977.9083899802865
 10
2548.738364966864
 20
977.8213335391981
 10
2549.079413371489
 20
977.7572603346182
 10
2549.434165967693
 20
977.7175359756617
 10
2549.79506181979
 20
977.7030071180723
 10
2550.154409059264
 20
977.7139834192253
 10
2550.504548823584
 20
977.750230938318
 10
2550.83801849157
 20
977.8109771224123
 10
2551.147710736203
 20
977.8949272720586
 10
2551.427025004959
 20
978.0002921355672
 10
2551.670008199133
 20
978.1248260438017
 10
2551.871481553795
 20
978.2658747727177
 10
2552.027151014179
 20
978.4204321135401
 10
2552.133698756003
 20
978.585203944884
 10
2552.188853899132
 20
978.7566784412332
 10
2552.191440907448
 20
978.9312009214029
 10
2552.14140464336
 20
979.1050517417263
 10
2552.039811542968
 20
979.2745255737987
 10
2551.888826886824
 20
979.4360103771218
 10
2551.691668650743
 20
979.5860643834748
 10
2551.45253892023
 20
979.7214894522282
 10
2551.176534330327
 20
979.83939923316
 10
2550.869537439681
 20
979.9372806839988
 10
2550.538091354023
 20
980.0130476315567
 10
2550.18926027123
 20
980.0650852348894
 10
2549.830478920208
 20
980.0922844028271
 10
2549.469394102556
 20
980.0940654323268
 10
2549.113701714264
 20
980.0703903638368
 10
2548.770982721054
 20
980.0217637903388
 10
2548.448541583253
 20
979.9492221028236
 10
2548.15325057391
 20
979.8543114014176
 10
2547.891403308216
 20
979.7390545429419
  0
LWPOLYLINE
  5
65C
330
5F8
100
AcDbEntity
  8
0
  6
Continuous
 62
     7
370
    15
100
AcDbPolyline
 90
       52
 70
   128
 43
0.0
 10
2552.25620886169
 20
977.738138498824
 10
2552.520043453537
 20
977.8920060668133
 10
2552.741468656465
 20
978.0611490539014
 10
2552.917127890109
 20
978.2430034248189
 10
2553.044358339542
 20
978.4348124526747
 10
2553.121231320844
 20
978.6336685081259
 10
2553.146581517977
 20
978.8365571360749
 10
2553.120024647794
 20
979.040402751735
 10
2553.041963285376
 20
979.2421152633613
 10
2552.913580761406
 20
979.4386369148925
 10
2552.736823224081
 20
979.6269886384141
 10
2552.514370137491
 20
979.804315213793
 10
2552.249593663672
 20
979.967928550903
 10
2551.946507544069
 20
980.1153484383318
 10
2551.609706255305
 20
980.2443401408575
 10
2551.244295361603
 20
980.352948275757
 10
2550.855814119632
 20
980.4395264544139
 10
2550.450151509024
 20
980.5027622398927
 10
2550.033456961444
 20
980.5416970421449
 10
2549.612047141482
 20
980.555740649256
 10
2549.192310192445
 20
980.5446801744578
 10
2548.780608898625
 20
980.5086832832733
 10
2548.383184231969
 20
980.44829565188
 10
2548.006060745314
 20
980.364432695214
 10
2547.654955246298
 20
980.2583656902131
 10
2547.335190136389
 20
980.1317025045545
 10
2547.051612728701
 20
979.9863632230191
 10
2546.808521767674
 20
979.8245510409648
 10
2546.609602264482
 20
979.648718866129
 10
2546.457869636028
 20
979.4615321350486
 10
2546.35562399429
 20
979.2658284077594
 10
2546.304415278973
 20
979.0645743532776
 10
2546.305019762004
 20
978.8608207779221
 10
2546.357428280035
 20
978.6576563782002
 10
2546.460846373355
 20
978.4581609193175
 10
2546.613706329087
 20
978.2653585490761
 10
2546.813690946121
 20
978.0821719548768
 10
2547.057768661515
 20
977.9113780587577
 10
2547.342239505901
 20
977.7555659220864
 10
2547.662791191255
 20
977.6170974980281
 10
2548.014564480777
 20
977.4980718267455
 10
2548.392226849976
 20
977.4002932160863
 10
2548.790053322303
 20
977.3252438901185
 10
2549.202013253961
 20
977.2740615201225
 10
2549.621861752313
 20
977.2475219786553
 10
2550.043234342095
 20
977.2460275781124
 10
2550.459743444369
 20
977.2696009720826
 10
2550.86507520571
 20
977.3178848119432
 10
2551.253085209789
 20
977.3901471638991
 10
2551.617891620461
 20
977.4852926043553
 10
2551.953964344402
 20
977.6018788254202
 10
2552.25620886169
 20
977.738138498824
  0
LINE
  5
65D
330
5F8
100
AcDbEntity
  8
0
  6
Continuous
 62
     7
370
    15
100
AcDbLine
 10
2553.032749179604
 20
974.2625452486542
 30
0.0
 11
2553.032992917483
 21
974.279656450083
 31
0.0
  0
ARC
  5
65E
330
5F8
100
AcDbEntity
  8
0
  6
Continuous
 62
     7
370
    15
100
AcDbCircle
 10
2560.438139547477
 20
958.4857046864463
 30
0.0
 40
4.612622668519702
100
AcDbArc
 50
238.152645060988
 51
298.9883288727481
  0
LINE
  5
65F
330
5F8
100
AcDbEntity
  8
0
  6
Continuous
 62
     7
370
    15
100
AcDbLine
 10
2544.65751454754
 20
970.0037386315987
 30
0.0
 11
2544.742704882321
 21
973.4175121932501
 31
0.0
  0
ARC
  5
660
330
5F8
100
AcDbEntity
  8
0
  6
Continuous
 62
     7
370
    15
100
AcDbCircle
 10
2555.312401091175
 20
986.4110731236545
 30
0.0
 40
19.56341566270886
100
AcDbArc
 50
237.0003955998178
 51
253.7442270732511
  0
LWPOLYLINE
  5
661
330
5F8
100
AcDbEntity
  8
0
  6
Continuous
 62
     7
370
    15
100
AcDbPolyline
 90
       20
 70
   128
 43
0.0
 10
2551.484318804299
 20
959.4998457013323
 10
2551.202004844133
 20
959.3735894270212
 10
2550.886546930451
 20
959.266901684233
 10
2550.543342635617
 20
959.1816079298261
 10
2550.178264280269
 20
959.1191675635863
 10
2549.797558456289
 20
959.0806489574916
 10
2549.407739145872
 20
959.0667111755719
 10
2549.015476265502
 20
959.0775926971401
 10
2548.627481541816
 20
959.1131073363449
 10
2548.250393672109
 20
959.1726474278633
 10
2547.890664734379
 20
959.2551942242218
 10
2547.554449790488
 20
959.3593353268481
 10
2547.247501571342
 20
959.4832888526035
 10
2546.975072046072
 20
959.6249339222952
 10
2546.741822559388
 20
959.7818469495098
 10
2546.551744074676
 20
959.9513431088469
 10
2546.408088887508
 20
960.1305222740274
 10
2546.313314977967
 20
960.3163186398568
 10
2546.269043953919
 20
960.5055531790036
 10
2546.265859833534
 20
960.5921020011944
  0
ARC
  5
662
330
5F8
100
AcDbEntity
  8
0
  6
Continuous
 62
     7
370
    15
100
AcDbCircle
 10
2551.079799770365
 20
960.6282041091862
 30
0.0
 40
1.198677748767434
100
AcDbArc
 50
289.7228712338765
 51
351.0836981675724
  0
LINE
  5
663
330
5F8
100
AcDbEntity
  8
0
  6
Continuous
 62
     7
370
    15
100
AcDbLine
 10
2538.824324470837
 20
976.1306186937355
 30
0.0
 11
2538.739134136055
 21
972.7168451320846
 31
0.0
  0
LINE
  5
664
330
5F8
100
AcDbEntity
  8
0
  6
Continuous
 62
     7
370
    15
100
AcDbLine
 10
2538.739134136055
 20
972.7168451320846
 30
0.0
 11
2544.65751454754
 21
970.0037386315987
 31
0.0
  0
LWPOLYLINE
  5
665
330
5F8
100
AcDbEntity
  8
0
  6
Continuous
 62
     7
370
    15
100
AcDbPolyline
 90
       44
 70
   128
 43
0.0
 10
2536.794440036678
 20
984.8261292313541
 10
2536.571617334497
 20
984.6929827156436
 10
2536.392568274873
 20
984.5447843295188
 10
2536.261108977654
 20
984.384692664285
 10
2536.180041269529
 20
984.2161197958434
 10
2536.151092967949
 20
984.0426585622173
 10
2536.174881055705
 20
983.8680059884465
 10
2536.250898531006
 20
983.6958844909178
 10
2536.377525213343
 20
983.5299625405223
 10
2536.552062274826
 20
983.3737764755674
 10
2536.770789761011
 20
983.2306551308649
 10
2537.029045875274
 20
983.1036488893969
 10
2537.321326336911
 20
982.9954646686987
 10
2537.641401695325
 20
982.9084082276104
 10
2537.982450099951
 20
982.8443350230305
 10
2538.337202696155
 20
982.8046106640739
 10
2538.698098548252
 20
982.7900818064845
 10
2539.057445787726
 20
982.8010581076375
 10
2539.407585552046
 20
982.8373056267302
 10
2539.741055220032
 20
982.8980518108245
 10
2540.050747464665
 20
982.9820019604708
 10
2540.330061733421
 20
983.0873668239794
 10
2540.573044927595
 20
983.2119007322139
 10
2540.774518282257
 20
983.3529494611299
 10
2540.930187742641
 20
983.5075068019524
 10
2541.036735484465
 20
983.6722786332964
 10
2541.091890627594
 20
983.8437531296454
 10
2541.09447763591
 20
984.0182756098153
 10
2541.044441371822
 20
984.1921264301385
 10
2540.94284827143
 20
984.3616002622111
 10
2540.791863615286
 20
984.523085065534
 10
2540.594705379205
 20
984.673139071887
 10
2540.355575648693
 20
984.8085641406404
 10
2540.079571058789
 20
984.9264739215723
 10
2539.772574168143
 20
985.024355372411
 10
2539.441128082485
 20
985.1001223199689
 10
2539.092296999692
 20
985.1521599233016
 10
2538.733515648671
 20
985.1793590912393
 10
2538.372430831018
 20
985.181140120739
 10
2538.016738442726
 20
985.1574650522492
 10
2537.674019449516
 20
985.1088384787511
 10
2537.351578311716
 20
985.036296791236
 10
2537.056287302372
 20
984.9413860898298
 10
2536.794440036678
 20
984.8261292313541
  0
LWPOLYLINE
  5
666
330
5F8
100
AcDbEntity
  8
0
  6
Continuous
 62
     7
370
    15
100
AcDbPolyline
 90
       52
 70
   128
 43
0.0
 10
2541.159245590153
 20
982.8252131872362
 10
2541.423080181998
 20
982.9790807552255
 10
2541.644505384927
 20
983.1482237423136
 10
2541.820164618571
 20
983.3300781132312
 10
2541.947395068004
 20
983.5218871410869
 10
2542.024268049306
 20
983.7207431965383
 10
2542.049618246439
 20
983.9236318244871
 10
2542.023061376256
 20
984.1274774401473
 10
2541.945000013838
 20
984.3291899517735
 10
2541.816617489868
 20
984.5257116033048
 10
2541.639859952543
 20
984.7140633268265
 10
2541.417406865953
 20
984.8913899022052
 10
2541.152630392134
 20
985.0550032393153
 10
2540.849544272531
 20
985.202423126744
 10
2540.512742983767
 20
985.3314148292698
 10
2540.147332090065
 20
985.4400229641692
 10
2539.758850848094
 20
985.5266011428261
 10
2539.353188237485
 20
985.5898369283051
 10
2538.936493689906
 20
985.6287717305573
 10
2538.515083869944
 20
985.6428153376684
 10
2538.095346920907
 20
985.63175486287
 10
2537.683645627087
 20
985.5957579716855
 10
2537.286220960432
 20
985.5353703402922
 10
2536.909097473777
 20
985.4515073836262
 10
2536.55799197476
 20
985.3454403786255
 10
2536.23822686485
 20
985.2187771929667
 10
2535.954649457163
 20
985.0734379114314
 10
2535.711558496136
 20
984.911625729377
 10
2535.512638992944
 20
984.7357935545412
 10
2535.36090636449
 20
984.5486068234608
 10
2535.258660722752
 20
984.3529030961716
 10
2535.207452007436
 20
984.1516490416898
 10
2535.208056490466
 20
983.9478954663343
 10
2535.260465008497
 20
983.7447310666124
 10
2535.363883101816
 20
983.5452356077297
 10
2535.51674305755
 20
983.3524332374883
 10
2535.716727674583
 20
983.169246643289
 10
2535.960805389976
 20
982.9984527471701
 10
2536.245276234363
 20
982.8426406104986
 10
2536.565827919716
 20
982.7041721864405
 10
2536.917601209239
 20
982.5851465151577
 10
2537.295263578438
 20
982.4873679044985
 10
2537.693090050766
 20
982.4123185785307
 10
2538.105049982423
 20
982.3611362085348
 10
2538.524898480775
 20
982.3345966670677
 10
2538.946271070557
 20
982.3331022665247
 10
2539.36278017283
 20
982.356675660495
 10
2539.768111934172
 20
982.4049595003554
 10
2540.156121938252
 20
982.4772218523113
 10
2540.520928348923
 20
982.5723672927676
 10
2540.857001072863
 20
982.6889535138326
 10
2541.159245590153
 20
982.8252131872362
  0
LINE
  5
667
330
5F8
100
AcDbEntity
  8
0
  6
Continuous
 62
     7
370
    15
100
AcDbLine
 10
2541.935785908066
 20
979.3496199370665
 30
0.0
 11
2541.936029645946
 21
979.3667311384952
 31
0.0
  0
ARC
  5
668
330
5F8
100
AcDbEntity
  8
0
  6
Continuous
 62
     7
370
    15
100
AcDbCircle
 10
2549.34117627594
 20
963.5727793748586
 30
0.0
 40
4.612622668519716
100
AcDbArc
 50
238.152645060988
 51
298.9883288727481
  0
LINE
  5
669
330
5F8
100
AcDbEntity
  8
0
  6
Continuous
 62
     7
370
    15
100
AcDbLine
 10
2533.560551276002
 20
975.0908133200109
 30
0.0
 11
2533.645741610783
 21
978.5045868816624
 31
0.0
  0
ARC
  5
66A
330
5F8
100
AcDbEntity
  8
0
  6
Continuous
 62
     7
370
    15
100
AcDbCircle
 10
2544.215437819636
 20
991.4981478120672
 30
0.0
 40
19.56341566270927
100
AcDbArc
 50
237.0003955998178
 51
253.7442270732511
  0
LWPOLYLINE
  5
66B
330
5F8
100
AcDbEntity
  8
0
  6
Continuous
 62
     7
370
    15
100
AcDbPolyline
 90
       20
 70
   128
 43
0.0
 10
2540.387355532761
 20
964.5869203897445
 10
2540.105041572595
 20
964.4606641154336
 10
2539.789583658913
 20
964.3539763726453
 10
2539.446379364079
 20
964.2686826182384
 10
2539.081301008732
 20
964.2062422519986
 10
2538.70059518475
 20
964.167723645904
 10
2538.310775874335
 20
964.1537858639843
 10
2537.918512993964
 20
964.1646673855523
 10
2537.530518270278
 20
964.2001820247571
 10
2537.15343040057
 20
964.2597221162755
 10
2536.793701462841
 20
964.3422689126341
 10
2536.45748651895
 20
964.4464100152603
 10
2536.150538299804
 20
964.5703635410157
 10
2535.878108774535
 20
964.7120086107074
 10
2535.64485928785
 20
964.8689216379221
 10
2535.454780803138
 20
965.0384177972593
 10
2535.31112561597
 20
965.2175969624396
 10
2535.216351706429
 20
965.403393328269
 10
2535.172080682381
 20
965.5926278674158
 10
2535.168896561996
 20
965.6791766896066
  0
ARC
  5
66C
330
5F8
100
AcDbEntity
  8
0
  6
Continuous
 62
     7
370
    15
100
AcDbCircle
 10
2539.982836498827
 20
965.7152787975979
 30
0.0
 40
1.198677748766523
100
AcDbArc
 50
289.7228712338742
 51
351.0836981675981
  0
LINE
  5
66D
330
5F8
100
AcDbEntity
  8
0
  6
Continuous
 62
     7
370
    15
100
AcDbLine
 10
2527.727361199297
 20
981.2176933821485
 30
0.0
 11
2527.642170864518
 21
977.8039198204965
 31
0.0
  0
LINE
  5
66E
330
5F8
100
AcDbEntity
  8
0
  6
Continuous
 62
     7
370
    15
100
AcDbLine
 10
2533.560551276002
 20
975.0908133200109
 30
0.0
 11
2527.642170864518
 21
977.8039198204965
 31
0.0
  0
LWPOLYLINE
  5
66F
330
5F8
100
AcDbEntity
  8
0
  6
Continuous
 62
     7
370
    15
100
AcDbPolyline
 90
       44
 70
   128
 43
0.0
 10
2525.69747676514
 20
989.9132039197663
 10
2525.474654062959
 20
989.7800574040559
 10
2525.295605003335
 20
989.631859017931
 10
2525.164145706117
 20
989.4717673526972
 10
2525.083077997991
 20
989.3031944842558
 10
2525.054129696411
 20
989.1297332506296
 10
2525.077917784167
 20
988.9550806768587
 10
2525.153935259468
 20
988.7829591793302
 10
2525.280561941805
 20
988.6170372289347
 10
2525.455099003287
 20
988.4608511639797
 10
2525.673826489472
 20
988.3177298192771
 10
2525.932082603736
 20
988.1907235778092
 10
2526.224363065373
 20
988.0825393571111
 10
2526.544438423787
 20
987.9954829160226
 10
2526.885486828413
 20
987.9314097114427
 10
2527.240239424616
 20
987.8916853524861
 10
2527.601135276714
 20
987.8771564948968
 10
2527.960482516187
 20
987.8881327960497
 10
2528.310622280508
 20
987.9243803151425
 10
2528.644091948494
 20
987.9851264992369
 10
2528.953784193126
 20
988.0690766488831
 10
2529.233098461883
 20
988.1744415123916
 10
2529.476081656057
 20
988.2989754206263
 10
2529.677555010719
 20
988.4400241495423
 10
2529.833224471103
 20
988.5945814903648
 10
2529.939772212927
 20
988.7593533217087
 10
2529.994927356056
 20
988.9308278180577
 10
2529.997514364372
 20
989.1053502982275
 10
2529.947478100285
 20
989.2792011185507
 10
2529.845884999892
 20
989.4486749506233
 10
2529.694900343748
 20
989.6101597539464
 10
2529.497742107667
 20
989.7602137602993
 10
2529.258612377154
 20
989.8956388290528
 10
2528.982607787251
 20
990.0135486099845
 10
2528.675610896605
 20
990.1114300608233
 10
2528.344164810947
 20
990.1871970083814
 10
2527.995333728154
 20
990.2392346117139
 10
2527.636552377132
 20
990.2664337796515
 10
2527.27546755948
 20
990.2682148091512
 10
2526.919775171188
 20
990.2445397406614
 10
2526.577056177978
 20
990.1959131671633
 10
2526.254615040178
 20
990.1233714796482
 10
2525.959324030834
 20
990.028460778242
 10
2525.69747676514
 20
989.9132039197663
  0
LWPOLYLINE
  5
670
330
5F8
100
AcDbEntity
  8
0
  6
Continuous
 62
     7
370
    15
100
AcDbPolyline
 90
       52
 70
   128
 43
0.0
 10
2530.062282318615
 20
987.9122878756485
 10
2530.32611691046
 20
988.0661554436379
 10
2530.547542113389
 20
988.2352984307258
 10
2530.723201347033
 20
988.4171528016434
 10
2530.850431796466
 20
988.6089618294992
 10
2530.927304777768
 20
988.8078178849506
 10
2530.952654974901
 20
989.0107065128994
 10
2530.926098104718
 20
989.2145521285595
 10
2530.8480367423
 20
989.4162646401859
 10
2530.71965421833
 20
989.612786291717
 10
2530.542896681005
 20
989.8011380152388
 10
2530.320443594415
 20
989.9784645906175
 10
2530.055667120596
 20
990.1420779277275
 10
2529.752581000992
 20
990.2894978151563
 10
2529.415779712229
 20
990.4184895176822
 10
2529.050368818527
 20
990.5270976525814
 10
2528.661887576556
 20
990.6136758312383
 10
2528.256224965947
 20
990.6769116167174
 10
2527.839530418369
 20
990.7158464189695
 10
2527.418120598406
 20
990.7298900260807
 10
2526.998383649369
 20
990.7188295512822
 10
2526.586682355549
 20
990.6828326600978
 10
2526.189257688894
 20
990.6224450287044
 10
2525.812134202239
 20
990.5385820720386
 10
2525.461028703222
 20
990.4325150670377
 10
2525.141263593313
 20
990.3058518813789
 10
2524.857686185625
 20
990.1605125998438
 10
2524.614595224598
 20
989.9987004177894
 10
2524.415675721407
 20
989.8228682429534
 10
2524.263943092952
 20
989.6356815118732
 10
2524.161697451214
 20
989.4399777845841
 10
2524.110488735898
 20
989.238723730102
 10
2524.111093218929
 20
989.0349701547465
 10
2524.163501736959
 20
988.8318057550248
 10
2524.266919830278
 20
988.6323102961421
 10
2524.419779786011
 20
988.4395079259006
 10
2524.619764403045
 20
988.2563213317014
 10
2524.863842118438
 20
988.0855274355823
 10
2525.148312962825
 20
987.9297152989108
 10
2525.468864648178
 20
987.7912468748528
 10
2525.8206379377
 20
987.67222120357
 10
2526.1983003069
 20
987.5744425929108
 10
2526.596126779228
 20
987.4993932669429
 10
2527.008086710885
 20
987.4482108969472
 10
2527.427935209237
 20
987.4216713554799
 10
2527.849307799019
 20
987.4201769549369
 10
2528.265816901293
 20
987.4437503489073
 10
2528.671148662634
 20
987.4920341887676
 10
2529.059158666714
 20
987.5642965407237
 10
2529.423965077385
 20
987.6594419811798
 10
2529.760037801326
 20
987.7760282022448
 10
2530.062282318615
 20
987.9122878756485
  0
LINE
  5
671
330
5F8
100
AcDbEntity
  8
0
  6
Continuous
 62
     7
370
    15
100
AcDbLine
 10
2530.838822636528
 20
984.4366946254787
 30
0.0
 11
2530.839066374408
 21
984.4538058269076
 31
0.0
  0
ARC
  5
672
330
5F8
100
AcDbEntity
  8
0
  6
Continuous
 62
     7
370
    15
100
AcDbCircle
 10
2538.244213004401
 20
968.6598540632706
 30
0.0
 40
4.612622668519517
100
AcDbArc
 50
238.1526450609845
 51
298.9883288727481
  0
LINE
  5
673
330
5F8
100
AcDbEntity
  8
0
  6
Continuous
 62
     7
370
    15
100
AcDbLine
 10
2522.463588004465
 20
980.1778880084231
 30
0.0
 11
2522.548778339245
 21
983.5916615700748
 31
0.0
  0
ARC
  5
674
330
5F8
100
AcDbEntity
  8
0
  6
Continuous
 62
     7
370
    15
100
AcDbCircle
 10
2533.1184745481
 20
996.5852225004805
 30
0.0
 40
19.56341566271052
100
AcDbArc
 50
237.0003955998178
 51
253.7442270732511
  0
LWPOLYLINE
  5
675
330
5F8
100
AcDbEntity
  8
0
  6
Continuous
 62
     7
370
    15
100
AcDbPolyline
 90
       20
 70
   128
 43
0.0
 10
2529.290392261223
 20
969.6739950781568
 10
2529.008078301057
 20
969.5477388038458
 10
2528.692620387375
 20
969.4410510610575
 10
2528.349416092541
 20
969.3557573066506
 10
2527.984337737194
 20
969.2933169404108
 10
2527.603631913212
 20
969.2547983343162
 10
2527.213812602796
 20
969.2408605523965
 10
2526.821549722426
 20
969.2517420739646
 10
2526.43355499874
 20
969.2872567131693
 10
2526.056467129032
 20
969.3467968046878
 10
2525.696738191303
 20
969.4293436010463
 10
2525.360523247412
 20
969.5334847036727
 10
2525.053575028266
 20
969.6574382294279
 10
2524.781145502996
 20
969.7990832991196
 10
2524.547896016312
 20
969.9559963263343
 10
2524.3578175316
 20
970.1254924856716
 10
2524.214162344432
 20
970.3046716508518
 10
2524.119388434891
 20
970.4904680166814
 10
2524.075117410844
 20
970.679702555828
 10
2524.071933290458
 20
970.766251378019
  0
ARC
  5
676
330
5F8
100
AcDbEntity
  8
0
  6
Continuous
 62
     7
370
    15
100
AcDbCircle
 10
2528.885873227289
 20
970.8023534860101
 30
0.0
 40
1.198677748766682
100
AcDbArc
 50
289.7228712338742
 51
351.0836981675917
  0
LINE
  5
677
330
5F8
100
AcDbEntity
  8
0
  6
Continuous
 62
     7
370
    15
100
AcDbLine
 10
2516.545207592979
 20
982.8909945089092
 30
0.0
 11
2516.630397927759
 21
986.3047680705607
 31
0.0
  0
LINE
  5
678
330
5F8
100
AcDbEntity
  8
0
  6
Continuous
 62
     7
370
    15
100
AcDbLine
 10
2522.463588004465
 20
980.1778880084231
 30
0.0
 11
2516.545207592979
 21
982.8909945089092
 31
0.0
  0
LWPOLYLINE
  5
679
330
5F8
100
AcDbEntity
  8
0
  6
Continuous
 62
     7
370
    15
100
AcDbPolyline
 90
       44
 70
   128
 43
0.0
 10
2518.262511373214
 20
993.3215439610004
 10
2518.000664107521
 20
993.2062871025246
 10
2517.705373098177
 20
993.1113764011184
 10
2517.382931960377
 20
993.0388347136034
 10
2517.040212967167
 20
992.9902081401055
 10
2516.684520578875
 20
992.9665330716154
 10
2516.323435761222
 20
992.9683141011151
 10
2515.964654410201
 20
992.9955132690528
 10
2515.615823327407
 20
993.0475508723855
 10
2515.28437724175
 20
993.1233178199434
 10
2514.977380351103
 20
993.2211992707822
 10
2514.7013757612
 20
993.339109051714
 10
2514.462246030687
 20
993.4745341204674
 10
2514.265087794607
 20
993.6245881268204
 10
2514.114103138463
 20
993.7860729301435
 10
2514.01251003807
 20
993.955546762216
 10
2513.962473773983
 20
994.1293975825391
 10
2513.965060782299
 20
994.3039200627092
 10
2514.020215925428
 20
994.4753945590582
 10
2514.126763667252
 20
994.6401663904021
 10
2514.282433127636
 20
994.7947237312245
 10
2514.483906482298
 20
994.9357724601405
 10
2514.726889676472
 20
995.060306368375
 10
2515.006203945228
 20
995.1656712318836
 10
2515.315896189861
 20
995.2496213815299
 10
2515.649365857847
 20
995.3103675656242
 10
2515.999505622167
 20
995.346615084717
 10
2516.35885286164
 20
995.3575913858699
 10
2516.719748713738
 20
995.3430625282805
 10
2517.074501309942
 20
995.3033381693241
 10
2517.415549714568
 20
995.2392649647441
 10
2517.735625072982
 20
995.1522085236558
 10
2518.027905534619
 20
995.0440243029575
 10
2518.286161648882
 20
994.9170180614897
 10
2518.504889135067
 20
994.7738967167872
 10
2518.67942619655
 20
994.6177106518321
 10
2518.806052878887
 20
994.4517887014367
 10
2518.882070354188
 20
994.2796672039079
 10
2518.905858441943
 20
994.1050146301373
 10
2518.876910140364
 20
993.931553396511
 10
2518.795842432238
 20
993.7629805280694
 10
2518.664383135019
 20
993.6028888628356
 10
2518.485334075395
 20
993.4546904767108
 10
2518.262511373214
 20
993.3215439610004
  0
LWPOLYLINE
  5
67A
330
5F8
100
AcDbEntity
  8
0
  6
Continuous
 62
     7
370
    15
100
AcDbPolyline
 90
       52
 70
   128
 43
0.0
 10
2513.89770581974
 20
995.3224600051029
 10
2514.199950337029
 20
995.4587196785068
 10
2514.53602306097
 20
995.5753058995718
 10
2514.900829471641
 20
995.6704513400278
 10
2515.28883947572
 20
995.7427136919839
 10
2515.694171237062
 20
995.7909975318441
 10
2516.110680339336
 20
995.8145709258145
 10
2516.532052929117
 20
995.8130765252716
 10
2516.95190142747
 20
995.7865369838044
 10
2517.363861359127
 20
995.7353546138085
 10
2517.761687831455
 20
995.6603052878406
 10
2518.139350200654
 20
995.5625266771814
 10
2518.491123490176
 20
995.4435010058986
 10
2518.811675175529
 20
995.3050325818407
 10
2519.096146019916
 20
995.1492204451692
 10
2519.340223735309
 20
994.9784265490501
 10
2519.540208352343
 20
994.7952399548508
 10
2519.693068308076
 20
994.6024375846095
 10
2519.796486401396
 20
994.4029421257267
 10
2519.848894919426
 20
994.1997777260048
 10
2519.849499402457
 20
993.9960241506494
 10
2519.79829068714
 20
993.7947700961675
 10
2519.696045045402
 20
993.5990663688782
 10
2519.544312416948
 20
993.411879637798
 10
2519.345392913757
 20
993.2360474629621
 10
2519.102301952729
 20
993.0742352809076
 10
2518.818724545042
 20
992.9288959993725
 10
2518.498959435132
 20
992.8022328137137
 10
2518.147853936115
 20
992.696165808713
 10
2517.77073044946
 20
992.612302852047
 10
2517.373305782806
 20
992.5519152206536
 10
2516.961604488985
 20
992.5159183294693
 10
2516.541867539948
 20
992.5048578546707
 10
2516.120457719986
 20
992.5189014617819
 10
2515.703763172407
 20
992.557836264034
 10
2515.298100561798
 20
992.6210720495131
 10
2514.909619319827
 20
992.70765022817
 10
2514.544208426125
 20
992.8162583630694
 10
2514.207407137362
 20
992.9452500655953
 10
2513.904321017758
 20
993.0926699530241
 10
2513.63954454394
 20
993.2562832901339
 10
2513.417091457349
 20
993.4336098655128
 10
2513.240333920024
 20
993.6219615890346
 10
2513.111951396054
 20
993.8184832405655
 10
2513.033890033636
 20
994.0201957521921
 10
2513.007333163453
 20
994.224041367852
 10
2513.032683360587
 20
994.4269299958008
 10
2513.109556341888
 20
994.6257860512524
 10
2513.236786791322
 20
994.8175950791082
 10
2513.412446024965
 20
994.9994494500256
 10
2513.633871227894
 20
995.1685924371137
 10
2513.89770581974
 20
995.3224600051029
  0
LINE
  5
67B
330
5F8
100
AcDbEntity
  8
0
  6
Continuous
 62
     7
370
    15
100
AcDbLine
 10
2512.893991275745
 20
989.6946570908687
 30
0.0
 11
2512.894632552086
 21
989.7124262019397
 31
0.0
  0
LINE
  5
67C
330
5F8
100
AcDbEntity
  8
0
  6
Continuous
 62
     7
370
    15
100
AcDbLine
 10
2519.74185936499
 20
989.5237693138914
 30
0.0
 11
2519.739860181613
 21
989.4838015383944
 31
0.0
  0
ARC
  5
67D
330
5F8
100
AcDbEntity
  8
0
  6
Continuous
 62
     7
370
    15
100
AcDbCircle
 10
2527.147249732863
 20
973.7469287516828
 30
0.0
 40
4.612622668519481
100
AcDbArc
 50
238.1526450609845
 51
298.9883288727481
  0
LINE
  5
67E
330
5F8
100
AcDbEntity
  8
0
  6
Continuous
 62
     7
370
    15
100
AcDbLine
 10
2511.451815067705
 20
988.6787362584877
 30
0.0
 11
2511.366624732927
 21
985.2649626968355
 31
0.0
  0
ARC
  5
67F
330
5F8
100
AcDbEntity
  8
0
  6
Continuous
 62
     7
370
    15
100
AcDbCircle
 10
2522.021511276559
 20
1001.67229718889
 30
0.0
 40
19.56341566270688
100
AcDbArc
 50
237.0003955998178
 51
253.7442270732511
  0
LWPOLYLINE
  5
680
330
5F8
100
AcDbEntity
  8
0
  6
Continuous
 62
     7
370
    15
100
AcDbPolyline
 90
       26
 70
   128
 43
0.0
 10
2512.972487840425
 20
975.8544639477674
 10
2512.97567196081
 20
975.7679151255764
 10
2513.019942984858
 20
975.5786805864298
 10
2513.114716894399
 20
975.3928842206002
 10
2513.258372081566
 20
975.21370505542
 10
2513.448450566279
 20
975.0442088960827
 10
2513.681700052963
 20
974.887295868868
 10
2513.954129578233
 20
974.7456507991763
 10
2514.261077797379
 20
974.6216972734211
 10
2514.59729274127
 20
974.5175561707947
 10
2514.957021678999
 20
974.4350093744362
 10
2515.334109548707
 20
974.3754692829178
 10
2515.722104272393
 20
974.339954643713
 10
2516.114367152764
 20
974.3290731221449
 10
2516.504186463179
 20
974.3430109040646
 10
2516.884892287161
 20
974.3815295101592
 10
2517.249970642508
 20
974.443969876399
 10
2517.593174937342
 20
974.5292636308059
 10
2517.908632851024
 20
974.6359513735942
 10
2518.19094681119
 20
974.7622076479052
 10
2518.435286347708
 20
974.9058721738807
 10
2518.637470743366
 20
975.0644868116498
 10
2518.794040567098
 20
975.2353376207842
 10
2518.90231686581
 20
975.4155012965705
 10
2518.960447002011
 20
975.6018951885657
 10
2518.97062047334
 20
975.7047812234079
  0
LINE
  5
681
330
5F8
100
AcDbEntity
  8
0
  6
Continuous
 62
     7
370
    15
100
AcDbLine
 10
2509.824260454548
 20
989.4248405461208
 30
0.0
 11
2509.739070119768
 21
986.0110669844694
 31
0.0
  0
LINE
  5
682
330
5F8
100
AcDbEntity
  8
0
  6
Continuous
 62
     7
370
    15
100
AcDbLine
 10
2511.366624732927
 20
985.2649626968355
 30
0.0
 11
2509.739070119768
 21
986.0110669844694
 31
0.0
  0
LWPOLYLINE
  5
683
330
5F8
100
AcDbEntity
  8
0
  6
Continuous
 62
     7
370
    15
100
AcDbPolyline
 90
        3
 70
   128
 43
0.0
 10
2518.038618565809
 20
974.6549699995918
 10
2518.27571734076
 20
974.7952208152387
 10
2518.283226297314
 20
974.8003951956755
  0
ARC
  5
684
330
5F8
100
AcDbEntity
  8
0
  6
Continuous
 62
     7
370
    15
100
AcDbCircle
 10
2516.071109805889
 20
978.9217123095195
 30
0.0
 40
4.698529627414228
100
AcDbArc
 50
238.4682725515584
 51
294.7556878875459
  0
LWPOLYLINE
  5
685
330
5F8
100
AcDbEntity
  8
0
  6
Continuous
 62
     8
370
    15
100
AcDbPolyline
 90
       28
 70
   128
 43
0.0
 10
2557.281844361899
 20
969.3463583372189
 10
2557.281599136566
 20
969.3240445320002
 10
2557.308156006749
 20
969.1201989163403
 10
2557.386217369167
 20
968.9184864047138
 10
2557.514599893137
 20
968.7219647531827
 10
2557.691357430462
 20
968.533613029661
 10
2557.913810517052
 20
968.3562864542821
 10
2558.178586990872
 20
968.1926731171722
 10
2558.481673110475
 20
968.0452532297433
 10
2558.818474399238
 20
967.9162615272176
 10
2559.18388529294
 20
967.8076533923182
 10
2559.572366534911
 20
967.7210752136613
 10
2559.97802914552
 20
967.6578394281824
 10
2560.394723693099
 20
967.6189046259302
 10
2560.816133513061
 20
967.6048610188191
 10
2561.235870462097
 20
967.6159214936173
 10
2561.647571755918
 20
967.6519183848018
 10
2562.044996422573
 20
967.7123060161951
 10
2562.422119909229
 20
967.7961689728611
 10
2562.773225408245
 20
967.902235977862
 10
2563.092990518154
 20
968.0288991635206
 10
2563.376567925842
 20
968.174238445056
 10
2563.619658886869
 20
968.3360506271103
 10
2563.818578390061
 20
968.5118828019463
 10
2563.970311018515
 20
968.6990695330266
 10
2564.072556660253
 20
968.8947732603157
 10
2564.123765375569
 20
969.0960273147975
 10
2564.129712451142
 20
969.1754705602418
  0
LWPOLYLINE
  5
686
330
5F8
100
AcDbEntity
  8
0
  6
Continuous
 62
     8
370
    15
100
AcDbPolyline
 90
       28
 70
   128
 43
0.0
 10
2546.18488109036
 20
974.4334330256313
 10
2546.184635865028
 20
974.4111192204124
 10
2546.211192735211
 20
974.2072736047525
 10
2546.289254097629
 20
974.0055610931261
 10
2546.417636621599
 20
973.809039441595
 10
2546.594394158924
 20
973.6206877180732
 10
2546.816847245514
 20
973.4433611426945
 10
2547.081623719333
 20
973.2797478055845
 10
2547.384709838937
 20
973.1323279181555
 10
2547.7215111277
 20
973.00333621563
 10
2548.086922021402
 20
972.8947280807304
 10
2548.475403263373
 20
972.8081499020737
 10
2548.881065873982
 20
972.7449141165946
 10
2549.29776042156
 20
972.7059793143425
 10
2549.719170241523
 20
972.6919357072313
 10
2550.13890719056
 20
972.7029961820297
 10
2550.55060848438
 20
972.7389930732142
 10
2550.948033151035
 20
972.7993807046074
 10
2551.325156637691
 20
972.8832436612734
 10
2551.676262136707
 20
972.9893106662743
 10
2551.996027246616
 20
973.115973851933
 10
2552.279604654304
 20
973.2613131334682
 10
2552.522695615331
 20
973.4231253155225
 10
2552.721615118523
 20
973.5989574903586
 10
2552.873347746977
 20
973.7861442214388
 10
2552.975593388715
 20
973.9818479487281
 10
2553.026802104031
 20
974.1831020032098
 10
2553.032749179604
 20
974.2625452486542
  0
LWPOLYLINE
  5
687
330
5F8
100
AcDbEntity
  8
0
  6
Continuous
 62
     8
370
    15
100
AcDbPolyline
 90
       28
 70
   128
 43
0.0
 10
2535.087917818823
 20
979.5205077140435
 10
2535.08767259349
 20
979.4981939088247
 10
2535.114229463673
 20
979.2943482931647
 10
2535.192290826091
 20
979.0926357815383
 10
2535.320673350061
 20
978.8961141300072
 10
2535.497430887386
 20
978.7077624064856
 10
2535.719883973976
 20
978.5304358311067
 10
2535.984660447795
 20
978.3668224939967
 10
2536.287746567399
 20
978.2194026065679
 10
2536.624547856162
 20
978.0904109040422
 10
2536.989958749864
 20
977.9818027691428
 10
2537.378439991835
 20
977.8952245904859
 10
2537.784102602444
 20
977.8319888050068
 10
2538.200797150023
 20
977.7930540027547
 10
2538.622206969985
 20
977.7790103956435
 10
2539.041943919022
 20
977.790070870442
 10
2539.453645212843
 20
977.8260677616264
 10
2539.851069879497
 20
977.8864553930198
 10
2540.228193366153
 20
977.9703183496858
 10
2540.579298865169
 20
978.0763853546867
 10
2540.899063975079
 20
978.2030485403453
 10
2541.182641382766
 20
978.3483878218804
 10
2541.425732343793
 20
978.5102000039348
 10
2541.624651846984
 20
978.6860321787708
 10
2541.776384475439
 20
978.8732189098512
 10
2541.878630117177
 20
979.0689226371403
 10
2541.929838832493
 20
979.2701766916222
 10
2541.935785908066
 20
979.3496199370665
  0
LWPOLYLINE
  5
688
330
5F8
100
AcDbEntity
  8
0
  6
Continuous
 62
     8
370
    15
100
AcDbPolyline
 90
       28
 70
   128
 43
0.0
 10
2523.990954547285
 20
984.6075824024557
 10
2523.990709321952
 20
984.5852685972371
 10
2524.017266192135
 20
984.3814229815771
 10
2524.095327554553
 20
984.1797104699505
 10
2524.223710078523
 20
983.9831888184194
 10
2524.400467615848
 20
983.7948370948979
 10
2524.622920702438
 20
983.6175105195192
 10
2524.887697176257
 20
983.4538971824089
 10
2525.19078329586
 20
983.3064772949802
 10
2525.527584584625
 20
983.1774855924544
 10
2525.892995478326
 20
983.068877457555
 10
2526.281476720297
 20
982.9822992788981
 10
2526.687139330906
 20
982.9190634934192
 10
2527.103833878485
 20
982.8801286911671
 10
2527.525243698447
 20
982.8660850840558
 10
2527.944980647484
 20
982.8771455588542
 10
2528.356681941304
 20
982.9131424500387
 10
2528.754106607959
 20
982.973530081432
 10
2529.131230094614
 20
983.057393038098
 10
2529.482335593631
 20
983.1634600430989
 10
2529.802100703541
 20
983.2901232287575
 10
2530.085678111228
 20
983.4354625102928
 10
2530.328769072256
 20
983.5972746923472
 10
2530.527688575447
 20
983.773106867183
 10
2530.679421203901
 20
983.9602935982634
 10
2530.781666845639
 20
984.1559973255526
 10
2530.832875560955
 20
984.3572513800344
 10
2530.838822636528
 20
984.4366946254787
  0
LWPOLYLINE
  5
689
330
5F8
100
AcDbEntity
  8
0
  6
Continuous
 62
     8
370
    15
100
AcDbPolyline
 90
       21
 70
   128
 43
0.0
 10
2518.851731934035
 20
988.4476644818592
 10
2518.549487416746
 20
988.3114048084555
 10
2518.213414692806
 20
988.1948185873905
 10
2517.848608282134
 20
988.0996731469345
 10
2517.460598278054
 20
988.0274107949784
 10
2517.055266516713
 20
987.979126955118
 10
2516.638757414439
 20
987.9555535611478
 10
2516.217384824658
 20
987.9570479616907
 10
2515.797536326306
 20
987.9835875031579
 10
2515.385576394648
 20
988.0347698731538
 10
2514.987749922321
 20
988.1098191991215
 10
2514.610087553121
 20
988.2075978097807
 10
2514.258314263599
 20
988.3266234810635
 10
2513.937762578246
 20
988.4650919051216
 10
2513.653291733859
 20
988.6209040417931
 10
2513.409214018465
 20
988.7916979379122
 10
2513.209229401431
 20
988.9748845321115
 10
2513.056369445699
 20
989.1676869023529
 10
2512.952951352379
 20
989.3671823612356
 10
2512.900542834349
 20
989.5703467609575
 10
2512.893991275745
 20
989.6946570908687
  0
ARC
  5
68A
330
5F8
100
AcDbEntity
  8
0
  6
Continuous
 62
     8
370
    15
100
AcDbCircle
 10
2518.361037042343
 20
989.7669647401283
 30
0.0
 40
1.407598894643414
100
AcDbArc
 50
290.4019657182098
 51
348.3947583217109
  0
ENDBLK
  5
5FA
330
5F8
100
AcDbEntity
  8
0
100
AcDbBlockEnd
  0
ENDSEC
  0
SECTION
  2
ENTITIES
  0
INSERT
  5
562
330
1F
100
AcDbEntity
  8
0
100
AcDbBlockReference
  2
1
 10
0.0
 20
0.0
 30
0.0
  0
INSERT
  5
586
330
1F
100
AcDbEntity
  8
0
100
AcDbBlockReference
  2
2
 10
0.0
 20
0.0
 30
0.0
  0
INSERT
  5
5F7
330
1F
100
AcDbEntity
  8
0
100
AcDbBlockReference
  2
3
 10
0.0
 20
0.0
 30
0.0
  0
INSERT
  5
68B
330
1F
100
AcDbEntity
  8
0
100
AcDbBlockReference
  2
4
 10
0.0
 20
0.0
 30
0.0
  0
ENDSEC
  0
SECTION
  2
OBJECTS
  0
DICTIONARY
  5
C
330
0
100
AcDbDictionary
281
     1
  3
ACAD_COLOR
350
6B
  3
ACAD_GROUP
350
D
  3
ACAD_LAYOUT
350
1A
  3
ACAD_MATERIAL
350
6A
  3
ACAD_MLEADERSTYLE
350
12D
  3
ACAD_MLINESTYLE
350
17
  3
ACAD_PLOTSETTINGS
350
19
  3
ACAD_PLOTSTYLENAME
350
E
  3
ACAD_SCALELIST
350
10C
  3
ACAD_TABLESTYLE
350
7E
  3
ACAD_VISUALSTYLE
350
EF
  3
ACDB_RECOMPOSE_DATA
350
15D
  3
AcDbVariableDictionary
350
5E
  3
DWGPROPS
350
699
  0
DICTIONARY
  5
13C
330
10
100
AcDbDictionary
280
     1
281
     1
  3
ADSK_XREC_LAYER_RECONCILED
360
68C
  0
DICTIONARY
  5
6B
102
{ACAD_REACTORS
330
C
102
}
330
C
100
AcDbDictionary
281
     1
  0
DICTIONARY
  5
D
102
{ACAD_REACTORS
330
C
102
}
330
C
100
AcDbDictionary
281
     1
  0
DICTIONARY
  5
1A
102
{ACAD_REACTORS
330
C
102
}
330
C
100
AcDbDictionary
281
     1
  3
Layout1
350
D3
  3
Layout2
350
D7
  3
Model
350
22
  0
DICTIONARY
  5
6A
102
{ACAD_REACTORS
330
C
102
}
330
C
100
AcDbDictionary
281
     1
  3
ByBlock
350
ED
  3
ByLayer
350
EC
  3
Global
350
EE
  0
DICTIONARY
  5
12D
102
{ACAD_REACTORS
330
C
102
}
330
C
100
AcDbDictionary
281
     1
  3
Annotative
350
13B
  3
Standard
350
12E
  0
DICTIONARY
  5
17
102
{ACAD_REACTORS
330
C
102
}
330
C
100
AcDbDictionary
281
     1
  3
Standard
350
18
  0
DICTIONARY
  5
19
102
{ACAD_REACTORS
330
C
102
}
330
C
100
AcDbDictionary
281
     1
  0
ACDBDICTIONARYWDFLT
  5
E
102
{ACAD_REACTORS
330
C
102
}
330
C
100
AcDbDictionary
281
     1
  3
Normal
350
F
100
AcDbDictionaryWithDefault
340
F
  0
DICTIONARY
  5
10C
102
{ACAD_REACTORS
330
C
102
}
330
C
100
AcDbDictionary
281
     1
  3
A0
350
10D
  3
A1
350
188
  3
A2
350
189
  3
A3
350
18A
  3
A4
350
18B
  3
A5
350
18C
  3
A6
350
18D
  3
A7
350
18E
  3
A8
350
18F
  3
A9
350
190
  3
B0
350
191
  3
B1
350
192
  3
B2
350
193
  3
B3
350
194
  3
B4
350
195
  3
B5
350
196
  3
B6
350
197
  3
B7
350
198
  3
B8
350
199
  3
B9
350
19A
  3
C0
350
19B
  3
C1
350
19C
  3
C2
350
19D
  3
C3
350
19E
  3
C4
350
19F
  3
C5
350
1A0
  3
C6
350
1A1
  3
C7
350
1A2
  3
C8
350
1A3
  3
C9
350
1A4
  3
D0
350
1A5
  3
D1
350
1A6
  3
D2
350
1A7
  0
DICTIONARY
  5
7E
102
{ACAD_REACTORS
330
C
102
}
330
C
100
AcDbDictionary
281
     1
  3
Standard
350
7F
  0
DICTIONARY
  5
EF
102
{ACAD_REACTORS
330
C
102
}
330
C
100
AcDbDictionary
281
     1
  3
2dWireframe
350
F5
  3
3D Hidden
350
F7
  3
3dWireframe
350
F6
  3
Basic
350
F4
  3
Brighten
350
FB
  3
ColorChange
350
FF
  3
Conceptual
350
F8
  3
Dim
350
FA
  3
Facepattern
350
FE
  3
Flat
350
F0
  3
FlatWithEdges
350
F1
  3
Gouraud
350
F2
  3
GouraudWithEdges
350
F3
  3
Linepattern
350
FD
  3
Realistic
350
F9
  3
Thicken
350
FC
  0
XRECORD
  5
15D
102
{ACAD_REACTORS
330
C
102
}
330
C
100
AcDbXrecord
280
     1
 90
        1
330
7F
  0
DICTIONARY
  5
5E
102
{ACAD_REACTORS
330
C
102
}
330
C
100
AcDbDictionary
281
     1
  3
CANNOSCALE
350
146
  3
CMLEADERSTYLE
350
145
  3
CTABLESTYLE
350
84
  3
DIMASSOC
350
5F
  3
HIDETEXT
350
63
  3
INDEXCTL
350
695
  3
LIGHTINGUNITS
350
693
  3
MSLTSCALE
350
692
  3
PSOLHEIGHT
350
697
  3
PSOLWIDTH
350
696
  3
SORTENTS
350
694
  0
XRECORD
  5
699
102
{ACAD_REACTORS
330
C
102
}
330
C
100
AcDbXrecord
280
     1
  1
DWGPROPS COOKIE
  2

  3

  4

  6

  7

  8
orhan kara
  9

300
=
301
=
302
=
303
=
304
=
305
=
306
=
307
=
308
=
309
=
 40
0.000626412037037
 41
2458935.539757616
 42
2458956.462803935
  1

 90
        0
  0
XRECORD
  5
68C
102
{ACAD_REACTORS
330
13C
102
}
330
13C
100
AcDbXrecord
280
     1
290
     1
  0
LAYOUT
  5
D3
102
{ACAD_XDICTIONARY
360
69D
102
}
102
{ACAD_REACTORS
330
1A
102
}
330
1A
100
AcDbPlotSettings
  1

  2
C:\Documents and Settings\basas\Application Data\Autodesk\AutoCAD 2005\R16.1\enu\plotters\Default Windows System Printer.pc3
  4

  6

 40
0.0
 41
0.0
 42
0.0
 43
0.0
 44
0.0
 45
0.0
 46
0.0
 47
0.0
 48
0.0
 49
0.0
140
0.0
141
0.0
142
1.0
143
1.0
 70
   688
 72
     0
 73
     0
 74
     5
  7

 75
    16
147
1.0
148
0.0
149
0.0
100
AcDbLayout
  1
Layout1
 70
     1
 71
     1
 10
0.0
 20
0.0
 11
12.0
 21
9.0
 12
0.0
 22
0.0
 32
0.0
 14
0.0
 24
0.0
 34
0.0
 15
0.0
 25
0.0
 35
0.0
146
0.0
 13
0.0
 23
0.0
 33
0.0
 16
1.0
 26
0.0
 36
0.0
 17
0.0
 27
1.0
 37
0.0
 76
     0
330
D2
  0
LAYOUT
  5
D7
102
{ACAD_XDICTIONARY
360
69F
102
}
102
{ACAD_REACTORS
330
1A
102
}
330
1A
100
AcDbPlotSettings
  1

  2
C:\Documents and Settings\basas\Application Data\Autodesk\AutoCAD 2005\R16.1\enu\plotters\Default Windows System Printer.pc3
  4

  6

 40
0.0
 41
0.0
 42
0.0
 43
0.0
 44
0.0
 45
0.0
 46
0.0
 47
0.0
 48
0.0
 49
0.0
140
0.0
141
0.0
142
1.0
143
1.0
 70
   688
 72
     0
 73
     0
 74
     5
  7

 75
    16
147
1.0
148
0.0
149
0.0
100
AcDbLayout
  1
Layout2
 70
     1
 71
     2
 10
0.0
 20
0.0
 11
12.0
 21
9.0
 12
0.0
 22
0.0
 32
0.0
 14
0.0
 24
0.0
 34
0.0
 15
0.0
 25
0.0
 35
0.0
146
0.0
 13
0.0
 23
0.0
 33
0.0
 16
1.0
 26
0.0
 36
0.0
 17
0.0
 27
1.0
 37
0.0
 76
     0
330
D6
  0
LAYOUT
  5
22
102
{ACAD_XDICTIONARY
360
69A
102
}
102
{ACAD_REACTORS
330
1A
102
}
330
1A
100
AcDbPlotSettings
  1

  2
none_device
  4
ISO_A4_(210.00_x_297.00_MM)
  6

 40
7.5
 41
20.0
 42
7.5
 43
20.0
 44
210.0
 45
297.0
 46
11.54999923706054
 47
-13.65000009536743
 48
0.0
 49
0.0
140
0.0
141
0.0
142
1.0
143
8.704084754739808
 70
 11952
 72
     1
 73
     0
 74
     0
  7

 75
     0
147
0.1148885871608098
148
0.0
149
0.0
100
AcDbLayout
  1
Model
 70
     1
 71
     0
 10
0.0
 20
0.0
 11
12.0
 21
9.0
 12
0.0
 22
0.0
 32
0.0
 14
0.0
 24
0.0
 34
0.0
 15
0.0
 25
0.0
 35
0.0
146
0.0
 13
0.0
 23
0.0
 33
0.0
 16
1.0
 26
0.0
 36
0.0
 17
0.0
 27
1.0
 37
0.0
 76
     0
330
1F
331
EA
1001
ACAD_PSEXT
1000
None
1000
None
1000
Not applicable
1000
The layout will not be plotted unless a new plotter configuration name is selected.
1070
     0
  0
MATERIAL
  5
ED
102
{ACAD_XDICTIONARY
360
6A3
102
}
102
{ACAD_REACTORS
330
6A
102
}
330
6A
100
AcDbMaterial
  1
ByBlock
  0
MATERIAL
  5
EC
102
{ACAD_XDICTIONARY
360
6A1
102
}
102
{ACAD_REACTORS
330
6A
102
}
330
6A
100
AcDbMaterial
  1
ByLayer
  0
MATERIAL
  5
EE
102
{ACAD_XDICTIONARY
360
173
102
}
102
{ACAD_REACTORS
330
6A
102
}
330
6A
100
AcDbMaterial
  1
Global
 43
0.0007999999797903
 43
0.0
 43
0.0
 43
0.0
 43
0.0
 43
0.0007999999797903
 43
0.0
 43
0.0
 43
0.0
 43
0.0
 43
1.0
 43
0.0
 43
0.0
 43
0.0
 43
0.0
 43
1.0
 49
0.0007999999797903
 49
0.0
 49
0.0
 49
0.0
 49
0.0
 49
0.0007999999797903
 49
0.0
 49
0.0
 49
0.0
 49
0.0
 49
1.0
 49
0.0
 49
0.0
 49
0.0
 49
0.0
 49
1.0
142
0.0007999999797903
142
0.0
142
0.0
142
0.0
142
0.0
142
0.0007999999797903
142
0.0
142
0.0
142
0.0
142
0.0
142
1.0
142
0.0
142
0.0
142
0.0
142
0.0
142
1.0
144
0.0007999999797903
144
0.0
144
0.0
144
0.0
144
0.0
144
0.0007999999797903
144
0.0
144
0.0
144
0.0
144
0.0
144
1.0
144
0.0
144
0.0
144
0.0
144
0.0
144
1.0
1001
ACAD
1070
    -1
1070
     3
1070
     0
1000

1071
        0
1070
     0
  0
MLEADERSTYLE
  5
13B
102
{ACAD_REACTORS
330
12D
102
}
330
12D
100
AcDbMLeaderStyle
170
     2
171
     1
172
     0
 90
        2
 40
0.0
 41
0.0
173
     1
 91
-1056964608
340
14
 92
       -2
290
     1
 42
2.0
291
     1
 43
8.0
  3
Standard
 44
4.0
300

342
11
174
     1
178
     1
175
     1
176
     0
 93
-1056964608
 45
4.0
292
     0
297
     0
 46
4.0
 94
-1056964608
 47
1.0
 49
1.0
140
1.0
293
     1
141
0.0
294
     1
177
     0
142
1.0
295
     0
296
     1
143
3.75
1001
ACAD_MLEADERVER
1070
     2
  0
MLEADERSTYLE
  5
12E
102
{ACAD_REACTORS
330
12D
102
}
330
12D
100
AcDbMLeaderStyle
170
     2
171
     1
172
     0
 90
        2
 40
0.0
 41
0.0
173
     1
 91
-1056964608
340
14
 92
       -2
290
     1
 42
2.0
291
     1
 43
8.0
  3
Standard
 44
4.0
300

342
11
174
     1
178
     1
175
     1
176
     0
 93
-1056964608
 45
4.0
292
     0
297
     0
 46
4.0
 94
-1056964608
 47
1.0
 49
1.0
140
1.0
293
     1
141
0.0
294
     1
177
     0
142
1.0
295
     0
296
     0
143
3.75
1001
ACAD_MLEADERVER
1070
     2
  0
MLINESTYLE
  5
18
102
{ACAD_REACTORS
330
17
102
}
330
17
100
AcDbMlineStyle
  2
STANDARD
 70
     0
  3

 62
   256
 51
90.0
 52
90.0
 71
     2
 49
0.5
 62
   256
  6
BYLAYER
 49
-0.5
 62
   256
  6
BYLAYER
  0
ACDBPLACEHOLDER
  5
F
102
{ACAD_REACTORS
330
E
102
}
330
E
  0
SCALE
  5
10D
102
{ACAD_REACTORS
330
10C
102
}
330
10C
100
AcDbScale
 70
     0
300
1:1
140
1.0
141
1.0
290
     1
  0
SCALE
  5
188
102
{ACAD_REACTORS
330
10C
102
}
330
10C
100
AcDbScale
 70
     0
300
1:2
140
1.0
141
2.0
290
     0
  0
SCALE
  5
189
102
{ACAD_REACTORS
330
10C
102
}
330
10C
100
AcDbScale
 70
     0
300
1:4
140
1.0
141
4.0
290
     0
  0
SCALE
  5
18A
102
{ACAD_REACTORS
330
10C
102
}
330
10C
100
AcDbScale
 70
     0
300
1:5
140
1.0
141
5.0
290
     0
  0
SCALE
  5
18B
102
{ACAD_REACTORS
330
10C
102
}
330
10C
100
AcDbScale
 70
     0
300
1:8
140
1.0
141
8.0
290
     0
  0
SCALE
  5
18C
102
{ACAD_REACTORS
330
10C
102
}
330
10C
100
AcDbScale
 70
     0
300
1:10
140
1.0
141
10.0
290
     0
  0
SCALE
  5
18D
102
{ACAD_REACTORS
330
10C
102
}
330
10C
100
AcDbScale
 70
     0
300
1:16
140
1.0
141
16.0
290
     0
  0
SCALE
  5
18E
102
{ACAD_REACTORS
330
10C
102
}
330
10C
100
AcDbScale
 70
     0
300
1:20
140
1.0
141
20.0
290
     0
  0
SCALE
  5
18F
102
{ACAD_REACTORS
330
10C
102
}
330
10C
100
AcDbScale
 70
     0
300
1:30
140
1.0
141
30.0
290
     0
  0
SCALE
  5
190
102
{ACAD_REACTORS
330
10C
102
}
330
10C
100
AcDbScale
 70
     0
300
1:40
140
1.0
141
40.0
290
     0
  0
SCALE
  5
191
102
{ACAD_REACTORS
330
10C
102
}
330
10C
100
AcDbScale
 70
     0
300
1:50
140
1.0
141
50.0
290
     0
  0
SCALE
  5
192
102
{ACAD_REACTORS
330
10C
102
}
330
10C
100
AcDbScale
 70
     0
300
1:100
140
1.0
141
100.0
290
     0
  0
SCALE
  5
193
102
{ACAD_REACTORS
330
10C
102
}
330
10C
100
AcDbScale
 70
     0
300
2:1
140
2.0
141
1.0
290
     0
  0
SCALE
  5
194
102
{ACAD_REACTORS
330
10C
102
}
330
10C
100
AcDbScale
 70
     0
300
4:1
140
4.0
141
1.0
290
     0
  0
SCALE
  5
195
102
{ACAD_REACTORS
330
10C
102
}
330
10C
100
AcDbScale
 70
     0
300
8:1
140
8.0
141
1.0
290
     0
  0
SCALE
  5
196
102
{ACAD_REACTORS
330
10C
102
}
330
10C
100
AcDbScale
 70
     0
300
10:1
140
10.0
141
1.0
290
     0
  0
SCALE
  5
197
102
{ACAD_REACTORS
330
10C
102
}
330
10C
100
AcDbScale
 70
     0
300
100:1
140
100.0
141
1.0
290
     0
  0
SCALE
  5
198
102
{ACAD_REACTORS
330
10C
102
}
330
10C
100
AcDbScale
 70
     0
300
1/128" = 1'-0"
140
0.0078125
141
12.0
290
     0
  0
SCALE
  5
199
102
{ACAD_REACTORS
330
10C
102
}
330
10C
100
AcDbScale
 70
     0
300
1/64" = 1'-0"
140
0.015625
141
12.0
290
     0
  0
SCALE
  5
19A
102
{ACAD_REACTORS
330
10C
102
}
330
10C
100
AcDbScale
 70
     0
300
1/32" = 1'-0"
140
0.03125
141
12.0
290
     0
  0
SCALE
  5
19B
102
{ACAD_REACTORS
330
10C
102
}
330
10C
100
AcDbScale
 70
     0
300
1/16" = 1'-0"
140
0.0625
141
12.0
290
     0
  0
SCALE
  5
19C
102
{ACAD_REACTORS
330
10C
102
}
330
10C
100
AcDbScale
 70
     0
300
3/32" = 1'-0"
140
0.09375
141
12.0
290
     0
  0
SCALE
  5
19D
102
{ACAD_REACTORS
330
10C
102
}
330
10C
100
AcDbScale
 70
     0
300
1/8" = 1'-0"
140
0.125
141
12.0
290
     0
  0
SCALE
  5
19E
102
{ACAD_REACTORS
330
10C
102
}
330
10C
100
AcDbScale
 70
     0
300
3/16" = 1'-0"
140
0.1875
141
12.0
290
     0
  0
SCALE
  5
19F
102
{ACAD_REACTORS
330
10C
102
}
330
10C
100
AcDbScale
 70
     0
300
1/4" = 1'-0"
140
0.25
141
12.0
290
     0
  0
SCALE
  5
1A0
102
{ACAD_REACTORS
330
10C
102
}
330
10C
100
AcDbScale
 70
     0
300
3/8" = 1'-0"
140
0.375
141
12.0
290
     0
  0
SCALE
  5
1A1
102
{ACAD_REACTORS
330
10C
102
}
330
10C
100
AcDbScale
 70
     0
300
1/2" = 1'-0"
140
0.5
141
12.0
290
     0
  0
SCALE
  5
1A2
102
{ACAD_REACTORS
330
10C
102
}
330
10C
100
AcDbScale
 70
     0
300
3/4" = 1'-0"
140
0.75
141
12.0
290
     0
  0
SCALE
  5
1A3
102
{ACAD_REACTORS
330
10C
102
}
330
10C
100
AcDbScale
 70
     0
300
1" = 1'-0"
140
1.0
141
12.0
290
     0
  0
SCALE
  5
1A4
102
{ACAD_REACTORS
330
10C
102
}
330
10C
100
AcDbScale
 70
     0
300
1-1/2" = 1'-0"
140
1.5
141
12.0
290
     0
  0
SCALE
  5
1A5
102
{ACAD_REACTORS
330
10C
102
}
330
10C
100
AcDbScale
 70
     0
300
3" = 1'-0"
140
3.0
141
12.0
290
     0
  0
SCALE
  5
1A6
102
{ACAD_REACTORS
330
10C
102
}
330
10C
100
AcDbScale
 70
     0
300
6" = 1'-0"
140
6.0
141
12.0
290
     0
  0
SCALE
  5
1A7
102
{ACAD_REACTORS
330
10C
102
}
330
10C
100
AcDbScale
 70
     0
300
1'-0" = 1'-0"
140
12.0
141
12.0
290
     0
  0
TABLESTYLE
  5
7F
102
{ACAD_XDICTIONARY
360
162
102
}
102
{ACAD_REACTORS
330
7E
102
}
330
7E
100
AcDbTableStyle
  3
Standard
 70
     0
 71
     0
 40
1.5
 41
1.5
280
     0
281
     0
  7
Standard
140
4.5
170
     2
 62
     0
 63
     7
283
     0
274
    -2
284
     1
 64
     0
275
    -2
285
     1
 65
     0
276
    -2
286
     1
 66
     0
277
    -2
287
     1
 67
     0
278
    -2
288
     1
 68
     0
279
    -2
289
     1
 69
     0
  7
Standard
140
6.0
170
     5
 62
     0
 63
     7
283
     0
274
    -2
284
     1
 64
     0
275
    -2
285
     1
 65
     0
276
    -2
286
     1
 66
     0
277
    -2
287
     1
 67
     0
278
    -2
288
     1
 68
     0
279
    -2
289
     1
 69
     0
  7
Standard
140
4.5
170
     5
 62
     0
 63
     7
283
     0
274
    -2
284
     1
 64
     0
275
    -2
285
     1
 65
     0
276
    -2
286
     1
 66
     0
277
    -2
287
     1
 67
     0
278
    -2
288
     1
 68
     0
279
    -2
289
     1
 69
     0
  0
VISUALSTYLE
  5
F5
102
{ACAD_REACTORS
330
EF
102
}
330
EF
100
AcDbVisualStyle
  2
2dWireframe
 70
     4
 71
     0
 72
     2
 73
     1
 90
        0
 40
-0.6
 41
-30.0
 62
     5
 63
     7
 74
     1
 91
        4
 64
     7
 65
   257
 75
     1
175
     1
 42
1.0
 92
        0
 66
   257
 43
1.0
 76
     1
 77
     6
 78
     2
 67
     7
 79
     5
170
     0
171
     0
290
     0
174
     0
 93
        1
 44
0.0
173
     0
291
     0
 45
0.0
1001
ACAD
1000
AcDbSavedByObjectVersion
1070
     0
  0
VISUALSTYLE
  5
F7
102
{ACAD_REACTORS
330
EF
102
}
330
EF
100
AcDbVisualStyle
  2
3D Hidden
 70
     6
 71
     1
 72
     2
 73
     2
 90
        0
 40
-0.6
 41
-30.0
 62
     5
 63
     7
 74
     2
 91
        2
 64
     7
 65
   257
 75
     2
175
     1
 42
40.0
 92
        0
 66
   257
 43
1.0
 76
     1
 77
     6
 78
     2
 67
     7
 79
     3
170
     0
171
     0
290
     0
174
     0
 93
        1
 44
0.0
173
     0
291
     0
 45
0.0
1001
ACAD
1000
AcDbSavedByObjectVersion
1070
     0
  0
VISUALSTYLE
  5
F6
102
{ACAD_REACTORS
330
EF
102
}
330
EF
100
AcDbVisualStyle
  2
3dWireframe
 70
     5
 71
     0
 72
     2
 73
     1
 90
        0
 40
-0.6
 41
-30.0
 62
     5
 63
     7
 74
     1
 91
        4
 64
     7
 65
   257
 75
     1
175
     1
 42
1.0
 92
        0
 66
   257
 43
1.0
 76
     1
 77
     6
 78
     2
 67
     7
 79
     5
170
     0
171
     0
290
     0
174
     0
 93
        1
 44
0.0
173
     0
291
     0
 45
0.0
1001
ACAD
1000
AcDbSavedByObjectVersion
1070
     0
  0
VISUALSTYLE
  5
F4
102
{ACAD_REACTORS
330
EF
102
}
330
EF
100
AcDbVisualStyle
  2
Basic
 70
     7
 71
     1
 72
     0
 73
     1
 90
        0
 40
-0.6
 41
-30.0
 62
     5
 63
     7
 74
     0
 91
        4
 64
     7
 65
   257
 75
     1
175
     1
 42
1.0
 92
        8
 66
     7
 43
1.0
 76
     1
 77
     6
 78
     2
 67
     7
 79
     5
170
     0
171
     0
290
     0
174
     0
 93
        1
 44
0.0
173
     0
291
     1
 45
0.0
1001
ACAD
1000
AcDbSavedByObjectVersion
1070
     0
  0
VISUALSTYLE
  5
FB
102
{ACAD_REACTORS
330
EF
102
}
330
EF
100
AcDbVisualStyle
  2
Brighten
 70
    12
 71
     2
 72
     2
 73
     1
 90
        0
 40
-0.6
 41
-30.0
 62
     5
 63
     7
 74
     1
 91
        4
 64
     7
 65
   257
 75
     1
175
     1
 42
1.0
 92
        8
 66
     7
 43
1.0
 76
     1
 77
     6
 78
     2
 67
     7
 79
     5
170
     0
171
     0
290
     0
174
     0
 93
        1
 44
50.0
173
     0
291
     1
 45
0.0
1001
ACAD
1000
AcDbSavedByObjectVersion
1070
     0
  0
VISUALSTYLE
  5
FF
102
{ACAD_REACTORS
330
EF
102
}
330
EF
100
AcDbVisualStyle
  2
ColorChange
 70
    16
 71
     2
 72
     2
 73
     3
 90
        0
 40
-0.6
 41
-30.0
 62
     5
 63
     8
 74
     1
 91
        4
 64
     7
 65
   257
 75
     1
175
     1
 42
1.0
 92
        8
 66
     8
 43
1.0
 76
     1
 77
     6
 78
     2
 67
     7
 79
     5
170
     0
171
     0
290
     0
174
     0
 93
        1
 44
0.0
173
     0
291
     1
 45
0.0
1001
ACAD
1000
AcDbSavedByObjectVersion
1070
     0
  0
VISUALSTYLE
  5
F8
102
{ACAD_REACTORS
330
EF
102
}
330
EF
100
AcDbVisualStyle
  2
Conceptual
 70
     9
 71
     3
 72
     2
 73
     1
 90
        0
 40
-0.6
 41
-30.0
 62
     5
 63
     7
 74
     2
 91
        2
 64
     7
 65
   257
 75
     1
175
     1
 42
40.0
 92
        8
 66
     7
 43
1.0
 76
     1
 77
     6
 78
     2
 67
     7
 79
     3
170
     0
171
     0
290
     0
174
     0
 93
        1
 44
0.0
173
     0
291
     0
 45
0.0
1001
ACAD
1000
AcDbSavedByObjectVersion
1070
     0
  0
VISUALSTYLE
  5
FA
102
{ACAD_REACTORS
330
EF
102
}
330
EF
100
AcDbVisualStyle
  2
Dim
 70
    11
 71
     2
 72
     2
 73
     1
 90
        0
 40
-0.6
 41
-30.0
 62
     5
 63
     7
 74
     1
 91
        4
 64
     7
 65
   257
 75
     1
175
     1
 42
1.0
 92
        8
 66
     7
 43
1.0
 76
     1
 77
     6
 78
     2
 67
     7
 79
     5
170
     0
171
     0
290
     0
174
     0
 93
        1
 44
-50.0
173
     0
291
     1
 45
0.0
1001
ACAD
1000
AcDbSavedByObjectVersion
1070
     0
  0
VISUALSTYLE
  5
FE
102
{ACAD_REACTORS
330
EF
102
}
330
EF
100
AcDbVisualStyle
  2
Facepattern
 70
    15
 71
     2
 72
     2
 73
     1
 90
        0
 40
-0.6
 41
-30.0
 62
     5
 63
     7
 74
     1
 91
        4
 64
     7
 65
   257
 75
     1
175
     1
 42
1.0
 92
        8
 66
     7
 43
1.0
 76
     1
 77
     6
 78
     2
 67
     7
 79
     5
170
     0
171
     0
290
     0
174
     0
 93
        1
 44
0.0
173
     0
291
     1
 45
0.0
1001
ACAD
1000
AcDbSavedByObjectVersion
1070
     0
  0
VISUALSTYLE
  5
F0
102
{ACAD_REACTORS
330
EF
102
}
330
EF
100
AcDbVisualStyle
  2
Flat
 70
     0
 71
     2
 72
     1
 73
     1
 90
        2
 40
-0.6
 41
30.0
 62
     5
 63
     7
 74
     0
 91
        4
 64
     7
 65
   257
 75
     1
175
     1
 42
1.0
 92
        8
 66
     7
 43
1.0
 76
     1
 77
     6
 78
     2
 67
     7
 79
     5
170
     0
171
     0
290
     0
174
     0
 93
        1
 44
0.0
173
     0
291
     1
 45
0.0
1001
ACAD
1000
AcDbSavedByObjectVersion
1070
     0
  0
VISUALSTYLE
  5
F1
102
{ACAD_REACTORS
330
EF
102
}
330
EF
100
AcDbVisualStyle
  2
FlatWithEdges
 70
     1
 71
     2
 72
     1
 73
     1
 90
        2
 40
-0.6
 41
30.0
 62
     5
 63
     7
 74
     1
 91
        4
 64
     7
 65
   257
 75
     1
175
     1
 42
1.0
 92
        0
 66
   257
 43
1.0
 76
     1
 77
     6
 78
     2
 67
     7
 79
     5
170
     0
171
     0
290
     0
174
     0
 93
        1
 44
0.0
173
     0
291
     1
 45
0.0
1001
ACAD
1000
AcDbSavedByObjectVersion
1070
     0
  0
VISUALSTYLE
  5
F2
102
{ACAD_REACTORS
330
EF
102
}
330
EF
100
AcDbVisualStyle
  2
Gouraud
 70
     2
 71
     2
 72
     2
 73
     1
 90
        2
 40
-0.6
 41
30.0
 62
     5
 63
     7
 74
     0
 91
        4
 64
     7
 65
   257
 75
     1
175
     1
 42
1.0
 92
        0
 66
     7
 43
1.0
 76
     1
 77
     6
 78
     2
 67
     7
 79
     5
170
     0
171
     0
290
     0
174
     0
 93
        1
 44
0.0
173
     0
291
     1
 45
0.0
1001
ACAD
1000
AcDbSavedByObjectVersion
1070
     0
  0
VISUALSTYLE
  5
F3
102
{ACAD_REACTORS
330
EF
102
}
330
EF
100
AcDbVisualStyle
  2
GouraudWithEdges
 70
     3
 71
     2
 72
     2
 73
     1
 90
        2
 40
-0.6
 41
30.0
 62
     5
 63
     7
 74
     1
 91
        4
 64
     7
 65
   257
 75
     1
175
     1
 42
1.0
 92
        0
 66
   257
 43
1.0
 76
     1
 77
     6
 78
     2
 67
     7
 79
     5
170
     0
171
     0
290
     0
174
     0
 93
        1
 44
0.0
173
     0
291
     1
 45
0.0
1001
ACAD
1000
AcDbSavedByObjectVersion
1070
     0
  0
VISUALSTYLE
  5
FD
102
{ACAD_REACTORS
330
EF
102
}
330
EF
100
AcDbVisualStyle
  2
Linepattern
 70
    14
 71
     2
 72
     2
 73
     1
 90
        0
 40
-0.6
 41
-30.0
 62
     5
 63
     7
 74
     1
 91
        4
 64
     7
 65
   257
 75
     7
175
     7
 42
1.0
 92
        8
 66
     7
 43
1.0
 76
     1
 77
     6
 78
     2
 67
     7
 79
     5
170
     0
171
     0
290
     0
174
     0
 93
        1
 44
0.0
173
     0
291
     1
 45
0.0
1001
ACAD
1000
AcDbSavedByObjectVersion
1070
     0
  0
VISUALSTYLE
  5
F9
102
{ACAD_REACTORS
330
EF
102
}
330
EF
100
AcDbVisualStyle
  2
Realistic
 70
     8
 71
     2
 72
     2
 73
     1
 90
        0
 40
-0.6
 41
-30.0
 62
     5
 63
     7
 74
     1
 91
        0
 64
     7
 65
   257
 75
     1
175
     1
 42
1.0
 92
        8
 66
     8
 43
1.0
 76
     1
 77
     6
 78
     2
 67
     7
 79
     5
170
     0
171
     0
290
     0
174
     0
 93
       13
 44
0.0
173
     0
291
     0
 45
0.0
1001
ACAD
1000
AcDbSavedByObjectVersion
1070
     0
  0
VISUALSTYLE
  5
FC
102
{ACAD_REACTORS
330
EF
102
}
330
EF
100
AcDbVisualStyle
  2
Thicken
 70
    13
 71
     2
 72
     2
 73
     1
 90
        0
 40
-0.6
 41
-30.0
 62
     5
 63
     7
 74
     1
 91
        4
 64
     7
 65
   257
 75
     1
175
     1
 42
1.0
 92
       12
 66
     7
 43
1.0
 76
     1
 77
     6
 78
     2
 67
     7
 79
     5
170
     0
171
     0
290
     0
174
     0
 93
        1
 44
0.0
173
     0
291
     1
 45
0.0
1001
ACAD
1000
AcDbSavedByObjectVersion
1070
     0
  0
DICTIONARYVAR
  5
146
102
{ACAD_REACTORS
330
5E
102
}
330
5E
100
DictionaryVariables
280
     0
  1
1:1
  0
DICTIONARYVAR
  5
145
102
{ACAD_REACTORS
330
5E
102
}
330
5E
100
DictionaryVariables
280
     0
  1
STANDARD
  0
DICTIONARYVAR
  5
84
102
{ACAD_REACTORS
330
5E
102
}
330
5E
100
DictionaryVariables
280
     0
  1
STANDARD
  0
DICTIONARYVAR
  5
5F
102
{ACAD_REACTORS
330
5E
102
}
330
5E
100
DictionaryVariables
280
     0
  1
2
  0
DICTIONARYVAR
  5
63
102
{ACAD_REACTORS
330
5E
102
}
330
5E
100
DictionaryVariables
280
     0
  1
1
  0
DICTIONARYVAR
  5
695
102
{ACAD_REACTORS
330
5E
102
}
330
5E
100
DictionaryVariables
280
     0
  1
0
  0
DICTIONARYVAR
  5
693
102
{ACAD_REACTORS
330
5E
102
}
330
5E
100
DictionaryVariables
280
     0
  1
2
  0
DICTIONARYVAR
  5
692
102
{ACAD_REACTORS
330
5E
102
}
330
5E
100
DictionaryVariables
280
     0
  1
1
  0
DICTIONARYVAR
  5
697
102
{ACAD_REACTORS
330
5E
102
}
330
5E
100
DictionaryVariables
280
     0
  1
80.000000
  0
DICTIONARYVAR
  5
696
102
{ACAD_REACTORS
330
5E
102
}
330
5E
100
DictionaryVariables
280
     0
  1
5.000000
  0
DICTIONARYVAR
  5
694
102
{ACAD_REACTORS
330
5E
102
}
330
5E
100
DictionaryVariables
280
     0
  1
127
  0
DICTIONARY
  5
69D
330
D3
100
AcDbDictionary
280
     1
281
     1
  3
ACAD_XREC_ROUNDTRIP
360
69E
  0
DICTIONARY
  5
69F
330
D7
100
AcDbDictionary
280
     1
281
     1
  3
ACAD_XREC_ROUNDTRIP
360
6A0
  0
DICTIONARY
  5
69A
330
22
100
AcDbDictionary
280
     1
281
     1
  3
ACAD_XREC_ROUNDTRIP
360
69B
  0
DICTIONARY
  5
6A3
330
ED
100
AcDbDictionary
280
     1
281
     1
  3
ACAD_XREC_ROUNDTRIP
360
6A4
  0
DICTIONARY
  5
6A1
330
EC
100
AcDbDictionary
280
     1
281
     1
  3
ACAD_XREC_ROUNDTRIP
360
6A2
  0
DICTIONARY
  5
173
330
EE
100
AcDbDictionary
280
     1
281
     1
  3
ACAD_XREC_ROUNDTRIP
360
6A5
  3
BUMPTILE
360
175
  3
DIFFUSETILE
360
174
  3
OPACITYTILE
360
176
  3
REFLECTIONTILE
360
177
  0
DICTIONARY
  5
162
330
7F
100
AcDbDictionary
280
     1
281
     1
  3
ACAD_ROUNDTRIP_2008_TABLESTYLE_CELLSTYLEMAP
360
698
  3
ACAD_XREC_ROUNDTRIP
360
69C
  0
XRECORD
  5
69E
102
{ACAD_REACTORS
330
69D
102
}
330
69D
100
AcDbXrecord
280
     1
102
SHADEPLOT
 70
     0
102
SHADEPLOTRESLEVEL
 70
     2
102
SHADEPLOTCUSTOMDPI
 70
   300
  0
XRECORD
  5
6A0
102
{ACAD_REACTORS
330
69F
102
}
330
69F
100
AcDbXrecord
280
     1
102
SHADEPLOT
 70
     0
102
SHADEPLOTRESLEVEL
 70
     2
102
SHADEPLOTCUSTOMDPI
 70
   300
  0
XRECORD
  5
69B
102
{ACAD_REACTORS
330
69A
102
}
330
69A
100
AcDbXrecord
280
     1
102
SHADEPLOT
 70
     0
102
SHADEPLOTRESLEVEL
 70
     2
102
SHADEPLOTCUSTOMDPI
 70
   300
  0
XRECORD
  5
6A4
102
{ACAD_REACTORS
330
6A3
102
}
330
6A3
100
AcDbXrecord
280
     1
102
MATERIAL
148
0.0
149
0.0
149
0.0
 93
        0
 94
       63
282
     0
 72
     1
 77
     1
171
     1
175
     1
179
     1
273
     0
  0
XRECORD
  5
6A2
102
{ACAD_REACTORS
330
6A1
102
}
330
6A1
100
AcDbXrecord
280
     1
102
MATERIAL
148
0.0
149
0.0
149
0.0
 93
        0
 94
       63
282
     0
 72
     1
 77
     1
171
     1
175
     1
179
     1
273
     0
  0
XRECORD
  5
6A5
102
{ACAD_REACTORS
330
173
102
}
330
173
100
AcDbXrecord
280
     1
102
MATERIAL
148
0.0
149
0.0
149
0.0
 93
        0
 94
       63
282
     0
 72
     1
 77
     1
171
     1
175
     1
179
     1
273
     0
  0
XRECORD
  5
175
102
{ACAD_REACTORS
330
173
102
}
330
173
100
AcDbXrecord
280
     1
270
     1
271
     1
  0
XRECORD
  5
174
102
{ACAD_REACTORS
330
173
102
}
330
173
100
AcDbXrecord
280
     1
270
     1
271
     1
  0
XRECORD
  5
176
102
{ACAD_REACTORS
330
173
102
}
330
173
100
AcDbXrecord
280
     1
270
     1
271
     1
  0
XRECORD
  5
177
102
{ACAD_REACTORS
330
173
102
}
330
173
100
AcDbXrecord
280
     1
270
     1
271
     1
  0
CELLSTYLEMAP
  5
698
102
{ACAD_REACTORS
330
162
102
}
330
162
100
AcDbCellStyleMap
 90
        3
300
CELLSTYLE
  1
TABLEFORMAT_BEGIN
 90
        5
170
     1
 91
        0
 92
    32768
 62
   257
 93
        1
300
CONTENTFORMAT
  1
CONTENTFORMAT_BEGIN
 90
        0
 91
        0
 92
      512
 93
        0
300

 40
0.0
140
1.0
 94
        5
 62
     0
340
11
144
6.0
309
CONTENTFORMAT_END
171
     1
301
MARGIN
  1
CELLMARGIN_BEGIN
 40
1.5
 40
1.5
 40
1.5
 40
1.5
 40
4.5
 40
4.5
309
CELLMARGIN_END
 94
        6
 95
        1
302
GRIDFORMAT
  1
GRIDFORMAT_BEGIN
 90
        0
 91
        1
 62
     0
 92
       -2
340
14
 93
        0
 40
1.125
309
GRIDFORMAT_END
 95
        2
302
GRIDFORMAT
  1
GRIDFORMAT_BEGIN
 90
        0
 91
        1
 62
     0
 92
       -2
340
14
 93
        0
 40
1.125
309
GRIDFORMAT_END
 95
        4
302
GRIDFORMAT
  1
GRIDFORMAT_BEGIN
 90
        0
 91
        1
 62
     0
 92
       -2
340
14
 93
        0
 40
1.125
309
GRIDFORMAT_END
 95
        8
302
GRIDFORMAT
  1
GRIDFORMAT_BEGIN
 90
        0
 91
        1
 62
     0
 92
       -2
340
14
 93
        0
 40
1.125
309
GRIDFORMAT_END
 95
       16
302
GRIDFORMAT
  1
GRIDFORMAT_BEGIN
 90
        0
 91
        1
 62
     0
 92
       -2
340
14
 93
        0
 40
1.125
309
GRIDFORMAT_END
 95
       32
302
GRIDFORMAT
  1
GRIDFORMAT_BEGIN
 90
        0
 91
        1
 62
     0
 92
       -2
340
14
 93
        0
 40
1.125
309
GRIDFORMAT_END
309
TABLEFORMAT_END
  1
CELLSTYLE_BEGIN
 90
        1
 91
        1
300
_TITLE
309
CELLSTYLE_END
300
CELLSTYLE
  1
TABLEFORMAT_BEGIN
 90
        5
170
     1
 91
        0
 92
        0
 62
   257
 93
        1
300
CONTENTFORMAT
  1
CONTENTFORMAT_BEGIN
 90
        0
 91
        0
 92
      512
 93
        0
300

 40
0.0
140
1.0
 94
        5
 62
     0
340
11
144
4.5
309
CONTENTFORMAT_END
171
     1
301
MARGIN
  1
CELLMARGIN_BEGIN
 40
1.5
 40
1.5
 40
1.5
 40
1.5
 40
4.5
 40
4.5
309
CELLMARGIN_END
 94
        6
 95
        1
302
GRIDFORMAT
  1
GRIDFORMAT_BEGIN
 90
        0
 91
        1
 62
     0
 92
       -2
340
14
 93
        0
 40
1.125
309
GRIDFORMAT_END
 95
        2
302
GRIDFORMAT
  1
GRIDFORMAT_BEGIN
 90
        0
 91
        1
 62
     0
 92
       -2
340
14
 93
        0
 40
1.125
309
GRIDFORMAT_END
 95
        4
302
GRIDFORMAT
  1
GRIDFORMAT_BEGIN
 90
        0
 91
        1
 62
     0
 92
       -2
340
14
 93
        0
 40
1.125
309
GRIDFORMAT_END
 95
        8
302
GRIDFORMAT
  1
GRIDFORMAT_BEGIN
 90
        0
 91
        1
 62
     0
 92
       -2
340
14
 93
        0
 40
1.125
309
GRIDFORMAT_END
 95
       16
302
GRIDFORMAT
  1
GRIDFORMAT_BEGIN
 90
        0
 91
        1
 62
     0
 92
       -2
340
14
 93
        0
 40
1.125
309
GRIDFORMAT_END
 95
       32
302
GRIDFORMAT
  1
GRIDFORMAT_BEGIN
 90
        0
 91
        1
 62
     0
 92
       -2
340
14
 93
        0
 40
1.125
309
GRIDFORMAT_END
309
TABLEFORMAT_END
  1
CELLSTYLE_BEGIN
 90
        2
 91
        1
300
_HEADER
309
CELLSTYLE_END
300
CELLSTYLE
  1
TABLEFORMAT_BEGIN
 90
        5
170
     1
 91
        0
 92
        0
 62
   257
 93
        1
300
CONTENTFORMAT
  1
CONTENTFORMAT_BEGIN
 90
        0
 91
        0
 92
      512
 93
        0
300

 40
0.0
140
1.0
 94
        2
 62
     0
340
11
144
4.5
309
CONTENTFORMAT_END
171
     1
301
MARGIN
  1
CELLMARGIN_BEGIN
 40
1.5
 40
1.5
 40
1.5
 40
1.5
 40
4.5
 40
4.5
309
CELLMARGIN_END
 94
        6
 95
        1
302
GRIDFORMAT
  1
GRIDFORMAT_BEGIN
 90
        0
 91
        1
 62
     0
 92
       -2
340
14
 93
        0
 40
1.125
309
GRIDFORMAT_END
 95
        2
302
GRIDFORMAT
  1
GRIDFORMAT_BEGIN
 90
        0
 91
        1
 62
     0
 92
       -2
340
14
 93
        0
 40
1.125
309
GRIDFORMAT_END
 95
        4
302
GRIDFORMAT
  1
GRIDFORMAT_BEGIN
 90
        0
 91
        1
 62
     0
 92
       -2
340
14
 93
        0
 40
1.125
309
GRIDFORMAT_END
 95
        8
302
GRIDFORMAT
  1
GRIDFORMAT_BEGIN
 90
        0
 91
        1
 62
     0
 92
       -2
340
14
 93
        0
 40
1.125
309
GRIDFORMAT_END
 95
       16
302
GRIDFORMAT
  1
GRIDFORMAT_BEGIN
 90
        0
 91
        1
 62
     0
 92
       -2
340
14
 93
        0
 40
1.125
309
GRIDFORMAT_END
 95
       32
302
GRIDFORMAT
  1
GRIDFORMAT_BEGIN
 90
        0
 91
        1
 62
     0
 92
       -2
340
14
 93
        0
 40
1.125
309
GRIDFORMAT_END
309
TABLEFORMAT_END
  1
CELLSTYLE_BEGIN
 90
        3
 91
        2
300
_DATA
309
CELLSTYLE_END
  0
XRECORD
  5
69C
102
{ACAD_REACTORS
330
162
102
}
330
162
100
AcDbXrecord
280
     1
102
ACAD_ROUNDTRIP_PRE2007_TABLESTYLE
 90
      512
 91
        0
  1

 92
      512
 93
        0
  2

 94
      512
 95
        0
  3

  0
ENDSEC
  0
EOF
