  0
SECTION
  2
HEADER
  9
$ACADVER
  1
AC1015
  9
$ACADMAINTVER
 70
    20
  9
$DWGCODEPAGE
  3
ANSI_1254
  9
$INSBASE
 10
0.0
 20
0.0
 30
0.0
  9
$EXTMIN
 10
1890.558486754424
 20
1180.205578728673
 30
0.0
  9
$EXTMAX
 10
2038.948255607751
 20
1228.400846837704
 30
0.0
  9
$LIMMIN
 10
0.0
 20
0.0
  9
$LIMMAX
 10
420.0
 20
297.0
  9
$ORTHOMODE
 70
     0
  9
$REGENMODE
 70
     1
  9
$FILLMODE
 70
     1
  9
$QTEXTMODE
 70
     0
  9
$MIRRTEXT
 70
     0
  9
$LTSCALE
 40
1.0
  9
$ATTMODE
 70
     1
  9
$TEXTSIZE
 40
2.5
  9
$TRACEWID
 40
1.0
  9
$TEXTSTYLE
  7
Standard
  9
$CLAYER
  8
0
  9
$CELTYPE
  6
ByLayer
  9
$CECOLOR
 62
   256
  9
$CELTSCALE
 40
1.0
  9
$DISPSILH
 70
     0
  9
$DIMSCALE
 40
1.0
  9
$DIMASZ
 40
2.5
  9
$DIMEXO
 40
0.625
  9
$DIMDLI
 40
3.75
  9
$DIMRND
 40
0.0
  9
$DIMDLE
 40
0.0
  9
$DIMEXE
 40
1.25
  9
$DIMTP
 40
0.0
  9
$DIMTM
 40
0.0
  9
$DIMTXT
 40
2.5
  9
$DIMCEN
 40
2.5
  9
$DIMTSZ
 40
0.0
  9
$DIMTOL
 70
     0
  9
$DIMLIM
 70
     0
  9
$DIMTIH
 70
     0
  9
$DIMTOH
 70
     0
  9
$DIMSE1
 70
     0
  9
$DIMSE2
 70
     0
  9
$DIMTAD
 70
     1
  9
$DIMZIN
 70
     8
  9
$DIMBLK
  1

  9
$DIMASO
 70
     1
  9
$DIMSHO
 70
     1
  9
$DIMPOST
  1

  9
$DIMAPOST
  1

  9
$DIMALT
 70
     0
  9
$DIMALTD
 70
     3
  9
$DIMALTF
 40
0.03937007874016
  9
$DIMLFAC
 40
1.0
  9
$DIMTOFL
 70
     1
  9
$DIMTVP
 40
0.0
  9
$DIMTIX
 70
     0
  9
$DIMSOXD
 70
     0
  9
$DIMSAH
 70
     0
  9
$DIMBLK1
  1

  9
$DIMBLK2
  1

  9
$DIMSTYLE
  2
ISO-25
  9
$DIMCLRD
 70
     0
  9
$DIMCLRE
 70
     0
  9
$DIMCLRT
 70
     0
  9
$DIMTFAC
 40
1.0
  9
$DIMGAP
 40
0.625
  9
$DIMJUST
 70
     0
  9
$DIMSD1
 70
     0
  9
$DIMSD2
 70
     0
  9
$DIMTOLJ
 70
     0
  9
$DIMTZIN
 70
     8
  9
$DIMALTZ
 70
     0
  9
$DIMALTTZ
 70
     0
  9
$DIMUPT
 70
     0
  9
$DIMDEC
 70
     2
  9
$DIMTDEC
 70
     2
  9
$DIMALTU
 70
     2
  9
$DIMALTTD
 70
     3
  9
$DIMTXSTY
  7
Standard
  9
$DIMAUNIT
 70
     0
  9
$DIMADEC
 70
     0
  9
$DIMALTRND
 40
0.0
  9
$DIMAZIN
 70
     0
  9
$DIMDSEP
 70
    44
  9
$DIMATFIT
 70
     3
  9
$DIMFRAC
 70
     0
  9
$DIMLDRBLK
  1

  9
$DIMLUNIT
 70
     2
  9
$DIMLWD
 70
    -2
  9
$DIMLWE
 70
    -2
  9
$DIMTMOVE
 70
     0
  9
$LUNITS
 70
     2
  9
$LUPREC
 70
     4
  9
$SKETCHINC
 40
1.0
  9
$FILLETRAD
 40
0.0
  9
$AUNITS
 70
     0
  9
$AUPREC
 70
     0
  9
$MENU
  1
.
  9
$ELEVATION
 40
0.0
  9
$PELEVATION
 40
0.0
  9
$THICKNESS
 40
0.0
  9
$LIMCHECK
 70
     0
  9
$CHAMFERA
 40
0.0
  9
$CHAMFERB
 40
0.0
  9
$CHAMFERC
 40
0.0
  9
$CHAMFERD
 40
0.0
  9
$SKPOLY
 70
     0
  9
$TDCREATE
 40
2458935.537528715
  9
$TDUCREATE
 40
2458935.412528715
  9
$TDUPDATE
 40
2458956.462453032
  9
$TDUUPDATE
 40
2458956.337453033
  9
$TDINDWG
 40
0.0002928009
  9
$TDUSRTIMER
 40
0.0002928009
  9
$USRTIMER
 70
     1
  9
$ANGBASE
 50
0.0
  9
$ANGDIR
 70
     0
  9
$PDMODE
 70
     0
  9
$PDSIZE
 40
0.0
  9
$PLINEWID
 40
0.0
  9
$SPLFRAME
 70
     0
  9
$SPLINETYPE
 70
     6
  9
$SPLINESEGS
 70
     8
  9
$HANDSEED
  5
5C5
  9
$SURFTAB1
 70
     6
  9
$SURFTAB2
 70
     6
  9
$SURFTYPE
 70
     6
  9
$SURFU
 70
     6
  9
$SURFV
 70
     6
  9
$UCSBASE
  2

  9
$UCSNAME
  2

  9
$UCSORG
 10
0.0
 20
0.0
 30
0.0
  9
$UCSXDIR
 10
1.0
 20
0.0
 30
0.0
  9
$UCSYDIR
 10
0.0
 20
1.0
 30
0.0
  9
$UCSORTHOREF
  2

  9
$UCSORTHOVIEW
 70
     0
  9
$UCSORGTOP
 10
0.0
 20
0.0
 30
0.0
  9
$UCSORGBOTTOM
 10
0.0
 20
0.0
 30
0.0
  9
$UCSORGLEFT
 10
0.0
 20
0.0
 30
0.0
  9
$UCSORGRIGHT
 10
0.0
 20
0.0
 30
0.0
  9
$UCSORGFRONT
 10
0.0
 20
0.0
 30
0.0
  9
$UCSORGBACK
 10
0.0
 20
0.0
 30
0.0
  9
$PUCSBASE
  2

  9
$PUCSNAME
  2

  9
$PUCSORG
 10
0.0
 20
0.0
 30
0.0
  9
$PUCSXDIR
 10
1.0
 20
0.0
 30
0.0
  9
$PUCSYDIR
 10
0.0
 20
1.0
 30
0.0
  9
$PUCSORTHOREF
  2

  9
$PUCSORTHOVIEW
 70
     0
  9
$PUCSORGTOP
 10
0.0
 20
0.0
 30
0.0
  9
$PUCSORGBOTTOM
 10
0.0
 20
0.0
 30
0.0
  9
$PUCSORGLEFT
 10
0.0
 20
0.0
 30
0.0
  9
$PUCSORGRIGHT
 10
0.0
 20
0.0
 30
0.0
  9
$PUCSORGFRONT
 10
0.0
 20
0.0
 30
0.0
  9
$PUCSORGBACK
 10
0.0
 20
0.0
 30
0.0
  9
$USERI1
 70
     0
  9
$USERI2
 70
     0
  9
$USERI3
 70
     0
  9
$USERI4
 70
     0
  9
$USERI5
 70
     0
  9
$USERR1
 40
0.0
  9
$USERR2
 40
0.0
  9
$USERR3
 40
0.0
  9
$USERR4
 40
0.0
  9
$USERR5
 40
0.0
  9
$WORLDVIEW
 70
     1
  9
$SHADEDGE
 70
     3
  9
$SHADEDIF
 70
    70
  9
$TILEMODE
 70
     1
  9
$MAXACTVP
 70
    64
  9
$PINSBASE
 10
0.0
 20
0.0
 30
0.0
  9
$PLIMCHECK
 70
     0
  9
$PEXTMIN
 10
0.0
 20
0.0
 30
0.0
  9
$PEXTMAX
 10
0.0
 20
0.0
 30
0.0
  9
$PLIMMIN
 10
0.0
 20
0.0
  9
$PLIMMAX
 10
12.0
 20
9.0
  9
$UNITMODE
 70
     0
  9
$VISRETAIN
 70
     1
  9
$PLINEGEN
 70
     0
  9
$PSLTSCALE
 70
     1
  9
$TREEDEPTH
 70
  3020
  9
$CMLSTYLE
  2
Standard
  9
$CMLJUST
 70
     0
  9
$CMLSCALE
 40
20.0
  9
$PROXYGRAPHICS
 70
     1
  9
$MEASUREMENT
 70
     1
  9
$CELWEIGHT
370
    -1
  9
$ENDCAPS
280
     0
  9
$JOINSTYLE
280
     0
  9
$LWDISPLAY
290
     0
  9
$INSUNITS
 70
     4
  9
$HYPERLINKBASE
  1

  9
$STYLESHEET
  1

  9
$XEDIT
290
     1
  9
$CEPSNTYPE
380
     0
  9
$PSTYLEMODE
290
     1
  9
$FINGERPRINTGUID
  2
{A7066354-6EE8-48D4-99F1-D44F4AAE4DCD}
  9
$VERSIONGUID
  2
{F2902641-9743-442E-B194-B6CB4FEE9147}
  9
$EXTNAMES
290
     1
  9
$PSVPSCALE
 40
0.0
  9
$OLESTARTUP
290
     0
  0
ENDSEC
  0
SECTION
  2
CLASSES
  0
CLASS
  1
ACDBDICTIONARYWDFLT
  2
AcDbDictionaryWithDefault
  3
ObjectDBX Classes
 90
        0
280
     0
281
     0
  0
CLASS
  1
ACDBPLACEHOLDER
  2
AcDbPlaceHolder
  3
ObjectDBX Classes
 90
        0
280
     0
281
     0
  0
CLASS
  1
LAYOUT
  2
AcDbLayout
  3
ObjectDBX Classes
 90
        0
280
     0
281
     0
  0
CLASS
  1
DICTIONARYVAR
  2
AcDbDictionaryVar
  3
ObjectDBX Classes
 90
        0
280
     0
281
     0
  0
CLASS
  1
TABLESTYLE
  2
AcDbTableStyle
  3
ObjectDBX Classes
 90
     4095
280
     0
281
     0
  0
CLASS
  1
MATERIAL
  2
AcDbMaterial
  3
ObjectDBX Classes
 90
     1153
280
     0
281
     0
  0
CLASS
  1
VISUALSTYLE
  2
AcDbVisualStyle
  3
ObjectDBX Classes
 90
     4095
280
     0
281
     0
  0
CLASS
  1
SCALE
  2
AcDbScale
  3
ObjectDBX Classes
 90
     1153
280
     0
281
     0
  0
CLASS
  1
MLEADERSTYLE
  2
AcDbMLeaderStyle
  3
ACDB_MLEADERSTYLE_CLASS
 90
     4095
280
     0
281
     0
  0
CLASS
  1
CELLSTYLEMAP
  2
AcDbCellStyleMap
  3
ObjectDBX Classes
 90
     1152
280
     0
281
     0
  0
ENDSEC
  0
SECTION
  2
TABLES
  0
TABLE
  2
VPORT
  5
8
330
0
100
AcDbSymbolTable
 70
     1
  0
VPORT
  5
EA
330
8
100
AcDbSymbolTableRecord
100
AcDbViewportTableRecord
  2
*Active
 70
     0
 10
0.0
 20
0.0
 11
1.0
 21
1.0
 12
1985.307197456204
 22
1211.074011440124
 13
0.0
 23
0.0
 14
10.0
 24
10.0
 15
10.0
 25
10.0
 16
0.0
 26
0.0
 36
1.0
 17
0.0
 27
0.0
 37
0.0
 40
110.0656430554177
 41
1.903110047846889
 42
50.0
 43
0.0
 44
0.0
 50
0.0
 51
0.0
 71
     0
 72
  1000
 73
     1
 74
     3
 75
     0
 76
     0
 77
     0
 78
     0
281
     0
 65
     1
110
0.0
120
0.0
130
0.0
111
1.0
121
0.0
131
0.0
112
0.0
122
1.0
132
0.0
 79
     0
146
0.0
  0
ENDTAB
  0
TABLE
  2
LTYPE
  5
5
330
0
100
AcDbSymbolTable
 70
     1
  0
LTYPE
  5
14
330
5
100
AcDbSymbolTableRecord
100
AcDbLinetypeTableRecord
  2
ByBlock
 70
     0
  3

 72
    65
 73
     0
 40
0.0
  0
LTYPE
  5
15
330
5
100
AcDbSymbolTableRecord
100
AcDbLinetypeTableRecord
  2
ByLayer
 70
     0
  3

 72
    65
 73
     0
 40
0.0
  0
LTYPE
  5
16
330
5
100
AcDbSymbolTableRecord
100
AcDbLinetypeTableRecord
  2
Continuous
 70
     0
  3
Solid line
 72
    65
 73
     0
 40
0.0
  0
ENDTAB
  0
TABLE
  2
LAYER
  5
2
330
0
100
AcDbSymbolTable
 70
     1
  0
LAYER
  5
10
102
{ACAD_XDICTIONARY
360
13C
102
}
330
2
100
AcDbSymbolTableRecord
100
AcDbLayerTableRecord
  2
0
 70
     0
 62
     7
  6
Continuous
370
    -3
390
F
  0
ENDTAB
  0
TABLE
  2
STYLE
  5
3
330
0
100
AcDbSymbolTable
 70
     2
  0
STYLE
  5
11
330
3
100
AcDbSymbolTableRecord
100
AcDbTextStyleTableRecord
  2
Standard
 70
     0
 40
0.0
 41
1.0
 50
0.0
 71
     0
 42
2.5
  3
txt
  4

  0
STYLE
  5
132
330
3
100
AcDbSymbolTableRecord
100
AcDbTextStyleTableRecord
  2
Annotative
 70
     0
 40
0.0
 41
1.0
 50
0.0
 71
     0
 42
2.5
  3
txt.shx
  4

1001
AcadAnnotative
1000
AnnotativeData
1002
{
1070
     1
1070
     1
1002
}
  0
ENDTAB
  0
TABLE
  2
VIEW
  5
6
330
0
100
AcDbSymbolTable
 70
     0
  0
ENDTAB
  0
TABLE
  2
UCS
  5
7
330
0
100
AcDbSymbolTable
 70
     0
  0
ENDTAB
  0
TABLE
  2
APPID
  5
9
330
0
100
AcDbSymbolTable
 70
     7
  0
APPID
  5
12
330
9
100
AcDbSymbolTableRecord
100
AcDbRegAppTableRecord
  2
ACAD
 70
     0
  0
APPID
  5
9E
330
9
100
AcDbSymbolTableRecord
100
AcDbRegAppTableRecord
  2
ACAD_PSEXT
 70
     0
  0
APPID
  5
133
330
9
100
AcDbSymbolTableRecord
100
AcDbRegAppTableRecord
  2
AcadAnnoPO
 70
     0
  0
APPID
  5
134
330
9
100
AcDbSymbolTableRecord
100
AcDbRegAppTableRecord
  2
AcadAnnotative
 70
     0
  0
APPID
  5
135
330
9
100
AcDbSymbolTableRecord
100
AcDbRegAppTableRecord
  2
ACAD_DSTYLE_DIMJAG
 70
     0
  0
APPID
  5
136
330
9
100
AcDbSymbolTableRecord
100
AcDbRegAppTableRecord
  2
ACAD_DSTYLE_DIMTALN
 70
     0
  0
APPID
  5
165
330
9
100
AcDbSymbolTableRecord
100
AcDbRegAppTableRecord
  2
ACAD_MLEADERVER
 70
     0
  0
ENDTAB
  0
TABLE
  2
DIMSTYLE
  5
A
330
0
100
AcDbSymbolTable
 70
     2
100
AcDbDimStyleTable
 71
     2
340
27
340
137
  0
DIMSTYLE
105
27
330
A
100
AcDbSymbolTableRecord
100
AcDbDimStyleTableRecord
  2
ISO-25
 70
     0
 41
2.5
 42
0.625
 43
3.75
 44
1.25
 73
     0
 74
     0
 77
     1
 78
     8
140
2.5
141
2.5
143
0.03937007874016
147
0.625
171
     3
172
     1
271
     2
272
     2
274
     3
278
    44
283
     0
284
     8
340
11
  0
DIMSTYLE
105
137
330
A
100
AcDbSymbolTableRecord
100
AcDbDimStyleTableRecord
  2
Annotative
 70
     0
 40
0.0
 41
2.5
 42
0.625
 43
3.75
 44
1.25
 73
     0
 74
     0
 77
     1
 78
     8
140
2.5
141
2.5
143
0.03937007874016
147
0.625
171
     3
172
     1
271
     2
272
     2
274
     3
278
    44
283
     0
284
     8
340
11
1001
AcadAnnotative
1000
AnnotativeData
1002
{
1070
     1
1070
     1
1002
}
1001
ACAD_DSTYLE_DIMJAG
1070
   388
1040
1.5
1001
ACAD_DSTYLE_DIMTALN
1070
   392
1070
     0
  0
ENDTAB
  0
TABLE
  2
BLOCK_RECORD
  5
1
330
0
100
AcDbSymbolTable
 70
     5
  0
BLOCK_RECORD
  5
1F
330
1
100
AcDbSymbolTableRecord
100
AcDbBlockTableRecord
  2
*Model_Space
340
22
  0
BLOCK_RECORD
  5
D2
330
1
100
AcDbSymbolTableRecord
100
AcDbBlockTableRecord
  2
*Paper_Space
340
D3
  0
BLOCK_RECORD
  5
D6
330
1
100
AcDbSymbolTableRecord
100
AcDbBlockTableRecord
  2
*Paper_Space0
340
D7
  0
BLOCK_RECORD
  5
44D
330
1
100
AcDbSymbolTableRecord
100
AcDbBlockTableRecord
  2
1
340
0
310
2800000020000000200000000100080000000000000400000000000000000000000000000000000000000000000080000080000000808000800000008000800080800000C0C0C000C0DCC000F0CAA6000020400000206000002080000020A0000020C0000020E00000400000004020000040400000406000004080000040A0
310
000040C0000040E00000600000006020000060400000606000006080000060A0000060C0000060E00000800000008020000080400000806000008080000080A0000080C0000080E00000A0000000A0200000A0400000A0600000A0800000A0A00000A0C00000A0E00000C0000000C0200000C0400000C0600000C0800000C0
310
A00000C0C00000C0E00000E0000000E0200000E0400000E0600000E0800000E0A00000E0C00000E0E00040000000400020004000400040006000400080004000A0004000C0004000E00040200000402020004020400040206000402080004020A0004020C0004020E000404000004040200040404000404060004040800040
310
40A0004040C0004040E00040600000406020004060400040606000406080004060A0004060C0004060E00040800000408020004080400040806000408080004080A0004080C0004080E00040A0000040A0200040A0400040A0600040A0800040A0A00040A0C00040A0E00040C0000040C0200040C0400040C0600040C08000
310
40C0A00040C0C00040C0E00040E0000040E0200040E0400040E0600040E0800040E0A00040E0C00040E0E00080000000800020008000400080006000800080008000A0008000C0008000E00080200000802020008020400080206000802080008020A0008020C0008020E00080400000804020008040400080406000804080
310
008040A0008040C0008040E00080600000806020008060400080606000806080008060A0008060C0008060E00080800000808020008080400080806000808080008080A0008080C0008080E00080A0000080A0200080A0400080A0600080A0800080A0A00080A0C00080A0E00080C0000080C0200080C0400080C0600080C0
310
800080C0A00080C0C00080C0E00080E0000080E0200080E0400080E0600080E0800080E0A00080E0C00080E0E000C0000000C0002000C0004000C0006000C0008000C000A000C000C000C000E000C0200000C0202000C0204000C0206000C0208000C020A000C020C000C020E000C0400000C0402000C0404000C0406000C0
310
408000C040A000C040C000C040E000C0600000C0602000C0604000C0606000C0608000C060A000C060C000C060E000C0800000C0802000C0804000C0806000C0808000C080A000C080C000C080E000C0A00000C0A02000C0A04000C0A06000C0A08000C0A0A000C0A0C000C0A0E000C0C00000C0C02000C0C04000C0C06000
310
C0C08000C0C0A000F0FBFF00A4A0A000808080000000FF0000FF000000FFFF00FF000000FF00FF00FFFF0000FFFFFF0000000000000000000000000000000000000000000000000000000000000000000000000000000000000000000000000000000000000000000000000000000000000000000000000000000000000000
310
00000000000000000000000000000000000000000000000000000000000000000000000000000000000000000000000000000000000000000000000000000000000000000000000000000000000000000000000000000000000000000000000000000000000000000000000000000000000000000000000000000000000000
310
000000000000000000000000000000000000000000000000000000000000000000000000000000000000000000000000000000000000000000000000000000000000000000000000000000000000000000000000000000000000000000000000000000000000000000000000000000000000000000FFFFFFFF000000FFFFFF
310
FF00000000FFFFFFFF000000FFFFFFFF000000000000FF0000FF000000FF0000FF00000000FF0000FF000000FF0000FF000000000000FF0000FF000000FF0000FF00000000FF0000FF000000FF0000FF000000000000FF0000FF000000FF0000FF00000000FF0000FF000000FF0000FF000000000000FF0000FF000000FF00
310
00FF00000000FF0000FF000000FF0000FF000000000000FF0000FF000000FF0000FF00000000FF0000FF000000FF0000FF00000000FFFFFFFFFFFFFFFFFFFFFFFFFFFFFFFFFFFFFFFFFFFFFFFFFFFFFFFFFFFF0000FF00FF0000FF000000FF000000FF0000FF000000FF000000FF0000FF00FF0000FFFFFFFFFFFFFFFFFFFF
310
FFFFFFFFFFFFFFFFFFFFFFFFFFFFFFFFFFFFFFFF00000000FF0000FF000000FF0000FF00000000FF0000FF000000FF0000FF000000000000FF0000FF000000FF0000FF00000000FF0000FF000000FF0000FF000000000000FFFFFFFF000000FFFFFFFF00000000FFFFFFFF000000FFFFFFFF00000000000000000000000000
310
00000000000000000000000000000000000000000000000000000000000000000000000000000000000000000000000000000000000000000000000000000000000000000000000000000000000000000000000000000000000000000000000000000000000000000000000000000000000000000000000000000000000000
310
00000000000000000000000000000000000000000000000000000000000000000000000000000000000000000000000000000000000000000000000000000000000000000000000000000000000000000000000000000000000000000000000000000000000000000000000000000000000000000000000000000000000000
310
0000000000000000000000000000000000000000000000000000000000000000000000000000000000000000000000000000000000000000
102
{BLKREFS
331
4B4
102
}
1001
ACAD
1000
DesignCenter Data
1002
{
1070
     1
1070
     4
1002
}
  0
BLOCK_RECORD
  5
4B5
330
1
100
AcDbSymbolTableRecord
100
AcDbBlockTableRecord
  2
2
340
0
310
2800000020000000200000000100080000000000000400000000000000000000000000000000000000000000000080000080000000808000800000008000800080800000C0C0C000C0DCC000F0CAA6000020400000206000002080000020A0000020C0000020E00000400000004020000040400000406000004080000040A0
310
000040C0000040E00000600000006020000060400000606000006080000060A0000060C0000060E00000800000008020000080400000806000008080000080A0000080C0000080E00000A0000000A0200000A0400000A0600000A0800000A0A00000A0C00000A0E00000C0000000C0200000C0400000C0600000C0800000C0
310
A00000C0C00000C0E00000E0000000E0200000E0400000E0600000E0800000E0A00000E0C00000E0E00040000000400020004000400040006000400080004000A0004000C0004000E00040200000402020004020400040206000402080004020A0004020C0004020E000404000004040200040404000404060004040800040
310
40A0004040C0004040E00040600000406020004060400040606000406080004060A0004060C0004060E00040800000408020004080400040806000408080004080A0004080C0004080E00040A0000040A0200040A0400040A0600040A0800040A0A00040A0C00040A0E00040C0000040C0200040C0400040C0600040C08000
310
40C0A00040C0C00040C0E00040E0000040E0200040E0400040E0600040E0800040E0A00040E0C00040E0E00080000000800020008000400080006000800080008000A0008000C0008000E00080200000802020008020400080206000802080008020A0008020C0008020E00080400000804020008040400080406000804080
310
008040A0008040C0008040E00080600000806020008060400080606000806080008060A0008060C0008060E00080800000808020008080400080806000808080008080A0008080C0008080E00080A0000080A0200080A0400080A0600080A0800080A0A00080A0C00080A0E00080C0000080C0200080C0400080C0600080C0
310
800080C0A00080C0C00080C0E00080E0000080E0200080E0400080E0600080E0800080E0A00080E0C00080E0E000C0000000C0002000C0004000C0006000C0008000C000A000C000C000C000E000C0200000C0202000C0204000C0206000C0208000C020A000C020C000C020E000C0400000C0402000C0404000C0406000C0
310
408000C040A000C040C000C040E000C0600000C0602000C0604000C0606000C0608000C060A000C060C000C060E000C0800000C0802000C0804000C0806000C0808000C080A000C080C000C080E000C0A00000C0A02000C0A04000C0A06000C0A08000C0A0A000C0A0C000C0A0E000C0C00000C0C02000C0C04000C0C06000
310
C0C08000C0C0A000F0FBFF00A4A0A000808080000000FF0000FF000000FFFF00FF000000FF00FF00FFFF0000FFFFFF000000000000000000000000000000000000000000000000000000000000000000000000000000000000000000FFFFFFFFFFFFFFFF000000000000000000000000000000000000000000000000FFFFFF
310
FFFFFFFFFF000000000000000000000000000000000000000000000000FF000000000000FF000000000000000000000000000000000000000000000000FF000000000000FF000000000000000000000000000000000000000000000000FF000000000000FF000000000000000000000000000000000000000000000000FF00
310
0000000000FF000000000000000000000000000000000000000000000000FF000000000000FF000000000000000000000000000000000000000000000000FF000000000000FF000000000000000000000000000000000000000000000000FF000000000000FF000000000000000000000000000000000000000000000000FF
310
000000000000FF000000000000000000000000000000000000000000000000FF000000000000FF000000000000000000000000000000000000000000000000FF000000000000FF000000000000000000000000000000000000000000000000FF000000000000FF000000000000000000000000000000000000000000000000
310
FF000000000000FF000000000000000000000000000000000000000000000000FF000000000000FF0000000000000000000000000000000000000000000000FFFFFFFFFFFFFFFFFFFF00000000000000000000000000000000000000000000FF0000000000000000FF00000000000000000000000000000000000000000000
310
FF0000000000000000FF00000000000000000000000000000000000000000000FF0000000000000000FF00000000000000000000000000000000000000000000FF0000000000000000FF00000000000000000000000000000000000000000000FFFFFFFFFFFFFFFFFFFF000000000000000000000000000000000000000000
310
00FFFFFFFFFFFFFFFFFFFF00000000000000000000000000000000000000000000FFA4A4A4A4A4A4A4A4FF00000000000000000000000000000000000000000000FF0000000000000000FF00000000000000000000000000000000000000000000FF0000000000000000FF0000000000000000000000000000000000000000
310
0000FF0000000000000000FF00000000000000000000000000000000000000000000FF0000000000000000FF00000000000000000000000000000000000000000000FF0000000000000000FF00000000000000000000000000000000000000000000FF0000000000000000FF00000000000000000000000000000000000000
310
000000FFFFFFFFFFFFFFFFFFFF00000000000000000000000000000000000000000000000000000000000000000000000000000000000000
102
{BLKREFS
331
4D8
102
}
1001
ACAD
1000
DesignCenter Data
1002
{
1070
     1
1070
     4
1002
}
  0
BLOCK_RECORD
  5
4D9
330
1
100
AcDbSymbolTableRecord
100
AcDbBlockTableRecord
  2
3
340
0
310
2800000020000000200000000100080000000000000400000000000000000000000000000000000000000000000080000080000000808000800000008000800080800000C0C0C000C0DCC000F0CAA6000020400000206000002080000020A0000020C0000020E00000400000004020000040400000406000004080000040A0
310
000040C0000040E00000600000006020000060400000606000006080000060A0000060C0000060E00000800000008020000080400000806000008080000080A0000080C0000080E00000A0000000A0200000A0400000A0600000A0800000A0A00000A0C00000A0E00000C0000000C0200000C0400000C0600000C0800000C0
310
A00000C0C00000C0E00000E0000000E0200000E0400000E0600000E0800000E0A00000E0C00000E0E00040000000400020004000400040006000400080004000A0004000C0004000E00040200000402020004020400040206000402080004020A0004020C0004020E000404000004040200040404000404060004040800040
310
40A0004040C0004040E00040600000406020004060400040606000406080004060A0004060C0004060E00040800000408020004080400040806000408080004080A0004080C0004080E00040A0000040A0200040A0400040A0600040A0800040A0A00040A0C00040A0E00040C0000040C0200040C0400040C0600040C08000
310
40C0A00040C0C00040C0E00040E0000040E0200040E0400040E0600040E0800040E0A00040E0C00040E0E00080000000800020008000400080006000800080008000A0008000C0008000E00080200000802020008020400080206000802080008020A0008020C0008020E00080400000804020008040400080406000804080
310
008040A0008040C0008040E00080600000806020008060400080606000806080008060A0008060C0008060E00080800000808020008080400080806000808080008080A0008080C0008080E00080A0000080A0200080A0400080A0600080A0800080A0A00080A0C00080A0E00080C0000080C0200080C0400080C0600080C0
310
800080C0A00080C0C00080C0E00080E0000080E0200080E0400080E0600080E0800080E0A00080E0C00080E0E000C0000000C0002000C0004000C0006000C0008000C000A000C000C000C000E000C0200000C0202000C0204000C0206000C0208000C020A000C020C000C020E000C0400000C0402000C0404000C0406000C0
310
408000C040A000C040C000C040E000C0600000C0602000C0604000C0606000C0608000C060A000C060C000C060E000C0800000C0802000C0804000C0806000C0808000C080A000C080C000C080E000C0A00000C0A02000C0A04000C0A06000C0A08000C0A0A000C0A0C000C0A0E000C0C00000C0C02000C0C04000C0C06000
310
C0C08000C0C0A000F0FBFF00A4A0A000808080000000FF0000FF000000FFFF00FF000000FF00FF00FFFF0000FFFFFF0000000000000000000000000000000000000000000000000000000000000000000000000000000000000000000000000000000000000000000000000000000000000000000000000000000000000000
310
00000000000000000000000000000000000000000000000000000000000000000000000000000000000000000000000000000000000000000000000000000000000000000000000000000000000000000000000000000000000000000000000000000000000000000000000000000000000000000000000000000000000000
310
00000000000000000000000000000000000000000000000000000000000000000000000000000000000000000000000000000000000000000000000000000000000000000000000000000000000000000000000000000000000000000000000000000000000000000000000000000000000000000000000000000000000000
310
0000000000000000000000000000000000000000000000000000000000000000000000000000000000000000000000000000000000000000000000000000000000000000000000000000000000000000000000000000000000000000000000000000000000000000000000000000000000000000FFFFFFFFFFFFFFFFFFFFFF
310
FFFFFFFFFFFFFFFFFFFFFFFFFFFFFFFFFFFFFF0000FF00FFFFFFFF000000FFFFFFFF00000000FFFFFFFF000000FFFFFFFF00FF0000FF00FFFFFFFF000000FFFFFFFF00000000FFFFFFFF000000FFFFFFFF00FF0000FFFFFFFFFFFFFFFFFFFFFFFFFFFFFFFFFFFFFFFFFFFFFFFFFFFFFFFFFFFF000000000000000000000000
310
00000000000000000000000000000000000000000000000000000000000000000000000000000000000000000000000000000000000000000000000000000000000000000000000000000000000000000000000000000000000000000000000000000000000000000000000000000000000000000000000000000000000000
310
00000000000000000000000000000000000000000000000000000000000000000000000000000000000000000000000000000000000000000000000000000000000000000000000000000000000000000000000000000000000000000000000000000000000000000000000000000000000000000000000000000000000000
310
00000000000000000000000000000000000000000000000000000000000000000000000000000000000000000000000000000000000000000000000000000000000000000000000000000000000000000000000000000000000000000000000000000000000000000000000000000000000000000000000000000000000000
310
0000000000000000000000000000000000000000000000000000000000000000000000000000000000000000000000000000000000000000
102
{BLKREFS
331
534
102
}
1001
ACAD
1000
DesignCenter Data
1002
{
1070
     1
1070
     4
1002
}
  0
BLOCK_RECORD
  5
535
330
1
100
AcDbSymbolTableRecord
100
AcDbBlockTableRecord
  2
4
340
0
310
2800000020000000200000000100080000000000000400000000000000000000000000000000000000000000000080000080000000808000800000008000800080800000C0C0C000C0DCC000F0CAA6000020400000206000002080000020A0000020C0000020E00000400000004020000040400000406000004080000040A0
310
000040C0000040E00000600000006020000060400000606000006080000060A0000060C0000060E00000800000008020000080400000806000008080000080A0000080C0000080E00000A0000000A0200000A0400000A0600000A0800000A0A00000A0C00000A0E00000C0000000C0200000C0400000C0600000C0800000C0
310
A00000C0C00000C0E00000E0000000E0200000E0400000E0600000E0800000E0A00000E0C00000E0E00040000000400020004000400040006000400080004000A0004000C0004000E00040200000402020004020400040206000402080004020A0004020C0004020E000404000004040200040404000404060004040800040
310
40A0004040C0004040E00040600000406020004060400040606000406080004060A0004060C0004060E00040800000408020004080400040806000408080004080A0004080C0004080E00040A0000040A0200040A0400040A0600040A0800040A0A00040A0C00040A0E00040C0000040C0200040C0400040C0600040C08000
310
40C0A00040C0C00040C0E00040E0000040E0200040E0400040E0600040E0800040E0A00040E0C00040E0E00080000000800020008000400080006000800080008000A0008000C0008000E00080200000802020008020400080206000802080008020A0008020C0008020E00080400000804020008040400080406000804080
310
008040A0008040C0008040E00080600000806020008060400080606000806080008060A0008060C0008060E00080800000808020008080400080806000808080008080A0008080C0008080E00080A0000080A0200080A0400080A0600080A0800080A0A00080A0C00080A0E00080C0000080C0200080C0400080C0600080C0
310
800080C0A00080C0C00080C0E00080E0000080E0200080E0400080E0600080E0800080E0A00080E0C00080E0E000C0000000C0002000C0004000C0006000C0008000C000A000C000C000C000E000C0200000C0202000C0204000C0206000C0208000C020A000C020C000C020E000C0400000C0402000C0404000C0406000C0
310
408000C040A000C040C000C040E000C0600000C0602000C0604000C0606000C0608000C060A000C060C000C060E000C0800000C0802000C0804000C0806000C0808000C080A000C080C000C080E000C0A00000C0A02000C0A04000C0A06000C0A08000C0A0A000C0A0C000C0A0E000C0C00000C0C02000C0C04000C0C06000
310
C0C08000C0C0A000F0FBFF00A4A0A000808080000000FF0000FF000000FFFF00FF000000FF00FF00FFFF0000FFFFFF0000000000000000000000000000000000000000000000000000000000000000000000000000000000000000000000000000000000000000000000000000000000000000000000000000000000000000
310
0000000000000000000000000000000000000000000000000000000000000000000000000000000000000000000000000000000000000000000000000000000000000000000000000000FFFF0000000000000000000000000000000000000000000000000000000000FFFFFFFF000000000000000000000000000000000000
310
00000000000000000000FF0000FF00000000000000000000000000000000000000000000FFFF00000000FF0000FF000000000000000000000000000000000000000000FFFFFFFFFF0000FF0000FF000000000000000000000000000000000000000000FF000000FF0000FF0000FF0000000000000000000000000000000000
310
00000000FF000000FF0000FFFFFFFFFFFF000000000000000000000000FFFFFFFFFF0000FF000000FF00FFFF00FFFF0000FF0000000000000000000000FF000000FF0000FF000000FFFFFFFFFFFFFFFFFFFF0000000000000000000000FF000000FF0000FFFFFFFF0000FFFFFFFFFFFFFFFF00000000FFFFFFFFFF0000FF00
310
0000FF00FFFF00FF00FFFF00FF000000FF000000000000FF000000FF0000FF000000FFFFFF00FFFFFF000000FFFFFFFFFF000000000000FF000000FF0000FFFFFFFF0000FFFFFFFFFFFFFFFFFFFFFFFFFF000000000000FF000000FF00FFFF00FF00FFFF00FF000000FF0000FFFFFFFFFF00000000000000FF0000FFFFFF00
310
FFFFFF000000FF000000FF0000000000000000000000000000FFFFFF0000FFFFFFFFFFFFFFFFFFFFFFFFFF000000000000000000000000FFFFFF00FFFFFF00FF000000FF0000FFFFFFFFFF0000000000000000000000FFFF0000FFFF000000FF000000FF00000000FF00000000000000000000000000FFFFFFFFFFFFFFFFFF
310
FFFFFFFFFF000000000000000000000000000000000000FF00FFA40000FF0000FFFFFFFFFF00000000000000000000000000000000000000FFFF000000FF000000FFFFFF000000000000000000000000000000000000000000FFFFFFFFFFFF0000000000000000000000000000000000000000000000000000FFFFFFFFFFFF
310
000000000000000000000000000000000000000000000000000000FFFFFFFF000000000000000000000000000000000000000000000000000000000000000000000000000000000000000000000000000000000000000000000000000000000000000000000000000000000000000000000000000000000000000000000000
310
0000000000000000000000000000000000000000000000000000000000000000000000000000000000000000000000000000000000000000
102
{BLKREFS
331
5AA
102
}
1001
ACAD
1000
DesignCenter Data
1002
{
1070
     1
1070
     4
1002
}
  0
ENDTAB
  0
ENDSEC
  0
SECTION
  2
BLOCKS
  0
BLOCK
  5
20
330
1F
100
AcDbEntity
  8
0
100
AcDbBlockBegin
  2
*Model_Space
 70
     0
 10
0.0
 20
0.0
 30
0.0
  3
*Model_Space
  1

  0
ENDBLK
  5
21
330
1F
100
AcDbEntity
  8
0
100
AcDbBlockEnd
  0
BLOCK
  5
D4
330
D2
100
AcDbEntity
 67
     1
  8
0
100
AcDbBlockBegin
  2
*Paper_Space
 70
     0
 10
0.0
 20
0.0
 30
0.0
  3
*Paper_Space
  1

  0
ENDBLK
  5
D5
330
D2
100
AcDbEntity
 67
     1
  8
0
100
AcDbBlockEnd
  0
BLOCK
  5
D8
330
D6
100
AcDbEntity
 67
     1
  8
0
100
AcDbBlockBegin
  2
*Paper_Space0
 70
     0
 10
0.0
 20
0.0
 30
0.0
  3
*Paper_Space0
  1

  0
ENDBLK
  5
D9
330
D6
100
AcDbEntity
 67
     1
  8
0
100
AcDbBlockEnd
  0
BLOCK
  5
44E
330
44D
100
AcDbEntity
  8
0
100
AcDbBlockBegin
  2
1
 70
     0
 10
0.0
 20
0.0
 30
0.0
  3
1
  1

  0
ARC
  5
450
330
44D
100
AcDbEntity
  8
0
  6
Continuous
 62
     7
370
    15
100
AcDbCircle
 10
1917.618430276018
 20
1221.496914276842
 30
0.0
 40
0.200000000000017
100
AcDbArc
 50
180.0
 51
270.0
  0
ARC
  5
451
330
44D
100
AcDbEntity
  8
0
  6
Continuous
 62
     7
370
    15
100
AcDbCircle
 10
1924.068430276019
 20
1221.496914276842
 30
0.0
 40
0.1999999999999886
100
AcDbArc
 50
270.0
 51
0.0
  0
ARC
  5
452
330
44D
100
AcDbEntity
  8
0
  6
Continuous
 62
     7
370
    15
100
AcDbCircle
 10
1932.61843027602
 20
1221.496914276842
 30
0.0
 40
0.200000000000017
100
AcDbArc
 50
180.0
 51
270.0
  0
ARC
  5
453
330
44D
100
AcDbEntity
  8
0
  6
Continuous
 62
     7
370
    15
100
AcDbCircle
 10
1939.06843027602
 20
1221.496914276842
 30
0.0
 40
0.1999999999999886
100
AcDbArc
 50
270.0
 51
0.0
  0
ARC
  5
454
330
44D
100
AcDbEntity
  8
0
  6
Continuous
 62
     7
370
    15
100
AcDbCircle
 10
1947.61843027602
 20
1221.496914276842
 30
0.0
 40
0.200000000000017
100
AcDbArc
 50
180.0
 51
270.0
  0
ARC
  5
455
330
44D
100
AcDbEntity
  8
0
  6
Continuous
 62
     7
370
    15
100
AcDbCircle
 10
1954.06843027602
 20
1221.496914276842
 30
0.0
 40
0.200000000000017
100
AcDbArc
 50
270.0
 51
0.0
  0
ARC
  5
456
330
44D
100
AcDbEntity
  8
0
  6
Continuous
 62
     7
370
    15
100
AcDbCircle
 10
1962.61843027602
 20
1221.496914276842
 30
0.0
 40
0.200000000000017
100
AcDbArc
 50
180.0
 51
270.0
  0
ARC
  5
457
330
44D
100
AcDbEntity
  8
0
  6
Continuous
 62
     7
370
    15
100
AcDbCircle
 10
1969.06843027602
 20
1221.496914276842
 30
0.0
 40
0.1999999999999886
100
AcDbArc
 50
270.0
 51
0.0
  0
LINE
  5
458
330
44D
100
AcDbEntity
  8
0
  6
Continuous
 62
     7
370
    15
100
AcDbLine
 10
1924.268430276018
 20
1221.496914276842
 30
0.0
 11
1924.268430276018
 21
1226.696914276842
 31
0.0
  0
LINE
  5
459
330
44D
100
AcDbEntity
  8
0
  6
Continuous
 62
     7
370
    15
100
AcDbLine
 10
1917.418430276018
 20
1226.696914276842
 30
0.0
 11
1917.418430276018
 21
1221.496914276842
 31
0.0
  0
LINE
  5
45A
330
44D
100
AcDbEntity
  8
0
  6
Continuous
 62
     7
370
    15
100
AcDbLine
 10
1939.26843027602
 20
1221.496914276842
 30
0.0
 11
1939.26843027602
 21
1226.696914276842
 31
0.0
  0
LINE
  5
45B
330
44D
100
AcDbEntity
  8
0
  6
Continuous
 62
     7
370
    15
100
AcDbLine
 10
1932.41843027602
 20
1226.696914276842
 30
0.0
 11
1932.41843027602
 21
1221.496914276842
 31
0.0
  0
LINE
  5
45C
330
44D
100
AcDbEntity
  8
0
  6
Continuous
 62
     7
370
    15
100
AcDbLine
 10
1954.26843027602
 20
1221.496914276842
 30
0.0
 11
1954.26843027602
 21
1226.696914276842
 31
0.0
  0
LINE
  5
45D
330
44D
100
AcDbEntity
  8
0
  6
Continuous
 62
     7
370
    15
100
AcDbLine
 10
1947.41843027602
 20
1226.696914276842
 30
0.0
 11
1947.41843027602
 21
1221.496914276842
 31
0.0
  0
LINE
  5
45E
330
44D
100
AcDbEntity
  8
0
  6
Continuous
 62
     7
370
    15
100
AcDbLine
 10
1969.26843027602
 20
1221.496914276842
 30
0.0
 11
1969.26843027602
 21
1226.696914276842
 31
0.0
  0
LINE
  5
45F
330
44D
100
AcDbEntity
  8
0
  6
Continuous
 62
     7
370
    15
100
AcDbLine
 10
1962.41843027602
 20
1226.696914276842
 30
0.0
 11
1962.41843027602
 21
1221.496914276842
 31
0.0
  0
LINE
  5
460
330
44D
100
AcDbEntity
  8
0
  6
Continuous
 62
     7
370
    15
100
AcDbLine
 10
1923.841752669478
 20
1216.396914276878
 30
0.0
 11
1923.74175266944
 21
1216.49691427686
 31
0.0
  0
LINE
  5
461
330
44D
100
AcDbEntity
  8
0
  6
Continuous
 62
     7
370
    15
100
AcDbLine
 10
1917.941752669418
 20
1216.49691427686
 30
0.0
 11
1917.84175266938
 21
1216.396914276878
 31
0.0
  0
LINE
  5
462
330
44D
100
AcDbEntity
  8
0
  6
Continuous
 62
     7
370
    15
100
AcDbLine
 10
1923.841752669429
 20
1205.696914276842
 30
0.0
 11
1923.841752669429
 21
1216.396914276878
 31
0.0
  0
LINE
  5
463
330
44D
100
AcDbEntity
  8
0
  6
Continuous
 62
     7
370
    15
100
AcDbLine
 10
1917.841752669429
 20
1216.396914276878
 30
0.0
 11
1917.841752669429
 21
1205.696914276842
 31
0.0
  0
LINE
  5
464
330
44D
100
AcDbEntity
  8
0
  6
Continuous
 62
     7
370
    15
100
AcDbLine
 10
1938.845107882658
 20
1216.396914276878
 30
0.0
 11
1938.74510788262
 21
1216.49691427686
 31
0.0
  0
LINE
  5
465
330
44D
100
AcDbEntity
  8
0
  6
Continuous
 62
     7
370
    15
100
AcDbLine
 10
1932.945107882598
 20
1216.49691427686
 30
0.0
 11
1932.84510788256
 21
1216.396914276878
 31
0.0
  0
LINE
  5
466
330
44D
100
AcDbEntity
  8
0
  6
Continuous
 62
     7
370
    15
100
AcDbLine
 10
1938.845107882609
 20
1205.696914276842
 30
0.0
 11
1938.845107882609
 21
1216.396914276878
 31
0.0
  0
LINE
  5
467
330
44D
100
AcDbEntity
  8
0
  6
Continuous
 62
     7
370
    15
100
AcDbLine
 10
1932.845107882609
 20
1216.396914276878
 30
0.0
 11
1932.845107882609
 21
1205.696914276842
 31
0.0
  0
LINE
  5
468
330
44D
100
AcDbEntity
  8
0
  6
Continuous
 62
     7
370
    15
100
AcDbLine
 10
1953.845107882658
 20
1216.396914276878
 30
0.0
 11
1953.74510788262
 21
1216.49691427686
 31
0.0
  0
LINE
  5
469
330
44D
100
AcDbEntity
  8
0
  6
Continuous
 62
     7
370
    15
100
AcDbLine
 10
1947.945107882598
 20
1216.49691427686
 30
0.0
 11
1947.84510788256
 21
1216.396914276878
 31
0.0
  0
LINE
  5
46A
330
44D
100
AcDbEntity
  8
0
  6
Continuous
 62
     7
370
    15
100
AcDbLine
 10
1953.845107882609
 20
1205.696914276842
 30
0.0
 11
1953.845107882609
 21
1216.396914276878
 31
0.0
  0
LINE
  5
46B
330
44D
100
AcDbEntity
  8
0
  6
Continuous
 62
     7
370
    15
100
AcDbLine
 10
1947.845107882609
 20
1216.396914276878
 30
0.0
 11
1947.845107882609
 21
1205.696914276842
 31
0.0
  0
LINE
  5
46C
330
44D
100
AcDbEntity
  8
0
  6
Continuous
 62
     7
370
    15
100
AcDbLine
 10
1968.845107882658
 20
1216.396914276878
 30
0.0
 11
1968.74510788262
 21
1216.49691427686
 31
0.0
  0
LINE
  5
46D
330
44D
100
AcDbEntity
  8
0
  6
Continuous
 62
     7
370
    15
100
AcDbLine
 10
1962.945107882598
 20
1216.49691427686
 30
0.0
 11
1962.84510788256
 21
1216.396914276878
 31
0.0
  0
LINE
  5
46E
330
44D
100
AcDbEntity
  8
0
  6
Continuous
 62
     7
370
    15
100
AcDbLine
 10
1968.845107882609
 20
1205.696914276842
 30
0.0
 11
1968.845107882609
 21
1216.396914276878
 31
0.0
  0
LINE
  5
46F
330
44D
100
AcDbEntity
  8
0
  6
Continuous
 62
     7
370
    15
100
AcDbLine
 10
1962.845107882609
 20
1216.396914276878
 30
0.0
 11
1962.845107882609
 21
1205.696914276842
 31
0.0
  0
LINE
  5
470
330
44D
100
AcDbEntity
  8
0
  6
Continuous
 62
     7
370
    15
100
AcDbLine
 10
1917.841752669443
 20
1205.696914276842
 30
0.0
 11
1918.0417526694
 21
1205.496914276886
 31
0.0
  0
LINE
  5
471
330
44D
100
AcDbEntity
  8
0
  6
Continuous
 62
     7
370
    15
100
AcDbLine
 10
1923.641752669459
 20
1205.496914276886
 30
0.0
 11
1923.841752669415
 21
1205.696914276842
 31
0.0
  0
LINE
  5
472
330
44D
100
AcDbEntity
  8
0
  6
Continuous
 62
     7
370
    15
100
AcDbLine
 10
1923.843430276018
 20
1220.396914276842
 30
0.0
 11
1923.843430276018
 21
1221.296914276842
 31
0.0
  0
LINE
  5
473
330
44D
100
AcDbEntity
  8
0
  6
Continuous
 62
     7
370
    15
100
AcDbLine
 10
1917.843430276018
 20
1221.296914276842
 30
0.0
 11
1917.843430276018
 21
1220.396914276842
 31
0.0
  0
LINE
  5
474
330
44D
100
AcDbEntity
  8
0
  6
Continuous
 62
     7
370
    15
100
AcDbLine
 10
1938.84343027602
 20
1220.396914276842
 30
0.0
 11
1938.84343027602
 21
1221.296914276842
 31
0.0
  0
LINE
  5
475
330
44D
100
AcDbEntity
  8
0
  6
Continuous
 62
     7
370
    15
100
AcDbLine
 10
1932.84343027602
 20
1221.296914276842
 30
0.0
 11
1932.84343027602
 21
1220.396914276842
 31
0.0
  0
LINE
  5
476
330
44D
100
AcDbEntity
  8
0
  6
Continuous
 62
     7
370
    15
100
AcDbLine
 10
1932.845107882623
 20
1205.696914276842
 30
0.0
 11
1933.045107882579
 21
1205.496914276886
 31
0.0
  0
LINE
  5
477
330
44D
100
AcDbEntity
  8
0
  6
Continuous
 62
     7
370
    15
100
AcDbLine
 10
1938.645107882639
 20
1205.496914276886
 30
0.0
 11
1938.845107882595
 21
1205.696914276842
 31
0.0
  0
LINE
  5
478
330
44D
100
AcDbEntity
  8
0
  6
Continuous
 62
     7
370
    15
100
AcDbLine
 10
1953.84343027602
 20
1220.396914276842
 30
0.0
 11
1953.84343027602
 21
1221.296914276842
 31
0.0
  0
LINE
  5
479
330
44D
100
AcDbEntity
  8
0
  6
Continuous
 62
     7
370
    15
100
AcDbLine
 10
1947.84343027602
 20
1221.296914276842
 30
0.0
 11
1947.84343027602
 21
1220.396914276842
 31
0.0
  0
LINE
  5
47A
330
44D
100
AcDbEntity
  8
0
  6
Continuous
 62
     7
370
    15
100
AcDbLine
 10
1947.845107882623
 20
1205.696914276842
 30
0.0
 11
1948.045107882579
 21
1205.496914276886
 31
0.0
  0
LINE
  5
47B
330
44D
100
AcDbEntity
  8
0
  6
Continuous
 62
     7
370
    15
100
AcDbLine
 10
1953.645107882639
 20
1205.496914276886
 30
0.0
 11
1953.845107882595
 21
1205.696914276842
 31
0.0
  0
LINE
  5
47C
330
44D
100
AcDbEntity
  8
0
  6
Continuous
 62
     7
370
    15
100
AcDbLine
 10
1968.84343027602
 20
1220.396914276842
 30
0.0
 11
1968.84343027602
 21
1221.296914276842
 31
0.0
  0
LINE
  5
47D
330
44D
100
AcDbEntity
  8
0
  6
Continuous
 62
     7
370
    15
100
AcDbLine
 10
1962.84343027602
 20
1221.296914276842
 30
0.0
 11
1962.84343027602
 21
1220.396914276842
 31
0.0
  0
LINE
  5
47E
330
44D
100
AcDbEntity
  8
0
  6
Continuous
 62
     7
370
    15
100
AcDbLine
 10
1962.845107882623
 20
1205.696914276842
 30
0.0
 11
1963.045107882579
 21
1205.496914276886
 31
0.0
  0
LINE
  5
47F
330
44D
100
AcDbEntity
  8
0
  6
Continuous
 62
     7
370
    15
100
AcDbLine
 10
1968.645107882639
 20
1205.496914276886
 30
0.0
 11
1968.845107882595
 21
1205.696914276842
 31
0.0
  0
LINE
  5
480
330
44D
100
AcDbEntity
  8
0
  6
Continuous
 62
     7
370
    15
100
AcDbLine
 10
1917.343430276017
 20
1220.396914276842
 30
0.0
 11
1924.34343027602
 21
1220.396914276842
 31
0.0
  0
LINE
  5
481
330
44D
100
AcDbEntity
  8
0
  6
Continuous
 62
     7
370
    15
100
AcDbLine
 10
1924.34343027602
 20
1216.496914276842
 30
0.0
 11
1924.34343027602
 21
1220.396914276842
 31
0.0
  0
LINE
  5
482
330
44D
100
AcDbEntity
  8
0
  6
Continuous
 62
     7
370
    15
100
AcDbLine
 10
1917.343430276017
 20
1220.396914276842
 30
0.0
 11
1917.343430276018
 21
1216.496914276842
 31
0.0
  0
LINE
  5
483
330
44D
100
AcDbEntity
  8
0
  6
Continuous
 62
     7
370
    15
100
AcDbLine
 10
1917.343430276018
 20
1216.496914276842
 30
0.0
 11
1924.34343027602
 21
1216.496914276842
 31
0.0
  0
LINE
  5
484
330
44D
100
AcDbEntity
  8
0
  6
Continuous
 62
     7
370
    15
100
AcDbLine
 10
1932.343430276018
 20
1216.496914276842
 30
0.0
 11
1932.343430276018
 21
1220.396914276842
 31
0.0
  0
LINE
  5
485
330
44D
100
AcDbEntity
  8
0
  6
Continuous
 62
     7
370
    15
100
AcDbLine
 10
1939.34343027602
 20
1220.396914276842
 30
0.0
 11
1939.343430276021
 21
1216.496914276842
 31
0.0
  0
LINE
  5
486
330
44D
100
AcDbEntity
  8
0
  6
Continuous
 62
     7
370
    15
100
AcDbLine
 10
1939.34343027602
 20
1220.396914276842
 30
0.0
 11
1932.343430276018
 21
1220.396914276842
 31
0.0
  0
LINE
  5
487
330
44D
100
AcDbEntity
  8
0
  6
Continuous
 62
     7
370
    15
100
AcDbLine
 10
1939.343430276021
 20
1216.496914276842
 30
0.0
 11
1932.343430276018
 21
1216.496914276842
 31
0.0
  0
LINE
  5
488
330
44D
100
AcDbEntity
  8
0
  6
Continuous
 62
     7
370
    15
100
AcDbLine
 10
1947.343430276018
 20
1216.496914276842
 30
0.0
 11
1947.343430276018
 21
1220.396914276842
 31
0.0
  0
LINE
  5
489
330
44D
100
AcDbEntity
  8
0
  6
Continuous
 62
     7
370
    15
100
AcDbLine
 10
1954.343430276022
 20
1220.396914276842
 30
0.0
 11
1954.34343027602
 21
1216.496914276842
 31
0.0
  0
LINE
  5
48A
330
44D
100
AcDbEntity
  8
0
  6
Continuous
 62
     7
370
    15
100
AcDbLine
 10
1954.343430276022
 20
1220.396914276842
 30
0.0
 11
1947.343430276018
 21
1220.396914276842
 31
0.0
  0
LINE
  5
48B
330
44D
100
AcDbEntity
  8
0
  6
Continuous
 62
     7
370
    15
100
AcDbLine
 10
1954.34343027602
 20
1216.496914276842
 30
0.0
 11
1947.343430276018
 21
1216.496914276842
 31
0.0
  0
LINE
  5
48C
330
44D
100
AcDbEntity
  8
0
  6
Continuous
 62
     7
370
    15
100
AcDbLine
 10
1962.343430276018
 20
1216.496914276842
 30
0.0
 11
1962.343430276018
 21
1220.396914276842
 31
0.0
  0
LINE
  5
48D
330
44D
100
AcDbEntity
  8
0
  6
Continuous
 62
     7
370
    15
100
AcDbLine
 10
1969.343430276022
 20
1220.396914276842
 30
0.0
 11
1969.34343027602
 21
1216.496914276842
 31
0.0
  0
LINE
  5
48E
330
44D
100
AcDbEntity
  8
0
  6
Continuous
 62
     7
370
    15
100
AcDbLine
 10
1969.343430276022
 20
1220.396914276842
 30
0.0
 11
1962.343430276018
 21
1220.396914276842
 31
0.0
  0
LINE
  5
48F
330
44D
100
AcDbEntity
  8
0
  6
Continuous
 62
     7
370
    15
100
AcDbLine
 10
1969.34343027602
 20
1216.496914276842
 30
0.0
 11
1962.343430276018
 21
1216.496914276842
 31
0.0
  0
SPLINE
  5
490
330
44D
100
AcDbEntity
  8
0
  6
Continuous
 62
     7
370
    15
100
AcDbSpline
210
0.0
220
0.0
230
1.0
 70
    24
 71
     3
 72
    10
 73
     6
 74
     0
 42
0.0000000001
 43
0.0000000001
 40
0.0
 40
0.0
 40
0.0
 40
0.0
 40
0.5
 40
0.5
 40
1.0
 40
1.0
 40
1.0
 40
1.0
 10
1917.618430276018
 20
1221.296914276842
 30
0.0
 10
1917.618430276018
 20
1221.296914276842
 30
0.0
 10
1919.063504369016
 20
1221.296914276842
 30
0.0
 10
1922.62335618302
 20
1221.296914276842
 30
0.0
 10
1924.068430276019
 20
1221.296914276842
 30
0.0
 10
1924.068430276019
 20
1221.296914276842
 30
0.0
  0
SPLINE
  5
491
330
44D
100
AcDbEntity
  8
0
  6
Continuous
 62
     7
370
    15
100
AcDbSpline
210
0.0
220
0.0
230
1.0
 70
    24
 71
     3
 72
    30
 73
    26
 74
     0
 42
0.0000000001
 43
0.0000000001
 40
0.0
 40
0.0
 40
0.0
 40
0.0
 40
0.0172934937130203
 40
0.0344596655377185
 40
0.0515480950579254
 40
0.068609039634892
 40
0.0856929991960945
 40
0.1028502704464566
 40
0.1201305099490629
 40
0.1850828601801404
 40
0.2500881522292469
 40
0.3150405262905461
 40
0.3800458421887532
 40
0.4400038891296366
 40
0.5000143502049812
 40
0.55997241137046
 40
0.6199828837922907
 40
0.6849352340234343
 40
0.7499405260724737
 40
0.8148929001337954
 40
0.8798982160319786
 40
0.910029097664276
 40
0.9399097371916235
 40
0.9698101950927375
 40
1.0
 40
1.0
 40
1.0
 40
1.0
 10
1939.06843027602
 20
1221.296914276842
 30
0.0
 10
1939.067531210997
 20
1221.296914276842
 30
0.0
 10
1939.065739700242
 20
1221.296914276842
 30
0.0
 10
1939.051338252703
 20
1221.296914276842
 30
0.0
 10
1939.02833336329
 20
1221.296914276842
 30
0.0
 10
1938.995901318719
 20
1221.296914276842
 30
0.0
 10
1938.954266420789
 20
1221.296914276842
 30
0.0
 10
1938.903355609014
 20
1221.296914276842
 30
0.0
 10
1938.788224326117
 20
1221.296914276842
 30
0.0
 10
1938.558904363324
 20
1221.296914276842
 30
0.0
 10
1938.139408059123
 20
1221.296914276842
 30
0.0
 10
1937.627193477011
 20
1221.296914276842
 30
0.0
 10
1937.053760766574
 20
1221.296914276842
 30
0.0
 10
1936.451569321538
 20
1221.296914276842
 30
0.0
 10
1935.843606673104
 20
1221.296914276842
 30
0.0
 10
1935.235470835923
 20
1221.296914276842
 30
0.0
 10
1934.633429613178
 20
1221.296914276842
 30
0.0
 10
1934.059821114633
 20
1221.296914276842
 30
0.0
 10
1933.547718401223
 20
1221.296914276842
 30
0.0
 10
1933.128002984525
 20
1221.296914276842
 30
0.0
 10
1932.878831086668
 20
1221.296914276842
 30
0.0
 10
1932.741419077881
 20
1221.296914276842
 30
0.0
 10
1932.670708115561
 20
1221.296914276842
 30
0.0
 10
1932.626553165211
 20
1221.296914276842
 30
0.0
 10
1932.621146583685
 20
1221.296914276842
 30
0.0
 10
1932.61843027602
 20
1221.296914276842
 30
0.0
  0
SPLINE
  5
492
330
44D
100
AcDbEntity
  8
0
  6
Continuous
 62
     7
370
    15
100
AcDbSpline
210
0.0
220
0.0
230
1.0
 70
    24
 71
     3
 72
    30
 73
    26
 74
     0
 42
0.0000000001
 43
0.0000000001
 40
0.0
 40
0.0
 40
0.0
 40
0.0
 40
0.0172934937130203
 40
0.0344596655377185
 40
0.0515480950579254
 40
0.0686090396348921
 40
0.0856929991960945
 40
0.1028502704464567
 40
0.120130509949063
 40
0.1850828601801405
 40
0.250088152229247
 40
0.3150405262905462
 40
0.3800458421887532
 40
0.4400038891296367
 40
0.5000143502049813
 40
0.55997241137046
 40
0.6199828837922908
 40
0.6849352340234343
 40
0.7499405260724737
 40
0.8148929001337954
 40
0.8798982160319788
 40
0.910029097664276
 40
0.9399097371916235
 40
0.9698101950927375
 40
1.0
 40
1.0
 40
1.0
 40
1.0
 10
1954.06843027602
 20
1221.296914276842
 30
0.0
 10
1954.067531210997
 20
1221.296914276842
 30
0.0
 10
1954.065739700243
 20
1221.296914276842
 30
0.0
 10
1954.051338252703
 20
1221.296914276842
 30
0.0
 10
1954.02833336329
 20
1221.296914276842
 30
0.0
 10
1953.995901318719
 20
1221.296914276842
 30
0.0
 10
1953.954266420789
 20
1221.296914276842
 30
0.0
 10
1953.903355609014
 20
1221.296914276842
 30
0.0
 10
1953.788224326116
 20
1221.296914276842
 30
0.0
 10
1953.558904363324
 20
1221.296914276842
 30
0.0
 10
1953.139408059122
 20
1221.296914276842
 30
0.0
 10
1952.627193477011
 20
1221.296914276842
 30
0.0
 10
1952.053760766574
 20
1221.296914276842
 30
0.0
 10
1951.451569321538
 20
1221.296914276842
 30
0.0
 10
1950.843606673104
 20
1221.296914276842
 30
0.0
 10
1950.235470835923
 20
1221.296914276842
 30
0.0
 10
1949.633429613178
 20
1221.296914276842
 30
0.0
 10
1949.059821114633
 20
1221.296914276842
 30
0.0
 10
1948.547718401224
 20
1221.296914276842
 30
0.0
 10
1948.128002984525
 20
1221.296914276842
 30
0.0
 10
1947.878831086669
 20
1221.296914276842
 30
0.0
 10
1947.741419077882
 20
1221.296914276842
 30
0.0
 10
1947.670708115561
 20
1221.296914276842
 30
0.0
 10
1947.626553165211
 20
1221.296914276842
 30
0.0
 10
1947.621146583685
 20
1221.296914276842
 30
0.0
 10
1947.61843027602
 20
1221.296914276842
 30
0.0
  0
SPLINE
  5
493
330
44D
100
AcDbEntity
  8
0
  6
Continuous
 62
     7
370
    15
100
AcDbSpline
210
0.0
220
0.0
230
1.0
 70
    24
 71
     3
 72
    30
 73
    26
 74
     0
 42
0.0000000001
 43
0.0000000001
 40
0.0
 40
0.0
 40
0.0
 40
0.0
 40
0.0172934937130203
 40
0.0344596655377185
 40
0.0515480950579254
 40
0.0686090396348921
 40
0.0856929991960945
 40
0.1028502704464567
 40
0.120130509949063
 40
0.1850828601801405
 40
0.2500881522292471
 40
0.3150405262905462
 40
0.3800458421887533
 40
0.4400038891296368
 40
0.5000143502049815
 40
0.5599724113704601
 40
0.619982883792291
 40
0.6849352340234346
 40
0.7499405260724741
 40
0.8148929001337954
 40
0.8798982160319791
 40
0.9100290976642764
 40
0.9399097371916237
 40
0.9698101950927377
 40
1.0
 40
1.0
 40
1.0
 40
1.0
 10
1969.06843027602
 20
1221.296914276842
 30
0.0
 10
1969.067531210997
 20
1221.296914276842
 30
0.0
 10
1969.065739700242
 20
1221.296914276842
 30
0.0
 10
1969.051338252703
 20
1221.296914276842
 30
0.0
 10
1969.02833336329
 20
1221.296914276842
 30
0.0
 10
1968.995901318719
 20
1221.296914276842
 30
0.0
 10
1968.954266420789
 20
1221.296914276842
 30
0.0
 10
1968.903355609014
 20
1221.296914276842
 30
0.0
 10
1968.788224326116
 20
1221.296914276842
 30
0.0
 10
1968.558904363324
 20
1221.296914276842
 30
0.0
 10
1968.139408059122
 20
1221.296914276842
 30
0.0
 10
1967.627193477011
 20
1221.296914276842
 30
0.0
 10
1967.053760766574
 20
1221.296914276842
 30
0.0
 10
1966.451569321538
 20
1221.296914276842
 30
0.0
 10
1965.843606673104
 20
1221.296914276842
 30
0.0
 10
1965.235470835924
 20
1221.296914276842
 30
0.0
 10
1964.633429613178
 20
1221.296914276842
 30
0.0
 10
1964.059821114633
 20
1221.296914276842
 30
0.0
 10
1963.547718401224
 20
1221.296914276842
 30
0.0
 10
1963.128002984525
 20
1221.296914276842
 30
0.0
 10
1962.878831086668
 20
1221.296914276842
 30
0.0
 10
1962.741419077882
 20
1221.296914276842
 30
0.0
 10
1962.670708115561
 20
1221.296914276842
 30
0.0
 10
1962.626553165211
 20
1221.296914276842
 30
0.0
 10
1962.621146583686
 20
1221.296914276842
 30
0.0
 10
1962.61843027602
 20
1221.296914276842
 30
0.0
  0
LINE
  5
494
330
44D
100
AcDbEntity
  8
0
  6
Continuous
 62
     7
370
    15
100
AcDbLine
 10
1924.268430276018
 20
1226.696914276842
 30
0.0
 11
1917.418430276018
 21
1226.696914276842
 31
0.0
  0
LINE
  5
495
330
44D
100
AcDbEntity
  8
0
  6
Continuous
 62
     7
370
    15
100
AcDbLine
 10
1932.41843027602
 20
1226.696914276842
 30
0.0
 11
1939.26843027602
 21
1226.696914276842
 31
0.0
  0
LINE
  5
496
330
44D
100
AcDbEntity
  8
0
  6
Continuous
 62
     7
370
    15
100
AcDbLine
 10
1947.41843027602
 20
1226.696914276842
 30
0.0
 11
1954.26843027602
 21
1226.696914276842
 31
0.0
  0
LINE
  5
497
330
44D
100
AcDbEntity
  8
0
  6
Continuous
 62
     7
370
    15
100
AcDbLine
 10
1962.41843027602
 20
1226.696914276842
 30
0.0
 11
1969.26843027602
 21
1226.696914276842
 31
0.0
  0
LINE
  5
498
330
44D
100
AcDbEntity
  8
0
  6
Continuous
 62
     7
370
    15
100
AcDbLine
 10
1915.143430276019
 20
1220.396914276842
 30
0.0
 11
1915.143430276019
 21
1216.496914276842
 31
0.0
  0
LINE
  5
499
330
44D
100
AcDbEntity
  8
0
  6
Continuous
 62
     7
370
    15
100
AcDbLine
 10
1915.143430276019
 20
1220.396914276842
 30
0.0
 11
1917.343430276017
 21
1220.396914276842
 31
0.0
  0
LINE
  5
49A
330
44D
100
AcDbEntity
  8
0
  6
Continuous
 62
     7
370
    15
100
AcDbLine
 10
1917.343430276018
 20
1216.496914276842
 30
0.0
 11
1915.143430276019
 21
1216.496914276842
 31
0.0
  0
LINE
  5
49B
330
44D
100
AcDbEntity
  8
0
  6
Continuous
 62
     7
370
    15
100
AcDbLine
 10
1939.34343027602
 20
1220.396914276842
 30
0.0
 11
1947.343430276018
 21
1220.396914276842
 31
0.0
  0
LINE
  5
49C
330
44D
100
AcDbEntity
  8
0
  6
Continuous
 62
     7
370
    15
100
AcDbLine
 10
1947.343430276018
 20
1216.496914276842
 30
0.0
 11
1939.343430276021
 21
1216.496914276842
 31
0.0
  0
LINE
  5
49D
330
44D
100
AcDbEntity
  8
0
  6
Continuous
 62
     7
370
    15
100
AcDbLine
 10
1962.343430276018
 20
1220.396914276842
 30
0.0
 11
1954.343430276022
 21
1220.396914276842
 31
0.0
  0
LINE
  5
49E
330
44D
100
AcDbEntity
  8
0
  6
Continuous
 62
     7
370
    15
100
AcDbLine
 10
1954.34343027602
 20
1216.496914276842
 30
0.0
 11
1962.343430276018
 21
1216.496914276842
 31
0.0
  0
LINE
  5
49F
330
44D
100
AcDbEntity
  8
0
  6
Continuous
 62
     7
370
    15
100
AcDbLine
 10
1971.54343027602
 20
1220.396914276842
 30
0.0
 11
1971.54343027602
 21
1216.496914276842
 31
0.0
  0
LINE
  5
4A0
330
44D
100
AcDbEntity
  8
0
  6
Continuous
 62
     7
370
    15
100
AcDbLine
 10
1971.54343027602
 20
1220.396914276842
 30
0.0
 11
1969.343430276022
 21
1220.396914276842
 31
0.0
  0
LINE
  5
4A1
330
44D
100
AcDbEntity
  8
0
  6
Continuous
 62
     7
370
    15
100
AcDbLine
 10
1969.34343027602
 20
1216.496914276842
 30
0.0
 11
1971.54343027602
 21
1216.496914276842
 31
0.0
  0
LINE
  5
4A2
330
44D
100
AcDbEntity
  8
0
  6
Continuous
 62
     7
370
    15
100
AcDbLine
 10
1924.34343027602
 20
1220.396914276842
 30
0.0
 11
1932.343430276018
 21
1220.396914276842
 31
0.0
  0
LINE
  5
4A3
330
44D
100
AcDbEntity
  8
0
  6
Continuous
 62
     7
370
    15
100
AcDbLine
 10
1932.343430276018
 20
1216.496914276842
 30
0.0
 11
1924.34343027602
 21
1216.496914276842
 31
0.0
  0
LINE
  5
4A4
330
44D
100
AcDbEntity
  8
0
  6
Continuous
 62
     7
370
    15
100
AcDbLine
 10
1917.84175266938
 20
1216.396914276878
 30
0.0
 11
1923.841752669478
 21
1216.396914276878
 31
0.0
  0
LINE
  5
4A5
330
44D
100
AcDbEntity
  8
0
  6
Continuous
 62
     7
370
    15
100
AcDbLine
 10
1917.841752669429
 20
1205.696914276842
 30
0.0
 11
1923.841752669429
 21
1205.696914276842
 31
0.0
  0
LINE
  5
4A6
330
44D
100
AcDbEntity
  8
0
  6
Continuous
 62
     7
370
    15
100
AcDbLine
 10
1938.845107882658
 20
1216.396914276878
 30
0.0
 11
1932.84510788256
 21
1216.396914276878
 31
0.0
  0
LINE
  5
4A7
330
44D
100
AcDbEntity
  8
0
  6
Continuous
 62
     7
370
    15
100
AcDbLine
 10
1938.845107882609
 20
1205.696914276842
 30
0.0
 11
1932.845107882609
 21
1205.696914276842
 31
0.0
  0
LINE
  5
4A8
330
44D
100
AcDbEntity
  8
0
  6
Continuous
 62
     7
370
    15
100
AcDbLine
 10
1953.845107882658
 20
1216.396914276878
 30
0.0
 11
1947.84510788256
 21
1216.396914276878
 31
0.0
  0
LINE
  5
4A9
330
44D
100
AcDbEntity
  8
0
  6
Continuous
 62
     7
370
    15
100
AcDbLine
 10
1953.845107882609
 20
1205.696914276842
 30
0.0
 11
1947.845107882609
 21
1205.696914276842
 31
0.0
  0
LINE
  5
4AA
330
44D
100
AcDbEntity
  8
0
  6
Continuous
 62
     7
370
    15
100
AcDbLine
 10
1968.845107882658
 20
1216.396914276878
 30
0.0
 11
1962.84510788256
 21
1216.396914276878
 31
0.0
  0
LINE
  5
4AB
330
44D
100
AcDbEntity
  8
0
  6
Continuous
 62
     7
370
    15
100
AcDbLine
 10
1968.845107882609
 20
1205.696914276842
 30
0.0
 11
1962.845107882609
 21
1205.696914276842
 31
0.0
  0
LINE
  5
4AC
330
44D
100
AcDbEntity
  8
0
  6
Continuous
 62
     7
370
    15
100
AcDbLine
 10
1918.0417526694
 20
1205.496914276886
 30
0.0
 11
1923.641752669459
 21
1205.496914276886
 31
0.0
  0
LINE
  5
4AD
330
44D
100
AcDbEntity
  8
0
  6
Continuous
 62
     7
370
    15
100
AcDbLine
 10
1938.645107882639
 20
1205.496914276886
 30
0.0
 11
1933.045107882579
 21
1205.496914276886
 31
0.0
  0
LINE
  5
4AE
330
44D
100
AcDbEntity
  8
0
  6
Continuous
 62
     7
370
    15
100
AcDbLine
 10
1953.645107882639
 20
1205.496914276886
 30
0.0
 11
1948.045107882579
 21
1205.496914276886
 31
0.0
  0
LINE
  5
4AF
330
44D
100
AcDbEntity
  8
0
  6
Continuous
 62
     7
370
    15
100
AcDbLine
 10
1968.645107882639
 20
1205.496914276886
 30
0.0
 11
1963.045107882579
 21
1205.496914276886
 31
0.0
  0
LINE
  5
4B0
330
44D
100
AcDbEntity
  8
0
  6
Continuous
 62
     8
370
    15
100
AcDbLine
 10
1924.268430276018
 20
1221.496914276842
 30
0.0
 11
1917.418430276018
 21
1221.496914276842
 31
0.0
  0
LINE
  5
4B1
330
44D
100
AcDbEntity
  8
0
  6
Continuous
 62
     8
370
    15
100
AcDbLine
 10
1932.41843027602
 20
1221.496914276842
 30
0.0
 11
1939.26843027602
 21
1221.496914276842
 31
0.0
  0
LINE
  5
4B2
330
44D
100
AcDbEntity
  8
0
  6
Continuous
 62
     8
370
    15
100
AcDbLine
 10
1947.41843027602
 20
1221.496914276842
 30
0.0
 11
1954.26843027602
 21
1221.496914276842
 31
0.0
  0
LINE
  5
4B3
330
44D
100
AcDbEntity
  8
0
  6
Continuous
 62
     8
370
    15
100
AcDbLine
 10
1962.41843027602
 20
1221.496914276842
 30
0.0
 11
1969.26843027602
 21
1221.496914276842
 31
0.0
  0
ENDBLK
  5
44F
330
44D
100
AcDbEntity
  8
0
100
AcDbBlockEnd
  0
BLOCK
  5
4B6
330
4B5
100
AcDbEntity
  8
0
100
AcDbBlockBegin
  2
2
 70
     0
 10
0.0
 20
0.0
 30
0.0
  3
2
  1

  0
LINE
  5
4B8
330
4B5
100
AcDbEntity
  8
0
  6
Continuous
 62
     7
370
    15
100
AcDbLine
 10
1890.558486754424
 20
1220.396914276842
 30
0.0
 11
1890.558486754424
 21
1216.496914276842
 31
0.0
  0
LINE
  5
4B9
330
4B5
100
AcDbEntity
  8
0
  6
Continuous
 62
     7
370
    15
100
AcDbLine
 10
1897.958486754425
 20
1216.496914276842
 30
0.0
 11
1897.958486754425
 21
1220.396914276842
 31
0.0
  0
ARC
  5
4BA
330
4B5
100
AcDbEntity
  8
0
  6
Continuous
 62
     7
370
    15
100
AcDbCircle
 10
1891.033486754425
 20
1221.496914276842
 30
0.0
 40
0.200000000000017
100
AcDbArc
 50
180.0
 51
270.0
  0
ARC
  5
4BB
330
4B5
100
AcDbEntity
  8
0
  6
Continuous
 62
     7
370
    15
100
AcDbCircle
 10
1897.483486754424
 20
1221.496914276842
 30
0.0
 40
0.200000000000017
100
AcDbArc
 50
270.0
 51
0.0
  0
LINE
  5
4BC
330
4B5
100
AcDbEntity
  8
0
  6
Continuous
 62
     7
370
    15
100
AcDbLine
 10
1897.683486754425
 20
1221.496914276842
 30
0.0
 11
1897.683486754425
 21
1226.696914276842
 31
0.0
  0
LINE
  5
4BD
330
4B5
100
AcDbEntity
  8
0
  6
Continuous
 62
     7
370
    15
100
AcDbLine
 10
1890.833486754425
 20
1226.696914276842
 30
0.0
 11
1890.833486754425
 21
1221.496914276842
 31
0.0
  0
LINE
  5
4BE
330
4B5
100
AcDbEntity
  8
0
  6
Continuous
 62
     7
370
    15
100
AcDbLine
 10
1897.258486754424
 20
1205.696914276842
 30
0.0
 11
1897.258486754424
 21
1216.396914276878
 31
0.0
  0
LINE
  5
4BF
330
4B5
100
AcDbEntity
  8
0
  6
Continuous
 62
     7
370
    15
100
AcDbLine
 10
1891.258486754425
 20
1216.396914276878
 30
0.0
 11
1891.258486754425
 21
1205.696914276842
 31
0.0
  0
LINE
  5
4C0
330
4B5
100
AcDbEntity
  8
0
  6
Continuous
 62
     7
370
    15
100
AcDbLine
 10
1897.258486754474
 20
1216.396914276878
 30
0.0
 11
1897.158486754436
 21
1216.49691427686
 31
0.0
  0
LINE
  5
4C1
330
4B5
100
AcDbEntity
  8
0
  6
Continuous
 62
     7
370
    15
100
AcDbLine
 10
1891.358486754414
 20
1216.49691427686
 30
0.0
 11
1891.258486754376
 21
1216.396914276878
 31
0.0
  0
LINE
  5
4C2
330
4B5
100
AcDbEntity
  8
0
  6
Continuous
 62
     7
370
    15
100
AcDbLine
 10
1891.258486754439
 20
1205.696914276842
 30
0.0
 11
1891.458486754395
 21
1205.496914276886
 31
0.0
  0
LINE
  5
4C3
330
4B5
100
AcDbEntity
  8
0
  6
Continuous
 62
     7
370
    15
100
AcDbLine
 10
1897.058486754454
 20
1205.496914276886
 30
0.0
 11
1897.258486754411
 21
1205.696914276842
 31
0.0
  0
LINE
  5
4C4
330
4B5
100
AcDbEntity
  8
0
  6
Continuous
 62
     7
370
    15
100
AcDbLine
 10
1897.258486754424
 20
1220.396914276842
 30
0.0
 11
1897.258486754424
 21
1221.296914276842
 31
0.0
  0
LINE
  5
4C5
330
4B5
100
AcDbEntity
  8
0
  6
Continuous
 62
     7
370
    15
100
AcDbLine
 10
1891.258486754425
 20
1221.296914276842
 30
0.0
 11
1891.258486754425
 21
1220.396914276842
 31
0.0
  0
LINE
  5
4C6
330
4B5
100
AcDbEntity
  8
0
  6
Continuous
 62
     7
370
    15
100
AcDbLine
 10
1897.608486754425
 20
1220.396914276842
 30
0.0
 11
1890.908486754424
 21
1220.396914276842
 31
0.0
  0
LINE
  5
4C7
330
4B5
100
AcDbEntity
  8
0
  6
Continuous
 62
     7
370
    15
100
AcDbLine
 10
1897.608486754425
 20
1220.396914276842
 30
0.0
 11
1897.608486754425
 21
1216.496914276842
 31
0.0
  0
LINE
  5
4C8
330
4B5
100
AcDbEntity
  8
0
  6
Continuous
 62
     7
370
    15
100
AcDbLine
 10
1890.908486754424
 20
1220.396914276842
 30
0.0
 11
1890.908486754424
 21
1216.496914276842
 31
0.0
  0
LINE
  5
4C9
330
4B5
100
AcDbEntity
  8
0
  6
Continuous
 62
     7
370
    15
100
AcDbLine
 10
1890.908486754424
 20
1216.496914276842
 30
0.0
 11
1897.608486754425
 21
1216.496914276842
 31
0.0
  0
LINE
  5
4CA
330
4B5
100
AcDbEntity
  8
0
  6
Continuous
 62
     7
370
    15
100
AcDbLine
 10
1890.908486754424
 20
1220.396914276842
 30
0.0
 11
1890.558486754424
 21
1220.396914276842
 31
0.0
  0
LINE
  5
4CB
330
4B5
100
AcDbEntity
  8
0
  6
Continuous
 62
     7
370
    15
100
AcDbLine
 10
1890.908486754424
 20
1216.496914276842
 30
0.0
 11
1890.558486754424
 21
1216.496914276842
 31
0.0
  0
LINE
  5
4CC
330
4B5
100
AcDbEntity
  8
0
  6
Continuous
 62
     7
370
    15
100
AcDbLine
 10
1897.958486754425
 20
1220.396914276842
 30
0.0
 11
1897.608486754425
 21
1220.396914276842
 31
0.0
  0
LINE
  5
4CD
330
4B5
100
AcDbEntity
  8
0
  6
Continuous
 62
     7
370
    15
100
AcDbLine
 10
1897.958486754425
 20
1216.496914276842
 30
0.0
 11
1897.608486754425
 21
1216.496914276842
 31
0.0
  0
SPLINE
  5
4CE
330
4B5
100
AcDbEntity
  8
0
  6
Continuous
 62
     7
370
    15
100
AcDbSpline
210
0.0
220
0.0
230
1.0
 70
    24
 71
     3
 72
    22
 73
    18
 74
     0
 42
0.0000000001
 43
0.0000000001
 40
0.0
 40
0.0
 40
0.0
 40
0.0
 40
0.0345767369425583
 40
0.0688989055767921
 40
0.1030656356827383
 40
0.1371774121935308
 40
0.1713352050309755
 40
0.2056395777922319
 40
0.2401898141702154
 40
0.3700560150090885
 40
0.5000280681034761
 40
0.6298943165886674
 40
0.75986641736712
 40
0.8201306883705282
 40
0.8798809851167721
 40
0.9396575701707888
 40
1.0
 40
1.0
 40
1.0
 40
1.0
 10
1894.258486754425
 20
1221.296914276842
 30
0.0
 10
1894.200147554509
 20
1221.296914276842
 30
0.0
 10
1894.083898672114
 20
1221.296914276842
 30
0.0
 10
1893.910493847446
 20
1221.296914276842
 30
0.0
 10
1893.738870510391
 20
1221.296914276842
 30
0.0
 10
1893.569031778186
 20
1221.296914276842
 30
0.0
 10
1893.400986846415
 20
1221.296914276842
 30
0.0
 10
1893.234722240996
 20
1221.296914276842
 30
0.0
 10
1892.919799833139
 20
1221.296914276842
 30
0.0
 10
1892.47474618939
 20
1221.296914276842
 30
0.0
 10
1891.962810526018
 20
1221.296914276842
 30
0.0
 10
1891.543048199517
 20
1221.296914276842
 30
0.0
 10
1891.293877410605
 20
1221.296914276842
 30
0.0
 10
1891.156443427646
 20
1221.296914276842
 30
0.0
 10
1891.085716404164
 20
1221.296914276842
 30
0.0
 10
1891.041568853757
 20
1221.296914276842
 30
0.0
 10
1891.036189234794
 20
1221.296914276842
 30
0.0
 10
1891.033486754425
 20
1221.296914276842
 30
0.0
  0
SPLINE
  5
4CF
330
4B5
100
AcDbEntity
  8
0
  6
Continuous
 62
     7
370
    15
100
AcDbSpline
210
0.0
220
0.0
230
1.0
 70
    24
 71
     3
 72
    22
 73
    18
 74
     0
 42
0.0000000001
 43
0.0000000001
 40
0.0
 40
0.0
 40
0.0
 40
0.0
 40
0.0345391614887341
 40
0.0688357986754411
 40
0.1029895277956236
 40
0.1371012171073349
 40
0.171272107159667
 40
0.205602914761938
 40
0.2401929598423603
 40
0.3700588287086903
 40
0.5000305495597696
 40
0.6298964660721066
 40
0.7598682346073097
 40
0.8201119842015362
 40
0.8798553991925297
 40
0.9396384390827632
 40
1.0
 40
1.0
 40
1.0
 40
1.0
 10
1897.483486754424
 20
1221.296914276842
 30
0.0
 10
1897.482613857892
 20
1221.296914276842
 30
0.0
 10
1897.480874194062
 20
1221.296914276842
 30
0.0
 10
1897.466518895598
 20
1221.296914276842
 30
0.0
 10
1897.443537517973
 20
1221.296914276842
 30
0.0
 10
1897.411103333933
 20
1221.296914276842
 30
0.0
 10
1897.369442072372
 20
1221.296914276842
 30
0.0
 10
1897.318478949958
 20
1221.296914276842
 30
0.0
 10
1897.203303527765
 20
1221.296914276842
 30
0.0
 10
1896.973971473606
 20
1221.296914276842
 30
0.0
 10
1896.554436507338
 20
1221.296914276842
 30
0.0
 10
1896.042351382671
 20
1221.296914276842
 30
0.0
 10
1895.55858528647
 20
1221.296914276842
 30
0.0
 10
1895.159389883259
 20
1221.296914276842
 30
0.0
 10
1894.864059513944
 20
1221.296914276842
 30
0.0
 10
1894.563125902238
 20
1221.296914276842
 30
0.0
 10
1894.360358592498
 20
1221.296914276842
 30
0.0
 10
1894.258486754425
 20
1221.296914276842
 30
0.0
  0
LINE
  5
4D0
330
4B5
100
AcDbEntity
  8
0
  6
Continuous
 62
     7
370
    15
100
AcDbLine
 10
1894.258486754425
 20
1226.696914276842
 30
0.0
 11
1897.683486754425
 21
1226.696914276842
 31
0.0
  0
LINE
  5
4D1
330
4B5
100
AcDbEntity
  8
0
  6
Continuous
 62
     7
370
    15
100
AcDbLine
 10
1890.833486754425
 20
1226.696914276842
 30
0.0
 11
1894.258486754425
 21
1226.696914276842
 31
0.0
  0
LINE
  5
4D2
330
4B5
100
AcDbEntity
  8
0
  6
Continuous
 62
     7
370
    15
100
AcDbLine
 10
1894.258486754425
 20
1216.396914276878
 30
0.0
 11
1891.258486754425
 21
1216.396914276878
 31
0.0
  0
LINE
  5
4D3
330
4B5
100
AcDbEntity
  8
0
  6
Continuous
 62
     7
370
    15
100
AcDbLine
 10
1897.258486754424
 20
1216.396914276878
 30
0.0
 11
1894.258486754425
 21
1216.396914276878
 31
0.0
  0
LINE
  5
4D4
330
4B5
100
AcDbEntity
  8
0
  6
Continuous
 62
     7
370
    15
100
AcDbLine
 10
1894.258486754425
 20
1205.696914276842
 30
0.0
 11
1891.258486754425
 21
1205.696914276842
 31
0.0
  0
LINE
  5
4D5
330
4B5
100
AcDbEntity
  8
0
  6
Continuous
 62
     7
370
    15
100
AcDbLine
 10
1897.258486754424
 20
1205.696914276842
 30
0.0
 11
1894.258486754425
 21
1205.696914276842
 31
0.0
  0
LINE
  5
4D6
330
4B5
100
AcDbEntity
  8
0
  6
Continuous
 62
     7
370
    15
100
AcDbLine
 10
1897.058486754454
 20
1205.496914276886
 30
0.0
 11
1891.458486754395
 21
1205.496914276886
 31
0.0
  0
LINE
  5
4D7
330
4B5
100
AcDbEntity
  8
0
  6
Continuous
 62
     8
370
    15
100
AcDbLine
 10
1890.833486754425
 20
1221.496914276842
 30
0.0
 11
1897.683486754425
 21
1221.496914276842
 31
0.0
  0
ENDBLK
  5
4B7
330
4B5
100
AcDbEntity
  8
0
100
AcDbBlockEnd
  0
BLOCK
  5
4DA
330
4D9
100
AcDbEntity
  8
0
100
AcDbBlockBegin
  2
3
 70
     0
 10
0.0
 20
0.0
 30
0.0
  3
3
  1

  0
CIRCLE
  5
4DC
330
4D9
100
AcDbEntity
  8
0
  6
Continuous
 62
     7
370
    15
100
AcDbCircle
 10
1920.843430276018
 20
1183.905578728674
 30
0.0
 40
2.475000000004001
  0
CIRCLE
  5
4DD
330
4D9
100
AcDbEntity
  8
0
  6
Continuous
 62
     7
370
    15
100
AcDbCircle
 10
1920.843430276018
 20
1183.905578728674
 30
0.0
 40
3.425000000000011
  0
CIRCLE
  5
4DE
330
4D9
100
AcDbEntity
  8
0
  6
Continuous
 62
     7
370
    15
100
AcDbCircle
 10
1935.84343027602
 20
1183.905578728674
 30
0.0
 40
2.475000000004001
  0
CIRCLE
  5
4DF
330
4D9
100
AcDbEntity
  8
0
  6
Continuous
 62
     7
370
    15
100
AcDbCircle
 10
1935.84343027602
 20
1183.905578728674
 30
0.0
 40
3.425000000000011
  0
CIRCLE
  5
4E0
330
4D9
100
AcDbEntity
  8
0
  6
Continuous
 62
     7
370
    15
100
AcDbCircle
 10
1950.84343027602
 20
1183.905578728674
 30
0.0
 40
2.475000000004001
  0
CIRCLE
  5
4E1
330
4D9
100
AcDbEntity
  8
0
  6
Continuous
 62
     7
370
    15
100
AcDbCircle
 10
1950.84343027602
 20
1183.905578728674
 30
0.0
 40
3.425000000000011
  0
ARC
  5
4E2
330
4D9
100
AcDbEntity
  8
0
  6
Continuous
 62
     7
370
    15
100
AcDbCircle
 10
1950.84343027602
 20
1183.905578728674
 30
0.0
 40
2.145679479869426
100
AcDbArc
 50
166.5246847195548
 51
193.4753152804452
  0
ARC
  5
4E3
330
4D9
100
AcDbEntity
  8
0
  6
Continuous
 62
     7
370
    15
100
AcDbCircle
 10
1950.84343027602
 20
1183.905578728674
 30
0.0
 40
2.197439522055198
100
AcDbArc
 50
193.1521401048725
 51
346.8478598951275
  0
ARC
  5
4E4
330
4D9
100
AcDbEntity
  8
0
  6
Continuous
 62
     7
370
    15
100
AcDbCircle
 10
1950.84343027602
 20
1183.905578728674
 30
0.0
 40
2.145679479869398
100
AcDbArc
 50
346.5246847195548
 51
13.4753152804452
  0
ARC
  5
4E5
330
4D9
100
AcDbEntity
  8
0
  6
Continuous
 62
     7
370
    15
100
AcDbCircle
 10
1950.84343027602
 20
1183.905578728674
 30
0.0
 40
2.197439522055198
100
AcDbArc
 50
13.1521401048725
 51
166.8478598951275
  0
CIRCLE
  5
4E6
330
4D9
100
AcDbEntity
  8
0
  6
Continuous
 62
     7
370
    15
100
AcDbCircle
 10
1965.84343027602
 20
1183.905578728674
 30
0.0
 40
2.475000000004001
  0
ARC
  5
4E7
330
4D9
100
AcDbEntity
  8
0
  6
Continuous
 62
     7
370
    15
100
AcDbCircle
 10
1965.84343027602
 20
1183.905578728674
 30
0.0
 40
2.145679479869398
100
AcDbArc
 50
166.5246847195548
 51
193.4753152804452
  0
ARC
  5
4E8
330
4D9
100
AcDbEntity
  8
0
  6
Continuous
 62
     7
370
    15
100
AcDbCircle
 10
1965.84343027602
 20
1183.905578728674
 30
0.0
 40
2.197439522055226
100
AcDbArc
 50
193.1521401048725
 51
346.8478598951275
  0
ARC
  5
4E9
330
4D9
100
AcDbEntity
  8
0
  6
Continuous
 62
     7
370
    15
100
AcDbCircle
 10
1965.84343027602
 20
1183.905578728674
 30
0.0
 40
2.145679479869426
100
AcDbArc
 50
346.5246847195548
 51
13.4753152804452
  0
ARC
  5
4EA
330
4D9
100
AcDbEntity
  8
0
  6
Continuous
 62
     7
370
    15
100
AcDbCircle
 10
1965.84343027602
 20
1183.905578728674
 30
0.0
 40
2.197439522055226
100
AcDbArc
 50
13.1521401048725
 51
166.8478598951275
  0
ARC
  5
4EB
330
4D9
100
AcDbEntity
  8
0
  6
Continuous
 62
     7
370
    15
100
AcDbCircle
 10
1935.84343027602
 20
1183.905578728674
 30
0.0
 40
2.145679479869371
100
AcDbArc
 50
166.5246847195548
 51
193.4753152804452
  0
ARC
  5
4EC
330
4D9
100
AcDbEntity
  8
0
  6
Continuous
 62
     7
370
    15
100
AcDbCircle
 10
1935.84343027602
 20
1183.905578728674
 30
0.0
 40
2.197439522055198
100
AcDbArc
 50
193.1521401048725
 51
346.8478598951275
  0
ARC
  5
4ED
330
4D9
100
AcDbEntity
  8
0
  6
Continuous
 62
     7
370
    15
100
AcDbCircle
 10
1935.84343027602
 20
1183.905578728674
 30
0.0
 40
2.145679479869454
100
AcDbArc
 50
346.5246847195548
 51
13.4753152804452
  0
ARC
  5
4EE
330
4D9
100
AcDbEntity
  8
0
  6
Continuous
 62
     7
370
    15
100
AcDbCircle
 10
1935.84343027602
 20
1183.905578728674
 30
0.0
 40
2.197439522055253
100
AcDbArc
 50
13.1521401048725
 51
166.8478598951275
  0
ARC
  5
4EF
330
4D9
100
AcDbEntity
  8
0
  6
Continuous
 62
     7
370
    15
100
AcDbCircle
 10
1920.843430276018
 20
1183.905578728674
 30
0.0
 40
2.197439522055226
100
AcDbArc
 50
13.1521401048725
 51
166.8478598951275
  0
ARC
  5
4F0
330
4D9
100
AcDbEntity
  8
0
  6
Continuous
 62
     7
370
    15
100
AcDbCircle
 10
1920.843430276018
 20
1183.905578728674
 30
0.0
 40
2.145679479869426
100
AcDbArc
 50
166.5246847195548
 51
193.4753152804452
  0
ARC
  5
4F1
330
4D9
100
AcDbEntity
  8
0
  6
Continuous
 62
     7
370
    15
100
AcDbCircle
 10
1920.843430276018
 20
1183.905578728674
 30
0.0
 40
2.197439522055226
100
AcDbArc
 50
193.1521401048725
 51
346.8478598951275
  0
ARC
  5
4F2
330
4D9
100
AcDbEntity
  8
0
  6
Continuous
 62
     7
370
    15
100
AcDbCircle
 10
1920.843430276018
 20
1183.905578728674
 30
0.0
 40
2.145679479869398
100
AcDbArc
 50
346.5246847195548
 51
13.4753152804452
  0
CIRCLE
  5
4F3
330
4D9
100
AcDbEntity
  8
0
  6
Continuous
 62
     7
370
    15
100
AcDbCircle
 10
1965.84343027602
 20
1183.905578728674
 30
0.0
 40
3.424999999999982
  0
SPLINE
  5
4F4
330
4D9
100
AcDbEntity
  8
0
  6
Continuous
 62
     7
370
    15
100
AcDbSpline
210
0.0
220
0.0
230
1.0
 70
     8
 71
     3
 72
    14
 73
    10
 74
     0
 42
0.0000000001
 43
0.0000000001
 40
0.0
 40
0.0
 40
0.0
 40
0.0
 40
0.25
 40
0.25
 40
0.5
 40
0.5
 40
0.75
 40
0.75
 40
1.0
 40
1.0
 40
1.0
 40
1.0
 10
1918.918473380875
 20
1184.405578728674
 30
0.0
 10
1919.02919262626
 20
1184.831838278332
 30
0.0
 10
1919.278298003393
 20
1185.20933329619
 30
0.0
 10
1919.975029210787
 20
1185.748211245764
 30
0.0
 10
1920.403025967486
 20
1185.894412318535
 30
0.0
 10
1921.283834584551
 20
1185.894412318535
 30
0.0
 10
1921.711831341249
 20
1185.748211245764
 30
0.0
 10
1922.408562548644
 20
1185.20933329619
 30
0.0
 10
1922.657667925777
 20
1184.831838278332
 30
0.0
 10
1922.768387171162
 20
1184.405578728674
 30
0.0
  0
LINE
  5
4F5
330
4D9
100
AcDbEntity
  8
0
  6
Continuous
 62
     7
370
    15
100
AcDbLine
 10
1918.918473380875
 20
1184.405578728674
 30
0.0
 11
1922.768387171162
 21
1184.405578728674
 31
0.0
  0
SPLINE
  5
4F6
330
4D9
100
AcDbEntity
  8
0
  6
Continuous
 62
     7
370
    15
100
AcDbSpline
210
0.0
220
0.0
230
1.0
 70
     8
 71
     3
 72
    26
 73
    22
 74
     0
 42
0.0000000001
 43
0.0000000001
 40
0.0
 40
0.0
 40
0.0
 40
0.0
 40
0.0230715729476345
 40
0.0460090324973591
 40
0.068896312164315
 40
0.0918178967114755
 40
0.1148578935298947
 40
0.1672666081108498
 40
0.2198734143150281
 40
0.2872072951295931
 40
0.3550347613670426
 40
0.4272288750175976
 40
0.5000425990362788
 40
0.5721736231559394
 40
0.645048746199323
 40
0.7123665728304424
 40
0.7802169049632333
 40
0.8396683342519317
 40
0.8991910480712959
 40
0.9495075749985691
 40
0.9999999999999998
 40
0.9999999999999998
 40
0.9999999999999998
 40
0.9999999999999998
 10
1933.918473380877
 20
1184.405578728674
 30
0.0
 10
1933.929272355303
 20
1184.444350196008
 30
0.0
 10
1933.950807530493
 20
1184.521667754921
 30
0.0
 10
1933.991793587076
 20
1184.634729162795
 30
0.0
 10
1934.038983244035
 20
1184.745002017251
 30
0.0
 10
1934.093010146941
 20
1184.852322175384
 30
0.0
 10
1934.179221749147
 20
1185.000722002246
 30
0.0
 10
1934.310311372359
 20
1185.182505270516
 30
0.0
 10
1934.518857804204
 20
1185.400157702998
 30
0.0
 10
1934.780826109856
 20
1185.599657614244
 30
0.0
 10
1935.104959372087
 20
1185.76413639696
 30
0.0
 10
1935.462902401505
 20
1185.870665355652
 30
0.0
 10
1935.842241419232
 20
1185.906234315055
 30
0.0
 10
1936.222747453199
 20
1185.870850237622
 30
0.0
 10
1936.579932846277
 20
1185.764855441284
 30
0.0
 10
1936.905469052993
 20
1185.600447290975
 30
0.0
 10
1937.176759573664
 20
1185.393432356907
 30
0.0
 10
1937.401452768568
 20
1185.155640738182
 30
0.0
 10
1937.567328851887
 20
1184.910118241442
 30
0.0
 10
1937.692171851205
 20
1184.658609744117
 30
0.0
 10
1937.742952529358
 20
1184.490020455705
 30
0.0
 10
1937.768387171163
 20
1184.405578728674
 30
0.0
  0
LINE
  5
4F7
330
4D9
100
AcDbEntity
  8
0
  6
Continuous
 62
     7
370
    15
100
AcDbLine
 10
1937.768387171163
 20
1184.405578728674
 30
0.0
 11
1933.918473380877
 21
1184.405578728674
 31
0.0
  0
SPLINE
  5
4F8
330
4D9
100
AcDbEntity
  8
0
  6
Continuous
 62
     7
370
    15
100
AcDbSpline
210
0.0
220
0.0
230
1.0
 70
     8
 71
     3
 72
    26
 73
    22
 74
     0
 42
0.0000000001
 43
0.0000000001
 40
0.0
 40
0.0
 40
0.0
 40
0.0
 40
0.0230715729476349
 40
0.0460090324973593
 40
0.0688963121643149
 40
0.0918178967114757
 40
0.1148578935298945
 40
0.1672666081108504
 40
0.2198734143150288
 40
0.2872072951295932
 40
0.3550347613670424
 40
0.427228875017597
 40
0.5000425990362782
 40
0.57217362315594
 40
0.6450487461993231
 40
0.7123665728304426
 40
0.7802169049632334
 40
0.8396683342519322
 40
0.8991910480712963
 40
0.9495075749985691
 40
0.9999999999999998
 40
0.9999999999999998
 40
0.9999999999999998
 40
0.9999999999999998
 10
1963.918473380877
 20
1184.405578728674
 30
0.0
 10
1963.929272355303
 20
1184.444350196008
 30
0.0
 10
1963.950807530492
 20
1184.521667754921
 30
0.0
 10
1963.991793587076
 20
1184.634729162795
 30
0.0
 10
1964.038983244035
 20
1184.745002017252
 30
0.0
 10
1964.093010146941
 20
1184.852322175384
 30
0.0
 10
1964.179221749146
 20
1185.000722002246
 30
0.0
 10
1964.310311372359
 20
1185.182505270516
 30
0.0
 10
1964.518857804204
 20
1185.400157702998
 30
0.0
 10
1964.780826109856
 20
1185.599657614244
 30
0.0
 10
1965.104959372087
 20
1185.76413639696
 30
0.0
 10
1965.462902401506
 20
1185.870665355652
 30
0.0
 10
1965.842241419233
 20
1185.906234315055
 30
0.0
 10
1966.222747453199
 20
1185.870850237622
 30
0.0
 10
1966.579932846277
 20
1185.764855441284
 30
0.0
 10
1966.905469052993
 20
1185.600447290975
 30
0.0
 10
1967.176759573663
 20
1185.393432356907
 30
0.0
 10
1967.401452768568
 20
1185.155640738182
 30
0.0
 10
1967.567328851887
 20
1184.910118241442
 30
0.0
 10
1967.692171851205
 20
1184.658609744117
 30
0.0
 10
1967.742952529358
 20
1184.490020455706
 30
0.0
 10
1967.768387171163
 20
1184.405578728674
 30
0.0
  0
LINE
  5
4F9
330
4D9
100
AcDbEntity
  8
0
  6
Continuous
 62
     7
370
    15
100
AcDbLine
 10
1967.768387171163
 20
1184.405578728674
 30
0.0
 11
1963.918473380877
 21
1184.405578728674
 31
0.0
  0
SPLINE
  5
4FA
330
4D9
100
AcDbEntity
  8
0
  6
Continuous
 62
     7
370
    15
100
AcDbSpline
210
0.0
220
0.0
230
1.0
 70
     8
 71
     3
 72
    26
 73
    22
 74
     0
 42
0.0000000001
 43
0.0000000001
 40
0.0
 40
0.0
 40
0.0
 40
0.0
 40
0.0230715729476346
 40
0.0460090324973592
 40
0.0688963121643151
 40
0.0918178967114755
 40
0.1148578935298948
 40
0.1672666081108498
 40
0.2198734143150282
 40
0.2872072951295933
 40
0.3550347613670425
 40
0.4272288750175978
 40
0.500042599036279
 40
0.57217362315594
 40
0.6450487461993232
 40
0.7123665728304428
 40
0.7802169049632336
 40
0.8396683342519322
 40
0.8991910480712963
 40
0.9495075749985691
 40
1.0
 40
1.0
 40
1.0
 40
1.0
 10
1948.918473380876
 20
1184.405578728674
 30
0.0
 10
1948.929272355303
 20
1184.444350196008
 30
0.0
 10
1948.950807530492
 20
1184.521667754921
 30
0.0
 10
1948.991793587076
 20
1184.634729162795
 30
0.0
 10
1949.038983244035
 20
1184.745002017252
 30
0.0
 10
1949.093010146941
 20
1184.852322175384
 30
0.0
 10
1949.179221749146
 20
1185.000722002246
 30
0.0
 10
1949.310311372359
 20
1185.182505270516
 30
0.0
 10
1949.518857804203
 20
1185.400157702998
 30
0.0
 10
1949.780826109856
 20
1185.599657614244
 30
0.0
 10
1950.104959372087
 20
1185.76413639696
 30
0.0
 10
1950.462902401505
 20
1185.870665355652
 30
0.0
 10
1950.842241419232
 20
1185.906234315055
 30
0.0
 10
1951.222747453199
 20
1185.870850237622
 30
0.0
 10
1951.579932846277
 20
1185.764855441284
 30
0.0
 10
1951.905469052993
 20
1185.600447290975
 30
0.0
 10
1952.176759573664
 20
1185.393432356907
 30
0.0
 10
1952.401452768567
 20
1185.155640738182
 30
0.0
 10
1952.567328851887
 20
1184.910118241442
 30
0.0
 10
1952.692171851206
 20
1184.658609744117
 30
0.0
 10
1952.742952529358
 20
1184.490020455706
 30
0.0
 10
1952.768387171164
 20
1184.405578728674
 30
0.0
  0
LINE
  5
4FB
330
4D9
100
AcDbEntity
  8
0
  6
Continuous
 62
     7
370
    15
100
AcDbLine
 10
1952.768387171164
 20
1184.405578728674
 30
0.0
 11
1948.918473380876
 21
1184.405578728674
 31
0.0
  0
SPLINE
  5
4FC
330
4D9
100
AcDbEntity
  8
0
  6
Continuous
 62
     7
370
    15
100
AcDbSpline
210
0.0
220
0.0
230
1.0
 70
     8
 71
     3
 72
    19
 73
    15
 74
     0
 42
0.0000000001
 43
0.0000000001
 40
0.0
 40
0.0
 40
0.0
 40
0.0
 40
0.0488679617767459
 40
0.0974204996714149
 40
0.1458568154919773
 40
0.194377542516429
 40
0.2431822730058978
 40
0.3715078253163588
 40
0.5000352027282089
 40
0.6283607973257657
 40
0.7568882170903854
 40
0.8379484026938449
 40
0.9186755957281148
 40
1.0
 40
1.0
 40
1.0
 40
1.0
 10
1937.768387171163
 20
1183.405578728674
 30
0.0
 10
1937.756904512674
 20
1183.364515019377
 30
0.0
 10
1937.734013311834
 20
1183.282652651219
 30
0.0
 10
1937.689959630853
 20
1183.163160929068
 30
0.0
 10
1937.638971507975
 20
1183.046860500957
 30
0.0
 10
1937.580342242918
 20
1182.933931021938
 30
0.0
 10
1937.478708199959
 20
1182.765283013586
 30
0.0
 10
1937.315022670259
 20
1182.5530211628
 30
0.0
 10
1937.066030973577
 20
1182.325128880145
 30
0.0
 10
1936.782731998899
 20
1182.1413134378
 30
0.0
 10
1936.510175521654
 20
1182.025047795477
 30
0.0
 10
1936.265583805815
 20
1181.958287686552
 30
0.0
 10
1936.055812378028
 20
1181.923220493283
 30
0.0
 10
1935.914398028846
 20
1181.918908886846
 30
0.0
 10
1935.84343027602
 20
1181.916745138812
 30
0.0
  0
SPLINE
  5
4FD
330
4D9
100
AcDbEntity
  8
0
  6
Continuous
 62
     7
370
    15
100
AcDbSpline
210
0.0
220
0.0
230
1.0
 70
     8
 71
     3
 72
    19
 73
    15
 74
     0
 42
0.0000000001
 43
0.0000000001
 40
0.0
 40
0.0
 40
0.0
 40
0.0
 40
0.0488679617766764
 40
0.0974204996713111
 40
0.1458568154918728
 40
0.1943775425163587
 40
0.2431822730058942
 40
0.3715078253162693
 40
0.5000352027282091
 40
0.6283607973257638
 40
0.7568882170903847
 40
0.8379484026938241
 40
0.9186755957280945
 40
1.0
 40
1.0
 40
1.0
 40
1.0
 10
1935.84343027602
 20
1181.916745138812
 30
0.0
 10
1935.80079865514
 20
1181.917535435192
 30
0.0
 10
1935.715810584083
 20
1181.919110926893
 30
0.0
 10
1935.589081401589
 20
1181.931709052756
 30
0.0
 10
1935.463697672297
 20
1181.951821205353
 30
0.0
 10
1935.339655614133
 20
1181.980176553335
 30
0.0
 10
1935.150873018181
 20
1182.036147625106
 30
0.0
 10
1934.904277385146
 20
1182.14121255598
 30
0.0
 10
1934.621107052515
 20
1182.324914271346
 30
0.0
 10
1934.371972940419
 20
1182.552902472989
 30
0.0
 10
1934.190919789308
 20
1182.787475466629
 30
0.0
 10
1934.06481261212
 20
1183.007427732957
 30
0.0
 10
1933.978134395175
 20
1183.201645771941
 30
0.0
 10
1933.938409185617
 20
1183.337434268619
 30
0.0
 10
1933.918473380877
 20
1183.405578728674
 30
0.0
  0
LINE
  5
4FE
330
4D9
100
AcDbEntity
  8
0
  6
Continuous
 62
     7
370
    15
100
AcDbLine
 10
1933.918473380877
 20
1183.405578728674
 30
0.0
 11
1937.768387171163
 21
1183.405578728674
 31
0.0
  0
SPLINE
  5
4FF
330
4D9
100
AcDbEntity
  8
0
  6
Continuous
 62
     7
370
    15
100
AcDbSpline
210
0.0
220
0.0
230
1.0
 70
     8
 71
     3
 72
    10
 73
     6
 74
     0
 42
0.0000000001
 43
0.0000000001
 40
0.0
 40
0.0
 40
0.0
 40
0.0
 40
0.5
 40
0.5
 40
1.0
 40
1.0
 40
1.0
 40
1.0
 10
1922.768387171162
 20
1183.405578728674
 30
0.0
 10
1922.657667925777
 20
1182.979319179015
 30
0.0
 10
1922.408562548644
 20
1182.601824161157
 30
0.0
 10
1921.711831341249
 20
1182.062946211583
 30
0.0
 10
1921.283834584551
 20
1181.916745138812
 30
0.0
 10
1920.843430276018
 20
1181.916745138812
 30
0.0
  0
SPLINE
  5
500
330
4D9
100
AcDbEntity
  8
0
  6
Continuous
 62
     7
370
    15
100
AcDbSpline
210
0.0
220
0.0
230
1.0
 70
     8
 71
     3
 72
    10
 73
     6
 74
     0
 42
0.0000000001
 43
0.0000000001
 40
0.0
 40
0.0
 40
0.0
 40
0.0
 40
0.5
 40
0.5
 40
1.0
 40
1.0
 40
1.0
 40
1.0
 10
1920.843430276018
 20
1181.916745138812
 30
0.0
 10
1920.403025967486
 20
1181.916745138812
 30
0.0
 10
1919.975029210787
 20
1182.062946211583
 30
0.0
 10
1919.278298003393
 20
1182.601824161157
 30
0.0
 10
1919.02919262626
 20
1182.979319179015
 30
0.0
 10
1918.918473380875
 20
1183.405578728674
 30
0.0
  0
LINE
  5
501
330
4D9
100
AcDbEntity
  8
0
  6
Continuous
 62
     7
370
    15
100
AcDbLine
 10
1922.768387171162
 20
1183.405578728674
 30
0.0
 11
1918.918473380875
 21
1183.405578728674
 31
0.0
  0
SPLINE
  5
502
330
4D9
100
AcDbEntity
  8
0
  6
Continuous
 62
     7
370
    15
100
AcDbSpline
210
0.0
220
0.0
230
1.0
 70
     8
 71
     3
 72
    19
 73
    15
 74
     0
 42
0.0000000001
 43
0.0000000001
 40
0.0
 40
0.0
 40
0.0
 40
0.0
 40
0.0488679617767459
 40
0.0974204996714149
 40
0.1458568154919767
 40
0.1943775425164291
 40
0.2431822730058979
 40
0.3715078253163588
 40
0.50003520272821
 40
0.6283607973257657
 40
0.7568882170903853
 40
0.8379484026938454
 40
0.9186755957281148
 40
1.0
 40
1.0
 40
1.0
 40
1.0
 10
1967.768387171163
 20
1183.405578728674
 30
0.0
 10
1967.756904512674
 20
1183.364515019377
 30
0.0
 10
1967.734013311834
 20
1183.282652651219
 30
0.0
 10
1967.689959630853
 20
1183.163160929068
 30
0.0
 10
1967.638971507975
 20
1183.046860500958
 30
0.0
 10
1967.580342242918
 20
1182.933931021938
 30
0.0
 10
1967.478708199959
 20
1182.765283013586
 30
0.0
 10
1967.315022670259
 20
1182.553021162801
 30
0.0
 10
1967.066030973577
 20
1182.325128880145
 30
0.0
 10
1966.782731998899
 20
1182.1413134378
 30
0.0
 10
1966.510175521655
 20
1182.025047795477
 30
0.0
 10
1966.265583805815
 20
1181.958287686552
 30
0.0
 10
1966.055812378028
 20
1181.923220493283
 30
0.0
 10
1965.914398028846
 20
1181.918908886846
 30
0.0
 10
1965.84343027602
 20
1181.916745138812
 30
0.0
  0
SPLINE
  5
503
330
4D9
100
AcDbEntity
  8
0
  6
Continuous
 62
     7
370
    15
100
AcDbSpline
210
0.0
220
0.0
230
1.0
 70
     8
 71
     3
 72
    19
 73
    15
 74
     0
 42
0.0000000001
 43
0.0000000001
 40
0.0
 40
0.0
 40
0.0
 40
0.0
 40
0.0488679617766757
 40
0.097420499671311
 40
0.1458568154918727
 40
0.1943775425163592
 40
0.2431822730058941
 40
0.3715078253162684
 40
0.5000352027282084
 40
0.6283607973257645
 40
0.756888217090384
 40
0.8379484026938241
 40
0.9186755957280944
 40
1.0
 40
1.0
 40
1.0
 40
1.0
 10
1965.84343027602
 20
1181.916745138812
 30
0.0
 10
1965.80079865514
 20
1181.917535435192
 30
0.0
 10
1965.715810584083
 20
1181.919110926893
 30
0.0
 10
1965.589081401589
 20
1181.931709052756
 30
0.0
 10
1965.463697672297
 20
1181.951821205353
 30
0.0
 10
1965.339655614133
 20
1181.980176553335
 30
0.0
 10
1965.150873018181
 20
1182.036147625106
 30
0.0
 10
1964.904277385145
 20
1182.14121255598
 30
0.0
 10
1964.621107052515
 20
1182.324914271346
 30
0.0
 10
1964.371972940419
 20
1182.552902472989
 30
0.0
 10
1964.190919789308
 20
1182.787475466629
 30
0.0
 10
1964.064812612119
 20
1183.007427732957
 30
0.0
 10
1963.978134395175
 20
1183.201645771941
 30
0.0
 10
1963.938409185617
 20
1183.33743426862
 30
0.0
 10
1963.918473380877
 20
1183.405578728674
 30
0.0
  0
LINE
  5
504
330
4D9
100
AcDbEntity
  8
0
  6
Continuous
 62
     7
370
    15
100
AcDbLine
 10
1963.918473380877
 20
1183.405578728674
 30
0.0
 11
1967.768387171163
 21
1183.405578728674
 31
0.0
  0
SPLINE
  5
505
330
4D9
100
AcDbEntity
  8
0
  6
Continuous
 62
     7
370
    15
100
AcDbSpline
210
0.0
220
0.0
230
1.0
 70
     8
 71
     3
 72
    19
 73
    15
 74
     0
 42
0.0000000001
 43
0.0000000001
 40
0.0
 40
0.0
 40
0.0
 40
0.0
 40
0.0488679617767459
 40
0.0974204996714149
 40
0.1458568154919767
 40
0.194377542516429
 40
0.2431822730058979
 40
0.3715078253163588
 40
0.500035202728209
 40
0.6283607973257657
 40
0.7568882170903854
 40
0.8379484026938454
 40
0.9186755957281148
 40
1.0
 40
1.0
 40
1.0
 40
1.0
 10
1952.768387171164
 20
1183.405578728674
 30
0.0
 10
1952.756904512674
 20
1183.364515019377
 30
0.0
 10
1952.734013311834
 20
1183.282652651219
 30
0.0
 10
1952.689959630853
 20
1183.163160929068
 30
0.0
 10
1952.638971507975
 20
1183.046860500957
 30
0.0
 10
1952.580342242918
 20
1182.933931021938
 30
0.0
 10
1952.478708199959
 20
1182.765283013586
 30
0.0
 10
1952.315022670259
 20
1182.5530211628
 30
0.0
 10
1952.066030973577
 20
1182.325128880145
 30
0.0
 10
1951.782731998899
 20
1182.1413134378
 30
0.0
 10
1951.510175521655
 20
1182.025047795477
 30
0.0
 10
1951.265583805815
 20
1181.958287686552
 30
0.0
 10
1951.055812378028
 20
1181.923220493283
 30
0.0
 10
1950.914398028846
 20
1181.918908886846
 30
0.0
 10
1950.84343027602
 20
1181.916745138812
 30
0.0
  0
SPLINE
  5
506
330
4D9
100
AcDbEntity
  8
0
  6
Continuous
 62
     7
370
    15
100
AcDbSpline
210
0.0
220
0.0
230
1.0
 70
     8
 71
     3
 72
    19
 73
    15
 74
     0
 42
0.0000000001
 43
0.0000000001
 40
0.0
 40
0.0
 40
0.0
 40
0.0
 40
0.0488679617766757
 40
0.097420499671311
 40
0.1458568154918727
 40
0.1943775425163593
 40
0.2431822730058942
 40
0.3715078253162698
 40
0.5000352027282098
 40
0.6283607973257639
 40
0.7568882170903844
 40
0.8379484026938245
 40
0.9186755957280945
 40
1.0
 40
1.0
 40
1.0
 40
1.0
 10
1950.84343027602
 20
1181.916745138812
 30
0.0
 10
1950.80079865514
 20
1181.917535435192
 30
0.0
 10
1950.715810584082
 20
1181.919110926893
 30
0.0
 10
1950.589081401589
 20
1181.931709052756
 30
0.0
 10
1950.463697672297
 20
1181.951821205353
 30
0.0
 10
1950.339655614133
 20
1181.980176553335
 30
0.0
 10
1950.150873018182
 20
1182.036147625106
 30
0.0
 10
1949.904277385146
 20
1182.14121255598
 30
0.0
 10
1949.621107052515
 20
1182.324914271346
 30
0.0
 10
1949.37197294042
 20
1182.552902472989
 30
0.0
 10
1949.190919789309
 20
1182.787475466629
 30
0.0
 10
1949.064812612119
 20
1183.007427732957
 30
0.0
 10
1948.978134395175
 20
1183.201645771941
 30
0.0
 10
1948.938409185618
 20
1183.337434268619
 30
0.0
 10
1948.918473380876
 20
1183.405578728674
 30
0.0
  0
LINE
  5
507
330
4D9
100
AcDbEntity
  8
0
  6
Continuous
 62
     7
370
    15
100
AcDbLine
 10
1948.918473380876
 20
1183.405578728674
 30
0.0
 11
1952.768387171164
 21
1183.405578728674
 31
0.0
  0
ARC
  5
508
330
4D9
100
AcDbEntity
  8
0
  6
Continuous
 62
     7
370
    15
100
AcDbCircle
 10
1920.843430276018
 20
1183.905578728674
 30
0.0
 40
2.188421798069978
100
AcDbArc
 50
193.2073141036553
 51
346.7926858963447
  0
SPLINE
  5
509
330
4D9
100
AcDbEntity
  8
0
  6
Continuous
 62
     7
370
    15
100
AcDbSpline
210
0.0
220
0.0
230
1.0
 70
    24
 71
     3
 72
    10
 73
     6
 74
     0
 42
0.0000000001
 43
0.0000000001
 40
0.0
 40
0.0
 40
0.0
 40
0.0
 40
0.5
 40
0.5
 40
1.0
 40
1.0
 40
1.0
 40
1.0
 10
1918.918473380875
 20
1183.405578728674
 30
0.0
 10
1918.867006797283
 20
1183.405578728674
 30
0.0
 10
1918.816607555315
 20
1183.405578728674
 30
0.0
 10
1918.740557557023
 20
1183.405578728674
 30
0.0
 10
1918.716286110385
 20
1183.405578728674
 30
0.0
 10
1918.712892793065
 20
1183.405578728674
 30
0.0
  0
SPLINE
  5
50A
330
4D9
100
AcDbEntity
  8
0
  6
Continuous
 62
     7
370
    15
100
AcDbSpline
210
0.0
220
0.0
230
1.0
 70
    24
 71
     3
 72
    10
 73
     6
 74
     0
 42
0.0000000001
 43
0.0000000001
 40
0.0
 40
0.0
 40
0.0
 40
0.0
 40
0.5
 40
0.5
 40
1.0
 40
1.0
 40
1.0
 40
1.0
 10
1922.973967758971
 20
1183.405578728674
 30
0.0
 10
1922.970577020685
 20
1183.405578728674
 30
0.0
 10
1922.946200984911
 20
1183.405578728674
 30
0.0
 10
1922.870538407256
 20
1183.405578728674
 30
0.0
 10
1922.819819398084
 20
1183.405578728674
 30
0.0
 10
1922.768387171162
 20
1183.405578728674
 30
0.0
  0
ARC
  5
50B
330
4D9
100
AcDbEntity
  8
0
  6
Continuous
 62
     7
370
    15
100
AcDbCircle
 10
1965.84343027602
 20
1183.905578728674
 30
0.0
 40
2.188421798069978
100
AcDbArc
 50
193.2073141036553
 51
346.7926858963447
  0
SPLINE
  5
50C
330
4D9
100
AcDbEntity
  8
0
  6
Continuous
 62
     7
370
    15
100
AcDbSpline
210
0.0
220
0.0
230
1.0
 70
    24
 71
     3
 72
    10
 73
     6
 74
     0
 42
0.0000000001
 43
0.0000000001
 40
0.0
 40
0.0
 40
0.0
 40
0.0
 40
0.5
 40
0.5
 40
1.0
 40
1.0
 40
1.0
 40
1.0
 10
1963.712892793067
 20
1183.405578728674
 30
0.0
 10
1963.716283531353
 20
1183.405578728674
 30
0.0
 10
1963.740659567127
 20
1183.405578728674
 30
0.0
 10
1963.816322144782
 20
1183.405578728674
 30
0.0
 10
1963.867041153955
 20
1183.405578728674
 30
0.0
 10
1963.918473380877
 20
1183.405578728674
 30
0.0
  0
SPLINE
  5
50D
330
4D9
100
AcDbEntity
  8
0
  6
Continuous
 62
     7
370
    15
100
AcDbSpline
210
0.0
220
0.0
230
1.0
 70
    24
 71
     3
 72
    10
 73
     6
 74
     0
 42
0.0000000001
 43
0.0000000001
 40
0.0
 40
0.0
 40
0.0
 40
0.0
 40
0.5
 40
0.5
 40
1.0
 40
1.0
 40
1.0
 40
1.0
 10
1967.768387171163
 20
1183.405578728674
 30
0.0
 10
1967.819853754756
 20
1183.405578728674
 30
0.0
 10
1967.870252996723
 20
1183.405578728674
 30
0.0
 10
1967.946302995015
 20
1183.405578728674
 30
0.0
 10
1967.970574441653
 20
1183.405578728674
 30
0.0
 10
1967.973967758973
 20
1183.405578728674
 30
0.0
  0
ARC
  5
50E
330
4D9
100
AcDbEntity
  8
0
  6
Continuous
 62
     7
370
    15
100
AcDbCircle
 10
1950.84343027602
 20
1183.905578728674
 30
0.0
 40
2.188421798069978
100
AcDbArc
 50
193.2073141036553
 51
346.7926858963447
  0
SPLINE
  5
50F
330
4D9
100
AcDbEntity
  8
0
  6
Continuous
 62
     7
370
    15
100
AcDbSpline
210
0.0
220
0.0
230
1.0
 70
    24
 71
     3
 72
    10
 73
     6
 74
     0
 42
0.0000000001
 43
0.0000000001
 40
0.0
 40
0.0
 40
0.0
 40
0.0
 40
0.5
 40
0.5
 40
1.0
 40
1.0
 40
1.0
 40
1.0
 10
1948.712892793067
 20
1183.405578728674
 30
0.0
 10
1948.716283531353
 20
1183.405578728674
 30
0.0
 10
1948.740659567128
 20
1183.405578728674
 30
0.0
 10
1948.816322144782
 20
1183.405578728674
 30
0.0
 10
1948.867041153954
 20
1183.405578728674
 30
0.0
 10
1948.918473380876
 20
1183.405578728674
 30
0.0
  0
SPLINE
  5
510
330
4D9
100
AcDbEntity
  8
0
  6
Continuous
 62
     7
370
    15
100
AcDbSpline
210
0.0
220
0.0
230
1.0
 70
    24
 71
     3
 72
    10
 73
     6
 74
     0
 42
0.0000000001
 43
0.0000000001
 40
0.0
 40
0.0
 40
0.0
 40
0.0
 40
0.5
 40
0.5
 40
1.0
 40
1.0
 40
1.0
 40
1.0
 10
1952.768387171164
 20
1183.405578728674
 30
0.0
 10
1952.819853754755
 20
1183.405578728674
 30
0.0
 10
1952.870252996723
 20
1183.405578728674
 30
0.0
 10
1952.946302995016
 20
1183.405578728674
 30
0.0
 10
1952.970574441653
 20
1183.405578728674
 30
0.0
 10
1952.973967758973
 20
1183.405578728674
 30
0.0
  0
ARC
  5
511
330
4D9
100
AcDbEntity
  8
0
  6
Continuous
 62
     7
370
    15
100
AcDbCircle
 10
1935.84343027602
 20
1183.905578728674
 30
0.0
 40
2.188421798070006
100
AcDbArc
 50
193.2073141036553
 51
346.7926858963447
  0
SPLINE
  5
512
330
4D9
100
AcDbEntity
  8
0
  6
Continuous
 62
     7
370
    15
100
AcDbSpline
210
0.0
220
0.0
230
1.0
 70
    24
 71
     3
 72
    10
 73
     6
 74
     0
 42
0.0000000001
 43
0.0000000001
 40
0.0
 40
0.0
 40
0.0
 40
0.0
 40
0.5
 40
0.5
 40
1.0
 40
1.0
 40
1.0
 40
1.0
 10
1933.712892793067
 20
1183.405578728674
 30
0.0
 10
1933.716283531353
 20
1183.405578728674
 30
0.0
 10
1933.740659567128
 20
1183.405578728674
 30
0.0
 10
1933.816322144782
 20
1183.405578728674
 30
0.0
 10
1933.867041153955
 20
1183.405578728674
 30
0.0
 10
1933.918473380877
 20
1183.405578728674
 30
0.0
  0
SPLINE
  5
513
330
4D9
100
AcDbEntity
  8
0
  6
Continuous
 62
     7
370
    15
100
AcDbSpline
210
0.0
220
0.0
230
1.0
 70
    24
 71
     3
 72
    10
 73
     6
 74
     0
 42
0.0000000001
 43
0.0000000001
 40
0.0
 40
0.0
 40
0.0
 40
0.0
 40
0.5
 40
0.5
 40
1.0
 40
1.0
 40
1.0
 40
1.0
 10
1937.768387171163
 20
1183.405578728674
 30
0.0
 10
1937.819853754756
 20
1183.405578728674
 30
0.0
 10
1937.870252996723
 20
1183.405578728674
 30
0.0
 10
1937.946302995015
 20
1183.405578728674
 30
0.0
 10
1937.970574441653
 20
1183.405578728674
 30
0.0
 10
1937.973967758973
 20
1183.405578728674
 30
0.0
  0
ARC
  5
514
330
4D9
100
AcDbEntity
  8
0
  6
Continuous
 62
     7
370
    15
100
AcDbCircle
 10
1950.84343027602
 20
1183.905578728674
 30
0.0
 40
2.188421798069978
100
AcDbArc
 50
13.20731410365529
 51
166.7926858963447
  0
SPLINE
  5
515
330
4D9
100
AcDbEntity
  8
0
  6
Continuous
 62
     7
370
    15
100
AcDbSpline
210
0.0
220
0.0
230
1.0
 70
    24
 71
     3
 72
    10
 73
     6
 74
     0
 42
0.0000000001
 43
0.0000000001
 40
0.0
 40
0.0
 40
0.0
 40
0.0
 40
0.5
 40
0.5
 40
1.0
 40
1.0
 40
1.0
 40
1.0
 10
1948.918473380876
 20
1184.405578728674
 30
0.0
 10
1948.867006797284
 20
1184.405578728674
 30
0.0
 10
1948.816607555317
 20
1184.405578728674
 30
0.0
 10
1948.740557557024
 20
1184.405578728674
 30
0.0
 10
1948.716286110387
 20
1184.405578728674
 30
0.0
 10
1948.712892793067
 20
1184.405578728674
 30
0.0
  0
SPLINE
  5
516
330
4D9
100
AcDbEntity
  8
0
  6
Continuous
 62
     7
370
    15
100
AcDbSpline
210
0.0
220
0.0
230
1.0
 70
    24
 71
     3
 72
    10
 73
     6
 74
     0
 42
0.0000000001
 43
0.0000000001
 40
0.0
 40
0.0
 40
0.0
 40
0.0
 40
0.5
 40
0.5
 40
1.0
 40
1.0
 40
1.0
 40
1.0
 10
1952.973967758973
 20
1184.405578728674
 30
0.0
 10
1952.970577020687
 20
1184.405578728674
 30
0.0
 10
1952.946200984913
 20
1184.405578728674
 30
0.0
 10
1952.870538407258
 20
1184.405578728674
 30
0.0
 10
1952.819819398085
 20
1184.405578728674
 30
0.0
 10
1952.768387171164
 20
1184.405578728674
 30
0.0
  0
ARC
  5
517
330
4D9
100
AcDbEntity
  8
0
  6
Continuous
 62
     7
370
    15
100
AcDbCircle
 10
1920.843430276018
 20
1183.905578728674
 30
0.0
 40
2.188421798069978
100
AcDbArc
 50
13.20731410365529
 51
166.7926858963447
  0
SPLINE
  5
518
330
4D9
100
AcDbEntity
  8
0
  6
Continuous
 62
     7
370
    15
100
AcDbSpline
210
0.0
220
0.0
230
1.0
 70
    24
 71
     3
 72
    10
 73
     6
 74
     0
 42
0.0000000001
 43
0.0000000001
 40
0.0
 40
0.0
 40
0.0
 40
0.0
 40
0.5
 40
0.5
 40
1.0
 40
1.0
 40
1.0
 40
1.0
 10
1918.712892793065
 20
1184.405578728674
 30
0.0
 10
1918.716283531351
 20
1184.405578728674
 30
0.0
 10
1918.740659567126
 20
1184.405578728674
 30
0.0
 10
1918.81632214478
 20
1184.405578728674
 30
0.0
 10
1918.867041153953
 20
1184.405578728674
 30
0.0
 10
1918.918473380875
 20
1184.405578728674
 30
0.0
  0
SPLINE
  5
519
330
4D9
100
AcDbEntity
  8
0
  6
Continuous
 62
     7
370
    15
100
AcDbSpline
210
0.0
220
0.0
230
1.0
 70
    24
 71
     3
 72
    10
 73
     6
 74
     0
 42
0.0000000001
 43
0.0000000001
 40
0.0
 40
0.0
 40
0.0
 40
0.0
 40
0.5
 40
0.5
 40
1.0
 40
1.0
 40
1.0
 40
1.0
 10
1922.768387171162
 20
1184.405578728674
 30
0.0
 10
1922.819853754754
 20
1184.405578728674
 30
0.0
 10
1922.870252996721
 20
1184.405578728674
 30
0.0
 10
1922.946302995014
 20
1184.405578728674
 30
0.0
 10
1922.970574441652
 20
1184.405578728674
 30
0.0
 10
1922.973967758971
 20
1184.405578728674
 30
0.0
  0
ARC
  5
51A
330
4D9
100
AcDbEntity
  8
0
  6
Continuous
 62
     7
370
    15
100
AcDbCircle
 10
1935.84343027602
 20
1183.905578728674
 30
0.0
 40
2.188421798070006
100
AcDbArc
 50
13.20731410365529
 51
166.7926858963447
  0
SPLINE
  5
51B
330
4D9
100
AcDbEntity
  8
0
  6
Continuous
 62
     7
370
    15
100
AcDbSpline
210
0.0
220
0.0
230
1.0
 70
    24
 71
     3
 72
    10
 73
     6
 74
     0
 42
0.0000000001
 43
0.0000000001
 40
0.0
 40
0.0
 40
0.0
 40
0.0
 40
0.5
 40
0.5
 40
1.0
 40
1.0
 40
1.0
 40
1.0
 10
1933.918473380877
 20
1184.405578728674
 30
0.0
 10
1933.867006797284
 20
1184.405578728674
 30
0.0
 10
1933.816607555317
 20
1184.405578728674
 30
0.0
 10
1933.740557557024
 20
1184.405578728674
 30
0.0
 10
1933.716286110387
 20
1184.405578728674
 30
0.0
 10
1933.712892793067
 20
1184.405578728674
 30
0.0
  0
SPLINE
  5
51C
330
4D9
100
AcDbEntity
  8
0
  6
Continuous
 62
     7
370
    15
100
AcDbSpline
210
0.0
220
0.0
230
1.0
 70
    24
 71
     3
 72
    10
 73
     6
 74
     0
 42
0.0000000001
 43
0.0000000001
 40
0.0
 40
0.0
 40
0.0
 40
0.0
 40
0.5
 40
0.5
 40
1.0
 40
1.0
 40
1.0
 40
1.0
 10
1937.973967758973
 20
1184.405578728674
 30
0.0
 10
1937.970577020687
 20
1184.405578728674
 30
0.0
 10
1937.946200984913
 20
1184.405578728674
 30
0.0
 10
1937.870538407258
 20
1184.405578728674
 30
0.0
 10
1937.819819398085
 20
1184.405578728674
 30
0.0
 10
1937.768387171163
 20
1184.405578728674
 30
0.0
  0
ARC
  5
51D
330
4D9
100
AcDbEntity
  8
0
  6
Continuous
 62
     7
370
    15
100
AcDbCircle
 10
1965.84343027602
 20
1183.905578728674
 30
0.0
 40
2.188421798069978
100
AcDbArc
 50
13.20731410365529
 51
166.7926858963447
  0
SPLINE
  5
51E
330
4D9
100
AcDbEntity
  8
0
  6
Continuous
 62
     7
370
    15
100
AcDbSpline
210
0.0
220
0.0
230
1.0
 70
    24
 71
     3
 72
    10
 73
     6
 74
     0
 42
0.0000000001
 43
0.0000000001
 40
0.0
 40
0.0
 40
0.0
 40
0.0
 40
0.5
 40
0.5
 40
1.0
 40
1.0
 40
1.0
 40
1.0
 10
1963.918473380877
 20
1184.405578728674
 30
0.0
 10
1963.867006797284
 20
1184.405578728674
 30
0.0
 10
1963.816607555317
 20
1184.405578728674
 30
0.0
 10
1963.740557557025
 20
1184.405578728674
 30
0.0
 10
1963.716286110387
 20
1184.405578728674
 30
0.0
 10
1963.712892793067
 20
1184.405578728674
 30
0.0
  0
SPLINE
  5
51F
330
4D9
100
AcDbEntity
  8
0
  6
Continuous
 62
     7
370
    15
100
AcDbSpline
210
0.0
220
0.0
230
1.0
 70
    24
 71
     3
 72
    10
 73
     6
 74
     0
 42
0.0000000001
 43
0.0000000001
 40
0.0
 40
0.0
 40
0.0
 40
0.0
 40
0.5
 40
0.5
 40
1.0
 40
1.0
 40
1.0
 40
1.0
 10
1967.973967758973
 20
1184.405578728674
 30
0.0
 10
1967.970577020687
 20
1184.405578728674
 30
0.0
 10
1967.946200984912
 20
1184.405578728674
 30
0.0
 10
1967.870538407258
 20
1184.405578728674
 30
0.0
 10
1967.819819398085
 20
1184.405578728674
 30
0.0
 10
1967.768387171163
 20
1184.405578728674
 30
0.0
  0
LINE
  5
520
330
4D9
100
AcDbEntity
  8
0
  6
Continuous
 62
     7
370
    15
100
AcDbLine
 10
1939.34343027602
 20
1180.555578728674
 30
0.0
 11
1947.343430276018
 21
1180.555578728674
 31
0.0
  0
ARC
  5
521
330
4D9
100
AcDbEntity
  8
0
  6
Continuous
 62
     7
370
    15
100
AcDbCircle
 10
1935.84343027602
 20
1197.880578728678
 30
0.0
 40
17.67500000000498
100
AcDbArc
 50
258.5788137249941
 51
281.4211862749931
  0
LINE
  5
522
330
4D9
100
AcDbEntity
  8
0
  6
Continuous
 62
     7
370
    15
100
AcDbLine
 10
1924.34343027602
 20
1180.555578728673
 30
0.0
 11
1932.343430276018
 21
1180.555578728673
 31
0.0
  0
ARC
  5
523
330
4D9
100
AcDbEntity
  8
0
  6
Continuous
 62
     7
370
    15
100
AcDbCircle
 10
1920.843430276018
 20
1197.880578728678
 30
0.0
 40
17.67500000000501
100
AcDbArc
 50
258.5788137249941
 51
281.4211862750059
  0
LINE
  5
524
330
4D9
100
AcDbEntity
  8
0
  6
Continuous
 62
     7
370
    15
100
AcDbLine
 10
1915.143430276019
 20
1180.555578728673
 30
0.0
 11
1917.343430276017
 21
1180.555578728673
 31
0.0
  0
LINE
  5
525
330
4D9
100
AcDbEntity
  8
0
  6
Continuous
 62
     7
370
    15
100
AcDbLine
 10
1915.143430276019
 20
1187.255578728674
 30
0.0
 11
1915.143430276019
 21
1180.555578728673
 31
0.0
  0
LINE
  5
526
330
4D9
100
AcDbEntity
  8
0
  6
Continuous
 62
     7
370
    15
100
AcDbLine
 10
1917.343430276018
 20
1187.255578728674
 30
0.0
 11
1915.143430276019
 21
1187.255578728674
 31
0.0
  0
ARC
  5
527
330
4D9
100
AcDbEntity
  8
0
  6
Continuous
 62
     7
370
    15
100
AcDbCircle
 10
1920.843430276018
 20
1169.930578728669
 30
0.0
 40
17.67500000000479
100
AcDbArc
 50
78.57881372500691
 51
101.4211862749931
  0
LINE
  5
528
330
4D9
100
AcDbEntity
  8
0
  6
Continuous
 62
     7
370
    15
100
AcDbLine
 10
1932.34343027602
 20
1187.255578728674
 30
0.0
 11
1924.343430276018
 21
1187.255578728674
 31
0.0
  0
ARC
  5
529
330
4D9
100
AcDbEntity
  8
0
  6
Continuous
 62
     7
370
    15
100
AcDbCircle
 10
1935.84343027602
 20
1169.930578728669
 30
0.0
 40
17.67500000000485
100
AcDbArc
 50
78.57881372500691
 51
101.4211862749931
  0
LINE
  5
52A
330
4D9
100
AcDbEntity
  8
0
  6
Continuous
 62
     7
370
    15
100
AcDbLine
 10
1947.34343027602
 20
1187.255578728674
 30
0.0
 11
1939.34343027602
 21
1187.255578728674
 31
0.0
  0
ARC
  5
52B
330
4D9
100
AcDbEntity
  8
0
  6
Continuous
 62
     7
370
    15
100
AcDbCircle
 10
1950.84343027602
 20
1169.930578728669
 30
0.0
 40
17.67500000000479
100
AcDbArc
 50
78.57881372500691
 51
101.4211862749931
  0
LINE
  5
52C
330
4D9
100
AcDbEntity
  8
0
  6
Continuous
 62
     7
370
    15
100
AcDbLine
 10
1954.34343027602
 20
1187.255578728674
 30
0.0
 11
1962.34343027602
 21
1187.255578728674
 31
0.0
  0
ARC
  5
52D
330
4D9
100
AcDbEntity
  8
0
  6
Continuous
 62
     7
370
    15
100
AcDbCircle
 10
1965.84343027602
 20
1169.930578728669
 30
0.0
 40
17.67500000000479
100
AcDbArc
 50
78.57881372500691
 51
101.4211862749931
  0
LINE
  5
52E
330
4D9
100
AcDbEntity
  8
0
  6
Continuous
 62
     7
370
    15
100
AcDbLine
 10
1969.34343027602
 20
1187.255578728674
 30
0.0
 11
1971.54343027602
 21
1187.255578728674
 31
0.0
  0
LINE
  5
52F
330
4D9
100
AcDbEntity
  8
0
  6
Continuous
 62
     7
370
    15
100
AcDbLine
 10
1971.54343027602
 20
1187.255578728674
 30
0.0
 11
1971.54343027602
 21
1180.555578728674
 31
0.0
  0
LINE
  5
530
330
4D9
100
AcDbEntity
  8
0
  6
Continuous
 62
     7
370
    15
100
AcDbLine
 10
1971.54343027602
 20
1180.555578728674
 30
0.0
 11
1969.343430276022
 21
1180.555578728674
 31
0.0
  0
ARC
  5
531
330
4D9
100
AcDbEntity
  8
0
  6
Continuous
 62
     7
370
    15
100
AcDbCircle
 10
1965.84343027602
 20
1197.880578728679
 30
0.0
 40
17.67500000000503
100
AcDbArc
 50
258.5788137249941
 51
281.4211862750059
  0
LINE
  5
532
330
4D9
100
AcDbEntity
  8
0
  6
Continuous
 62
     7
370
    15
100
AcDbLine
 10
1962.343430276018
 20
1180.555578728674
 30
0.0
 11
1954.343430276022
 21
1180.555578728674
 31
0.0
  0
ARC
  5
533
330
4D9
100
AcDbEntity
  8
0
  6
Continuous
 62
     7
370
    15
100
AcDbCircle
 10
1950.84343027602
 20
1197.880578728678
 30
0.0
 40
17.675000000005
100
AcDbArc
 50
258.5788137249941
 51
281.4211862750059
  0
ENDBLK
  5
4DB
330
4D9
100
AcDbEntity
  8
0
100
AcDbBlockEnd
  0
BLOCK
  5
536
330
535
100
AcDbEntity
  8
0
100
AcDbBlockBegin
  2
4
 70
     0
 10
0.0
 20
0.0
 30
0.0
  3
4
  1

  0
LINE
  5
538
330
535
100
AcDbEntity
  8
0
  6
Continuous
 62
     7
370
    15
100
AcDbLine
 10
2035.92658087284
 20
1206.846778198923
 30
0.0
 11
2036.040167985881
 21
1211.398476281125
 31
0.0
  0
LINE
  5
539
330
535
100
AcDbEntity
  8
0
  6
Continuous
 62
     7
370
    15
100
AcDbLine
 10
2029.192299896637
 20
1211.569364058102
 30
0.0
 11
2029.078712783597
 21
1207.0176659759
 31
0.0
  0
SPLINE
  5
53A
330
535
100
AcDbEntity
  8
0
  6
Continuous
 62
     7
370
    15
100
AcDbSpline
210
0.0
220
0.0
230
1.0
 70
     8
 71
     3
 72
    25
 73
    21
 74
     0
 42
0.0000000001
 43
0.0000000001
 40
0.0
 40
0.0
 40
0.0
 40
0.0
 40
0.0360782683250562
 40
0.1006062685099942
 40
0.1607306630199754
 40
0.2219192293774044
 40
0.2838701040922318
 40
0.3461314717856415
 40
0.4083730982706319
 40
0.4703674217915431
 40
0.5320555833491295
 40
0.5933805651117054
 40
0.6542106181794447
 40
0.7142688287188474
 40
0.7729237765375153
 40
0.8284437525831696
 40
0.878024044672899
 40
0.9155265377354671
 40
0.9580813951279964
 40
0.9999999999999998
 40
0.9999999999999998
 40
0.9999999999999998
 40
0.9999999999999998
 10
2029.08331594591
 20
1207.027075382368
 30
0.0
 10
2029.081579514015
 20
1206.990592986413
 30
0.0
 10
2029.076737376583
 20
1206.888859785411
 30
0.0
 10
2029.110684502809
 20
1206.727062338772
 30
0.0
 10
2029.179056084643
 20
1206.546091162912
 30
0.0
 10
2029.279444988278
 20
1206.375506554521
 30
0.0
 10
2029.410325216451
 20
1206.21220016717
 30
0.0
 10
2029.570158443071
 20
1206.057851187355
 30
0.0
 10
2029.756384635565
 20
1205.913757363298
 30
0.0
 10
2029.96661875607
 20
1205.780807408574
 30
0.0
 10
2030.19841461793
 20
1205.65969976677
 30
0.0
 10
2030.449199236159
 20
1205.55107628286
 30
0.0
 10
2030.715828388807
 20
1205.455640274367
 30
0.0
 10
2030.993979732649
 20
1205.374179786199
 30
0.0
 10
2031.276376928857
 20
1205.307681740787
 30
0.0
 10
2031.55095984566
 20
1205.256995668708
 30
0.0
 10
2031.795755134254
 20
1205.222552192324
 30
0.0
 10
2032.021383712727
 20
1205.198863526375
 30
0.0
 10
2032.235619555134
 20
1205.182624028005
 30
0.0
 10
2032.384777532206
 20
1205.177508310941
 30
0.0
 10
2032.45879479321
 20
1205.174969718151
 30
0.0
  0
SPLINE
  5
53B
330
535
100
AcDbEntity
  8
0
  6
Continuous
 62
     7
370
    15
100
AcDbSpline
210
0.0
220
0.0
230
1.0
 70
     8
 71
     3
 72
    26
 73
    22
 74
     0
 42
0.0000000001
 43
0.0000000001
 40
0.0
 40
0.0
 40
0.0
 40
0.0
 40
0.0688319114878062
 40
0.0965767204735435
 40
0.142482180665167
 40
0.1898313505276182
 40
0.2403033072020586
 40
0.2926001477563399
 40
0.346205938540491
 40
0.4007181979814382
 40
0.4558667823106457
 40
0.5114697210384981
 40
0.5674114830086121
 40
0.6236278675212949
 40
0.6800925000570657
 40
0.736747018451837
 40
0.7935865131468339
 40
0.8506638019009773
 40
0.908210444064357
 40
0.9668102799998054
 40
1.0
 40
1.0
 40
1.0
 40
1.0
 10
2032.45879479321
 20
1205.174969718151
 30
0.0
 10
2032.580736341587
 20
1205.173695041489
 30
0.0
 10
2032.751830163873
 20
1205.17190656738
 30
0.0
 10
2033.002354486436
 20
1205.182141055862
 30
0.0
 10
2033.213460005501
 20
1205.196450578035
 30
0.0
 10
2033.460330633792
 20
1205.222690943883
 30
0.0
 10
2033.712518607442
 20
1205.259838301762
 30
0.0
 10
2033.967376110291
 20
1205.309051042436
 30
0.0
 10
2034.2188227081
 20
1205.370344729729
 30
0.0
 10
2034.462629725678
 20
1205.443608334116
 30
0.0
 10
2034.695310636727
 20
1205.528527827022
 30
0.0
 10
2034.914043694973
 20
1205.624704721137
 30
0.0
 10
2035.116521668292
 20
1205.731727549111
 30
0.0
 10
2035.300829928642
 20
1205.849241002296
 30
0.0
 10
2035.465232811186
 20
1205.976954498908
 30
0.0
 10
2035.608134761867
 20
1206.114668992366
 30
0.0
 10
2035.727699073047
 20
1206.262254940221
 30
0.0
 10
2035.8225988196
 20
1206.41965322144
 30
0.0
 10
2035.888577311483
 20
1206.586882604554
 30
0.0
 10
2035.924041485296
 20
1206.736282586598
 30
0.0
 10
2035.922845969912
 20
1206.829415995104
 30
0.0
 10
2035.922413689568
 20
1206.863091631939
 30
0.0
  0
LINE
  5
53C
330
535
100
AcDbEntity
  8
0
  6
Continuous
 62
     7
370
    15
100
AcDbLine
 10
2035.477685101533
 20
1205.894521515535
 30
0.0
 11
2035.480232107941
 21
1205.996585947616
 31
0.0
  0
LINE
  5
53D
330
535
100
AcDbEntity
  8
0
  6
Continuous
 62
     7
370
    15
100
AcDbLine
 10
2029.482165999495
 20
1206.148934461156
 30
0.0
 11
2029.479552468618
 21
1206.044204239895
 31
0.0
  0
LINE
  5
53E
330
535
100
AcDbEntity
  8
0
  6
Continuous
 62
     7
370
    15
100
AcDbLine
 10
2035.157824159684
 20
1193.026652227104
 30
0.0
 11
2035.331016127972
 21
1199.966854586413
 31
0.0
  0
LINE
  5
53F
330
535
100
AcDbEntity
  8
0
  6
Continuous
 62
     7
370
    15
100
AcDbLine
 10
2029.368321552104
 20
1201.536622142354
 30
0.0
 11
2029.15969152677
 21
1193.176334951464
 31
0.0
  0
LINE
  5
540
330
535
100
AcDbEntity
  8
0
  6
Continuous
 62
     7
370
    15
100
AcDbLine
 10
2024.829617601302
 20
1211.933852887336
 30
0.0
 11
2024.943204714343
 21
1216.485550969538
 31
0.0
  0
LINE
  5
541
330
535
100
AcDbEntity
  8
0
  6
Continuous
 62
     7
370
    15
100
AcDbLine
 10
2018.095336625099
 20
1216.656438746515
 30
0.0
 11
2017.981749512059
 21
1212.104740664313
 31
0.0
  0
LINE
  5
542
330
535
100
AcDbEntity
  8
0
  6
Continuous
 62
     7
370
    15
100
AcDbLine
 10
2029.637398598888
 20
1192.364736461138
 30
0.0
 11
2029.801120480025
 21
1192.238788292189
 31
0.0
  0
LINE
  5
543
330
535
100
AcDbEntity
  8
0
  6
Continuous
 62
     7
370
    15
100
AcDbLine
 10
2034.470429983659
 20
1192.122266199372
 30
0.0
 11
2034.640230209848
 21
1192.239891361694
 31
0.0
  0
SPLINE
  5
544
330
535
100
AcDbEntity
  8
0
  6
Continuous
 62
     7
370
    15
100
AcDbSpline
210
0.0
220
0.0
230
1.0
 70
     8
 71
     3
 72
    25
 73
    21
 74
     0
 42
0.0000000001
 43
0.0000000001
 40
0.0
 40
0.0
 40
0.0
 40
0.0
 40
0.0360782683250868
 40
0.1006062685100381
 40
0.1607306630200388
 40
0.2219192293774706
 40
0.2838701040923023
 40
0.34613147178571
 40
0.4083730982707051
 40
0.470367421791618
 40
0.5320555833492068
 40
0.5933805651117867
 40
0.6542106181795195
 40
0.7142688287189156
 40
0.772923776537588
 40
0.8284437525832233
 40
0.8780240446729383
 40
0.9155265377355155
 40
0.9580813951280733
 40
0.9999999999999998
 40
0.9999999999999998
 40
0.9999999999999998
 40
0.9999999999999998
 10
2017.986352674371
 20
1212.11415007078
 30
0.0
 10
2017.984616242476
 20
1212.077667674825
 30
0.0
 10
2017.979774105045
 20
1211.975934473823
 30
0.0
 10
2018.013721231271
 20
1211.814137027183
 30
0.0
 10
2018.082092813105
 20
1211.633165851324
 30
0.0
 10
2018.18248171674
 20
1211.462581242933
 30
0.0
 10
2018.313361944912
 20
1211.299274855583
 30
0.0
 10
2018.473195171533
 20
1211.144925875767
 30
0.0
 10
2018.659421364027
 20
1211.00083205171
 30
0.0
 10
2018.869655484532
 20
1210.867882096986
 30
0.0
 10
2019.101451346392
 20
1210.746774455182
 30
0.0
 10
2019.352235964621
 20
1210.638150971272
 30
0.0
 10
2019.61886511727
 20
1210.542714962779
 30
0.0
 10
2019.897016461111
 20
1210.461254474611
 30
0.0
 10
2020.17941365732
 20
1210.394756429199
 30
0.0
 10
2020.453996574122
 20
1210.34407035712
 30
0.0
 10
2020.698791862716
 20
1210.309626880736
 30
0.0
 10
2020.924420441189
 20
1210.285938214787
 30
0.0
 10
2021.138656283596
 20
1210.269698716417
 30
0.0
 10
2021.287814260668
 20
1210.264582999353
 30
0.0
 10
2021.361831521672
 20
1210.262044406563
 30
0.0
  0
SPLINE
  5
545
330
535
100
AcDbEntity
  8
0
  6
Continuous
 62
     7
370
    15
100
AcDbSpline
210
0.0
220
0.0
230
1.0
 70
     8
 71
     3
 72
    26
 73
    22
 74
     0
 42
0.0000000001
 43
0.0000000001
 40
0.0
 40
0.0
 40
0.0
 40
0.0
 40
0.0688319114878207
 40
0.0965767204735638
 40
0.1424821806650933
 40
0.1898313505275711
 40
0.2403033072020096
 40
0.2926001477562844
 40
0.3462059385404462
 40
0.400718197981399
 40
0.4558667823106254
 40
0.5114697210384779
 40
0.5674114830085787
 40
0.623627867521264
 40
0.680092500057037
 40
0.7367470184517967
 40
0.7935865131467854
 40
0.8506638019009228
 40
0.908210444064297
 40
0.9668102799997663
 40
1.0
 40
1.0
 40
1.0
 40
1.0
 10
2021.361831521672
 20
1210.262044406563
 30
0.0
 10
2021.483773070049
 20
1210.260769729902
 30
0.0
 10
2021.654866892335
 20
1210.258981255792
 30
0.0
 10
2021.905391214898
 20
1210.269215744274
 30
0.0
 10
2022.116496733963
 20
1210.283525266447
 30
0.0
 10
2022.363367362253
 20
1210.309765632295
 30
0.0
 10
2022.615555335903
 20
1210.346912990174
 30
0.0
 10
2022.870412838753
 20
1210.396125730848
 30
0.0
 10
2023.121859436562
 20
1210.457419418141
 30
0.0
 10
2023.365666454139
 20
1210.530683022528
 30
0.0
 10
2023.598347365188
 20
1210.615602515435
 30
0.0
 10
2023.817080423435
 20
1210.71177940955
 30
0.0
 10
2024.019558396754
 20
1210.818802237523
 30
0.0
 10
2024.203866657103
 20
1210.936315690708
 30
0.0
 10
2024.368269539648
 20
1211.06402918732
 30
0.0
 10
2024.511171490328
 20
1211.201743680779
 30
0.0
 10
2024.630735801509
 20
1211.349329628633
 30
0.0
 10
2024.725635548061
 20
1211.506727909852
 30
0.0
 10
2024.791614039945
 20
1211.673957292966
 30
0.0
 10
2024.827078213759
 20
1211.82335727501
 30
0.0
 10
2024.825882698374
 20
1211.916490683516
 30
0.0
 10
2024.82545041803
 20
1211.950166320351
 30
0.0
  0
LINE
  5
546
330
535
100
AcDbEntity
  8
0
  6
Continuous
 62
     7
370
    15
100
AcDbLine
 10
2024.380721829994
 20
1210.981596203948
 30
0.0
 11
2024.383268836403
 21
1211.083660636028
 31
0.0
  0
LINE
  5
547
330
535
100
AcDbEntity
  8
0
  6
Continuous
 62
     7
370
    15
100
AcDbLine
 10
2018.385202727957
 20
1211.236009149568
 30
0.0
 11
2018.38258919708
 21
1211.131278928307
 31
0.0
  0
LINE
  5
548
330
535
100
AcDbEntity
  8
0
  6
Continuous
 62
     7
370
    15
100
AcDbLine
 10
2024.060860888146
 20
1198.113726915517
 30
0.0
 11
2024.210731228539
 21
1204.11937775639
 31
0.0
  0
LINE
  5
549
330
535
100
AcDbEntity
  8
0
  6
Continuous
 62
     7
370
    15
100
AcDbLine
 10
2018.271358280566
 20
1206.623696830766
 30
0.0
 11
2018.062728255232
 21
1198.263409639876
 31
0.0
  0
LINE
  5
54A
330
535
100
AcDbEntity
  8
0
  6
Continuous
 62
     7
370
    15
100
AcDbLine
 10
2013.732654329764
 20
1217.020927575748
 30
0.0
 11
2013.846241442804
 21
1221.57262565795
 31
0.0
  0
LINE
  5
54B
330
535
100
AcDbEntity
  8
0
  6
Continuous
 62
     7
370
    15
100
AcDbLine
 10
2006.998373353561
 20
1221.743513434927
 30
0.0
 11
2006.884786240521
 21
1217.191815352725
 31
0.0
  0
LINE
  5
54C
330
535
100
AcDbEntity
  8
0
  6
Continuous
 62
     7
370
    15
100
AcDbLine
 10
2018.54043532735
 20
1197.451811149551
 30
0.0
 11
2018.704157208487
 21
1197.325862980601
 31
0.0
  0
LINE
  5
54D
330
535
100
AcDbEntity
  8
0
  6
Continuous
 62
     7
370
    15
100
AcDbLine
 10
2023.373466712121
 20
1197.209340887784
 30
0.0
 11
2023.543266938309
 21
1197.326966050106
 31
0.0
  0
SPLINE
  5
54E
330
535
100
AcDbEntity
  8
0
  6
Continuous
 62
     7
370
    15
100
AcDbSpline
210
0.0
220
0.0
230
1.0
 70
     8
 71
     3
 72
    25
 73
    21
 74
     0
 42
0.0000000001
 43
0.0000000001
 40
0.0
 40
0.0
 40
0.0
 40
0.0
 40
0.0360782683250865
 40
0.1006062685100449
 40
0.1607306630200416
 40
0.2219192293774762
 40
0.283870104092311
 40
0.3461314717857157
 40
0.4083730982707082
 40
0.4703674217916204
 40
0.5320555833492056
 40
0.5933805651117816
 40
0.654210618179519
 40
0.7142688287189128
 40
0.7729237765375845
 40
0.8284437525832281
 40
0.8780240446729379
 40
0.9155265377355055
 40
0.9580813951280337
 40
1.0
 40
1.0
 40
1.0
 40
1.0
 10
2006.889389402834
 20
1217.201224759192
 30
0.0
 10
2006.887652970938
 20
1217.164742363237
 30
0.0
 10
2006.882810833507
 20
1217.063009162236
 30
0.0
 10
2006.916757959733
 20
1216.901211715596
 30
0.0
 10
2006.985129541567
 20
1216.720240539736
 30
0.0
 10
2007.085518445202
 20
1216.549655931345
 30
0.0
 10
2007.216398673374
 20
1216.386349543995
 30
0.0
 10
2007.376231899995
 20
1216.23200056418
 30
0.0
 10
2007.562458092489
 20
1216.087906740123
 30
0.0
 10
2007.772692212995
 20
1215.954956785399
 30
0.0
 10
2008.004488074854
 20
1215.833849143594
 30
0.0
 10
2008.255272693083
 20
1215.725225659685
 30
0.0
 10
2008.521901845732
 20
1215.629789651191
 30
0.0
 10
2008.800053189573
 20
1215.548329163023
 30
0.0
 10
2009.082450385782
 20
1215.481831117611
 30
0.0
 10
2009.357033302584
 20
1215.431145045533
 30
0.0
 10
2009.601828591178
 20
1215.396701569148
 30
0.0
 10
2009.827457169651
 20
1215.373012903199
 30
0.0
 10
2010.041693012059
 20
1215.356773404829
 30
0.0
 10
2010.19085098913
 20
1215.351657687765
 30
0.0
 10
2010.264868250134
 20
1215.349119094975
 30
0.0
  0
SPLINE
  5
54F
330
535
100
AcDbEntity
  8
0
  6
Continuous
 62
     7
370
    15
100
AcDbSpline
210
0.0
220
0.0
230
1.0
 70
     8
 71
     3
 72
    26
 73
    22
 74
     0
 42
0.0000000001
 43
0.0000000001
 40
0.0
 40
0.0
 40
0.0
 40
0.0
 40
0.0688319114878068
 40
0.0965767204735442
 40
0.1424821806651189
 40
0.1898313505275881
 40
0.240303307202025
 40
0.29260014775631
 40
0.3462059385404572
 40
0.4007181979814125
 40
0.4558667823106205
 40
0.5114697210384862
 40
0.5674114830085907
 40
0.6236278675212727
 40
0.6800925000570496
 40
0.7367470184518119
 40
0.793586513146809
 40
0.850663801900953
 40
0.9082104440643195
 40
0.9668102799997761
 40
0.9999999999999998
 40
0.9999999999999998
 40
0.9999999999999998
 40
0.9999999999999998
 10
2010.264868250134
 20
1215.349119094975
 30
0.0
 10
2010.386809798511
 20
1215.347844418314
 30
0.0
 10
2010.557903620798
 20
1215.346055944205
 30
0.0
 10
2010.80842794336
 20
1215.356290432686
 30
0.0
 10
2011.019533462425
 20
1215.370599954859
 30
0.0
 10
2011.266404090715
 20
1215.396840320707
 30
0.0
 10
2011.518592064366
 20
1215.433987678586
 30
0.0
 10
2011.773449567215
 20
1215.483200419261
 30
0.0
 10
2012.024896165024
 20
1215.544494106554
 30
0.0
 10
2012.268703182602
 20
1215.61775771094
 30
0.0
 10
2012.501384093651
 20
1215.702677203847
 30
0.0
 10
2012.720117151897
 20
1215.798854097962
 30
0.0
 10
2012.922595125216
 20
1215.905876925935
 30
0.0
 10
2013.106903385565
 20
1216.02339037912
 30
0.0
 10
2013.27130626811
 20
1216.151103875732
 30
0.0
 10
2013.41420821879
 20
1216.288818369191
 30
0.0
 10
2013.533772529971
 20
1216.436404317046
 30
0.0
 10
2013.628672276523
 20
1216.593802598264
 30
0.0
 10
2013.694650768407
 20
1216.761031981378
 30
0.0
 10
2013.73011494222
 20
1216.910431963423
 30
0.0
 10
2013.728919426836
 20
1217.003565371928
 30
0.0
 10
2013.728487146492
 20
1217.037241008763
 30
0.0
  0
LINE
  5
550
330
535
100
AcDbEntity
  8
0
  6
Continuous
 62
     7
370
    15
100
AcDbLine
 10
2013.283758558456
 20
1216.06867089236
 30
0.0
 11
2013.286305564864
 21
1216.17073532444
 31
0.0
  0
LINE
  5
551
330
535
100
AcDbEntity
  8
0
  6
Continuous
 62
     7
370
    15
100
AcDbLine
 10
2007.288239456419
 20
1216.32308383798
 30
0.0
 11
2007.285625925542
 21
1216.218353616719
 31
0.0
  0
LINE
  5
552
330
535
100
AcDbEntity
  8
0
  6
Continuous
 62
     7
370
    15
100
AcDbLine
 10
2012.963897616609
 20
1203.200801603929
 30
0.0
 11
2013.113767957001
 21
1209.206452444803
 31
0.0
  0
LINE
  5
553
330
535
100
AcDbEntity
  8
0
  6
Continuous
 62
     7
370
    15
100
AcDbLine
 10
2007.174395009028
 20
1211.710771519178
 30
0.0
 11
2006.965764983695
 21
1203.350484328288
 31
0.0
  0
LINE
  5
554
330
535
100
AcDbEntity
  8
0
  6
Continuous
 62
     7
370
    15
100
AcDbLine
 10
2002.635691058225
 20
1222.108002264161
 30
0.0
 11
2002.749278171265
 21
1226.659700346363
 31
0.0
  0
LINE
  5
555
330
535
100
AcDbEntity
  8
0
  6
Continuous
 62
     7
370
    15
100
AcDbLine
 10
1995.901410082022
 20
1226.83058812334
 30
0.0
 11
1995.787822968981
 21
1222.278890041138
 31
0.0
  0
LINE
  5
556
330
535
100
AcDbEntity
  8
0
  6
Continuous
 62
     7
370
    15
100
AcDbLine
 10
2007.443472055812
 20
1202.538885837963
 30
0.0
 11
2007.607193936949
 21
1202.412937669013
 31
0.0
  0
LINE
  5
557
330
535
100
AcDbEntity
  8
0
  6
Continuous
 62
     7
370
    15
100
AcDbLine
 10
2012.276503440583
 20
1202.296415576196
 30
0.0
 11
2012.446303666772
 21
1202.414040738518
 31
0.0
  0
SPLINE
  5
558
330
535
100
AcDbEntity
  8
0
  6
Continuous
 62
     7
370
    15
100
AcDbSpline
210
0.0
220
0.0
230
1.0
 70
     8
 71
     3
 72
    44
 73
    40
 74
     0
 42
0.0000000001
 43
0.0000000001
 40
0.0
 40
0.0
 40
0.0
 40
0.0
 40
0.0153483879173015
 40
0.0476931007934006
 40
0.07783050272281
 40
0.1085013216612324
 40
0.1395542482873647
 40
0.170762809772988
 40
0.201961475961746
 40
0.2330361813374672
 40
0.2639574227786333
 40
0.2946966200504732
 40
0.3251877339091746
 40
0.3552919610691856
 40
0.3846928016425774
 40
0.4125222350503564
 40
0.4373743970166221
 40
0.4561725523406511
 40
0.4775032094174535
 40
0.4985149444032095
 40
0.5330945464035468
 40
0.5470329135310376
 40
0.5700947827845618
 40
0.5938819392595292
 40
0.6192379134930345
 40
0.6455106682851853
 40
0.6724410101908049
 40
0.6998267415328447
 40
0.7275321481665446
 40
0.7554658122165195
 40
0.7835696934319424
 40
0.8118115388273256
 40
0.8401780984381231
 40
0.8686400524276011
 40
0.8971949343440204
 40
0.9258692786398295
 40
0.9547794155170119
 40
0.9842186532238113
 40
1.0
 40
1.0
 40
1.0
 40
1.0
 10
1995.792145644661
 20
1222.271750687295
 30
0.0
 10
1995.790764515465
 20
1222.24078915262
 30
0.0
 10
1995.78647283778
 20
1222.144580247689
 30
0.0
 10
1995.819962851312
 20
1221.988289363702
 30
0.0
 10
1995.888121718054
 20
1221.807314444034
 30
0.0
 10
1995.988567364522
 20
1221.636730834299
 30
0.0
 10
1996.119432099843
 20
1221.47342417437
 30
0.0
 10
1996.279269514894
 20
1221.319075267902
 30
0.0
 10
1996.465494584513
 20
1221.174981425464
 30
0.0
 10
1996.6757290042
 20
1221.042031470876
 30
0.0
 10
1996.907524787261
 20
1220.920923846685
 30
0.0
 10
1997.158309423511
 20
1220.812300292843
 30
0.0
 10
1997.424938582089
 20
1220.716864543176
 30
0.0
 10
1997.703089885303
 20
1220.635403109525
 30
0.0
 10
1997.985487231595
 20
1220.568908443351
 30
0.0
 10
1998.260069637032
 20
1220.518210884412
 30
0.0
 10
1998.504866486266
 20
1220.483802459009
 30
0.0
 10
1998.730490518764
 20
1220.460011694778
 30
0.0
 10
1998.944744316977
 20
1220.444175466421
 30
0.0
 10
1999.215632153568
 20
1220.433030742751
 30
0.0
 10
1999.460954087383
 20
1220.433439177399
 30
0.0
 10
1999.71146063922
 20
1220.443274552531
 30
0.0
 10
1999.922571530021
 20
1220.457704718758
 30
0.0
 10
2000.169440429402
 20
1220.483906254893
 30
0.0
 10
2000.4216289043
 20
1220.521064870454
 30
0.0
 10
2000.67648626457
 20
1220.57027440827
 30
0.0
 10
2000.927932901991
 20
1220.631568987821
 30
0.0
 10
2001.171739909076
 20
1220.704832346637
 30
0.0
 10
2001.404420821437
 20
1220.789751906656
 30
0.0
 10
2001.623153885186
 20
1220.885928782222
 30
0.0
 10
2001.825631834945
 20
1220.992951616465
 30
0.0
 10
2002.009940184634
 20
1221.11046506325
 30
0.0
 10
2002.174342731427
 20
1221.238178579272
 30
0.0
 10
2002.317245941741
 20
1221.375893001163
 30
0.0
 10
2002.43680552735
 20
1221.523479217171
 30
0.0
 10
2002.531723041451
 20
1221.680876490259
 30
0.0
 10
2002.597634230943
 20
1221.848109692089
 30
0.0
 10
2002.632892765968
 20
1221.995720251974
 30
0.0
 10
2002.631810187123
 20
1222.087046162469
 30
0.0
 10
2002.631432382361
 20
1222.118917618348
 30
0.0
  0
LINE
  5
559
330
535
100
AcDbEntity
  8
0
  6
Continuous
 62
     7
370
    15
100
AcDbLine
 10
2002.186795286917
 20
1221.155745580773
 30
0.0
 11
2002.189342293325
 21
1221.257810012853
 31
0.0
  0
LINE
  5
55A
330
535
100
AcDbEntity
  8
0
  6
Continuous
 62
     7
370
    15
100
AcDbLine
 10
1996.19127618488
 20
1221.410158526393
 30
0.0
 11
1996.188662654003
 21
1221.305428305133
 31
0.0
  0
LINE
  5
55B
330
535
100
AcDbEntity
  8
0
  6
Continuous
 62
     7
370
    15
100
AcDbLine
 10
2001.864452166575
 20
1208.289014173677
 30
0.0
 11
2002.014322506968
 21
1214.294665014551
 31
0.0
  0
LINE
  5
55C
330
535
100
AcDbEntity
  8
0
  6
Continuous
 62
     7
370
    15
100
AcDbLine
 10
1996.074951916798
 20
1216.799078571529
 30
0.0
 11
1995.866319533661
 21
1208.438696898037
 31
0.0
  0
LINE
  5
55D
330
535
100
AcDbEntity
  8
0
  6
Continuous
 62
     7
370
    15
100
AcDbLine
 10
1996.344026605779
 20
1207.627098407711
 30
0.0
 11
1996.507748486916
 21
1207.501150238762
 31
0.0
  0
LINE
  5
55E
330
535
100
AcDbEntity
  8
0
  6
Continuous
 62
     7
370
    15
100
AcDbLine
 10
2001.17705799055
 20
1207.384628145945
 30
0.0
 11
2001.346858216738
 21
1207.502253308267
 31
0.0
  0
LWPOLYLINE
  5
55F
330
535
100
AcDbEntity
  8
0
  6
Continuous
 62
     7
370
    15
100
AcDbPolyline
 90
       49
 70
   128
 43
0.0
 10
2030.785235001452
 20
1212.323287493211
 10
2030.583654883824
 20
1212.204764259281
 10
2030.416852757406
 20
1212.073907183121
 10
2030.287682652827
 20
1211.932955265585
 10
2030.19835470639
 20
1211.784320233061
 10
2030.150397344024
 20
1211.630545272165
 10
2030.144631129496
 20
1211.474261515112
 10
2030.181154724335
 20
1211.318143020316
 10
2030.259343199707
 20
1211.164861018506
 10
2030.37785872912
 20
1211.017038207232
 10
2030.534673479008
 20
1210.877203875779
 10
2030.727104305523
 20
1210.747750628327
 10
2030.951858663871
 20
1210.630893445831
 10
2031.205090944666
 20
1210.528631787083
 10
2031.482468273377
 20
1210.442715377416
 10
2031.779244647004
 20
1210.37461427042
 10
2032.090342139513
 20
1210.325493694917
 10
2032.410437786555
 20
1210.296194117573
 10
2032.734054662861
 20
1210.287216862279
 10
2033.055655593955
 20
1210.298715532363
 10
2033.36973789874
 20
1210.330493382391
 10
2033.670927541902
 20
1210.382006684539
 10
2033.95407108514
 20
1210.452374031925
 10
2034.214323863928
 20
1210.540391419726
 10
2034.447232881066
 20
1210.644552846032
 10
2034.648812998694
 20
1210.763076079962
 10
2034.815615125112
 20
1210.893933156122
 10
2034.944785229691
 20
1211.034885073658
 10
2035.034113176128
 20
1211.183520106182
 10
2035.082070538494
 20
1211.337295067078
 10
2035.087836753022
 20
1211.493578824131
 10
2035.051313158183
 20
1211.649697318927
 10
2034.973124682811
 20
1211.802979320737
 10
2034.854609153398
 20
1211.950802132011
 10
2034.69779440351
 20
1212.090636463464
 10
2034.505363576995
 20
1212.220089710916
 10
2034.280609218647
 20
1212.336946893412
 10
2034.027376937851
 20
1212.439208552161
 10
2033.749999609141
 20
1212.525124961828
 10
2033.453223235514
 20
1212.593226068823
 10
2033.142125743005
 20
1212.642346644326
 10
2032.822030095963
 20
1212.67164622167
 10
2032.498413219657
 20
1212.680623476964
 10
2032.176812288563
 20
1212.66912480688
 10
2031.862729983778
 20
1212.637346956852
 10
2031.561540340616
 20
1212.585833654704
 10
2031.278396797377
 20
1212.515466307318
 10
2031.018144018589
 20
1212.427448919518
 10
2030.785235001452
 20
1212.323287493211
  0
LWPOLYLINE
  5
560
330
535
100
AcDbEntity
  8
0
  6
Continuous
 62
     7
370
    15
100
AcDbPolyline
 90
       58
 70
   128
 43
0.0
 10
2035.150040554927
 20
1210.322371449093
 10
2035.38803590312
 20
1210.459280591081
 10
2035.592385330279
 20
1210.608627469538
 10
2035.760608311177
 20
1210.768599215672
 10
2035.890662846707
 20
1210.937253989186
 10
2035.980970250983
 20
1211.112544549598
 10
2036.030434314452
 20
1211.292343106958
 10
2036.038454610388
 20
1211.474467150341
 10
2036.004933783265
 20
1211.656705940573
 10
2035.930278730514
 20
1211.836847345608
 10
2035.815395663345
 20
1212.012704692813
 10
2035.66167910657
 20
1212.182143312217
 10
2035.470994970957
 20
1212.343106448509
 10
2035.245657903605
 20
1212.493640227259
 10
2034.988403191263
 20
1212.631917372312
 10
2034.702353557651
 20
1212.756259386443
 10
2034.390981257828
 20
1212.865156926038
 10
2034.058065929719
 20
1212.957288122483
 10
2033.707648714428
 20
1213.031534627857
 10
2033.343983202259
 20
1213.086995190162
 10
2032.971483799898
 20
1213.122996593301
 10
2032.594672145487
 20
1213.139101829007
 10
2032.218122222067
 20
1213.135115401538
 10
2031.846404835623
 20
1213.111085700721
 10
2031.484032131683
 20
1213.067304414573
 10
2031.13540282399
 20
1213.004302988601
 10
2030.804748800074
 20
1212.922846174771
 10
2030.496083751868
 20
1212.82392274846
 10
2030.213154454931
 20
1212.708733506057
 10
2029.959395287659
 20
1212.578676688925
 10
2029.737886542594
 20
1212.435331010645
 10
2029.551317035835
 20
1212.280436493571
 10
2029.401951468462
 20
1212.115873347314
 10
2029.291602936126
 20
1211.943639145546
 10
2029.221610920528
 20
1211.765824578162
 10
2029.192825029923
 20
1211.584588073135
 10
2029.20559468603
 20
1211.402129596129
 10
2029.259764882521
 20
1211.220663945888
 10
2029.35467806659
 20
1211.042393869587
 10
2029.489182120759
 20
1210.86948332446
 10
2029.661644348011
 20
1210.704031210296
 10
2029.869971290532
 20
1210.548045891633
 10
2030.111634141447
 20
1210.403420818934
 10
2030.38369944111
 20
1210.27191154467
 10
2030.682864685335
 20
1210.155114413283
 10
2031.005498413315
 20
1210.054447183729
 10
2031.347684288643
 20
1209.971131819809
 10
2031.705268638332
 20
1209.906179657178
 10
2032.073910872772
 20
1209.860379127104
 10
2032.449136174613
 20
1209.834286185978
 10
2032.826389816984
 20
1209.828217566762
 10
2033.201092451709
 20
1209.842246934269
 10
2033.568695696388
 20
1209.876203990984
 10
2033.924737345598
 20
1209.929676544237
 10
2034.264895536025
 20
1210.002015509668
 10
2034.585041208027
 20
1210.09234279023
 10
2034.881288226829
 20
1210.199561935097
 10
2035.150040554927
 20
1210.322371449093
  0
LINE
  5
561
330
535
100
AcDbEntity
  8
0
  6
Continuous
 62
     7
370
    15
100
AcDbLine
 10
2035.92658087284
 20
1206.846778198923
 30
0.0
 11
2035.926804879352
 21
1206.860429468532
 31
0.0
  0
LWPOLYLINE
  5
562
330
535
100
AcDbEntity
  8
0
  6
Continuous
 62
     7
370
    15
100
AcDbPolyline
 90
       22
 70
   128
 43
0.0
 10
2034.698011439383
 20
1204.951947940033
 10
2034.443826533423
 20
1204.836797955973
 10
2034.162054418464
 20
1204.737546700801
 10
2033.856650557348
 20
1204.655587444579
 10
2033.531902150834
 20
1204.592070715607
 10
2033.192367954689
 20
1204.547888149529
 10
2032.84281428476
 20
1204.523659972723
 10
2032.488148108343
 20
1204.519726295684
 10
2032.133348161115
 20
1204.536142338615
 10
2031.783395056605
 20
1204.572677656256
 10
2031.443201369294
 20
1204.628819372834
 10
2031.117542672837
 20
1204.703779381714
 10
2030.81099050148
 20
1204.796505408683
 10
2030.527848175739
 20
1204.905695783583
 10
2030.272090393211
 20
1205.029817712898
 10
2030.047307432535
 20
1205.167128796819
 10
2029.856654753748
 20
1205.315701488716
 10
2029.702808702545
 20
1205.473450153671
 10
2029.58792894025
 20
1205.638160346218
 10
2029.513628126907
 20
1205.807519896302
 10
2029.480949283064
 20
1205.979151367081
 10
2029.479552468618
 20
1206.044204239895
  0
ARC
  5
563
330
535
100
AcDbEntity
  8
0
  6
Continuous
 62
     7
370
    15
100
AcDbCircle
 10
2034.271682702959
 20
1206.098346796985
 30
0.0
 40
1.223105281944674
100
AcDbArc
 50
290.3994214531874
 51
350.407147948272
  0
LWPOLYLINE
  5
564
330
535
100
AcDbEntity
  8
0
  6
Continuous
 62
     7
370
    15
100
AcDbPolyline
 90
       22
 70
   128
 43
0.0
 10
2012.504084896307
 20
1215.126097316857
 10
2012.249899990346
 20
1215.010947332797
 10
2011.968127875388
 20
1214.911696077626
 10
2011.662724014273
 20
1214.829736821403
 10
2011.337975607758
 20
1214.766220092431
 10
2010.998441411613
 20
1214.722037526353
 10
2010.648887741685
 20
1214.697809349548
 10
2010.294221565267
 20
1214.693875672509
 10
2009.93942161804
 20
1214.710291715439
 10
2009.58946851353
 20
1214.74682703308
 10
2009.249274826218
 20
1214.802968749659
 10
2008.923616129761
 20
1214.877928758538
 10
2008.617063958405
 20
1214.970654785508
 10
2008.333921632663
 20
1215.079845160408
 10
2008.078163850135
 20
1215.203967089723
 10
2007.853380889459
 20
1215.341278173643
 10
2007.662728210672
 20
1215.48985086554
 10
2007.508882159469
 20
1215.647599530496
 10
2007.394002397175
 20
1215.812309723042
 10
2007.31970158383
 20
1215.981669273126
 10
2007.287022739987
 20
1216.153300743906
 10
2007.285625925542
 20
1216.218353616719
  0
ARC
  5
565
330
535
100
AcDbEntity
  8
0
  6
Continuous
 62
     7
370
    15
100
AcDbCircle
 10
2012.077756159884
 20
1216.272496173809
 30
0.0
 40
1.22310528194481
100
AcDbArc
 50
290.3994214531874
 51
350.4071479482591
  0
LWPOLYLINE
  5
566
330
535
100
AcDbEntity
  8
0
  6
Continuous
 62
     7
370
    15
100
AcDbPolyline
 90
       28
 70
   128
 43
0.0
 10
1996.188662654003
 20
1221.305428305133
 10
1996.201153663024
 20
1221.154425937775
 10
1996.254737599383
 20
1220.983630464679
 10
1996.349494305395
 20
1220.816301719203
 10
1996.484093604618
 20
1220.654788630144
 10
1996.656646017935
 20
1220.501358487231
 10
1996.864729287704
 20
1220.358165113348
 10
1997.10542238094
 20
1220.227218629581
 10
1997.375346494221
 20
1220.110357237523
 10
1997.670712484676
 20
1220.009221414955
 10
1997.987374061252
 20
1219.925230887134
 10
1998.320885989542
 20
1219.859564696961
 10
1998.666566493141
 20
1219.813144653804
 10
1999.019562975519
 20
1219.786622393315
 10
1999.374920139841
 20
1219.780370229893
 10
1999.727649550474
 20
1219.794475930209
 10
2000.072799659684
 20
1219.828741481149
 10
2000.405525316516
 20
1219.88268586949
 10
2000.721155782092
 20
1219.955551834267
 10
2001.015260296546
 20
1220.046316497058
 10
2001.283710277179
 20
1220.153705720957
 10
2001.522737274714
 20
1220.276211996659
 10
2001.728985874058
 20
1220.412115604592
 10
2001.89956079698
 20
1220.559508756005
 10
2002.032067545466
 20
1220.71632237414
 10
2002.124646015226
 20
1220.88035513954
 10
2002.175996607479
 20
1221.049304391742
 10
2002.186795286917
 20
1221.155745580773
  0
LWPOLYLINE
  5
567
330
535
100
AcDbEntity
  8
0
  6
Continuous
 62
     7
370
    15
100
AcDbPolyline
 90
       22
 70
   128
 43
0.0
 10
2023.601048167845
 20
1210.039022628445
 10
2023.346863261885
 20
1209.923872644385
 10
2023.065091146926
 20
1209.824621389213
 10
2022.759687285811
 20
1209.742662132991
 10
2022.434938879296
 20
1209.679145404019
 10
2022.095404683151
 20
1209.634962837941
 10
2021.745851013223
 20
1209.610734661136
 10
2021.391184836805
 20
1209.606800984097
 10
2021.036384889578
 20
1209.623217027027
 10
2020.686431785067
 20
1209.659752344668
 10
2020.346238097756
 20
1209.715894061246
 10
2020.020579401299
 20
1209.790854070126
 10
2019.714027229943
 20
1209.883580097096
 10
2019.430884904201
 20
1209.992770471996
 10
2019.175127121673
 20
1210.116892401311
 10
2018.950344160997
 20
1210.254203485231
 10
2018.75969148221
 20
1210.402776177128
 10
2018.605845431007
 20
1210.560524842083
 10
2018.490965668712
 20
1210.72523503463
 10
2018.416664855369
 20
1210.894594584714
 10
2018.383986011525
 20
1211.066226055493
 10
2018.38258919708
 20
1211.131278928307
  0
ARC
  5
568
330
535
100
AcDbEntity
  8
0
  6
Continuous
 62
     7
370
    15
100
AcDbCircle
 10
2023.174719431422
 20
1211.185421485397
 30
0.0
 40
1.223105281944508
100
AcDbArc
 50
290.3994214531874
 51
350.4071479482741
  0
LINE
  5
569
330
535
100
AcDbEntity
  8
0
  6
Continuous
 62
     7
370
    15
100
AcDbLine
 10
2010.621192892533
 20
1213.801926332418
 30
0.0
 11
2016.539573304019
 21
1211.088819831932
 31
0.0
  0
ARC
  5
56A
330
535
100
AcDbEntity
  8
0
  6
Continuous
 62
     7
370
    15
100
AcDbCircle
 10
2016.097496576117
 20
1232.583229012405
 30
0.0
 40
19.56341566271415
100
AcDbArc
 50
237.0003955998068
 51
253.7442270732511
  0
LINE
  5
56B
330
535
100
AcDbEntity
  8
0
  6
Continuous
 62
     7
370
    15
100
AcDbLine
 10
1999.524229620995
 20
1218.88900102083
 30
0.0
 11
2005.442610032481
 21
1216.175894520344
 31
0.0
  0
ARC
  5
56C
330
535
100
AcDbEntity
  8
0
  6
Continuous
 62
     7
370
    15
100
AcDbCircle
 10
2005.000533304572
 20
1237.670303700805
 30
0.0
 40
19.56341566270021
100
AcDbArc
 50
237.0003955998068
 51
253.7442270732511
  0
LINE
  5
56D
330
535
100
AcDbEntity
  8
0
  6
Continuous
 62
     7
370
    15
100
AcDbLine
 10
1992.718092147784
 20
1222.00907349639
 30
0.0
 11
1994.345646760941
 21
1221.262969208757
 31
0.0
  0
LINE
  5
56E
330
535
100
AcDbEntity
  8
0
  6
Continuous
 62
     7
370
    15
100
AcDbLine
 10
1995.820772687281
 20
1223.599261389429
 30
0.0
 11
1992.718092147784
 21
1222.00907349639
 31
0.0
  0
ARC
  5
56F
330
535
100
AcDbEntity
  8
0
  6
Continuous
 62
     7
370
    15
100
AcDbCircle
 10
1995.469551113239
 20
1208.47427933698
 30
0.0
 40
15.33545983896055
100
AcDbArc
 50
56.0685643198105
 51
62.11693094742069
  0
LINE
  5
570
330
535
100
AcDbEntity
  8
0
  6
Continuous
 62
     7
370
    15
100
AcDbLine
 10
2006.951343402272
 20
1219.858914615918
 30
0.0
 11
2004.029811179977
 21
1221.198204677149
 31
0.0
  0
ARC
  5
571
330
535
100
AcDbEntity
  8
0
  6
Continuous
 62
     7
370
    15
100
AcDbCircle
 10
2006.564770809679
 20
1203.38442719079
 30
0.0
 40
15.33873757745682
100
AcDbArc
 50
56.06895176343016
 51
62.13248563792039
  0
LINE
  5
572
330
535
100
AcDbEntity
  8
0
  6
Continuous
 62
     7
370
    15
100
AcDbLine
 10
2018.04830667381
 20
1214.771839927506
 30
0.0
 11
2015.126774451517
 21
1216.111129988737
 31
0.0
  0
ARC
  5
573
330
535
100
AcDbEntity
  8
0
  6
Continuous
 62
     7
370
    15
100
AcDbCircle
 10
2017.661734081242
 20
1198.297352502421
 30
0.0
 40
15.33873757740694
100
AcDbArc
 50
56.06895176342288
 51
62.13248563793191
  0
LINE
  5
574
330
535
100
AcDbEntity
  8
0
  6
Continuous
 62
     7
370
    15
100
AcDbLine
 10
2026.223737723054
 20
1211.024055300324
 30
0.0
 11
2029.145269945348
 21
1209.684765239094
 31
0.0
  0
ARC
  5
575
330
535
100
AcDbEntity
  8
0
  6
Continuous
 62
     7
370
    15
100
AcDbCircle
 10
2028.75869735278
 20
1193.210277814009
 30
0.0
 40
15.33873757740697
100
AcDbArc
 50
56.06895176342288
 51
62.13248563793191
  0
LINE
  5
576
330
535
100
AcDbEntity
  8
0
  6
Continuous
 62
     7
370
    15
100
AcDbLine
 10
2037.320700994593
 20
1205.936980611912
 30
0.0
 11
2038.948255607751
 21
1205.190876324278
 31
0.0
  0
LINE
  5
577
330
535
100
AcDbEntity
  8
0
  6
Continuous
 62
     7
370
    15
100
AcDbLine
 10
2038.948255607751
 20
1205.190876324278
 30
0.0
 11
2034.442674048768
 21
1202.881672667959
 31
0.0
  0
LINE
  5
578
330
535
100
AcDbEntity
  8
0
  6
Continuous
 62
     7
370
    15
100
AcDbLine
 10
2034.442674048768
 20
1202.881672667959
 30
0.0
 11
2032.81511943561
 21
1203.627776955592
 31
0.0
  0
ARC
  5
579
330
535
100
AcDbEntity
  8
0
  6
Continuous
 62
     7
370
    15
100
AcDbCircle
 10
2038.291423119187
 20
1222.409079635565
 30
0.0
 40
19.5634156626979
100
AcDbArc
 50
237.0003955998068
 51
253.7442270732511
  0
LINE
  5
57A
330
535
100
AcDbEntity
  8
0
  6
Continuous
 62
     7
370
    15
100
AcDbLine
 10
2027.636536575557
 20
1206.00174514352
 30
0.0
 11
2021.718156164073
 21
1208.714851644005
 31
0.0
  0
ARC
  5
57B
330
535
100
AcDbEntity
  8
0
  6
Continuous
 62
     7
370
    15
100
AcDbCircle
 10
2027.194459847651
 20
1227.496154323981
 30
0.0
 40
19.56341566270219
100
AcDbArc
 50
237.0003955998068
 51
253.7442270732511
  0
LINE
  5
57C
330
535
100
AcDbEntity
  8
0
  6
Continuous
 62
     7
370
    15
100
AcDbLine
 10
2032.729929100829
 20
1200.214003393941
 30
0.0
 11
2034.357483713987
 21
1199.467899106308
 31
0.0
  0
LINE
  5
57D
330
535
100
AcDbEntity
  8
0
  6
Continuous
 62
     7
370
    15
100
AcDbLine
 10
2032.81511943561
 20
1203.627776955592
 30
0.0
 11
2032.729929100829
 21
1200.214003393941
 31
0.0
  0
LINE
  5
57E
330
535
100
AcDbEntity
  8
0
  6
Continuous
 62
     7
370
    15
100
AcDbLine
 10
2034.442674048768
 20
1202.881672667959
 30
0.0
 11
2034.357483713987
 21
1199.467899106308
 31
0.0
  0
LINE
  5
57F
330
535
100
AcDbEntity
  8
0
  6
Continuous
 62
     7
370
    15
100
AcDbLine
 10
2038.948255607751
 20
1205.190876324278
 30
0.0
 11
2038.863065272972
 21
1201.777102762626
 31
0.0
  0
LINE
  5
580
330
535
100
AcDbEntity
  8
0
  6
Continuous
 62
     7
370
    15
100
AcDbLine
 10
2034.357483713987
 20
1199.467899106308
 30
0.0
 11
2038.863065272972
 21
1201.777102762626
 31
0.0
  0
ARC
  5
581
330
535
100
AcDbEntity
  8
0
  6
Continuous
 62
     7
370
    15
100
AcDbCircle
 10
2038.20623278441
 20
1218.995306073923
 30
0.0
 40
19.5634156627078
100
AcDbArc
 50
237.0003955998068
 51
253.7442270732511
  0
LINE
  5
582
330
535
100
AcDbEntity
  8
0
  6
Continuous
 62
     7
370
    15
100
AcDbLine
 10
2027.551346240777
 20
1202.587971581868
 30
0.0
 11
2027.636536575557
 21
1206.00174514352
 31
0.0
  0
LWPOLYLINE
  5
583
330
535
100
AcDbEntity
  8
0
  6
Continuous
 62
     7
370
    15
100
AcDbPolyline
 90
       22
 70
   128
 43
0.0
 10
2034.378150497535
 20
1192.084078651602
 10
2034.123965591575
 20
1191.968928667541
 10
2033.842193476615
 20
1191.86967741237
 10
2033.536789615501
 20
1191.787718156147
 10
2033.212041208986
 20
1191.724201427175
 10
2032.872507012841
 20
1191.680018861097
 10
2032.522953342913
 20
1191.655790684292
 10
2032.168287166495
 20
1191.651857007253
 10
2031.813487219267
 20
1191.668273050183
 10
2031.463534114758
 20
1191.704808367824
 10
2031.123340427446
 20
1191.760950084403
 10
2030.797681730989
 20
1191.835910093282
 10
2030.491129559633
 20
1191.928636120252
 10
2030.207987233891
 20
1192.037826495152
 10
2029.952229451363
 20
1192.161948424467
 10
2029.727446490687
 20
1192.299259508387
 10
2029.5367938119
 20
1192.447832200284
 10
2029.382947760697
 20
1192.60558086524
 10
2029.268067998402
 20
1192.770291057786
 10
2029.193767185059
 20
1192.93965060787
 10
2029.161088341215
 20
1193.11128207865
 10
2029.15969152677
 20
1193.176334951464
  0
ARC
  5
584
330
535
100
AcDbEntity
  8
0
  6
Continuous
 62
     7
370
    15
100
AcDbCircle
 10
2033.951821761112
 20
1193.230477508553
 30
0.0
 40
1.223105281944679
100
AcDbArc
 50
290.3994214531874
 51
350.407147948272
  0
LINE
  5
585
330
535
100
AcDbEntity
  8
0
  6
Continuous
 62
     7
370
    15
100
AcDbLine
 10
2021.718156164073
 20
1208.714851644005
 30
0.0
 11
2021.632965829291
 21
1205.301078082354
 31
0.0
  0
LINE
  5
586
330
535
100
AcDbEntity
  8
0
  6
Continuous
 62
     7
370
    15
100
AcDbLine
 10
2021.632965829291
 20
1205.301078082354
 30
0.0
 11
2027.551346240777
 21
1202.587971581868
 31
0.0
  0
LWPOLYLINE
  5
587
330
535
100
AcDbEntity
  8
0
  6
Continuous
 62
     7
370
    15
100
AcDbPolyline
 90
       49
 70
   128
 43
0.0
 10
2019.688271729914
 20
1217.410362181623
 10
2019.486691612286
 20
1217.291838947693
 10
2019.319889485868
 20
1217.160981871534
 10
2019.190719381289
 20
1217.020029953997
 10
2019.101391434852
 20
1216.871394921474
 10
2019.053434072486
 20
1216.717619960578
 10
2019.047667857958
 20
1216.561336203525
 10
2019.084191452797
 20
1216.405217708728
 10
2019.162379928169
 20
1216.251935706919
 10
2019.280895457582
 20
1216.104112895645
 10
2019.43771020747
 20
1215.964278564191
 10
2019.630141033985
 20
1215.834825316739
 10
2019.854895392333
 20
1215.717968134243
 10
2020.108127673129
 20
1215.615706475495
 10
2020.385505001839
 20
1215.529790065828
 10
2020.682281375466
 20
1215.461688958832
 10
2020.993378867975
 20
1215.412568383329
 10
2021.313474515017
 20
1215.383268805985
 10
2021.637091391323
 20
1215.374291550692
 10
2021.958692322417
 20
1215.385790220775
 10
2022.272774627202
 20
1215.417568070804
 10
2022.573964270364
 20
1215.469081372951
 10
2022.857107813603
 20
1215.539448720337
 10
2023.117360592391
 20
1215.627466108138
 10
2023.350269609528
 20
1215.731627534444
 10
2023.551849727156
 20
1215.850150768374
 10
2023.718651853574
 20
1215.981007844534
 10
2023.847821958153
 20
1216.12195976207
 10
2023.93714990459
 20
1216.270594794594
 10
2023.985107266956
 20
1216.424369755491
 10
2023.990873481484
 20
1216.580653512543
 10
2023.954349886645
 20
1216.73677200734
 10
2023.876161411274
 20
1216.890054009149
 10
2023.75764588186
 20
1217.037876820423
 10
2023.600831131972
 20
1217.177711151876
 10
2023.408400305457
 20
1217.307164399329
 10
2023.183645947109
 20
1217.424021581825
 10
2022.930413666313
 20
1217.526283240573
 10
2022.653036337603
 20
1217.61219965024
 10
2022.356259963975
 20
1217.680300757236
 10
2022.045162471467
 20
1217.729421332738
 10
2021.725066824425
 20
1217.758720910083
 10
2021.401449948119
 20
1217.767698165376
 10
2021.079849017025
 20
1217.756199495293
 10
2020.76576671224
 20
1217.724421645264
 10
2020.464577069078
 20
1217.672908343116
 10
2020.18143352584
 20
1217.60254099573
 10
2019.921180747051
 20
1217.51452360793
 10
2019.688271729914
 20
1217.410362181623
  0
LWPOLYLINE
  5
588
330
535
100
AcDbEntity
  8
0
  6
Continuous
 62
     7
370
    15
100
AcDbPolyline
 90
       58
 70
   128
 43
0.0
 10
2024.053077283388
 20
1215.409446137506
 10
2024.291072631582
 20
1215.546355279493
 10
2024.495422058741
 20
1215.69570215795
 10
2024.663645039639
 20
1215.855673904084
 10
2024.793699575169
 20
1216.024328677599
 10
2024.884006979445
 20
1216.19961923801
 10
2024.933471042914
 20
1216.37941779537
 10
2024.941491338851
 20
1216.561541838754
 10
2024.907970511727
 20
1216.743780628986
 10
2024.833315458976
 20
1216.92392203402
 10
2024.718432391807
 20
1217.099779381225
 10
2024.564715835032
 20
1217.26921800063
 10
2024.374031699419
 20
1217.430181136921
 10
2024.148694632067
 20
1217.580714915671
 10
2023.891439919725
 20
1217.718992060724
 10
2023.605390286113
 20
1217.843334074856
 10
2023.294017986291
 20
1217.95223161445
 10
2022.961102658181
 20
1218.044362810895
 10
2022.61068544289
 20
1218.118609316269
 10
2022.247019930721
 20
1218.174069878574
 10
2021.87452052836
 20
1218.210071281713
 10
2021.497708873948
 20
1218.22617651742
 10
2021.12115895053
 20
1218.22219008995
 10
2020.749441564085
 20
1218.198160389133
 10
2020.387068860145
 20
1218.154379102985
 10
2020.038439552452
 20
1218.091377677013
 10
2019.707785528535
 20
1218.009920863184
 10
2019.39912048033
 20
1217.910997436872
 10
2019.116191183393
 20
1217.795808194469
 10
2018.862432016121
 20
1217.665751377337
 10
2018.640923271056
 20
1217.522405699058
 10
2018.454353764298
 20
1217.367511181984
 10
2018.304988196924
 20
1217.202948035726
 10
2018.194639664588
 20
1217.030713833958
 10
2018.12464764899
 20
1216.852899266574
 10
2018.095861758386
 20
1216.671662761548
 10
2018.108631414492
 20
1216.489204284541
 10
2018.162801610982
 20
1216.3077386343
 10
2018.257714795053
 20
1216.129468557999
 10
2018.39221884922
 20
1215.956558012873
 10
2018.564681076473
 20
1215.791105898708
 10
2018.773008018994
 20
1215.635120580045
 10
2019.014670869909
 20
1215.490495507347
 10
2019.286736169572
 20
1215.358986233083
 10
2019.585901413797
 20
1215.242189101695
 10
2019.908535141777
 20
1215.141521872142
 10
2020.250721017105
 20
1215.058206508221
 10
2020.608305366794
 20
1214.99325434559
 10
2020.976947601234
 20
1214.947453815516
 10
2021.352172903075
 20
1214.921360874391
 10
2021.729426545446
 20
1214.915292255174
 10
2022.104129180171
 20
1214.929321622681
 10
2022.47173242485
 20
1214.963278679396
 10
2022.827774074059
 20
1215.016751232649
 10
2023.167932264486
 20
1215.089090198081
 10
2023.488077936489
 20
1215.179417478642
 10
2023.784324955291
 20
1215.286636623509
 10
2024.053077283388
 20
1215.409446137506
  0
LINE
  5
589
330
535
100
AcDbEntity
  8
0
  6
Continuous
 62
     7
370
    15
100
AcDbLine
 10
2024.829617601302
 20
1211.933852887336
 30
0.0
 11
2024.829841607814
 21
1211.947504156944
 31
0.0
  0
ARC
  5
58A
330
535
100
AcDbEntity
  8
0
  6
Continuous
 62
     7
370
    15
100
AcDbCircle
 10
2032.234806781526
 20
1196.148950271131
 30
0.0
 40
4.60566995296896
100
AcDbArc
 50
238.1018500934038
 51
299.0391238403252
  0
LINE
  5
58B
330
535
100
AcDbEntity
  8
0
  6
Continuous
 62
     7
370
    15
100
AcDbLine
 10
2016.454382969238
 20
1207.67504627028
 30
0.0
 11
2016.539573304019
 21
1211.088819831932
 31
0.0
  0
ARC
  5
58C
330
535
100
AcDbEntity
  8
0
  6
Continuous
 62
     7
370
    15
100
AcDbCircle
 10
2027.109269512871
 20
1224.082380762333
 30
0.0
 40
19.56341566270587
100
AcDbArc
 50
237.0003955998068
 51
253.7442270732511
  0
LWPOLYLINE
  5
58D
330
535
100
AcDbEntity
  8
0
  6
Continuous
 62
     7
370
    15
100
AcDbPolyline
 90
       22
 70
   128
 43
0.0
 10
2023.281187225997
 20
1197.171153340014
 10
2023.027002320036
 20
1197.056003355954
 10
2022.745230205078
 20
1196.956752100782
 10
2022.439826343962
 20
1196.874792844559
 10
2022.115077937448
 20
1196.811276115587
 10
2021.775543741303
 20
1196.767093549509
 10
2021.425990071375
 20
1196.742865372704
 10
2021.071323894957
 20
1196.738931695665
 10
2020.716523947729
 20
1196.755347738595
 10
2020.366570843219
 20
1196.791883056236
 10
2020.026377155908
 20
1196.848024772815
 10
2019.700718459451
 20
1196.922984781694
 10
2019.394166288094
 20
1197.015710808664
 10
2019.111023962353
 20
1197.124901183564
 10
2018.855266179826
 20
1197.249023112879
 10
2018.630483219149
 20
1197.386334196799
 10
2018.439830540363
 20
1197.534906888696
 10
2018.285984489159
 20
1197.692655553652
 10
2018.171104726864
 20
1197.857365746199
 10
2018.09680391352
 20
1198.026725296283
 10
2018.064125069678
 20
1198.198356767061
 10
2018.062728255232
 20
1198.263409639876
  0
ARC
  5
58E
330
535
100
AcDbEntity
  8
0
  6
Continuous
 62
     7
370
    15
100
AcDbCircle
 10
2022.854858489573
 20
1198.317552196965
 30
0.0
 40
1.223105281944674
100
AcDbArc
 50
290.3994214531874
 51
350.407147948272
  0
LINE
  5
58F
330
535
100
AcDbEntity
  8
0
  6
Continuous
 62
     7
370
    15
100
AcDbLine
 10
2010.621192892533
 20
1213.801926332418
 30
0.0
 11
2010.536002557754
 21
1210.388152770766
 31
0.0
  0
LINE
  5
590
330
535
100
AcDbEntity
  8
0
  6
Continuous
 62
     7
370
    15
100
AcDbLine
 10
2016.454382969238
 20
1207.67504627028
 30
0.0
 11
2010.536002557754
 21
1210.388152770766
 31
0.0
  0
LWPOLYLINE
  5
591
330
535
100
AcDbEntity
  8
0
  6
Continuous
 62
     7
370
    15
100
AcDbPolyline
 90
       49
 70
   128
 43
0.0
 10
2008.591308458376
 20
1222.497436870036
 10
2008.389728340748
 20
1222.378913636106
 10
2008.22292621433
 20
1222.248056559946
 10
2008.093756109751
 20
1222.10710464241
 10
2008.004428163314
 20
1221.958469609886
 10
2007.956470800948
 20
1221.80469464899
 10
2007.95070458642
 20
1221.648410891937
 10
2007.987228181259
 20
1221.49229239714
 10
2008.065416656631
 20
1221.339010395331
 10
2008.183932186044
 20
1221.191187584057
 10
2008.340746935932
 20
1221.051353252604
 10
2008.533177762447
 20
1220.921900005152
 10
2008.757932120795
 20
1220.805042822656
 10
2009.011164401591
 20
1220.702781163907
 10
2009.288541730301
 20
1220.61686475424
 10
2009.585318103928
 20
1220.548763647244
 10
2009.896415596438
 20
1220.499643071742
 10
2010.216511243479
 20
1220.470343494397
 10
2010.540128119785
 20
1220.461366239104
 10
2010.861729050879
 20
1220.472864909188
 10
2011.175811355664
 20
1220.504642759216
 10
2011.477000998826
 20
1220.556156061364
 10
2011.760144542064
 20
1220.62652340875
 10
2012.020397320853
 20
1220.71454079655
 10
2012.25330633799
 20
1220.818702222857
 10
2012.454886455618
 20
1220.937225456787
 10
2012.621688582036
 20
1221.068082532946
 10
2012.750858686615
 20
1221.209034450483
 10
2012.840186633052
 20
1221.357669483007
 10
2012.888143995418
 20
1221.511444443903
 10
2012.893910209946
 20
1221.667728200956
 10
2012.857386615107
 20
1221.823846695752
 10
2012.779198139735
 20
1221.977128697561
 10
2012.660682610322
 20
1222.124951508835
 10
2012.503867860434
 20
1222.264785840289
 10
2012.311437033919
 20
1222.394239087741
 10
2012.086682675571
 20
1222.511096270237
 10
2011.833450394775
 20
1222.613357928985
 10
2011.556073066065
 20
1222.699274338652
 10
2011.259296692438
 20
1222.767375445648
 10
2010.948199199929
 20
1222.816496021151
 10
2010.628103552887
 20
1222.845795598495
 10
2010.304486676581
 20
1222.854772853788
 10
2009.982885745488
 20
1222.843274183705
 10
2009.668803440702
 20
1222.811496333676
 10
2009.36761379754
 20
1222.759983031528
 10
2009.084470254302
 20
1222.689615684143
 10
2008.824217475513
 20
1222.601598296342
 10
2008.591308458376
 20
1222.497436870036
  0
LWPOLYLINE
  5
592
330
535
100
AcDbEntity
  8
0
  6
Continuous
 62
     7
370
    15
100
AcDbPolyline
 90
       58
 70
   128
 43
0.0
 10
2012.956114011851
 20
1220.496520825918
 10
2013.194109360044
 20
1220.633429967906
 10
2013.398458787203
 20
1220.782776846363
 10
2013.566681768101
 20
1220.942748592496
 10
2013.69673630363
 20
1221.111403366011
 10
2013.787043707907
 20
1221.286693926423
 10
2013.836507771376
 20
1221.466492483783
 10
2013.844528067313
 20
1221.648616527166
 10
2013.811007240189
 20
1221.830855317398
 10
2013.736352187438
 20
1222.010996722432
 10
2013.621469120269
 20
1222.186854069638
 10
2013.467752563494
 20
1222.356292689042
 10
2013.277068427881
 20
1222.517255825334
 10
2013.051731360529
 20
1222.667789604084
 10
2012.794476648187
 20
1222.806066749137
 10
2012.508427014575
 20
1222.930408763268
 10
2012.197054714752
 20
1223.039306302863
 10
2011.864139386643
 20
1223.131437499307
 10
2011.513722171351
 20
1223.205684004681
 10
2011.150056659183
 20
1223.261144566986
 10
2010.777557256822
 20
1223.297145970125
 10
2010.40074560241
 20
1223.313251205832
 10
2010.024195678992
 20
1223.309264778362
 10
2009.652478292547
 20
1223.285235077545
 10
2009.290105588607
 20
1223.241453791398
 10
2008.941476280914
 20
1223.178452365425
 10
2008.610822256997
 20
1223.096995551596
 10
2008.302157208792
 20
1222.998072125284
 10
2008.019227911855
 20
1222.882882882881
 10
2007.765468744583
 20
1222.75282606575
 10
2007.543959999518
 20
1222.60948038747
 10
2007.357390492759
 20
1222.454585870396
 10
2007.208024925386
 20
1222.290022724139
 10
2007.09767639305
 20
1222.117788522371
 10
2007.027684377452
 20
1221.939973954986
 10
2006.998898486847
 20
1221.75873744996
 10
2007.011668142954
 20
1221.576278972954
 10
2007.065838339444
 20
1221.394813322713
 10
2007.160751523515
 20
1221.216543246411
 10
2007.295255577682
 20
1221.043632701285
 10
2007.467717804935
 20
1220.878180587121
 10
2007.676044747456
 20
1220.722195268457
 10
2007.91770759837
 20
1220.577570195759
 10
2008.189772898035
 20
1220.446060921495
 10
2008.488938142258
 20
1220.329263790107
 10
2008.811571870238
 20
1220.228596560554
 10
2009.153757745567
 20
1220.145281196634
 10
2009.511342095256
 20
1220.080329034002
 10
2009.879984329696
 20
1220.034528503928
 10
2010.255209631537
 20
1220.008435562803
 10
2010.632463273909
 20
1220.002366943586
 10
2011.007165908633
 20
1220.016396311093
 10
2011.374769153312
 20
1220.050353367808
 10
2011.730810802522
 20
1220.103825921062
 10
2012.070968992949
 20
1220.176164886493
 10
2012.391114664952
 20
1220.266492167055
 10
2012.687361683752
 20
1220.373711311922
 10
2012.956114011851
 20
1220.496520825918
  0
LINE
  5
593
330
535
100
AcDbEntity
  8
0
  6
Continuous
 62
     7
370
    15
100
AcDbLine
 10
2013.732654329764
 20
1217.020927575748
 30
0.0
 11
2013.732878336276
 21
1217.034578845357
 31
0.0
  0
ARC
  5
594
330
535
100
AcDbEntity
  8
0
  6
Continuous
 62
     7
370
    15
100
AcDbCircle
 10
2021.137843509988
 20
1201.236024959543
 30
0.0
 40
4.605669952968718
100
AcDbArc
 50
238.1018500934038
 51
299.0391238403252
  0
LINE
  5
595
330
535
100
AcDbEntity
  8
0
  6
Continuous
 62
     7
370
    15
100
AcDbLine
 10
2005.357419697701
 20
1212.762120958692
 30
0.0
 11
2005.442610032481
 21
1216.175894520344
 31
0.0
  0
ARC
  5
596
330
535
100
AcDbEntity
  8
0
  6
Continuous
 62
     7
370
    15
100
AcDbCircle
 10
2016.012306241336
 20
1229.16945545075
 30
0.0
 40
19.56341566271046
100
AcDbArc
 50
237.0003955998068
 51
253.7442270732511
  0
LWPOLYLINE
  5
597
330
535
100
AcDbEntity
  8
0
  6
Continuous
 62
     7
370
    15
100
AcDbPolyline
 90
       22
 70
   128
 43
0.0
 10
2012.184223954459
 20
1202.258228028426
 10
2011.930039048499
 20
1202.143078044366
 10
2011.64826693354
 20
1202.043826789194
 10
2011.342863072425
 20
1201.961867532972
 10
2011.01811466591
 20
1201.898350804
 10
2010.678580469765
 20
1201.854168237922
 10
2010.329026799837
 20
1201.829940061117
 10
2009.974360623419
 20
1201.826006384077
 10
2009.619560676191
 20
1201.842422427008
 10
2009.269607571681
 20
1201.878957744649
 10
2008.92941388437
 20
1201.935099461227
 10
2008.603755187913
 20
1202.010059470107
 10
2008.297203016557
 20
1202.102785497077
 10
2008.014060690815
 20
1202.211975871977
 10
2007.758302908287
 20
1202.336097801291
 10
2007.533519947611
 20
1202.473408885212
 10
2007.342867268824
 20
1202.621981577109
 10
2007.189021217621
 20
1202.779730242064
 10
2007.074141455326
 20
1202.944440434611
 10
2006.999840641983
 20
1203.113799984695
 10
2006.96716179814
 20
1203.285431455474
 10
2006.965764983695
 20
1203.350484328288
  0
ARC
  5
598
330
535
100
AcDbEntity
  8
0
  6
Continuous
 62
     7
370
    15
100
AcDbCircle
 10
2011.757895218035
 20
1203.404626885378
 30
0.0
 40
1.22310528194462
100
AcDbArc
 50
290.3994214531874
 51
350.407147948272
  0
LINE
  5
599
330
535
100
AcDbEntity
  8
0
  6
Continuous
 62
     7
370
    15
100
AcDbLine
 10
1999.439039286215
 20
1215.475227459178
 30
0.0
 11
1999.524229620995
 21
1218.88900102083
 31
0.0
  0
LINE
  5
59A
330
535
100
AcDbEntity
  8
0
  6
Continuous
 62
     7
370
    15
100
AcDbLine
 10
2005.357419697701
 20
1212.762120958692
 30
0.0
 11
1999.439039286215
 21
1215.475227459178
 31
0.0
  0
LWPOLYLINE
  5
59B
330
535
100
AcDbEntity
  8
0
  6
Continuous
 62
     7
370
    15
100
AcDbPolyline
 90
       49
 70
   128
 43
0.0
 10
2001.156343066451
 20
1225.90577691127
 10
2000.923434049314
 20
1225.801615484963
 10
2000.663181270525
 20
1225.713598097162
 10
2000.380037727286
 20
1225.643230749777
 10
2000.078848084125
 20
1225.591717447629
 10
1999.76476577934
 20
1225.559939597601
 10
1999.443164848246
 20
1225.548440927517
 10
1999.11954797194
 20
1225.55741818281
 10
1998.799452324898
 20
1225.586717760154
 10
1998.488354832389
 20
1225.635838335657
 10
1998.191578458762
 20
1225.703939442653
 10
1997.914201130051
 20
1225.78985585232
 10
1997.660968849255
 20
1225.892117511068
 10
1997.436214490907
 20
1226.008974693564
 10
1997.243783664393
 20
1226.138427941017
 10
1997.086968914505
 20
1226.27826227247
 10
1996.968453385091
 20
1226.426085083744
 10
1996.890264909719
 20
1226.579367085554
 10
1996.85374131488
 20
1226.73548558035
 10
1996.859507529409
 20
1226.891769337403
 10
1996.907464891775
 20
1227.045544298299
 10
1996.996792838212
 20
1227.194179330823
 10
1997.125962942791
 20
1227.335131248359
 10
1997.292765069209
 20
1227.465988324518
 10
1997.494345186837
 20
1227.584511558448
 10
1997.727254203974
 20
1227.688672984755
 10
1997.987506982762
 20
1227.776690372556
 10
1998.270650526001
 20
1227.847057719941
 10
1998.571840169162
 20
1227.898571022089
 10
1998.885922473948
 20
1227.930348872117
 10
1999.207523405042
 20
1227.941847542201
 10
1999.531140281348
 20
1227.932870286908
 10
1999.85123592839
 20
1227.903570709563
 10
2000.162333420899
 20
1227.854450134061
 10
2000.459109794526
 20
1227.786349027065
 10
2000.736487123236
 20
1227.700432617398
 10
2000.989719404032
 20
1227.59817095865
 10
2001.21447376238
 20
1227.481313776154
 10
2001.406904588895
 20
1227.351860528702
 10
2001.563719338783
 20
1227.212026197248
 10
2001.682234868196
 20
1227.064203385974
 10
2001.760423343569
 20
1226.910921384165
 10
2001.796946938407
 20
1226.754802889368
 10
2001.791180723879
 20
1226.598519132316
 10
2001.743223361513
 20
1226.444744171419
 10
2001.653895415076
 20
1226.296109138895
 10
2001.524725310497
 20
1226.15515722136
 10
2001.357923184079
 20
1226.0243001452
 10
2001.156343066451
 20
1225.90577691127
  0
LWPOLYLINE
  5
59C
330
535
100
AcDbEntity
  8
0
  6
Continuous
 62
     7
370
    15
100
AcDbPolyline
 90
       58
 70
   128
 43
0.0
 10
1996.791537512976
 20
1227.906692955372
 10
1997.060289841074
 20
1228.029502469368
 10
1997.356536859875
 20
1228.136721614235
 10
1997.676682531878
 20
1228.227048894797
 10
1998.016840722305
 20
1228.299387860228
 10
1998.372882371515
 20
1228.352860413482
 10
1998.740485616193
 20
1228.386817470197
 10
1999.115188250918
 20
1228.400846837704
 10
1999.492441893289
 20
1228.394778218487
 10
1999.867667195131
 20
1228.368685277362
 10
2000.23630942957
 20
1228.322884747288
 10
2000.593893779259
 20
1228.257932584656
 10
2000.936079654588
 20
1228.174617220736
 10
2001.258713382568
 20
1228.073949991182
 10
2001.557878626792
 20
1227.957152859795
 10
2001.829943926456
 20
1227.825643585531
 10
2002.071606777371
 20
1227.681018512833
 10
2002.279933719892
 20
1227.525033194169
 10
2002.452395947144
 20
1227.359581080005
 10
2002.586900001312
 20
1227.186670534879
 10
2002.681813185382
 20
1227.008400458577
 10
2002.735983381873
 20
1226.826934808337
 10
2002.748753037979
 20
1226.64447633133
 10
2002.719967147374
 20
1226.463239826304
 10
2002.649975131777
 20
1226.28542525892
 10
2002.539626599441
 20
1226.113191057151
 10
2002.390261032067
 20
1225.948627910894
 10
2002.203691525309
 20
1225.79373339382
 10
2001.982182780243
 20
1225.65038771554
 10
2001.728423612972
 20
1225.520330898409
 10
2001.445494316034
 20
1225.405141656006
 10
2001.136829267829
 20
1225.306218229694
 10
2000.806175243913
 20
1225.224761415865
 10
2000.45754593622
 20
1225.161759989892
 10
2000.09517323228
 20
1225.117978703744
 10
1999.723455845835
 20
1225.093949002928
 10
1999.346905922416
 20
1225.089962575458
 10
1998.970094268005
 20
1225.106067811165
 10
1998.597594865643
 20
1225.142069214303
 10
1998.233929353475
 20
1225.197529776609
 10
1997.883512138183
 20
1225.271776281983
 10
1997.550596810074
 20
1225.363907478427
 10
1997.239224510251
 20
1225.472805018022
 10
1996.953174876639
 20
1225.597147032153
 10
1996.695920164297
 20
1225.735424177206
 10
1996.470583096946
 20
1225.885957955957
 10
1996.279898961332
 20
1226.046921092248
 10
1996.126182404557
 20
1226.216359711652
 10
1996.011299337389
 20
1226.392217058858
 10
1995.936644284637
 20
1226.572358463892
 10
1995.903123457514
 20
1226.754597254124
 10
1995.911143753451
 20
1226.936721297507
 10
1995.960607816919
 20
1227.116519854867
 10
1996.050915221196
 20
1227.291810415279
 10
1996.180969756725
 20
1227.460465188794
 10
1996.349192737623
 20
1227.620436934927
 10
1996.553542164782
 20
1227.769783813384
 10
1996.791537512976
 20
1227.906692955372
  0
ARC
  5
59D
330
535
100
AcDbEntity
  8
0
  6
Continuous
 62
     7
370
    15
100
AcDbCircle
 10
2010.04088023845
 20
1206.323099647956
 30
0.0
 40
4.605669952968581
100
AcDbArc
 50
238.1018500934038
 51
299.0391238403366
  0
LINE
  5
59E
330
535
100
AcDbEntity
  8
0
  6
Continuous
 62
     7
370
    15
100
AcDbLine
 10
1994.345646760941
 20
1221.262969208757
 30
0.0
 11
1994.260456426162
 21
1217.849195647105
 31
0.0
  0
ARC
  5
59F
330
535
100
AcDbEntity
  8
0
  6
Continuous
 62
     7
370
    15
100
AcDbCircle
 10
2004.915342969796
 20
1234.25653013916
 30
0.0
 40
19.56341566270825
100
AcDbArc
 50
237.0003955998068
 51
253.7442270732511
  0
LWPOLYLINE
  5
5A0
330
535
100
AcDbEntity
  8
0
  6
Continuous
 62
     7
370
    15
100
AcDbPolyline
 90
       28
 70
   128
 43
0.0
 10
1995.866319533661
 20
1208.438696898037
 10
1995.878810542682
 20
1208.287694530679
 10
1995.932394479041
 20
1208.116899057583
 10
1996.027151185053
 20
1207.949570312107
 10
1996.161750484276
 20
1207.788057223048
 10
1996.334302897593
 20
1207.634627080135
 10
1996.542386167362
 20
1207.491433706252
 10
1996.783079260598
 20
1207.360487222485
 10
1997.053003373879
 20
1207.243625830427
 10
1997.348369364335
 20
1207.142490007859
 10
1997.66503094091
 20
1207.058499480038
 10
1997.9985428692
 20
1206.992833289865
 10
1998.344223372799
 20
1206.946413246708
 10
1998.697219855177
 20
1206.919890986219
 10
1999.0525770195
 20
1206.913638822797
 10
1999.405306430132
 20
1206.927744523113
 10
1999.750456539342
 20
1206.962010074053
 10
2000.083182196174
 20
1207.015954462394
 10
2000.39881266175
 20
1207.088820427171
 10
2000.692917176204
 20
1207.179585089962
 10
2000.961367156838
 20
1207.286974313861
 10
2001.200394154372
 20
1207.409480589564
 10
2001.406642753716
 20
1207.545384197496
 10
2001.577217676638
 20
1207.692777348909
 10
2001.709724425124
 20
1207.849590967044
 10
2001.802302894884
 20
1208.013623732444
 10
2001.853653487137
 20
1208.182572984646
 10
2001.864452166575
 20
1208.289014173677
  0
LINE
  5
5A1
330
535
100
AcDbEntity
  8
0
  6
Continuous
 62
     7
370
    15
100
AcDbLine
 10
1992.718092147784
 20
1222.00907349639
 30
0.0
 11
1992.632901813004
 21
1218.595299934739
 31
0.0
  0
LINE
  5
5A2
330
535
100
AcDbEntity
  8
0
  6
Continuous
 62
     7
370
    15
100
AcDbLine
 10
1994.260456426162
 20
1217.849195647105
 30
0.0
 11
1992.632901813004
 21
1218.595299934739
 31
0.0
  0
LWPOLYLINE
  5
5A3
330
535
100
AcDbEntity
  8
0
  6
Continuous
 62
     7
370
    15
100
AcDbPolyline
 90
        3
 70
   128
 43
0.0
 10
2000.932450259045
 20
1207.239202949861
 10
2001.148139852381
 20
1207.364992494496
 10
2001.17705799055
 20
1207.384628145945
  0
ARC
  5
5A4
330
535
100
AcDbEntity
  8
0
  6
Continuous
 62
     7
370
    15
100
AcDbCircle
 10
1998.968747133435
 20
1211.570228409832
 30
0.0
 40
4.755408657565632
100
AcDbArc
 50
238.834243298715
 51
294.3897171403913
  0
LWPOLYLINE
  5
5A5
330
535
100
AcDbEntity
  8
0
  6
Continuous
 62
     8
370
    15
100
AcDbPolyline
 90
       31
 70
   128
 43
0.0
 10
2029.078712783597
 20
1207.0176659759
 10
2029.080426159088
 20
1206.941675106685
 10
2029.113946986212
 20
1206.759436316452
 10
2029.188602038964
 20
1206.579294911418
 10
2029.303485106132
 20
1206.403437564213
 10
2029.457201662907
 20
1206.233998944808
 10
2029.64788579852
 20
1206.073035808517
 10
2029.873222865872
 20
1205.922502029767
 10
2030.130477578214
 20
1205.784224884714
 10
2030.416527211826
 20
1205.659882870583
 10
2030.727899511649
 20
1205.550985330988
 10
2031.060814839758
 20
1205.458854134543
 10
2031.41123205505
 20
1205.384607629169
 10
2031.774897567218
 20
1205.329147066864
 10
2032.14739696958
 20
1205.293145663725
 10
2032.524208623991
 20
1205.277040428019
 10
2032.90075854741
 20
1205.281026855488
 10
2033.272475933854
 20
1205.305056556305
 10
2033.634848637794
 20
1205.348837842453
 10
2033.983477945487
 20
1205.411839268425
 10
2034.314131969404
 20
1205.493296082255
 10
2034.622797017609
 20
1205.592219508566
 10
2034.905726314546
 20
1205.707408750969
 10
2035.159485481818
 20
1205.837465568101
 10
2035.380994226883
 20
1205.98081124638
 10
2035.567563733642
 20
1206.135705763454
 10
2035.716929301015
 20
1206.300268909712
 10
2035.827277833351
 20
1206.47250311148
 10
2035.897269848949
 20
1206.650317678864
 10
2035.926055739554
 20
1206.83155418389
 10
2035.92658087284
 20
1206.846778198923
  0
LWPOLYLINE
  5
5A6
330
535
100
AcDbEntity
  8
0
  6
Continuous
 62
     8
370
    15
100
AcDbPolyline
 90
       31
 70
   128
 43
0.0
 10
2017.981749512059
 20
1212.104740664313
 10
2017.983462887551
 20
1212.028749795097
 10
2018.016983714674
 20
1211.846511004865
 10
2018.091638767426
 20
1211.666369599831
 10
2018.206521834594
 20
1211.490512252625
 10
2018.36023839137
 20
1211.321073633221
 10
2018.550922526982
 20
1211.160110496929
 10
2018.776259594334
 20
1211.009576718179
 10
2019.033514306677
 20
1210.871299573126
 10
2019.319563940288
 20
1210.746957558995
 10
2019.630936240111
 20
1210.6380600194
 10
2019.96385156822
 20
1210.545928822955
 10
2020.314268783511
 20
1210.471682317581
 10
2020.67793429568
 20
1210.416221755276
 10
2021.050433698042
 20
1210.380220352138
 10
2021.427245352453
 20
1210.364115116431
 10
2021.803795275872
 20
1210.3681015439
 10
2022.175512662316
 20
1210.392131244717
 10
2022.537885366256
 20
1210.435912530865
 10
2022.886514673949
 20
1210.498913956837
 10
2023.217168697866
 20
1210.580370770667
 10
2023.525833746071
 20
1210.679294196979
 10
2023.808763043009
 20
1210.794483439382
 10
2024.06252221028
 20
1210.924540256513
 10
2024.284030955346
 20
1211.067885934793
 10
2024.470600462104
 20
1211.222780451867
 10
2024.619966029478
 20
1211.387343598124
 10
2024.730314561813
 20
1211.559577799892
 10
2024.800306577411
 20
1211.737392367276
 10
2024.829092468016
 20
1211.918628872303
 10
2024.829617601302
 20
1211.933852887336
  0
LWPOLYLINE
  5
5A7
330
535
100
AcDbEntity
  8
0
  6
Continuous
 62
     8
370
    15
100
AcDbPolyline
 90
       31
 70
   128
 43
0.0
 10
2006.884786240521
 20
1217.191815352725
 10
2006.886499616013
 20
1217.115824483509
 10
2006.920020443136
 20
1216.933585693277
 10
2006.994675495887
 20
1216.753444288243
 10
2007.109558563056
 20
1216.577586941037
 10
2007.263275119831
 20
1216.408148321633
 10
2007.453959255444
 20
1216.247185185342
 10
2007.679296322796
 20
1216.096651406591
 10
2007.936551035139
 20
1215.958374261538
 10
2008.222600668751
 20
1215.834032247407
 10
2008.533972968573
 20
1215.725134707812
 10
2008.866888296682
 20
1215.633003511368
 10
2009.217305511974
 20
1215.558757005993
 10
2009.580971024142
 20
1215.503296443688
 10
2009.953470426504
 20
1215.46729504055
 10
2010.330282080915
 20
1215.451189804843
 10
2010.706832004334
 20
1215.455176232313
 10
2011.078549390778
 20
1215.479205933129
 10
2011.440922094718
 20
1215.522987219277
 10
2011.789551402412
 20
1215.58598864525
 10
2012.120205426327
 20
1215.667445459079
 10
2012.428870474533
 20
1215.766368885391
 10
2012.711799771471
 20
1215.881558127794
 10
2012.965558938742
 20
1216.011614944925
 10
2013.187067683808
 20
1216.154960623205
 10
2013.373637190566
 20
1216.309855140279
 10
2013.523002757939
 20
1216.474418286537
 10
2013.633351290275
 20
1216.646652488305
 10
2013.703343305873
 20
1216.824467055689
 10
2013.732129196478
 20
1217.005703560715
 10
2013.732654329764
 20
1217.020927575748
  0
LWPOLYLINE
  5
5A8
330
535
100
AcDbEntity
  8
0
  6
Continuous
 62
     8
370
    15
100
AcDbPolyline
 90
       23
 70
   128
 43
0.0
 10
2001.745563627271
 20
1221.031897432129
 10
2001.476811299173
 20
1220.909087918133
 10
2001.180564280372
 20
1220.801868773266
 10
2000.860418608369
 20
1220.711541492704
 10
2000.520260417942
 20
1220.639202527272
 10
2000.164218768732
 20
1220.585729974019
 10
1999.796615524054
 20
1220.551772917304
 10
1999.421912889329
 20
1220.537743549797
 10
1999.044659246957
 20
1220.543812169014
 10
1998.669433945116
 20
1220.569905110139
 10
1998.300791710676
 20
1220.615705640213
 10
1997.943207360987
 20
1220.680657802844
 10
1997.601021485658
 20
1220.763973166765
 10
1997.278387757679
 20
1220.864640396318
 10
1996.979222513455
 20
1220.981437527706
 10
1996.707157213791
 20
1221.11294680197
 10
1996.465494362876
 20
1221.257571874668
 10
1996.257167420355
 20
1221.413557193331
 10
1996.084705193103
 20
1221.579009307496
 10
1995.950201138935
 20
1221.751919852622
 10
1995.855287954865
 20
1221.930189928923
 10
1995.801117758374
 20
1222.111655579164
 10
1995.787822968981
 20
1222.278890041138
  0
ARC
  5
5A9
330
535
100
AcDbEntity
  8
0
  6
Continuous
 62
     8
370
    15
100
AcDbCircle
 10
2001.241052373477
 20
1222.355414890894
 30
0.0
 40
1.416414511667669
100
AcDbArc
 50
290.8663324115607
 51
349.9402369898983
  0
ENDBLK
  5
537
330
535
100
AcDbEntity
  8
0
100
AcDbBlockEnd
  0
ENDSEC
  0
SECTION
  2
ENTITIES
  0
INSERT
  5
4B4
330
1F
100
AcDbEntity
  8
0
100
AcDbBlockReference
  2
1
 10
0.0
 20
0.0
 30
0.0
  0
INSERT
  5
4D8
330
1F
100
AcDbEntity
  8
0
100
AcDbBlockReference
  2
2
 10
0.0
 20
0.0
 30
0.0
  0
INSERT
  5
534
330
1F
100
AcDbEntity
  8
0
100
AcDbBlockReference
  2
3
 10
0.0
 20
0.0
 30
0.0
  0
INSERT
  5
5AA
330
1F
100
AcDbEntity
  8
0
100
AcDbBlockReference
  2
4
 10
0.0
 20
0.0
 30
0.0
  0
ENDSEC
  0
SECTION
  2
OBJECTS
  0
DICTIONARY
  5
C
330
0
100
AcDbDictionary
281
     1
  3
ACAD_COLOR
350
6B
  3
ACAD_GROUP
350
D
  3
ACAD_LAYOUT
350
1A
  3
ACAD_MATERIAL
350
6A
  3
ACAD_MLEADERSTYLE
350
12D
  3
ACAD_MLINESTYLE
350
17
  3
ACAD_PLOTSETTINGS
350
19
  3
ACAD_PLOTSTYLENAME
350
E
  3
ACAD_SCALELIST
350
10C
  3
ACAD_TABLESTYLE
350
7E
  3
ACAD_VISUALSTYLE
350
EF
  3
ACDB_RECOMPOSE_DATA
350
15D
  3
AcDbVariableDictionary
350
5E
  3
DWGPROPS
350
5B8
  0
DICTIONARY
  5
13C
330
10
100
AcDbDictionary
280
     1
281
     1
  3
ADSK_XREC_LAYER_RECONCILED
360
5AB
  0
DICTIONARY
  5
6B
102
{ACAD_REACTORS
330
C
102
}
330
C
100
AcDbDictionary
281
     1
  0
DICTIONARY
  5
D
102
{ACAD_REACTORS
330
C
102
}
330
C
100
AcDbDictionary
281
     1
  0
DICTIONARY
  5
1A
102
{ACAD_REACTORS
330
C
102
}
330
C
100
AcDbDictionary
281
     1
  3
Layout1
350
D3
  3
Layout2
350
D7
  3
Model
350
22
  0
DICTIONARY
  5
6A
102
{ACAD_REACTORS
330
C
102
}
330
C
100
AcDbDictionary
281
     1
  3
ByBlock
350
ED
  3
ByLayer
350
EC
  3
Global
350
EE
  0
DICTIONARY
  5
12D
102
{ACAD_REACTORS
330
C
102
}
330
C
100
AcDbDictionary
281
     1
  3
Annotative
350
13B
  3
Standard
350
12E
  0
DICTIONARY
  5
17
102
{ACAD_REACTORS
330
C
102
}
330
C
100
AcDbDictionary
281
     1
  3
Standard
350
18
  0
DICTIONARY
  5
19
102
{ACAD_REACTORS
330
C
102
}
330
C
100
AcDbDictionary
281
     1
  0
ACDBDICTIONARYWDFLT
  5
E
102
{ACAD_REACTORS
330
C
102
}
330
C
100
AcDbDictionary
281
     1
  3
Normal
350
F
100
AcDbDictionaryWithDefault
340
F
  0
DICTIONARY
  5
10C
102
{ACAD_REACTORS
330
C
102
}
330
C
100
AcDbDictionary
281
     1
  3
A0
350
10D
  3
A1
350
188
  3
A2
350
189
  3
A3
350
18A
  3
A4
350
18B
  3
A5
350
18C
  3
A6
350
18D
  3
A7
350
18E
  3
A8
350
18F
  3
A9
350
190
  3
B0
350
191
  3
B1
350
192
  3
B2
350
193
  3
B3
350
194
  3
B4
350
195
  3
B5
350
196
  3
B6
350
197
  3
B7
350
198
  3
B8
350
199
  3
B9
350
19A
  3
C0
350
19B
  3
C1
350
19C
  3
C2
350
19D
  3
C3
350
19E
  3
C4
350
19F
  3
C5
350
1A0
  3
C6
350
1A1
  3
C7
350
1A2
  3
C8
350
1A3
  3
C9
350
1A4
  3
D0
350
1A5
  3
D1
350
1A6
  3
D2
350
1A7
  0
DICTIONARY
  5
7E
102
{ACAD_REACTORS
330
C
102
}
330
C
100
AcDbDictionary
281
     1
  3
Standard
350
7F
  0
DICTIONARY
  5
EF
102
{ACAD_REACTORS
330
C
102
}
330
C
100
AcDbDictionary
281
     1
  3
2dWireframe
350
F5
  3
3D Hidden
350
F7
  3
3dWireframe
350
F6
  3
Basic
350
F4
  3
Brighten
350
FB
  3
ColorChange
350
FF
  3
Conceptual
350
F8
  3
Dim
350
FA
  3
Facepattern
350
FE
  3
Flat
350
F0
  3
FlatWithEdges
350
F1
  3
Gouraud
350
F2
  3
GouraudWithEdges
350
F3
  3
Linepattern
350
FD
  3
Realistic
350
F9
  3
Thicken
350
FC
  0
XRECORD
  5
15D
102
{ACAD_REACTORS
330
C
102
}
330
C
100
AcDbXrecord
280
     1
 90
        1
330
7F
  0
DICTIONARY
  5
5E
102
{ACAD_REACTORS
330
C
102
}
330
C
100
AcDbDictionary
281
     1
  3
CANNOSCALE
350
146
  3
CMLEADERSTYLE
350
145
  3
CTABLESTYLE
350
84
  3
DIMASSOC
350
5F
  3
HIDETEXT
350
63
  3
INDEXCTL
350
5B4
  3
LIGHTINGUNITS
350
5B2
  3
MSLTSCALE
350
5B1
  3
PSOLHEIGHT
350
5B6
  3
PSOLWIDTH
350
5B5
  3
SORTENTS
350
5B3
  0
XRECORD
  5
5B8
102
{ACAD_REACTORS
330
C
102
}
330
C
100
AcDbXrecord
280
     1
  1
DWGPROPS COOKIE
  2

  3

  4

  6

  7

  8
orhan kara
  9

300
=
301
=
302
=
303
=
304
=
305
=
306
=
307
=
308
=
309
=
 40
0.0002928009259259
 41
2458935.537528715
 42
2458956.462453032
  1

 90
        0
  0
XRECORD
  5
5AB
102
{ACAD_REACTORS
330
13C
102
}
330
13C
100
AcDbXrecord
280
     1
290
     1
  0
LAYOUT
  5
D3
102
{ACAD_XDICTIONARY
360
5BC
102
}
102
{ACAD_REACTORS
330
1A
102
}
330
1A
100
AcDbPlotSettings
  1

  2
C:\Documents and Settings\basas\Application Data\Autodesk\AutoCAD 2005\R16.1\enu\plotters\Default Windows System Printer.pc3
  4

  6

 40
0.0
 41
0.0
 42
0.0
 43
0.0
 44
0.0
 45
0.0
 46
0.0
 47
0.0
 48
0.0
 49
0.0
140
0.0
141
0.0
142
1.0
143
1.0
 70
   688
 72
     0
 73
     0
 74
     5
  7

 75
    16
147
1.0
148
0.0
149
0.0
100
AcDbLayout
  1
Layout1
 70
     1
 71
     1
 10
0.0
 20
0.0
 11
12.0
 21
9.0
 12
0.0
 22
0.0
 32
0.0
 14
0.0
 24
0.0
 34
0.0
 15
0.0
 25
0.0
 35
0.0
146
0.0
 13
0.0
 23
0.0
 33
0.0
 16
1.0
 26
0.0
 36
0.0
 17
0.0
 27
1.0
 37
0.0
 76
     0
330
D2
  0
LAYOUT
  5
D7
102
{ACAD_XDICTIONARY
360
5BE
102
}
102
{ACAD_REACTORS
330
1A
102
}
330
1A
100
AcDbPlotSettings
  1

  2
C:\Documents and Settings\basas\Application Data\Autodesk\AutoCAD 2005\R16.1\enu\plotters\Default Windows System Printer.pc3
  4

  6

 40
0.0
 41
0.0
 42
0.0
 43
0.0
 44
0.0
 45
0.0
 46
0.0
 47
0.0
 48
0.0
 49
0.0
140
0.0
141
0.0
142
1.0
143
1.0
 70
   688
 72
     0
 73
     0
 74
     5
  7

 75
    16
147
1.0
148
0.0
149
0.0
100
AcDbLayout
  1
Layout2
 70
     1
 71
     2
 10
0.0
 20
0.0
 11
12.0
 21
9.0
 12
0.0
 22
0.0
 32
0.0
 14
0.0
 24
0.0
 34
0.0
 15
0.0
 25
0.0
 35
0.0
146
0.0
 13
0.0
 23
0.0
 33
0.0
 16
1.0
 26
0.0
 36
0.0
 17
0.0
 27
1.0
 37
0.0
 76
     0
330
D6
  0
LAYOUT
  5
22
102
{ACAD_XDICTIONARY
360
5B9
102
}
102
{ACAD_REACTORS
330
1A
102
}
330
1A
100
AcDbPlotSettings
  1

  2
none_device
  4
ISO_A4_(210.00_x_297.00_MM)
  6

 40
7.5
 41
20.0
 42
7.5
 43
20.0
 44
210.0
 45
297.0
 46
11.54999923706054
 47
-13.65000009536743
 48
0.0
 49
0.0
140
0.0
141
0.0
142
1.0
143
8.704084754739808
 70
 11952
 72
     1
 73
     0
 74
     0
  7

 75
     0
147
0.1148885871608098
148
0.0
149
0.0
100
AcDbLayout
  1
Model
 70
     1
 71
     0
 10
0.0
 20
0.0
 11
12.0
 21
9.0
 12
0.0
 22
0.0
 32
0.0
 14
0.0
 24
0.0
 34
0.0
 15
0.0
 25
0.0
 35
0.0
146
0.0
 13
0.0
 23
0.0
 33
0.0
 16
1.0
 26
0.0
 36
0.0
 17
0.0
 27
1.0
 37
0.0
 76
     0
330
1F
331
EA
1001
ACAD_PSEXT
1000
None
1000
None
1000
Not applicable
1000
The layout will not be plotted unless a new plotter configuration name is selected.
1070
     0
  0
MATERIAL
  5
ED
102
{ACAD_XDICTIONARY
360
5C2
102
}
102
{ACAD_REACTORS
330
6A
102
}
330
6A
100
AcDbMaterial
  1
ByBlock
  0
MATERIAL
  5
EC
102
{ACAD_XDICTIONARY
360
5C0
102
}
102
{ACAD_REACTORS
330
6A
102
}
330
6A
100
AcDbMaterial
  1
ByLayer
  0
MATERIAL
  5
EE
102
{ACAD_XDICTIONARY
360
173
102
}
102
{ACAD_REACTORS
330
6A
102
}
330
6A
100
AcDbMaterial
  1
Global
 43
0.0007999999797903
 43
0.0
 43
0.0
 43
0.0
 43
0.0
 43
0.0007999999797903
 43
0.0
 43
0.0
 43
0.0
 43
0.0
 43
1.0
 43
0.0
 43
0.0
 43
0.0
 43
0.0
 43
1.0
 49
0.0007999999797903
 49
0.0
 49
0.0
 49
0.0
 49
0.0
 49
0.0007999999797903
 49
0.0
 49
0.0
 49
0.0
 49
0.0
 49
1.0
 49
0.0
 49
0.0
 49
0.0
 49
0.0
 49
1.0
142
0.0007999999797903
142
0.0
142
0.0
142
0.0
142
0.0
142
0.0007999999797903
142
0.0
142
0.0
142
0.0
142
0.0
142
1.0
142
0.0
142
0.0
142
0.0
142
0.0
142
1.0
144
0.0007999999797903
144
0.0
144
0.0
144
0.0
144
0.0
144
0.0007999999797903
144
0.0
144
0.0
144
0.0
144
0.0
144
1.0
144
0.0
144
0.0
144
0.0
144
0.0
144
1.0
1001
ACAD
1070
    -1
1070
     3
1070
     0
1000

1071
        0
1070
     0
  0
MLEADERSTYLE
  5
13B
102
{ACAD_REACTORS
330
12D
102
}
330
12D
100
AcDbMLeaderStyle
170
     2
171
     1
172
     0
 90
        2
 40
0.0
 41
0.0
173
     1
 91
-1056964608
340
14
 92
       -2
290
     1
 42
2.0
291
     1
 43
8.0
  3
Standard
 44
4.0
300

342
11
174
     1
178
     1
175
     1
176
     0
 93
-1056964608
 45
4.0
292
     0
297
     0
 46
4.0
 94
-1056964608
 47
1.0
 49
1.0
140
1.0
293
     1
141
0.0
294
     1
177
     0
142
1.0
295
     0
296
     1
143
3.75
1001
ACAD_MLEADERVER
1070
     2
  0
MLEADERSTYLE
  5
12E
102
{ACAD_REACTORS
330
12D
102
}
330
12D
100
AcDbMLeaderStyle
170
     2
171
     1
172
     0
 90
        2
 40
0.0
 41
0.0
173
     1
 91
-1056964608
340
14
 92
       -2
290
     1
 42
2.0
291
     1
 43
8.0
  3
Standard
 44
4.0
300

342
11
174
     1
178
     1
175
     1
176
     0
 93
-1056964608
 45
4.0
292
     0
297
     0
 46
4.0
 94
-1056964608
 47
1.0
 49
1.0
140
1.0
293
     1
141
0.0
294
     1
177
     0
142
1.0
295
     0
296
     0
143
3.75
1001
ACAD_MLEADERVER
1070
     2
  0
MLINESTYLE
  5
18
102
{ACAD_REACTORS
330
17
102
}
330
17
100
AcDbMlineStyle
  2
STANDARD
 70
     0
  3

 62
   256
 51
90.0
 52
90.0
 71
     2
 49
0.5
 62
   256
  6
BYLAYER
 49
-0.5
 62
   256
  6
BYLAYER
  0
ACDBPLACEHOLDER
  5
F
102
{ACAD_REACTORS
330
E
102
}
330
E
  0
SCALE
  5
10D
102
{ACAD_REACTORS
330
10C
102
}
330
10C
100
AcDbScale
 70
     0
300
1:1
140
1.0
141
1.0
290
     1
  0
SCALE
  5
188
102
{ACAD_REACTORS
330
10C
102
}
330
10C
100
AcDbScale
 70
     0
300
1:2
140
1.0
141
2.0
290
     0
  0
SCALE
  5
189
102
{ACAD_REACTORS
330
10C
102
}
330
10C
100
AcDbScale
 70
     0
300
1:4
140
1.0
141
4.0
290
     0
  0
SCALE
  5
18A
102
{ACAD_REACTORS
330
10C
102
}
330
10C
100
AcDbScale
 70
     0
300
1:5
140
1.0
141
5.0
290
     0
  0
SCALE
  5
18B
102
{ACAD_REACTORS
330
10C
102
}
330
10C
100
AcDbScale
 70
     0
300
1:8
140
1.0
141
8.0
290
     0
  0
SCALE
  5
18C
102
{ACAD_REACTORS
330
10C
102
}
330
10C
100
AcDbScale
 70
     0
300
1:10
140
1.0
141
10.0
290
     0
  0
SCALE
  5
18D
102
{ACAD_REACTORS
330
10C
102
}
330
10C
100
AcDbScale
 70
     0
300
1:16
140
1.0
141
16.0
290
     0
  0
SCALE
  5
18E
102
{ACAD_REACTORS
330
10C
102
}
330
10C
100
AcDbScale
 70
     0
300
1:20
140
1.0
141
20.0
290
     0
  0
SCALE
  5
18F
102
{ACAD_REACTORS
330
10C
102
}
330
10C
100
AcDbScale
 70
     0
300
1:30
140
1.0
141
30.0
290
     0
  0
SCALE
  5
190
102
{ACAD_REACTORS
330
10C
102
}
330
10C
100
AcDbScale
 70
     0
300
1:40
140
1.0
141
40.0
290
     0
  0
SCALE
  5
191
102
{ACAD_REACTORS
330
10C
102
}
330
10C
100
AcDbScale
 70
     0
300
1:50
140
1.0
141
50.0
290
     0
  0
SCALE
  5
192
102
{ACAD_REACTORS
330
10C
102
}
330
10C
100
AcDbScale
 70
     0
300
1:100
140
1.0
141
100.0
290
     0
  0
SCALE
  5
193
102
{ACAD_REACTORS
330
10C
102
}
330
10C
100
AcDbScale
 70
     0
300
2:1
140
2.0
141
1.0
290
     0
  0
SCALE
  5
194
102
{ACAD_REACTORS
330
10C
102
}
330
10C
100
AcDbScale
 70
     0
300
4:1
140
4.0
141
1.0
290
     0
  0
SCALE
  5
195
102
{ACAD_REACTORS
330
10C
102
}
330
10C
100
AcDbScale
 70
     0
300
8:1
140
8.0
141
1.0
290
     0
  0
SCALE
  5
196
102
{ACAD_REACTORS
330
10C
102
}
330
10C
100
AcDbScale
 70
     0
300
10:1
140
10.0
141
1.0
290
     0
  0
SCALE
  5
197
102
{ACAD_REACTORS
330
10C
102
}
330
10C
100
AcDbScale
 70
     0
300
100:1
140
100.0
141
1.0
290
     0
  0
SCALE
  5
198
102
{ACAD_REACTORS
330
10C
102
}
330
10C
100
AcDbScale
 70
     0
300
1/128" = 1'-0"
140
0.0078125
141
12.0
290
     0
  0
SCALE
  5
199
102
{ACAD_REACTORS
330
10C
102
}
330
10C
100
AcDbScale
 70
     0
300
1/64" = 1'-0"
140
0.015625
141
12.0
290
     0
  0
SCALE
  5
19A
102
{ACAD_REACTORS
330
10C
102
}
330
10C
100
AcDbScale
 70
     0
300
1/32" = 1'-0"
140
0.03125
141
12.0
290
     0
  0
SCALE
  5
19B
102
{ACAD_REACTORS
330
10C
102
}
330
10C
100
AcDbScale
 70
     0
300
1/16" = 1'-0"
140
0.0625
141
12.0
290
     0
  0
SCALE
  5
19C
102
{ACAD_REACTORS
330
10C
102
}
330
10C
100
AcDbScale
 70
     0
300
3/32" = 1'-0"
140
0.09375
141
12.0
290
     0
  0
SCALE
  5
19D
102
{ACAD_REACTORS
330
10C
102
}
330
10C
100
AcDbScale
 70
     0
300
1/8" = 1'-0"
140
0.125
141
12.0
290
     0
  0
SCALE
  5
19E
102
{ACAD_REACTORS
330
10C
102
}
330
10C
100
AcDbScale
 70
     0
300
3/16" = 1'-0"
140
0.1875
141
12.0
290
     0
  0
SCALE
  5
19F
102
{ACAD_REACTORS
330
10C
102
}
330
10C
100
AcDbScale
 70
     0
300
1/4" = 1'-0"
140
0.25
141
12.0
290
     0
  0
SCALE
  5
1A0
102
{ACAD_REACTORS
330
10C
102
}
330
10C
100
AcDbScale
 70
     0
300
3/8" = 1'-0"
140
0.375
141
12.0
290
     0
  0
SCALE
  5
1A1
102
{ACAD_REACTORS
330
10C
102
}
330
10C
100
AcDbScale
 70
     0
300
1/2" = 1'-0"
140
0.5
141
12.0
290
     0
  0
SCALE
  5
1A2
102
{ACAD_REACTORS
330
10C
102
}
330
10C
100
AcDbScale
 70
     0
300
3/4" = 1'-0"
140
0.75
141
12.0
290
     0
  0
SCALE
  5
1A3
102
{ACAD_REACTORS
330
10C
102
}
330
10C
100
AcDbScale
 70
     0
300
1" = 1'-0"
140
1.0
141
12.0
290
     0
  0
SCALE
  5
1A4
102
{ACAD_REACTORS
330
10C
102
}
330
10C
100
AcDbScale
 70
     0
300
1-1/2" = 1'-0"
140
1.5
141
12.0
290
     0
  0
SCALE
  5
1A5
102
{ACAD_REACTORS
330
10C
102
}
330
10C
100
AcDbScale
 70
     0
300
3" = 1'-0"
140
3.0
141
12.0
290
     0
  0
SCALE
  5
1A6
102
{ACAD_REACTORS
330
10C
102
}
330
10C
100
AcDbScale
 70
     0
300
6" = 1'-0"
140
6.0
141
12.0
290
     0
  0
SCALE
  5
1A7
102
{ACAD_REACTORS
330
10C
102
}
330
10C
100
AcDbScale
 70
     0
300
1'-0" = 1'-0"
140
12.0
141
12.0
290
     0
  0
TABLESTYLE
  5
7F
102
{ACAD_XDICTIONARY
360
162
102
}
102
{ACAD_REACTORS
330
7E
102
}
330
7E
100
AcDbTableStyle
  3
Standard
 70
     0
 71
     0
 40
1.5
 41
1.5
280
     0
281
     0
  7
Standard
140
4.5
170
     2
 62
     0
 63
     7
283
     0
274
    -2
284
     1
 64
     0
275
    -2
285
     1
 65
     0
276
    -2
286
     1
 66
     0
277
    -2
287
     1
 67
     0
278
    -2
288
     1
 68
     0
279
    -2
289
     1
 69
     0
  7
Standard
140
6.0
170
     5
 62
     0
 63
     7
283
     0
274
    -2
284
     1
 64
     0
275
    -2
285
     1
 65
     0
276
    -2
286
     1
 66
     0
277
    -2
287
     1
 67
     0
278
    -2
288
     1
 68
     0
279
    -2
289
     1
 69
     0
  7
Standard
140
4.5
170
     5
 62
     0
 63
     7
283
     0
274
    -2
284
     1
 64
     0
275
    -2
285
     1
 65
     0
276
    -2
286
     1
 66
     0
277
    -2
287
     1
 67
     0
278
    -2
288
     1
 68
     0
279
    -2
289
     1
 69
     0
  0
VISUALSTYLE
  5
F5
102
{ACAD_REACTORS
330
EF
102
}
330
EF
100
AcDbVisualStyle
  2
2dWireframe
 70
     4
 71
     0
 72
     2
 73
     1
 90
        0
 40
-0.6
 41
-30.0
 62
     5
 63
     7
 74
     1
 91
        4
 64
     7
 65
   257
 75
     1
175
     1
 42
1.0
 92
        0
 66
   257
 43
1.0
 76
     1
 77
     6
 78
     2
 67
     7
 79
     5
170
     0
171
     0
290
     0
174
     0
 93
        1
 44
0.0
173
     0
291
     0
 45
0.0
1001
ACAD
1000
AcDbSavedByObjectVersion
1070
     0
  0
VISUALSTYLE
  5
F7
102
{ACAD_REACTORS
330
EF
102
}
330
EF
100
AcDbVisualStyle
  2
3D Hidden
 70
     6
 71
     1
 72
     2
 73
     2
 90
        0
 40
-0.6
 41
-30.0
 62
     5
 63
     7
 74
     2
 91
        2
 64
     7
 65
   257
 75
     2
175
     1
 42
40.0
 92
        0
 66
   257
 43
1.0
 76
     1
 77
     6
 78
     2
 67
     7
 79
     3
170
     0
171
     0
290
     0
174
     0
 93
        1
 44
0.0
173
     0
291
     0
 45
0.0
1001
ACAD
1000
AcDbSavedByObjectVersion
1070
     0
  0
VISUALSTYLE
  5
F6
102
{ACAD_REACTORS
330
EF
102
}
330
EF
100
AcDbVisualStyle
  2
3dWireframe
 70
     5
 71
     0
 72
     2
 73
     1
 90
        0
 40
-0.6
 41
-30.0
 62
     5
 63
     7
 74
     1
 91
        4
 64
     7
 65
   257
 75
     1
175
     1
 42
1.0
 92
        0
 66
   257
 43
1.0
 76
     1
 77
     6
 78
     2
 67
     7
 79
     5
170
     0
171
     0
290
     0
174
     0
 93
        1
 44
0.0
173
     0
291
     0
 45
0.0
1001
ACAD
1000
AcDbSavedByObjectVersion
1070
     0
  0
VISUALSTYLE
  5
F4
102
{ACAD_REACTORS
330
EF
102
}
330
EF
100
AcDbVisualStyle
  2
Basic
 70
     7
 71
     1
 72
     0
 73
     1
 90
        0
 40
-0.6
 41
-30.0
 62
     5
 63
     7
 74
     0
 91
        4
 64
     7
 65
   257
 75
     1
175
     1
 42
1.0
 92
        8
 66
     7
 43
1.0
 76
     1
 77
     6
 78
     2
 67
     7
 79
     5
170
     0
171
     0
290
     0
174
     0
 93
        1
 44
0.0
173
     0
291
     1
 45
0.0
1001
ACAD
1000
AcDbSavedByObjectVersion
1070
     0
  0
VISUALSTYLE
  5
FB
102
{ACAD_REACTORS
330
EF
102
}
330
EF
100
AcDbVisualStyle
  2
Brighten
 70
    12
 71
     2
 72
     2
 73
     1
 90
        0
 40
-0.6
 41
-30.0
 62
     5
 63
     7
 74
     1
 91
        4
 64
     7
 65
   257
 75
     1
175
     1
 42
1.0
 92
        8
 66
     7
 43
1.0
 76
     1
 77
     6
 78
     2
 67
     7
 79
     5
170
     0
171
     0
290
     0
174
     0
 93
        1
 44
50.0
173
     0
291
     1
 45
0.0
1001
ACAD
1000
AcDbSavedByObjectVersion
1070
     0
  0
VISUALSTYLE
  5
FF
102
{ACAD_REACTORS
330
EF
102
}
330
EF
100
AcDbVisualStyle
  2
ColorChange
 70
    16
 71
     2
 72
     2
 73
     3
 90
        0
 40
-0.6
 41
-30.0
 62
     5
 63
     8
 74
     1
 91
        4
 64
     7
 65
   257
 75
     1
175
     1
 42
1.0
 92
        8
 66
     8
 43
1.0
 76
     1
 77
     6
 78
     2
 67
     7
 79
     5
170
     0
171
     0
290
     0
174
     0
 93
        1
 44
0.0
173
     0
291
     1
 45
0.0
1001
ACAD
1000
AcDbSavedByObjectVersion
1070
     0
  0
VISUALSTYLE
  5
F8
102
{ACAD_REACTORS
330
EF
102
}
330
EF
100
AcDbVisualStyle
  2
Conceptual
 70
     9
 71
     3
 72
     2
 73
     1
 90
        0
 40
-0.6
 41
-30.0
 62
     5
 63
     7
 74
     2
 91
        2
 64
     7
 65
   257
 75
     1
175
     1
 42
40.0
 92
        8
 66
     7
 43
1.0
 76
     1
 77
     6
 78
     2
 67
     7
 79
     3
170
     0
171
     0
290
     0
174
     0
 93
        1
 44
0.0
173
     0
291
     0
 45
0.0
1001
ACAD
1000
AcDbSavedByObjectVersion
1070
     0
  0
VISUALSTYLE
  5
FA
102
{ACAD_REACTORS
330
EF
102
}
330
EF
100
AcDbVisualStyle
  2
Dim
 70
    11
 71
     2
 72
     2
 73
     1
 90
        0
 40
-0.6
 41
-30.0
 62
     5
 63
     7
 74
     1
 91
        4
 64
     7
 65
   257
 75
     1
175
     1
 42
1.0
 92
        8
 66
     7
 43
1.0
 76
     1
 77
     6
 78
     2
 67
     7
 79
     5
170
     0
171
     0
290
     0
174
     0
 93
        1
 44
-50.0
173
     0
291
     1
 45
0.0
1001
ACAD
1000
AcDbSavedByObjectVersion
1070
     0
  0
VISUALSTYLE
  5
FE
102
{ACAD_REACTORS
330
EF
102
}
330
EF
100
AcDbVisualStyle
  2
Facepattern
 70
    15
 71
     2
 72
     2
 73
     1
 90
        0
 40
-0.6
 41
-30.0
 62
     5
 63
     7
 74
     1
 91
        4
 64
     7
 65
   257
 75
     1
175
     1
 42
1.0
 92
        8
 66
     7
 43
1.0
 76
     1
 77
     6
 78
     2
 67
     7
 79
     5
170
     0
171
     0
290
     0
174
     0
 93
        1
 44
0.0
173
     0
291
     1
 45
0.0
1001
ACAD
1000
AcDbSavedByObjectVersion
1070
     0
  0
VISUALSTYLE
  5
F0
102
{ACAD_REACTORS
330
EF
102
}
330
EF
100
AcDbVisualStyle
  2
Flat
 70
     0
 71
     2
 72
     1
 73
     1
 90
        2
 40
-0.6
 41
30.0
 62
     5
 63
     7
 74
     0
 91
        4
 64
     7
 65
   257
 75
     1
175
     1
 42
1.0
 92
        8
 66
     7
 43
1.0
 76
     1
 77
     6
 78
     2
 67
     7
 79
     5
170
     0
171
     0
290
     0
174
     0
 93
        1
 44
0.0
173
     0
291
     1
 45
0.0
1001
ACAD
1000
AcDbSavedByObjectVersion
1070
     0
  0
VISUALSTYLE
  5
F1
102
{ACAD_REACTORS
330
EF
102
}
330
EF
100
AcDbVisualStyle
  2
FlatWithEdges
 70
     1
 71
     2
 72
     1
 73
     1
 90
        2
 40
-0.6
 41
30.0
 62
     5
 63
     7
 74
     1
 91
        4
 64
     7
 65
   257
 75
     1
175
     1
 42
1.0
 92
        0
 66
   257
 43
1.0
 76
     1
 77
     6
 78
     2
 67
     7
 79
     5
170
     0
171
     0
290
     0
174
     0
 93
        1
 44
0.0
173
     0
291
     1
 45
0.0
1001
ACAD
1000
AcDbSavedByObjectVersion
1070
     0
  0
VISUALSTYLE
  5
F2
102
{ACAD_REACTORS
330
EF
102
}
330
EF
100
AcDbVisualStyle
  2
Gouraud
 70
     2
 71
     2
 72
     2
 73
     1
 90
        2
 40
-0.6
 41
30.0
 62
     5
 63
     7
 74
     0
 91
        4
 64
     7
 65
   257
 75
     1
175
     1
 42
1.0
 92
        0
 66
     7
 43
1.0
 76
     1
 77
     6
 78
     2
 67
     7
 79
     5
170
     0
171
     0
290
     0
174
     0
 93
        1
 44
0.0
173
     0
291
     1
 45
0.0
1001
ACAD
1000
AcDbSavedByObjectVersion
1070
     0
  0
VISUALSTYLE
  5
F3
102
{ACAD_REACTORS
330
EF
102
}
330
EF
100
AcDbVisualStyle
  2
GouraudWithEdges
 70
     3
 71
     2
 72
     2
 73
     1
 90
        2
 40
-0.6
 41
30.0
 62
     5
 63
     7
 74
     1
 91
        4
 64
     7
 65
   257
 75
     1
175
     1
 42
1.0
 92
        0
 66
   257
 43
1.0
 76
     1
 77
     6
 78
     2
 67
     7
 79
     5
170
     0
171
     0
290
     0
174
     0
 93
        1
 44
0.0
173
     0
291
     1
 45
0.0
1001
ACAD
1000
AcDbSavedByObjectVersion
1070
     0
  0
VISUALSTYLE
  5
FD
102
{ACAD_REACTORS
330
EF
102
}
330
EF
100
AcDbVisualStyle
  2
Linepattern
 70
    14
 71
     2
 72
     2
 73
     1
 90
        0
 40
-0.6
 41
-30.0
 62
     5
 63
     7
 74
     1
 91
        4
 64
     7
 65
   257
 75
     7
175
     7
 42
1.0
 92
        8
 66
     7
 43
1.0
 76
     1
 77
     6
 78
     2
 67
     7
 79
     5
170
     0
171
     0
290
     0
174
     0
 93
        1
 44
0.0
173
     0
291
     1
 45
0.0
1001
ACAD
1000
AcDbSavedByObjectVersion
1070
     0
  0
VISUALSTYLE
  5
F9
102
{ACAD_REACTORS
330
EF
102
}
330
EF
100
AcDbVisualStyle
  2
Realistic
 70
     8
 71
     2
 72
     2
 73
     1
 90
        0
 40
-0.6
 41
-30.0
 62
     5
 63
     7
 74
     1
 91
        0
 64
     7
 65
   257
 75
     1
175
     1
 42
1.0
 92
        8
 66
     8
 43
1.0
 76
     1
 77
     6
 78
     2
 67
     7
 79
     5
170
     0
171
     0
290
     0
174
     0
 93
       13
 44
0.0
173
     0
291
     0
 45
0.0
1001
ACAD
1000
AcDbSavedByObjectVersion
1070
     0
  0
VISUALSTYLE
  5
FC
102
{ACAD_REACTORS
330
EF
102
}
330
EF
100
AcDbVisualStyle
  2
Thicken
 70
    13
 71
     2
 72
     2
 73
     1
 90
        0
 40
-0.6
 41
-30.0
 62
     5
 63
     7
 74
     1
 91
        4
 64
     7
 65
   257
 75
     1
175
     1
 42
1.0
 92
       12
 66
     7
 43
1.0
 76
     1
 77
     6
 78
     2
 67
     7
 79
     5
170
     0
171
     0
290
     0
174
     0
 93
        1
 44
0.0
173
     0
291
     1
 45
0.0
1001
ACAD
1000
AcDbSavedByObjectVersion
1070
     0
  0
DICTIONARYVAR
  5
146
102
{ACAD_REACTORS
330
5E
102
}
330
5E
100
DictionaryVariables
280
     0
  1
1:1
  0
DICTIONARYVAR
  5
145
102
{ACAD_REACTORS
330
5E
102
}
330
5E
100
DictionaryVariables
280
     0
  1
STANDARD
  0
DICTIONARYVAR
  5
84
102
{ACAD_REACTORS
330
5E
102
}
330
5E
100
DictionaryVariables
280
     0
  1
STANDARD
  0
DICTIONARYVAR
  5
5F
102
{ACAD_REACTORS
330
5E
102
}
330
5E
100
DictionaryVariables
280
     0
  1
2
  0
DICTIONARYVAR
  5
63
102
{ACAD_REACTORS
330
5E
102
}
330
5E
100
DictionaryVariables
280
     0
  1
1
  0
DICTIONARYVAR
  5
5B4
102
{ACAD_REACTORS
330
5E
102
}
330
5E
100
DictionaryVariables
280
     0
  1
0
  0
DICTIONARYVAR
  5
5B2
102
{ACAD_REACTORS
330
5E
102
}
330
5E
100
DictionaryVariables
280
     0
  1
2
  0
DICTIONARYVAR
  5
5B1
102
{ACAD_REACTORS
330
5E
102
}
330
5E
100
DictionaryVariables
280
     0
  1
1
  0
DICTIONARYVAR
  5
5B6
102
{ACAD_REACTORS
330
5E
102
}
330
5E
100
DictionaryVariables
280
     0
  1
80.000000
  0
DICTIONARYVAR
  5
5B5
102
{ACAD_REACTORS
330
5E
102
}
330
5E
100
DictionaryVariables
280
     0
  1
5.000000
  0
DICTIONARYVAR
  5
5B3
102
{ACAD_REACTORS
330
5E
102
}
330
5E
100
DictionaryVariables
280
     0
  1
127
  0
DICTIONARY
  5
5BC
330
D3
100
AcDbDictionary
280
     1
281
     1
  3
ACAD_XREC_ROUNDTRIP
360
5BD
  0
DICTIONARY
  5
5BE
330
D7
100
AcDbDictionary
280
     1
281
     1
  3
ACAD_XREC_ROUNDTRIP
360
5BF
  0
DICTIONARY
  5
5B9
330
22
100
AcDbDictionary
280
     1
281
     1
  3
ACAD_XREC_ROUNDTRIP
360
5BA
  0
DICTIONARY
  5
5C2
330
ED
100
AcDbDictionary
280
     1
281
     1
  3
ACAD_XREC_ROUNDTRIP
360
5C3
  0
DICTIONARY
  5
5C0
330
EC
100
AcDbDictionary
280
     1
281
     1
  3
ACAD_XREC_ROUNDTRIP
360
5C1
  0
DICTIONARY
  5
173
330
EE
100
AcDbDictionary
280
     1
281
     1
  3
ACAD_XREC_ROUNDTRIP
360
5C4
  3
BUMPTILE
360
175
  3
DIFFUSETILE
360
174
  3
OPACITYTILE
360
176
  3
REFLECTIONTILE
360
177
  0
DICTIONARY
  5
162
330
7F
100
AcDbDictionary
280
     1
281
     1
  3
ACAD_ROUNDTRIP_2008_TABLESTYLE_CELLSTYLEMAP
360
5B7
  3
ACAD_XREC_ROUNDTRIP
360
5BB
  0
XRECORD
  5
5BD
102
{ACAD_REACTORS
330
5BC
102
}
330
5BC
100
AcDbXrecord
280
     1
102
SHADEPLOT
 70
     0
102
SHADEPLOTRESLEVEL
 70
     2
102
SHADEPLOTCUSTOMDPI
 70
   300
  0
XRECORD
  5
5BF
102
{ACAD_REACTORS
330
5BE
102
}
330
5BE
100
AcDbXrecord
280
     1
102
SHADEPLOT
 70
     0
102
SHADEPLOTRESLEVEL
 70
     2
102
SHADEPLOTCUSTOMDPI
 70
   300
  0
XRECORD
  5
5BA
102
{ACAD_REACTORS
330
5B9
102
}
330
5B9
100
AcDbXrecord
280
     1
102
SHADEPLOT
 70
     0
102
SHADEPLOTRESLEVEL
 70
     2
102
SHADEPLOTCUSTOMDPI
 70
   300
  0
XRECORD
  5
5C3
102
{ACAD_REACTORS
330
5C2
102
}
330
5C2
100
AcDbXrecord
280
     1
102
MATERIAL
148
0.0
149
0.0
149
0.0
 93
        0
 94
       63
282
     0
 72
     1
 77
     1
171
     1
175
     1
179
     1
273
     0
  0
XRECORD
  5
5C1
102
{ACAD_REACTORS
330
5C0
102
}
330
5C0
100
AcDbXrecord
280
     1
102
MATERIAL
148
0.0
149
0.0
149
0.0
 93
        0
 94
       63
282
     0
 72
     1
 77
     1
171
     1
175
     1
179
     1
273
     0
  0
XRECORD
  5
5C4
102
{ACAD_REACTORS
330
173
102
}
330
173
100
AcDbXrecord
280
     1
102
MATERIAL
148
0.0
149
0.0
149
0.0
 93
        0
 94
       63
282
     0
 72
     1
 77
     1
171
     1
175
     1
179
     1
273
     0
  0
XRECORD
  5
175
102
{ACAD_REACTORS
330
173
102
}
330
173
100
AcDbXrecord
280
     1
270
     1
271
     1
  0
XRECORD
  5
174
102
{ACAD_REACTORS
330
173
102
}
330
173
100
AcDbXrecord
280
     1
270
     1
271
     1
  0
XRECORD
  5
176
102
{ACAD_REACTORS
330
173
102
}
330
173
100
AcDbXrecord
280
     1
270
     1
271
     1
  0
XRECORD
  5
177
102
{ACAD_REACTORS
330
173
102
}
330
173
100
AcDbXrecord
280
     1
270
     1
271
     1
  0
CELLSTYLEMAP
  5
5B7
102
{ACAD_REACTORS
330
162
102
}
330
162
100
AcDbCellStyleMap
 90
        3
300
CELLSTYLE
  1
TABLEFORMAT_BEGIN
 90
        5
170
     1
 91
        0
 92
    32768
 62
   257
 93
        1
300
CONTENTFORMAT
  1
CONTENTFORMAT_BEGIN
 90
        0
 91
        0
 92
      512
 93
        0
300

 40
0.0
140
1.0
 94
        5
 62
     0
340
11
144
6.0
309
CONTENTFORMAT_END
171
     1
301
MARGIN
  1
CELLMARGIN_BEGIN
 40
1.5
 40
1.5
 40
1.5
 40
1.5
 40
4.5
 40
4.5
309
CELLMARGIN_END
 94
        6
 95
        1
302
GRIDFORMAT
  1
GRIDFORMAT_BEGIN
 90
        0
 91
        1
 62
     0
 92
       -2
340
14
 93
        0
 40
1.125
309
GRIDFORMAT_END
 95
        2
302
GRIDFORMAT
  1
GRIDFORMAT_BEGIN
 90
        0
 91
        1
 62
     0
 92
       -2
340
14
 93
        0
 40
1.125
309
GRIDFORMAT_END
 95
        4
302
GRIDFORMAT
  1
GRIDFORMAT_BEGIN
 90
        0
 91
        1
 62
     0
 92
       -2
340
14
 93
        0
 40
1.125
309
GRIDFORMAT_END
 95
        8
302
GRIDFORMAT
  1
GRIDFORMAT_BEGIN
 90
        0
 91
        1
 62
     0
 92
       -2
340
14
 93
        0
 40
1.125
309
GRIDFORMAT_END
 95
       16
302
GRIDFORMAT
  1
GRIDFORMAT_BEGIN
 90
        0
 91
        1
 62
     0
 92
       -2
340
14
 93
        0
 40
1.125
309
GRIDFORMAT_END
 95
       32
302
GRIDFORMAT
  1
GRIDFORMAT_BEGIN
 90
        0
 91
        1
 62
     0
 92
       -2
340
14
 93
        0
 40
1.125
309
GRIDFORMAT_END
309
TABLEFORMAT_END
  1
CELLSTYLE_BEGIN
 90
        1
 91
        1
300
_TITLE
309
CELLSTYLE_END
300
CELLSTYLE
  1
TABLEFORMAT_BEGIN
 90
        5
170
     1
 91
        0
 92
        0
 62
   257
 93
        1
300
CONTENTFORMAT
  1
CONTENTFORMAT_BEGIN
 90
        0
 91
        0
 92
      512
 93
        0
300

 40
0.0
140
1.0
 94
        5
 62
     0
340
11
144
4.5
309
CONTENTFORMAT_END
171
     1
301
MARGIN
  1
CELLMARGIN_BEGIN
 40
1.5
 40
1.5
 40
1.5
 40
1.5
 40
4.5
 40
4.5
309
CELLMARGIN_END
 94
        6
 95
        1
302
GRIDFORMAT
  1
GRIDFORMAT_BEGIN
 90
        0
 91
        1
 62
     0
 92
       -2
340
14
 93
        0
 40
1.125
309
GRIDFORMAT_END
 95
        2
302
GRIDFORMAT
  1
GRIDFORMAT_BEGIN
 90
        0
 91
        1
 62
     0
 92
       -2
340
14
 93
        0
 40
1.125
309
GRIDFORMAT_END
 95
        4
302
GRIDFORMAT
  1
GRIDFORMAT_BEGIN
 90
        0
 91
        1
 62
     0
 92
       -2
340
14
 93
        0
 40
1.125
309
GRIDFORMAT_END
 95
        8
302
GRIDFORMAT
  1
GRIDFORMAT_BEGIN
 90
        0
 91
        1
 62
     0
 92
       -2
340
14
 93
        0
 40
1.125
309
GRIDFORMAT_END
 95
       16
302
GRIDFORMAT
  1
GRIDFORMAT_BEGIN
 90
        0
 91
        1
 62
     0
 92
       -2
340
14
 93
        0
 40
1.125
309
GRIDFORMAT_END
 95
       32
302
GRIDFORMAT
  1
GRIDFORMAT_BEGIN
 90
        0
 91
        1
 62
     0
 92
       -2
340
14
 93
        0
 40
1.125
309
GRIDFORMAT_END
309
TABLEFORMAT_END
  1
CELLSTYLE_BEGIN
 90
        2
 91
        1
300
_HEADER
309
CELLSTYLE_END
300
CELLSTYLE
  1
TABLEFORMAT_BEGIN
 90
        5
170
     1
 91
        0
 92
        0
 62
   257
 93
        1
300
CONTENTFORMAT
  1
CONTENTFORMAT_BEGIN
 90
        0
 91
        0
 92
      512
 93
        0
300

 40
0.0
140
1.0
 94
        2
 62
     0
340
11
144
4.5
309
CONTENTFORMAT_END
171
     1
301
MARGIN
  1
CELLMARGIN_BEGIN
 40
1.5
 40
1.5
 40
1.5
 40
1.5
 40
4.5
 40
4.5
309
CELLMARGIN_END
 94
        6
 95
        1
302
GRIDFORMAT
  1
GRIDFORMAT_BEGIN
 90
        0
 91
        1
 62
     0
 92
       -2
340
14
 93
        0
 40
1.125
309
GRIDFORMAT_END
 95
        2
302
GRIDFORMAT
  1
GRIDFORMAT_BEGIN
 90
        0
 91
        1
 62
     0
 92
       -2
340
14
 93
        0
 40
1.125
309
GRIDFORMAT_END
 95
        4
302
GRIDFORMAT
  1
GRIDFORMAT_BEGIN
 90
        0
 91
        1
 62
     0
 92
       -2
340
14
 93
        0
 40
1.125
309
GRIDFORMAT_END
 95
        8
302
GRIDFORMAT
  1
GRIDFORMAT_BEGIN
 90
        0
 91
        1
 62
     0
 92
       -2
340
14
 93
        0
 40
1.125
309
GRIDFORMAT_END
 95
       16
302
GRIDFORMAT
  1
GRIDFORMAT_BEGIN
 90
        0
 91
        1
 62
     0
 92
       -2
340
14
 93
        0
 40
1.125
309
GRIDFORMAT_END
 95
       32
302
GRIDFORMAT
  1
GRIDFORMAT_BEGIN
 90
        0
 91
        1
 62
     0
 92
       -2
340
14
 93
        0
 40
1.125
309
GRIDFORMAT_END
309
TABLEFORMAT_END
  1
CELLSTYLE_BEGIN
 90
        3
 91
        2
300
_DATA
309
CELLSTYLE_END
  0
XRECORD
  5
5BB
102
{ACAD_REACTORS
330
162
102
}
330
162
100
AcDbXrecord
280
     1
102
ACAD_ROUNDTRIP_PRE2007_TABLESTYLE
 90
      512
 91
        0
  1

 92
      512
 93
        0
  2

 94
      512
 95
        0
  3

  0
ENDSEC
  0
EOF
