  0
SECTION
  2
HEADER
  9
$ACADVER
  1
AC1015
  9
$ACADMAINTVER
 70
    20
  9
$DWGCODEPAGE
  3
ANSI_1254
  9
$INSBASE
 10
0.0
 20
0.0
 30
0.0
  9
$EXTMIN
 10
2215.396714550402
 20
676.4434591308636
 30
0.0
  9
$EXTMAX
 10
2330.572664846781
 20
722.9347946790324
 30
0.0
  9
$LIMMIN
 10
0.0
 20
0.0
  9
$LIMMAX
 10
420.0
 20
297.0
  9
$ORTHOMODE
 70
     0
  9
$REGENMODE
 70
     1
  9
$FILLMODE
 70
     1
  9
$QTEXTMODE
 70
     0
  9
$MIRRTEXT
 70
     0
  9
$LTSCALE
 40
1.0
  9
$ATTMODE
 70
     1
  9
$TEXTSIZE
 40
2.5
  9
$TRACEWID
 40
1.0
  9
$TEXTSTYLE
  7
Standard
  9
$CLAYER
  8
0
  9
$CELTYPE
  6
ByLayer
  9
$CECOLOR
 62
   256
  9
$CELTSCALE
 40
1.0
  9
$DISPSILH
 70
     0
  9
$DIMSCALE
 40
1.0
  9
$DIMASZ
 40
2.5
  9
$DIMEXO
 40
0.625
  9
$DIMDLI
 40
3.75
  9
$DIMRND
 40
0.0
  9
$DIMDLE
 40
0.0
  9
$DIMEXE
 40
1.25
  9
$DIMTP
 40
0.0
  9
$DIMTM
 40
0.0
  9
$DIMTXT
 40
2.5
  9
$DIMCEN
 40
2.5
  9
$DIMTSZ
 40
0.0
  9
$DIMTOL
 70
     0
  9
$DIMLIM
 70
     0
  9
$DIMTIH
 70
     0
  9
$DIMTOH
 70
     0
  9
$DIMSE1
 70
     0
  9
$DIMSE2
 70
     0
  9
$DIMTAD
 70
     1
  9
$DIMZIN
 70
     8
  9
$DIMBLK
  1

  9
$DIMASO
 70
     1
  9
$DIMSHO
 70
     1
  9
$DIMPOST
  1

  9
$DIMAPOST
  1

  9
$DIMALT
 70
     0
  9
$DIMALTD
 70
     3
  9
$DIMALTF
 40
0.03937007874016
  9
$DIMLFAC
 40
1.0
  9
$DIMTOFL
 70
     1
  9
$DIMTVP
 40
0.0
  9
$DIMTIX
 70
     0
  9
$DIMSOXD
 70
     0
  9
$DIMSAH
 70
     0
  9
$DIMBLK1
  1

  9
$DIMBLK2
  1

  9
$DIMSTYLE
  2
ISO-25
  9
$DIMCLRD
 70
     0
  9
$DIMCLRE
 70
     0
  9
$DIMCLRT
 70
     0
  9
$DIMTFAC
 40
1.0
  9
$DIMGAP
 40
0.625
  9
$DIMJUST
 70
     0
  9
$DIMSD1
 70
     0
  9
$DIMSD2
 70
     0
  9
$DIMTOLJ
 70
     0
  9
$DIMTZIN
 70
     8
  9
$DIMALTZ
 70
     0
  9
$DIMALTTZ
 70
     0
  9
$DIMUPT
 70
     0
  9
$DIMDEC
 70
     2
  9
$DIMTDEC
 70
     2
  9
$DIMALTU
 70
     2
  9
$DIMALTTD
 70
     3
  9
$DIMTXSTY
  7
Standard
  9
$DIMAUNIT
 70
     0
  9
$DIMADEC
 70
     0
  9
$DIMALTRND
 40
0.0
  9
$DIMAZIN
 70
     0
  9
$DIMDSEP
 70
    44
  9
$DIMATFIT
 70
     3
  9
$DIMFRAC
 70
     0
  9
$DIMLDRBLK
  1

  9
$DIMLUNIT
 70
     2
  9
$DIMLWD
 70
    -2
  9
$DIMLWE
 70
    -2
  9
$DIMTMOVE
 70
     0
  9
$LUNITS
 70
     2
  9
$LUPREC
 70
     4
  9
$SKETCHINC
 40
1.0
  9
$FILLETRAD
 40
0.0
  9
$AUNITS
 70
     0
  9
$AUPREC
 70
     0
  9
$MENU
  1
.
  9
$ELEVATION
 40
0.0
  9
$PELEVATION
 40
0.0
  9
$THICKNESS
 40
0.0
  9
$LIMCHECK
 70
     0
  9
$CHAMFERA
 40
0.0
  9
$CHAMFERB
 40
0.0
  9
$CHAMFERC
 40
0.0
  9
$CHAMFERD
 40
0.0
  9
$SKPOLY
 70
     0
  9
$TDCREATE
 40
2458935.532527871
  9
$TDUCREATE
 40
2458935.407527871
  9
$TDUPDATE
 40
2458956.462263114
  9
$TDUUPDATE
 40
2458956.337263114
  9
$TDINDWG
 40
0.0003676620
  9
$TDUSRTIMER
 40
0.0003674884
  9
$USRTIMER
 70
     1
  9
$ANGBASE
 50
0.0
  9
$ANGDIR
 70
     0
  9
$PDMODE
 70
     0
  9
$PDSIZE
 40
0.0
  9
$PLINEWID
 40
0.0
  9
$SPLFRAME
 70
     0
  9
$SPLINETYPE
 70
     6
  9
$SPLINESEGS
 70
     8
  9
$HANDSEED
  5
4F3
  9
$SURFTAB1
 70
     6
  9
$SURFTAB2
 70
     6
  9
$SURFTYPE
 70
     6
  9
$SURFU
 70
     6
  9
$SURFV
 70
     6
  9
$UCSBASE
  2

  9
$UCSNAME
  2

  9
$UCSORG
 10
0.0
 20
0.0
 30
0.0
  9
$UCSXDIR
 10
1.0
 20
0.0
 30
0.0
  9
$UCSYDIR
 10
0.0
 20
1.0
 30
0.0
  9
$UCSORTHOREF
  2

  9
$UCSORTHOVIEW
 70
     0
  9
$UCSORGTOP
 10
0.0
 20
0.0
 30
0.0
  9
$UCSORGBOTTOM
 10
0.0
 20
0.0
 30
0.0
  9
$UCSORGLEFT
 10
0.0
 20
0.0
 30
0.0
  9
$UCSORGRIGHT
 10
0.0
 20
0.0
 30
0.0
  9
$UCSORGFRONT
 10
0.0
 20
0.0
 30
0.0
  9
$UCSORGBACK
 10
0.0
 20
0.0
 30
0.0
  9
$PUCSBASE
  2

  9
$PUCSNAME
  2

  9
$PUCSORG
 10
0.0
 20
0.0
 30
0.0
  9
$PUCSXDIR
 10
1.0
 20
0.0
 30
0.0
  9
$PUCSYDIR
 10
0.0
 20
1.0
 30
0.0
  9
$PUCSORTHOREF
  2

  9
$PUCSORTHOVIEW
 70
     0
  9
$PUCSORGTOP
 10
0.0
 20
0.0
 30
0.0
  9
$PUCSORGBOTTOM
 10
0.0
 20
0.0
 30
0.0
  9
$PUCSORGLEFT
 10
0.0
 20
0.0
 30
0.0
  9
$PUCSORGRIGHT
 10
0.0
 20
0.0
 30
0.0
  9
$PUCSORGFRONT
 10
0.0
 20
0.0
 30
0.0
  9
$PUCSORGBACK
 10
0.0
 20
0.0
 30
0.0
  9
$USERI1
 70
     0
  9
$USERI2
 70
     0
  9
$USERI3
 70
     0
  9
$USERI4
 70
     0
  9
$USERI5
 70
     0
  9
$USERR1
 40
0.0
  9
$USERR2
 40
0.0
  9
$USERR3
 40
0.0
  9
$USERR4
 40
0.0
  9
$USERR5
 40
0.0
  9
$WORLDVIEW
 70
     1
  9
$SHADEDGE
 70
     3
  9
$SHADEDIF
 70
    70
  9
$TILEMODE
 70
     1
  9
$MAXACTVP
 70
    64
  9
$PINSBASE
 10
0.0
 20
0.0
 30
0.0
  9
$PLIMCHECK
 70
     0
  9
$PEXTMIN
 10
0.0
 20
0.0
 30
0.0
  9
$PEXTMAX
 10
0.0
 20
0.0
 30
0.0
  9
$PLIMMIN
 10
0.0
 20
0.0
  9
$PLIMMAX
 10
12.0
 20
9.0
  9
$UNITMODE
 70
     0
  9
$VISRETAIN
 70
     1
  9
$PLINEGEN
 70
     0
  9
$PSLTSCALE
 70
     1
  9
$TREEDEPTH
 70
  3020
  9
$CMLSTYLE
  2
Standard
  9
$CMLJUST
 70
     0
  9
$CMLSCALE
 40
20.0
  9
$PROXYGRAPHICS
 70
     1
  9
$MEASUREMENT
 70
     1
  9
$CELWEIGHT
370
    -1
  9
$ENDCAPS
280
     0
  9
$JOINSTYLE
280
     0
  9
$LWDISPLAY
290
     0
  9
$INSUNITS
 70
     4
  9
$HYPERLINKBASE
  1

  9
$STYLESHEET
  1

  9
$XEDIT
290
     1
  9
$CEPSNTYPE
380
     0
  9
$PSTYLEMODE
290
     1
  9
$FINGERPRINTGUID
  2
{E6BDDF51-14EF-42D3-BDEB-C197E176CD91}
  9
$VERSIONGUID
  2
{79F032F7-E392-45C3-B2B9-755C6758F5C3}
  9
$EXTNAMES
290
     1
  9
$PSVPSCALE
 40
0.0
  9
$OLESTARTUP
290
     0
  0
ENDSEC
  0
SECTION
  2
CLASSES
  0
CLASS
  1
ACDBDICTIONARYWDFLT
  2
AcDbDictionaryWithDefault
  3
ObjectDBX Classes
 90
        0
280
     0
281
     0
  0
CLASS
  1
ACDBPLACEHOLDER
  2
AcDbPlaceHolder
  3
ObjectDBX Classes
 90
        0
280
     0
281
     0
  0
CLASS
  1
LAYOUT
  2
AcDbLayout
  3
ObjectDBX Classes
 90
        0
280
     0
281
     0
  0
CLASS
  1
DICTIONARYVAR
  2
AcDbDictionaryVar
  3
ObjectDBX Classes
 90
        0
280
     0
281
     0
  0
CLASS
  1
TABLESTYLE
  2
AcDbTableStyle
  3
ObjectDBX Classes
 90
     4095
280
     0
281
     0
  0
CLASS
  1
MATERIAL
  2
AcDbMaterial
  3
ObjectDBX Classes
 90
     1153
280
     0
281
     0
  0
CLASS
  1
VISUALSTYLE
  2
AcDbVisualStyle
  3
ObjectDBX Classes
 90
     4095
280
     0
281
     0
  0
CLASS
  1
SCALE
  2
AcDbScale
  3
ObjectDBX Classes
 90
     1153
280
     0
281
     0
  0
CLASS
  1
MLEADERSTYLE
  2
AcDbMLeaderStyle
  3
ACDB_MLEADERSTYLE_CLASS
 90
     4095
280
     0
281
     0
  0
CLASS
  1
CELLSTYLEMAP
  2
AcDbCellStyleMap
  3
ObjectDBX Classes
 90
     1152
280
     0
281
     0
  0
ENDSEC
  0
SECTION
  2
TABLES
  0
TABLE
  2
VPORT
  5
8
330
0
100
AcDbSymbolTable
 70
     1
  0
VPORT
  5
EA
330
8
100
AcDbSymbolTableRecord
100
AcDbViewportTableRecord
  2
*Active
 70
     0
 10
0.0
 20
0.0
 11
1.0
 21
1.0
 12
2279.593950328423
 22
706.8568087569982
 13
0.0
 23
0.0
 14
10.0
 24
10.0
 15
10.0
 25
10.0
 16
0.0
 26
0.0
 36
1.0
 17
0.0
 27
0.0
 37
0.0
 40
85.49673734881398
 41
1.903110047846889
 42
50.0
 43
0.0
 44
0.0
 50
0.0
 51
0.0
 71
     0
 72
  1000
 73
     1
 74
     3
 75
     0
 76
     0
 77
     0
 78
     0
281
     0
 65
     1
110
0.0
120
0.0
130
0.0
111
1.0
121
0.0
131
0.0
112
0.0
122
1.0
132
0.0
 79
     0
146
0.0
  0
ENDTAB
  0
TABLE
  2
LTYPE
  5
5
330
0
100
AcDbSymbolTable
 70
     1
  0
LTYPE
  5
14
330
5
100
AcDbSymbolTableRecord
100
AcDbLinetypeTableRecord
  2
ByBlock
 70
     0
  3

 72
    65
 73
     0
 40
0.0
  0
LTYPE
  5
15
330
5
100
AcDbSymbolTableRecord
100
AcDbLinetypeTableRecord
  2
ByLayer
 70
     0
  3

 72
    65
 73
     0
 40
0.0
  0
LTYPE
  5
16
330
5
100
AcDbSymbolTableRecord
100
AcDbLinetypeTableRecord
  2
Continuous
 70
     0
  3
Solid line
 72
    65
 73
     0
 40
0.0
  0
ENDTAB
  0
TABLE
  2
LAYER
  5
2
330
0
100
AcDbSymbolTable
 70
     1
  0
LAYER
  5
10
102
{ACAD_XDICTIONARY
360
13C
102
}
330
2
100
AcDbSymbolTableRecord
100
AcDbLayerTableRecord
  2
0
 70
     0
 62
     7
  6
Continuous
370
    -3
390
F
  0
ENDTAB
  0
TABLE
  2
STYLE
  5
3
330
0
100
AcDbSymbolTable
 70
     2
  0
STYLE
  5
11
330
3
100
AcDbSymbolTableRecord
100
AcDbTextStyleTableRecord
  2
Standard
 70
     0
 40
0.0
 41
1.0
 50
0.0
 71
     0
 42
2.5
  3
txt
  4

  0
STYLE
  5
132
330
3
100
AcDbSymbolTableRecord
100
AcDbTextStyleTableRecord
  2
Annotative
 70
     0
 40
0.0
 41
1.0
 50
0.0
 71
     0
 42
2.5
  3
txt.shx
  4

1001
AcadAnnotative
1000
AnnotativeData
1002
{
1070
     1
1070
     1
1002
}
  0
ENDTAB
  0
TABLE
  2
VIEW
  5
6
330
0
100
AcDbSymbolTable
 70
     0
  0
ENDTAB
  0
TABLE
  2
UCS
  5
7
330
0
100
AcDbSymbolTable
 70
     0
  0
ENDTAB
  0
TABLE
  2
APPID
  5
9
330
0
100
AcDbSymbolTable
 70
     7
  0
APPID
  5
12
330
9
100
AcDbSymbolTableRecord
100
AcDbRegAppTableRecord
  2
ACAD
 70
     0
  0
APPID
  5
9E
330
9
100
AcDbSymbolTableRecord
100
AcDbRegAppTableRecord
  2
ACAD_PSEXT
 70
     0
  0
APPID
  5
133
330
9
100
AcDbSymbolTableRecord
100
AcDbRegAppTableRecord
  2
AcadAnnoPO
 70
     0
  0
APPID
  5
134
330
9
100
AcDbSymbolTableRecord
100
AcDbRegAppTableRecord
  2
AcadAnnotative
 70
     0
  0
APPID
  5
135
330
9
100
AcDbSymbolTableRecord
100
AcDbRegAppTableRecord
  2
ACAD_DSTYLE_DIMJAG
 70
     0
  0
APPID
  5
136
330
9
100
AcDbSymbolTableRecord
100
AcDbRegAppTableRecord
  2
ACAD_DSTYLE_DIMTALN
 70
     0
  0
APPID
  5
165
330
9
100
AcDbSymbolTableRecord
100
AcDbRegAppTableRecord
  2
ACAD_MLEADERVER
 70
     0
  0
ENDTAB
  0
TABLE
  2
DIMSTYLE
  5
A
330
0
100
AcDbSymbolTable
 70
     2
100
AcDbDimStyleTable
 71
     2
340
27
340
137
  0
DIMSTYLE
105
27
330
A
100
AcDbSymbolTableRecord
100
AcDbDimStyleTableRecord
  2
ISO-25
 70
     0
 41
2.5
 42
0.625
 43
3.75
 44
1.25
 73
     0
 74
     0
 77
     1
 78
     8
140
2.5
141
2.5
143
0.03937007874016
147
0.625
171
     3
172
     1
271
     2
272
     2
274
     3
278
    44
283
     0
284
     8
340
11
  0
DIMSTYLE
105
137
330
A
100
AcDbSymbolTableRecord
100
AcDbDimStyleTableRecord
  2
Annotative
 70
     0
 40
0.0
 41
2.5
 42
0.625
 43
3.75
 44
1.25
 73
     0
 74
     0
 77
     1
 78
     8
140
2.5
141
2.5
143
0.03937007874016
147
0.625
171
     3
172
     1
271
     2
272
     2
274
     3
278
    44
283
     0
284
     8
340
11
1001
AcadAnnotative
1000
AnnotativeData
1002
{
1070
     1
1070
     1
1002
}
1001
ACAD_DSTYLE_DIMJAG
1070
   388
1040
1.5
1001
ACAD_DSTYLE_DIMTALN
1070
   392
1070
     0
  0
ENDTAB
  0
TABLE
  2
BLOCK_RECORD
  5
1
330
0
100
AcDbSymbolTable
 70
     5
  0
BLOCK_RECORD
  5
1F
330
1
100
AcDbSymbolTableRecord
100
AcDbBlockTableRecord
  2
*Model_Space
340
22
  0
BLOCK_RECORD
  5
D2
330
1
100
AcDbSymbolTableRecord
100
AcDbBlockTableRecord
  2
*Paper_Space
340
D3
  0
BLOCK_RECORD
  5
D6
330
1
100
AcDbSymbolTableRecord
100
AcDbBlockTableRecord
  2
*Paper_Space0
340
D7
  0
BLOCK_RECORD
  5
3C1
330
1
100
AcDbSymbolTableRecord
100
AcDbBlockTableRecord
  2
1
340
0
310
2800000020000000200000000100080000000000000400000000000000000000000000000000000000000000000080000080000000808000800000008000800080800000C0C0C000C0DCC000F0CAA6000020400000206000002080000020A0000020C0000020E00000400000004020000040400000406000004080000040A0
310
000040C0000040E00000600000006020000060400000606000006080000060A0000060C0000060E00000800000008020000080400000806000008080000080A0000080C0000080E00000A0000000A0200000A0400000A0600000A0800000A0A00000A0C00000A0E00000C0000000C0200000C0400000C0600000C0800000C0
310
A00000C0C00000C0E00000E0000000E0200000E0400000E0600000E0800000E0A00000E0C00000E0E00040000000400020004000400040006000400080004000A0004000C0004000E00040200000402020004020400040206000402080004020A0004020C0004020E000404000004040200040404000404060004040800040
310
40A0004040C0004040E00040600000406020004060400040606000406080004060A0004060C0004060E00040800000408020004080400040806000408080004080A0004080C0004080E00040A0000040A0200040A0400040A0600040A0800040A0A00040A0C00040A0E00040C0000040C0200040C0400040C0600040C08000
310
40C0A00040C0C00040C0E00040E0000040E0200040E0400040E0600040E0800040E0A00040E0C00040E0E00080000000800020008000400080006000800080008000A0008000C0008000E00080200000802020008020400080206000802080008020A0008020C0008020E00080400000804020008040400080406000804080
310
008040A0008040C0008040E00080600000806020008060400080606000806080008060A0008060C0008060E00080800000808020008080400080806000808080008080A0008080C0008080E00080A0000080A0200080A0400080A0600080A0800080A0A00080A0C00080A0E00080C0000080C0200080C0400080C0600080C0
310
800080C0A00080C0C00080C0E00080E0000080E0200080E0400080E0600080E0800080E0A00080E0C00080E0E000C0000000C0002000C0004000C0006000C0008000C000A000C000C000C000E000C0200000C0202000C0204000C0206000C0208000C020A000C020C000C020E000C0400000C0402000C0404000C0406000C0
310
408000C040A000C040C000C040E000C0600000C0602000C0604000C0606000C0608000C060A000C060C000C060E000C0800000C0802000C0804000C0806000C0808000C080A000C080C000C080E000C0A00000C0A02000C0A04000C0A06000C0A08000C0A0A000C0A0C000C0A0E000C0C00000C0C02000C0C04000C0C06000
310
C0C08000C0C0A000F0FBFF00A4A0A000808080000000FF0000FF000000FFFF00FF000000FF00FF00FFFF0000FFFFFF0000000000000000000000000000000000000000000000000000000000000000000000000000000000000000000000000000000000000000000000000000000000000000000000000000000000000000
310
00000000000000000000000000000000000000000000000000000000000000000000000000000000000000000000000000000000000000000000000000000000000000000000000000000000000000000000000000000000000000000000000000000000000000000000000000000000000000000000000000000000000000
310
0000000000000000000000000000000000000000000000000000000000000000000000000000000000000000000000000000000000FFFFFFFFFF0000000000FFFFFFFFFFFF0000000000FFFFFFFFFF000000000000FF000000FF0000000000FF00000000FF0000000000FF000000FF000000000000FF000000FF0000000000
310
FF00000000FF0000000000FF000000FF000000000000FF000000FF0000000000FF00000000FF0000000000FF000000FF000000000000FF000000FF0000000000FF00000000FF0000000000FF000000FF000000000000FF000000FF0000000000FF00000000FF0000000000FF000000FF000000000000FF000000FF00000000
310
00FF00000000FF0000000000FF000000FF000000000000FF000000FF0000000000FF00000000FF0000000000FF000000FF00000000FFFFFFFFFFFFFFFFFFFFFFFFFFFFFFFFFFFFFFFFFFFFFFFFFFFFFFFFFFFF0000FF00FF00000000FF00000000FF00000000FF00000000FF00000000FF00FF0000FFFFFFFFFFFFFFFFFFFF
310
FFFFFFFFFFFFFFFFFFFFFFFFFFFFFFFFFFFFFFFF00000000FFFFFFFFFFFF00000000FFFFFFFFFFFF00000000FFFFFFFFFFFF000000000000FF00000000FF00000000FF00000000FF00000000FF00000000FF000000000000FF00000000FF00000000FF00000000FF00000000FF00000000FF000000000000FF00000000FF00
310
000000FF00000000FF00000000FF00000000FF000000000000FFFFFFFFFFFF00000000FFFFFFFFFFFF00000000FFFFFFFFFFFF00000000000000000000000000000000000000000000000000000000000000000000000000000000000000000000000000000000000000000000000000000000000000000000000000000000
310
00000000000000000000000000000000000000000000000000000000000000000000000000000000000000000000000000000000000000000000000000000000000000000000000000000000000000000000000000000000000000000000000000000000000000000000000000000000000000000000000000000000000000
310
0000000000000000000000000000000000000000000000000000000000000000000000000000000000000000000000000000000000000000
102
{BLKREFS
331
410
102
}
1001
ACAD
1000
DesignCenter Data
1002
{
1070
     1
1070
     4
1002
}
  0
BLOCK_RECORD
  5
411
330
1
100
AcDbSymbolTableRecord
100
AcDbBlockTableRecord
  2
2
340
0
310
2800000020000000200000000100080000000000000400000000000000000000000000000000000000000000000080000080000000808000800000008000800080800000C0C0C000C0DCC000F0CAA6000020400000206000002080000020A0000020C0000020E00000400000004020000040400000406000004080000040A0
310
000040C0000040E00000600000006020000060400000606000006080000060A0000060C0000060E00000800000008020000080400000806000008080000080A0000080C0000080E00000A0000000A0200000A0400000A0600000A0800000A0A00000A0C00000A0E00000C0000000C0200000C0400000C0600000C0800000C0
310
A00000C0C00000C0E00000E0000000E0200000E0400000E0600000E0800000E0A00000E0C00000E0E00040000000400020004000400040006000400080004000A0004000C0004000E00040200000402020004020400040206000402080004020A0004020C0004020E000404000004040200040404000404060004040800040
310
40A0004040C0004040E00040600000406020004060400040606000406080004060A0004060C0004060E00040800000408020004080400040806000408080004080A0004080C0004080E00040A0000040A0200040A0400040A0600040A0800040A0A00040A0C00040A0E00040C0000040C0200040C0400040C0600040C08000
310
40C0A00040C0C00040C0E00040E0000040E0200040E0400040E0600040E0800040E0A00040E0C00040E0E00080000000800020008000400080006000800080008000A0008000C0008000E00080200000802020008020400080206000802080008020A0008020C0008020E00080400000804020008040400080406000804080
310
008040A0008040C0008040E00080600000806020008060400080606000806080008060A0008060C0008060E00080800000808020008080400080806000808080008080A0008080C0008080E00080A0000080A0200080A0400080A0600080A0800080A0A00080A0C00080A0E00080C0000080C0200080C0400080C0600080C0
310
800080C0A00080C0C00080C0E00080E0000080E0200080E0400080E0600080E0800080E0A00080E0C00080E0E000C0000000C0002000C0004000C0006000C0008000C000A000C000C000C000E000C0200000C0202000C0204000C0206000C0208000C020A000C020C000C020E000C0400000C0402000C0404000C0406000C0
310
408000C040A000C040C000C040E000C0600000C0602000C0604000C0606000C0608000C060A000C060C000C060E000C0800000C0802000C0804000C0806000C0808000C080A000C080C000C080E000C0A00000C0A02000C0A04000C0A06000C0A08000C0A0A000C0A0C000C0A0E000C0C00000C0C02000C0C04000C0C06000
310
C0C08000C0C0A000F0FBFF00A4A0A000808080000000FF0000FF000000FFFF00FF000000FF00FF00FFFF0000FFFFFF000000000000000000000000000000000000000000000000000000000000000000000000000000000000000000FFFFFFFFFFFFFFFF000000000000000000000000000000000000000000000000FFFFFF
310
FFFFFFFFFF000000000000000000000000000000000000000000000000FF000000000000FF000000000000000000000000000000000000000000000000FF000000000000FF000000000000000000000000000000000000000000000000FF000000000000FF000000000000000000000000000000000000000000000000FF00
310
0000000000FF000000000000000000000000000000000000000000000000FF000000000000FF000000000000000000000000000000000000000000000000FF000000000000FF000000000000000000000000000000000000000000000000FF000000000000FF000000000000000000000000000000000000000000000000FF
310
000000000000FF000000000000000000000000000000000000000000000000FF000000000000FF000000000000000000000000000000000000000000000000FF000000000000FF000000000000000000000000000000000000000000000000FF000000000000FF000000000000000000000000000000000000000000000000
310
FF000000000000FF000000000000000000000000000000000000000000000000FF000000000000FF0000000000000000000000000000000000000000000000FFFFFFFFFFFFFFFFFFFF00000000000000000000000000000000000000000000FF0000000000000000FF00000000000000000000000000000000000000000000
310
FF0000000000000000FF00000000000000000000000000000000000000000000FF0000000000000000FF00000000000000000000000000000000000000000000FF0000000000000000FF00000000000000000000000000000000000000000000FFFFFFFFFFFFFFFFFFFF000000000000000000000000000000000000000000
310
00FFFFFFFFFFFFFFFFFFFF00000000000000000000000000000000000000000000FFA4A4A4A4A4A4A4A4FF00000000000000000000000000000000000000000000FF0000000000000000FF00000000000000000000000000000000000000000000FF0000000000000000FF0000000000000000000000000000000000000000
310
0000FF0000000000000000FF00000000000000000000000000000000000000000000FF0000000000000000FF00000000000000000000000000000000000000000000FF0000000000000000FF00000000000000000000000000000000000000000000FF0000000000000000FF00000000000000000000000000000000000000
310
000000FFFFFFFFFFFFFFFFFFFF00000000000000000000000000000000000000000000000000000000000000000000000000000000000000
102
{BLKREFS
331
434
102
}
1001
ACAD
1000
DesignCenter Data
1002
{
1070
     1
1070
     4
1002
}
  0
BLOCK_RECORD
  5
435
330
1
100
AcDbSymbolTableRecord
100
AcDbBlockTableRecord
  2
3
340
0
310
2800000020000000200000000100080000000000000400000000000000000000000000000000000000000000000080000080000000808000800000008000800080800000C0C0C000C0DCC000F0CAA6000020400000206000002080000020A0000020C0000020E00000400000004020000040400000406000004080000040A0
310
000040C0000040E00000600000006020000060400000606000006080000060A0000060C0000060E00000800000008020000080400000806000008080000080A0000080C0000080E00000A0000000A0200000A0400000A0600000A0800000A0A00000A0C00000A0E00000C0000000C0200000C0400000C0600000C0800000C0
310
A00000C0C00000C0E00000E0000000E0200000E0400000E0600000E0800000E0A00000E0C00000E0E00040000000400020004000400040006000400080004000A0004000C0004000E00040200000402020004020400040206000402080004020A0004020C0004020E000404000004040200040404000404060004040800040
310
40A0004040C0004040E00040600000406020004060400040606000406080004060A0004060C0004060E00040800000408020004080400040806000408080004080A0004080C0004080E00040A0000040A0200040A0400040A0600040A0800040A0A00040A0C00040A0E00040C0000040C0200040C0400040C0600040C08000
310
40C0A00040C0C00040C0E00040E0000040E0200040E0400040E0600040E0800040E0A00040E0C00040E0E00080000000800020008000400080006000800080008000A0008000C0008000E00080200000802020008020400080206000802080008020A0008020C0008020E00080400000804020008040400080406000804080
310
008040A0008040C0008040E00080600000806020008060400080606000806080008060A0008060C0008060E00080800000808020008080400080806000808080008080A0008080C0008080E00080A0000080A0200080A0400080A0600080A0800080A0A00080A0C00080A0E00080C0000080C0200080C0400080C0600080C0
310
800080C0A00080C0C00080C0E00080E0000080E0200080E0400080E0600080E0800080E0A00080E0C00080E0E000C0000000C0002000C0004000C0006000C0008000C000A000C000C000C000E000C0200000C0202000C0204000C0206000C0208000C020A000C020C000C020E000C0400000C0402000C0404000C0406000C0
310
408000C040A000C040C000C040E000C0600000C0602000C0604000C0606000C0608000C060A000C060C000C060E000C0800000C0802000C0804000C0806000C0808000C080A000C080C000C080E000C0A00000C0A02000C0A04000C0A06000C0A08000C0A0A000C0A0C000C0A0E000C0C00000C0C02000C0C04000C0C06000
310
C0C08000C0C0A000F0FBFF00A4A0A000808080000000FF0000FF000000FFFF00FF000000FF00FF00FFFF0000FFFFFF0000000000000000000000000000000000000000000000000000000000000000000000000000000000000000000000000000000000000000000000000000000000000000000000000000000000000000
310
00000000000000000000000000000000000000000000000000000000000000000000000000000000000000000000000000000000000000000000000000000000000000000000000000000000000000000000000000000000000000000000000000000000000000000000000000000000000000000000000000000000000000
310
00000000000000000000000000000000000000000000000000000000000000000000000000000000000000000000000000000000000000000000000000000000000000000000000000000000000000000000000000000000000000000000000000000000000000000000000000000000000000000000000000000000000000
310
000000000000000000000000000000000000000000000000000000000000000000000000000000000000000000000000000000000000000000000000000000000000000000000000000000000000000000000000FFFFFFFFFFFFFFFFFFFFFFFFFFFFFFFFFFFFFFFFFFFFFFFFFFFFFFFFFFFF0000FF00FFFFFFFFFF00000000
310
0000FFFFFFFF000000000000FFFFFFFF0000FF0000FF00FFFFFFFFFFFF0000000000FFFFFFFFFF0000000000FFFFFFFFFF00FF0000FF00FFFFFFFFFF000000000000FFFFFFFF000000000000FFFFFFFF0000FF0000FF00FFFFFFFFFF000000000000FFFFFFFF000000000000FFFFFFFF0000FF0000FFFFFFFFFFFFFFFFFFFF
310
FFFFFFFFFFFFFFFFFFFFFFFFFFFFFFFFFFFFFFFF0000000000000000000000000000000000000000000000000000000000000000000000000000000000000000000000000000000000000000000000000000000000000000000000000000000000000000000000000000000000000000000000000000000000000000000000
310
00000000000000000000000000000000000000000000000000000000000000000000000000000000000000000000000000000000000000000000000000000000000000000000000000000000000000000000000000000000000000000000000000000000000000000000000000000000000000000000000000000000000000
310
00000000000000000000000000000000000000000000000000000000000000000000000000000000000000000000000000000000000000000000000000000000000000000000000000000000000000000000000000000000000000000000000000000000000000000000000000000000000000000000000000000000000000
310
0000000000000000000000000000000000000000000000000000000000000000000000000000000000000000000000000000000000000000
102
{BLKREFS
331
47B
102
}
1001
ACAD
1000
DesignCenter Data
1002
{
1070
     1
1070
     4
1002
}
  0
BLOCK_RECORD
  5
47C
330
1
100
AcDbSymbolTableRecord
100
AcDbBlockTableRecord
  2
4
340
0
310
2800000020000000200000000100080000000000000400000000000000000000000000000000000000000000000080000080000000808000800000008000800080800000C0C0C000C0DCC000F0CAA6000020400000206000002080000020A0000020C0000020E00000400000004020000040400000406000004080000040A0
310
000040C0000040E00000600000006020000060400000606000006080000060A0000060C0000060E00000800000008020000080400000806000008080000080A0000080C0000080E00000A0000000A0200000A0400000A0600000A0800000A0A00000A0C00000A0E00000C0000000C0200000C0400000C0600000C0800000C0
310
A00000C0C00000C0E00000E0000000E0200000E0400000E0600000E0800000E0A00000E0C00000E0E00040000000400020004000400040006000400080004000A0004000C0004000E00040200000402020004020400040206000402080004020A0004020C0004020E000404000004040200040404000404060004040800040
310
40A0004040C0004040E00040600000406020004060400040606000406080004060A0004060C0004060E00040800000408020004080400040806000408080004080A0004080C0004080E00040A0000040A0200040A0400040A0600040A0800040A0A00040A0C00040A0E00040C0000040C0200040C0400040C0600040C08000
310
40C0A00040C0C00040C0E00040E0000040E0200040E0400040E0600040E0800040E0A00040E0C00040E0E00080000000800020008000400080006000800080008000A0008000C0008000E00080200000802020008020400080206000802080008020A0008020C0008020E00080400000804020008040400080406000804080
310
008040A0008040C0008040E00080600000806020008060400080606000806080008060A0008060C0008060E00080800000808020008080400080806000808080008080A0008080C0008080E00080A0000080A0200080A0400080A0600080A0800080A0A00080A0C00080A0E00080C0000080C0200080C0400080C0600080C0
310
800080C0A00080C0C00080C0E00080E0000080E0200080E0400080E0600080E0800080E0A00080E0C00080E0E000C0000000C0002000C0004000C0006000C0008000C000A000C000C000C000E000C0200000C0202000C0204000C0206000C0208000C020A000C020C000C020E000C0400000C0402000C0404000C0406000C0
310
408000C040A000C040C000C040E000C0600000C0602000C0604000C0606000C0608000C060A000C060C000C060E000C0800000C0802000C0804000C0806000C0808000C080A000C080C000C080E000C0A00000C0A02000C0A04000C0A06000C0A08000C0A0A000C0A0C000C0A0E000C0C00000C0C02000C0C04000C0C06000
310
C0C08000C0C0A000F0FBFF00A4A0A000808080000000FF0000FF000000FFFF00FF000000FF00FF00FFFF0000FFFFFF0000000000000000000000000000000000000000000000000000000000000000000000000000000000000000000000000000000000000000000000000000000000000000000000000000000000000000
310
000000000000000000000000000000000000000000000000000000000000000000000000000000FFFFFFFFFF000000000000000000000000000000000000000000000000000000FF00000000FF0000000000000000000000000000000000000000000000000000FF00000000FF000000000000000000000000000000000000
310
0000000000000000FF00000000FF0000000000000000000000000000000000FFFFFFFFFF00000000FF00000000FF0000000000000000000000000000000000FF00000000FF000000FF00000000FF0000000000000000000000000000000000FF00000000FF000000FF000000FFFF0000000000000000000000000000000000
310
FF00000000FF000000FF00FFFFFFFFFF0000000000000000FFFFFFFF00000000FF00000000FF000000FFFF00FFFF0000FFFF0000000000FF000000FFFF000000FF00000000FF00FFFF000000FFFF000000FF0000000000FF00000000FF000000FF00000000FFFF00FF00FFFFFFFFFFFF00FF0000000000FF00000000FF0000
310
00FF0000FFFF000000FFFFFFFFFFFFFFFFFFFF0000000000FF00000000FF000000FFFFFFFF0000FFFF00FF00000000FF0000000000000000FF00000000FF00FFFFFF0000FFFFFF000000FF00000000FF0000000000000000FF00000000FFFF00FF00FFFFFFFF000000FFFF00FFFF00FF0000000000000000FF0000FFFF0000
310
00FFFFFFFFFFFFFFFFFF00FFFFFFFFFFFF0000000000000000FFFFFFFF0000FFFF00FF00000000FF000000FFFF0000FFFF0000000000FFFFFFFF0000FFFFFF000000FF00000000FF000000FFFFFFFFFFFF0000000000FF00FF00FFFFFFFF00000000FF0000FF00FF0000000000000000000000000000FF00FFFFFFFFFFFFFF
310
00FFFFFFFFFFFFFFFF0000000000000000000000000000FFFF00FF00000000FFFF0000FFFF0000FFFF00000000000000000000000000000000FFFF00000000FF000000FFFFFFFFFFFF0000000000000000000000000000000000FF0000000000FF00000000000000000000000000000000000000000000000000FFFFFFFFFF
310
FFFF00000000000000000000000000000000000000000000000000FFFF0000FFFFFF00000000000000000000000000000000000000000000000000FFFFFFFFFFFF0000000000000000000000000000000000000000000000000000000000000000000000000000000000000000000000000000000000000000000000000000
310
0000000000000000000000000000000000000000000000000000000000000000000000000000000000000000000000000000000000000000
102
{BLKREFS
331
4D8
102
}
1001
ACAD
1000
DesignCenter Data
1002
{
1070
     1
1070
     4
1002
}
  0
ENDTAB
  0
ENDSEC
  0
SECTION
  2
BLOCKS
  0
BLOCK
  5
20
330
1F
100
AcDbEntity
  8
0
100
AcDbBlockBegin
  2
*Model_Space
 70
     0
 10
0.0
 20
0.0
 30
0.0
  3
*Model_Space
  1

  0
ENDBLK
  5
21
330
1F
100
AcDbEntity
  8
0
100
AcDbBlockEnd
  0
BLOCK
  5
D4
330
D2
100
AcDbEntity
 67
     1
  8
0
100
AcDbBlockBegin
  2
*Paper_Space
 70
     0
 10
0.0
 20
0.0
 30
0.0
  3
*Paper_Space
  1

  0
ENDBLK
  5
D5
330
D2
100
AcDbEntity
 67
     1
  8
0
100
AcDbBlockEnd
  0
BLOCK
  5
D8
330
D6
100
AcDbEntity
 67
     1
  8
0
100
AcDbBlockBegin
  2
*Paper_Space0
 70
     0
 10
0.0
 20
0.0
 30
0.0
  3
*Paper_Space0
  1

  0
ENDBLK
  5
D9
330
D6
100
AcDbEntity
 67
     1
  8
0
100
AcDbBlockEnd
  0
BLOCK
  5
3C2
330
3C1
100
AcDbEntity
  8
0
100
AcDbBlockBegin
  2
1
 70
     0
 10
0.0
 20
0.0
 30
0.0
  3
1
  1

  0
ARC
  5
3C4
330
3C1
100
AcDbEntity
  8
0
  6
Continuous
 62
     7
370
    15
100
AcDbCircle
 10
2242.456658071996
 20
717.7347946790323
 30
0.0
 40
0.200000000000017
100
AcDbArc
 50
180.0
 51
270.0
  0
ARC
  5
3C5
330
3C1
100
AcDbEntity
  8
0
  6
Continuous
 62
     7
370
    15
100
AcDbCircle
 10
2248.906658071996
 20
717.7347946790323
 30
0.0
 40
0.1999999999999886
100
AcDbArc
 50
270.0
 51
0.0
  0
ARC
  5
3C6
330
3C1
100
AcDbEntity
  8
0
  6
Continuous
 62
     7
370
    15
100
AcDbCircle
 10
2257.456658071998
 20
717.7347946790323
 30
0.0
 40
0.200000000000017
100
AcDbArc
 50
180.0
 51
270.0
  0
ARC
  5
3C7
330
3C1
100
AcDbEntity
  8
0
  6
Continuous
 62
     7
370
    15
100
AcDbCircle
 10
2263.906658071997
 20
717.7347946790323
 30
0.0
 40
0.1999999999999886
100
AcDbArc
 50
270.0
 51
0.0
  0
ARC
  5
3C8
330
3C1
100
AcDbEntity
  8
0
  6
Continuous
 62
     7
370
    15
100
AcDbCircle
 10
2272.456658071998
 20
717.7347946790323
 30
0.0
 40
0.200000000000017
100
AcDbArc
 50
180.0
 51
270.0
  0
ARC
  5
3C9
330
3C1
100
AcDbEntity
  8
0
  6
Continuous
 62
     7
370
    15
100
AcDbCircle
 10
2278.906658071997
 20
717.7347946790323
 30
0.0
 40
0.200000000000017
100
AcDbArc
 50
270.0
 51
0.0
  0
LINE
  5
3CA
330
3C1
100
AcDbEntity
  8
0
  6
Continuous
 62
     7
370
    15
100
AcDbLine
 10
2249.106658071996
 20
717.7347946790323
 30
0.0
 11
2249.106658071996
 21
722.9347946790324
 31
0.0
  0
LINE
  5
3CB
330
3C1
100
AcDbEntity
  8
0
  6
Continuous
 62
     7
370
    15
100
AcDbLine
 10
2242.256658071996
 20
722.9347946790324
 30
0.0
 11
2242.256658071996
 21
717.7347946790323
 31
0.0
  0
LINE
  5
3CC
330
3C1
100
AcDbEntity
  8
0
  6
Continuous
 62
     7
370
    15
100
AcDbLine
 10
2264.106658071997
 20
717.7347946790323
 30
0.0
 11
2264.106658071997
 21
722.9347946790324
 31
0.0
  0
LINE
  5
3CD
330
3C1
100
AcDbEntity
  8
0
  6
Continuous
 62
     7
370
    15
100
AcDbLine
 10
2257.256658071997
 20
722.9347946790324
 30
0.0
 11
2257.256658071997
 21
717.7347946790323
 31
0.0
  0
LINE
  5
3CE
330
3C1
100
AcDbEntity
  8
0
  6
Continuous
 62
     7
370
    15
100
AcDbLine
 10
2279.106658071998
 20
717.7347946790323
 30
0.0
 11
2279.106658071998
 21
722.9347946790324
 31
0.0
  0
LINE
  5
3CF
330
3C1
100
AcDbEntity
  8
0
  6
Continuous
 62
     7
370
    15
100
AcDbLine
 10
2272.256658071997
 20
722.9347946790324
 30
0.0
 11
2272.256658071997
 21
717.7347946790323
 31
0.0
  0
LINE
  5
3D0
330
3C1
100
AcDbEntity
  8
0
  6
Continuous
 62
     7
370
    15
100
AcDbLine
 10
2248.679980465407
 20
701.9347946790324
 30
0.0
 11
2248.679980465407
 21
712.6347946790685
 31
0.0
  0
LINE
  5
3D1
330
3C1
100
AcDbEntity
  8
0
  6
Continuous
 62
     7
370
    15
100
AcDbLine
 10
2242.679980465407
 20
712.6347946790685
 30
0.0
 11
2242.679980465407
 21
701.9347946790324
 31
0.0
  0
LINE
  5
3D2
330
3C1
100
AcDbEntity
  8
0
  6
Continuous
 62
     7
370
    15
100
AcDbLine
 10
2248.679980465456
 20
712.6347946790685
 30
0.0
 11
2248.579980465418
 21
712.7347946790497
 31
0.0
  0
LINE
  5
3D3
330
3C1
100
AcDbEntity
  8
0
  6
Continuous
 62
     7
370
    15
100
AcDbLine
 10
2242.779980465396
 20
712.7347946790497
 30
0.0
 11
2242.679980465357
 21
712.6347946790685
 31
0.0
  0
LINE
  5
3D4
330
3C1
100
AcDbEntity
  8
0
  6
Continuous
 62
     7
370
    15
100
AcDbLine
 10
2263.683335678635
 20
712.6347946790685
 30
0.0
 11
2263.583335678598
 21
712.7347946790497
 31
0.0
  0
LINE
  5
3D5
330
3C1
100
AcDbEntity
  8
0
  6
Continuous
 62
     7
370
    15
100
AcDbLine
 10
2257.783335678576
 20
712.7347946790497
 30
0.0
 11
2257.683335678537
 21
712.6347946790685
 31
0.0
  0
LINE
  5
3D6
330
3C1
100
AcDbEntity
  8
0
  6
Continuous
 62
     7
370
    15
100
AcDbLine
 10
2263.683335678587
 20
701.9347946790324
 30
0.0
 11
2263.683335678587
 21
712.6347946790685
 31
0.0
  0
LINE
  5
3D7
330
3C1
100
AcDbEntity
  8
0
  6
Continuous
 62
     7
370
    15
100
AcDbLine
 10
2257.683335678587
 20
712.6347946790685
 30
0.0
 11
2257.683335678587
 21
701.9347946790324
 31
0.0
  0
LINE
  5
3D8
330
3C1
100
AcDbEntity
  8
0
  6
Continuous
 62
     7
370
    15
100
AcDbLine
 10
2278.683335678636
 20
712.6347946790685
 30
0.0
 11
2278.583335678598
 21
712.7347946790497
 31
0.0
  0
LINE
  5
3D9
330
3C1
100
AcDbEntity
  8
0
  6
Continuous
 62
     7
370
    15
100
AcDbLine
 10
2272.783335678576
 20
712.7347946790497
 30
0.0
 11
2272.683335678538
 21
712.6347946790685
 31
0.0
  0
LINE
  5
3DA
330
3C1
100
AcDbEntity
  8
0
  6
Continuous
 62
     7
370
    15
100
AcDbLine
 10
2278.683335678587
 20
701.9347946790324
 30
0.0
 11
2278.683335678587
 21
712.6347946790685
 31
0.0
  0
LINE
  5
3DB
330
3C1
100
AcDbEntity
  8
0
  6
Continuous
 62
     7
370
    15
100
AcDbLine
 10
2272.683335678586
 20
712.6347946790685
 30
0.0
 11
2272.683335678586
 21
701.9347946790324
 31
0.0
  0
LINE
  5
3DC
330
3C1
100
AcDbEntity
  8
0
  6
Continuous
 62
     7
370
    15
100
AcDbLine
 10
2248.681658071996
 20
716.6347946790323
 30
0.0
 11
2248.681658071996
 21
717.5347946790322
 31
0.0
  0
LINE
  5
3DD
330
3C1
100
AcDbEntity
  8
0
  6
Continuous
 62
     7
370
    15
100
AcDbLine
 10
2242.681658071996
 20
717.5347946790322
 30
0.0
 11
2242.681658071996
 21
716.6347946790323
 31
0.0
  0
LINE
  5
3DE
330
3C1
100
AcDbEntity
  8
0
  6
Continuous
 62
     7
370
    15
100
AcDbLine
 10
2242.679980465421
 20
701.9347946790324
 30
0.0
 11
2242.879980465377
 21
701.7347946790762
 31
0.0
  0
LINE
  5
3DF
330
3C1
100
AcDbEntity
  8
0
  6
Continuous
 62
     7
370
    15
100
AcDbLine
 10
2248.479980465436
 20
701.7347946790762
 30
0.0
 11
2248.679980465392
 21
701.9347946790324
 31
0.0
  0
LINE
  5
3E0
330
3C1
100
AcDbEntity
  8
0
  6
Continuous
 62
     7
370
    15
100
AcDbLine
 10
2263.681658071997
 20
716.6347946790323
 30
0.0
 11
2263.681658071997
 21
717.5347946790322
 31
0.0
  0
LINE
  5
3E1
330
3C1
100
AcDbEntity
  8
0
  6
Continuous
 62
     7
370
    15
100
AcDbLine
 10
2257.681658071998
 20
717.5347946790322
 30
0.0
 11
2257.681658071998
 21
716.6347946790323
 31
0.0
  0
LINE
  5
3E2
330
3C1
100
AcDbEntity
  8
0
  6
Continuous
 62
     7
370
    15
100
AcDbLine
 10
2257.683335678601
 20
701.9347946790324
 30
0.0
 11
2257.883335678557
 21
701.7347946790762
 31
0.0
  0
LINE
  5
3E3
330
3C1
100
AcDbEntity
  8
0
  6
Continuous
 62
     7
370
    15
100
AcDbLine
 10
2263.483335678616
 20
701.7347946790762
 30
0.0
 11
2263.683335678573
 21
701.9347946790324
 31
0.0
  0
LINE
  5
3E4
330
3C1
100
AcDbEntity
  8
0
  6
Continuous
 62
     7
370
    15
100
AcDbLine
 10
2272.683335678601
 20
701.9347946790324
 30
0.0
 11
2272.883335678557
 21
701.7347946790762
 31
0.0
  0
LINE
  5
3E5
330
3C1
100
AcDbEntity
  8
0
  6
Continuous
 62
     7
370
    15
100
AcDbLine
 10
2278.483335678616
 20
701.7347946790762
 30
0.0
 11
2278.683335678572
 21
701.9347946790324
 31
0.0
  0
LINE
  5
3E6
330
3C1
100
AcDbEntity
  8
0
  6
Continuous
 62
     7
370
    15
100
AcDbLine
 10
2278.681658071997
 20
716.6347946790323
 30
0.0
 11
2278.681658071997
 21
717.5347946790322
 31
0.0
  0
LINE
  5
3E7
330
3C1
100
AcDbEntity
  8
0
  6
Continuous
 62
     7
370
    15
100
AcDbLine
 10
2272.681658071997
 20
717.5347946790322
 30
0.0
 11
2272.681658071997
 21
716.6347946790323
 31
0.0
  0
LINE
  5
3E8
330
3C1
100
AcDbEntity
  8
0
  6
Continuous
 62
     7
370
    15
100
AcDbLine
 10
2242.181658071994
 20
716.6347946790323
 30
0.0
 11
2249.181658071997
 21
716.6347946790323
 31
0.0
  0
LINE
  5
3E9
330
3C1
100
AcDbEntity
  8
0
  6
Continuous
 62
     7
370
    15
100
AcDbLine
 10
2249.181658071997
 20
712.7347946790323
 30
0.0
 11
2249.181658071997
 21
716.6347946790323
 31
0.0
  0
LINE
  5
3EA
330
3C1
100
AcDbEntity
  8
0
  6
Continuous
 62
     7
370
    15
100
AcDbLine
 10
2242.181658071994
 20
716.6347946790323
 30
0.0
 11
2242.181658071995
 21
712.7347946790323
 31
0.0
  0
LINE
  5
3EB
330
3C1
100
AcDbEntity
  8
0
  6
Continuous
 62
     7
370
    15
100
AcDbLine
 10
2242.181658071995
 20
712.7347946790323
 30
0.0
 11
2249.181658071997
 21
712.7347946790323
 31
0.0
  0
LINE
  5
3EC
330
3C1
100
AcDbEntity
  8
0
  6
Continuous
 62
     7
370
    15
100
AcDbLine
 10
2257.181658071996
 20
712.7347946790323
 30
0.0
 11
2257.181658071996
 21
716.6347946790323
 31
0.0
  0
LINE
  5
3ED
330
3C1
100
AcDbEntity
  8
0
  6
Continuous
 62
     7
370
    15
100
AcDbLine
 10
2264.181658071998
 20
716.6347946790323
 30
0.0
 11
2264.181658071999
 21
712.7347946790323
 31
0.0
  0
LINE
  5
3EE
330
3C1
100
AcDbEntity
  8
0
  6
Continuous
 62
     7
370
    15
100
AcDbLine
 10
2264.181658071998
 20
716.6347946790323
 30
0.0
 11
2257.181658071996
 21
716.6347946790323
 31
0.0
  0
LINE
  5
3EF
330
3C1
100
AcDbEntity
  8
0
  6
Continuous
 62
     7
370
    15
100
AcDbLine
 10
2264.181658071999
 20
712.7347946790323
 30
0.0
 11
2257.181658071996
 21
712.7347946790323
 31
0.0
  0
LINE
  5
3F0
330
3C1
100
AcDbEntity
  8
0
  6
Continuous
 62
     7
370
    15
100
AcDbLine
 10
2272.181658071996
 20
712.7347946790323
 30
0.0
 11
2272.181658071996
 21
716.6347946790323
 31
0.0
  0
LINE
  5
3F1
330
3C1
100
AcDbEntity
  8
0
  6
Continuous
 62
     7
370
    15
100
AcDbLine
 10
2279.181658071999
 20
716.6347946790323
 30
0.0
 11
2279.181658071998
 21
712.7347946790323
 31
0.0
  0
LINE
  5
3F2
330
3C1
100
AcDbEntity
  8
0
  6
Continuous
 62
     7
370
    15
100
AcDbLine
 10
2279.181658071999
 20
716.6347946790323
 30
0.0
 11
2272.181658071996
 21
716.6347946790323
 31
0.0
  0
LINE
  5
3F3
330
3C1
100
AcDbEntity
  8
0
  6
Continuous
 62
     7
370
    15
100
AcDbLine
 10
2279.181658071998
 20
712.7347946790323
 30
0.0
 11
2272.181658071996
 21
712.7347946790323
 31
0.0
  0
SPLINE
  5
3F4
330
3C1
100
AcDbEntity
  8
0
  6
Continuous
 62
     7
370
    15
100
AcDbSpline
210
0.0
220
0.0
230
1.0
 70
    24
 71
     3
 72
    10
 73
     6
 74
     0
 42
0.0000000001
 43
0.0000000001
 40
0.0
 40
0.0
 40
0.0
 40
0.0
 40
0.5
 40
0.5
 40
1.0
 40
1.0
 40
1.0
 40
1.0
 10
2242.456658071996
 20
717.5347946790322
 30
0.0
 10
2242.456658071996
 20
717.5347946790322
 30
0.0
 10
2243.901732164994
 20
717.5347946790322
 30
0.0
 10
2247.461583978997
 20
717.5347946790322
 30
0.0
 10
2248.906658071996
 20
717.5347946790322
 30
0.0
 10
2248.906658071996
 20
717.5347946790322
 30
0.0
  0
SPLINE
  5
3F5
330
3C1
100
AcDbEntity
  8
0
  6
Continuous
 62
     7
370
    15
100
AcDbSpline
210
0.0
220
0.0
230
1.0
 70
    24
 71
     3
 72
    30
 73
    26
 74
     0
 42
0.0000000001
 43
0.0000000001
 40
0.0
 40
0.0
 40
0.0
 40
0.0
 40
0.0172934937130203
 40
0.0344596655377185
 40
0.0515480950579254
 40
0.068609039634892
 40
0.0856929991960945
 40
0.1028502704464566
 40
0.1201305099490629
 40
0.1850828601801404
 40
0.2500881522292469
 40
0.3150405262905461
 40
0.3800458421887532
 40
0.4400038891296366
 40
0.5000143502049812
 40
0.55997241137046
 40
0.6199828837922907
 40
0.6849352340234343
 40
0.7499405260724737
 40
0.8148929001337954
 40
0.8798982160319786
 40
0.910029097664276
 40
0.9399097371916235
 40
0.9698101950927375
 40
1.0
 40
1.0
 40
1.0
 40
1.0
 10
2263.906658071997
 20
717.5347946790322
 30
0.0
 10
2263.905759006975
 20
717.5347946790322
 30
0.0
 10
2263.90396749622
 20
717.5347946790322
 30
0.0
 10
2263.889566048681
 20
717.5347946790322
 30
0.0
 10
2263.866561159268
 20
717.5347946790322
 30
0.0
 10
2263.834129114696
 20
717.5347946790322
 30
0.0
 10
2263.792494216767
 20
717.5347946790322
 30
0.0
 10
2263.741583404991
 20
717.5347946790322
 30
0.0
 10
2263.626452122094
 20
717.5347946790322
 30
0.0
 10
2263.397132159302
 20
717.5347946790322
 30
0.0
 10
2262.9776358551
 20
717.5347946790322
 30
0.0
 10
2262.465421272988
 20
717.5347946790322
 30
0.0
 10
2261.891988562552
 20
717.5347946790322
 30
0.0
 10
2261.289797117516
 20
717.5347946790322
 30
0.0
 10
2260.681834469081
 20
717.5347946790322
 30
0.0
 10
2260.0736986319
 20
717.5347946790322
 30
0.0
 10
2259.471657409155
 20
717.5347946790322
 30
0.0
 10
2258.89804891061
 20
717.5347946790322
 30
0.0
 10
2258.385946197201
 20
717.5347946790322
 30
0.0
 10
2257.966230780502
 20
717.5347946790322
 30
0.0
 10
2257.717058882646
 20
717.5347946790322
 30
0.0
 10
2257.579646873859
 20
717.5347946790322
 30
0.0
 10
2257.508935911538
 20
717.5347946790322
 30
0.0
 10
2257.464780961188
 20
717.5347946790322
 30
0.0
 10
2257.459374379663
 20
717.5347946790322
 30
0.0
 10
2257.456658071998
 20
717.5347946790322
 30
0.0
  0
SPLINE
  5
3F6
330
3C1
100
AcDbEntity
  8
0
  6
Continuous
 62
     7
370
    15
100
AcDbSpline
210
0.0
220
0.0
230
1.0
 70
    24
 71
     3
 72
    30
 73
    26
 74
     0
 42
0.0000000001
 43
0.0000000001
 40
0.0
 40
0.0
 40
0.0
 40
0.0
 40
0.0172934937130203
 40
0.0344596655377185
 40
0.0515480950579254
 40
0.0686090396348921
 40
0.0856929991960945
 40
0.1028502704464567
 40
0.120130509949063
 40
0.1850828601801405
 40
0.250088152229247
 40
0.3150405262905462
 40
0.3800458421887532
 40
0.4400038891296367
 40
0.5000143502049813
 40
0.55997241137046
 40
0.6199828837922908
 40
0.6849352340234343
 40
0.7499405260724737
 40
0.8148929001337954
 40
0.8798982160319788
 40
0.910029097664276
 40
0.9399097371916235
 40
0.9698101950927375
 40
1.0
 40
1.0
 40
1.0
 40
1.0
 10
2278.906658071997
 20
717.5347946790322
 30
0.0
 10
2278.905759006975
 20
717.5347946790322
 30
0.0
 10
2278.90396749622
 20
717.5347946790322
 30
0.0
 10
2278.889566048681
 20
717.5347946790322
 30
0.0
 10
2278.866561159268
 20
717.5347946790322
 30
0.0
 10
2278.834129114696
 20
717.5347946790322
 30
0.0
 10
2278.792494216767
 20
717.5347946790322
 30
0.0
 10
2278.741583404991
 20
717.5347946790322
 30
0.0
 10
2278.626452122094
 20
717.5347946790322
 30
0.0
 10
2278.397132159302
 20
717.5347946790322
 30
0.0
 10
2277.9776358551
 20
717.5347946790322
 30
0.0
 10
2277.465421272989
 20
717.5347946790322
 30
0.0
 10
2276.891988562551
 20
717.5347946790322
 30
0.0
 10
2276.289797117515
 20
717.5347946790322
 30
0.0
 10
2275.681834469081
 20
717.5347946790322
 30
0.0
 10
2275.073698631901
 20
717.5347946790322
 30
0.0
 10
2274.471657409155
 20
717.5347946790322
 30
0.0
 10
2273.89804891061
 20
717.5347946790322
 30
0.0
 10
2273.385946197201
 20
717.5347946790322
 30
0.0
 10
2272.966230780502
 20
717.5347946790322
 30
0.0
 10
2272.717058882646
 20
717.5347946790322
 30
0.0
 10
2272.579646873859
 20
717.5347946790322
 30
0.0
 10
2272.508935911538
 20
717.5347946790322
 30
0.0
 10
2272.464780961188
 20
717.5347946790322
 30
0.0
 10
2272.459374379663
 20
717.5347946790322
 30
0.0
 10
2272.456658071998
 20
717.5347946790322
 30
0.0
  0
LINE
  5
3F7
330
3C1
100
AcDbEntity
  8
0
  6
Continuous
 62
     7
370
    15
100
AcDbLine
 10
2249.106658071996
 20
722.9347946790324
 30
0.0
 11
2242.256658071996
 21
722.9347946790324
 31
0.0
  0
LINE
  5
3F8
330
3C1
100
AcDbEntity
  8
0
  6
Continuous
 62
     7
370
    15
100
AcDbLine
 10
2257.256658071997
 20
722.9347946790324
 30
0.0
 11
2264.106658071997
 21
722.9347946790324
 31
0.0
  0
LINE
  5
3F9
330
3C1
100
AcDbEntity
  8
0
  6
Continuous
 62
     7
370
    15
100
AcDbLine
 10
2272.256658071997
 20
722.9347946790324
 30
0.0
 11
2279.106658071998
 21
722.9347946790324
 31
0.0
  0
LINE
  5
3FA
330
3C1
100
AcDbEntity
  8
0
  6
Continuous
 62
     7
370
    15
100
AcDbLine
 10
2239.981658071996
 20
716.6347946790323
 30
0.0
 11
2239.981658071996
 21
712.7347946790323
 31
0.0
  0
LINE
  5
3FB
330
3C1
100
AcDbEntity
  8
0
  6
Continuous
 62
     7
370
    15
100
AcDbLine
 10
2239.981658071996
 20
716.6347946790323
 30
0.0
 11
2242.181658071994
 21
716.6347946790323
 31
0.0
  0
LINE
  5
3FC
330
3C1
100
AcDbEntity
  8
0
  6
Continuous
 62
     7
370
    15
100
AcDbLine
 10
2242.181658071995
 20
712.7347946790323
 30
0.0
 11
2239.981658071996
 21
712.7347946790323
 31
0.0
  0
LINE
  5
3FD
330
3C1
100
AcDbEntity
  8
0
  6
Continuous
 62
     7
370
    15
100
AcDbLine
 10
2264.181658071998
 20
716.6347946790323
 30
0.0
 11
2272.181658071996
 21
716.6347946790323
 31
0.0
  0
LINE
  5
3FE
330
3C1
100
AcDbEntity
  8
0
  6
Continuous
 62
     7
370
    15
100
AcDbLine
 10
2272.181658071996
 20
712.7347946790323
 30
0.0
 11
2264.181658071999
 21
712.7347946790323
 31
0.0
  0
LINE
  5
3FF
330
3C1
100
AcDbEntity
  8
0
  6
Continuous
 62
     7
370
    15
100
AcDbLine
 10
2281.381658071997
 20
716.6347946790323
 30
0.0
 11
2281.381658071997
 21
712.7347946790323
 31
0.0
  0
LINE
  5
400
330
3C1
100
AcDbEntity
  8
0
  6
Continuous
 62
     7
370
    15
100
AcDbLine
 10
2281.381658071997
 20
716.6347946790323
 30
0.0
 11
2279.181658071999
 21
716.6347946790323
 31
0.0
  0
LINE
  5
401
330
3C1
100
AcDbEntity
  8
0
  6
Continuous
 62
     7
370
    15
100
AcDbLine
 10
2279.181658071998
 20
712.7347946790323
 30
0.0
 11
2281.381658071997
 21
712.7347946790323
 31
0.0
  0
LINE
  5
402
330
3C1
100
AcDbEntity
  8
0
  6
Continuous
 62
     7
370
    15
100
AcDbLine
 10
2249.181658071997
 20
716.6347946790323
 30
0.0
 11
2257.181658071996
 21
716.6347946790323
 31
0.0
  0
LINE
  5
403
330
3C1
100
AcDbEntity
  8
0
  6
Continuous
 62
     7
370
    15
100
AcDbLine
 10
2257.181658071996
 20
712.7347946790323
 30
0.0
 11
2249.181658071997
 21
712.7347946790323
 31
0.0
  0
LINE
  5
404
330
3C1
100
AcDbEntity
  8
0
  6
Continuous
 62
     7
370
    15
100
AcDbLine
 10
2242.679980465357
 20
712.6347946790685
 30
0.0
 11
2248.679980465456
 21
712.6347946790685
 31
0.0
  0
LINE
  5
405
330
3C1
100
AcDbEntity
  8
0
  6
Continuous
 62
     7
370
    15
100
AcDbLine
 10
2242.679980465407
 20
701.9347946790324
 30
0.0
 11
2248.679980465407
 21
701.9347946790324
 31
0.0
  0
LINE
  5
406
330
3C1
100
AcDbEntity
  8
0
  6
Continuous
 62
     7
370
    15
100
AcDbLine
 10
2263.683335678635
 20
712.6347946790685
 30
0.0
 11
2257.683335678537
 21
712.6347946790685
 31
0.0
  0
LINE
  5
407
330
3C1
100
AcDbEntity
  8
0
  6
Continuous
 62
     7
370
    15
100
AcDbLine
 10
2263.683335678587
 20
701.9347946790324
 30
0.0
 11
2257.683335678587
 21
701.9347946790324
 31
0.0
  0
LINE
  5
408
330
3C1
100
AcDbEntity
  8
0
  6
Continuous
 62
     7
370
    15
100
AcDbLine
 10
2278.683335678636
 20
712.6347946790685
 30
0.0
 11
2272.683335678538
 21
712.6347946790685
 31
0.0
  0
LINE
  5
409
330
3C1
100
AcDbEntity
  8
0
  6
Continuous
 62
     7
370
    15
100
AcDbLine
 10
2278.683335678587
 20
701.9347946790324
 30
0.0
 11
2272.683335678586
 21
701.9347946790324
 31
0.0
  0
LINE
  5
40A
330
3C1
100
AcDbEntity
  8
0
  6
Continuous
 62
     7
370
    15
100
AcDbLine
 10
2242.879980465377
 20
701.7347946790762
 30
0.0
 11
2248.479980465436
 21
701.7347946790762
 31
0.0
  0
LINE
  5
40B
330
3C1
100
AcDbEntity
  8
0
  6
Continuous
 62
     7
370
    15
100
AcDbLine
 10
2263.483335678616
 20
701.7347946790762
 30
0.0
 11
2257.883335678557
 21
701.7347946790762
 31
0.0
  0
LINE
  5
40C
330
3C1
100
AcDbEntity
  8
0
  6
Continuous
 62
     7
370
    15
100
AcDbLine
 10
2278.483335678616
 20
701.7347946790762
 30
0.0
 11
2272.883335678557
 21
701.7347946790762
 31
0.0
  0
LINE
  5
40D
330
3C1
100
AcDbEntity
  8
0
  6
Continuous
 62
     8
370
    15
100
AcDbLine
 10
2249.106658071996
 20
717.7347946790323
 30
0.0
 11
2242.256658071996
 21
717.7347946790323
 31
0.0
  0
LINE
  5
40E
330
3C1
100
AcDbEntity
  8
0
  6
Continuous
 62
     8
370
    15
100
AcDbLine
 10
2257.256658071997
 20
717.7347946790323
 30
0.0
 11
2264.106658071997
 21
717.7347946790323
 31
0.0
  0
LINE
  5
40F
330
3C1
100
AcDbEntity
  8
0
  6
Continuous
 62
     8
370
    15
100
AcDbLine
 10
2272.256658071997
 20
717.7347946790323
 30
0.0
 11
2279.106658071998
 21
717.7347946790323
 31
0.0
  0
ENDBLK
  5
3C3
330
3C1
100
AcDbEntity
  8
0
100
AcDbBlockEnd
  0
BLOCK
  5
412
330
411
100
AcDbEntity
  8
0
100
AcDbBlockBegin
  2
2
 70
     0
 10
0.0
 20
0.0
 30
0.0
  3
2
  1

  0
LINE
  5
414
330
411
100
AcDbEntity
  8
0
  6
Continuous
 62
     7
370
    15
100
AcDbLine
 10
2215.396714550402
 20
716.6347946790323
 30
0.0
 11
2215.396714550402
 21
712.7347946790323
 31
0.0
  0
LINE
  5
415
330
411
100
AcDbEntity
  8
0
  6
Continuous
 62
     7
370
    15
100
AcDbLine
 10
2222.796714550402
 20
712.7347946790323
 30
0.0
 11
2222.796714550402
 21
716.6347946790323
 31
0.0
  0
ARC
  5
416
330
411
100
AcDbEntity
  8
0
  6
Continuous
 62
     7
370
    15
100
AcDbCircle
 10
2215.871714550402
 20
717.7347946790323
 30
0.0
 40
0.1999999999999886
100
AcDbArc
 50
180.0
 51
270.0
  0
ARC
  5
417
330
411
100
AcDbEntity
  8
0
  6
Continuous
 62
     7
370
    15
100
AcDbCircle
 10
2222.321714550402
 20
717.7347946790323
 30
0.0
 40
0.200000000000017
100
AcDbArc
 50
270.0
 51
0.0
  0
LINE
  5
418
330
411
100
AcDbEntity
  8
0
  6
Continuous
 62
     7
370
    15
100
AcDbLine
 10
2222.521714550402
 20
717.7347946790323
 30
0.0
 11
2222.521714550402
 21
722.9347946790324
 31
0.0
  0
LINE
  5
419
330
411
100
AcDbEntity
  8
0
  6
Continuous
 62
     7
370
    15
100
AcDbLine
 10
2215.671714550402
 20
722.9347946790324
 30
0.0
 11
2215.671714550402
 21
717.7347946790323
 31
0.0
  0
LINE
  5
41A
330
411
100
AcDbEntity
  8
0
  6
Continuous
 62
     7
370
    15
100
AcDbLine
 10
2222.096714550451
 20
712.6347946790685
 30
0.0
 11
2221.996714550413
 21
712.7347946790497
 31
0.0
  0
LINE
  5
41B
330
411
100
AcDbEntity
  8
0
  6
Continuous
 62
     7
370
    15
100
AcDbLine
 10
2216.196714550391
 20
712.7347946790497
 30
0.0
 11
2216.096714550353
 21
712.6347946790685
 31
0.0
  0
LINE
  5
41C
330
411
100
AcDbEntity
  8
0
  6
Continuous
 62
     7
370
    15
100
AcDbLine
 10
2222.096714550402
 20
701.9347946790324
 30
0.0
 11
2222.096714550402
 21
712.6347946790685
 31
0.0
  0
LINE
  5
41D
330
411
100
AcDbEntity
  8
0
  6
Continuous
 62
     7
370
    15
100
AcDbLine
 10
2216.096714550402
 20
712.6347946790685
 30
0.0
 11
2216.096714550402
 21
701.9347946790324
 31
0.0
  0
LINE
  5
41E
330
411
100
AcDbEntity
  8
0
  6
Continuous
 62
     7
370
    15
100
AcDbLine
 10
2216.096714550416
 20
701.9347946790324
 30
0.0
 11
2216.296714550372
 21
701.7347946790762
 31
0.0
  0
LINE
  5
41F
330
411
100
AcDbEntity
  8
0
  6
Continuous
 62
     7
370
    15
100
AcDbLine
 10
2221.896714550432
 20
701.7347946790762
 30
0.0
 11
2222.096714550388
 21
701.9347946790324
 31
0.0
  0
LINE
  5
420
330
411
100
AcDbEntity
  8
0
  6
Continuous
 62
     7
370
    15
100
AcDbLine
 10
2222.096714550402
 20
716.6347946790323
 30
0.0
 11
2222.096714550402
 21
717.5347946790322
 31
0.0
  0
LINE
  5
421
330
411
100
AcDbEntity
  8
0
  6
Continuous
 62
     7
370
    15
100
AcDbLine
 10
2216.096714550402
 20
717.5347946790322
 30
0.0
 11
2216.096714550402
 21
716.6347946790323
 31
0.0
  0
LINE
  5
422
330
411
100
AcDbEntity
  8
0
  6
Continuous
 62
     7
370
    15
100
AcDbLine
 10
2222.446714550402
 20
716.6347946790323
 30
0.0
 11
2215.746714550402
 21
716.6347946790323
 31
0.0
  0
LINE
  5
423
330
411
100
AcDbEntity
  8
0
  6
Continuous
 62
     7
370
    15
100
AcDbLine
 10
2215.746714550402
 20
716.6347946790323
 30
0.0
 11
2215.746714550402
 21
712.7347946790323
 31
0.0
  0
LINE
  5
424
330
411
100
AcDbEntity
  8
0
  6
Continuous
 62
     7
370
    15
100
AcDbLine
 10
2222.446714550402
 20
716.6347946790323
 30
0.0
 11
2222.446714550402
 21
712.7347946790323
 31
0.0
  0
LINE
  5
425
330
411
100
AcDbEntity
  8
0
  6
Continuous
 62
     7
370
    15
100
AcDbLine
 10
2215.746714550402
 20
712.7347946790323
 30
0.0
 11
2222.446714550402
 21
712.7347946790323
 31
0.0
  0
LINE
  5
426
330
411
100
AcDbEntity
  8
0
  6
Continuous
 62
     7
370
    15
100
AcDbLine
 10
2215.746714550402
 20
716.6347946790323
 30
0.0
 11
2215.396714550402
 21
716.6347946790323
 31
0.0
  0
LINE
  5
427
330
411
100
AcDbEntity
  8
0
  6
Continuous
 62
     7
370
    15
100
AcDbLine
 10
2215.746714550402
 20
712.7347946790323
 30
0.0
 11
2215.396714550402
 21
712.7347946790323
 31
0.0
  0
LINE
  5
428
330
411
100
AcDbEntity
  8
0
  6
Continuous
 62
     7
370
    15
100
AcDbLine
 10
2222.796714550402
 20
716.6347946790323
 30
0.0
 11
2222.446714550402
 21
716.6347946790323
 31
0.0
  0
LINE
  5
429
330
411
100
AcDbEntity
  8
0
  6
Continuous
 62
     7
370
    15
100
AcDbLine
 10
2222.796714550402
 20
712.7347946790323
 30
0.0
 11
2222.446714550402
 21
712.7347946790323
 31
0.0
  0
SPLINE
  5
42A
330
411
100
AcDbEntity
  8
0
  6
Continuous
 62
     7
370
    15
100
AcDbSpline
210
0.0
220
0.0
230
1.0
 70
    24
 71
     3
 72
    22
 73
    18
 74
     0
 42
0.0000000001
 43
0.0000000001
 40
0.0
 40
0.0
 40
0.0
 40
0.0
 40
0.0345767369425583
 40
0.0688989055767921
 40
0.1030656356827383
 40
0.1371774121935307
 40
0.1713352050309755
 40
0.2056395777922319
 40
0.2401898141702154
 40
0.3700560150090884
 40
0.5000280681034761
 40
0.6298943165886674
 40
0.7598664173671198
 40
0.8201306883705276
 40
0.8798809851167723
 40
0.9396575701707881
 40
1.0
 40
1.0
 40
1.0
 40
1.0
 10
2219.096714550402
 20
717.5347946790322
 30
0.0
 10
2219.038375350486
 20
717.5347946790322
 30
0.0
 10
2218.922126468092
 20
717.5347946790322
 30
0.0
 10
2218.748721643424
 20
717.5347946790322
 30
0.0
 10
2218.577098306369
 20
717.5347946790322
 30
0.0
 10
2218.407259574163
 20
717.5347946790322
 30
0.0
 10
2218.239214642393
 20
717.5347946790322
 30
0.0
 10
2218.072950036974
 20
717.5347946790322
 30
0.0
 10
2217.758027629116
 20
717.5347946790322
 30
0.0
 10
2217.312973985367
 20
717.5347946790322
 30
0.0
 10
2216.801038321996
 20
717.5347946790322
 30
0.0
 10
2216.381275995494
 20
717.5347946790322
 30
0.0
 10
2216.132105206582
 20
717.5347946790322
 30
0.0
 10
2215.994671223624
 20
717.5347946790322
 30
0.0
 10
2215.923944200142
 20
717.5347946790322
 30
0.0
 10
2215.879796649735
 20
717.5347946790322
 30
0.0
 10
2215.874417030772
 20
717.5347946790322
 30
0.0
 10
2215.871714550402
 20
717.5347946790322
 30
0.0
  0
SPLINE
  5
42B
330
411
100
AcDbEntity
  8
0
  6
Continuous
 62
     7
370
    15
100
AcDbSpline
210
0.0
220
0.0
230
1.0
 70
    24
 71
     3
 72
    22
 73
    18
 74
     0
 42
0.0000000001
 43
0.0000000001
 40
0.0
 40
0.0
 40
0.0
 40
0.0
 40
0.0345391614887347
 40
0.0688357986754418
 40
0.1029895277956242
 40
0.1371012171073356
 40
0.171272107159667
 40
0.2056029147619379
 40
0.2401929598423596
 40
0.3700588287086903
 40
0.5000305495597696
 40
0.6298964660721064
 40
0.7598682346073097
 40
0.8201119842015362
 40
0.8798553991925297
 40
0.9396384390827632
 40
1.0
 40
1.0
 40
1.0
 40
1.0
 10
2222.321714550402
 20
717.5347946790322
 30
0.0
 10
2222.32084165387
 20
717.5347946790322
 30
0.0
 10
2222.319101990039
 20
717.5347946790322
 30
0.0
 10
2222.304746691575
 20
717.5347946790322
 30
0.0
 10
2222.281765313951
 20
717.5347946790322
 30
0.0
 10
2222.24933112991
 20
717.5347946790322
 30
0.0
 10
2222.207669868349
 20
717.5347946790322
 30
0.0
 10
2222.156706745936
 20
717.5347946790322
 30
0.0
 10
2222.041531323742
 20
717.5347946790322
 30
0.0
 10
2221.812199269583
 20
717.5347946790322
 30
0.0
 10
2221.392664303316
 20
717.5347946790322
 30
0.0
 10
2220.880579178649
 20
717.5347946790322
 30
0.0
 10
2220.396813082447
 20
717.5347946790322
 30
0.0
 10
2219.997617679236
 20
717.5347946790322
 30
0.0
 10
2219.702287309921
 20
717.5347946790322
 30
0.0
 10
2219.401353698215
 20
717.5347946790322
 30
0.0
 10
2219.198586388476
 20
717.5347946790322
 30
0.0
 10
2219.096714550402
 20
717.5347946790322
 30
0.0
  0
LINE
  5
42C
330
411
100
AcDbEntity
  8
0
  6
Continuous
 62
     7
370
    15
100
AcDbLine
 10
2219.096714550402
 20
722.9347946790324
 30
0.0
 11
2222.521714550402
 21
722.9347946790324
 31
0.0
  0
LINE
  5
42D
330
411
100
AcDbEntity
  8
0
  6
Continuous
 62
     7
370
    15
100
AcDbLine
 10
2215.671714550402
 20
722.9347946790324
 30
0.0
 11
2219.096714550402
 21
722.9347946790324
 31
0.0
  0
LINE
  5
42E
330
411
100
AcDbEntity
  8
0
  6
Continuous
 62
     7
370
    15
100
AcDbLine
 10
2219.096714550402
 20
712.6347946790685
 30
0.0
 11
2216.096714550353
 21
712.6347946790685
 31
0.0
  0
LINE
  5
42F
330
411
100
AcDbEntity
  8
0
  6
Continuous
 62
     7
370
    15
100
AcDbLine
 10
2222.096714550451
 20
712.6347946790685
 30
0.0
 11
2219.096714550402
 21
712.6347946790685
 31
0.0
  0
LINE
  5
430
330
411
100
AcDbEntity
  8
0
  6
Continuous
 62
     7
370
    15
100
AcDbLine
 10
2219.096714550402
 20
701.9347946790324
 30
0.0
 11
2216.096714550402
 21
701.9347946790324
 31
0.0
  0
LINE
  5
431
330
411
100
AcDbEntity
  8
0
  6
Continuous
 62
     7
370
    15
100
AcDbLine
 10
2222.096714550402
 20
701.9347946790324
 30
0.0
 11
2219.096714550402
 21
701.9347946790324
 31
0.0
  0
LINE
  5
432
330
411
100
AcDbEntity
  8
0
  6
Continuous
 62
     7
370
    15
100
AcDbLine
 10
2221.896714550432
 20
701.7347946790762
 30
0.0
 11
2216.296714550372
 21
701.7347946790762
 31
0.0
  0
LINE
  5
433
330
411
100
AcDbEntity
  8
0
  6
Continuous
 62
     8
370
    15
100
AcDbLine
 10
2215.671714550402
 20
717.7347946790323
 30
0.0
 11
2222.521714550402
 21
717.7347946790323
 31
0.0
  0
ENDBLK
  5
413
330
411
100
AcDbEntity
  8
0
100
AcDbBlockEnd
  0
BLOCK
  5
436
330
435
100
AcDbEntity
  8
0
100
AcDbBlockBegin
  2
3
 70
     0
 10
0.0
 20
0.0
 30
0.0
  3
3
  1

  0
CIRCLE
  5
438
330
435
100
AcDbEntity
  8
0
  6
Continuous
 62
     7
370
    15
100
AcDbCircle
 10
2275.681658071997
 20
680.1434591308638
 30
0.0
 40
2.475000000004001
  0
CIRCLE
  5
439
330
435
100
AcDbEntity
  8
0
  6
Continuous
 62
     7
370
    15
100
AcDbCircle
 10
2275.681658071997
 20
680.1434591308638
 30
0.0
 40
3.425000000000011
  0
CIRCLE
  5
43A
330
435
100
AcDbEntity
  8
0
  6
Continuous
 62
     7
370
    15
100
AcDbCircle
 10
2245.681658071996
 20
680.1434591308638
 30
0.0
 40
2.475000000004001
  0
ARC
  5
43B
330
435
100
AcDbEntity
  8
0
  6
Continuous
 62
     7
370
    15
100
AcDbCircle
 10
2245.681658071996
 20
680.1434591308638
 30
0.0
 40
2.197439522055226
100
AcDbArc
 50
13.15214010487884
 51
166.8478598951275
  0
ARC
  5
43C
330
435
100
AcDbEntity
  8
0
  6
Continuous
 62
     7
370
    15
100
AcDbCircle
 10
2245.681658071996
 20
680.1434591308638
 30
0.0
 40
2.145679479869426
100
AcDbArc
 50
166.5246847195515
 51
193.4753152804485
  0
ARC
  5
43D
330
435
100
AcDbEntity
  8
0
  6
Continuous
 62
     7
370
    15
100
AcDbCircle
 10
2245.681658071996
 20
680.1434591308638
 30
0.0
 40
2.197439522055226
100
AcDbArc
 50
193.1521401048788
 51
346.8478598951275
  0
ARC
  5
43E
330
435
100
AcDbEntity
  8
0
  6
Continuous
 62
     7
370
    15
100
AcDbCircle
 10
2245.681658071996
 20
680.1434591308638
 30
0.0
 40
2.145679479869398
100
AcDbArc
 50
346.5246847195578
 51
13.4753152804485
  0
ARC
  5
43F
330
435
100
AcDbEntity
  8
0
  6
Continuous
 62
     7
370
    15
100
AcDbCircle
 10
2275.681658071997
 20
680.1434591308638
 30
0.0
 40
2.145679479869426
100
AcDbArc
 50
166.5246847195515
 51
193.4753152804485
  0
ARC
  5
440
330
435
100
AcDbEntity
  8
0
  6
Continuous
 62
     7
370
    15
100
AcDbCircle
 10
2275.681658071997
 20
680.1434591308638
 30
0.0
 40
2.197439522055198
100
AcDbArc
 50
193.1521401048725
 51
346.8478598951212
  0
ARC
  5
441
330
435
100
AcDbEntity
  8
0
  6
Continuous
 62
     7
370
    15
100
AcDbCircle
 10
2275.681658071997
 20
680.1434591308638
 30
0.0
 40
2.145679479869398
100
AcDbArc
 50
346.5246847195578
 51
13.4753152804485
  0
ARC
  5
442
330
435
100
AcDbEntity
  8
0
  6
Continuous
 62
     7
370
    15
100
AcDbCircle
 10
2275.681658071997
 20
680.1434591308638
 30
0.0
 40
2.197439522055198
100
AcDbArc
 50
13.1521401048725
 51
166.8478598951211
  0
CIRCLE
  5
443
330
435
100
AcDbEntity
  8
0
  6
Continuous
 62
     7
370
    15
100
AcDbCircle
 10
2245.681658071996
 20
680.1434591308638
 30
0.0
 40
3.425000000000011
  0
CIRCLE
  5
444
330
435
100
AcDbEntity
  8
0
  6
Continuous
 62
     7
370
    15
100
AcDbCircle
 10
2260.681658071998
 20
680.1434591308638
 30
0.0
 40
2.475000000004001
  0
ARC
  5
445
330
435
100
AcDbEntity
  8
0
  6
Continuous
 62
     7
370
    15
100
AcDbCircle
 10
2260.681658071998
 20
680.1434591308638
 30
0.0
 40
2.145679479869371
100
AcDbArc
 50
166.5246847195515
 51
193.4753152804485
  0
ARC
  5
446
330
435
100
AcDbEntity
  8
0
  6
Continuous
 62
     7
370
    15
100
AcDbCircle
 10
2260.681658071998
 20
680.1434591308638
 30
0.0
 40
2.197439522055198
100
AcDbArc
 50
193.1521401048725
 51
346.8478598951275
  0
ARC
  5
447
330
435
100
AcDbEntity
  8
0
  6
Continuous
 62
     7
370
    15
100
AcDbCircle
 10
2260.681658071998
 20
680.1434591308638
 30
0.0
 40
2.145679479869454
100
AcDbArc
 50
346.5246847195578
 51
13.4753152804485
  0
ARC
  5
448
330
435
100
AcDbEntity
  8
0
  6
Continuous
 62
     7
370
    15
100
AcDbCircle
 10
2260.681658071998
 20
680.1434591308638
 30
0.0
 40
2.197439522055253
100
AcDbArc
 50
13.1521401048725
 51
166.8478598951211
  0
CIRCLE
  5
449
330
435
100
AcDbEntity
  8
0
  6
Continuous
 62
     7
370
    15
100
AcDbCircle
 10
2260.681658071998
 20
680.1434591308638
 30
0.0
 40
3.425000000000011
  0
SPLINE
  5
44A
330
435
100
AcDbEntity
  8
0
  6
Continuous
 62
     7
370
    15
100
AcDbSpline
210
0.0
220
0.0
230
1.0
 70
     8
 71
     3
 72
    14
 73
    10
 74
     0
 42
0.0000000001
 43
0.0000000001
 40
0.0
 40
0.0
 40
0.0
 40
0.0
 40
0.25
 40
0.25
 40
0.5
 40
0.5
 40
0.75
 40
0.75
 40
1.0
 40
1.0
 40
1.0
 40
1.0
 10
2243.756701176852
 20
680.6434591308637
 30
0.0
 10
2243.867420422238
 20
681.0697186805223
 30
0.0
 10
2244.11652579937
 20
681.4472136983801
 30
0.0
 10
2244.813257006764
 20
681.9860916479544
 30
0.0
 10
2245.241253763464
 20
682.1322927207249
 30
0.0
 10
2246.122062380528
 20
682.1322927207249
 30
0.0
 10
2246.550059137227
 20
681.9860916479544
 30
0.0
 10
2247.246790344621
 20
681.4472136983801
 30
0.0
 10
2247.495895721754
 20
681.0697186805223
 30
0.0
 10
2247.606614967139
 20
680.6434591308637
 30
0.0
  0
LINE
  5
44B
330
435
100
AcDbEntity
  8
0
  6
Continuous
 62
     7
370
    15
100
AcDbLine
 10
2243.756701176852
 20
680.6434591308637
 30
0.0
 11
2247.606614967139
 21
680.6434591308637
 31
0.0
  0
SPLINE
  5
44C
330
435
100
AcDbEntity
  8
0
  6
Continuous
 62
     7
370
    15
100
AcDbSpline
210
0.0
220
0.0
230
1.0
 70
     8
 71
     3
 72
    26
 73
    22
 74
     0
 42
0.0000000001
 43
0.0000000001
 40
0.0
 40
0.0
 40
0.0
 40
0.0
 40
0.0230715729476346
 40
0.0460090324973592
 40
0.0688963121643151
 40
0.0918178967114755
 40
0.1148578935298948
 40
0.1672666081108498
 40
0.2198734143150282
 40
0.2872072951295933
 40
0.3550347613670425
 40
0.4272288750175978
 40
0.500042599036279
 40
0.57217362315594
 40
0.6450487461993232
 40
0.7123665728304428
 40
0.7802169049632336
 40
0.8396683342519322
 40
0.8991910480712963
 40
0.9495075749985691
 40
1.0
 40
1.0
 40
1.0
 40
1.0
 10
2273.756701176854
 20
680.6434591308638
 30
0.0
 10
2273.76750015128
 20
680.6822305981986
 30
0.0
 10
2273.78903532647
 20
680.7595481571111
 30
0.0
 10
2273.830021383053
 20
680.8726095649854
 30
0.0
 10
2273.877211040013
 20
680.9828824194418
 30
0.0
 10
2273.931237942918
 20
681.0902025775742
 30
0.0
 10
2274.017449545124
 20
681.2386024044359
 30
0.0
 10
2274.148539168336
 20
681.4203856727067
 30
0.0
 10
2274.357085600181
 20
681.6380381051884
 30
0.0
 10
2274.619053905833
 20
681.8375380164338
 30
0.0
 10
2274.943187168064
 20
682.0020167991502
 30
0.0
 10
2275.301130197483
 20
682.1085457578426
 30
0.0
 10
2275.68046921521
 20
682.1441147172456
 30
0.0
 10
2276.060975249176
 20
682.1087306398123
 30
0.0
 10
2276.418160642254
 20
682.0027358434747
 30
0.0
 10
2276.743696848971
 20
681.8383276931649
 30
0.0
 10
2277.014987369641
 20
681.6313127590979
 30
0.0
 10
2277.239680564545
 20
681.3935211403725
 30
0.0
 10
2277.405556647864
 20
681.1479986436324
 30
0.0
 10
2277.530399647183
 20
680.8964901463073
 30
0.0
 10
2277.581180325335
 20
680.727900857896
 30
0.0
 10
2277.60661496714
 20
680.6434591308638
 30
0.0
  0
LINE
  5
44D
330
435
100
AcDbEntity
  8
0
  6
Continuous
 62
     7
370
    15
100
AcDbLine
 10
2277.60661496714
 20
680.6434591308638
 30
0.0
 11
2273.756701176854
 21
680.6434591308638
 31
0.0
  0
SPLINE
  5
44E
330
435
100
AcDbEntity
  8
0
  6
Continuous
 62
     7
370
    15
100
AcDbSpline
210
0.0
220
0.0
230
1.0
 70
     8
 71
     3
 72
    26
 73
    22
 74
     0
 42
0.0000000001
 43
0.0000000001
 40
0.0
 40
0.0
 40
0.0
 40
0.0
 40
0.0230715729476345
 40
0.0460090324973591
 40
0.068896312164315
 40
0.0918178967114755
 40
0.1148578935298947
 40
0.1672666081108498
 40
0.2198734143150281
 40
0.2872072951295931
 40
0.3550347613670426
 40
0.4272288750175976
 40
0.5000425990362788
 40
0.5721736231559394
 40
0.645048746199323
 40
0.7123665728304424
 40
0.7802169049632333
 40
0.8396683342519317
 40
0.8991910480712959
 40
0.9495075749985691
 40
0.9999999999999998
 40
0.9999999999999998
 40
0.9999999999999998
 40
0.9999999999999998
 10
2258.756701176854
 20
680.6434591308637
 30
0.0
 10
2258.767500151281
 20
680.6822305981986
 30
0.0
 10
2258.78903532647
 20
680.759548157111
 30
0.0
 10
2258.830021383053
 20
680.8726095649852
 30
0.0
 10
2258.877211040013
 20
680.9828824194417
 30
0.0
 10
2258.931237942919
 20
681.0902025775741
 30
0.0
 10
2259.017449545124
 20
681.2386024044358
 30
0.0
 10
2259.148539168336
 20
681.4203856727067
 30
0.0
 10
2259.357085600181
 20
681.6380381051884
 30
0.0
 10
2259.619053905833
 20
681.8375380164338
 30
0.0
 10
2259.943187168064
 20
682.0020167991502
 30
0.0
 10
2260.301130197483
 20
682.1085457578426
 30
0.0
 10
2260.68046921521
 20
682.1441147172456
 30
0.0
 10
2261.060975249177
 20
682.1087306398121
 30
0.0
 10
2261.418160642254
 20
682.0027358434747
 30
0.0
 10
2261.743696848971
 20
681.8383276931649
 30
0.0
 10
2262.014987369641
 20
681.6313127590977
 30
0.0
 10
2262.239680564545
 20
681.3935211403725
 30
0.0
 10
2262.405556647864
 20
681.1479986436324
 30
0.0
 10
2262.530399647183
 20
680.8964901463071
 30
0.0
 10
2262.581180325335
 20
680.7279008578959
 30
0.0
 10
2262.606614967141
 20
680.6434591308637
 30
0.0
  0
LINE
  5
44F
330
435
100
AcDbEntity
  8
0
  6
Continuous
 62
     7
370
    15
100
AcDbLine
 10
2262.606614967141
 20
680.6434591308637
 30
0.0
 11
2258.756701176854
 21
680.6434591308637
 31
0.0
  0
SPLINE
  5
450
330
435
100
AcDbEntity
  8
0
  6
Continuous
 62
     7
370
    15
100
AcDbSpline
210
0.0
220
0.0
230
1.0
 70
     8
 71
     3
 72
    19
 73
    15
 74
     0
 42
0.0000000001
 43
0.0000000001
 40
0.0
 40
0.0
 40
0.0
 40
0.0
 40
0.0488679617767459
 40
0.0974204996714149
 40
0.1458568154919767
 40
0.194377542516429
 40
0.2431822730058979
 40
0.3715078253163588
 40
0.500035202728209
 40
0.6283607973257657
 40
0.7568882170903854
 40
0.8379484026938454
 40
0.9186755957281148
 40
1.0
 40
1.0
 40
1.0
 40
1.0
 10
2277.60661496714
 20
679.6434591308639
 30
0.0
 10
2277.595132308651
 20
679.6023954215668
 30
0.0
 10
2277.572241107812
 20
679.5205330534094
 30
0.0
 10
2277.52818742683
 20
679.4010413312579
 30
0.0
 10
2277.477199303952
 20
679.2847409031477
 30
0.0
 10
2277.418570038896
 20
679.1718114241284
 30
0.0
 10
2277.316935995936
 20
679.0031634157761
 30
0.0
 10
2277.153250466236
 20
678.7909015649908
 30
0.0
 10
2276.904258769554
 20
678.5630092823358
 30
0.0
 10
2276.620959794877
 20
678.3791938399904
 30
0.0
 10
2276.348403317632
 20
678.2629281976673
 30
0.0
 10
2276.103811601792
 20
678.1961680887421
 30
0.0
 10
2275.894040174005
 20
678.1611008954736
 30
0.0
 10
2275.752625824824
 20
678.156789289036
 30
0.0
 10
2275.681658071997
 20
678.1546255410026
 30
0.0
  0
SPLINE
  5
451
330
435
100
AcDbEntity
  8
0
  6
Continuous
 62
     7
370
    15
100
AcDbSpline
210
0.0
220
0.0
230
1.0
 70
     8
 71
     3
 72
    19
 73
    15
 74
     0
 42
0.0000000001
 43
0.0000000001
 40
0.0
 40
0.0
 40
0.0
 40
0.0
 40
0.0488679617766757
 40
0.097420499671311
 40
0.1458568154918727
 40
0.1943775425163593
 40
0.2431822730058942
 40
0.3715078253162698
 40
0.5000352027282098
 40
0.6283607973257639
 40
0.7568882170903844
 40
0.8379484026938245
 40
0.9186755957280945
 40
1.0
 40
1.0
 40
1.0
 40
1.0
 10
2275.681658071997
 20
678.1546255410026
 30
0.0
 10
2275.639026451118
 20
678.1554158373824
 30
0.0
 10
2275.55403838006
 20
678.156991329083
 30
0.0
 10
2275.427309197567
 20
678.1695894549463
 30
0.0
 10
2275.301925468275
 20
678.1897016075433
 30
0.0
 10
2275.177883410111
 20
678.2180569555252
 30
0.0
 10
2274.989100814159
 20
678.2740280272965
 30
0.0
 10
2274.742505181123
 20
678.3790929581705
 30
0.0
 10
2274.459334848492
 20
678.5627946735361
 30
0.0
 10
2274.210200736397
 20
678.7907828751794
 30
0.0
 10
2274.029147585286
 20
679.0253558688198
 30
0.0
 10
2273.903040408097
 20
679.2453081351472
 30
0.0
 10
2273.816362191152
 20
679.4395261741312
 30
0.0
 10
2273.776636981594
 20
679.5753146708096
 30
0.0
 10
2273.756701176854
 20
679.6434591308639
 30
0.0
  0
LINE
  5
452
330
435
100
AcDbEntity
  8
0
  6
Continuous
 62
     7
370
    15
100
AcDbLine
 10
2273.756701176854
 20
679.6434591308639
 30
0.0
 11
2277.60661496714
 21
679.6434591308639
 31
0.0
  0
SPLINE
  5
453
330
435
100
AcDbEntity
  8
0
  6
Continuous
 62
     7
370
    15
100
AcDbSpline
210
0.0
220
0.0
230
1.0
 70
     8
 71
     3
 72
    10
 73
     6
 74
     0
 42
0.0000000001
 43
0.0000000001
 40
0.0
 40
0.0
 40
0.0
 40
0.0
 40
0.5
 40
0.5
 40
1.0
 40
1.0
 40
1.0
 40
1.0
 10
2247.606614967139
 20
679.6434591308638
 30
0.0
 10
2247.495895721754
 20
679.2171995812052
 30
0.0
 10
2247.246790344621
 20
678.8397045633474
 30
0.0
 10
2246.550059137227
 20
678.3008266137731
 30
0.0
 10
2246.122062380528
 20
678.1546255410026
 30
0.0
 10
2245.681658071996
 20
678.1546255410026
 30
0.0
  0
SPLINE
  5
454
330
435
100
AcDbEntity
  8
0
  6
Continuous
 62
     7
370
    15
100
AcDbSpline
210
0.0
220
0.0
230
1.0
 70
     8
 71
     3
 72
    10
 73
     6
 74
     0
 42
0.0000000001
 43
0.0000000001
 40
0.0
 40
0.0
 40
0.0
 40
0.0
 40
0.5
 40
0.5
 40
1.0
 40
1.0
 40
1.0
 40
1.0
 10
2245.681658071996
 20
678.1546255410026
 30
0.0
 10
2245.241253763464
 20
678.1546255410026
 30
0.0
 10
2244.813257006764
 20
678.3008266137731
 30
0.0
 10
2244.11652579937
 20
678.8397045633474
 30
0.0
 10
2243.867420422238
 20
679.2171995812052
 30
0.0
 10
2243.756701176852
 20
679.6434591308638
 30
0.0
  0
LINE
  5
455
330
435
100
AcDbEntity
  8
0
  6
Continuous
 62
     7
370
    15
100
AcDbLine
 10
2247.606614967139
 20
679.6434591308638
 30
0.0
 11
2243.756701176852
 21
679.6434591308638
 31
0.0
  0
SPLINE
  5
456
330
435
100
AcDbEntity
  8
0
  6
Continuous
 62
     7
370
    15
100
AcDbSpline
210
0.0
220
0.0
230
1.0
 70
     8
 71
     3
 72
    19
 73
    15
 74
     0
 42
0.0000000001
 43
0.0000000001
 40
0.0
 40
0.0
 40
0.0
 40
0.0
 40
0.0488679617767459
 40
0.0974204996714149
 40
0.1458568154919773
 40
0.194377542516429
 40
0.2431822730058978
 40
0.3715078253163588
 40
0.5000352027282089
 40
0.6283607973257657
 40
0.7568882170903854
 40
0.8379484026938449
 40
0.9186755957281148
 40
1.0
 40
1.0
 40
1.0
 40
1.0
 10
2262.606614967141
 20
679.6434591308638
 30
0.0
 10
2262.595132308651
 20
679.6023954215668
 30
0.0
 10
2262.572241107812
 20
679.5205330534092
 30
0.0
 10
2262.528187426831
 20
679.4010413312579
 30
0.0
 10
2262.477199303952
 20
679.2847409031476
 30
0.0
 10
2262.418570038896
 20
679.1718114241283
 30
0.0
 10
2262.316935995936
 20
679.003163415776
 30
0.0
 10
2262.153250466236
 20
678.7909015649907
 30
0.0
 10
2261.904258769554
 20
678.5630092823356
 30
0.0
 10
2261.620959794877
 20
678.3791938399903
 30
0.0
 10
2261.348403317632
 20
678.2629281976672
 30
0.0
 10
2261.103811601792
 20
678.1961680887421
 30
0.0
 10
2260.894040174005
 20
678.1611008954736
 30
0.0
 10
2260.752625824824
 20
678.156789289036
 30
0.0
 10
2260.681658071998
 20
678.1546255410026
 30
0.0
  0
SPLINE
  5
457
330
435
100
AcDbEntity
  8
0
  6
Continuous
 62
     7
370
    15
100
AcDbSpline
210
0.0
220
0.0
230
1.0
 70
     8
 71
     3
 72
    19
 73
    15
 74
     0
 42
0.0000000001
 43
0.0000000001
 40
0.0
 40
0.0
 40
0.0
 40
0.0
 40
0.0488679617766764
 40
0.0974204996713111
 40
0.1458568154918728
 40
0.1943775425163587
 40
0.2431822730058942
 40
0.3715078253162693
 40
0.5000352027282091
 40
0.6283607973257638
 40
0.7568882170903847
 40
0.8379484026938241
 40
0.9186755957280945
 40
1.0
 40
1.0
 40
1.0
 40
1.0
 10
2260.681658071998
 20
678.1546255410026
 30
0.0
 10
2260.639026451118
 20
678.1554158373824
 30
0.0
 10
2260.55403838006
 20
678.156991329083
 30
0.0
 10
2260.427309197567
 20
678.1695894549462
 30
0.0
 10
2260.301925468275
 20
678.1897016075431
 30
0.0
 10
2260.177883410111
 20
678.2180569555251
 30
0.0
 10
2259.989100814159
 20
678.2740280272963
 30
0.0
 10
2259.742505181123
 20
678.3790929581705
 30
0.0
 10
2259.459334848493
 20
678.562794673536
 30
0.0
 10
2259.210200736397
 20
678.7907828751794
 30
0.0
 10
2259.029147585286
 20
679.0253558688198
 30
0.0
 10
2258.903040408097
 20
679.245308135147
 30
0.0
 10
2258.816362191153
 20
679.4395261741312
 30
0.0
 10
2258.776636981595
 20
679.5753146708095
 30
0.0
 10
2258.756701176854
 20
679.6434591308638
 30
0.0
  0
LINE
  5
458
330
435
100
AcDbEntity
  8
0
  6
Continuous
 62
     7
370
    15
100
AcDbLine
 10
2258.756701176854
 20
679.6434591308638
 30
0.0
 11
2262.606614967141
 21
679.6434591308638
 31
0.0
  0
ARC
  5
459
330
435
100
AcDbEntity
  8
0
  6
Continuous
 62
     7
370
    15
100
AcDbCircle
 10
2245.681658071996
 20
680.1434591308638
 30
0.0
 40
2.188421798069978
100
AcDbArc
 50
193.2073141036489
 51
346.792685896351
  0
SPLINE
  5
45A
330
435
100
AcDbEntity
  8
0
  6
Continuous
 62
     7
370
    15
100
AcDbSpline
210
0.0
220
0.0
230
1.0
 70
    24
 71
     3
 72
    10
 73
     6
 74
     0
 42
0.0000000001
 43
0.0000000001
 40
0.0
 40
0.0
 40
0.0
 40
0.0
 40
0.5
 40
0.5
 40
1.0
 40
1.0
 40
1.0
 40
1.0
 10
2243.756701176852
 20
679.6434591308638
 30
0.0
 10
2243.70523459326
 20
679.6434591308638
 30
0.0
 10
2243.654835351293
 20
679.6434591308638
 30
0.0
 10
2243.578785353
 20
679.6434591308638
 30
0.0
 10
2243.554513906362
 20
679.6434591308638
 30
0.0
 10
2243.551120589042
 20
679.6434591308638
 30
0.0
  0
SPLINE
  5
45B
330
435
100
AcDbEntity
  8
0
  6
Continuous
 62
     7
370
    15
100
AcDbSpline
210
0.0
220
0.0
230
1.0
 70
    24
 71
     3
 72
    10
 73
     6
 74
     0
 42
0.0000000001
 43
0.0000000001
 40
0.0
 40
0.0
 40
0.0
 40
0.0
 40
0.5
 40
0.5
 40
1.0
 40
1.0
 40
1.0
 40
1.0
 10
2247.812195554949
 20
679.6434591308638
 30
0.0
 10
2247.808804816663
 20
679.6434591308638
 30
0.0
 10
2247.784428780888
 20
679.6434591308638
 30
0.0
 10
2247.708766203234
 20
679.6434591308638
 30
0.0
 10
2247.658047194061
 20
679.6434591308638
 30
0.0
 10
2247.606614967139
 20
679.6434591308638
 30
0.0
  0
ARC
  5
45C
330
435
100
AcDbEntity
  8
0
  6
Continuous
 62
     7
370
    15
100
AcDbCircle
 10
2260.681658071998
 20
680.1434591308638
 30
0.0
 40
2.188421798070006
100
AcDbArc
 50
193.2073141036489
 51
346.792685896351
  0
SPLINE
  5
45D
330
435
100
AcDbEntity
  8
0
  6
Continuous
 62
     7
370
    15
100
AcDbSpline
210
0.0
220
0.0
230
1.0
 70
    24
 71
     3
 72
    10
 73
     6
 74
     0
 42
0.0000000001
 43
0.0000000001
 40
0.0
 40
0.0
 40
0.0
 40
0.0
 40
0.5
 40
0.5
 40
1.0
 40
1.0
 40
1.0
 40
1.0
 10
2258.551120589045
 20
679.6434591308638
 30
0.0
 10
2258.55451132733
 20
679.6434591308638
 30
0.0
 10
2258.578887363105
 20
679.6434591308638
 30
0.0
 10
2258.654549940759
 20
679.6434591308638
 30
0.0
 10
2258.705268949932
 20
679.6434591308638
 30
0.0
 10
2258.756701176854
 20
679.6434591308638
 30
0.0
  0
SPLINE
  5
45E
330
435
100
AcDbEntity
  8
0
  6
Continuous
 62
     7
370
    15
100
AcDbSpline
210
0.0
220
0.0
230
1.0
 70
    24
 71
     3
 72
    10
 73
     6
 74
     0
 42
0.0000000001
 43
0.0000000001
 40
0.0
 40
0.0
 40
0.0
 40
0.0
 40
0.5
 40
0.5
 40
1.0
 40
1.0
 40
1.0
 40
1.0
 10
2262.606614967141
 20
679.6434591308638
 30
0.0
 10
2262.658081550733
 20
679.6434591308638
 30
0.0
 10
2262.708480792701
 20
679.6434591308638
 30
0.0
 10
2262.784530790993
 20
679.6434591308638
 30
0.0
 10
2262.808802237631
 20
679.6434591308638
 30
0.0
 10
2262.812195554951
 20
679.6434591308638
 30
0.0
  0
ARC
  5
45F
330
435
100
AcDbEntity
  8
0
  6
Continuous
 62
     7
370
    15
100
AcDbCircle
 10
2275.681658071997
 20
680.1434591308638
 30
0.0
 40
2.188421798069978
100
AcDbArc
 50
193.2073141036489
 51
346.792685896351
  0
SPLINE
  5
460
330
435
100
AcDbEntity
  8
0
  6
Continuous
 62
     7
370
    15
100
AcDbSpline
210
0.0
220
0.0
230
1.0
 70
    24
 71
     3
 72
    10
 73
     6
 74
     0
 42
0.0000000001
 43
0.0000000001
 40
0.0
 40
0.0
 40
0.0
 40
0.0
 40
0.5
 40
0.5
 40
1.0
 40
1.0
 40
1.0
 40
1.0
 10
2273.551120589044
 20
679.6434591308639
 30
0.0
 10
2273.55451132733
 20
679.6434591308639
 30
0.0
 10
2273.578887363105
 20
679.6434591308639
 30
0.0
 10
2273.65454994076
 20
679.6434591308639
 30
0.0
 10
2273.705268949932
 20
679.6434591308639
 30
0.0
 10
2273.756701176854
 20
679.6434591308639
 30
0.0
  0
SPLINE
  5
461
330
435
100
AcDbEntity
  8
0
  6
Continuous
 62
     7
370
    15
100
AcDbSpline
210
0.0
220
0.0
230
1.0
 70
    24
 71
     3
 72
    10
 73
     6
 74
     0
 42
0.0000000001
 43
0.0000000001
 40
0.0
 40
0.0
 40
0.0
 40
0.0
 40
0.5
 40
0.5
 40
1.0
 40
1.0
 40
1.0
 40
1.0
 10
2277.60661496714
 20
679.6434591308639
 30
0.0
 10
2277.658081550733
 20
679.6434591308639
 30
0.0
 10
2277.7084807927
 20
679.6434591308639
 30
0.0
 10
2277.784530790993
 20
679.6434591308639
 30
0.0
 10
2277.808802237631
 20
679.6434591308639
 30
0.0
 10
2277.81219555495
 20
679.6434591308639
 30
0.0
  0
ARC
  5
462
330
435
100
AcDbEntity
  8
0
  6
Continuous
 62
     7
370
    15
100
AcDbCircle
 10
2275.681658071997
 20
680.1434591308638
 30
0.0
 40
2.188421798069978
100
AcDbArc
 50
13.20731410364895
 51
166.792685896351
  0
SPLINE
  5
463
330
435
100
AcDbEntity
  8
0
  6
Continuous
 62
     7
370
    15
100
AcDbSpline
210
0.0
220
0.0
230
1.0
 70
    24
 71
     3
 72
    10
 73
     6
 74
     0
 42
0.0000000001
 43
0.0000000001
 40
0.0
 40
0.0
 40
0.0
 40
0.0
 40
0.5
 40
0.5
 40
1.0
 40
1.0
 40
1.0
 40
1.0
 10
2273.756701176854
 20
680.6434591308638
 30
0.0
 10
2273.705234593262
 20
680.6434591308638
 30
0.0
 10
2273.654835351294
 20
680.6434591308638
 30
0.0
 10
2273.578785353002
 20
680.6434591308638
 30
0.0
 10
2273.554513906364
 20
680.6434591308638
 30
0.0
 10
2273.551120589044
 20
680.6434591308638
 30
0.0
  0
SPLINE
  5
464
330
435
100
AcDbEntity
  8
0
  6
Continuous
 62
     7
370
    15
100
AcDbSpline
210
0.0
220
0.0
230
1.0
 70
    24
 71
     3
 72
    10
 73
     6
 74
     0
 42
0.0000000001
 43
0.0000000001
 40
0.0
 40
0.0
 40
0.0
 40
0.0
 40
0.5
 40
0.5
 40
1.0
 40
1.0
 40
1.0
 40
1.0
 10
2277.81219555495
 20
680.6434591308638
 30
0.0
 10
2277.808804816665
 20
680.6434591308638
 30
0.0
 10
2277.78442878089
 20
680.6434591308638
 30
0.0
 10
2277.708766203236
 20
680.6434591308638
 30
0.0
 10
2277.658047194063
 20
680.6434591308638
 30
0.0
 10
2277.60661496714
 20
680.6434591308638
 30
0.0
  0
ARC
  5
465
330
435
100
AcDbEntity
  8
0
  6
Continuous
 62
     7
370
    15
100
AcDbCircle
 10
2245.681658071996
 20
680.1434591308638
 30
0.0
 40
2.188421798069978
100
AcDbArc
 50
13.20731410364895
 51
166.792685896351
  0
SPLINE
  5
466
330
435
100
AcDbEntity
  8
0
  6
Continuous
 62
     7
370
    15
100
AcDbSpline
210
0.0
220
0.0
230
1.0
 70
    24
 71
     3
 72
    10
 73
     6
 74
     0
 42
0.0000000001
 43
0.0000000001
 40
0.0
 40
0.0
 40
0.0
 40
0.0
 40
0.5
 40
0.5
 40
1.0
 40
1.0
 40
1.0
 40
1.0
 10
2243.551120589042
 20
680.6434591308637
 30
0.0
 10
2243.554511327328
 20
680.6434591308637
 30
0.0
 10
2243.578887363103
 20
680.6434591308637
 30
0.0
 10
2243.654549940758
 20
680.6434591308637
 30
0.0
 10
2243.705268949931
 20
680.6434591308637
 30
0.0
 10
2243.756701176852
 20
680.6434591308637
 30
0.0
  0
SPLINE
  5
467
330
435
100
AcDbEntity
  8
0
  6
Continuous
 62
     7
370
    15
100
AcDbSpline
210
0.0
220
0.0
230
1.0
 70
    24
 71
     3
 72
    10
 73
     6
 74
     0
 42
0.0000000001
 43
0.0000000001
 40
0.0
 40
0.0
 40
0.0
 40
0.0
 40
0.5
 40
0.5
 40
1.0
 40
1.0
 40
1.0
 40
1.0
 10
2247.606614967139
 20
680.6434591308637
 30
0.0
 10
2247.658081550731
 20
680.6434591308637
 30
0.0
 10
2247.708480792699
 20
680.6434591308637
 30
0.0
 10
2247.784530790991
 20
680.6434591308637
 30
0.0
 10
2247.808802237629
 20
680.6434591308637
 30
0.0
 10
2247.812195554949
 20
680.6434591308637
 30
0.0
  0
ARC
  5
468
330
435
100
AcDbEntity
  8
0
  6
Continuous
 62
     7
370
    15
100
AcDbCircle
 10
2260.681658071998
 20
680.1434591308638
 30
0.0
 40
2.188421798070006
100
AcDbArc
 50
13.20731410364895
 51
166.792685896351
  0
SPLINE
  5
469
330
435
100
AcDbEntity
  8
0
  6
Continuous
 62
     7
370
    15
100
AcDbSpline
210
0.0
220
0.0
230
1.0
 70
    24
 71
     3
 72
    10
 73
     6
 74
     0
 42
0.0000000001
 43
0.0000000001
 40
0.0
 40
0.0
 40
0.0
 40
0.0
 40
0.5
 40
0.5
 40
1.0
 40
1.0
 40
1.0
 40
1.0
 10
2258.756701176854
 20
680.6434591308637
 30
0.0
 10
2258.705234593262
 20
680.6434591308637
 30
0.0
 10
2258.654835351295
 20
680.6434591308637
 30
0.0
 10
2258.578785353002
 20
680.6434591308637
 30
0.0
 10
2258.554513906364
 20
680.6434591308637
 30
0.0
 10
2258.551120589045
 20
680.6434591308637
 30
0.0
  0
SPLINE
  5
46A
330
435
100
AcDbEntity
  8
0
  6
Continuous
 62
     7
370
    15
100
AcDbSpline
210
0.0
220
0.0
230
1.0
 70
    24
 71
     3
 72
    10
 73
     6
 74
     0
 42
0.0000000001
 43
0.0000000001
 40
0.0
 40
0.0
 40
0.0
 40
0.0
 40
0.5
 40
0.5
 40
1.0
 40
1.0
 40
1.0
 40
1.0
 10
2262.812195554951
 20
680.6434591308637
 30
0.0
 10
2262.808804816665
 20
680.6434591308637
 30
0.0
 10
2262.78442878089
 20
680.6434591308637
 30
0.0
 10
2262.708766203235
 20
680.6434591308637
 30
0.0
 10
2262.658047194062
 20
680.6434591308637
 30
0.0
 10
2262.606614967141
 20
680.6434591308637
 30
0.0
  0
ARC
  5
46B
330
435
100
AcDbEntity
  8
0
  6
Continuous
 62
     7
370
    15
100
AcDbCircle
 10
2275.681658071997
 20
666.1684591308589
 30
0.0
 40
17.67500000000479
100
AcDbArc
 50
78.57881372500691
 51
101.4211862749931
  0
LINE
  5
46C
330
435
100
AcDbEntity
  8
0
  6
Continuous
 62
     7
370
    15
100
AcDbLine
 10
2281.381658071997
 20
683.4934591308639
 30
0.0
 11
2281.381658071997
 21
676.7934591308639
 31
0.0
  0
ARC
  5
46D
330
435
100
AcDbEntity
  8
0
  6
Continuous
 62
     7
370
    15
100
AcDbCircle
 10
2275.681658071997
 20
694.1184591308686
 30
0.0
 40
17.675000000005
100
AcDbArc
 50
258.5788137250069
 51
281.4211862749931
  0
LINE
  5
46E
330
435
100
AcDbEntity
  8
0
  6
Continuous
 62
     7
370
    15
100
AcDbLine
 10
2264.181658071998
 20
676.7934591308638
 30
0.0
 11
2272.181658071996
 21
676.7934591308638
 31
0.0
  0
ARC
  5
46F
330
435
100
AcDbEntity
  8
0
  6
Continuous
 62
     7
370
    15
100
AcDbCircle
 10
2260.681658071998
 20
694.1184591308686
 30
0.0
 40
17.67500000000498
100
AcDbArc
 50
258.5788137250069
 51
281.4211862749931
  0
LINE
  5
470
330
435
100
AcDbEntity
  8
0
  6
Continuous
 62
     7
370
    15
100
AcDbLine
 10
2249.181658071997
 20
676.7934591308638
 30
0.0
 11
2257.181658071996
 21
676.7934591308638
 31
0.0
  0
LINE
  5
471
330
435
100
AcDbEntity
  8
0
  6
Continuous
 62
     7
370
    15
100
AcDbLine
 10
2239.981658071996
 20
676.7934591308638
 30
0.0
 11
2242.181658071994
 21
676.7934591308638
 31
0.0
  0
LINE
  5
472
330
435
100
AcDbEntity
  8
0
  6
Continuous
 62
     7
370
    15
100
AcDbLine
 10
2239.981658071996
 20
683.4934591308638
 30
0.0
 11
2239.981658071996
 21
676.7934591308638
 31
0.0
  0
LINE
  5
473
330
435
100
AcDbEntity
  8
0
  6
Continuous
 62
     7
370
    15
100
AcDbLine
 10
2242.181658071995
 20
683.4934591308638
 30
0.0
 11
2239.981658071996
 21
683.4934591308638
 31
0.0
  0
ARC
  5
474
330
435
100
AcDbEntity
  8
0
  6
Continuous
 62
     7
370
    15
100
AcDbCircle
 10
2245.681658071996
 20
666.1684591308589
 30
0.0
 40
17.67500000000479
100
AcDbArc
 50
78.57881372500691
 51
101.4211862749931
  0
ARC
  5
475
330
435
100
AcDbEntity
  8
0
  6
Continuous
 62
     7
370
    15
100
AcDbCircle
 10
2260.681658071998
 20
666.1684591308589
 30
0.0
 40
17.67500000000485
100
AcDbArc
 50
78.57881372500691
 51
101.4211862749931
  0
ARC
  5
476
330
435
100
AcDbEntity
  8
0
  6
Continuous
 62
     7
370
    15
100
AcDbCircle
 10
2245.681658071996
 20
694.1184591308686
 30
0.0
 40
17.67500000000501
100
AcDbArc
 50
258.5788137250069
 51
281.4211862749931
  0
LINE
  5
477
330
435
100
AcDbEntity
  8
0
  6
Continuous
 62
     7
370
    15
100
AcDbLine
 10
2257.181658071997
 20
683.4934591308638
 30
0.0
 11
2249.181658071996
 21
683.4934591308638
 31
0.0
  0
LINE
  5
478
330
435
100
AcDbEntity
  8
0
  6
Continuous
 62
     7
370
    15
100
AcDbLine
 10
2281.381658071997
 20
676.7934591308639
 30
0.0
 11
2279.181658071999
 21
676.7934591308639
 31
0.0
  0
LINE
  5
479
330
435
100
AcDbEntity
  8
0
  6
Continuous
 62
     7
370
    15
100
AcDbLine
 10
2279.181658071998
 20
683.4934591308639
 30
0.0
 11
2281.381658071997
 21
683.4934591308639
 31
0.0
  0
LINE
  5
47A
330
435
100
AcDbEntity
  8
0
  6
Continuous
 62
     7
370
    15
100
AcDbLine
 10
2272.181658071998
 20
683.4934591308639
 30
0.0
 11
2264.181658071998
 21
683.4934591308639
 31
0.0
  0
ENDBLK
  5
437
330
435
100
AcDbEntity
  8
0
100
AcDbBlockEnd
  0
BLOCK
  5
47D
330
47C
100
AcDbEntity
  8
0
100
AcDbBlockBegin
  2
4
 70
     0
 10
0.0
 20
0.0
 30
0.0
  3
4
  1

  0
LINE
  5
47F
330
47C
100
AcDbEntity
  8
0
  6
Continuous
 62
     7
370
    15
100
AcDbLine
 10
2327.55099011187
 20
705.5121114514069
 30
0.0
 11
2327.66457722491
 21
710.0638095336091
 31
0.0
  0
LINE
  5
480
330
47C
100
AcDbEntity
  8
0
  6
Continuous
 62
     7
370
    15
100
AcDbLine
 10
2320.816709135667
 20
710.2346973105861
 30
0.0
 11
2320.703122022626
 21
705.6829992283841
 31
0.0
  0
SPLINE
  5
481
330
47C
100
AcDbEntity
  8
0
  6
Continuous
 62
     7
370
    15
100
AcDbSpline
210
0.0
220
0.0
230
1.0
 70
     8
 71
     3
 72
    27
 73
    23
 74
     0
 42
0.0000000001
 43
0.0000000001
 40
0.0
 40
0.0
 40
0.0
 40
0.0
 40
0.0159083260202107
 40
0.0722759982941789
 40
0.1253675621328439
 40
0.1793609392069468
 40
0.2342181346902203
 40
0.2896706452020957
 40
0.3453988519988369
 40
0.4011637820126984
 40
0.4567877264233289
 40
0.5122070774328276
 40
0.5673888287877681
 40
0.6222785264769945
 40
0.6767767594082041
 40
0.7306860016778803
 40
0.783575138145096
 40
0.8343360242979775
 40
0.8822667821313537
 40
0.9165403037476506
 40
0.9525786422829048
 40
1.0
 40
1.0
 40
1.0
 40
1.0
 10
2320.705745459697
 20
705.6680197433256
 30
0.0
 10
2320.704769762327
 20
705.6520820882329
 30
0.0
 10
2320.700336894825
 20
705.5796728397147
 30
0.0
 10
2320.72150796942
 20
705.4539327255798
 30
0.0
 10
2320.768675554528
 20
705.2937879070145
 30
0.0
 10
2320.842441462062
 20
705.1404429434594
 30
0.0
 10
2320.940752289879
 20
704.9915845953091
 30
0.0
 10
2321.06322516456
 20
704.8485926937544
 30
0.0
 10
2321.208212102161
 20
704.7126717308213
 30
0.0
 10
2321.374098010126
 20
704.584760374007
 30
0.0
 10
2321.55917422364
 20
704.4655412125134
 30
0.0
 10
2321.761754034046
 20
704.3555447317487
 30
0.0
 10
2321.980123817937
 20
704.2552283136029
 30
0.0
 10
2322.212368536442
 20
704.1650565765357
 30
0.0
 10
2322.456172045201
 20
704.0855160911132
 30
0.0
 10
2322.708456707212
 20
704.0171246068019
 30
0.0
 10
2322.964302669713
 20
703.9604967072128
 30
0.0
 10
2323.217643174564
 20
703.9158556997324
 30
0.0
 10
2323.444585551984
 20
703.8850727081772
 30
0.0
 10
2323.648911186701
 20
703.8641762372691
 30
0.0
 10
2323.853932397557
 20
703.8483808411935
 30
0.0
 10
2324.000133397698
 20
703.8432297776685
 30
0.0
 10
2324.08320403224
 20
703.8403029706344
 30
0.0
  0
SPLINE
  5
482
330
47C
100
AcDbEntity
  8
0
  6
Continuous
 62
     7
370
    15
100
AcDbSpline
210
0.0
220
0.0
230
1.0
 70
     8
 71
     3
 72
    28
 73
    24
 74
     0
 42
0.0000000001
 43
0.0000000001
 40
0.0
 40
0.0
 40
0.0
 40
0.0
 40
0.061040922005094
 40
0.0856507526201113
 40
0.126405811039673
 40
0.1685066172610384
 40
0.2134500200523381
 40
0.2600963729682709
 40
0.3079897323182729
 40
0.3567712082565661
 40
0.4061943667660582
 40
0.4560860705223876
 40
0.5063265921330595
 40
0.5568359150873418
 40
0.6075639863108668
 40
0.6584825428281489
 40
0.709547016196767
 40
0.7607177803488527
 40
0.8119736443156055
 40
0.863345183847649
 40
0.9150001996856037
 40
0.9673435447149147
 40
1.0
 40
1.0
 40
1.0
 40
1.0
 10
2324.08320403224
 20
703.8403029706344
 30
0.0
 10
2324.190719054143
 20
703.838994333583
 30
0.0
 10
2324.341580840653
 20
703.8371580941444
 30
0.0
 10
2324.562956076815
 20
703.8444654572149
 30
0.0
 10
2324.750041907376
 20
703.8550632140263
 30
0.0
 10
2324.969863376111
 20
703.874912314736
 30
0.0
 10
2325.195909467699
 20
703.9033625941895
 30
0.0
 10
2325.426293475155
 20
703.9414098165932
 30
0.0
 10
2325.656003074762
 20
703.9891801529961
 30
0.0
 10
2325.881591105879
 20
704.0466968475323
 30
0.0
 10
2326.10018590231
 20
704.1138126800453
 30
0.0
 10
2326.309427091739
 20
704.1902889222411
 30
0.0
 10
2326.507348236057
 20
704.2758366515841
 30
0.0
 10
2326.692297490413
 20
704.370157965019
 30
0.0
 10
2326.862865452147
 20
704.4729816891762
 30
0.0
 10
2327.017782399869
 20
704.5840693341558
 30
0.0
 10
2327.155835699491
 20
704.7032174655456
 30
0.0
 10
2327.275846452907
 20
704.8302419980135
 30
0.0
 10
2327.376456875275
 20
704.9649762847758
 30
0.0
 10
2327.456684343902
 20
705.1072319069812
 30
0.0
 10
2327.513544579123
 20
705.2568658686859
 30
0.0
 10
2327.545706568359
 20
705.3925965710873
 30
0.0
 10
2327.547121001387
 20
705.4783233714227
 30
0.0
 10
2327.547664418768
 20
705.5112591361131
 30
0.0
  0
LINE
  5
483
330
47C
100
AcDbEntity
  8
0
  6
Continuous
 62
     7
370
    15
100
AcDbLine
 10
2327.102094340562
 20
704.5598547680192
 30
0.0
 11
2327.104666153289
 21
704.6629132465952
 31
0.0
  0
LINE
  5
484
330
47C
100
AcDbEntity
  8
0
  6
Continuous
 62
     7
370
    15
100
AcDbLine
 10
2321.106535918284
 20
704.8126920607176
 30
0.0
 11
2321.103961707648
 21
704.7095374923786
 31
0.0
  0
LINE
  5
485
330
47C
100
AcDbEntity
  8
0
  6
Continuous
 62
     7
370
    15
100
AcDbLine
 10
2326.782233398714
 20
691.6919854795878
 30
0.0
 11
2326.955425367002
 21
698.6321878388971
 31
0.0
  0
LINE
  5
486
330
47C
100
AcDbEntity
  8
0
  6
Continuous
 62
     7
370
    15
100
AcDbLine
 10
2320.992730791134
 20
700.2019553948374
 30
0.0
 11
2320.7841007658
 21
691.8416682039474
 31
0.0
  0
LINE
  5
487
330
47C
100
AcDbEntity
  8
0
  6
Continuous
 62
     7
370
    15
100
AcDbLine
 10
2316.454026840332
 20
710.5991861398193
 30
0.0
 11
2316.567613953373
 21
715.1508842220213
 31
0.0
  0
LINE
  5
488
330
47C
100
AcDbEntity
  8
0
  6
Continuous
 62
     7
370
    15
100
AcDbLine
 10
2309.719745864129
 20
715.3217719989984
 30
0.0
 11
2309.606158751089
 21
710.7700739167963
 31
0.0
  0
LINE
  5
489
330
47C
100
AcDbEntity
  8
0
  6
Continuous
 62
     7
370
    15
100
AcDbLine
 10
2321.261807837918
 20
691.0300697136221
 30
0.0
 11
2321.425529719055
 21
690.9041215446724
 31
0.0
  0
LINE
  5
48A
330
47C
100
AcDbEntity
  8
0
  6
Continuous
 62
     7
370
    15
100
AcDbLine
 10
2326.094839222689
 20
690.7875994518554
 30
0.0
 11
2326.264639448877
 21
690.9052246141771
 31
0.0
  0
SPLINE
  5
48B
330
47C
100
AcDbEntity
  8
0
  6
Continuous
 62
     7
370
    15
100
AcDbSpline
210
0.0
220
0.0
230
1.0
 70
     8
 71
     3
 72
    27
 73
    23
 74
     0
 42
0.0000000001
 43
0.0000000001
 40
0.0
 40
0.0
 40
0.0
 40
0.0
 40
0.0159083260202045
 40
0.0722759982941749
 40
0.1253675621328377
 40
0.1793609392069396
 40
0.2342181346902117
 40
0.2896706452020867
 40
0.3453988519988249
 40
0.4011637820126889
 40
0.4567877264233145
 40
0.5122070774328104
 40
0.5673888287877551
 40
0.6222785264769764
 40
0.6767767594081878
 40
0.7306860016778641
 40
0.7835751381450715
 40
0.8343360242979528
 40
0.882266782131346
 40
0.9165403037476602
 40
0.9525786422829407
 40
1.0
 40
1.0
 40
1.0
 40
1.0
 10
2309.608782188159
 20
710.7550944317379
 30
0.0
 10
2309.607806490789
 20
710.7391567766451
 30
0.0
 10
2309.603373623287
 20
710.6667475281271
 30
0.0
 10
2309.624544697882
 20
710.5410074139922
 30
0.0
 10
2309.671712282989
 20
710.3808625954269
 30
0.0
 10
2309.745478190524
 20
710.2275176318717
 30
0.0
 10
2309.843789018341
 20
710.0786592837216
 30
0.0
 10
2309.966261893022
 20
709.9356673821668
 30
0.0
 10
2310.111248830624
 20
709.7997464192335
 30
0.0
 10
2310.277134738588
 20
709.6718350624192
 30
0.0
 10
2310.462210952102
 20
709.5526159009257
 30
0.0
 10
2310.664790762508
 20
709.4426194201609
 30
0.0
 10
2310.883160546399
 20
709.3423030020152
 30
0.0
 10
2311.115405264904
 20
709.2521312649481
 30
0.0
 10
2311.359208773662
 20
709.1725907795255
 30
0.0
 10
2311.611493435674
 20
709.1041992952141
 30
0.0
 10
2311.867339398174
 20
709.0475713956251
 30
0.0
 10
2312.120679903026
 20
709.0029303881447
 30
0.0
 10
2312.347622280447
 20
708.9721473965895
 30
0.0
 10
2312.551947915164
 20
708.9512509256813
 30
0.0
 10
2312.756969126019
 20
708.9354555296059
 30
0.0
 10
2312.903170126161
 20
708.9303044660807
 30
0.0
 10
2312.986240760702
 20
708.9273776590466
 30
0.0
  0
SPLINE
  5
48C
330
47C
100
AcDbEntity
  8
0
  6
Continuous
 62
     7
370
    15
100
AcDbSpline
210
0.0
220
0.0
230
1.0
 70
     8
 71
     3
 72
    28
 73
    24
 74
     0
 42
0.0000000001
 43
0.0000000001
 40
0.0
 40
0.0
 40
0.0
 40
0.0
 40
0.0610409220050931
 40
0.0856507526201017
 40
0.1264058110396732
 40
0.168506617261048
 40
0.2134500200523458
 40
0.2600963729682713
 40
0.3079897323182686
 40
0.3567712082565596
 40
0.4061943667660565
 40
0.4560860705223906
 40
0.5063265921330585
 40
0.5568359150873528
 40
0.6075639863108651
 40
0.6584825428281596
 40
0.7095470161967881
 40
0.7607177803488672
 40
0.8119736443156373
 40
0.8633451838476798
 40
0.9150001996856314
 40
0.9673435447149415
 40
1.0
 40
1.0
 40
1.0
 40
1.0
 10
2312.986240760702
 20
708.9273776590466
 30
0.0
 10
2313.093755782605
 20
708.9260690219953
 30
0.0
 10
2313.244617569115
 20
708.9242327825567
 30
0.0
 10
2313.465992805277
 20
708.9315401456271
 30
0.0
 10
2313.653078635839
 20
708.9421379024386
 30
0.0
 10
2313.872900104573
 20
708.9619870031484
 30
0.0
 10
2314.098946196161
 20
708.9904372826017
 30
0.0
 10
2314.329330203617
 20
709.0284845050055
 30
0.0
 10
2314.559039803224
 20
709.0762548414085
 30
0.0
 10
2314.784627834341
 20
709.1337715359445
 30
0.0
 10
2315.003222630771
 20
709.2008873684576
 30
0.0
 10
2315.212463820202
 20
709.2773636106534
 30
0.0
 10
2315.410384964518
 20
709.3629113399965
 30
0.0
 10
2315.595334218874
 20
709.4572326534313
 30
0.0
 10
2315.765902180608
 20
709.5600563775884
 30
0.0
 10
2315.920819128331
 20
709.6711440225682
 30
0.0
 10
2316.058872427953
 20
709.7902921539578
 30
0.0
 10
2316.178883181369
 20
709.9173166864259
 30
0.0
 10
2316.279493603738
 20
710.0520509731881
 30
0.0
 10
2316.359721072363
 20
710.1943065953935
 30
0.0
 10
2316.416581307585
 20
710.3439405570983
 30
0.0
 10
2316.448743296821
 20
710.4796712594995
 30
0.0
 10
2316.450157729849
 20
710.5653980598349
 30
0.0
 10
2316.45070114723
 20
710.5983338245254
 30
0.0
  0
LINE
  5
48D
330
47C
100
AcDbEntity
  8
0
  6
Continuous
 62
     7
370
    15
100
AcDbLine
 10
2316.005131069024
 20
709.6469294564315
 30
0.0
 11
2316.007702881751
 21
709.7499879350075
 31
0.0
  0
LINE
  5
48E
330
47C
100
AcDbEntity
  8
0
  6
Continuous
 62
     7
370
    15
100
AcDbLine
 10
2310.009572646746
 20
709.8997667491298
 30
0.0
 11
2310.00699843611
 21
709.7966121807909
 31
0.0
  0
LINE
  5
48F
330
47C
100
AcDbEntity
  8
0
  6
Continuous
 62
     7
370
    15
100
AcDbLine
 10
2315.685270127176
 20
696.779060168
 30
0.0
 11
2315.835140467569
 21
702.7847110088742
 31
0.0
  0
LINE
  5
490
330
47C
100
AcDbEntity
  8
0
  6
Continuous
 62
     7
370
    15
100
AcDbLine
 10
2309.895767519596
 20
705.2890300832497
 30
0.0
 11
2309.687137494262
 21
696.9287428923596
 31
0.0
  0
LINE
  5
491
330
47C
100
AcDbEntity
  8
0
  6
Continuous
 62
     7
370
    15
100
AcDbLine
 10
2305.357063568793
 20
715.686260828232
 30
0.0
 11
2305.470650681833
 21
720.2379589104341
 31
0.0
  0
LINE
  5
492
330
47C
100
AcDbEntity
  8
0
  6
Continuous
 62
     7
370
    15
100
AcDbLine
 10
2298.62278259259
 20
720.4088466874114
 30
0.0
 11
2298.50919547955
 21
715.8571486052092
 31
0.0
  0
LINE
  5
493
330
47C
100
AcDbEntity
  8
0
  6
Continuous
 62
     7
370
    15
100
AcDbLine
 10
2310.164844566379
 20
696.1171444020344
 30
0.0
 11
2310.328566447517
 21
695.9911962330847
 31
0.0
  0
LINE
  5
494
330
47C
100
AcDbEntity
  8
0
  6
Continuous
 62
     7
370
    15
100
AcDbLine
 10
2314.997875951151
 20
695.8746741402676
 30
0.0
 11
2315.167676177339
 21
695.9922993025895
 31
0.0
  0
SPLINE
  5
495
330
47C
100
AcDbEntity
  8
0
  6
Continuous
 62
     7
370
    15
100
AcDbSpline
210
0.0
220
0.0
230
1.0
 70
     8
 71
     3
 72
    27
 73
    23
 74
     0
 42
0.0000000001
 43
0.0000000001
 40
0.0
 40
0.0
 40
0.0
 40
0.0
 40
0.0216707315649675
 40
0.0777083396830718
 40
0.1304890228077593
 40
0.1841662385484749
 40
0.2387022145598491
 40
0.2938300196983418
 40
0.3492319067662064
 40
0.4046703020162782
 40
0.459968537212446
 40
0.5150633770159418
 40
0.5699220084433652
 40
0.6244902963421492
 40
0.6786694117273937
 40
0.7322629853198885
 40
0.7848424263982757
 40
0.835306079254799
 40
0.8829561757714438
 40
0.917029006805315
 40
0.9528563207698407
 40
1.0
 40
1.0
 40
1.0
 40
1.0
 10
2298.512604226422
 20
715.8598733013236
 30
0.0
 10
2298.51117316565
 20
715.8380352011526
 30
0.0
 10
2298.506041573472
 20
715.7597267000746
 30
0.0
 10
2298.52736934816
 20
715.6280831416302
 30
0.0
 10
2298.574805413024
 20
715.4679370074614
 30
0.0
 10
2298.648499433345
 20
715.3145923961676
 30
0.0
 10
2298.746829973732
 20
715.1657339514218
 30
0.0
 10
2298.869297477438
 20
715.022742076186
 30
0.0
 10
2299.014285866526
 20
714.8868211061401
 30
0.0
 10
2299.180171384867
 20
714.7589097512351
 30
0.0
 10
2299.365247702473
 20
714.6396905892315
 30
0.0
 10
2299.567827485134
 20
714.5296941086026
 30
0.0
 10
2299.786197276411
 20
714.4293776904207
 30
0.0
 10
2300.018441992953
 20
714.3392059533631
 30
0.0
 10
2300.262245502231
 20
714.259665467938
 30
0.0
 10
2300.514530164106
 20
714.1912739836272
 30
0.0
 10
2300.770376126642
 20
714.1346460840381
 30
0.0
 10
2301.023716631485
 20
714.0900050765576
 30
0.0
 10
2301.250659008907
 20
714.0592220850025
 30
0.0
 10
2301.454984643622
 20
714.0383256140944
 30
0.0
 10
2301.660005854491
 20
714.0225302180178
 30
0.0
 10
2301.806206854644
 20
714.0173791544928
 30
0.0
 10
2301.8892774892
 20
714.0144523474585
 30
0.0
  0
SPLINE
  5
496
330
47C
100
AcDbEntity
  8
0
  6
Continuous
 62
     7
370
    15
100
AcDbSpline
210
0.0
220
0.0
230
1.0
 70
     8
 71
     3
 72
    28
 73
    24
 74
     0
 42
0.0000000001
 43
0.0000000001
 40
0.0
 40
0.0
 40
0.0
 40
0.0
 40
0.0614551843218114
 40
0.0862320328207639
 40
0.1272636808560678
 40
0.1696502097893784
 40
0.214898626951616
 40
0.2618615515356077
 40
0.3100799455283936
 40
0.359192483430613
 40
0.4089510587680033
 40
0.4591813591967555
 40
0.5097628447785176
 40
0.5606149559599196
 40
0.6116872999747115
 40
0.6629514220370331
 40
0.7143624512347654
 40
0.7658804925724613
 40
0.8174842112660368
 40
0.8692043905724741
 40
0.9212099700344303
 40
0.9739085501252255
 40
1.0
 40
1.0
 40
1.0
 40
1.0
 10
2301.8892774892
 20
714.0144523474585
 30
0.0
 10
2301.996792511092
 20
714.0131437104078
 30
0.0
 10
2302.147654297594
 20
714.01130747097
 30
0.0
 10
2302.369029533748
 20
714.0186148340403
 30
0.0
 10
2302.556115364311
 20
714.0292125908522
 30
0.0
 10
2302.775936833045
 20
714.0490616915624
 30
0.0
 10
2303.001982924632
 20
714.0775119710164
 30
0.0
 10
2303.232366932095
 20
714.1155591934202
 30
0.0
 10
2303.462076531675
 20
714.1633295298255
 30
0.0
 10
2303.687664562896
 20
714.2208462243547
 30
0.0
 10
2303.906259358929
 20
714.2879620568962
 30
0.0
 10
2304.115500549861
 20
714.3644382989872
 30
0.0
 10
2304.313421688512
 20
714.4499860287274
 30
0.0
 10
2304.498370964181
 20
714.5443073406702
 30
0.0
 10
2304.668938845853
 20
714.6471310704342
 30
0.0
 10
2304.823856093993
 20
714.7582186943773
 30
0.0
 10
2304.961908267717
 20
714.8773669046087
 30
0.0
 10
2305.081923236194
 20
715.0043911419158
 30
0.0
 10
2305.182517884169
 20
715.1391265332859
 30
0.0
 10
2305.262804480057
 20
715.2813780150848
 30
0.0
 10
2305.3194417826
 20
715.4310275877275
 30
0.0
 10
2305.350718355167
 20
715.5600138975101
 30
0.0
 10
2305.352308395773
 20
715.6389220066378
 30
0.0
 10
2305.352834940373
 20
715.6650525586242
 30
0.0
  0
LINE
  5
497
330
47C
100
AcDbEntity
  8
0
  6
Continuous
 62
     7
370
    15
100
AcDbLine
 10
2304.908167797485
 20
714.7340041448443
 30
0.0
 11
2304.910739610212
 21
714.8370626234204
 31
0.0
  0
LINE
  5
498
330
47C
100
AcDbEntity
  8
0
  6
Continuous
 62
     7
370
    15
100
AcDbLine
 10
2298.912609375207
 20
714.9868414375427
 30
0.0
 11
2298.910035164571
 21
714.8836868692037
 31
0.0
  0
LINE
  5
499
330
47C
100
AcDbEntity
  8
0
  6
Continuous
 62
     7
370
    15
100
AcDbLine
 10
2304.585824677143
 20
701.8672727377484
 30
0.0
 11
2304.735695017535
 21
707.8729235786226
 31
0.0
  0
LINE
  5
49A
330
47C
100
AcDbEntity
  8
0
  6
Continuous
 62
     7
370
    15
100
AcDbLine
 10
2298.796324427366
 20
710.3773371356003
 30
0.0
 11
2298.587692044229
 21
702.016955462108
 31
0.0
  0
LINE
  5
49B
330
47C
100
AcDbEntity
  8
0
  6
Continuous
 62
     7
370
    15
100
AcDbLine
 10
2299.065399116347
 20
701.2053569717828
 30
0.0
 11
2299.229120997484
 21
701.0794088028331
 31
0.0
  0
LINE
  5
49C
330
47C
100
AcDbEntity
  8
0
  6
Continuous
 62
     7
370
    15
100
AcDbLine
 10
2303.898430501118
 20
700.962886710016
 30
0.0
 11
2304.068230727307
 21
701.0805118723379
 31
0.0
  0
LWPOLYLINE
  5
49D
330
47C
100
AcDbEntity
  8
0
  6
Continuous
 62
     7
370
    15
100
AcDbPolyline
 90
       56
 70
   128
 43
0.0
 10
2322.409644240482
 20
710.9886207456947
 10
2322.231854691692
 20
710.8859118084204
 10
2322.080252772897
 20
710.773599402507
 10
2321.956814846953
 20
710.6531476919246
 10
2321.863150116
 20
710.5261269489284
 10
2321.800479643046
 20
710.3941930831561
 10
2321.76962043355
 20
710.2590660543151
 10
2321.7709747845
 20
710.1225074498765
 10
2321.80452503986
 20
709.9862975200887
 10
2321.869833820743
 20
709.8522119696927
 10
2321.966049727313
 20
709.721998808895
 10
2322.091918438085
 20
709.5973555653822
 10
2322.245799061923
 20
709.4799071544509
 10
2322.425685529565
 20
709.3711846957517
 10
2322.629232745804
 20
709.2726055528032
 10
2322.85378716139
 20
709.1854548554912
 10
2323.096421366107
 20
709.110868746435
 10
2323.353972252033
 20
709.0498195696308
 10
2323.623082249497
 20
709.003103194461
 10
2323.900243098131
 20
708.9713286403194
 10
2324.181841582412
 20
708.9549101371122
 10
2324.464206635446
 20
708.9540617251373
 10
2324.743657196946
 20
708.9687944647429
 10
2325.016550201478
 20
708.9989162921368
 10
2325.279328071392
 20
709.0440345232337
 10
2325.528565095286
 20
709.103560972892
 10
2325.761012087397
 20
709.1767196228062
 10
2325.973638745698
 20
709.262556738093
 10
2326.163673156528
 20
709.3599533006838
 10
2326.328637930724
 20
709.4676395974363
 10
2326.466382500171
 20
709.5842117727872
 10
2326.575111153754
 20
709.708150130157
 10
2326.653406447194
 20
709.8378389435177
 10
2326.700247681604
 20
709.971587520854
 10
2326.715024209859
 20
710.107652244918
 10
2326.697543397316
 20
710.2442593039475
 10
2326.648033133098
 20
710.3796278160143
 10
2326.567138859218
 20
710.5119930455444
 10
2326.455915156246
 20
710.6396294093441
 10
2326.315811995247
 20
710.7608729722169
 10
2326.148655835181
 20
710.8741431389023
 10
2325.956625812231
 20
710.9779632595533
 10
2325.742225331415
 20
711.0709798801249
 10
2325.508249430886
 20
711.1519803867171
 10
2325.257748344327
 20
711.2199088138525
 10
2324.993987736492
 20
711.2738796106
 10
2324.720406130275
 20
711.3131891850864
 10
2324.440570080302
 20
711.337325076892
 10
2324.158127677439
 20
711.345972637756
 10
2323.876760990347
 20
711.3390191334978
 10
2323.600138064087
 20
711.3165552136795
 10
2323.331865101542
 20
711.2788737298501
 10
2323.075439451051
 20
711.2264659177775
 10
2322.83420401312
 20
711.1600149934397
 10
2322.611303660605
 20
711.0803872462589
 10
2322.409644240482
 20
710.9886207456947
  0
LWPOLYLINE
  5
49E
330
47C
100
AcDbEntity
  8
0
  6
Continuous
 62
     7
370
    15
100
AcDbPolyline
 90
       65
 70
   128
 43
0.0
 10
2326.774449793957
 20
708.9877047015768
 10
2326.988004487219
 20
709.1090023195071
 10
2327.175100589236
 20
709.2403181242148
 10
2327.333936262267
 20
709.3803874727155
 10
2327.462981831952
 20
709.5278614206136
 10
2327.560994518912
 20
709.6813197131734
 10
2327.627030407393
 20
709.8392844631488
 10
2327.660453535689
 20
710.0002343836451
 10
2327.660942020804
 20
710.1626194389438
 10
2327.62849115836
 20
710.3248757721937
 10
2327.5634134679
 20
710.4854407662071
 10
2327.46633568316
 20
710.6427680923181
 10
2327.338192716274
 20
710.7953426023724
 10
2327.180218654063
 20
710.9416949204323
 10
2326.993934873106
 20
711.0804155936707
 10
2326.781135388043
 20
711.2101686661718
 10
2326.543869574246
 20
711.3297045449172
 10
2326.284422431204
 20
711.4378720340496
 10
2326.005292576732
 20
711.5336294215183
 10
2325.709168183916
 20
711.6160545113358
 10
2325.398901092539
 20
711.6843535048287
 10
2325.077479344297
 20
711.737868645354
 10
2324.747998406336
 20
711.7760845528539
 10
2324.413631360199
 20
711.7986331872482
 10
2324.077598343324
 20
711.8052973928614
 10
2323.743135537359
 20
711.7960129897506
 10
2323.413464001961
 20
711.7708693917927
 10
2323.091758654232
 20
711.7301087455813
 10
2322.781117692533
 20
711.6741235984212
 10
2322.484532759139
 20
711.6034531178844
 10
2322.204860129088
 20
711.5187778993308
 10
2321.944793202693
 20
711.4209134114031
 10
2321.706836566621
 20
711.3108021426183
 10
2321.493281873358
 20
711.1895045246878
 10
2321.306185771342
 20
711.0581887199804
 10
2321.147350098311
 20
710.9181193714797
 10
2321.018304528625
 20
710.7706454235816
 10
2320.920291841665
 20
710.6171871310217
 10
2320.854255953184
 20
710.4592223810463
 10
2320.820832824888
 20
710.2982724605501
 10
2320.820344339773
 20
710.1358874052514
 10
2320.852795202218
 20
709.9736310720015
 10
2320.917872892677
 20
709.8130660779879
 10
2321.014950677418
 20
709.655738751877
 10
2321.143093644304
 20
709.5031642418227
 10
2321.301067706514
 20
709.3568119237628
 10
2321.487351487472
 20
709.2180912505244
 10
2321.700150972534
 20
709.0883381780233
 10
2321.937416786331
 20
708.9688022992779
 10
2322.196863929373
 20
708.8606348101456
 10
2322.475993783845
 20
708.7648774226768
 10
2322.772118176661
 20
708.6824523328593
 10
2323.082385268039
 20
708.6141533393664
 10
2323.40380701628
 20
708.5606381988411
 10
2323.733287954242
 20
708.5224222913413
 10
2324.067655000379
 20
708.4998736569469
 10
2324.403688017253
 20
708.4932094513337
 10
2324.738150823218
 20
708.5024938544448
 10
2325.067822358616
 20
708.5276374524026
 10
2325.389527706346
 20
708.5683980986138
 10
2325.700168668044
 20
708.6243832457739
 10
2325.996753601438
 20
708.6950537263107
 10
2326.276426231489
 20
708.7797289448644
 10
2326.536493157885
 20
708.877593432792
 10
2326.774449793957
 20
708.9877047015768
  0
LINE
  5
49F
330
47C
100
AcDbEntity
  8
0
  6
Continuous
 62
     7
370
    15
100
AcDbLine
 10
2320.703122022626
 20
705.6829992283841
 30
0.0
 11
2320.702907606592
 21
705.6704674084675
 31
0.0
  0
LWPOLYLINE
  5
4A0
330
47C
100
AcDbEntity
  8
0
  6
Continuous
 62
     7
370
    15
100
AcDbPolyline
 90
       25
 70
   128
 43
0.0
 10
2326.322420678413
 20
703.6172811925164
 10
2326.099384322269
 20
703.5147752161033
 10
2325.854475468759
 20
703.4245393275835
 10
2325.59037739053
 20
703.3475621702347
 10
2325.309983601395
 20
703.2846871219013
 10
2325.016366154383
 20
703.2366030547705
 10
2324.712741983688
 20
703.2038367879438
 10
2324.402437659262
 20
703.1867473154974
 10
2324.088852940216
 20
703.1855218732677
 10
2323.775423526357
 20
703.2001738874561
 10
2323.465583415929
 20
703.2305428275291
 10
2323.162727282024
 20
703.2762959650241
 10
2322.870173279818
 20
703.3369320189922
 10
2322.591126692183
 20
703.4117866481373
 10
2322.328644811927
 20
703.5000397294782
 10
2322.085603445456
 20
703.6007243437875
 10
2321.864665404842
 20
703.7127373693613
 10
2321.668251333492
 20
703.834851568051
 10
2321.498513185074
 20
703.9657290311419
 10
2321.357310646263
 20
704.1039358377604
 10
2321.246190761621
 20
704.2479577652116
 10
2321.16637098386
 20
704.3962168791197
 10
2321.118725835166
 20
704.5470888216077
 10
2321.103777325759
 20
704.6989206081017
 10
2321.103961707648
 20
704.7095374923786
  0
ARC
  5
4A1
330
47C
100
AcDbEntity
  8
0
  6
Continuous
 62
     7
370
    15
100
AcDbCircle
 10
2325.869808467207
 20
704.785421092895
 30
0.0
 40
1.25276040829412
100
AcDbArc
 50
291.1795583688483
 51
349.6270110326186
  0
LWPOLYLINE
  5
4A2
330
47C
100
AcDbEntity
  8
0
  6
Continuous
 62
     7
370
    15
100
AcDbPolyline
 90
       32
 70
   128
 43
0.0
 10
2298.910035164571
 20
714.8836868692037
 10
2298.909850782682
 20
714.8730699849267
 10
2298.924799292089
 20
714.7212381984328
 10
2298.972444440783
 20
714.5703662559449
 10
2299.052264218545
 20
714.4221071420367
 10
2299.163384103186
 20
714.2780852145855
 10
2299.304586641998
 20
714.139878407967
 10
2299.474324790415
 20
714.0090009448761
 10
2299.670738861765
 20
713.8868867461864
 10
2299.891676902379
 20
713.7748737206127
 10
2300.13471826885
 20
713.6741891063033
 10
2300.397200149106
 20
713.5859360249626
 10
2300.676246736742
 20
713.5110813958174
 10
2300.968800738946
 20
713.4504453418492
 10
2301.271656872852
 20
713.4046922043542
 10
2301.581496983279
 20
713.3743232642812
 10
2301.894926397139
 20
713.3596712500928
 10
2302.208511116184
 20
713.3608966923225
 10
2302.518815440611
 20
713.3779861647688
 10
2302.822439611306
 20
713.4107524315957
 10
2303.116057058318
 20
713.4588364987264
 10
2303.396450847452
 20
713.5217115470598
 10
2303.660548925681
 20
713.5986887044086
 10
2303.905457779192
 20
713.6889245929284
 10
2304.128494135336
 20
713.7914305693416
 10
2304.327214361121
 20
713.9050835567197
 10
2304.499441236169
 20
714.0286383491499
 10
2304.643287806797
 20
714.1607412544705
 10
2304.757178059874
 20
714.2999449256066
 10
2304.839864189955
 20
714.444724218007
 10
2304.890440270496
 20
714.5934928994471
 10
2304.908167797485
 20
714.7340041448443
  0
LWPOLYLINE
  5
4A3
330
47C
100
AcDbEntity
  8
0
  6
Continuous
 62
     7
370
    15
100
AcDbPolyline
 90
       25
 70
   128
 43
0.0
 10
2315.225457406875
 20
708.7043558809288
 10
2315.002421050731
 20
708.6018499045155
 10
2314.75751219722
 20
708.5116140159957
 10
2314.493414118992
 20
708.4346368586469
 10
2314.213020329857
 20
708.3717618103136
 10
2313.919402882846
 20
708.3236777431827
 10
2313.615778712151
 20
708.2909114763561
 10
2313.305474387723
 20
708.2738220039097
 10
2312.991889668678
 20
708.2725965616799
 10
2312.678460254818
 20
708.2872485758684
 10
2312.368620144392
 20
708.3176175159414
 10
2312.065764010486
 20
708.3633706534364
 10
2311.773210008281
 20
708.4240067074046
 10
2311.494163420645
 20
708.4988613365497
 10
2311.231681540389
 20
708.5871144178906
 10
2310.988640173918
 20
708.6877990321998
 10
2310.767702133304
 20
708.7998120577736
 10
2310.571288061955
 20
708.9219262564633
 10
2310.401549913537
 20
709.0528037195541
 10
2310.260347374725
 20
709.1910105261726
 10
2310.149227490084
 20
709.3350324536238
 10
2310.069407712322
 20
709.4832915675319
 10
2310.021762563628
 20
709.63416351002
 10
2310.006814054221
 20
709.785995296514
 10
2310.00699843611
 20
709.7966121807909
  0
ARC
  5
4A4
330
47C
100
AcDbEntity
  8
0
  6
Continuous
 62
     7
370
    15
100
AcDbCircle
 10
2314.772845195669
 20
709.8724957813072
 30
0.0
 40
1.252760408293777
100
AcDbArc
 50
291.1795583688217
 51
349.627011032625
  0
ARC
  5
4A5
330
47C
100
AcDbEntity
  8
0
  6
Continuous
 62
     7
370
    15
100
AcDbCircle
 10
2320.427178020477
 20
691.9492635874911
 30
0.0
 40
15.25302758463393
100
AcDbArc
 50
56.05187555235327
 51
62.15080638706595
  0
LINE
  5
4A6
330
47C
100
AcDbEntity
  8
0
  6
Continuous
 62
     7
370
    15
100
AcDbLine
 10
2328.945110233623
 20
704.6023138643954
 30
0.0
 11
2330.572664846781
 21
703.8562095767616
 31
0.0
  0
LINE
  5
4A7
330
47C
100
AcDbEntity
  8
0
  6
Continuous
 62
     7
370
    15
100
AcDbLine
 10
2330.572664846781
 20
703.8562095767616
 30
0.0
 11
2326.067083287798
 21
701.547005920443
 31
0.0
  0
LINE
  5
4A8
330
47C
100
AcDbEntity
  8
0
  6
Continuous
 62
     7
370
    15
100
AcDbLine
 10
2326.067083287798
 20
701.547005920443
 30
0.0
 11
2324.43952867464
 21
702.2931102080761
 31
0.0
  0
ARC
  5
4A9
330
47C
100
AcDbEntity
  8
0
  6
Continuous
 62
     7
370
    15
100
AcDbCircle
 10
2329.880479187731
 20
720.9972933530612
 30
0.0
 40
19.47948689280702
100
AcDbArc
 50
236.9640639806451
 51
253.7805586924124
  0
LINE
  5
4AA
330
47C
100
AcDbEntity
  8
0
  6
Continuous
 62
     7
370
    15
100
AcDbLine
 10
2313.342565403101
 20
707.380184896489
 30
0.0
 11
2319.260945814587
 21
704.667078396003
 31
0.0
  0
ARC
  5
4AB
330
47C
100
AcDbEntity
  8
0
  6
Continuous
 62
     7
370
    15
100
AcDbCircle
 10
2318.783515916199
 20
726.0843680414898
 30
0.0
 40
19.4794868928243
100
AcDbArc
 50
236.9640639806487
 51
253.7805586924124
  0
LINE
  5
4AC
330
47C
100
AcDbEntity
  8
0
  6
Continuous
 62
     7
370
    15
100
AcDbLine
 10
2302.245602131563
 20
712.4672595849013
 30
0.0
 11
2308.163982543049
 21
709.7541530844153
 31
0.0
  0
ARC
  5
4AD
330
47C
100
AcDbEntity
  8
0
  6
Continuous
 62
     7
370
    15
100
AcDbCircle
 10
2307.756287924883
 20
731.3235635244179
 30
0.0
 40
19.64504660651455
100
AcDbArc
 50
237.0354315060274
 51
253.7091911670223
  0
LINE
  5
4AE
330
47C
100
AcDbEntity
  8
0
  6
Continuous
 62
     7
370
    15
100
AcDbLine
 10
2295.439464658352
 20
715.5873320604614
 30
0.0
 11
2297.067019271509
 21
714.8412277728283
 31
0.0
  0
LINE
  5
4AF
330
47C
100
AcDbEntity
  8
0
  6
Continuous
 62
     7
370
    15
100
AcDbLine
 10
2298.542145197849
 20
717.1775199535005
 30
0.0
 11
2295.439464658352
 21
715.5873320604614
 31
0.0
  0
ARC
  5
4B0
330
47C
100
AcDbEntity
  8
0
  6
Continuous
 62
     7
370
    15
100
AcDbCircle
 10
2298.234568600173
 20
702.1254937891003
 30
0.0
 40
15.25056591330409
100
AcDbArc
 50
56.05161478386377
 51
62.13905557173736
  0
LINE
  5
4B1
330
47C
100
AcDbEntity
  8
0
  6
Continuous
 62
     7
370
    15
100
AcDbLine
 10
2309.67271591284
 20
713.4371731799898
 30
0.0
 11
2306.751183690545
 21
714.7764632412205
 31
0.0
  0
ARC
  5
4B2
330
47C
100
AcDbEntity
  8
0
  6
Continuous
 62
     7
370
    15
100
AcDbCircle
 10
2309.330214748936
 20
697.0363382758978
 30
0.0
 40
15.25302758464023
100
AcDbArc
 50
56.05187555235327
 51
62.15080638706595
  0
LINE
  5
4B3
330
47C
100
AcDbEntity
  8
0
  6
Continuous
 62
     7
370
    15
100
AcDbLine
 10
2320.769679184377
 20
708.3500984915775
 30
0.0
 11
2317.848146962084
 21
709.6893885528077
 31
0.0
  0
LINE
  5
4B4
330
47C
100
AcDbEntity
  8
0
  6
Continuous
 62
     7
370
    15
100
AcDbLine
 10
2324.354338339859
 20
698.8793366464251
 30
0.0
 11
2325.981892953018
 21
698.1332323587913
 31
0.0
  0
LINE
  5
4B5
330
47C
100
AcDbEntity
  8
0
  6
Continuous
 62
     7
370
    15
100
AcDbLine
 10
2324.43952867464
 20
702.2931102080761
 30
0.0
 11
2324.354338339859
 21
698.8793366464251
 31
0.0
  0
LINE
  5
4B6
330
47C
100
AcDbEntity
  8
0
  6
Continuous
 62
     7
370
    15
100
AcDbLine
 10
2326.067083287798
 20
701.547005920443
 30
0.0
 11
2325.981892953018
 21
698.1332323587913
 31
0.0
  0
LINE
  5
4B7
330
47C
100
AcDbEntity
  8
0
  6
Continuous
 62
     7
370
    15
100
AcDbLine
 10
2330.572664846781
 20
703.8562095767616
 30
0.0
 11
2330.487474512001
 21
700.44243601511
 31
0.0
  0
LINE
  5
4B8
330
47C
100
AcDbEntity
  8
0
  6
Continuous
 62
     7
370
    15
100
AcDbLine
 10
2325.981892953018
 20
698.1332323587913
 30
0.0
 11
2330.487474512001
 21
700.44243601511
 31
0.0
  0
ARC
  5
4B9
330
47C
100
AcDbEntity
  8
0
  6
Continuous
 62
     7
370
    15
100
AcDbCircle
 10
2329.795288852954
 20
717.5835197914178
 30
0.0
 40
19.47948689281561
100
AcDbArc
 50
236.9640639806487
 51
253.7805586924124
  0
LINE
  5
4BA
330
47C
100
AcDbEntity
  8
0
  6
Continuous
 62
     7
370
    15
100
AcDbLine
 10
2319.175755479807
 20
701.2533048343515
 30
0.0
 11
2319.260945814587
 21
704.667078396003
 31
0.0
  0
LWPOLYLINE
  5
4BB
330
47C
100
AcDbEntity
  8
0
  6
Continuous
 62
     7
370
    15
100
AcDbPolyline
 90
       25
 70
   128
 43
0.0
 10
2326.002559736565
 20
690.7494119040851
 10
2325.779523380421
 20
690.6469059276719
 10
2325.53461452691
 20
690.5566700391521
 10
2325.270516448682
 20
690.4796928818033
 10
2324.990122659547
 20
690.41681783347
 10
2324.696505212535
 20
690.3687337663391
 10
2324.392881041841
 20
690.3359674995124
 10
2324.082576717414
 20
690.318878027066
 10
2323.768991998369
 20
690.3176525848363
 10
2323.455562584508
 20
690.3323045990247
 10
2323.145722474082
 20
690.3626735390977
 10
2322.842866340176
 20
690.4084266765927
 10
2322.550312337971
 20
690.4690627305609
 10
2322.271265750336
 20
690.543917359706
 10
2322.008783870078
 20
690.6321704410469
 10
2321.765742503608
 20
690.7328550553562
 10
2321.544804462994
 20
690.8448680809299
 10
2321.348390391644
 20
690.9669822796197
 10
2321.178652243227
 20
691.0978597427105
 10
2321.037449704415
 20
691.236066549329
 10
2320.926329819774
 20
691.3800884767802
 10
2320.846510042012
 20
691.5283475906883
 10
2320.798864893318
 20
691.6792195331764
 10
2320.783916383911
 20
691.8310513196703
 10
2320.7841007658
 20
691.8416682039474
  0
ARC
  5
4BC
330
47C
100
AcDbEntity
  8
0
  6
Continuous
 62
     7
370
    15
100
AcDbCircle
 10
2325.54994752536
 20
691.9175518044633
 30
0.0
 40
1.252760408293826
100
AcDbArc
 50
291.1795583688459
 51
349.627011032625
  0
LINE
  5
4BD
330
47C
100
AcDbEntity
  8
0
  6
Continuous
 62
     7
370
    15
100
AcDbLine
 10
2313.342565403101
 20
707.380184896489
 30
0.0
 11
2313.257375068321
 21
703.966411334837
 31
0.0
  0
LINE
  5
4BE
330
47C
100
AcDbEntity
  8
0
  6
Continuous
 62
     7
370
    15
100
AcDbLine
 10
2319.175755479807
 20
701.2533048343515
 30
0.0
 11
2313.257375068321
 21
703.966411334837
 31
0.0
  0
LWPOLYLINE
  5
4BF
330
47C
100
AcDbEntity
  8
0
  6
Continuous
 62
     7
370
    15
100
AcDbPolyline
 90
       56
 70
   128
 43
0.0
 10
2311.312680968944
 20
716.0756954341069
 10
2311.134891420154
 20
715.9729864968328
 10
2310.983289501358
 20
715.8606740909192
 10
2310.859851575415
 20
715.7402223803369
 10
2310.766186844462
 20
715.6132016373407
 10
2310.703516371508
 20
715.4812677715685
 10
2310.672657162012
 20
715.3461407427275
 10
2310.674011512962
 20
715.2095821382889
 10
2310.707561768322
 20
715.073372208501
 10
2310.772870549205
 20
714.9392866581049
 10
2310.869086455776
 20
714.8090734973073
 10
2310.994955166547
 20
714.6844302537946
 10
2311.148835790385
 20
714.5669818428632
 10
2311.328722258027
 20
714.4582593841639
 10
2311.532269474266
 20
714.3596802412155
 10
2311.756823889853
 20
714.2725295439035
 10
2311.999458094569
 20
714.1979434348472
 10
2312.257008980495
 20
714.136894258043
 10
2312.526118977959
 20
714.0901778828732
 10
2312.803279826593
 20
714.0584033287316
 10
2313.084878310874
 20
714.0419848255244
 10
2313.367243363908
 20
714.0411364135498
 10
2313.646693925408
 20
714.0558691531552
 10
2313.91958692994
 20
714.085990980549
 10
2314.182364799854
 20
714.131109211646
 10
2314.431601823748
 20
714.1906356613043
 10
2314.664048815859
 20
714.2637943112184
 10
2314.87667547416
 20
714.3496314265052
 10
2315.066709884991
 20
714.4470279890961
 10
2315.231674659186
 20
714.5547142858486
 10
2315.369419228633
 20
714.6712864611995
 10
2315.478147882216
 20
714.7952248185693
 10
2315.556443175657
 20
714.92491363193
 10
2315.603284410066
 20
715.0586622092662
 10
2315.618060938321
 20
715.1947269333303
 10
2315.600580125777
 20
715.3313339923597
 10
2315.551069861561
 20
715.4667025044266
 10
2315.47017558768
 20
715.5990677339566
 10
2315.358951884709
 20
715.7267040977565
 10
2315.218848723708
 20
715.8479476606292
 10
2315.051692563644
 20
715.9612178273146
 10
2314.859662540693
 20
716.0650379479656
 10
2314.645262059878
 20
716.1580545685372
 10
2314.411286159348
 20
716.2390550751295
 10
2314.160785072789
 20
716.3069835022647
 10
2313.897024464954
 20
716.3609542990123
 10
2313.623442858737
 20
716.4002638734987
 10
2313.343606808764
 20
716.4243997653043
 10
2313.061164405901
 20
716.4330473261683
 10
2312.779797718809
 20
716.4260938219102
 10
2312.503174792548
 20
716.4036299020919
 10
2312.234901830004
 20
716.3659484182623
 10
2311.978476179513
 20
716.3135406061898
 10
2311.737240741582
 20
716.2470896818519
 10
2311.514340389067
 20
716.1674619346712
 10
2311.312680968944
 20
716.0756954341069
  0
LWPOLYLINE
  5
4C0
330
47C
100
AcDbEntity
  8
0
  6
Continuous
 62
     7
370
    15
100
AcDbPolyline
 90
       65
 70
   128
 43
0.0
 10
2315.677486522418
 20
714.074779389989
 10
2315.891041215681
 20
714.1960770079195
 10
2316.078137317698
 20
714.327392812627
 10
2316.236972990728
 20
714.4674621611277
 10
2316.366018560414
 20
714.6149361090258
 10
2316.464031247374
 20
714.7683944015857
 10
2316.530067135855
 20
714.9263591515611
 10
2316.563490264151
 20
715.0873090720574
 10
2316.563978749266
 20
715.249694127356
 10
2316.531527886821
 20
715.411950460606
 10
2316.466450196362
 20
715.5725154546195
 10
2316.369372411621
 20
715.7298427807305
 10
2316.241229444736
 20
715.8824172907847
 10
2316.083255382526
 20
716.0287696088446
 10
2315.896971601568
 20
716.167490282083
 10
2315.684172116506
 20
716.297243354584
 10
2315.446906302708
 20
716.4167792333294
 10
2315.187459159666
 20
716.5249467224619
 10
2314.908329305194
 20
716.6207041099307
 10
2314.612204912378
 20
716.7031291997481
 10
2314.301937821
 20
716.771428193241
 10
2313.98051607276
 20
716.8249433337663
 10
2313.651035134798
 20
716.8631592412662
 10
2313.316668088661
 20
716.8857078756604
 10
2312.980635071786
 20
716.8923720812736
 10
2312.646172265821
 20
716.8830876781628
 10
2312.316500730423
 20
716.857944080205
 10
2311.994795382694
 20
716.8171834339935
 10
2311.684154420995
 20
716.7611982868336
 10
2311.387569487601
 20
716.6905278062968
 10
2311.10789685755
 20
716.6058525877431
 10
2310.847829931155
 20
716.5079880998153
 10
2310.609873295083
 20
716.3978768310307
 10
2310.39631860182
 20
716.2765792131002
 10
2310.209222499804
 20
716.1452634083928
 10
2310.050386826773
 20
716.0051940598919
 10
2309.921341257088
 20
715.8577201119939
 10
2309.823328570127
 20
715.7042618194339
 10
2309.757292681647
 20
715.5462970694586
 10
2309.723869553351
 20
715.3853471489624
 10
2309.723381068235
 20
715.2229620936637
 10
2309.75583193068
 20
715.0607057604138
 10
2309.820909621139
 20
714.9001407664003
 10
2309.91798740588
 20
714.7428134402892
 10
2310.046130372765
 20
714.590238930235
 10
2310.204104434975
 20
714.4438866121751
 10
2310.390388215934
 20
714.3051659389367
 10
2310.603187700996
 20
714.1754128664356
 10
2310.840453514793
 20
714.0558769876902
 10
2311.099900657835
 20
713.9477094985578
 10
2311.379030512307
 20
713.851952111089
 10
2311.675154905123
 20
713.7695270212716
 10
2311.985421996501
 20
713.7012280277787
 10
2312.306843744742
 20
713.6477128872534
 10
2312.636324682704
 20
713.6094969797536
 10
2312.970691728841
 20
713.5869483453592
 10
2313.306724745715
 20
713.580284139746
 10
2313.64118755168
 20
713.589568542857
 10
2313.970859087079
 20
713.6147121408148
 10
2314.292564434808
 20
713.6554727870262
 10
2314.603205396506
 20
713.7114579341861
 10
2314.899790329901
 20
713.782128414723
 10
2315.179462959951
 20
713.8668036332767
 10
2315.439529886347
 20
713.9646681212043
 10
2315.677486522418
 20
714.074779389989
  0
LINE
  5
4C1
330
47C
100
AcDbEntity
  8
0
  6
Continuous
 62
     7
370
    15
100
AcDbLine
 10
2309.606158751089
 20
710.7700739167963
 30
0.0
 11
2309.605944335054
 21
710.7575420968798
 31
0.0
  0
ARC
  5
4C2
330
47C
100
AcDbEntity
  8
0
  6
Continuous
 62
     7
370
    15
100
AcDbCircle
 10
2323.859511967407
 20
694.8261427977932
 30
0.0
 40
4.615898644383941
100
AcDbArc
 50
238.1765164269093
 51
298.9644575068397
  0
LINE
  5
4C3
330
47C
100
AcDbEntity
  8
0
  6
Continuous
 62
     7
370
    15
100
AcDbLine
 10
2308.078792208268
 20
706.3403795227637
 30
0.0
 11
2308.163982543049
 21
709.7541530844153
 31
0.0
  0
ARC
  5
4C4
330
47C
100
AcDbEntity
  8
0
  6
Continuous
 62
     7
370
    15
100
AcDbCircle
 10
2318.698325581415
 20
722.6705944798297
 30
0.0
 40
19.47948689281519
100
AcDbArc
 50
236.9640639806487
 51
253.7805586924124
  0
LWPOLYLINE
  5
4C5
330
47C
100
AcDbEntity
  8
0
  6
Continuous
 62
     7
370
    15
100
AcDbPolyline
 90
       25
 70
   128
 43
0.0
 10
2314.905596465027
 20
695.8364865924973
 10
2314.682560108883
 20
695.7339806160842
 10
2314.437651255373
 20
695.6437447275643
 10
2314.173553177144
 20
695.5667675702155
 10
2313.893159388009
 20
695.5038925218823
 10
2313.599541940997
 20
695.4558084547514
 10
2313.295917770302
 20
695.4230421879247
 10
2312.985613445876
 20
695.4059527154783
 10
2312.672028726831
 20
695.4047272732487
 10
2312.35859931297
 20
695.419379287437
 10
2312.048759202543
 20
695.4497482275099
 10
2311.745903068638
 20
695.4955013650049
 10
2311.453349066432
 20
695.5561374189731
 10
2311.174302478798
 20
695.6309920481182
 10
2310.911820598541
 20
695.7192451294591
 10
2310.66877923207
 20
695.8199297437685
 10
2310.447841191456
 20
695.9319427693421
 10
2310.251427120106
 20
696.0540569680319
 10
2310.081688971689
 20
696.1849344311227
 10
2309.940486432877
 20
696.3231412377413
 10
2309.829366548236
 20
696.4671631651924
 10
2309.749546770474
 20
696.6154222791007
 10
2309.70190162178
 20
696.7662942215886
 10
2309.686953112373
 20
696.9181260080826
 10
2309.687137494262
 20
696.9287428923596
  0
ARC
  5
4C6
330
47C
100
AcDbEntity
  8
0
  6
Continuous
 62
     7
370
    15
100
AcDbCircle
 10
2314.452984253821
 20
697.0046264928758
 30
0.0
 40
1.252760408293811
100
AcDbArc
 50
291.1795583688459
 51
349.6270110326186
  0
LINE
  5
4C7
330
47C
100
AcDbEntity
  8
0
  6
Continuous
 62
     7
370
    15
100
AcDbLine
 10
2302.160411796783
 20
709.0534860232497
 30
0.0
 11
2302.245602131563
 21
712.4672595849013
 31
0.0
  0
LINE
  5
4C8
330
47C
100
AcDbEntity
  8
0
  6
Continuous
 62
     7
370
    15
100
AcDbLine
 10
2308.078792208268
 20
706.3403795227637
 30
0.0
 11
2302.160411796783
 21
709.0534860232497
 31
0.0
  0
LWPOLYLINE
  5
4C9
330
47C
100
AcDbEntity
  8
0
  6
Continuous
 62
     7
370
    15
100
AcDbPolyline
 90
       56
 70
   128
 43
0.0
 10
2303.877715577019
 20
719.4840354753409
 10
2303.676056156896
 20
719.3922689747767
 10
2303.453155804381
 20
719.3126412275959
 10
2303.211920366449
 20
719.246190303258
 10
2302.955494715959
 20
719.1937824911855
 10
2302.687221753414
 20
719.156101007356
 10
2302.410598827154
 20
719.1336370875377
 10
2302.129232140061
 20
719.1266835832796
 10
2301.846789737198
 20
719.1353311441436
 10
2301.566953687225
 20
719.1594670359493
 10
2301.293372081008
 20
719.1987766104356
 10
2301.029611473174
 20
719.2527474071831
 10
2300.779110386614
 20
719.3206758343185
 10
2300.545134486085
 20
719.4016763409108
 10
2300.33073400527
 20
719.4946929614823
 10
2300.138703982319
 20
719.5985130821334
 10
2299.971547822254
 20
719.7117832488189
 10
2299.831444661254
 20
719.8330268116915
 10
2299.720220958282
 20
719.9606631754912
 10
2299.639326684402
 20
720.0930284050213
 10
2299.589816420185
 20
720.2283969170881
 10
2299.572335607642
 20
720.3650039761176
 10
2299.587112135896
 20
720.5010687001816
 10
2299.633953370306
 20
720.6348172775179
 10
2299.712248663746
 20
720.7645060908787
 10
2299.820977317329
 20
720.8884444482483
 10
2299.958721886776
 20
721.0050166235994
 10
2300.123686660972
 20
721.1127029203518
 10
2300.313721071802
 20
721.2100994829426
 10
2300.526347730104
 20
721.2959365982294
 10
2300.758794722214
 20
721.3690952481435
 10
2301.008031746109
 20
721.4286216978019
 10
2301.270809616022
 20
721.4737399288988
 10
2301.543702620555
 20
721.5038617562927
 10
2301.823153182055
 20
721.5185944958982
 10
2302.105518235089
 20
721.5177460839234
 10
2302.387116719369
 20
721.5013275807162
 10
2302.664277568004
 20
721.4695530265746
 10
2302.933387565468
 20
721.4228366514048
 10
2303.190938451394
 20
721.3617874746006
 10
2303.43357265611
 20
721.2872013655444
 10
2303.658127071697
 20
721.2000506682324
 10
2303.861674287936
 20
721.1014715252839
 10
2304.041560755578
 20
720.9927490665847
 10
2304.195441379415
 20
720.8753006556532
 10
2304.321310090188
 20
720.7506574121406
 10
2304.417525996758
 20
720.620444251343
 10
2304.48283477764
 20
720.4863587009469
 10
2304.516385033001
 20
720.3501487711589
 10
2304.517739383951
 20
720.2135901667205
 10
2304.486880174454
 20
720.0784631378795
 10
2304.424209701501
 20
719.9465292721072
 10
2304.330544970548
 20
719.819508529111
 10
2304.207107044604
 20
719.6990568185287
 10
2304.055505125809
 20
719.5867444126151
 10
2303.877715577019
 20
719.4840354753409
  0
LWPOLYLINE
  5
4CA
330
47C
100
AcDbEntity
  8
0
  6
Continuous
 62
     7
370
    15
100
AcDbPolyline
 90
       65
 70
   128
 43
0.0
 10
2299.512910023544
 20
721.4849515194436
 10
2299.750866659616
 20
721.5950627882282
 10
2300.010933586011
 20
721.6929272761559
 10
2300.290606216062
 20
721.7776024947096
 10
2300.587191149455
 20
721.8482729752464
 10
2300.897832111155
 20
721.9042581224064
 10
2301.219537458884
 20
721.9450187686178
 10
2301.549208994282
 20
721.9701623665756
 10
2301.883671800247
 20
721.9794467696865
 10
2302.219704817122
 20
721.9727825640734
 10
2302.554071863259
 20
721.950233929679
 10
2302.88355280122
 20
721.9120180221791
 10
2303.204974549461
 20
721.858502881654
 10
2303.515241640839
 20
721.7902038881609
 10
2303.811366033654
 20
721.7077787983434
 10
2304.090495888127
 20
721.6120214108748
 10
2304.349943031169
 20
721.5038539217423
 10
2304.587208844967
 20
721.3843180429969
 10
2304.800008330028
 20
721.2545649704959
 10
2304.986292110987
 20
721.1158442972576
 10
2305.144266173197
 20
720.9694919791975
 10
2305.272409140082
 20
720.8169174691434
 10
2305.369486924822
 20
720.6595901430323
 10
2305.434564615282
 20
720.4990251490188
 10
2305.467015477727
 20
720.3367688157689
 10
2305.466526992612
 20
720.1743837604702
 10
2305.433103864316
 20
720.0134338399739
 10
2305.367067975835
 20
719.8554690899985
 10
2305.269055288874
 20
719.7020107974387
 10
2305.140009719189
 20
719.5545368495406
 10
2304.981174046158
 20
719.4144675010399
 10
2304.794077944142
 20
719.2831516963324
 10
2304.58052325088
 20
719.1618540784019
 10
2304.342566614808
 20
719.0517428096172
 10
2304.082499688412
 20
718.9538783216895
 10
2303.802827058361
 20
718.8692031031358
 10
2303.506242124967
 20
718.798532622599
 10
2303.195601163269
 20
718.7425474754391
 10
2302.873895815539
 20
718.7017868292277
 10
2302.544224280141
 20
718.6766432312698
 10
2302.209761474176
 20
718.6673588281589
 10
2301.873728457302
 20
718.674023033772
 10
2301.539361411164
 20
718.6965716681664
 10
2301.209880473203
 20
718.7347875756663
 10
2300.888458724962
 20
718.7883027161915
 10
2300.578191633584
 20
718.8566017096846
 10
2300.282067240768
 20
718.939026799502
 10
2300.002937386296
 20
719.0347841869707
 10
2299.743490243253
 20
719.1429516761031
 10
2299.506224429456
 20
719.2624875548485
 10
2299.293424944394
 20
719.3922406273497
 10
2299.107141163436
 20
719.530961300588
 10
2298.949167101226
 20
719.677313618648
 10
2298.82102413434
 20
719.8298881287021
 10
2298.7239463496
 20
719.9872154548131
 10
2298.658868659141
 20
720.1477804488266
 10
2298.626417796696
 20
720.3100367820766
 10
2298.626906281811
 20
720.4724218373752
 10
2298.660329410108
 20
720.6333717578716
 10
2298.726365298588
 20
720.7913365078469
 10
2298.824377985548
 20
720.9447948004067
 10
2298.953423555234
 20
721.0922687483049
 10
2299.112259228265
 20
721.2323380968056
 10
2299.299355330281
 20
721.3636539015131
 10
2299.512910023544
 20
721.4849515194436
  0
LINE
  5
4CB
330
47C
100
AcDbEntity
  8
0
  6
Continuous
 62
     7
370
    15
100
AcDbLine
 10
2305.357063568793
 20
715.686260828232
 30
0.0
 11
2305.356415069297
 21
715.6683390931968
 31
0.0
  0
ARC
  5
4CC
330
47C
100
AcDbEntity
  8
0
  6
Continuous
 62
     7
370
    15
100
AcDbCircle
 10
2312.762548695869
 20
699.9132174862054
 30
0.0
 40
4.615898644383762
100
AcDbArc
 50
238.1765164268871
 51
298.9644575068429
  0
LINE
  5
4CD
330
47C
100
AcDbEntity
  8
0
  6
Continuous
 62
     7
370
    15
100
AcDbLine
 10
2297.067019271509
 20
714.8412277728283
 30
0.0
 11
2296.98182893673
 21
711.427454211176
 31
0.0
  0
ARC
  5
4CE
330
47C
100
AcDbEntity
  8
0
  6
Continuous
 62
     7
370
    15
100
AcDbCircle
 10
2307.671097590108
 20
727.9097899627762
 30
0.0
 40
19.64504660652549
100
AcDbArc
 50
237.035431506031
 51
253.7091911670204
  0
LWPOLYLINE
  5
4CF
330
47C
100
AcDbEntity
  8
0
  6
Continuous
 62
     7
370
    15
100
AcDbPolyline
 90
       32
 70
   128
 43
0.0
 10
2298.587692044229
 20
702.016955462108
 10
2298.58750766234
 20
702.006338577831
 10
2298.602456171747
 20
701.8545067913371
 10
2298.650101320441
 20
701.7036348488491
 10
2298.729921098203
 20
701.5553757349408
 10
2298.841040982845
 20
701.4113538074897
 10
2298.982243521656
 20
701.2731470008711
 10
2299.151981670073
 20
701.1422695377803
 10
2299.348395741423
 20
701.0201553390905
 10
2299.569333782037
 20
700.9081423135169
 10
2299.812375148508
 20
700.8074576992076
 10
2300.074857028765
 20
700.7192046178667
 10
2300.3539036164
 20
700.6443499887216
 10
2300.646457618604
 20
700.5837139347534
 10
2300.949313752511
 20
700.5379607972583
 10
2301.259153862937
 20
700.5075918571853
 10
2301.572583276797
 20
700.4929398429969
 10
2301.886167995843
 20
700.4941652852267
 10
2302.19647232027
 20
700.5112547576731
 10
2302.500096490965
 20
700.5440210244998
 10
2302.793713937976
 20
700.5921050916307
 10
2303.074107727111
 20
700.6549801399639
 10
2303.338205805339
 20
700.7319572973127
 10
2303.58311465885
 20
700.8221931858326
 10
2303.806151014994
 20
700.9246991622458
 10
2304.004871240779
 20
701.038352149624
 10
2304.177098115828
 20
701.161906942054
 10
2304.320944686455
 20
701.2940098473746
 10
2304.434834939533
 20
701.4332135185108
 10
2304.517521069614
 20
701.5779928109111
 10
2304.568097150154
 20
701.7267614923513
 10
2304.585824677143
 20
701.8672727377484
  0
LINE
  5
4D0
330
47C
100
AcDbEntity
  8
0
  6
Continuous
 62
     7
370
    15
100
AcDbLine
 10
2295.439464658352
 20
715.5873320604614
 30
0.0
 11
2295.354274323571
 21
712.1735584988098
 31
0.0
  0
LINE
  5
4D1
330
47C
100
AcDbEntity
  8
0
  6
Continuous
 62
     7
370
    15
100
AcDbLine
 10
2296.98182893673
 20
711.427454211176
 30
0.0
 11
2295.354274323571
 21
712.1735584988098
 31
0.0
  0
LWPOLYLINE
  5
4D2
330
47C
100
AcDbEntity
  8
0
  6
Continuous
 62
     7
370
    15
100
AcDbPolyline
 90
        3
 70
   128
 43
0.0
 10
2303.653822769613
 20
700.8174615139323
 10
2303.845260440615
 20
700.9273672488761
 10
2303.898430501118
 20
700.962886710016
  0
ARC
  5
4D3
330
47C
100
AcDbEntity
  8
0
  6
Continuous
 62
     7
370
    15
100
AcDbCircle
 10
2301.689793322442
 20
705.1429748894129
 30
0.0
 40
4.750523932243192
100
AcDbArc
 50
238.8032060929105
 51
294.4207543461841
  0
LWPOLYLINE
  5
4D4
330
47C
100
AcDbEntity
  8
0
  6
Continuous
 62
     8
370
    15
100
AcDbPolyline
 90
       34
 70
   128
 43
0.0
 10
2320.702907606592
 20
705.6704674084675
 10
2320.706757226733
 20
705.5841893230494
 10
2320.739208089178
 20
705.4219329897994
 10
2320.804285779637
 20
705.261367995786
 10
2320.901363564377
 20
705.1040406696749
 10
2321.029506531263
 20
704.9514661596207
 10
2321.187480593473
 20
704.8051138415607
 10
2321.373764374431
 20
704.6663931683224
 10
2321.586563859494
 20
704.5366400958213
 10
2321.82382967329
 20
704.4171042170759
 10
2322.083276816333
 20
704.3089367279435
 10
2322.362406670805
 20
704.2131793404747
 10
2322.658531063621
 20
704.1307542506573
 10
2322.968798154999
 20
704.0624552571642
 10
2323.29021990324
 20
704.008940116639
 10
2323.619700841201
 20
703.9707242091392
 10
2323.954067887338
 20
703.9481755747449
 10
2324.290100904212
 20
703.9415113691317
 10
2324.624563710178
 20
703.9507957722426
 10
2324.954235245576
 20
703.9759393702004
 10
2325.275940593305
 20
704.0167000164118
 10
2325.586581555004
 20
704.0726851635717
 10
2325.883166488398
 20
704.1433556441086
 10
2326.162839118449
 20
704.2280308626622
 10
2326.422906044844
 20
704.32589535059
 10
2326.660862680916
 20
704.4360066193747
 10
2326.874417374179
 20
704.5573042373051
 10
2327.061513476195
 20
704.6886200420127
 10
2327.220349149226
 20
704.8286893905134
 10
2327.349394718911
 20
704.9761633384115
 10
2327.447407405871
 20
705.1296216309714
 10
2327.513443294352
 20
705.2875863809467
 10
2327.546866422649
 20
705.448536301443
 10
2327.55099011187
 20
705.5121114514069
  0
LWPOLYLINE
  5
4D5
330
47C
100
AcDbEntity
  8
0
  6
Continuous
 62
     8
370
    15
100
AcDbPolyline
 90
       34
 70
   128
 43
0.0
 10
2309.605944335054
 20
710.7575420968798
 10
2309.609793955195
 20
710.6712640114616
 10
2309.64224481764
 20
710.5090076782118
 10
2309.707322508099
 20
710.3484426841983
 10
2309.804400292839
 20
710.1911153580872
 10
2309.932543259725
 20
710.0385408480329
 10
2310.090517321935
 20
709.8921885299731
 10
2310.276801102893
 20
709.7534678567346
 10
2310.489600587955
 20
709.6237147842336
 10
2310.726866401752
 20
709.5041789054882
 10
2310.986313544795
 20
709.3960114163557
 10
2311.265443399267
 20
709.300254028887
 10
2311.561567792083
 20
709.2178289390695
 10
2311.871834883461
 20
709.1495299455766
 10
2312.193256631701
 20
709.0960148050514
 10
2312.522737569663
 20
709.0577988975515
 10
2312.8571046158
 20
709.0352502631572
 10
2313.193137632675
 20
709.0285860575439
 10
2313.52760043864
 20
709.037870460655
 10
2313.857271974038
 20
709.0630140586126
 10
2314.178977321767
 20
709.1037747048241
 10
2314.489618283466
 20
709.1597598519841
 10
2314.78620321686
 20
709.2304303325209
 10
2315.065875846911
 20
709.3151055510745
 10
2315.325942773306
 20
709.4129700390022
 10
2315.563899409378
 20
709.523081307787
 10
2315.777454102641
 20
709.6443789257175
 10
2315.964550204657
 20
709.775694730425
 10
2316.123385877688
 20
709.9157640789257
 10
2316.252431447374
 20
710.0632380268238
 10
2316.350444134334
 20
710.2166963193837
 10
2316.416480022814
 20
710.374661069359
 10
2316.449903151111
 20
710.5356109898552
 10
2316.454026840332
 20
710.5991861398193
  0
LWPOLYLINE
  5
4D6
330
47C
100
AcDbEntity
  8
0
  6
Continuous
 62
     8
370
    15
100
AcDbPolyline
 90
       26
 70
   128
 43
0.0
 10
2304.466936137839
 20
714.6101559961998
 10
2304.228979501767
 20
714.5000447274151
 10
2303.968912575372
 20
714.4021802394875
 10
2303.689239945321
 20
714.3175050209338
 10
2303.392655011927
 20
714.246834540397
 10
2303.082014050228
 20
714.1908493932369
 10
2302.760308702499
 20
714.1500887470256
 10
2302.430637167101
 20
714.1249451490677
 10
2302.096174361135
 20
714.1156607459568
 10
2301.760141344261
 20
714.12232495157
 10
2301.425774298124
 20
714.1448735859643
 10
2301.096293360162
 20
714.1830894934642
 10
2300.774871611921
 20
714.2366046339894
 10
2300.464604520544
 20
714.3049036274824
 10
2300.168480127728
 20
714.3873287172998
 10
2299.889350273256
 20
714.4830861047686
 10
2299.629903130213
 20
714.591253593901
 10
2299.392637316416
 20
714.7107894726464
 10
2299.179837831354
 20
714.8405425451475
 10
2298.993554050396
 20
714.9792632183858
 10
2298.835579988185
 20
715.1256155364458
 10
2298.7074370213
 20
715.2781900465001
 10
2298.61035923656
 20
715.4355173726111
 10
2298.5452815461
 20
715.5960823666246
 10
2298.512830683656
 20
715.7583386998744
 10
2298.50919547955
 20
715.8571486052092
  0
ARC
  5
4D7
330
47C
100
AcDbEntity
  8
0
  6
Continuous
 62
     8
370
    15
100
AcDbCircle
 10
2304.008269464055
 20
715.8986253215005
 30
0.0
 40
1.367672592355791
100
AcDbArc
 50
289.594608409629
 51
350.3064633409704
  0
ENDBLK
  5
47E
330
47C
100
AcDbEntity
  8
0
100
AcDbBlockEnd
  0
ENDSEC
  0
SECTION
  2
ENTITIES
  0
INSERT
  5
410
330
1F
100
AcDbEntity
  8
0
100
AcDbBlockReference
  2
1
 10
0.0
 20
0.0
 30
0.0
  0
INSERT
  5
434
330
1F
100
AcDbEntity
  8
0
100
AcDbBlockReference
  2
2
 10
0.0
 20
0.0
 30
0.0
  0
INSERT
  5
47B
330
1F
100
AcDbEntity
  8
0
100
AcDbBlockReference
  2
3
 10
0.0
 20
0.0
 30
0.0
  0
INSERT
  5
4D8
330
1F
100
AcDbEntity
  8
0
100
AcDbBlockReference
  2
4
 10
0.0
 20
0.0
 30
0.0
  0
ENDSEC
  0
SECTION
  2
OBJECTS
  0
DICTIONARY
  5
C
330
0
100
AcDbDictionary
281
     1
  3
ACAD_COLOR
350
6B
  3
ACAD_GROUP
350
D
  3
ACAD_LAYOUT
350
1A
  3
ACAD_MATERIAL
350
6A
  3
ACAD_MLEADERSTYLE
350
12D
  3
ACAD_MLINESTYLE
350
17
  3
ACAD_PLOTSETTINGS
350
19
  3
ACAD_PLOTSTYLENAME
350
E
  3
ACAD_SCALELIST
350
10C
  3
ACAD_TABLESTYLE
350
7E
  3
ACAD_VISUALSTYLE
350
EF
  3
ACDB_RECOMPOSE_DATA
350
15D
  3
AcDbVariableDictionary
350
5E
  3
DWGPROPS
350
4E6
  0
DICTIONARY
  5
13C
330
10
100
AcDbDictionary
280
     1
281
     1
  3
ADSK_XREC_LAYER_RECONCILED
360
4D9
  0
DICTIONARY
  5
6B
102
{ACAD_REACTORS
330
C
102
}
330
C
100
AcDbDictionary
281
     1
  0
DICTIONARY
  5
D
102
{ACAD_REACTORS
330
C
102
}
330
C
100
AcDbDictionary
281
     1
  0
DICTIONARY
  5
1A
102
{ACAD_REACTORS
330
C
102
}
330
C
100
AcDbDictionary
281
     1
  3
Layout1
350
D3
  3
Layout2
350
D7
  3
Model
350
22
  0
DICTIONARY
  5
6A
102
{ACAD_REACTORS
330
C
102
}
330
C
100
AcDbDictionary
281
     1
  3
ByBlock
350
ED
  3
ByLayer
350
EC
  3
Global
350
EE
  0
DICTIONARY
  5
12D
102
{ACAD_REACTORS
330
C
102
}
330
C
100
AcDbDictionary
281
     1
  3
Annotative
350
13B
  3
Standard
350
12E
  0
DICTIONARY
  5
17
102
{ACAD_REACTORS
330
C
102
}
330
C
100
AcDbDictionary
281
     1
  3
Standard
350
18
  0
DICTIONARY
  5
19
102
{ACAD_REACTORS
330
C
102
}
330
C
100
AcDbDictionary
281
     1
  0
ACDBDICTIONARYWDFLT
  5
E
102
{ACAD_REACTORS
330
C
102
}
330
C
100
AcDbDictionary
281
     1
  3
Normal
350
F
100
AcDbDictionaryWithDefault
340
F
  0
DICTIONARY
  5
10C
102
{ACAD_REACTORS
330
C
102
}
330
C
100
AcDbDictionary
281
     1
  3
A0
350
10D
  3
A1
350
188
  3
A2
350
189
  3
A3
350
18A
  3
A4
350
18B
  3
A5
350
18C
  3
A6
350
18D
  3
A7
350
18E
  3
A8
350
18F
  3
A9
350
190
  3
B0
350
191
  3
B1
350
192
  3
B2
350
193
  3
B3
350
194
  3
B4
350
195
  3
B5
350
196
  3
B6
350
197
  3
B7
350
198
  3
B8
350
199
  3
B9
350
19A
  3
C0
350
19B
  3
C1
350
19C
  3
C2
350
19D
  3
C3
350
19E
  3
C4
350
19F
  3
C5
350
1A0
  3
C6
350
1A1
  3
C7
350
1A2
  3
C8
350
1A3
  3
C9
350
1A4
  3
D0
350
1A5
  3
D1
350
1A6
  3
D2
350
1A7
  0
DICTIONARY
  5
7E
102
{ACAD_REACTORS
330
C
102
}
330
C
100
AcDbDictionary
281
     1
  3
Standard
350
7F
  0
DICTIONARY
  5
EF
102
{ACAD_REACTORS
330
C
102
}
330
C
100
AcDbDictionary
281
     1
  3
2dWireframe
350
F5
  3
3D Hidden
350
F7
  3
3dWireframe
350
F6
  3
Basic
350
F4
  3
Brighten
350
FB
  3
ColorChange
350
FF
  3
Conceptual
350
F8
  3
Dim
350
FA
  3
Facepattern
350
FE
  3
Flat
350
F0
  3
FlatWithEdges
350
F1
  3
Gouraud
350
F2
  3
GouraudWithEdges
350
F3
  3
Linepattern
350
FD
  3
Realistic
350
F9
  3
Thicken
350
FC
  0
XRECORD
  5
15D
102
{ACAD_REACTORS
330
C
102
}
330
C
100
AcDbXrecord
280
     1
 90
        1
330
7F
  0
DICTIONARY
  5
5E
102
{ACAD_REACTORS
330
C
102
}
330
C
100
AcDbDictionary
281
     1
  3
CANNOSCALE
350
146
  3
CMLEADERSTYLE
350
145
  3
CTABLESTYLE
350
84
  3
DIMASSOC
350
5F
  3
HIDETEXT
350
63
  3
INDEXCTL
350
4E2
  3
LIGHTINGUNITS
350
4E0
  3
MSLTSCALE
350
4DF
  3
PSOLHEIGHT
350
4E4
  3
PSOLWIDTH
350
4E3
  3
SORTENTS
350
4E1
  0
XRECORD
  5
4E6
102
{ACAD_REACTORS
330
C
102
}
330
C
100
AcDbXrecord
280
     1
  1
DWGPROPS COOKIE
  2

  3

  4

  6

  7

  8
orhan kara
  9

300
=
301
=
302
=
303
=
304
=
305
=
306
=
307
=
308
=
309
=
 40
0.000367662037037
 41
2458935.532527871
 42
2458956.462263114
  1

 90
        0
  0
XRECORD
  5
4D9
102
{ACAD_REACTORS
330
13C
102
}
330
13C
100
AcDbXrecord
280
     1
290
     1
  0
LAYOUT
  5
D3
102
{ACAD_XDICTIONARY
360
4EA
102
}
102
{ACAD_REACTORS
330
1A
102
}
330
1A
100
AcDbPlotSettings
  1

  2
C:\Documents and Settings\basas\Application Data\Autodesk\AutoCAD 2005\R16.1\enu\plotters\Default Windows System Printer.pc3
  4

  6

 40
0.0
 41
0.0
 42
0.0
 43
0.0
 44
0.0
 45
0.0
 46
0.0
 47
0.0
 48
0.0
 49
0.0
140
0.0
141
0.0
142
1.0
143
1.0
 70
   688
 72
     0
 73
     0
 74
     5
  7

 75
    16
147
1.0
148
0.0
149
0.0
100
AcDbLayout
  1
Layout1
 70
     1
 71
     1
 10
0.0
 20
0.0
 11
12.0
 21
9.0
 12
0.0
 22
0.0
 32
0.0
 14
0.0
 24
0.0
 34
0.0
 15
0.0
 25
0.0
 35
0.0
146
0.0
 13
0.0
 23
0.0
 33
0.0
 16
1.0
 26
0.0
 36
0.0
 17
0.0
 27
1.0
 37
0.0
 76
     0
330
D2
  0
LAYOUT
  5
D7
102
{ACAD_XDICTIONARY
360
4EC
102
}
102
{ACAD_REACTORS
330
1A
102
}
330
1A
100
AcDbPlotSettings
  1

  2
C:\Documents and Settings\basas\Application Data\Autodesk\AutoCAD 2005\R16.1\enu\plotters\Default Windows System Printer.pc3
  4

  6

 40
0.0
 41
0.0
 42
0.0
 43
0.0
 44
0.0
 45
0.0
 46
0.0
 47
0.0
 48
0.0
 49
0.0
140
0.0
141
0.0
142
1.0
143
1.0
 70
   688
 72
     0
 73
     0
 74
     5
  7

 75
    16
147
1.0
148
0.0
149
0.0
100
AcDbLayout
  1
Layout2
 70
     1
 71
     2
 10
0.0
 20
0.0
 11
12.0
 21
9.0
 12
0.0
 22
0.0
 32
0.0
 14
0.0
 24
0.0
 34
0.0
 15
0.0
 25
0.0
 35
0.0
146
0.0
 13
0.0
 23
0.0
 33
0.0
 16
1.0
 26
0.0
 36
0.0
 17
0.0
 27
1.0
 37
0.0
 76
     0
330
D6
  0
LAYOUT
  5
22
102
{ACAD_XDICTIONARY
360
4E7
102
}
102
{ACAD_REACTORS
330
1A
102
}
330
1A
100
AcDbPlotSettings
  1

  2
none_device
  4
ISO_A4_(210.00_x_297.00_MM)
  6

 40
7.5
 41
20.0
 42
7.5
 43
20.0
 44
210.0
 45
297.0
 46
11.54999923706054
 47
-13.65000009536743
 48
0.0
 49
0.0
140
0.0
141
0.0
142
1.0
143
8.704084754739808
 70
 11952
 72
     1
 73
     0
 74
     0
  7

 75
     0
147
0.1148885871608098
148
0.0
149
0.0
100
AcDbLayout
  1
Model
 70
     1
 71
     0
 10
0.0
 20
0.0
 11
12.0
 21
9.0
 12
0.0
 22
0.0
 32
0.0
 14
0.0
 24
0.0
 34
0.0
 15
0.0
 25
0.0
 35
0.0
146
0.0
 13
0.0
 23
0.0
 33
0.0
 16
1.0
 26
0.0
 36
0.0
 17
0.0
 27
1.0
 37
0.0
 76
     0
330
1F
331
EA
1001
ACAD_PSEXT
1000
None
1000
None
1000
Not applicable
1000
The layout will not be plotted unless a new plotter configuration name is selected.
1070
     0
  0
MATERIAL
  5
ED
102
{ACAD_XDICTIONARY
360
4F0
102
}
102
{ACAD_REACTORS
330
6A
102
}
330
6A
100
AcDbMaterial
  1
ByBlock
  0
MATERIAL
  5
EC
102
{ACAD_XDICTIONARY
360
4EE
102
}
102
{ACAD_REACTORS
330
6A
102
}
330
6A
100
AcDbMaterial
  1
ByLayer
  0
MATERIAL
  5
EE
102
{ACAD_XDICTIONARY
360
173
102
}
102
{ACAD_REACTORS
330
6A
102
}
330
6A
100
AcDbMaterial
  1
Global
 43
0.0007999999797903
 43
0.0
 43
0.0
 43
0.0
 43
0.0
 43
0.0007999999797903
 43
0.0
 43
0.0
 43
0.0
 43
0.0
 43
1.0
 43
0.0
 43
0.0
 43
0.0
 43
0.0
 43
1.0
 49
0.0007999999797903
 49
0.0
 49
0.0
 49
0.0
 49
0.0
 49
0.0007999999797903
 49
0.0
 49
0.0
 49
0.0
 49
0.0
 49
1.0
 49
0.0
 49
0.0
 49
0.0
 49
0.0
 49
1.0
142
0.0007999999797903
142
0.0
142
0.0
142
0.0
142
0.0
142
0.0007999999797903
142
0.0
142
0.0
142
0.0
142
0.0
142
1.0
142
0.0
142
0.0
142
0.0
142
0.0
142
1.0
144
0.0007999999797903
144
0.0
144
0.0
144
0.0
144
0.0
144
0.0007999999797903
144
0.0
144
0.0
144
0.0
144
0.0
144
1.0
144
0.0
144
0.0
144
0.0
144
0.0
144
1.0
1001
ACAD
1070
    -1
1070
     3
1070
     0
1000

1071
        0
1070
     0
  0
MLEADERSTYLE
  5
13B
102
{ACAD_REACTORS
330
12D
102
}
330
12D
100
AcDbMLeaderStyle
170
     2
171
     1
172
     0
 90
        2
 40
0.0
 41
0.0
173
     1
 91
-1056964608
340
14
 92
       -2
290
     1
 42
2.0
291
     1
 43
8.0
  3
Standard
 44
4.0
300

342
11
174
     1
178
     1
175
     1
176
     0
 93
-1056964608
 45
4.0
292
     0
297
     0
 46
4.0
 94
-1056964608
 47
1.0
 49
1.0
140
1.0
293
     1
141
0.0
294
     1
177
     0
142
1.0
295
     0
296
     1
143
3.75
1001
ACAD_MLEADERVER
1070
     2
  0
MLEADERSTYLE
  5
12E
102
{ACAD_REACTORS
330
12D
102
}
330
12D
100
AcDbMLeaderStyle
170
     2
171
     1
172
     0
 90
        2
 40
0.0
 41
0.0
173
     1
 91
-1056964608
340
14
 92
       -2
290
     1
 42
2.0
291
     1
 43
8.0
  3
Standard
 44
4.0
300

342
11
174
     1
178
     1
175
     1
176
     0
 93
-1056964608
 45
4.0
292
     0
297
     0
 46
4.0
 94
-1056964608
 47
1.0
 49
1.0
140
1.0
293
     1
141
0.0
294
     1
177
     0
142
1.0
295
     0
296
     0
143
3.75
1001
ACAD_MLEADERVER
1070
     2
  0
MLINESTYLE
  5
18
102
{ACAD_REACTORS
330
17
102
}
330
17
100
AcDbMlineStyle
  2
STANDARD
 70
     0
  3

 62
   256
 51
90.0
 52
90.0
 71
     2
 49
0.5
 62
   256
  6
BYLAYER
 49
-0.5
 62
   256
  6
BYLAYER
  0
ACDBPLACEHOLDER
  5
F
102
{ACAD_REACTORS
330
E
102
}
330
E
  0
SCALE
  5
10D
102
{ACAD_REACTORS
330
10C
102
}
330
10C
100
AcDbScale
 70
     0
300
1:1
140
1.0
141
1.0
290
     1
  0
SCALE
  5
188
102
{ACAD_REACTORS
330
10C
102
}
330
10C
100
AcDbScale
 70
     0
300
1:2
140
1.0
141
2.0
290
     0
  0
SCALE
  5
189
102
{ACAD_REACTORS
330
10C
102
}
330
10C
100
AcDbScale
 70
     0
300
1:4
140
1.0
141
4.0
290
     0
  0
SCALE
  5
18A
102
{ACAD_REACTORS
330
10C
102
}
330
10C
100
AcDbScale
 70
     0
300
1:5
140
1.0
141
5.0
290
     0
  0
SCALE
  5
18B
102
{ACAD_REACTORS
330
10C
102
}
330
10C
100
AcDbScale
 70
     0
300
1:8
140
1.0
141
8.0
290
     0
  0
SCALE
  5
18C
102
{ACAD_REACTORS
330
10C
102
}
330
10C
100
AcDbScale
 70
     0
300
1:10
140
1.0
141
10.0
290
     0
  0
SCALE
  5
18D
102
{ACAD_REACTORS
330
10C
102
}
330
10C
100
AcDbScale
 70
     0
300
1:16
140
1.0
141
16.0
290
     0
  0
SCALE
  5
18E
102
{ACAD_REACTORS
330
10C
102
}
330
10C
100
AcDbScale
 70
     0
300
1:20
140
1.0
141
20.0
290
     0
  0
SCALE
  5
18F
102
{ACAD_REACTORS
330
10C
102
}
330
10C
100
AcDbScale
 70
     0
300
1:30
140
1.0
141
30.0
290
     0
  0
SCALE
  5
190
102
{ACAD_REACTORS
330
10C
102
}
330
10C
100
AcDbScale
 70
     0
300
1:40
140
1.0
141
40.0
290
     0
  0
SCALE
  5
191
102
{ACAD_REACTORS
330
10C
102
}
330
10C
100
AcDbScale
 70
     0
300
1:50
140
1.0
141
50.0
290
     0
  0
SCALE
  5
192
102
{ACAD_REACTORS
330
10C
102
}
330
10C
100
AcDbScale
 70
     0
300
1:100
140
1.0
141
100.0
290
     0
  0
SCALE
  5
193
102
{ACAD_REACTORS
330
10C
102
}
330
10C
100
AcDbScale
 70
     0
300
2:1
140
2.0
141
1.0
290
     0
  0
SCALE
  5
194
102
{ACAD_REACTORS
330
10C
102
}
330
10C
100
AcDbScale
 70
     0
300
4:1
140
4.0
141
1.0
290
     0
  0
SCALE
  5
195
102
{ACAD_REACTORS
330
10C
102
}
330
10C
100
AcDbScale
 70
     0
300
8:1
140
8.0
141
1.0
290
     0
  0
SCALE
  5
196
102
{ACAD_REACTORS
330
10C
102
}
330
10C
100
AcDbScale
 70
     0
300
10:1
140
10.0
141
1.0
290
     0
  0
SCALE
  5
197
102
{ACAD_REACTORS
330
10C
102
}
330
10C
100
AcDbScale
 70
     0
300
100:1
140
100.0
141
1.0
290
     0
  0
SCALE
  5
198
102
{ACAD_REACTORS
330
10C
102
}
330
10C
100
AcDbScale
 70
     0
300
1/128" = 1'-0"
140
0.0078125
141
12.0
290
     0
  0
SCALE
  5
199
102
{ACAD_REACTORS
330
10C
102
}
330
10C
100
AcDbScale
 70
     0
300
1/64" = 1'-0"
140
0.015625
141
12.0
290
     0
  0
SCALE
  5
19A
102
{ACAD_REACTORS
330
10C
102
}
330
10C
100
AcDbScale
 70
     0
300
1/32" = 1'-0"
140
0.03125
141
12.0
290
     0
  0
SCALE
  5
19B
102
{ACAD_REACTORS
330
10C
102
}
330
10C
100
AcDbScale
 70
     0
300
1/16" = 1'-0"
140
0.0625
141
12.0
290
     0
  0
SCALE
  5
19C
102
{ACAD_REACTORS
330
10C
102
}
330
10C
100
AcDbScale
 70
     0
300
3/32" = 1'-0"
140
0.09375
141
12.0
290
     0
  0
SCALE
  5
19D
102
{ACAD_REACTORS
330
10C
102
}
330
10C
100
AcDbScale
 70
     0
300
1/8" = 1'-0"
140
0.125
141
12.0
290
     0
  0
SCALE
  5
19E
102
{ACAD_REACTORS
330
10C
102
}
330
10C
100
AcDbScale
 70
     0
300
3/16" = 1'-0"
140
0.1875
141
12.0
290
     0
  0
SCALE
  5
19F
102
{ACAD_REACTORS
330
10C
102
}
330
10C
100
AcDbScale
 70
     0
300
1/4" = 1'-0"
140
0.25
141
12.0
290
     0
  0
SCALE
  5
1A0
102
{ACAD_REACTORS
330
10C
102
}
330
10C
100
AcDbScale
 70
     0
300
3/8" = 1'-0"
140
0.375
141
12.0
290
     0
  0
SCALE
  5
1A1
102
{ACAD_REACTORS
330
10C
102
}
330
10C
100
AcDbScale
 70
     0
300
1/2" = 1'-0"
140
0.5
141
12.0
290
     0
  0
SCALE
  5
1A2
102
{ACAD_REACTORS
330
10C
102
}
330
10C
100
AcDbScale
 70
     0
300
3/4" = 1'-0"
140
0.75
141
12.0
290
     0
  0
SCALE
  5
1A3
102
{ACAD_REACTORS
330
10C
102
}
330
10C
100
AcDbScale
 70
     0
300
1" = 1'-0"
140
1.0
141
12.0
290
     0
  0
SCALE
  5
1A4
102
{ACAD_REACTORS
330
10C
102
}
330
10C
100
AcDbScale
 70
     0
300
1-1/2" = 1'-0"
140
1.5
141
12.0
290
     0
  0
SCALE
  5
1A5
102
{ACAD_REACTORS
330
10C
102
}
330
10C
100
AcDbScale
 70
     0
300
3" = 1'-0"
140
3.0
141
12.0
290
     0
  0
SCALE
  5
1A6
102
{ACAD_REACTORS
330
10C
102
}
330
10C
100
AcDbScale
 70
     0
300
6" = 1'-0"
140
6.0
141
12.0
290
     0
  0
SCALE
  5
1A7
102
{ACAD_REACTORS
330
10C
102
}
330
10C
100
AcDbScale
 70
     0
300
1'-0" = 1'-0"
140
12.0
141
12.0
290
     0
  0
TABLESTYLE
  5
7F
102
{ACAD_XDICTIONARY
360
162
102
}
102
{ACAD_REACTORS
330
7E
102
}
330
7E
100
AcDbTableStyle
  3
Standard
 70
     0
 71
     0
 40
1.5
 41
1.5
280
     0
281
     0
  7
Standard
140
4.5
170
     2
 62
     0
 63
     7
283
     0
274
    -2
284
     1
 64
     0
275
    -2
285
     1
 65
     0
276
    -2
286
     1
 66
     0
277
    -2
287
     1
 67
     0
278
    -2
288
     1
 68
     0
279
    -2
289
     1
 69
     0
  7
Standard
140
6.0
170
     5
 62
     0
 63
     7
283
     0
274
    -2
284
     1
 64
     0
275
    -2
285
     1
 65
     0
276
    -2
286
     1
 66
     0
277
    -2
287
     1
 67
     0
278
    -2
288
     1
 68
     0
279
    -2
289
     1
 69
     0
  7
Standard
140
4.5
170
     5
 62
     0
 63
     7
283
     0
274
    -2
284
     1
 64
     0
275
    -2
285
     1
 65
     0
276
    -2
286
     1
 66
     0
277
    -2
287
     1
 67
     0
278
    -2
288
     1
 68
     0
279
    -2
289
     1
 69
     0
  0
VISUALSTYLE
  5
F5
102
{ACAD_REACTORS
330
EF
102
}
330
EF
100
AcDbVisualStyle
  2
2dWireframe
 70
     4
 71
     0
 72
     2
 73
     1
 90
        0
 40
-0.6
 41
-30.0
 62
     5
 63
     7
 74
     1
 91
        4
 64
     7
 65
   257
 75
     1
175
     1
 42
1.0
 92
        0
 66
   257
 43
1.0
 76
     1
 77
     6
 78
     2
 67
     7
 79
     5
170
     0
171
     0
290
     0
174
     0
 93
        1
 44
0.0
173
     0
291
     0
 45
0.0
1001
ACAD
1000
AcDbSavedByObjectVersion
1070
     0
  0
VISUALSTYLE
  5
F7
102
{ACAD_REACTORS
330
EF
102
}
330
EF
100
AcDbVisualStyle
  2
3D Hidden
 70
     6
 71
     1
 72
     2
 73
     2
 90
        0
 40
-0.6
 41
-30.0
 62
     5
 63
     7
 74
     2
 91
        2
 64
     7
 65
   257
 75
     2
175
     1
 42
40.0
 92
        0
 66
   257
 43
1.0
 76
     1
 77
     6
 78
     2
 67
     7
 79
     3
170
     0
171
     0
290
     0
174
     0
 93
        1
 44
0.0
173
     0
291
     0
 45
0.0
1001
ACAD
1000
AcDbSavedByObjectVersion
1070
     0
  0
VISUALSTYLE
  5
F6
102
{ACAD_REACTORS
330
EF
102
}
330
EF
100
AcDbVisualStyle
  2
3dWireframe
 70
     5
 71
     0
 72
     2
 73
     1
 90
        0
 40
-0.6
 41
-30.0
 62
     5
 63
     7
 74
     1
 91
        4
 64
     7
 65
   257
 75
     1
175
     1
 42
1.0
 92
        0
 66
   257
 43
1.0
 76
     1
 77
     6
 78
     2
 67
     7
 79
     5
170
     0
171
     0
290
     0
174
     0
 93
        1
 44
0.0
173
     0
291
     0
 45
0.0
1001
ACAD
1000
AcDbSavedByObjectVersion
1070
     0
  0
VISUALSTYLE
  5
F4
102
{ACAD_REACTORS
330
EF
102
}
330
EF
100
AcDbVisualStyle
  2
Basic
 70
     7
 71
     1
 72
     0
 73
     1
 90
        0
 40
-0.6
 41
-30.0
 62
     5
 63
     7
 74
     0
 91
        4
 64
     7
 65
   257
 75
     1
175
     1
 42
1.0
 92
        8
 66
     7
 43
1.0
 76
     1
 77
     6
 78
     2
 67
     7
 79
     5
170
     0
171
     0
290
     0
174
     0
 93
        1
 44
0.0
173
     0
291
     1
 45
0.0
1001
ACAD
1000
AcDbSavedByObjectVersion
1070
     0
  0
VISUALSTYLE
  5
FB
102
{ACAD_REACTORS
330
EF
102
}
330
EF
100
AcDbVisualStyle
  2
Brighten
 70
    12
 71
     2
 72
     2
 73
     1
 90
        0
 40
-0.6
 41
-30.0
 62
     5
 63
     7
 74
     1
 91
        4
 64
     7
 65
   257
 75
     1
175
     1
 42
1.0
 92
        8
 66
     7
 43
1.0
 76
     1
 77
     6
 78
     2
 67
     7
 79
     5
170
     0
171
     0
290
     0
174
     0
 93
        1
 44
50.0
173
     0
291
     1
 45
0.0
1001
ACAD
1000
AcDbSavedByObjectVersion
1070
     0
  0
VISUALSTYLE
  5
FF
102
{ACAD_REACTORS
330
EF
102
}
330
EF
100
AcDbVisualStyle
  2
ColorChange
 70
    16
 71
     2
 72
     2
 73
     3
 90
        0
 40
-0.6
 41
-30.0
 62
     5
 63
     8
 74
     1
 91
        4
 64
     7
 65
   257
 75
     1
175
     1
 42
1.0
 92
        8
 66
     8
 43
1.0
 76
     1
 77
     6
 78
     2
 67
     7
 79
     5
170
     0
171
     0
290
     0
174
     0
 93
        1
 44
0.0
173
     0
291
     1
 45
0.0
1001
ACAD
1000
AcDbSavedByObjectVersion
1070
     0
  0
VISUALSTYLE
  5
F8
102
{ACAD_REACTORS
330
EF
102
}
330
EF
100
AcDbVisualStyle
  2
Conceptual
 70
     9
 71
     3
 72
     2
 73
     1
 90
        0
 40
-0.6
 41
-30.0
 62
     5
 63
     7
 74
     2
 91
        2
 64
     7
 65
   257
 75
     1
175
     1
 42
40.0
 92
        8
 66
     7
 43
1.0
 76
     1
 77
     6
 78
     2
 67
     7
 79
     3
170
     0
171
     0
290
     0
174
     0
 93
        1
 44
0.0
173
     0
291
     0
 45
0.0
1001
ACAD
1000
AcDbSavedByObjectVersion
1070
     0
  0
VISUALSTYLE
  5
FA
102
{ACAD_REACTORS
330
EF
102
}
330
EF
100
AcDbVisualStyle
  2
Dim
 70
    11
 71
     2
 72
     2
 73
     1
 90
        0
 40
-0.6
 41
-30.0
 62
     5
 63
     7
 74
     1
 91
        4
 64
     7
 65
   257
 75
     1
175
     1
 42
1.0
 92
        8
 66
     7
 43
1.0
 76
     1
 77
     6
 78
     2
 67
     7
 79
     5
170
     0
171
     0
290
     0
174
     0
 93
        1
 44
-50.0
173
     0
291
     1
 45
0.0
1001
ACAD
1000
AcDbSavedByObjectVersion
1070
     0
  0
VISUALSTYLE
  5
FE
102
{ACAD_REACTORS
330
EF
102
}
330
EF
100
AcDbVisualStyle
  2
Facepattern
 70
    15
 71
     2
 72
     2
 73
     1
 90
        0
 40
-0.6
 41
-30.0
 62
     5
 63
     7
 74
     1
 91
        4
 64
     7
 65
   257
 75
     1
175
     1
 42
1.0
 92
        8
 66
     7
 43
1.0
 76
     1
 77
     6
 78
     2
 67
     7
 79
     5
170
     0
171
     0
290
     0
174
     0
 93
        1
 44
0.0
173
     0
291
     1
 45
0.0
1001
ACAD
1000
AcDbSavedByObjectVersion
1070
     0
  0
VISUALSTYLE
  5
F0
102
{ACAD_REACTORS
330
EF
102
}
330
EF
100
AcDbVisualStyle
  2
Flat
 70
     0
 71
     2
 72
     1
 73
     1
 90
        2
 40
-0.6
 41
30.0
 62
     5
 63
     7
 74
     0
 91
        4
 64
     7
 65
   257
 75
     1
175
     1
 42
1.0
 92
        8
 66
     7
 43
1.0
 76
     1
 77
     6
 78
     2
 67
     7
 79
     5
170
     0
171
     0
290
     0
174
     0
 93
        1
 44
0.0
173
     0
291
     1
 45
0.0
1001
ACAD
1000
AcDbSavedByObjectVersion
1070
     0
  0
VISUALSTYLE
  5
F1
102
{ACAD_REACTORS
330
EF
102
}
330
EF
100
AcDbVisualStyle
  2
FlatWithEdges
 70
     1
 71
     2
 72
     1
 73
     1
 90
        2
 40
-0.6
 41
30.0
 62
     5
 63
     7
 74
     1
 91
        4
 64
     7
 65
   257
 75
     1
175
     1
 42
1.0
 92
        0
 66
   257
 43
1.0
 76
     1
 77
     6
 78
     2
 67
     7
 79
     5
170
     0
171
     0
290
     0
174
     0
 93
        1
 44
0.0
173
     0
291
     1
 45
0.0
1001
ACAD
1000
AcDbSavedByObjectVersion
1070
     0
  0
VISUALSTYLE
  5
F2
102
{ACAD_REACTORS
330
EF
102
}
330
EF
100
AcDbVisualStyle
  2
Gouraud
 70
     2
 71
     2
 72
     2
 73
     1
 90
        2
 40
-0.6
 41
30.0
 62
     5
 63
     7
 74
     0
 91
        4
 64
     7
 65
   257
 75
     1
175
     1
 42
1.0
 92
        0
 66
     7
 43
1.0
 76
     1
 77
     6
 78
     2
 67
     7
 79
     5
170
     0
171
     0
290
     0
174
     0
 93
        1
 44
0.0
173
     0
291
     1
 45
0.0
1001
ACAD
1000
AcDbSavedByObjectVersion
1070
     0
  0
VISUALSTYLE
  5
F3
102
{ACAD_REACTORS
330
EF
102
}
330
EF
100
AcDbVisualStyle
  2
GouraudWithEdges
 70
     3
 71
     2
 72
     2
 73
     1
 90
        2
 40
-0.6
 41
30.0
 62
     5
 63
     7
 74
     1
 91
        4
 64
     7
 65
   257
 75
     1
175
     1
 42
1.0
 92
        0
 66
   257
 43
1.0
 76
     1
 77
     6
 78
     2
 67
     7
 79
     5
170
     0
171
     0
290
     0
174
     0
 93
        1
 44
0.0
173
     0
291
     1
 45
0.0
1001
ACAD
1000
AcDbSavedByObjectVersion
1070
     0
  0
VISUALSTYLE
  5
FD
102
{ACAD_REACTORS
330
EF
102
}
330
EF
100
AcDbVisualStyle
  2
Linepattern
 70
    14
 71
     2
 72
     2
 73
     1
 90
        0
 40
-0.6
 41
-30.0
 62
     5
 63
     7
 74
     1
 91
        4
 64
     7
 65
   257
 75
     7
175
     7
 42
1.0
 92
        8
 66
     7
 43
1.0
 76
     1
 77
     6
 78
     2
 67
     7
 79
     5
170
     0
171
     0
290
     0
174
     0
 93
        1
 44
0.0
173
     0
291
     1
 45
0.0
1001
ACAD
1000
AcDbSavedByObjectVersion
1070
     0
  0
VISUALSTYLE
  5
F9
102
{ACAD_REACTORS
330
EF
102
}
330
EF
100
AcDbVisualStyle
  2
Realistic
 70
     8
 71
     2
 72
     2
 73
     1
 90
        0
 40
-0.6
 41
-30.0
 62
     5
 63
     7
 74
     1
 91
        0
 64
     7
 65
   257
 75
     1
175
     1
 42
1.0
 92
        8
 66
     8
 43
1.0
 76
     1
 77
     6
 78
     2
 67
     7
 79
     5
170
     0
171
     0
290
     0
174
     0
 93
       13
 44
0.0
173
     0
291
     0
 45
0.0
1001
ACAD
1000
AcDbSavedByObjectVersion
1070
     0
  0
VISUALSTYLE
  5
FC
102
{ACAD_REACTORS
330
EF
102
}
330
EF
100
AcDbVisualStyle
  2
Thicken
 70
    13
 71
     2
 72
     2
 73
     1
 90
        0
 40
-0.6
 41
-30.0
 62
     5
 63
     7
 74
     1
 91
        4
 64
     7
 65
   257
 75
     1
175
     1
 42
1.0
 92
       12
 66
     7
 43
1.0
 76
     1
 77
     6
 78
     2
 67
     7
 79
     5
170
     0
171
     0
290
     0
174
     0
 93
        1
 44
0.0
173
     0
291
     1
 45
0.0
1001
ACAD
1000
AcDbSavedByObjectVersion
1070
     0
  0
DICTIONARYVAR
  5
146
102
{ACAD_REACTORS
330
5E
102
}
330
5E
100
DictionaryVariables
280
     0
  1
1:1
  0
DICTIONARYVAR
  5
145
102
{ACAD_REACTORS
330
5E
102
}
330
5E
100
DictionaryVariables
280
     0
  1
STANDARD
  0
DICTIONARYVAR
  5
84
102
{ACAD_REACTORS
330
5E
102
}
330
5E
100
DictionaryVariables
280
     0
  1
STANDARD
  0
DICTIONARYVAR
  5
5F
102
{ACAD_REACTORS
330
5E
102
}
330
5E
100
DictionaryVariables
280
     0
  1
2
  0
DICTIONARYVAR
  5
63
102
{ACAD_REACTORS
330
5E
102
}
330
5E
100
DictionaryVariables
280
     0
  1
1
  0
DICTIONARYVAR
  5
4E2
102
{ACAD_REACTORS
330
5E
102
}
330
5E
100
DictionaryVariables
280
     0
  1
0
  0
DICTIONARYVAR
  5
4E0
102
{ACAD_REACTORS
330
5E
102
}
330
5E
100
DictionaryVariables
280
     0
  1
2
  0
DICTIONARYVAR
  5
4DF
102
{ACAD_REACTORS
330
5E
102
}
330
5E
100
DictionaryVariables
280
     0
  1
1
  0
DICTIONARYVAR
  5
4E4
102
{ACAD_REACTORS
330
5E
102
}
330
5E
100
DictionaryVariables
280
     0
  1
80.000000
  0
DICTIONARYVAR
  5
4E3
102
{ACAD_REACTORS
330
5E
102
}
330
5E
100
DictionaryVariables
280
     0
  1
5.000000
  0
DICTIONARYVAR
  5
4E1
102
{ACAD_REACTORS
330
5E
102
}
330
5E
100
DictionaryVariables
280
     0
  1
127
  0
DICTIONARY
  5
4EA
330
D3
100
AcDbDictionary
280
     1
281
     1
  3
ACAD_XREC_ROUNDTRIP
360
4EB
  0
DICTIONARY
  5
4EC
330
D7
100
AcDbDictionary
280
     1
281
     1
  3
ACAD_XREC_ROUNDTRIP
360
4ED
  0
DICTIONARY
  5
4E7
330
22
100
AcDbDictionary
280
     1
281
     1
  3
ACAD_XREC_ROUNDTRIP
360
4E8
  0
DICTIONARY
  5
4F0
330
ED
100
AcDbDictionary
280
     1
281
     1
  3
ACAD_XREC_ROUNDTRIP
360
4F1
  0
DICTIONARY
  5
4EE
330
EC
100
AcDbDictionary
280
     1
281
     1
  3
ACAD_XREC_ROUNDTRIP
360
4EF
  0
DICTIONARY
  5
173
330
EE
100
AcDbDictionary
280
     1
281
     1
  3
ACAD_XREC_ROUNDTRIP
360
4F2
  3
BUMPTILE
360
175
  3
DIFFUSETILE
360
174
  3
OPACITYTILE
360
176
  3
REFLECTIONTILE
360
177
  0
DICTIONARY
  5
162
330
7F
100
AcDbDictionary
280
     1
281
     1
  3
ACAD_ROUNDTRIP_2008_TABLESTYLE_CELLSTYLEMAP
360
4E5
  3
ACAD_XREC_ROUNDTRIP
360
4E9
  0
XRECORD
  5
4EB
102
{ACAD_REACTORS
330
4EA
102
}
330
4EA
100
AcDbXrecord
280
     1
102
SHADEPLOT
 70
     0
102
SHADEPLOTRESLEVEL
 70
     2
102
SHADEPLOTCUSTOMDPI
 70
   300
  0
XRECORD
  5
4ED
102
{ACAD_REACTORS
330
4EC
102
}
330
4EC
100
AcDbXrecord
280
     1
102
SHADEPLOT
 70
     0
102
SHADEPLOTRESLEVEL
 70
     2
102
SHADEPLOTCUSTOMDPI
 70
   300
  0
XRECORD
  5
4E8
102
{ACAD_REACTORS
330
4E7
102
}
330
4E7
100
AcDbXrecord
280
     1
102
SHADEPLOT
 70
     0
102
SHADEPLOTRESLEVEL
 70
     2
102
SHADEPLOTCUSTOMDPI
 70
   300
  0
XRECORD
  5
4F1
102
{ACAD_REACTORS
330
4F0
102
}
330
4F0
100
AcDbXrecord
280
     1
102
MATERIAL
148
0.0
149
0.0
149
0.0
 93
        0
 94
       63
282
     0
 72
     1
 77
     1
171
     1
175
     1
179
     1
273
     0
  0
XRECORD
  5
4EF
102
{ACAD_REACTORS
330
4EE
102
}
330
4EE
100
AcDbXrecord
280
     1
102
MATERIAL
148
0.0
149
0.0
149
0.0
 93
        0
 94
       63
282
     0
 72
     1
 77
     1
171
     1
175
     1
179
     1
273
     0
  0
XRECORD
  5
4F2
102
{ACAD_REACTORS
330
173
102
}
330
173
100
AcDbXrecord
280
     1
102
MATERIAL
148
0.0
149
0.0
149
0.0
 93
        0
 94
       63
282
     0
 72
     1
 77
     1
171
     1
175
     1
179
     1
273
     0
  0
XRECORD
  5
175
102
{ACAD_REACTORS
330
173
102
}
330
173
100
AcDbXrecord
280
     1
270
     1
271
     1
  0
XRECORD
  5
174
102
{ACAD_REACTORS
330
173
102
}
330
173
100
AcDbXrecord
280
     1
270
     1
271
     1
  0
XRECORD
  5
176
102
{ACAD_REACTORS
330
173
102
}
330
173
100
AcDbXrecord
280
     1
270
     1
271
     1
  0
XRECORD
  5
177
102
{ACAD_REACTORS
330
173
102
}
330
173
100
AcDbXrecord
280
     1
270
     1
271
     1
  0
CELLSTYLEMAP
  5
4E5
102
{ACAD_REACTORS
330
162
102
}
330
162
100
AcDbCellStyleMap
 90
        3
300
CELLSTYLE
  1
TABLEFORMAT_BEGIN
 90
        5
170
     1
 91
        0
 92
    32768
 62
   257
 93
        1
300
CONTENTFORMAT
  1
CONTENTFORMAT_BEGIN
 90
        0
 91
        0
 92
      512
 93
        0
300

 40
0.0
140
1.0
 94
        5
 62
     0
340
11
144
6.0
309
CONTENTFORMAT_END
171
     1
301
MARGIN
  1
CELLMARGIN_BEGIN
 40
1.5
 40
1.5
 40
1.5
 40
1.5
 40
4.5
 40
4.5
309
CELLMARGIN_END
 94
        6
 95
        1
302
GRIDFORMAT
  1
GRIDFORMAT_BEGIN
 90
        0
 91
        1
 62
     0
 92
       -2
340
14
 93
        0
 40
1.125
309
GRIDFORMAT_END
 95
        2
302
GRIDFORMAT
  1
GRIDFORMAT_BEGIN
 90
        0
 91
        1
 62
     0
 92
       -2
340
14
 93
        0
 40
1.125
309
GRIDFORMAT_END
 95
        4
302
GRIDFORMAT
  1
GRIDFORMAT_BEGIN
 90
        0
 91
        1
 62
     0
 92
       -2
340
14
 93
        0
 40
1.125
309
GRIDFORMAT_END
 95
        8
302
GRIDFORMAT
  1
GRIDFORMAT_BEGIN
 90
        0
 91
        1
 62
     0
 92
       -2
340
14
 93
        0
 40
1.125
309
GRIDFORMAT_END
 95
       16
302
GRIDFORMAT
  1
GRIDFORMAT_BEGIN
 90
        0
 91
        1
 62
     0
 92
       -2
340
14
 93
        0
 40
1.125
309
GRIDFORMAT_END
 95
       32
302
GRIDFORMAT
  1
GRIDFORMAT_BEGIN
 90
        0
 91
        1
 62
     0
 92
       -2
340
14
 93
        0
 40
1.125
309
GRIDFORMAT_END
309
TABLEFORMAT_END
  1
CELLSTYLE_BEGIN
 90
        1
 91
        1
300
_TITLE
309
CELLSTYLE_END
300
CELLSTYLE
  1
TABLEFORMAT_BEGIN
 90
        5
170
     1
 91
        0
 92
        0
 62
   257
 93
        1
300
CONTENTFORMAT
  1
CONTENTFORMAT_BEGIN
 90
        0
 91
        0
 92
      512
 93
        0
300

 40
0.0
140
1.0
 94
        5
 62
     0
340
11
144
4.5
309
CONTENTFORMAT_END
171
     1
301
MARGIN
  1
CELLMARGIN_BEGIN
 40
1.5
 40
1.5
 40
1.5
 40
1.5
 40
4.5
 40
4.5
309
CELLMARGIN_END
 94
        6
 95
        1
302
GRIDFORMAT
  1
GRIDFORMAT_BEGIN
 90
        0
 91
        1
 62
     0
 92
       -2
340
14
 93
        0
 40
1.125
309
GRIDFORMAT_END
 95
        2
302
GRIDFORMAT
  1
GRIDFORMAT_BEGIN
 90
        0
 91
        1
 62
     0
 92
       -2
340
14
 93
        0
 40
1.125
309
GRIDFORMAT_END
 95
        4
302
GRIDFORMAT
  1
GRIDFORMAT_BEGIN
 90
        0
 91
        1
 62
     0
 92
       -2
340
14
 93
        0
 40
1.125
309
GRIDFORMAT_END
 95
        8
302
GRIDFORMAT
  1
GRIDFORMAT_BEGIN
 90
        0
 91
        1
 62
     0
 92
       -2
340
14
 93
        0
 40
1.125
309
GRIDFORMAT_END
 95
       16
302
GRIDFORMAT
  1
GRIDFORMAT_BEGIN
 90
        0
 91
        1
 62
     0
 92
       -2
340
14
 93
        0
 40
1.125
309
GRIDFORMAT_END
 95
       32
302
GRIDFORMAT
  1
GRIDFORMAT_BEGIN
 90
        0
 91
        1
 62
     0
 92
       -2
340
14
 93
        0
 40
1.125
309
GRIDFORMAT_END
309
TABLEFORMAT_END
  1
CELLSTYLE_BEGIN
 90
        2
 91
        1
300
_HEADER
309
CELLSTYLE_END
300
CELLSTYLE
  1
TABLEFORMAT_BEGIN
 90
        5
170
     1
 91
        0
 92
        0
 62
   257
 93
        1
300
CONTENTFORMAT
  1
CONTENTFORMAT_BEGIN
 90
        0
 91
        0
 92
      512
 93
        0
300

 40
0.0
140
1.0
 94
        2
 62
     0
340
11
144
4.5
309
CONTENTFORMAT_END
171
     1
301
MARGIN
  1
CELLMARGIN_BEGIN
 40
1.5
 40
1.5
 40
1.5
 40
1.5
 40
4.5
 40
4.5
309
CELLMARGIN_END
 94
        6
 95
        1
302
GRIDFORMAT
  1
GRIDFORMAT_BEGIN
 90
        0
 91
        1
 62
     0
 92
       -2
340
14
 93
        0
 40
1.125
309
GRIDFORMAT_END
 95
        2
302
GRIDFORMAT
  1
GRIDFORMAT_BEGIN
 90
        0
 91
        1
 62
     0
 92
       -2
340
14
 93
        0
 40
1.125
309
GRIDFORMAT_END
 95
        4
302
GRIDFORMAT
  1
GRIDFORMAT_BEGIN
 90
        0
 91
        1
 62
     0
 92
       -2
340
14
 93
        0
 40
1.125
309
GRIDFORMAT_END
 95
        8
302
GRIDFORMAT
  1
GRIDFORMAT_BEGIN
 90
        0
 91
        1
 62
     0
 92
       -2
340
14
 93
        0
 40
1.125
309
GRIDFORMAT_END
 95
       16
302
GRIDFORMAT
  1
GRIDFORMAT_BEGIN
 90
        0
 91
        1
 62
     0
 92
       -2
340
14
 93
        0
 40
1.125
309
GRIDFORMAT_END
 95
       32
302
GRIDFORMAT
  1
GRIDFORMAT_BEGIN
 90
        0
 91
        1
 62
     0
 92
       -2
340
14
 93
        0
 40
1.125
309
GRIDFORMAT_END
309
TABLEFORMAT_END
  1
CELLSTYLE_BEGIN
 90
        3
 91
        2
300
_DATA
309
CELLSTYLE_END
  0
XRECORD
  5
4E9
102
{ACAD_REACTORS
330
162
102
}
330
162
100
AcDbXrecord
280
     1
102
ACAD_ROUNDTRIP_PRE2007_TABLESTYLE
 90
      512
 91
        0
  1

 92
      512
 93
        0
  2

 94
      512
 95
        0
  3

  0
ENDSEC
  0
EOF
