  0
SECTION
  2
HEADER
  9
$ACADVER
  1
AC1015
  9
$ACADMAINTVER
 70
    20
  9
$DWGCODEPAGE
  3
ANSI_1254
  9
$INSBASE
 10
0.0
 20
0.0
 30
0.0
  9
$EXTMIN
 10
2158.225190998134
 20
827.05275518696
 30
0.0
  9
$EXTMAX
 10
2249.565989219354
 20
873.8473267020046
 30
0.0
  9
$LIMMIN
 10
0.0
 20
0.0
  9
$LIMMAX
 10
420.0
 20
297.0
  9
$ORTHOMODE
 70
     0
  9
$REGENMODE
 70
     1
  9
$FILLMODE
 70
     1
  9
$QTEXTMODE
 70
     0
  9
$MIRRTEXT
 70
     0
  9
$LTSCALE
 40
1.0
  9
$ATTMODE
 70
     1
  9
$TEXTSIZE
 40
2.5
  9
$TRACEWID
 40
1.0
  9
$TEXTSTYLE
  7
Standard
  9
$CLAYER
  8
0
  9
$CELTYPE
  6
ByLayer
  9
$CECOLOR
 62
   256
  9
$CELTSCALE
 40
1.0
  9
$DISPSILH
 70
     0
  9
$DIMSCALE
 40
1.0
  9
$DIMASZ
 40
2.5
  9
$DIMEXO
 40
0.625
  9
$DIMDLI
 40
3.75
  9
$DIMRND
 40
0.0
  9
$DIMDLE
 40
0.0
  9
$DIMEXE
 40
1.25
  9
$DIMTP
 40
0.0
  9
$DIMTM
 40
0.0
  9
$DIMTXT
 40
2.5
  9
$DIMCEN
 40
2.5
  9
$DIMTSZ
 40
0.0
  9
$DIMTOL
 70
     0
  9
$DIMLIM
 70
     0
  9
$DIMTIH
 70
     0
  9
$DIMTOH
 70
     0
  9
$DIMSE1
 70
     0
  9
$DIMSE2
 70
     0
  9
$DIMTAD
 70
     1
  9
$DIMZIN
 70
     8
  9
$DIMBLK
  1

  9
$DIMASO
 70
     1
  9
$DIMSHO
 70
     1
  9
$DIMPOST
  1

  9
$DIMAPOST
  1

  9
$DIMALT
 70
     0
  9
$DIMALTD
 70
     3
  9
$DIMALTF
 40
0.03937007874016
  9
$DIMLFAC
 40
1.0
  9
$DIMTOFL
 70
     1
  9
$DIMTVP
 40
0.0
  9
$DIMTIX
 70
     0
  9
$DIMSOXD
 70
     0
  9
$DIMSAH
 70
     0
  9
$DIMBLK1
  1

  9
$DIMBLK2
  1

  9
$DIMSTYLE
  2
ISO-25
  9
$DIMCLRD
 70
     0
  9
$DIMCLRE
 70
     0
  9
$DIMCLRT
 70
     0
  9
$DIMTFAC
 40
1.0
  9
$DIMGAP
 40
0.625
  9
$DIMJUST
 70
     0
  9
$DIMSD1
 70
     0
  9
$DIMSD2
 70
     0
  9
$DIMTOLJ
 70
     0
  9
$DIMTZIN
 70
     8
  9
$DIMALTZ
 70
     0
  9
$DIMALTTZ
 70
     0
  9
$DIMUPT
 70
     0
  9
$DIMDEC
 70
     2
  9
$DIMTDEC
 70
     2
  9
$DIMALTU
 70
     2
  9
$DIMALTTD
 70
     3
  9
$DIMTXSTY
  7
Standard
  9
$DIMAUNIT
 70
     0
  9
$DIMADEC
 70
     0
  9
$DIMALTRND
 40
0.0
  9
$DIMAZIN
 70
     0
  9
$DIMDSEP
 70
    44
  9
$DIMATFIT
 70
     3
  9
$DIMFRAC
 70
     0
  9
$DIMLDRBLK
  1

  9
$DIMLUNIT
 70
     2
  9
$DIMLWD
 70
    -2
  9
$DIMLWE
 70
    -2
  9
$DIMTMOVE
 70
     0
  9
$LUNITS
 70
     2
  9
$LUPREC
 70
     4
  9
$SKETCHINC
 40
1.0
  9
$FILLETRAD
 40
0.0
  9
$AUNITS
 70
     0
  9
$AUPREC
 70
     0
  9
$MENU
  1
.
  9
$ELEVATION
 40
0.0
  9
$PELEVATION
 40
0.0
  9
$THICKNESS
 40
0.0
  9
$LIMCHECK
 70
     0
  9
$CHAMFERA
 40
0.0
  9
$CHAMFERB
 40
0.0
  9
$CHAMFERC
 40
0.0
  9
$CHAMFERD
 40
0.0
  9
$SKPOLY
 70
     0
  9
$TDCREATE
 40
2458935.487367975
  9
$TDUCREATE
 40
2458935.362367975
  9
$TDUPDATE
 40
2458956.462058774
  9
$TDUUPDATE
 40
2458956.337058773
  9
$TDINDWG
 40
0.0004230324
  9
$TDUSRTIMER
 40
0.0004230324
  9
$USRTIMER
 70
     1
  9
$ANGBASE
 50
0.0
  9
$ANGDIR
 70
     0
  9
$PDMODE
 70
     0
  9
$PDSIZE
 40
0.0
  9
$PLINEWID
 40
0.0
  9
$SPLFRAME
 70
     0
  9
$SPLINETYPE
 70
     6
  9
$SPLINESEGS
 70
     8
  9
$HANDSEED
  5
418
  9
$SURFTAB1
 70
     6
  9
$SURFTAB2
 70
     6
  9
$SURFTYPE
 70
     6
  9
$SURFU
 70
     6
  9
$SURFV
 70
     6
  9
$UCSBASE
  2

  9
$UCSNAME
  2

  9
$UCSORG
 10
0.0
 20
0.0
 30
0.0
  9
$UCSXDIR
 10
1.0
 20
0.0
 30
0.0
  9
$UCSYDIR
 10
0.0
 20
1.0
 30
0.0
  9
$UCSORTHOREF
  2

  9
$UCSORTHOVIEW
 70
     0
  9
$UCSORGTOP
 10
0.0
 20
0.0
 30
0.0
  9
$UCSORGBOTTOM
 10
0.0
 20
0.0
 30
0.0
  9
$UCSORGLEFT
 10
0.0
 20
0.0
 30
0.0
  9
$UCSORGRIGHT
 10
0.0
 20
0.0
 30
0.0
  9
$UCSORGFRONT
 10
0.0
 20
0.0
 30
0.0
  9
$UCSORGBACK
 10
0.0
 20
0.0
 30
0.0
  9
$PUCSBASE
  2

  9
$PUCSNAME
  2

  9
$PUCSORG
 10
0.0
 20
0.0
 30
0.0
  9
$PUCSXDIR
 10
1.0
 20
0.0
 30
0.0
  9
$PUCSYDIR
 10
0.0
 20
1.0
 30
0.0
  9
$PUCSORTHOREF
  2

  9
$PUCSORTHOVIEW
 70
     0
  9
$PUCSORGTOP
 10
0.0
 20
0.0
 30
0.0
  9
$PUCSORGBOTTOM
 10
0.0
 20
0.0
 30
0.0
  9
$PUCSORGLEFT
 10
0.0
 20
0.0
 30
0.0
  9
$PUCSORGRIGHT
 10
0.0
 20
0.0
 30
0.0
  9
$PUCSORGFRONT
 10
0.0
 20
0.0
 30
0.0
  9
$PUCSORGBACK
 10
0.0
 20
0.0
 30
0.0
  9
$USERI1
 70
     0
  9
$USERI2
 70
     0
  9
$USERI3
 70
     0
  9
$USERI4
 70
     0
  9
$USERI5
 70
     0
  9
$USERR1
 40
0.0
  9
$USERR2
 40
0.0
  9
$USERR3
 40
0.0
  9
$USERR4
 40
0.0
  9
$USERR5
 40
0.0
  9
$WORLDVIEW
 70
     1
  9
$SHADEDGE
 70
     3
  9
$SHADEDIF
 70
    70
  9
$TILEMODE
 70
     1
  9
$MAXACTVP
 70
    64
  9
$PINSBASE
 10
0.0
 20
0.0
 30
0.0
  9
$PLIMCHECK
 70
     0
  9
$PEXTMIN
 10
0.0
 20
0.0
 30
0.0
  9
$PEXTMAX
 10
0.0
 20
0.0
 30
0.0
  9
$PLIMMIN
 10
0.0
 20
0.0
  9
$PLIMMAX
 10
12.0
 20
9.0
  9
$UNITMODE
 70
     0
  9
$VISRETAIN
 70
     1
  9
$PLINEGEN
 70
     0
  9
$PSLTSCALE
 70
     1
  9
$TREEDEPTH
 70
  3020
  9
$CMLSTYLE
  2
Standard
  9
$CMLJUST
 70
     0
  9
$CMLSCALE
 40
20.0
  9
$PROXYGRAPHICS
 70
     1
  9
$MEASUREMENT
 70
     1
  9
$CELWEIGHT
370
    -1
  9
$ENDCAPS
280
     0
  9
$JOINSTYLE
280
     0
  9
$LWDISPLAY
290
     0
  9
$INSUNITS
 70
     4
  9
$HYPERLINKBASE
  1

  9
$STYLESHEET
  1

  9
$XEDIT
290
     1
  9
$CEPSNTYPE
380
     0
  9
$PSTYLEMODE
290
     1
  9
$FINGERPRINTGUID
  2
{DE3AB679-1115-4859-8089-EDD3454E3139}
  9
$VERSIONGUID
  2
{00AB8126-50A4-43F2-BD06-932CCEB897CB}
  9
$EXTNAMES
290
     1
  9
$PSVPSCALE
 40
0.0
  9
$OLESTARTUP
290
     0
  0
ENDSEC
  0
SECTION
  2
CLASSES
  0
CLASS
  1
ACDBDICTIONARYWDFLT
  2
AcDbDictionaryWithDefault
  3
ObjectDBX Classes
 90
        0
280
     0
281
     0
  0
CLASS
  1
ACDBPLACEHOLDER
  2
AcDbPlaceHolder
  3
ObjectDBX Classes
 90
        0
280
     0
281
     0
  0
CLASS
  1
LAYOUT
  2
AcDbLayout
  3
ObjectDBX Classes
 90
        0
280
     0
281
     0
  0
CLASS
  1
DICTIONARYVAR
  2
AcDbDictionaryVar
  3
ObjectDBX Classes
 90
        0
280
     0
281
     0
  0
CLASS
  1
TABLESTYLE
  2
AcDbTableStyle
  3
ObjectDBX Classes
 90
     4095
280
     0
281
     0
  0
CLASS
  1
MATERIAL
  2
AcDbMaterial
  3
ObjectDBX Classes
 90
     1153
280
     0
281
     0
  0
CLASS
  1
VISUALSTYLE
  2
AcDbVisualStyle
  3
ObjectDBX Classes
 90
     4095
280
     0
281
     0
  0
CLASS
  1
SCALE
  2
AcDbScale
  3
ObjectDBX Classes
 90
     1153
280
     0
281
     0
  0
CLASS
  1
MLEADERSTYLE
  2
AcDbMLeaderStyle
  3
ACDB_MLEADERSTYLE_CLASS
 90
     4095
280
     0
281
     0
  0
CLASS
  1
CELLSTYLEMAP
  2
AcDbCellStyleMap
  3
ObjectDBX Classes
 90
     1152
280
     0
281
     0
  0
ENDSEC
  0
SECTION
  2
TABLES
  0
TABLE
  2
VPORT
  5
8
330
0
100
AcDbSymbolTable
 70
     1
  0
VPORT
  5
EA
330
8
100
AcDbSymbolTableRecord
100
AcDbViewportTableRecord
  2
*Active
 70
     0
 10
0.0
 20
0.0
 11
1.0
 21
1.0
 12
2228.330265411896
 22
860.7489343172469
 13
0.0
 23
0.0
 14
10.0
 24
10.0
 15
10.0
 25
10.0
 16
0.0
 26
0.0
 36
1.0
 17
0.0
 27
0.0
 37
0.0
 40
134.595168815463
 41
1.903110047846889
 42
50.0
 43
0.0
 44
0.0
 50
0.0
 51
0.0
 71
     0
 72
  1000
 73
     1
 74
     3
 75
     0
 76
     0
 77
     0
 78
     0
281
     0
 65
     1
110
0.0
120
0.0
130
0.0
111
1.0
121
0.0
131
0.0
112
0.0
122
1.0
132
0.0
 79
     0
146
0.0
  0
ENDTAB
  0
TABLE
  2
LTYPE
  5
5
330
0
100
AcDbSymbolTable
 70
     1
  0
LTYPE
  5
14
330
5
100
AcDbSymbolTableRecord
100
AcDbLinetypeTableRecord
  2
ByBlock
 70
     0
  3

 72
    65
 73
     0
 40
0.0
  0
LTYPE
  5
15
330
5
100
AcDbSymbolTableRecord
100
AcDbLinetypeTableRecord
  2
ByLayer
 70
     0
  3

 72
    65
 73
     0
 40
0.0
  0
LTYPE
  5
16
330
5
100
AcDbSymbolTableRecord
100
AcDbLinetypeTableRecord
  2
Continuous
 70
     0
  3
Solid line
 72
    65
 73
     0
 40
0.0
  0
ENDTAB
  0
TABLE
  2
LAYER
  5
2
330
0
100
AcDbSymbolTable
 70
     1
  0
LAYER
  5
10
102
{ACAD_XDICTIONARY
360
13C
102
}
330
2
100
AcDbSymbolTableRecord
100
AcDbLayerTableRecord
  2
0
 70
     0
 62
     7
  6
Continuous
370
    -3
390
F
  0
ENDTAB
  0
TABLE
  2
STYLE
  5
3
330
0
100
AcDbSymbolTable
 70
     2
  0
STYLE
  5
11
330
3
100
AcDbSymbolTableRecord
100
AcDbTextStyleTableRecord
  2
Standard
 70
     0
 40
0.0
 41
1.0
 50
0.0
 71
     0
 42
2.5
  3
txt
  4

  0
STYLE
  5
132
330
3
100
AcDbSymbolTableRecord
100
AcDbTextStyleTableRecord
  2
Annotative
 70
     0
 40
0.0
 41
1.0
 50
0.0
 71
     0
 42
2.5
  3
txt.shx
  4

1001
AcadAnnotative
1000
AnnotativeData
1002
{
1070
     1
1070
     1
1002
}
  0
ENDTAB
  0
TABLE
  2
VIEW
  5
6
330
0
100
AcDbSymbolTable
 70
     0
  0
ENDTAB
  0
TABLE
  2
UCS
  5
7
330
0
100
AcDbSymbolTable
 70
     0
  0
ENDTAB
  0
TABLE
  2
APPID
  5
9
330
0
100
AcDbSymbolTable
 70
     7
  0
APPID
  5
12
330
9
100
AcDbSymbolTableRecord
100
AcDbRegAppTableRecord
  2
ACAD
 70
     0
  0
APPID
  5
9E
330
9
100
AcDbSymbolTableRecord
100
AcDbRegAppTableRecord
  2
ACAD_PSEXT
 70
     0
  0
APPID
  5
133
330
9
100
AcDbSymbolTableRecord
100
AcDbRegAppTableRecord
  2
AcadAnnoPO
 70
     0
  0
APPID
  5
134
330
9
100
AcDbSymbolTableRecord
100
AcDbRegAppTableRecord
  2
AcadAnnotative
 70
     0
  0
APPID
  5
135
330
9
100
AcDbSymbolTableRecord
100
AcDbRegAppTableRecord
  2
ACAD_DSTYLE_DIMJAG
 70
     0
  0
APPID
  5
136
330
9
100
AcDbSymbolTableRecord
100
AcDbRegAppTableRecord
  2
ACAD_DSTYLE_DIMTALN
 70
     0
  0
APPID
  5
165
330
9
100
AcDbSymbolTableRecord
100
AcDbRegAppTableRecord
  2
ACAD_MLEADERVER
 70
     0
  0
ENDTAB
  0
TABLE
  2
DIMSTYLE
  5
A
330
0
100
AcDbSymbolTable
 70
     2
100
AcDbDimStyleTable
 71
     2
340
27
340
137
  0
DIMSTYLE
105
27
330
A
100
AcDbSymbolTableRecord
100
AcDbDimStyleTableRecord
  2
ISO-25
 70
     0
 41
2.5
 42
0.625
 43
3.75
 44
1.25
 73
     0
 74
     0
 77
     1
 78
     8
140
2.5
141
2.5
143
0.03937007874016
147
0.625
171
     3
172
     1
271
     2
272
     2
274
     3
278
    44
283
     0
284
     8
340
11
  0
DIMSTYLE
105
137
330
A
100
AcDbSymbolTableRecord
100
AcDbDimStyleTableRecord
  2
Annotative
 70
     0
 40
0.0
 41
2.5
 42
0.625
 43
3.75
 44
1.25
 73
     0
 74
     0
 77
     1
 78
     8
140
2.5
141
2.5
143
0.03937007874016
147
0.625
171
     3
172
     1
271
     2
272
     2
274
     3
278
    44
283
     0
284
     8
340
11
1001
AcadAnnotative
1000
AnnotativeData
1002
{
1070
     1
1070
     1
1002
}
1001
ACAD_DSTYLE_DIMJAG
1070
   388
1040
1.5
1001
ACAD_DSTYLE_DIMTALN
1070
   392
1070
     0
  0
ENDTAB
  0
TABLE
  2
BLOCK_RECORD
  5
1
330
0
100
AcDbSymbolTable
 70
     5
  0
BLOCK_RECORD
  5
1F
330
1
100
AcDbSymbolTableRecord
100
AcDbBlockTableRecord
  2
*Model_Space
340
22
  0
BLOCK_RECORD
  5
D2
330
1
100
AcDbSymbolTableRecord
100
AcDbBlockTableRecord
  2
*Paper_Space
340
D3
  0
BLOCK_RECORD
  5
D6
330
1
100
AcDbSymbolTableRecord
100
AcDbBlockTableRecord
  2
*Paper_Space0
340
D7
  0
BLOCK_RECORD
  5
32F
330
1
100
AcDbSymbolTableRecord
100
AcDbBlockTableRecord
  2
1
340
0
310
2800000020000000200000000100080000000000000400000000000000000000000000000000000000000000000080000080000000808000800000008000800080800000C0C0C000C0DCC000F0CAA6000020400000206000002080000020A0000020C0000020E00000400000004020000040400000406000004080000040A0
310
000040C0000040E00000600000006020000060400000606000006080000060A0000060C0000060E00000800000008020000080400000806000008080000080A0000080C0000080E00000A0000000A0200000A0400000A0600000A0800000A0A00000A0C00000A0E00000C0000000C0200000C0400000C0600000C0800000C0
310
A00000C0C00000C0E00000E0000000E0200000E0400000E0600000E0800000E0A00000E0C00000E0E00040000000400020004000400040006000400080004000A0004000C0004000E00040200000402020004020400040206000402080004020A0004020C0004020E000404000004040200040404000404060004040800040
310
40A0004040C0004040E00040600000406020004060400040606000406080004060A0004060C0004060E00040800000408020004080400040806000408080004080A0004080C0004080E00040A0000040A0200040A0400040A0600040A0800040A0A00040A0C00040A0E00040C0000040C0200040C0400040C0600040C08000
310
40C0A00040C0C00040C0E00040E0000040E0200040E0400040E0600040E0800040E0A00040E0C00040E0E00080000000800020008000400080006000800080008000A0008000C0008000E00080200000802020008020400080206000802080008020A0008020C0008020E00080400000804020008040400080406000804080
310
008040A0008040C0008040E00080600000806020008060400080606000806080008060A0008060C0008060E00080800000808020008080400080806000808080008080A0008080C0008080E00080A0000080A0200080A0400080A0600080A0800080A0A00080A0C00080A0E00080C0000080C0200080C0400080C0600080C0
310
800080C0A00080C0C00080C0E00080E0000080E0200080E0400080E0600080E0800080E0A00080E0C00080E0E000C0000000C0002000C0004000C0006000C0008000C000A000C000C000C000E000C0200000C0202000C0204000C0206000C0208000C020A000C020C000C020E000C0400000C0402000C0404000C0406000C0
310
408000C040A000C040C000C040E000C0600000C0602000C0604000C0606000C0608000C060A000C060C000C060E000C0800000C0802000C0804000C0806000C0808000C080A000C080C000C080E000C0A00000C0A02000C0A04000C0A06000C0A08000C0A0A000C0A0C000C0A0E000C0C00000C0C02000C0C04000C0C06000
310
C0C08000C0C0A000F0FBFF00A4A0A000808080000000FF0000FF000000FFFF00FF000000FF00FF00FFFF0000FFFFFF0000000000000000000000000000000000000000000000000000000000000000000000000000000000000000000000000000000000000000000000000000000000000000000000000000000000000000
310
0000000000000000000000000000000000000000000000000000000000000000000000000000000000000000000000000000000000FFFFFFFFFFFFFFFF0000000000000000FFFFFFFFFFFFFFFF0000000000000000FF000000000000FF0000000000000000FF000000000000FF0000000000000000FF000000000000FF0000
310
000000000000FF000000000000FF0000000000000000FF000000000000FF0000000000000000FF000000000000FF0000000000000000FF000000000000FF0000000000000000FF000000000000FF0000000000000000FF000000000000FF0000000000000000FF000000000000FF0000000000000000FF000000000000FF00
310
00000000000000FF000000000000FF0000000000000000FF000000000000FF0000000000000000FF000000000000FF0000000000000000FF000000000000FF0000000000000000FF000000000000FF0000000000000000FF000000000000FF0000000000000000FF000000000000FF0000000000000000FF000000000000FF
310
0000000000000000FF000000000000FF0000000000000000FF000000000000FF0000000000000000FF000000000000FF0000000000FFFFFFFFFFFFFFFFFFFFFFFFFFFFFFFFFFFFFFFFFFFFFFFFFFFFFFFFFFFF0000FF0000FF000000000000FF0000000000000000FF000000000000FF0000FF0000FF0000FF000000000000
310
FF0000000000000000FF000000000000FF0000FF0000FF0000FF000000000000FF0000000000000000FF000000000000FF0000FF0000FFFFFFFFFFFFFFFFFFFFFFFFFFFFFFFFFFFFFFFFFFFFFFFFFFFFFFFFFFFF0000000000FFFFFFFFFFFFFFFF0000000000000000FFFFFFFFFFFFFFFF0000000000000000FF0000000000
310
00FF0000000000000000FF000000000000FF0000000000000000FF000000000000FF0000000000000000FF000000000000FF0000000000000000FF000000000000FF0000000000000000FF000000000000FF0000000000000000FF000000000000FF0000000000000000FF000000000000FF0000000000000000FF00000000
310
0000FF0000000000000000FF000000000000FF0000000000000000FFFFFFFFFFFFFFFF0000000000000000FFFFFFFFFFFFFFFF00000000000000000000000000000000000000000000000000000000000000000000000000000000000000000000000000000000000000000000000000000000000000000000000000000000
310
0000000000000000000000000000000000000000000000000000000000000000000000000000000000000000000000000000000000000000
102
{BLKREFS
331
366
102
}
1001
ACAD
1000
DesignCenter Data
1002
{
1070
     1
1070
     4
1002
}
  0
BLOCK_RECORD
  5
367
330
1
100
AcDbSymbolTableRecord
100
AcDbBlockTableRecord
  2
2
340
0
310
2800000020000000200000000100080000000000000400000000000000000000000000000000000000000000000080000080000000808000800000008000800080800000C0C0C000C0DCC000F0CAA6000020400000206000002080000020A0000020C0000020E00000400000004020000040400000406000004080000040A0
310
000040C0000040E00000600000006020000060400000606000006080000060A0000060C0000060E00000800000008020000080400000806000008080000080A0000080C0000080E00000A0000000A0200000A0400000A0600000A0800000A0A00000A0C00000A0E00000C0000000C0200000C0400000C0600000C0800000C0
310
A00000C0C00000C0E00000E0000000E0200000E0400000E0600000E0800000E0A00000E0C00000E0E00040000000400020004000400040006000400080004000A0004000C0004000E00040200000402020004020400040206000402080004020A0004020C0004020E000404000004040200040404000404060004040800040
310
40A0004040C0004040E00040600000406020004060400040606000406080004060A0004060C0004060E00040800000408020004080400040806000408080004080A0004080C0004080E00040A0000040A0200040A0400040A0600040A0800040A0A00040A0C00040A0E00040C0000040C0200040C0400040C0600040C08000
310
40C0A00040C0C00040C0E00040E0000040E0200040E0400040E0600040E0800040E0A00040E0C00040E0E00080000000800020008000400080006000800080008000A0008000C0008000E00080200000802020008020400080206000802080008020A0008020C0008020E00080400000804020008040400080406000804080
310
008040A0008040C0008040E00080600000806020008060400080606000806080008060A0008060C0008060E00080800000808020008080400080806000808080008080A0008080C0008080E00080A0000080A0200080A0400080A0600080A0800080A0A00080A0C00080A0E00080C0000080C0200080C0400080C0600080C0
310
800080C0A00080C0C00080C0E00080E0000080E0200080E0400080E0600080E0800080E0A00080E0C00080E0E000C0000000C0002000C0004000C0006000C0008000C000A000C000C000C000E000C0200000C0202000C0204000C0206000C0208000C020A000C020C000C020E000C0400000C0402000C0404000C0406000C0
310
408000C040A000C040C000C040E000C0600000C0602000C0604000C0606000C0608000C060A000C060C000C060E000C0800000C0802000C0804000C0806000C0808000C080A000C080C000C080E000C0A00000C0A02000C0A04000C0A06000C0A08000C0A0A000C0A0C000C0A0E000C0C00000C0C02000C0C04000C0C06000
310
C0C08000C0C0A000F0FBFF00A4A0A000808080000000FF0000FF000000FFFF00FF000000FF00FF00FFFF0000FFFFFF000000000000000000000000000000000000000000000000000000000000000000000000000000000000000000FFFFFFFFFFFFFFFF000000000000000000000000000000000000000000000000FFFFFF
310
FFFFFFFFFF000000000000000000000000000000000000000000000000FF000000000000FF000000000000000000000000000000000000000000000000FF000000000000FF000000000000000000000000000000000000000000000000FF000000000000FF000000000000000000000000000000000000000000000000FF00
310
0000000000FF000000000000000000000000000000000000000000000000FF000000000000FF000000000000000000000000000000000000000000000000FF000000000000FF000000000000000000000000000000000000000000000000FF000000000000FF000000000000000000000000000000000000000000000000FF
310
000000000000FF000000000000000000000000000000000000000000000000FF000000000000FF000000000000000000000000000000000000000000000000FF000000000000FF000000000000000000000000000000000000000000000000FF000000000000FF000000000000000000000000000000000000000000000000
310
FF000000000000FF000000000000000000000000000000000000000000000000FF000000000000FF0000000000000000000000000000000000000000000000FFFFFFFFFFFFFFFFFFFF00000000000000000000000000000000000000000000FF0000000000000000FF00000000000000000000000000000000000000000000
310
FF0000000000000000FF00000000000000000000000000000000000000000000FF0000000000000000FF00000000000000000000000000000000000000000000FF0000000000000000FF00000000000000000000000000000000000000000000FFFFFFFFFFFFFFFFFFFF000000000000000000000000000000000000000000
310
00FFFFFFFFFFFFFFFFFFFF00000000000000000000000000000000000000000000FFA4A4A4A4A4A4A4A4FF00000000000000000000000000000000000000000000FF0000000000000000FF00000000000000000000000000000000000000000000FF0000000000000000FF0000000000000000000000000000000000000000
310
0000FF0000000000000000FF00000000000000000000000000000000000000000000FF0000000000000000FF00000000000000000000000000000000000000000000FF0000000000000000FF00000000000000000000000000000000000000000000FF0000000000000000FF00000000000000000000000000000000000000
310
000000FFFFFFFFFFFFFFFFFFFF00000000000000000000000000000000000000000000000000000000000000000000000000000000000000
102
{BLKREFS
331
38A
102
}
1001
ACAD
1000
DesignCenter Data
1002
{
1070
     1
1070
     4
1002
}
  0
BLOCK_RECORD
  5
38B
330
1
100
AcDbSymbolTableRecord
100
AcDbBlockTableRecord
  2
3
340
0
310
2800000020000000200000000100080000000000000400000000000000000000000000000000000000000000000080000080000000808000800000008000800080800000C0C0C000C0DCC000F0CAA6000020400000206000002080000020A0000020C0000020E00000400000004020000040400000406000004080000040A0
310
000040C0000040E00000600000006020000060400000606000006080000060A0000060C0000060E00000800000008020000080400000806000008080000080A0000080C0000080E00000A0000000A0200000A0400000A0600000A0800000A0A00000A0C00000A0E00000C0000000C0200000C0400000C0600000C0800000C0
310
A00000C0C00000C0E00000E0000000E0200000E0400000E0600000E0800000E0A00000E0C00000E0E00040000000400020004000400040006000400080004000A0004000C0004000E00040200000402020004020400040206000402080004020A0004020C0004020E000404000004040200040404000404060004040800040
310
40A0004040C0004040E00040600000406020004060400040606000406080004060A0004060C0004060E00040800000408020004080400040806000408080004080A0004080C0004080E00040A0000040A0200040A0400040A0600040A0800040A0A00040A0C00040A0E00040C0000040C0200040C0400040C0600040C08000
310
40C0A00040C0C00040C0E00040E0000040E0200040E0400040E0600040E0800040E0A00040E0C00040E0E00080000000800020008000400080006000800080008000A0008000C0008000E00080200000802020008020400080206000802080008020A0008020C0008020E00080400000804020008040400080406000804080
310
008040A0008040C0008040E00080600000806020008060400080606000806080008060A0008060C0008060E00080800000808020008080400080806000808080008080A0008080C0008080E00080A0000080A0200080A0400080A0600080A0800080A0A00080A0C00080A0E00080C0000080C0200080C0400080C0600080C0
310
800080C0A00080C0C00080C0E00080E0000080E0200080E0400080E0600080E0800080E0A00080E0C00080E0E000C0000000C0002000C0004000C0006000C0008000C000A000C000C000C000E000C0200000C0202000C0204000C0206000C0208000C020A000C020C000C020E000C0400000C0402000C0404000C0406000C0
310
408000C040A000C040C000C040E000C0600000C0602000C0604000C0606000C0608000C060A000C060C000C060E000C0800000C0802000C0804000C0806000C0808000C080A000C080C000C080E000C0A00000C0A02000C0A04000C0A06000C0A08000C0A0A000C0A0C000C0A0E000C0C00000C0C02000C0C04000C0C06000
310
C0C08000C0C0A000F0FBFF00A4A0A000808080000000FF0000FF000000FFFF00FF000000FF00FF00FFFF0000FFFFFF0000000000000000000000000000000000000000000000000000000000000000000000000000000000000000000000000000000000000000000000000000000000000000000000000000000000000000
310
00000000000000000000000000000000000000000000000000000000000000000000000000000000000000000000000000000000000000000000000000000000000000000000000000000000000000000000000000000000000000000000000000000000000000000000000000000000000000000000000000000000000000
310
00000000000000000000000000000000000000000000000000000000000000000000000000000000000000000000000000000000000000000000000000000000000000000000000000000000000000000000000000000000000000000000000000000000000000000000000000000000000000000000000000000000000000
310
00000000000000000000000000000000000000000000000000000000000000000000000000000000000000000000000000000000FFFFFFFFFFFFFFFFFFFFFFFFFFFFFFFFFFFFFFFFFFFFFFFFFFFFFFFFFFFF0000FF000000FFFFFFFF00FF00000000000000000000FFFFFFFF00FF000000FF0000FF000000FFFFFFFFFFFF00
310
000000000000000000FFFFFFFFFFFF000000FF0000FF000000FFFFFFFFFFFFFF000000000000000000FFFFFFFFFFFFFF0000FF0000FF000000FFFFFFFFFFFFFF000000000000000000FFFFFFFFFFFFFF0000FF0000FF000000FFFFFFFFFFFF00000000000000000000FFFFFFFFFFFF000000FF0000FF000000FFFFFFFF00FF
310
00000000000000000000FFFFFFFF00FF000000FF0000FFFFFFFFFFFFFFFFFFFFFFFFFFFFFFFFFFFFFFFFFFFFFFFFFFFFFFFFFFFF000000000000000000000000000000000000000000000000000000000000000000000000000000000000000000000000000000000000000000000000000000000000000000000000000000
310
00000000000000000000000000000000000000000000000000000000000000000000000000000000000000000000000000000000000000000000000000000000000000000000000000000000000000000000000000000000000000000000000000000000000000000000000000000000000000000000000000000000000000
310
00000000000000000000000000000000000000000000000000000000000000000000000000000000000000000000000000000000000000000000000000000000000000000000000000000000000000000000000000000000000000000000000000000000000000000000000000000000000000000000000000000000000000
310
0000000000000000000000000000000000000000000000000000000000000000000000000000000000000000000000000000000000000000
102
{BLKREFS
331
3BC
102
}
1001
ACAD
1000
DesignCenter Data
1002
{
1070
     1
1070
     4
1002
}
  0
BLOCK_RECORD
  5
3BD
330
1
100
AcDbSymbolTableRecord
100
AcDbBlockTableRecord
  2
4
340
0
310
2800000020000000200000000100080000000000000400000000000000000000000000000000000000000000000080000080000000808000800000008000800080800000C0C0C000C0DCC000F0CAA6000020400000206000002080000020A0000020C0000020E00000400000004020000040400000406000004080000040A0
310
000040C0000040E00000600000006020000060400000606000006080000060A0000060C0000060E00000800000008020000080400000806000008080000080A0000080C0000080E00000A0000000A0200000A0400000A0600000A0800000A0A00000A0C00000A0E00000C0000000C0200000C0400000C0600000C0800000C0
310
A00000C0C00000C0E00000E0000000E0200000E0400000E0600000E0800000E0A00000E0C00000E0E00040000000400020004000400040006000400080004000A0004000C0004000E00040200000402020004020400040206000402080004020A0004020C0004020E000404000004040200040404000404060004040800040
310
40A0004040C0004040E00040600000406020004060400040606000406080004060A0004060C0004060E00040800000408020004080400040806000408080004080A0004080C0004080E00040A0000040A0200040A0400040A0600040A0800040A0A00040A0C00040A0E00040C0000040C0200040C0400040C0600040C08000
310
40C0A00040C0C00040C0E00040E0000040E0200040E0400040E0600040E0800040E0A00040E0C00040E0E00080000000800020008000400080006000800080008000A0008000C0008000E00080200000802020008020400080206000802080008020A0008020C0008020E00080400000804020008040400080406000804080
310
008040A0008040C0008040E00080600000806020008060400080606000806080008060A0008060C0008060E00080800000808020008080400080806000808080008080A0008080C0008080E00080A0000080A0200080A0400080A0600080A0800080A0A00080A0C00080A0E00080C0000080C0200080C0400080C0600080C0
310
800080C0A00080C0C00080C0E00080E0000080E0200080E0400080E0600080E0800080E0A00080E0C00080E0E000C0000000C0002000C0004000C0006000C0008000C000A000C000C000C000E000C0200000C0202000C0204000C0206000C0208000C020A000C020C000C020E000C0400000C0402000C0404000C0406000C0
310
408000C040A000C040C000C040E000C0600000C0602000C0604000C0606000C0608000C060A000C060C000C060E000C0800000C0802000C0804000C0806000C0808000C080A000C080C000C080E000C0A00000C0A02000C0A04000C0A06000C0A08000C0A0A000C0A0C000C0A0E000C0C00000C0C02000C0C04000C0C06000
310
C0C08000C0C0A000F0FBFF00A4A0A000808080000000FF0000FF000000FFFF00FF000000FF00FF00FFFF0000FFFFFF0000000000000000000000000000000000000000000000000000000000000000000000000000000000000000000000000000000000000000000000000000000000000000000000000000000000000000
310
000000FFFFFFFFFFFFFF00000000000000000000000000000000000000000000000000FF0000000000FF00000000000000000000000000000000000000000000000000FF0000000000FF00000000000000000000000000000000000000000000000000FF0000000000FF000000000000000000000000000000000000000000
310
00000000FF0000000000FF0000000000000000000000000000FFFFFFFFFFFF0000000000FF0000000000FF00000000000000000000000000FFFFFFFF0000FFFF00000000FF0000000000FF00000000000000000000000000FF000000000000FF00000000FF0000000000FF00000000000000000000000000FF000000000000
310
FF00000000FF00000000FFFF00000000000000000000000000FF000000000000FF00000000FF0000FFFFFF00FFFF0000000000000000000000FF000000000000FF00000000FFFFFF00FFFF000000FFFF000000000000000000FF000000000000FF0000FFFF00000000FFFF00000000FF000000000000000000FF0000000000
310
00FFFFFFFF0000000000FF00FFFF0000FF000000000000000000FF0000000000FFFF0000FF000000FFFFFFFFFF00FFFFFF000000000000000000FF0000FFFFFF00000000FF00FFFFFFFFFFFFFF000000FF000000000000000000FFFFFF00FF0000000000FFFFFFFF00000000FFFFFFFF0000000000000000FFFF00000000FF
310
000000FFFF0000FF000000000000FF000000000000000000FFFF0000000000FF00FFFF00000000FF000000000000FF000000000000000000FF00FF000000FFFFFF000000000000FF000000000000FF000000000000000000FF00FF00FFFFFFFFFFFFFF000000FFFFFFFFFFFFFFFFFF000000000000000000FF00FFFFFFFF00
310
0000FFFF00FFFF00FFFFFF0000FFFFFF000000000000000000FFFF00FF000000000000FFFF000000FFFFFF0000FFFFFF00000000000000000000FFFFFF000000000000FF0000000000FFFFFFFFFFFF00000000000000000000000000FF000000000000FF000000000000000000000000000000000000000000000000FF00FF
310
FFFFFFFFFF000000000000000000000000000000000000000000000000FFFFFFFFFFFFFFFF000000000000000000000000000000000000000000000000FFFF00000000FFFF00000000000000000000000000000000000000000000000000FFFFFFFFFFFFFF0000000000000000000000000000000000000000000000000000
310
00FFFFFF00000000000000000000000000000000000000000000000000000000000000000000000000000000000000000000000000000000
102
{BLKREFS
331
3FD
102
}
1001
ACAD
1000
DesignCenter Data
1002
{
1070
     1
1070
     4
1002
}
  0
ENDTAB
  0
ENDSEC
  0
SECTION
  2
BLOCKS
  0
BLOCK
  5
20
330
1F
100
AcDbEntity
  8
0
100
AcDbBlockBegin
  2
*Model_Space
 70
     0
 10
0.0
 20
0.0
 30
0.0
  3
*Model_Space
  1

  0
ENDBLK
  5
21
330
1F
100
AcDbEntity
  8
0
100
AcDbBlockEnd
  0
BLOCK
  5
D4
330
D2
100
AcDbEntity
 67
     1
  8
0
100
AcDbBlockBegin
  2
*Paper_Space
 70
     0
 10
0.0
 20
0.0
 30
0.0
  3
*Paper_Space
  1

  0
ENDBLK
  5
D5
330
D2
100
AcDbEntity
 67
     1
  8
0
100
AcDbBlockEnd
  0
BLOCK
  5
D8
330
D6
100
AcDbEntity
 67
     1
  8
0
100
AcDbBlockBegin
  2
*Paper_Space0
 70
     0
 10
0.0
 20
0.0
 30
0.0
  3
*Paper_Space0
  1

  0
ENDBLK
  5
D9
330
D6
100
AcDbEntity
 67
     1
  8
0
100
AcDbBlockEnd
  0
BLOCK
  5
330
330
32F
100
AcDbEntity
  8
0
100
AcDbBlockBegin
  2
1
 70
     0
 10
0.0
 20
0.0
 30
0.0
  3
1
  1

  0
ARC
  5
332
330
32F
100
AcDbEntity
  8
0
  6
Continuous
 62
     7
370
    15
100
AcDbCircle
 10
2185.285134519728
 20
868.3440907351286
 30
0.0
 40
0.200000000000017
100
AcDbArc
 50
180.0
 51
270.0
  0
ARC
  5
333
330
32F
100
AcDbEntity
  8
0
  6
Continuous
 62
     7
370
    15
100
AcDbCircle
 10
2191.735134519728
 20
868.3440907351286
 30
0.0
 40
0.1999999999999886
100
AcDbArc
 50
270.0
 51
0.0
  0
ARC
  5
334
330
32F
100
AcDbEntity
  8
0
  6
Continuous
 62
     7
370
    15
100
AcDbCircle
 10
2200.28513451973
 20
868.3440907351286
 30
0.0
 40
0.200000000000017
100
AcDbArc
 50
180.0
 51
270.0
  0
ARC
  5
335
330
32F
100
AcDbEntity
  8
0
  6
Continuous
 62
     7
370
    15
100
AcDbCircle
 10
2206.73513451973
 20
868.3440907351286
 30
0.0
 40
0.1999999999999886
100
AcDbArc
 50
270.0
 51
0.0
  0
LINE
  5
336
330
32F
100
AcDbEntity
  8
0
  6
Continuous
 62
     7
370
    15
100
AcDbLine
 10
2191.935134519728
 20
868.3440907351286
 30
0.0
 11
2191.935134519728
 21
873.5440907351287
 31
0.0
  0
LINE
  5
337
330
32F
100
AcDbEntity
  8
0
  6
Continuous
 62
     7
370
    15
100
AcDbLine
 10
2185.085134519728
 20
873.5440907351287
 30
0.0
 11
2185.085134519728
 21
868.3440907351286
 31
0.0
  0
LINE
  5
338
330
32F
100
AcDbEntity
  8
0
  6
Continuous
 62
     7
370
    15
100
AcDbLine
 10
2206.93513451973
 20
868.3440907351286
 30
0.0
 11
2206.93513451973
 21
873.5440907351287
 31
0.0
  0
LINE
  5
339
330
32F
100
AcDbEntity
  8
0
  6
Continuous
 62
     7
370
    15
100
AcDbLine
 10
2200.08513451973
 20
873.5440907351287
 30
0.0
 11
2200.08513451973
 21
868.3440907351286
 31
0.0
  0
LINE
  5
33A
330
32F
100
AcDbEntity
  8
0
  6
Continuous
 62
     7
370
    15
100
AcDbLine
 10
2191.508456913188
 20
863.2440907351648
 30
0.0
 11
2191.40845691315
 21
863.3440907351461
 31
0.0
  0
LINE
  5
33B
330
32F
100
AcDbEntity
  8
0
  6
Continuous
 62
     7
370
    15
100
AcDbLine
 10
2185.608456913127
 20
863.3440907351461
 30
0.0
 11
2185.50845691309
 21
863.2440907351648
 31
0.0
  0
LINE
  5
33C
330
32F
100
AcDbEntity
  8
0
  6
Continuous
 62
     7
370
    15
100
AcDbLine
 10
2191.508456913139
 20
852.5440907351287
 30
0.0
 11
2191.508456913139
 21
863.2440907351648
 31
0.0
  0
LINE
  5
33D
330
32F
100
AcDbEntity
  8
0
  6
Continuous
 62
     7
370
    15
100
AcDbLine
 10
2185.508456913138
 20
863.2440907351648
 30
0.0
 11
2185.508456913138
 21
852.5440907351287
 31
0.0
  0
LINE
  5
33E
330
32F
100
AcDbEntity
  8
0
  6
Continuous
 62
     7
370
    15
100
AcDbLine
 10
2206.511812126368
 20
863.2440907351648
 30
0.0
 11
2206.411812126329
 21
863.3440907351461
 31
0.0
  0
LINE
  5
33F
330
32F
100
AcDbEntity
  8
0
  6
Continuous
 62
     7
370
    15
100
AcDbLine
 10
2200.611812126307
 20
863.3440907351461
 30
0.0
 11
2200.511812126269
 21
863.2440907351648
 31
0.0
  0
LINE
  5
340
330
32F
100
AcDbEntity
  8
0
  6
Continuous
 62
     7
370
    15
100
AcDbLine
 10
2206.511812126318
 20
852.5440907351287
 30
0.0
 11
2206.511812126318
 21
863.2440907351648
 31
0.0
  0
LINE
  5
341
330
32F
100
AcDbEntity
  8
0
  6
Continuous
 62
     7
370
    15
100
AcDbLine
 10
2200.511812126319
 20
863.2440907351648
 30
0.0
 11
2200.511812126319
 21
852.5440907351287
 31
0.0
  0
LINE
  5
342
330
32F
100
AcDbEntity
  8
0
  6
Continuous
 62
     7
370
    15
100
AcDbLine
 10
2185.508456913153
 20
852.5440907351287
 30
0.0
 11
2185.708456913109
 21
852.3440907351725
 31
0.0
  0
LINE
  5
343
330
32F
100
AcDbEntity
  8
0
  6
Continuous
 62
     7
370
    15
100
AcDbLine
 10
2191.308456913168
 20
852.3440907351725
 30
0.0
 11
2191.508456913124
 21
852.5440907351287
 31
0.0
  0
LINE
  5
344
330
32F
100
AcDbEntity
  8
0
  6
Continuous
 62
     7
370
    15
100
AcDbLine
 10
2191.510134519728
 20
867.2440907351287
 30
0.0
 11
2191.510134519728
 21
868.1440907351285
 31
0.0
  0
LINE
  5
345
330
32F
100
AcDbEntity
  8
0
  6
Continuous
 62
     7
370
    15
100
AcDbLine
 10
2185.510134519728
 20
868.1440907351285
 30
0.0
 11
2185.510134519728
 21
867.2440907351287
 31
0.0
  0
LINE
  5
346
330
32F
100
AcDbEntity
  8
0
  6
Continuous
 62
     7
370
    15
100
AcDbLine
 10
2206.51013451973
 20
867.2440907351287
 30
0.0
 11
2206.51013451973
 21
868.1440907351285
 31
0.0
  0
LINE
  5
347
330
32F
100
AcDbEntity
  8
0
  6
Continuous
 62
     7
370
    15
100
AcDbLine
 10
2200.510134519729
 20
868.1440907351285
 30
0.0
 11
2200.510134519729
 21
867.2440907351287
 31
0.0
  0
LINE
  5
348
330
32F
100
AcDbEntity
  8
0
  6
Continuous
 62
     7
370
    15
100
AcDbLine
 10
2200.511812126332
 20
852.5440907351287
 30
0.0
 11
2200.711812126289
 21
852.3440907351725
 31
0.0
  0
LINE
  5
349
330
32F
100
AcDbEntity
  8
0
  6
Continuous
 62
     7
370
    15
100
AcDbLine
 10
2206.311812126348
 20
852.3440907351725
 30
0.0
 11
2206.511812126304
 21
852.5440907351287
 31
0.0
  0
LINE
  5
34A
330
32F
100
AcDbEntity
  8
0
  6
Continuous
 62
     7
370
    15
100
AcDbLine
 10
2192.01013451973
 20
863.3440907351287
 30
0.0
 11
2192.01013451973
 21
867.2440907351287
 31
0.0
  0
LINE
  5
34B
330
32F
100
AcDbEntity
  8
0
  6
Continuous
 62
     7
370
    15
100
AcDbLine
 10
2185.010134519726
 20
867.2440907351287
 30
0.0
 11
2185.010134519728
 21
863.3440907351287
 31
0.0
  0
LINE
  5
34C
330
32F
100
AcDbEntity
  8
0
  6
Continuous
 62
     7
370
    15
100
AcDbLine
 10
2185.010134519726
 20
867.2440907351287
 30
0.0
 11
2192.01013451973
 21
867.2440907351287
 31
0.0
  0
LINE
  5
34D
330
32F
100
AcDbEntity
  8
0
  6
Continuous
 62
     7
370
    15
100
AcDbLine
 10
2185.010134519728
 20
863.3440907351287
 30
0.0
 11
2192.01013451973
 21
863.3440907351287
 31
0.0
  0
LINE
  5
34E
330
32F
100
AcDbEntity
  8
0
  6
Continuous
 62
     7
370
    15
100
AcDbLine
 10
2200.010134519728
 20
863.3440907351287
 30
0.0
 11
2200.010134519728
 21
867.2440907351287
 31
0.0
  0
LINE
  5
34F
330
32F
100
AcDbEntity
  8
0
  6
Continuous
 62
     7
370
    15
100
AcDbLine
 10
2207.010134519731
 20
867.2440907351287
 30
0.0
 11
2207.010134519729
 21
863.3440907351287
 31
0.0
  0
LINE
  5
350
330
32F
100
AcDbEntity
  8
0
  6
Continuous
 62
     7
370
    15
100
AcDbLine
 10
2207.010134519731
 20
867.2440907351287
 30
0.0
 11
2200.010134519728
 21
867.2440907351287
 31
0.0
  0
LINE
  5
351
330
32F
100
AcDbEntity
  8
0
  6
Continuous
 62
     7
370
    15
100
AcDbLine
 10
2207.010134519729
 20
863.3440907351287
 30
0.0
 11
2200.010134519728
 21
863.3440907351287
 31
0.0
  0
SPLINE
  5
352
330
32F
100
AcDbEntity
  8
0
  6
Continuous
 62
     7
370
    15
100
AcDbSpline
210
0.0
220
0.0
230
1.0
 70
    24
 71
     3
 72
    10
 73
     6
 74
     0
 42
0.0000000001
 43
0.0000000001
 40
0.0
 40
0.0
 40
0.0
 40
0.0
 40
0.5
 40
0.5
 40
1.0
 40
1.0
 40
1.0
 40
1.0
 10
2185.285134519728
 20
868.1440907351285
 30
0.0
 10
2185.285134519728
 20
868.1440907351285
 30
0.0
 10
2186.730208612726
 20
868.1440907351285
 30
0.0
 10
2190.29006042673
 20
868.1440907351285
 30
0.0
 10
2191.735134519728
 20
868.1440907351285
 30
0.0
 10
2191.735134519728
 20
868.1440907351285
 30
0.0
  0
SPLINE
  5
353
330
32F
100
AcDbEntity
  8
0
  6
Continuous
 62
     7
370
    15
100
AcDbSpline
210
0.0
220
0.0
230
1.0
 70
    24
 71
     3
 72
    30
 73
    26
 74
     0
 42
0.0000000001
 43
0.0000000001
 40
0.0
 40
0.0
 40
0.0
 40
0.0
 40
0.0172934937130203
 40
0.0344596655377185
 40
0.0515480950579254
 40
0.068609039634892
 40
0.0856929991960945
 40
0.1028502704464566
 40
0.1201305099490629
 40
0.1850828601801404
 40
0.2500881522292469
 40
0.3150405262905461
 40
0.3800458421887532
 40
0.4400038891296366
 40
0.5000143502049812
 40
0.55997241137046
 40
0.6199828837922907
 40
0.6849352340234343
 40
0.7499405260724737
 40
0.8148929001337954
 40
0.8798982160319786
 40
0.910029097664276
 40
0.9399097371916235
 40
0.9698101950927375
 40
1.0
 40
1.0
 40
1.0
 40
1.0
 10
2206.73513451973
 20
868.1440907351285
 30
0.0
 10
2206.734235454707
 20
868.1440907351285
 30
0.0
 10
2206.732443943952
 20
868.1440907351285
 30
0.0
 10
2206.718042496413
 20
868.1440907351285
 30
0.0
 10
2206.695037607
 20
868.1440907351285
 30
0.0
 10
2206.662605562428
 20
868.1440907351285
 30
0.0
 10
2206.620970664499
 20
868.1440907351285
 30
0.0
 10
2206.570059852723
 20
868.1440907351285
 30
0.0
 10
2206.454928569826
 20
868.1440907351285
 30
0.0
 10
2206.225608607034
 20
868.1440907351285
 30
0.0
 10
2205.806112302832
 20
868.1440907351285
 30
0.0
 10
2205.293897720721
 20
868.1440907351285
 30
0.0
 10
2204.720465010284
 20
868.1440907351285
 30
0.0
 10
2204.118273565248
 20
868.1440907351285
 30
0.0
 10
2203.510310916813
 20
868.1440907351285
 30
0.0
 10
2202.902175079633
 20
868.1440907351285
 30
0.0
 10
2202.300133856887
 20
868.1440907351285
 30
0.0
 10
2201.726525358342
 20
868.1440907351285
 30
0.0
 10
2201.214422644933
 20
868.1440907351285
 30
0.0
 10
2200.794707228235
 20
868.1440907351285
 30
0.0
 10
2200.545535330378
 20
868.1440907351285
 30
0.0
 10
2200.408123321591
 20
868.1440907351285
 30
0.0
 10
2200.33741235927
 20
868.1440907351285
 30
0.0
 10
2200.29325740892
 20
868.1440907351285
 30
0.0
 10
2200.287850827395
 20
868.1440907351285
 30
0.0
 10
2200.28513451973
 20
868.1440907351285
 30
0.0
  0
LINE
  5
354
330
32F
100
AcDbEntity
  8
0
  6
Continuous
 62
     7
370
    15
100
AcDbLine
 10
2191.935134519728
 20
873.5440907351287
 30
0.0
 11
2185.085134519728
 21
873.5440907351287
 31
0.0
  0
LINE
  5
355
330
32F
100
AcDbEntity
  8
0
  6
Continuous
 62
     7
370
    15
100
AcDbLine
 10
2200.08513451973
 20
873.5440907351287
 30
0.0
 11
2206.93513451973
 21
873.5440907351287
 31
0.0
  0
LINE
  5
356
330
32F
100
AcDbEntity
  8
0
  6
Continuous
 62
     7
370
    15
100
AcDbLine
 10
2182.810134519728
 20
867.2440907351287
 30
0.0
 11
2182.810134519728
 21
863.3440907351287
 31
0.0
  0
LINE
  5
357
330
32F
100
AcDbEntity
  8
0
  6
Continuous
 62
     7
370
    15
100
AcDbLine
 10
2182.810134519728
 20
867.2440907351287
 30
0.0
 11
2185.010134519726
 21
867.2440907351287
 31
0.0
  0
LINE
  5
358
330
32F
100
AcDbEntity
  8
0
  6
Continuous
 62
     7
370
    15
100
AcDbLine
 10
2185.010134519728
 20
863.3440907351287
 30
0.0
 11
2182.810134519728
 21
863.3440907351287
 31
0.0
  0
LINE
  5
359
330
32F
100
AcDbEntity
  8
0
  6
Continuous
 62
     7
370
    15
100
AcDbLine
 10
2209.210134519729
 20
867.2440907351287
 30
0.0
 11
2209.210134519729
 21
863.3440907351287
 31
0.0
  0
LINE
  5
35A
330
32F
100
AcDbEntity
  8
0
  6
Continuous
 62
     7
370
    15
100
AcDbLine
 10
2209.210134519729
 20
867.2440907351287
 30
0.0
 11
2207.010134519731
 21
867.2440907351287
 31
0.0
  0
LINE
  5
35B
330
32F
100
AcDbEntity
  8
0
  6
Continuous
 62
     7
370
    15
100
AcDbLine
 10
2207.010134519729
 20
863.3440907351287
 30
0.0
 11
2209.210134519729
 21
863.3440907351287
 31
0.0
  0
LINE
  5
35C
330
32F
100
AcDbEntity
  8
0
  6
Continuous
 62
     7
370
    15
100
AcDbLine
 10
2192.01013451973
 20
867.2440907351287
 30
0.0
 11
2200.010134519728
 21
867.2440907351287
 31
0.0
  0
LINE
  5
35D
330
32F
100
AcDbEntity
  8
0
  6
Continuous
 62
     7
370
    15
100
AcDbLine
 10
2200.010134519728
 20
863.3440907351287
 30
0.0
 11
2192.01013451973
 21
863.3440907351287
 31
0.0
  0
LINE
  5
35E
330
32F
100
AcDbEntity
  8
0
  6
Continuous
 62
     7
370
    15
100
AcDbLine
 10
2185.50845691309
 20
863.2440907351648
 30
0.0
 11
2191.508456913188
 21
863.2440907351648
 31
0.0
  0
LINE
  5
35F
330
32F
100
AcDbEntity
  8
0
  6
Continuous
 62
     7
370
    15
100
AcDbLine
 10
2185.508456913138
 20
852.5440907351287
 30
0.0
 11
2191.508456913139
 21
852.5440907351287
 31
0.0
  0
LINE
  5
360
330
32F
100
AcDbEntity
  8
0
  6
Continuous
 62
     7
370
    15
100
AcDbLine
 10
2206.511812126368
 20
863.2440907351648
 30
0.0
 11
2200.511812126269
 21
863.2440907351648
 31
0.0
  0
LINE
  5
361
330
32F
100
AcDbEntity
  8
0
  6
Continuous
 62
     7
370
    15
100
AcDbLine
 10
2206.511812126318
 20
852.5440907351287
 30
0.0
 11
2200.511812126319
 21
852.5440907351287
 31
0.0
  0
LINE
  5
362
330
32F
100
AcDbEntity
  8
0
  6
Continuous
 62
     7
370
    15
100
AcDbLine
 10
2185.708456913109
 20
852.3440907351725
 30
0.0
 11
2191.308456913168
 21
852.3440907351725
 31
0.0
  0
LINE
  5
363
330
32F
100
AcDbEntity
  8
0
  6
Continuous
 62
     7
370
    15
100
AcDbLine
 10
2206.311812126348
 20
852.3440907351725
 30
0.0
 11
2200.711812126289
 21
852.3440907351725
 31
0.0
  0
LINE
  5
364
330
32F
100
AcDbEntity
  8
0
  6
Continuous
 62
     8
370
    15
100
AcDbLine
 10
2191.935134519728
 20
868.3440907351286
 30
0.0
 11
2185.085134519728
 21
868.3440907351286
 31
0.0
  0
LINE
  5
365
330
32F
100
AcDbEntity
  8
0
  6
Continuous
 62
     8
370
    15
100
AcDbLine
 10
2200.08513451973
 20
868.3440907351286
 30
0.0
 11
2206.93513451973
 21
868.3440907351286
 31
0.0
  0
ENDBLK
  5
331
330
32F
100
AcDbEntity
  8
0
100
AcDbBlockEnd
  0
BLOCK
  5
368
330
367
100
AcDbEntity
  8
0
100
AcDbBlockBegin
  2
2
 70
     0
 10
0.0
 20
0.0
 30
0.0
  3
2
  1

  0
LINE
  5
36A
330
367
100
AcDbEntity
  8
0
  6
Continuous
 62
     7
370
    15
100
AcDbLine
 10
2158.225190998134
 20
867.2440907351287
 30
0.0
 11
2158.225190998134
 21
863.3440907351287
 31
0.0
  0
LINE
  5
36B
330
367
100
AcDbEntity
  8
0
  6
Continuous
 62
     7
370
    15
100
AcDbLine
 10
2165.625190998134
 20
863.3440907351287
 30
0.0
 11
2165.625190998134
 21
867.2440907351287
 31
0.0
  0
ARC
  5
36C
330
367
100
AcDbEntity
  8
0
  6
Continuous
 62
     7
370
    15
100
AcDbCircle
 10
2158.700190998134
 20
868.3440907351286
 30
0.0
 40
0.1999999999999886
100
AcDbArc
 50
180.0
 51
270.0
  0
ARC
  5
36D
330
367
100
AcDbEntity
  8
0
  6
Continuous
 62
     7
370
    15
100
AcDbCircle
 10
2165.150190998134
 20
868.3440907351286
 30
0.0
 40
0.1999999999999886
100
AcDbArc
 50
270.0
 51
0.0
  0
LINE
  5
36E
330
367
100
AcDbEntity
  8
0
  6
Continuous
 62
     7
370
    15
100
AcDbLine
 10
2165.350190998134
 20
868.3440907351286
 30
0.0
 11
2165.350190998134
 21
873.5440907351287
 31
0.0
  0
LINE
  5
36F
330
367
100
AcDbEntity
  8
0
  6
Continuous
 62
     7
370
    15
100
AcDbLine
 10
2158.500190998134
 20
873.5440907351287
 30
0.0
 11
2158.500190998134
 21
868.3440907351286
 31
0.0
  0
LINE
  5
370
330
367
100
AcDbEntity
  8
0
  6
Continuous
 62
     7
370
    15
100
AcDbLine
 10
2164.925190998183
 20
863.2440907351648
 30
0.0
 11
2164.825190998145
 21
863.3440907351461
 31
0.0
  0
LINE
  5
371
330
367
100
AcDbEntity
  8
0
  6
Continuous
 62
     7
370
    15
100
AcDbLine
 10
2159.025190998123
 20
863.3440907351461
 30
0.0
 11
2158.925190998085
 21
863.2440907351648
 31
0.0
  0
LINE
  5
372
330
367
100
AcDbEntity
  8
0
  6
Continuous
 62
     7
370
    15
100
AcDbLine
 10
2164.925190998134
 20
852.5440907351287
 30
0.0
 11
2164.925190998134
 21
863.2440907351648
 31
0.0
  0
LINE
  5
373
330
367
100
AcDbEntity
  8
0
  6
Continuous
 62
     7
370
    15
100
AcDbLine
 10
2158.925190998134
 20
863.2440907351648
 30
0.0
 11
2158.925190998134
 21
852.5440907351287
 31
0.0
  0
LINE
  5
374
330
367
100
AcDbEntity
  8
0
  6
Continuous
 62
     7
370
    15
100
AcDbLine
 10
2158.925190998148
 20
852.5440907351287
 30
0.0
 11
2159.125190998104
 21
852.3440907351725
 31
0.0
  0
LINE
  5
375
330
367
100
AcDbEntity
  8
0
  6
Continuous
 62
     7
370
    15
100
AcDbLine
 10
2164.725190998164
 20
852.3440907351725
 30
0.0
 11
2164.92519099812
 21
852.5440907351287
 31
0.0
  0
LINE
  5
376
330
367
100
AcDbEntity
  8
0
  6
Continuous
 62
     7
370
    15
100
AcDbLine
 10
2164.925190998134
 20
867.2440907351287
 30
0.0
 11
2164.925190998134
 21
868.1440907351285
 31
0.0
  0
LINE
  5
377
330
367
100
AcDbEntity
  8
0
  6
Continuous
 62
     7
370
    15
100
AcDbLine
 10
2158.925190998134
 20
868.1440907351285
 30
0.0
 11
2158.925190998134
 21
867.2440907351287
 31
0.0
  0
LINE
  5
378
330
367
100
AcDbEntity
  8
0
  6
Continuous
 62
     7
370
    15
100
AcDbLine
 10
2165.275190998134
 20
867.2440907351287
 30
0.0
 11
2165.275190998134
 21
863.3440907351287
 31
0.0
  0
LINE
  5
379
330
367
100
AcDbEntity
  8
0
  6
Continuous
 62
     7
370
    15
100
AcDbLine
 10
2158.575190998134
 20
867.2440907351287
 30
0.0
 11
2158.575190998134
 21
863.3440907351287
 31
0.0
  0
LINE
  5
37A
330
367
100
AcDbEntity
  8
0
  6
Continuous
 62
     7
370
    15
100
AcDbLine
 10
2158.575190998134
 20
863.3440907351287
 30
0.0
 11
2165.275190998134
 21
863.3440907351287
 31
0.0
  0
LINE
  5
37B
330
367
100
AcDbEntity
  8
0
  6
Continuous
 62
     7
370
    15
100
AcDbLine
 10
2165.275190998134
 20
867.2440907351287
 30
0.0
 11
2158.575190998134
 21
867.2440907351287
 31
0.0
  0
LINE
  5
37C
330
367
100
AcDbEntity
  8
0
  6
Continuous
 62
     7
370
    15
100
AcDbLine
 10
2158.575190998134
 20
863.3440907351287
 30
0.0
 11
2158.225190998134
 21
863.3440907351287
 31
0.0
  0
LINE
  5
37D
330
367
100
AcDbEntity
  8
0
  6
Continuous
 62
     7
370
    15
100
AcDbLine
 10
2158.575190998134
 20
867.2440907351287
 30
0.0
 11
2158.225190998134
 21
867.2440907351287
 31
0.0
  0
LINE
  5
37E
330
367
100
AcDbEntity
  8
0
  6
Continuous
 62
     7
370
    15
100
AcDbLine
 10
2165.625190998134
 20
863.3440907351287
 30
0.0
 11
2165.275190998134
 21
863.3440907351287
 31
0.0
  0
LINE
  5
37F
330
367
100
AcDbEntity
  8
0
  6
Continuous
 62
     7
370
    15
100
AcDbLine
 10
2165.625190998134
 20
867.2440907351287
 30
0.0
 11
2165.275190998134
 21
867.2440907351287
 31
0.0
  0
SPLINE
  5
380
330
367
100
AcDbEntity
  8
0
  6
Continuous
 62
     7
370
    15
100
AcDbSpline
210
0.0
220
0.0
230
1.0
 70
    24
 71
     3
 72
    22
 73
    18
 74
     0
 42
0.0000000001
 43
0.0000000001
 40
0.0
 40
0.0
 40
0.0
 40
0.0
 40
0.0345767369425583
 40
0.0688989055767921
 40
0.1030656356827384
 40
0.1371774121935307
 40
0.1713352050309756
 40
0.2056395777922318
 40
0.2401898141702153
 40
0.3700560150090883
 40
0.500028068103476
 40
0.6298943165886674
 40
0.7598664173671198
 40
0.8201306883705274
 40
0.8798809851167725
 40
0.9396575701707881
 40
1.0
 40
1.0
 40
1.0
 40
1.0
 10
2161.925190998134
 20
868.1440907351285
 30
0.0
 10
2161.866851798218
 20
868.1440907351285
 30
0.0
 10
2161.750602915823
 20
868.1440907351285
 30
0.0
 10
2161.577198091155
 20
868.1440907351285
 30
0.0
 10
2161.4055747541
 20
868.1440907351285
 30
0.0
 10
2161.235736021896
 20
868.1440907351285
 30
0.0
 10
2161.067691090125
 20
868.1440907351285
 30
0.0
 10
2160.901426484706
 20
868.1440907351285
 30
0.0
 10
2160.586504076848
 20
868.1440907351285
 30
0.0
 10
2160.1414504331
 20
868.1440907351285
 30
0.0
 10
2159.629514769727
 20
868.1440907351285
 30
0.0
 10
2159.209752443226
 20
868.1440907351285
 30
0.0
 10
2158.960581654314
 20
868.1440907351285
 30
0.0
 10
2158.823147671355
 20
868.1440907351285
 30
0.0
 10
2158.752420647874
 20
868.1440907351285
 30
0.0
 10
2158.708273097467
 20
868.1440907351285
 30
0.0
 10
2158.702893478504
 20
868.1440907351285
 30
0.0
 10
2158.700190998134
 20
868.1440907351285
 30
0.0
  0
SPLINE
  5
381
330
367
100
AcDbEntity
  8
0
  6
Continuous
 62
     7
370
    15
100
AcDbSpline
210
0.0
220
0.0
230
1.0
 70
    24
 71
     3
 72
    22
 73
    18
 74
     0
 42
0.0000000001
 43
0.0000000001
 40
0.0
 40
0.0
 40
0.0
 40
0.0
 40
0.0345391614887348
 40
0.0688357986754418
 40
0.1029895277956236
 40
0.1371012171073349
 40
0.171272107159667
 40
0.205602914761938
 40
0.2401929598423597
 40
0.3700588287086898
 40
0.500030549559769
 40
0.6298964660721067
 40
0.7598682346073098
 40
0.8201119842015362
 40
0.8798553991925299
 40
0.9396384390827632
 40
1.0
 40
1.0
 40
1.0
 40
1.0
 10
2165.150190998134
 20
868.1440907351285
 30
0.0
 10
2165.149318101601
 20
868.1440907351285
 30
0.0
 10
2165.147578437771
 20
868.1440907351285
 30
0.0
 10
2165.133223139308
 20
868.1440907351285
 30
0.0
 10
2165.110241761682
 20
868.1440907351285
 30
0.0
 10
2165.077807577643
 20
868.1440907351285
 30
0.0
 10
2165.036146316081
 20
868.1440907351285
 30
0.0
 10
2164.985183193667
 20
868.1440907351285
 30
0.0
 10
2164.870007771474
 20
868.1440907351285
 30
0.0
 10
2164.640675717315
 20
868.1440907351285
 30
0.0
 10
2164.221140751048
 20
868.1440907351285
 30
0.0
 10
2163.709055626381
 20
868.1440907351285
 30
0.0
 10
2163.225289530179
 20
868.1440907351285
 30
0.0
 10
2162.826094126968
 20
868.1440907351285
 30
0.0
 10
2162.530763757653
 20
868.1440907351285
 30
0.0
 10
2162.229830145947
 20
868.1440907351285
 30
0.0
 10
2162.027062836207
 20
868.1440907351285
 30
0.0
 10
2161.925190998134
 20
868.1440907351285
 30
0.0
  0
LINE
  5
382
330
367
100
AcDbEntity
  8
0
  6
Continuous
 62
     7
370
    15
100
AcDbLine
 10
2161.925190998134
 20
873.5440907351287
 30
0.0
 11
2165.350190998134
 21
873.5440907351287
 31
0.0
  0
LINE
  5
383
330
367
100
AcDbEntity
  8
0
  6
Continuous
 62
     7
370
    15
100
AcDbLine
 10
2158.500190998134
 20
873.5440907351287
 30
0.0
 11
2161.925190998134
 21
873.5440907351287
 31
0.0
  0
LINE
  5
384
330
367
100
AcDbEntity
  8
0
  6
Continuous
 62
     7
370
    15
100
AcDbLine
 10
2161.925190998134
 20
863.2440907351648
 30
0.0
 11
2158.925190998085
 21
863.2440907351648
 31
0.0
  0
LINE
  5
385
330
367
100
AcDbEntity
  8
0
  6
Continuous
 62
     7
370
    15
100
AcDbLine
 10
2164.925190998183
 20
863.2440907351648
 30
0.0
 11
2161.925190998134
 21
863.2440907351648
 31
0.0
  0
LINE
  5
386
330
367
100
AcDbEntity
  8
0
  6
Continuous
 62
     7
370
    15
100
AcDbLine
 10
2161.925190998134
 20
852.5440907351287
 30
0.0
 11
2158.925190998134
 21
852.5440907351287
 31
0.0
  0
LINE
  5
387
330
367
100
AcDbEntity
  8
0
  6
Continuous
 62
     7
370
    15
100
AcDbLine
 10
2164.925190998134
 20
852.5440907351287
 30
0.0
 11
2161.925190998134
 21
852.5440907351287
 31
0.0
  0
LINE
  5
388
330
367
100
AcDbEntity
  8
0
  6
Continuous
 62
     7
370
    15
100
AcDbLine
 10
2164.725190998164
 20
852.3440907351725
 30
0.0
 11
2159.125190998104
 21
852.3440907351725
 31
0.0
  0
LINE
  5
389
330
367
100
AcDbEntity
  8
0
  6
Continuous
 62
     8
370
    15
100
AcDbLine
 10
2158.500190998134
 20
868.3440907351286
 30
0.0
 11
2165.350190998134
 21
868.3440907351286
 31
0.0
  0
ENDBLK
  5
369
330
367
100
AcDbEntity
  8
0
100
AcDbBlockEnd
  0
BLOCK
  5
38C
330
38B
100
AcDbEntity
  8
0
100
AcDbBlockBegin
  2
3
 70
     0
 10
0.0
 20
0.0
 30
0.0
  3
3
  1

  0
CIRCLE
  5
38E
330
38B
100
AcDbEntity
  8
0
  6
Continuous
 62
     7
370
    15
100
AcDbCircle
 10
2203.51013451973
 20
830.7527551869601
 30
0.0
 40
2.475000000004001
  0
ARC
  5
38F
330
38B
100
AcDbEntity
  8
0
  6
Continuous
 62
     7
370
    15
100
AcDbCircle
 10
2203.51013451973
 20
830.7527551869601
 30
0.0
 40
2.145679479869371
100
AcDbArc
 50
166.5246847195515
 51
193.4753152804485
  0
ARC
  5
390
330
38B
100
AcDbEntity
  8
0
  6
Continuous
 62
     7
370
    15
100
AcDbCircle
 10
2203.51013451973
 20
830.7527551869601
 30
0.0
 40
2.197439522055198
100
AcDbArc
 50
193.1521401048725
 51
346.8478598951275
  0
ARC
  5
391
330
38B
100
AcDbEntity
  8
0
  6
Continuous
 62
     7
370
    15
100
AcDbCircle
 10
2203.51013451973
 20
830.7527551869601
 30
0.0
 40
2.145679479869454
100
AcDbArc
 50
346.5246847195578
 51
13.4753152804485
  0
ARC
  5
392
330
38B
100
AcDbEntity
  8
0
  6
Continuous
 62
     7
370
    15
100
AcDbCircle
 10
2203.51013451973
 20
830.7527551869601
 30
0.0
 40
2.197439522055253
100
AcDbArc
 50
13.1521401048725
 51
166.8478598951211
  0
CIRCLE
  5
393
330
38B
100
AcDbEntity
  8
0
  6
Continuous
 62
     7
370
    15
100
AcDbCircle
 10
2188.510134519728
 20
830.7527551869601
 30
0.0
 40
2.475000000004001
  0
ARC
  5
394
330
38B
100
AcDbEntity
  8
0
  6
Continuous
 62
     7
370
    15
100
AcDbCircle
 10
2188.510134519728
 20
830.7527551869601
 30
0.0
 40
2.197439522055226
100
AcDbArc
 50
13.15214010487884
 51
166.8478598951275
  0
ARC
  5
395
330
38B
100
AcDbEntity
  8
0
  6
Continuous
 62
     7
370
    15
100
AcDbCircle
 10
2188.510134519728
 20
830.7527551869601
 30
0.0
 40
2.145679479869426
100
AcDbArc
 50
166.5246847195515
 51
193.4753152804485
  0
ARC
  5
396
330
38B
100
AcDbEntity
  8
0
  6
Continuous
 62
     7
370
    15
100
AcDbCircle
 10
2188.510134519728
 20
830.7527551869601
 30
0.0
 40
2.197439522055226
100
AcDbArc
 50
193.1521401048788
 51
346.8478598951275
  0
ARC
  5
397
330
38B
100
AcDbEntity
  8
0
  6
Continuous
 62
     7
370
    15
100
AcDbCircle
 10
2188.510134519728
 20
830.7527551869601
 30
0.0
 40
2.145679479869398
100
AcDbArc
 50
346.5246847195578
 51
13.4753152804485
  0
CIRCLE
  5
398
330
38B
100
AcDbEntity
  8
0
  6
Continuous
 62
     7
370
    15
100
AcDbCircle
 10
2188.510134519728
 20
830.7527551869601
 30
0.0
 40
3.425000000000011
  0
CIRCLE
  5
399
330
38B
100
AcDbEntity
  8
0
  6
Continuous
 62
     7
370
    15
100
AcDbCircle
 10
2203.51013451973
 20
830.7527551869601
 30
0.0
 40
3.425000000000011
  0
SPLINE
  5
39A
330
38B
100
AcDbEntity
  8
0
  6
Continuous
 62
     7
370
    15
100
AcDbSpline
210
0.0
220
0.0
230
1.0
 70
     8
 71
     3
 72
    26
 73
    22
 74
     0
 42
0.0000000001
 43
0.0000000001
 40
0.0
 40
0.0
 40
0.0
 40
0.0
 40
0.0230715729476345
 40
0.0460090324973591
 40
0.068896312164315
 40
0.0918178967114755
 40
0.1148578935298947
 40
0.1672666081108498
 40
0.2198734143150281
 40
0.2872072951295931
 40
0.3550347613670426
 40
0.4272288750175976
 40
0.5000425990362788
 40
0.5721736231559394
 40
0.645048746199323
 40
0.7123665728304424
 40
0.7802169049632333
 40
0.8396683342519317
 40
0.8991910480712959
 40
0.9495075749985691
 40
0.9999999999999998
 40
0.9999999999999998
 40
0.9999999999999998
 40
0.9999999999999998
 10
2201.585177624586
 20
831.2527551869601
 30
0.0
 10
2201.595976599012
 20
831.2915266542949
 30
0.0
 10
2201.617511774202
 20
831.3688442132074
 30
0.0
 10
2201.658497830785
 20
831.4819056210817
 30
0.0
 10
2201.705687487745
 20
831.592178475538
 30
0.0
 10
2201.759714390651
 20
831.6994986336705
 30
0.0
 10
2201.845925992856
 20
831.8478984605322
 30
0.0
 10
2201.977015616069
 20
832.0296817288031
 30
0.0
 10
2202.185562047913
 20
832.2473341612848
 30
0.0
 10
2202.447530353565
 20
832.4468340725301
 30
0.0
 10
2202.771663615796
 20
832.6113128552465
 30
0.0
 10
2203.129606645215
 20
832.7178418139389
 30
0.0
 10
2203.508945662942
 20
832.753410773342
 30
0.0
 10
2203.889451696909
 20
832.7180266959086
 30
0.0
 10
2204.246637089986
 20
832.6120318995711
 30
0.0
 10
2204.572173296703
 20
832.4476237492612
 30
0.0
 10
2204.843463817373
 20
832.2406088151941
 30
0.0
 10
2205.068157012277
 20
832.0028171964688
 30
0.0
 10
2205.234033095596
 20
831.7572946997287
 30
0.0
 10
2205.358876094915
 20
831.5057862024035
 30
0.0
 10
2205.409656773067
 20
831.3371969139922
 30
0.0
 10
2205.435091414873
 20
831.2527551869601
 30
0.0
  0
LINE
  5
39B
330
38B
100
AcDbEntity
  8
0
  6
Continuous
 62
     7
370
    15
100
AcDbLine
 10
2205.435091414873
 20
831.2527551869601
 30
0.0
 11
2201.585177624586
 21
831.2527551869601
 31
0.0
  0
SPLINE
  5
39C
330
38B
100
AcDbEntity
  8
0
  6
Continuous
 62
     7
370
    15
100
AcDbSpline
210
0.0
220
0.0
230
1.0
 70
     8
 71
     3
 72
    14
 73
    10
 74
     0
 42
0.0000000001
 43
0.0000000001
 40
0.0
 40
0.0
 40
0.0
 40
0.0
 40
0.25
 40
0.25
 40
0.5
 40
0.5
 40
0.75
 40
0.75
 40
1.0
 40
1.0
 40
1.0
 40
1.0
 10
2186.585177624584
 20
831.2527551869601
 30
0.0
 10
2186.69589686997
 20
831.6790147366187
 30
0.0
 10
2186.945002247103
 20
832.0565097544765
 30
0.0
 10
2187.641733454497
 20
832.5953877040507
 30
0.0
 10
2188.069730211196
 20
832.7415887768212
 30
0.0
 10
2188.95053882826
 20
832.7415887768212
 30
0.0
 10
2189.378535584959
 20
832.5953877040507
 30
0.0
 10
2190.075266792353
 20
832.0565097544765
 30
0.0
 10
2190.324372169486
 20
831.6790147366187
 30
0.0
 10
2190.435091414872
 20
831.2527551869601
 30
0.0
  0
LINE
  5
39D
330
38B
100
AcDbEntity
  8
0
  6
Continuous
 62
     7
370
    15
100
AcDbLine
 10
2186.585177624584
 20
831.2527551869601
 30
0.0
 11
2190.435091414872
 21
831.2527551869601
 31
0.0
  0
SPLINE
  5
39E
330
38B
100
AcDbEntity
  8
0
  6
Continuous
 62
     7
370
    15
100
AcDbSpline
210
0.0
220
0.0
230
1.0
 70
     8
 71
     3
 72
    10
 73
     6
 74
     0
 42
0.0000000001
 43
0.0000000001
 40
0.0
 40
0.0
 40
0.0
 40
0.0
 40
0.5
 40
0.5
 40
1.0
 40
1.0
 40
1.0
 40
1.0
 10
2190.435091414872
 20
830.2527551869602
 30
0.0
 10
2190.324372169486
 20
829.8264956373015
 30
0.0
 10
2190.075266792353
 20
829.4490006194438
 30
0.0
 10
2189.378535584959
 20
828.9101226698694
 30
0.0
 10
2188.95053882826
 20
828.7639215970989
 30
0.0
 10
2188.510134519728
 20
828.7639215970989
 30
0.0
  0
SPLINE
  5
39F
330
38B
100
AcDbEntity
  8
0
  6
Continuous
 62
     7
370
    15
100
AcDbSpline
210
0.0
220
0.0
230
1.0
 70
     8
 71
     3
 72
    10
 73
     6
 74
     0
 42
0.0000000001
 43
0.0000000001
 40
0.0
 40
0.0
 40
0.0
 40
0.0
 40
0.5
 40
0.5
 40
1.0
 40
1.0
 40
1.0
 40
1.0
 10
2188.510134519728
 20
828.7639215970989
 30
0.0
 10
2188.069730211196
 20
828.7639215970989
 30
0.0
 10
2187.641733454497
 20
828.9101226698694
 30
0.0
 10
2186.945002247103
 20
829.4490006194438
 30
0.0
 10
2186.69589686997
 20
829.8264956373015
 30
0.0
 10
2186.585177624584
 20
830.2527551869602
 30
0.0
  0
LINE
  5
3A0
330
38B
100
AcDbEntity
  8
0
  6
Continuous
 62
     7
370
    15
100
AcDbLine
 10
2190.435091414872
 20
830.2527551869602
 30
0.0
 11
2186.585177624584
 21
830.2527551869602
 31
0.0
  0
SPLINE
  5
3A1
330
38B
100
AcDbEntity
  8
0
  6
Continuous
 62
     7
370
    15
100
AcDbSpline
210
0.0
220
0.0
230
1.0
 70
     8
 71
     3
 72
    19
 73
    15
 74
     0
 42
0.0000000001
 43
0.0000000001
 40
0.0
 40
0.0
 40
0.0
 40
0.0
 40
0.0488679617767459
 40
0.0974204996714149
 40
0.1458568154919773
 40
0.194377542516429
 40
0.2431822730058978
 40
0.3715078253163588
 40
0.5000352027282089
 40
0.6283607973257657
 40
0.7568882170903854
 40
0.8379484026938449
 40
0.9186755957281148
 40
1.0
 40
1.0
 40
1.0
 40
1.0
 10
2205.435091414873
 20
830.2527551869602
 30
0.0
 10
2205.423608756383
 20
830.2116914776631
 30
0.0
 10
2205.400717555544
 20
830.1298291095056
 30
0.0
 10
2205.356663874562
 20
830.0103373873543
 30
0.0
 10
2205.305675751684
 20
829.894036959244
 30
0.0
 10
2205.247046486628
 20
829.7811074802247
 30
0.0
 10
2205.145412443668
 20
829.6124594718724
 30
0.0
 10
2204.981726913968
 20
829.400197621087
 30
0.0
 10
2204.732735217286
 20
829.172305338432
 30
0.0
 10
2204.449436242609
 20
828.9884898960867
 30
0.0
 10
2204.176879765364
 20
828.8722242537636
 30
0.0
 10
2203.932288049524
 20
828.8054641448384
 30
0.0
 10
2203.722516621737
 20
828.77039695157
 30
0.0
 10
2203.581102272556
 20
828.7660853451324
 30
0.0
 10
2203.51013451973
 20
828.7639215970989
 30
0.0
  0
SPLINE
  5
3A2
330
38B
100
AcDbEntity
  8
0
  6
Continuous
 62
     7
370
    15
100
AcDbSpline
210
0.0
220
0.0
230
1.0
 70
     8
 71
     3
 72
    19
 73
    15
 74
     0
 42
0.0000000001
 43
0.0000000001
 40
0.0
 40
0.0
 40
0.0
 40
0.0
 40
0.0488679617766764
 40
0.0974204996713111
 40
0.1458568154918728
 40
0.1943775425163587
 40
0.2431822730058942
 40
0.3715078253162693
 40
0.5000352027282091
 40
0.6283607973257638
 40
0.7568882170903847
 40
0.8379484026938241
 40
0.9186755957280945
 40
1.0
 40
1.0
 40
1.0
 40
1.0
 10
2203.51013451973
 20
828.7639215970989
 30
0.0
 10
2203.467502898849
 20
828.7647118934787
 30
0.0
 10
2203.382514827792
 20
828.7662873851795
 30
0.0
 10
2203.255785645299
 20
828.7788855110425
 30
0.0
 10
2203.130401916007
 20
828.7989976636394
 30
0.0
 10
2203.006359857843
 20
828.8273530116214
 30
0.0
 10
2202.817577261891
 20
828.8833240833927
 30
0.0
 10
2202.570981628855
 20
828.9883890142668
 30
0.0
 10
2202.287811296224
 20
829.1720907296323
 30
0.0
 10
2202.038677184129
 20
829.4000789312757
 30
0.0
 10
2201.857624033018
 20
829.6346519249162
 30
0.0
 10
2201.731516855829
 20
829.8546041912434
 30
0.0
 10
2201.644838638884
 20
830.0488222302275
 30
0.0
 10
2201.605113429327
 20
830.1846107269058
 30
0.0
 10
2201.585177624586
 20
830.2527551869602
 30
0.0
  0
LINE
  5
3A3
330
38B
100
AcDbEntity
  8
0
  6
Continuous
 62
     7
370
    15
100
AcDbLine
 10
2201.585177624586
 20
830.2527551869602
 30
0.0
 11
2205.435091414873
 21
830.2527551869602
 31
0.0
  0
ARC
  5
3A4
330
38B
100
AcDbEntity
  8
0
  6
Continuous
 62
     7
370
    15
100
AcDbCircle
 10
2188.510134519728
 20
830.7527551869601
 30
0.0
 40
2.188421798069978
100
AcDbArc
 50
193.2073141036489
 51
346.792685896351
  0
SPLINE
  5
3A5
330
38B
100
AcDbEntity
  8
0
  6
Continuous
 62
     7
370
    15
100
AcDbSpline
210
0.0
220
0.0
230
1.0
 70
    24
 71
     3
 72
    10
 73
     6
 74
     0
 42
0.0000000001
 43
0.0000000001
 40
0.0
 40
0.0
 40
0.0
 40
0.0
 40
0.5
 40
0.5
 40
1.0
 40
1.0
 40
1.0
 40
1.0
 10
2186.585177624584
 20
830.2527551869602
 30
0.0
 10
2186.533711040993
 20
830.2527551869602
 30
0.0
 10
2186.483311799025
 20
830.2527551869602
 30
0.0
 10
2186.407261800733
 20
830.2527551869602
 30
0.0
 10
2186.382990354095
 20
830.2527551869602
 30
0.0
 10
2186.379597036775
 20
830.2527551869602
 30
0.0
  0
SPLINE
  5
3A6
330
38B
100
AcDbEntity
  8
0
  6
Continuous
 62
     7
370
    15
100
AcDbSpline
210
0.0
220
0.0
230
1.0
 70
    24
 71
     3
 72
    10
 73
     6
 74
     0
 42
0.0000000001
 43
0.0000000001
 40
0.0
 40
0.0
 40
0.0
 40
0.0
 40
0.5
 40
0.5
 40
1.0
 40
1.0
 40
1.0
 40
1.0
 10
2190.640672002681
 20
830.2527551869602
 30
0.0
 10
2190.637281264395
 20
830.2527551869602
 30
0.0
 10
2190.61290522862
 20
830.2527551869602
 30
0.0
 10
2190.537242650966
 20
830.2527551869602
 30
0.0
 10
2190.486523641793
 20
830.2527551869602
 30
0.0
 10
2190.435091414872
 20
830.2527551869602
 30
0.0
  0
ARC
  5
3A7
330
38B
100
AcDbEntity
  8
0
  6
Continuous
 62
     7
370
    15
100
AcDbCircle
 10
2203.51013451973
 20
830.7527551869601
 30
0.0
 40
2.188421798070006
100
AcDbArc
 50
193.2073141036489
 51
346.792685896351
  0
SPLINE
  5
3A8
330
38B
100
AcDbEntity
  8
0
  6
Continuous
 62
     7
370
    15
100
AcDbSpline
210
0.0
220
0.0
230
1.0
 70
    24
 71
     3
 72
    10
 73
     6
 74
     0
 42
0.0000000001
 43
0.0000000001
 40
0.0
 40
0.0
 40
0.0
 40
0.0
 40
0.5
 40
0.5
 40
1.0
 40
1.0
 40
1.0
 40
1.0
 10
2201.379597036776
 20
830.2527551869602
 30
0.0
 10
2201.382987775062
 20
830.2527551869602
 30
0.0
 10
2201.407363810837
 20
830.2527551869602
 30
0.0
 10
2201.483026388491
 20
830.2527551869602
 30
0.0
 10
2201.533745397664
 20
830.2527551869602
 30
0.0
 10
2201.585177624586
 20
830.2527551869602
 30
0.0
  0
SPLINE
  5
3A9
330
38B
100
AcDbEntity
  8
0
  6
Continuous
 62
     7
370
    15
100
AcDbSpline
210
0.0
220
0.0
230
1.0
 70
    24
 71
     3
 72
    10
 73
     6
 74
     0
 42
0.0000000001
 43
0.0000000001
 40
0.0
 40
0.0
 40
0.0
 40
0.0
 40
0.5
 40
0.5
 40
1.0
 40
1.0
 40
1.0
 40
1.0
 10
2205.435091414873
 20
830.2527551869602
 30
0.0
 10
2205.486557998465
 20
830.2527551869602
 30
0.0
 10
2205.536957240433
 20
830.2527551869602
 30
0.0
 10
2205.613007238725
 20
830.2527551869602
 30
0.0
 10
2205.637278685363
 20
830.2527551869602
 30
0.0
 10
2205.640672002683
 20
830.2527551869602
 30
0.0
  0
ARC
  5
3AA
330
38B
100
AcDbEntity
  8
0
  6
Continuous
 62
     7
370
    15
100
AcDbCircle
 10
2188.510134519728
 20
830.7527551869601
 30
0.0
 40
2.188421798069978
100
AcDbArc
 50
13.20731410364895
 51
166.792685896351
  0
SPLINE
  5
3AB
330
38B
100
AcDbEntity
  8
0
  6
Continuous
 62
     7
370
    15
100
AcDbSpline
210
0.0
220
0.0
230
1.0
 70
    24
 71
     3
 72
    10
 73
     6
 74
     0
 42
0.0000000001
 43
0.0000000001
 40
0.0
 40
0.0
 40
0.0
 40
0.0
 40
0.5
 40
0.5
 40
1.0
 40
1.0
 40
1.0
 40
1.0
 10
2186.379597036775
 20
831.2527551869601
 30
0.0
 10
2186.38298777506
 20
831.2527551869601
 30
0.0
 10
2186.407363810835
 20
831.2527551869601
 30
0.0
 10
2186.48302638849
 20
831.2527551869601
 30
0.0
 10
2186.533745397662
 20
831.2527551869601
 30
0.0
 10
2186.585177624584
 20
831.2527551869601
 30
0.0
  0
SPLINE
  5
3AC
330
38B
100
AcDbEntity
  8
0
  6
Continuous
 62
     7
370
    15
100
AcDbSpline
210
0.0
220
0.0
230
1.0
 70
    24
 71
     3
 72
    10
 73
     6
 74
     0
 42
0.0000000001
 43
0.0000000001
 40
0.0
 40
0.0
 40
0.0
 40
0.0
 40
0.5
 40
0.5
 40
1.0
 40
1.0
 40
1.0
 40
1.0
 10
2190.435091414872
 20
831.2527551869601
 30
0.0
 10
2190.486557998463
 20
831.2527551869601
 30
0.0
 10
2190.536957240431
 20
831.2527551869601
 30
0.0
 10
2190.613007238723
 20
831.2527551869601
 30
0.0
 10
2190.637278685361
 20
831.2527551869601
 30
0.0
 10
2190.640672002681
 20
831.2527551869601
 30
0.0
  0
ARC
  5
3AD
330
38B
100
AcDbEntity
  8
0
  6
Continuous
 62
     7
370
    15
100
AcDbCircle
 10
2203.51013451973
 20
830.7527551869601
 30
0.0
 40
2.188421798070006
100
AcDbArc
 50
13.20731410364895
 51
166.792685896351
  0
SPLINE
  5
3AE
330
38B
100
AcDbEntity
  8
0
  6
Continuous
 62
     7
370
    15
100
AcDbSpline
210
0.0
220
0.0
230
1.0
 70
    24
 71
     3
 72
    10
 73
     6
 74
     0
 42
0.0000000001
 43
0.0000000001
 40
0.0
 40
0.0
 40
0.0
 40
0.0
 40
0.5
 40
0.5
 40
1.0
 40
1.0
 40
1.0
 40
1.0
 10
2201.585177624586
 20
831.2527551869601
 30
0.0
 10
2201.533711040994
 20
831.2527551869601
 30
0.0
 10
2201.483311799027
 20
831.2527551869601
 30
0.0
 10
2201.407261800734
 20
831.2527551869601
 30
0.0
 10
2201.382990354096
 20
831.2527551869601
 30
0.0
 10
2201.379597036776
 20
831.2527551869601
 30
0.0
  0
SPLINE
  5
3AF
330
38B
100
AcDbEntity
  8
0
  6
Continuous
 62
     7
370
    15
100
AcDbSpline
210
0.0
220
0.0
230
1.0
 70
    24
 71
     3
 72
    10
 73
     6
 74
     0
 42
0.0000000001
 43
0.0000000001
 40
0.0
 40
0.0
 40
0.0
 40
0.0
 40
0.5
 40
0.5
 40
1.0
 40
1.0
 40
1.0
 40
1.0
 10
2205.640672002683
 20
831.2527551869601
 30
0.0
 10
2205.637281264397
 20
831.2527551869601
 30
0.0
 10
2205.612905228622
 20
831.2527551869601
 30
0.0
 10
2205.537242650967
 20
831.2527551869601
 30
0.0
 10
2205.486523641795
 20
831.2527551869601
 30
0.0
 10
2205.435091414873
 20
831.2527551869601
 30
0.0
  0
LINE
  5
3B0
330
38B
100
AcDbEntity
  8
0
  6
Continuous
 62
     7
370
    15
100
AcDbLine
 10
2182.810134519728
 20
827.4027551869602
 30
0.0
 11
2185.010134519726
 21
827.4027551869602
 31
0.0
  0
LINE
  5
3B1
330
38B
100
AcDbEntity
  8
0
  6
Continuous
 62
     7
370
    15
100
AcDbLine
 10
2185.010134519728
 20
834.1027551869601
 30
0.0
 11
2182.810134519728
 21
834.1027551869601
 31
0.0
  0
LINE
  5
3B2
330
38B
100
AcDbEntity
  8
0
  6
Continuous
 62
     7
370
    15
100
AcDbLine
 10
2192.01013451973
 20
827.4027551869602
 30
0.0
 11
2200.010134519728
 21
827.4027551869602
 31
0.0
  0
LINE
  5
3B3
330
38B
100
AcDbEntity
  8
0
  6
Continuous
 62
     7
370
    15
100
AcDbLine
 10
2182.810134519728
 20
834.1027551869601
 30
0.0
 11
2182.810134519728
 21
827.4027551869602
 31
0.0
  0
ARC
  5
3B4
330
38B
100
AcDbEntity
  8
0
  6
Continuous
 62
     7
370
    15
100
AcDbCircle
 10
2188.510134519728
 20
844.727755186965
 30
0.0
 40
17.67500000000501
100
AcDbArc
 50
258.5788137250069
 51
281.4211862749931
  0
ARC
  5
3B5
330
38B
100
AcDbEntity
  8
0
  6
Continuous
 62
     7
370
    15
100
AcDbCircle
 10
2188.510134519728
 20
816.7777551869553
 30
0.0
 40
17.67500000000479
100
AcDbArc
 50
78.57881372500691
 51
101.4211862749931
  0
LINE
  5
3B6
330
38B
100
AcDbEntity
  8
0
  6
Continuous
 62
     7
370
    15
100
AcDbLine
 10
2207.010134519729
 20
834.1027551869601
 30
0.0
 11
2209.210134519729
 21
834.1027551869601
 31
0.0
  0
LINE
  5
3B7
330
38B
100
AcDbEntity
  8
0
  6
Continuous
 62
     7
370
    15
100
AcDbLine
 10
2209.210134519729
 20
827.4027551869602
 30
0.0
 11
2207.010134519731
 21
827.4027551869602
 31
0.0
  0
LINE
  5
3B8
330
38B
100
AcDbEntity
  8
0
  6
Continuous
 62
     7
370
    15
100
AcDbLine
 10
2200.010134519729
 20
834.1027551869601
 30
0.0
 11
2192.010134519728
 21
834.1027551869601
 31
0.0
  0
LINE
  5
3B9
330
38B
100
AcDbEntity
  8
0
  6
Continuous
 62
     7
370
    15
100
AcDbLine
 10
2209.210134519729
 20
834.1027551869601
 30
0.0
 11
2209.210134519729
 21
827.4027551869602
 31
0.0
  0
ARC
  5
3BA
330
38B
100
AcDbEntity
  8
0
  6
Continuous
 62
     7
370
    15
100
AcDbCircle
 10
2203.51013451973
 20
844.727755186965
 30
0.0
 40
17.67500000000501
100
AcDbArc
 50
258.5788137250069
 51
281.4211862749931
  0
ARC
  5
3BB
330
38B
100
AcDbEntity
  8
0
  6
Continuous
 62
     7
370
    15
100
AcDbCircle
 10
2203.51013451973
 20
816.7777551869553
 30
0.0
 40
17.67500000000479
100
AcDbArc
 50
78.57881372500691
 51
101.4211862749931
  0
ENDBLK
  5
38D
330
38B
100
AcDbEntity
  8
0
100
AcDbBlockEnd
  0
BLOCK
  5
3BE
330
3BD
100
AcDbEntity
  8
0
100
AcDbBlockBegin
  2
4
 70
     0
 10
0.0
 20
0.0
 30
0.0
  3
4
  1

  0
LINE
  5
3C0
330
3BD
100
AcDbEntity
  8
0
  6
Continuous
 62
     7
370
    15
100
AcDbLine
 10
2246.544314484442
 20
862.4683030666036
 30
0.0
 11
2246.657901597483
 21
867.0200011488056
 31
0.0
  0
LINE
  5
3C1
330
3BD
100
AcDbEntity
  8
0
  6
Continuous
 62
     7
370
    15
100
AcDbLine
 10
2239.810033508239
 20
867.1908889257826
 30
0.0
 11
2239.696446395198
 21
862.6391908435806
 31
0.0
  0
SPLINE
  5
3C2
330
3BD
100
AcDbEntity
  8
0
  6
Continuous
 62
     7
370
    15
100
AcDbSpline
210
0.0
220
0.0
230
1.0
 70
     8
 71
     3
 72
    30
 73
    26
 74
     0
 42
0.0000000001
 43
0.0000000001
 40
0.0
 40
0.0
 40
0.0
 40
0.0
 40
0.0209741452940234
 40
0.0688070011067281
 40
0.1186759888493591
 40
0.1645394438594221
 40
0.211138062241104
 40
0.2583546851675502
 40
0.3059884909339062
 40
0.3538350987725844
 40
0.4017379181393028
 40
0.4495745520262365
 40
0.4972869539557994
 40
0.5448524013976308
 40
0.592248488004309
 40
0.6394448012563297
 40
0.6863896029366181
 40
0.7329867349345541
 40
0.7790440049373745
 40
0.8241324069961908
 40
0.8670947689213713
 40
0.9057123679883341
 40
0.934005171433114
 40
0.9657158601853669
 40
1.0
 40
1.0
 40
1.0
 40
1.0
 10
2239.699143121945
 20
862.6441289093838
 30
0.0
 10
2239.697938609293
 20
862.6229683510288
 30
0.0
 10
2239.693987129881
 20
862.5535498101665
 30
0.0
 10
2239.710464327476
 20
862.4337101352914
 30
0.0
 10
2239.747769193983
 20
862.2913196367836
 30
0.0
 10
2239.806219870965
 20
862.1541045882558
 30
0.0
 10
2239.8813280628
 20
862.0240920742281
 30
0.0
 10
2239.974934931608
 20
861.8977089393091
 30
0.0
 10
2240.086172111654
 20
861.7758723948966
 30
0.0
 10
2240.214109228191
 20
861.6593581456013
 30
0.0
 10
2240.357665911372
 20
861.5487894876631
 30
0.0
 10
2240.515747192919
 20
861.4446417165911
 30
0.0
 10
2240.687263864999
 20
861.3472864484352
 30
0.0
 10
2240.871142349322
 20
861.2570322147258
 30
0.0
 10
2241.066258614648
 20
861.1741716768776
 30
0.0
 10
2241.27136626918
 20
861.0990002410501
 30
0.0
 10
2241.485026140971
 20
861.0318145602279
 30
0.0
 10
2241.705459287313
 20
860.9729151644392
 30
0.0
 10
2241.930176219968
 20
860.922627356661
 30
0.0
 10
2242.154789285334
 20
860.8813813865259
 30
0.0
 10
2242.371250263754
 20
860.8496445496045
 30
0.0
 10
2242.561681750329
 20
860.8279921480068
 30
0.0
 10
2242.734030739153
 20
860.8130402743716
 30
0.0
 10
2242.899700553336
 20
860.8022475327176
 30
0.0
 10
2243.016073148032
 20
860.7984614472636
 30
0.0
 10
2243.076528404812
 20
860.7964945858309
 30
0.0
  0
SPLINE
  5
3C3
330
3BD
100
AcDbEntity
  8
0
  6
Continuous
 62
     7
370
    15
100
AcDbSpline
210
0.0
220
0.0
230
1.0
 70
     8
 71
     3
 72
    31
 73
    27
 74
     0
 42
0.0000000001
 43
0.0000000001
 40
0.0
 40
0.0
 40
0.0
 40
0.0
 40
0.0526567911219914
 40
0.0738822867001208
 40
0.1090628368018385
 40
0.1454549307750208
 40
0.184356549817645
 40
0.2247951413762111
 40
0.2663801801454664
 40
0.3088024579087131
 40
0.3518465854579382
 40
0.3953576040959938
 40
0.4392237238711959
 40
0.483364477930789
 40
0.5277226458898435
 40
0.5722582876044957
 40
0.6169437130617319
 40
0.6617585288927641
 40
0.7066581611522837
 40
0.7516058260295172
 40
0.796564687609695
 40
0.8415156565298676
 40
0.886497311867123
 40
0.9316579380660327
 40
0.9772976160469911
 40
1.0
 40
1.0
 40
1.0
 40
1.0
 10
2243.076528404812
 20
860.7964945858309
 30
0.0
 10
2243.16888459877
 20
860.795203781417
 30
0.0
 10
2243.2984687731
 20
860.7933926649447
 30
0.0
 10
2243.488976823464
 20
860.7981151838123
 30
0.0
 10
2243.6503741458
 20
860.8053785899837
 30
0.0
 10
2243.840835157538
 20
860.819408935777
 30
0.0
 10
2244.037876233426
 20
860.8398517296132
 30
0.0
 10
2244.24026297515
 20
860.8675085570453
 30
0.0
 10
2244.444011738911
 20
860.90255922009
 30
0.0
 10
2244.646441778332
 20
860.9451076678096
 30
0.0
 10
2244.845314728873
 20
860.9951294979754
 30
0.0
 10
2245.038778289224
 20
861.0525234163025
 30
0.0
 10
2245.225268105087
 20
861.1171343316334
 30
0.0
 10
2245.403448004205
 20
861.1887756600278
 30
0.0
 10
2245.572165783647
 20
861.2672482628566
 30
0.0
 10
2245.730416549589
 20
861.3523573101135
 30
0.0
 10
2245.877307578142
 20
861.443925936482
 30
0.0
 10
2246.011992869801
 20
861.5417841855277
 30
0.0
 10
2246.133656604892
 20
861.6457688208658
 30
0.0
 10
2246.241470510966
 20
861.7557071382424
 30
0.0
 10
2246.334628210216
 20
861.8714156818507
 30
0.0
 10
2246.412166952726
 20
861.992683309301
 30
0.0
 10
2246.473535617747
 20
862.1192548175052
 30
0.0
 10
2246.516409353394
 20
862.2509247260156
 30
0.0
 10
2246.539832136813
 20
862.3635852758884
 30
0.0
 10
2246.540939443597
 20
862.4322112715223
 30
0.0
 10
2246.541307277154
 20
862.455007974723
 30
0.0
  0
LINE
  5
3C4
330
3BD
100
AcDbEntity
  8
0
  6
Continuous
 62
     7
370
    15
100
AcDbLine
 10
2246.095418713134
 20
861.5160463832156
 30
0.0
 11
2246.097968110328
 21
861.618206619579
 31
0.0
  0
LINE
  5
3C5
330
3BD
100
AcDbEntity
  8
0
  6
Continuous
 62
     7
370
    15
100
AcDbLine
 10
2240.099810624373
 20
861.7668934251817
 30
0.0
 11
2240.09728608022
 21
861.6657291075751
 31
0.0
  0
LINE
  5
3C6
330
3BD
100
AcDbEntity
  8
0
  6
Continuous
 62
     7
370
    15
100
AcDbLine
 10
2245.775557771287
 20
848.6481770947843
 30
0.0
 11
2245.948749739575
 21
855.5883794540937
 31
0.0
  0
LINE
  5
3C7
330
3BD
100
AcDbEntity
  8
0
  6
Continuous
 62
     7
370
    15
100
AcDbLine
 10
2239.986055163706
 20
857.1581470100339
 30
0.0
 11
2239.777425138372
 21
848.7978598191437
 31
0.0
  0
LINE
  5
3C8
330
3BD
100
AcDbEntity
  8
0
  6
Continuous
 62
     7
370
    15
100
AcDbLine
 10
2235.447351212903
 20
867.5553777550163
 30
0.0
 11
2235.560938325944
 21
872.1070758372183
 31
0.0
  0
LINE
  5
3C9
330
3BD
100
AcDbEntity
  8
0
  6
Continuous
 62
     7
370
    15
100
AcDbLine
 10
2228.7130702367
 20
872.2779636141956
 30
0.0
 11
2228.599483123659
 21
867.7262655319934
 31
0.0
  0
LINE
  5
3CA
330
3BD
100
AcDbEntity
  8
0
  6
Continuous
 62
     7
370
    15
100
AcDbLine
 10
2240.25513221049
 20
847.9862613288187
 30
0.0
 11
2240.418854091627
 21
847.8603131598688
 31
0.0
  0
LINE
  5
3CB
330
3BD
100
AcDbEntity
  8
0
  6
Continuous
 62
     7
370
    15
100
AcDbLine
 10
2245.088163595261
 20
847.7437910670518
 30
0.0
 11
2245.25796382145
 21
847.8614162293736
 31
0.0
  0
SPLINE
  5
3CC
330
3BD
100
AcDbEntity
  8
0
  6
Continuous
 62
     7
370
    15
100
AcDbSpline
210
0.0
220
0.0
230
1.0
 70
     8
 71
     3
 72
    30
 73
    26
 74
     0
 42
0.0000000001
 43
0.0000000001
 40
0.0
 40
0.0
 40
0.0
 40
0.0
 40
0.0212275141718717
 40
0.0690479909883683
 40
0.1189040727900994
 40
0.1647556584788364
 40
0.2113422172811659
 40
0.2585466206905819
 40
0.3061680989742732
 40
0.3540023242577654
 40
0.4018927465219237
 40
0.4497170004349016
 40
0.4974170545413596
 40
0.5449701921914468
 40
0.5923540128364503
 40
0.6395381118275269
 40
0.6864707643372916
 40
0.7330558371405506
 40
0.7791011876633195
 40
0.8241779209821402
 40
0.8671291643799834
 40
0.9057367693309
 40
0.9340222506843714
 40
0.9657247328063274
 40
1.0
 40
1.0
 40
1.0
 40
1.0
 10
2228.602208961491
 20
867.7319871641239
 30
0.0
 10
2228.600986124523
 20
867.7105654573058
 30
0.0
 10
2228.597008530387
 20
867.6408858044105
 30
0.0
 10
2228.61349348068
 20
867.5207848591286
 30
0.0
 10
2228.650807803168
 20
867.378394316402
 30
0.0
 10
2228.709256104943
 20
867.2411792789814
 30
0.0
 10
2228.784364926575
 20
867.1111667620085
 30
0.0
 10
2228.877971623257
 20
866.9847836278945
 30
0.0
 10
2228.989208850063
 20
866.8629470832632
 30
0.0
 10
2229.117145953976
 20
866.7464328340271
 30
0.0
 10
2229.260702640548
 20
866.6358641760727
 30
0.0
 10
2229.418783921189
 20
866.5317164050049
 30
0.0
 10
2229.59030059351
 20
866.4343611368479
 30
0.0
 10
2229.774179077768
 20
866.3441069031387
 30
0.0
 10
2229.969295343112
 20
866.2612463652905
 30
0.0
 10
2230.174402997639
 20
866.186074929463
 30
0.0
 10
2230.388062869432
 20
866.1188892486411
 30
0.0
 10
2230.608496015773
 20
866.0599898528522
 30
0.0
 10
2230.833212948429
 20
866.009702045074
 30
0.0
 10
2231.057826013794
 20
865.9684560749388
 30
0.0
 10
2231.274286992215
 20
865.9367192380173
 30
0.0
 10
2231.464718478788
 20
865.9150668364198
 30
0.0
 10
2231.637067467608
 20
865.9001149627849
 30
0.0
 10
2231.802737281804
 20
865.88932222113
 30
0.0
 10
2231.919109876514
 20
865.8855361356758
 30
0.0
 10
2231.97956513331
 20
865.8835692742428
 30
0.0
  0
SPLINE
  5
3CD
330
3BD
100
AcDbEntity
  8
0
  6
Continuous
 62
     7
370
    15
100
AcDbSpline
210
0.0
220
0.0
230
1.0
 70
     8
 71
     3
 72
    31
 73
    27
 74
     0
 42
0.0000000001
 43
0.0000000001
 40
0.0
 40
0.0
 40
0.0
 40
0.0
 40
0.0523836553257375
 40
0.073499052237472
 40
0.1084971174753635
 40
0.1447004421913268
 40
0.1834002748311304
 40
0.2236291075640242
 40
0.264998440776718
 40
0.3072006701449977
 40
0.3500215237051645
 40
0.3933068465456278
 40
0.4369454285797993
 40
0.4808572203441783
 40
0.5249852982614059
 40
0.5692899293609671
 40
0.6137435672605623
 40
0.6583259243737729
 40
0.7029926579645709
 40
0.74770717502332
 40
0.7924328307066362
 40
0.8371506346699298
 40
0.8818989658769384
 40
0.9268253396067125
 40
0.9722282802313436
 40
0.9999999999999998
 40
0.9999999999999998
 40
0.9999999999999998
 40
0.9999999999999998
 10
2231.97956513331
 20
865.8835692742428
 30
0.0
 10
2232.071921327257
 20
865.8822784698296
 30
0.0
 10
2232.201505501579
 20
865.8804673533579
 30
0.0
 10
2232.392013551935
 20
865.8851898722256
 30
0.0
 10
2232.553410874271
 20
865.8924532783974
 30
0.0
 10
2232.743871886011
 20
865.9064836241908
 30
0.0
 10
2232.940912961899
 20
865.9269264180275
 30
0.0
 10
2233.143299703623
 20
865.95458324546
 30
0.0
 10
2233.347048467384
 20
865.9896339085053
 30
0.0
 10
2233.549478506805
 20
866.0321823562252
 30
0.0
 10
2233.748351457341
 20
866.0822041863919
 30
0.0
 10
2233.941815017711
 20
866.139598104718
 30
0.0
 10
2234.128304833502
 20
866.2042090200538
 30
0.0
 10
2234.306484732895
 20
866.2758503484319
 30
0.0
 10
2234.475202511297
 20
866.3543229513242
 30
0.0
 10
2234.63345328114
 20
866.4394319983442
 30
0.0
 10
2234.78034429506
 20
866.5310006256035
 30
0.0
 10
2234.915029641548
 20
866.6288588713126
 30
0.0
 10
2235.036693171444
 20
866.73284351914
 30
0.0
 10
2235.144507844451
 20
866.8427817898376
 30
0.0
 10
2235.237662680356
 20
866.9584905077236
 30
0.0
 10
2235.315212110066
 20
867.0797574846979
 30
0.0
 10
2235.376540812213
 20
867.2063314252429
 30
0.0
 10
2235.419564817247
 20
867.3379921876053
 30
0.0
 10
2235.443570226792
 20
867.4558582220585
 30
0.0
 10
2235.4445536051
 20
867.5297327067276
 30
0.0
 10
2235.444926823186
 20
867.5577700283259
 30
0.0
  0
LINE
  5
3CE
330
3BD
100
AcDbEntity
  8
0
  6
Continuous
 62
     7
370
    15
100
AcDbLine
 10
2234.998455441595
 20
866.6031210716285
 30
0.0
 11
2235.001004838789
 21
866.7052813079921
 31
0.0
  0
LINE
  5
3CF
330
3BD
100
AcDbEntity
  8
0
  6
Continuous
 62
     7
370
    15
100
AcDbLine
 10
2229.002847352834
 20
866.8539681135946
 30
0.0
 11
2229.000322808682
 21
866.7528037959881
 31
0.0
  0
LINE
  5
3D0
330
3BD
100
AcDbEntity
  8
0
  6
Continuous
 62
     7
370
    15
100
AcDbLine
 10
2234.676112321253
 20
853.7363896645327
 30
0.0
 11
2234.825982661646
 21
859.7420405054068
 31
0.0
  0
LINE
  5
3D1
330
3BD
100
AcDbEntity
  8
0
  6
Continuous
 62
     7
370
    15
100
AcDbLine
 10
2228.886612071476
 20
862.2464540623846
 30
0.0
 11
2228.67797968834
 21
853.8860723888921
 31
0.0
  0
LINE
  5
3D2
330
3BD
100
AcDbEntity
  8
0
  6
Continuous
 62
     7
370
    15
100
AcDbLine
 10
2229.155686760457
 20
853.0744738985671
 30
0.0
 11
2229.319408641595
 21
852.9485257296173
 31
0.0
  0
LINE
  5
3D3
330
3BD
100
AcDbEntity
  8
0
  6
Continuous
 62
     7
370
    15
100
AcDbLine
 10
2233.988718145228
 20
852.8320036368002
 30
0.0
 11
2234.158518371417
 21
852.9496287991221
 31
0.0
  0
LWPOLYLINE
  5
3D4
330
3BD
100
AcDbEntity
  8
0
  6
Continuous
 62
     7
370
    15
100
AcDbPolyline
 90
       65
 70
   128
 43
0.0
 10
2241.402968613054
 20
867.944812360891
 10
2241.248648068287
 20
867.8571593377149
 10
2241.113447235443
 20
867.762266894897
 10
2240.99866817245
 20
867.661048898535
 10
2240.905416264429
 20
867.5544801332653
 10
2240.834589578232
 20
867.443586914554
 10
2240.786870213563
 20
867.3294372047177
 10
2240.762717733991
 20
867.2131303278625
 10
2240.762364741098
 20
867.0957863827924
 10
2240.785814634397
 20
866.9785354558452
 10
2240.832841578598
 20
866.8625067375433
 10
2240.90299267852
 20
866.7488176478718
 10
2240.995592340722
 20
866.6385630749125
 10
2241.109748779837
 20
866.5328048304751
 10
2241.244362606954
 20
866.4325614242661
 10
2241.398137417327
 20
866.3387982550863
 10
2241.569592275473
 20
866.252418313511
 10
2241.75707597738
 20
866.1742534855976
 10
2241.95878295251
 20
866.1050565413683
 10
2242.172770652428
 20
866.0454938852229
 10
2242.396978258606
 20
865.9961391381001
 10
2242.629246529233
 20
865.9574676131949
 10
2242.867338593892
 20
865.9298517384323
 10
2243.108961495845
 20
865.9135574697822
 10
2243.351788274463
 20
865.9087417299595
 10
2243.593480375125
 20
865.9154508971711
 10
2243.831710170778
 20
865.9336203584691
 10
2244.064183378261
 20
865.9630751320088
 10
2244.288661153504
 20
866.0035315522193
 10
2244.502981652818
 20
866.0546000016585
 10
2244.705080852636
 20
866.1157886632411
 10
2244.893012427185
 20
866.1865082567073
 10
2245.064966492668
 20
866.2660777137125
 10
2245.219287037434
 20
866.3537307368885
 10
2245.354487870279
 20
866.4486231797067
 10
2245.469266933272
 20
866.5498411760685
 10
2245.562518841293
 20
866.6564099413381
 10
2245.633345527491
 20
866.7673031600495
 10
2245.681064892159
 20
866.8814528698858
 10
2245.705217371731
 20
866.997759746741
 10
2245.705570364624
 20
867.1151036918111
 10
2245.682120471325
 20
867.2323546187582
 10
2245.635093527124
 20
867.3483833370601
 10
2245.564942427202
 20
867.4620724267317
 10
2245.472342765
 20
867.5723269996909
 10
2245.358186325884
 20
867.6780852441286
 10
2245.223572498769
 20
867.7783286503375
 10
2245.069797688395
 20
867.8720918195171
 10
2244.898342830249
 20
867.9584717610925
 10
2244.710859128343
 20
868.0366365890058
 10
2244.509152153213
 20
868.1058335332352
 10
2244.295164453294
 20
868.1653961893808
 10
2244.070956847115
 20
868.2147509365035
 10
2243.838688576488
 20
868.2534224614085
 10
2243.60059651183
 20
868.2810383361713
 10
2243.358973609877
 20
868.2973326048212
 10
2243.116146831259
 20
868.302148344644
 10
2242.874454730598
 20
868.2954391774323
 10
2242.636224934944
 20
868.2772697161345
 10
2242.403751727461
 20
868.2478149425946
 10
2242.179273952219
 20
868.2073585223841
 10
2241.964953452904
 20
868.1562900729449
 10
2241.762854253086
 20
868.0951014113624
 10
2241.574922678537
 20
868.0243818178963
 10
2241.402968613054
 20
867.944812360891
  0
LWPOLYLINE
  5
3D5
330
3BD
100
AcDbEntity
  8
0
  6
Continuous
 62
     7
370
    15
100
AcDbPolyline
 90
       76
 70
   128
 43
0.0
 10
2245.767774166528
 20
865.9438963167733
 10
2245.951616767452
 20
866.0467476357414
 10
2246.116397011764
 20
866.1570249563085
 10
2246.260959084445
 20
866.2739547623047
 10
2246.384288986421
 20
866.3967168751552
 10
2246.485521647044
 20
866.5244502068425
 10
2246.563946991935
 20
866.6562587998212
 10
2246.619014923647
 20
866.7912181115159
 10
2246.650339180207
 20
866.9283814993232
 10
2246.65770004446
 20
867.0667868606294
 10
2246.641045885233
 20
867.205463381269
 10
2246.600493519487
 20
867.3434383450887
 10
2246.536327392931
 20
867.4797439568523
 10
2246.448997584839
 20
867.6134241306286
 10
2246.339116651068
 20
867.7435411960475
 10
2246.207455327421
 20
867.8691824753842
 10
2246.054937123482
 20
867.9894666853375
 10
2245.88263184487
 20
868.1035501185981
 10
2245.691748089311
 20
868.2106325618512
 10
2245.483624769203
 20
868.3099629086955
 10
2245.259721720098
 20
868.4008444281168
 10
2245.021609461012
 20
868.4826396515548
 10
2244.77095817836
 20
868.5547748442866
 10
2244.509526010796
 20
868.6167440297644
 10
2244.239146717137
 20
868.6681125386769
 10
2243.961716813861
 20
868.7085200578421
 10
2243.679182272407
 20
868.7376831575461
 10
2243.39352486958
 20
868.7553972795981
 10
2243.10674828682
 20
868.7615381721592
 10
2242.820864055802
 20
868.7560627612807
 10
2242.537877449003
 20
868.7390094530353
 10
2242.259773414142
 20
868.7104978641283
 10
2241.988502651207
 20
868.6707279828695
 10
2241.725967929692
 20
868.6199787664021
 10
2241.474010742037
 20
868.5586061840158
 10
2241.234398386882
 20
868.4870407202801
 10
2241.008811572739
 20
868.4057843555034
 10
2240.798832629023
 20
868.315407044702
 10
2240.605934407156
 20
868.2165427197752
 10
2240.431469949568
 20
868.1098848429282
 10
2240.276662999074
 20
867.9961815425338
 10
2240.142599415205
 20
867.8762303655485
 10
2240.030219557677
 20
867.7508726832938
 10
2239.940311690445
 20
867.6209877898417
 10
2239.8735064526
 20
867.4874867343973
 10
2239.830272434884
 20
867.3513059309444
 10
2239.81091289287
 20
867.2134005899733
 10
2239.815563619835
 20
867.0747380183662
 10
2239.84419199427
 20
866.9362908344337
 10
2239.896597208698
 20
866.7990301456976
 10
2239.972411678193
 20
866.6639187372668
 10
2240.071103618724
 20
866.5319043185947
 10
2240.191980777238
 20
866.4039128759757
 10
2240.334195287319
 20
866.2808421774183
 10
2240.496749616359
 20
866.1635554754466
 10
2240.678503562536
 20
866.0528754520045
 10
2240.878182252506
 20
865.9495784479329
 10
2241.094385083728
 20
865.8543890174968
 10
2241.325595548684
 20
865.7679748461571
 10
2241.570191872086
 20
865.6909420672372
 10
2241.826458386467
 20
865.6238310103331
 10
2242.092597566357
 20
865.5671124112901
 10
2242.366742636628
 20
865.521184110328
 10
2242.646970666587
 20
865.4863682614786
 10
2242.931316057946
 20
865.4629090729066
 10
2243.217784332088
 20
865.4509710939644
 10
2243.504366119895
 20
865.4506380609966
 10
2243.789051256036
 20
865.4619123099903
 10
2244.069842878826
 20
865.4847147601895
 10
2244.34477143678
 20
865.5188854687894
 10
2244.6119085036
 20
865.5641847528212
 10
2244.8693803047
 20
865.6202948703542
 10
2245.115380860387
 20
865.6868222492295
 10
2245.348184653517
 20
865.763300247684
 10
2245.566158732748
 20
865.8491924275081
 10
2245.767774166528
 20
865.9438963167733
  0
LINE
  5
3D6
330
3BD
100
AcDbEntity
  8
0
  6
Continuous
 62
     7
370
    15
100
AcDbLine
 10
2246.54395524821
 20
862.4570734416929
 30
0.0
 11
2246.544314484442
 21
862.4683030666036
 31
0.0
  0
LWPOLYLINE
  5
3D7
330
3BD
100
AcDbEntity
  8
0
  6
Continuous
 62
     7
370
    15
100
AcDbPolyline
 90
       28
 70
   128
 43
0.0
 10
2245.315745050985
 20
860.5734728077129
 10
2245.125969883655
 20
860.4848841047774
 10
2244.919853429715
 20
860.4052002928364
 10
2244.699055217659
 20
860.3350629390906
 10
2244.465352984862
 20
860.275036748272
 10
2244.220628364288
 20
860.2256050159745
 10
2243.966851734686
 20
860.187165737441
 10
2243.706066356261
 20
860.1600284031404
 10
2243.440371919538
 20
860.1444115069318
 10
2243.171907639898
 20
860.1404407868812
 10
2242.902835033866
 20
860.1481482128916
 10
2242.635320515852
 20
860.1674717293006
 10
2242.37151795546
 20
860.1982557545159
 10
2242.113551335793
 20
860.2402524336678
 10
2241.863497652391
 20
860.2931236341888
 10
2241.623370190483
 20
860.3564436682603
 10
2241.3951023152
 20
860.4297027201996
 10
2241.180531905254
 20
860.5123109511961
 10
2240.98138655542
 20
860.6036032483464
 10
2240.799269666961
 20
860.7028445797531
 10
2240.635647537978
 20
860.8092359125688
 10
2240.491837557647
 20
860.9219206463384
 10
2240.36899759937
 20
861.0399915098433
 10
2240.268116698262
 20
861.1624978659154
 10
2240.190007088022
 20
861.2884533654076
 10
2240.135297661304
 20
861.416843888699
 10
2240.104428906243
 20
861.5466357107885
 10
2240.09728608022
 20
861.6657291075751
  0
ARC
  5
3D8
330
3BD
100
AcDbEntity
  8
0
  6
Continuous
 62
     7
370
    15
100
AcDbCircle
 10
2244.913242040352
 20
861.700163610712
 30
0.0
 40
1.196428367739297
100
AcDbArc
 50
289.6589400152232
 51
351.147629386225
  0
ARC
  5
3D9
330
3BD
100
AcDbEntity
  8
0
  6
Continuous
 62
     7
370
    15
100
AcDbCircle
 10
2237.811369727165
 20
883.1158822994845
 30
0.0
 40
19.56146002560031
100
AcDbArc
 50
236.9995526172591
 51
253.7450700558154
  0
LINE
  5
3DA
330
3BD
100
AcDbEntity
  8
0
  6
Continuous
 62
     7
370
    15
100
AcDbLine
 10
2225.529752302462
 20
867.4564489872457
 30
0.0
 11
2227.15730691562
 21
866.7103446996124
 31
0.0
  0
LINE
  5
3DB
330
3BD
100
AcDbEntity
  8
0
  6
Continuous
 62
     7
370
    15
100
AcDbLine
 10
2228.632432841959
 20
869.0466368802846
 30
0.0
 11
2225.529752302462
 21
867.4564489872457
 31
0.0
  0
ARC
  5
3DC
330
3BD
100
AcDbEntity
  8
0
  6
Continuous
 62
     7
370
    15
100
AcDbCircle
 10
2228.25285741758
 20
853.8744086336658
 30
0.0
 40
15.39048769130084
100
AcDbArc
 50
56.0791649364073
 51
62.12162614889026
  0
LINE
  5
3DD
330
3BD
100
AcDbEntity
  8
0
  6
Continuous
 62
     7
370
    15
100
AcDbLine
 10
2239.76300355695
 20
865.3062901067739
 30
0.0
 11
2236.841471334656
 21
866.6455801680047
 31
0.0
  0
ARC
  5
3DE
330
3BD
100
AcDbEntity
  8
0
  6
Continuous
 62
     7
370
    15
100
AcDbCircle
 10
2239.349205551079
 20
848.7863491565239
 30
0.0
 40
15.39164815418216
100
AcDbArc
 50
56.07931052787883
 51
62.12711336522962
  0
LINE
  5
3DF
330
3BD
100
AcDbEntity
  8
0
  6
Continuous
 62
     7
370
    15
100
AcDbLine
 10
2247.938434606195
 20
861.558505479592
 30
0.0
 11
2249.565989219354
 21
860.8124011919581
 31
0.0
  0
LINE
  5
3E0
330
3BD
100
AcDbEntity
  8
0
  6
Continuous
 62
     7
370
    15
100
AcDbLine
 10
2249.565989219354
 20
860.8124011919581
 30
0.0
 11
2245.06040766037
 21
858.5031975356393
 31
0.0
  0
LINE
  5
3E1
330
3BD
100
AcDbEntity
  8
0
  6
Continuous
 62
     7
370
    15
100
AcDbLine
 10
2245.06040766037
 20
858.5031975356393
 30
0.0
 11
2243.432853047213
 21
859.2493018232726
 31
0.0
  0
ARC
  5
3E2
330
3BD
100
AcDbEntity
  8
0
  6
Continuous
 62
     7
370
    15
100
AcDbCircle
 10
2248.908332998703
 20
878.0288076110704
 30
0.0
 40
19.5614600255989
100
AcDbArc
 50
236.9995526172591
 51
253.7450700558154
  0
LINE
  5
3E3
330
3BD
100
AcDbEntity
  8
0
  6
Continuous
 62
     7
370
    15
100
AcDbLine
 10
2232.335889775673
 20
864.3363765116856
 30
0.0
 11
2238.254270187159
 21
861.6232700111995
 31
0.0
  0
LWPOLYLINE
  5
3E4
330
3BD
100
AcDbEntity
  8
0
  6
Continuous
 62
     7
370
    15
100
AcDbPolyline
 90
       37
 70
   128
 43
0.0
 10
2229.000322808682
 20
866.7528037959881
 10
2229.007465634703
 20
866.6337103992013
 10
2229.038334389764
 20
866.5039185771119
 10
2229.093043816483
 20
866.3755280538206
 10
2229.171153426722
 20
866.2495725543282
 10
2229.272034327831
 20
866.1270661982563
 10
2229.394874286108
 20
866.0089953347512
 10
2229.538684266439
 20
865.8963106009816
 10
2229.702306395422
 20
865.7899192681659
 10
2229.884423283881
 20
865.6906779367592
 10
2230.083568633714
 20
865.5993856396088
 10
2230.29813904366
 20
865.5167774086123
 10
2230.526406918944
 20
865.4435183566731
 10
2230.766534380852
 20
865.3801983226017
 10
2231.016588064254
 20
865.3273271220806
 10
2231.27455468392
 20
865.2853304429289
 10
2231.538357244312
 20
865.2545464177133
 10
2231.805871762326
 20
865.2352229013045
 10
2232.074944368359
 20
865.227515475294
 10
2232.343408647999
 20
865.2314861953447
 10
2232.609103084722
 20
865.2471030915531
 10
2232.869888463147
 20
865.2742404258537
 10
2233.123665092749
 20
865.3126797043872
 10
2233.368389713322
 20
865.3621114366849
 10
2233.602091946119
 20
865.4221376275033
 10
2233.822890158176
 20
865.4922749812492
 10
2234.029006612116
 20
865.5719587931901
 10
2234.218781779446
 20
865.6605474961258
 10
2234.390687702106
 20
865.7573278259095
 10
2234.543340294684
 20
865.8615205642313
 10
2234.675510488265
 20
865.9722868124269
 10
2234.786134126163
 20
866.0887347457956
 10
2234.874320531893
 20
866.2099267940478
 10
2234.939359680367
 20
866.3348871900707
 10
2234.980727914607
 20
866.4626098262314
 10
2234.998092161911
 20
866.5920663549629
 10
2234.998455441595
 20
866.6031210716285
  0
LINE
  5
3E5
330
3BD
100
AcDbEntity
  8
0
  6
Continuous
 62
     7
370
    15
100
AcDbLine
 10
2243.347662712431
 20
855.8355282616217
 30
0.0
 11
2244.97521732559
 21
855.0894239739879
 31
0.0
  0
LINE
  5
3E6
330
3BD
100
AcDbEntity
  8
0
  6
Continuous
 62
     7
370
    15
100
AcDbLine
 10
2243.432853047213
 20
859.2493018232726
 30
0.0
 11
2243.347662712431
 21
855.8355282616217
 31
0.0
  0
LINE
  5
3E7
330
3BD
100
AcDbEntity
  8
0
  6
Continuous
 62
     7
370
    15
100
AcDbLine
 10
2245.06040766037
 20
858.5031975356393
 30
0.0
 11
2244.97521732559
 21
855.0894239739879
 31
0.0
  0
LINE
  5
3E8
330
3BD
100
AcDbEntity
  8
0
  6
Continuous
 62
     7
370
    15
100
AcDbLine
 10
2249.565989219354
 20
860.8124011919581
 30
0.0
 11
2249.480798884573
 21
857.3986276303065
 31
0.0
  0
LINE
  5
3E9
330
3BD
100
AcDbEntity
  8
0
  6
Continuous
 62
     7
370
    15
100
AcDbLine
 10
2244.97521732559
 20
855.0894239739879
 30
0.0
 11
2249.480798884573
 21
857.3986276303065
 31
0.0
  0
ARC
  5
3EA
330
3BD
100
AcDbEntity
  8
0
  6
Continuous
 62
     7
370
    15
100
AcDbCircle
 10
2248.823142663926
 20
874.6150340494279
 30
0.0
 40
19.5614600256086
100
AcDbArc
 50
236.9995526172591
 51
253.7450700557904
  0
LINE
  5
3EB
330
3BD
100
AcDbEntity
  8
0
  6
Continuous
 62
     7
370
    15
100
AcDbLine
 10
2238.169079852379
 20
858.209496449548
 30
0.0
 11
2238.254270187159
 21
861.6232700111995
 31
0.0
  0
LWPOLYLINE
  5
3EC
330
3BD
100
AcDbEntity
  8
0
  6
Continuous
 62
     7
370
    15
100
AcDbPolyline
 90
       28
 70
   128
 43
0.0
 10
2244.995884109137
 20
847.7056035192816
 10
2244.806108941807
 20
847.6170148163459
 10
2244.599992487867
 20
847.5373310044052
 10
2244.37919427581
 20
847.4671936506592
 10
2244.145492043013
 20
847.4071674598405
 10
2243.90076742244
 20
847.3577357275431
 10
2243.646990792839
 20
847.3192964490095
 10
2243.386205414413
 20
847.2921591147089
 10
2243.12051097769
 20
847.2765422185004
 10
2242.85204669805
 20
847.2725714984498
 10
2242.582974092018
 20
847.2802789244603
 10
2242.315459574004
 20
847.2996024408692
 10
2242.051657013612
 20
847.3303864660847
 10
2241.793690393945
 20
847.3723831452364
 10
2241.543636710543
 20
847.4252543457573
 10
2241.303509248635
 20
847.4885743798289
 10
2241.075241373351
 20
847.5618334317683
 10
2240.860670963405
 20
847.6444416627646
 10
2240.661525613572
 20
847.735733959915
 10
2240.479408725112
 20
847.8349752913217
 10
2240.31578659613
 20
847.9413666241374
 10
2240.171976615799
 20
848.054051357907
 10
2240.049136657522
 20
848.1721222214119
 10
2239.948255756414
 20
848.294628577484
 10
2239.870146146174
 20
848.4205840769762
 10
2239.815436719456
 20
848.5489746002677
 10
2239.784567964395
 20
848.6787664223571
 10
2239.777425138372
 20
848.7978598191437
  0
ARC
  5
3ED
330
3BD
100
AcDbEntity
  8
0
  6
Continuous
 62
     7
370
    15
100
AcDbCircle
 10
2244.593381098504
 20
848.8322943222806
 30
0.0
 40
1.196428367739026
100
AcDbArc
 50
289.6589400152232
 51
351.1476293862378
  0
LINE
  5
3EE
330
3BD
100
AcDbEntity
  8
0
  6
Continuous
 62
     7
370
    15
100
AcDbLine
 10
2232.250699440893
 20
860.9226029500339
 30
0.0
 11
2232.335889775673
 21
864.3363765116856
 31
0.0
  0
LINE
  5
3EF
330
3BD
100
AcDbEntity
  8
0
  6
Continuous
 62
     7
370
    15
100
AcDbLine
 10
2238.169079852379
 20
858.209496449548
 30
0.0
 11
2232.250699440893
 21
860.9226029500339
 31
0.0
  0
LWPOLYLINE
  5
3F0
330
3BD
100
AcDbEntity
  8
0
  6
Continuous
 62
     7
370
    15
100
AcDbPolyline
 90
       65
 70
   128
 43
0.0
 10
2233.968003221129
 20
871.3531524021252
 10
2233.796049155646
 20
871.2735829451201
 10
2233.608117581097
 20
871.202863351654
 10
2233.406018381279
 20
871.1416746900713
 10
2233.191697881965
 20
871.0906062406323
 10
2232.967220106722
 20
871.0501498204216
 10
2232.734746899239
 20
871.0206950468819
 10
2232.496517103585
 20
871.0025255855839
 10
2232.254825002924
 20
870.9958164183724
 10
2232.011998224306
 20
871.0006321581952
 10
2231.770375322353
 20
871.0169264268449
 10
2231.532283257694
 20
871.0445423016077
 10
2231.300014987067
 20
871.083213826513
 10
2231.075807380888
 20
871.1325685736357
 10
2230.861819680971
 20
871.1921312297812
 10
2230.66011270584
 20
871.2613281740104
 10
2230.472629003934
 20
871.3394930019239
 10
2230.301174145788
 20
871.4258729434991
 10
2230.147399335415
 20
871.5196361126789
 10
2230.012785508298
 20
871.6198795188878
 10
2229.898629069183
 20
871.7256377633255
 10
2229.806029406981
 20
871.8358923362846
 10
2229.735878307058
 20
871.9495814259563
 10
2229.688851362858
 20
872.0656101442582
 10
2229.665401469559
 20
872.1828610712051
 10
2229.665754462452
 20
872.3002050162754
 10
2229.689906942024
 20
872.4165118931304
 10
2229.737626306692
 20
872.5306616029669
 10
2229.80845299289
 20
872.6415548216783
 10
2229.901704900911
 20
872.7481235869479
 10
2230.016483963904
 20
872.8493415833098
 10
2230.151684796748
 20
872.9442340261277
 10
2230.306005341515
 20
873.0318870493039
 10
2230.477959406998
 20
873.1114565063093
 10
2230.665890981547
 20
873.1821760997751
 10
2230.867990181365
 20
873.2433647613579
 10
2231.08231068068
 20
873.2944332107971
 10
2231.306788455922
 20
873.3348896310076
 10
2231.539261663405
 20
873.3643444045473
 10
2231.777491459058
 20
873.3825138658453
 10
2232.01918355972
 20
873.3892230330567
 10
2232.262010338338
 20
873.3844072932342
 10
2232.503633240291
 20
873.3681130245841
 10
2232.741725304949
 20
873.3404971498215
 10
2232.973993575576
 20
873.3018256249163
 10
2233.198201181755
 20
873.2524708777935
 10
2233.412188881673
 20
873.1929082216479
 10
2233.613895856803
 20
873.1237112774186
 10
2233.80137955871
 20
873.0455464495053
 10
2233.972834416856
 20
872.9591665079301
 10
2234.12660922723
 20
872.8654033387503
 10
2234.261223054346
 20
872.7651599325414
 10
2234.375379493461
 20
872.6594016881037
 10
2234.467979155663
 20
872.5491471151446
 10
2234.538130255585
 20
872.4354580254731
 10
2234.585157199786
 20
872.319429307171
 10
2234.608607093085
 20
872.2021783802238
 10
2234.608254100192
 20
872.0848344351539
 10
2234.58410162062
 20
871.9685275582987
 10
2234.536382255951
 20
871.8543778484622
 10
2234.465555569753
 20
871.7434846297511
 10
2234.372303661733
 20
871.6369158644813
 10
2234.25752459874
 20
871.5356978681194
 10
2234.122323765895
 20
871.4408054253013
 10
2233.968003221129
 20
871.3531524021252
  0
LWPOLYLINE
  5
3F1
330
3BD
100
AcDbEntity
  8
0
  6
Continuous
 62
     7
370
    15
100
AcDbPolyline
 90
       76
 70
   128
 43
0.0
 10
2229.603197667654
 20
873.3540684462278
 10
2229.804813101435
 20
873.4487723354931
 10
2230.022787180666
 20
873.5346645153171
 10
2230.255590973795
 20
873.6111425137716
 10
2230.501591529483
 20
873.6776698926469
 10
2230.759063330583
 20
873.73378001018
 10
2231.026200397403
 20
873.7790792942117
 10
2231.301128955356
 20
873.8132500028116
 10
2231.581920578147
 20
873.8360524530108
 10
2231.866605714287
 20
873.8473267020046
 10
2232.153187502095
 20
873.8469936690368
 10
2232.439655776236
 20
873.8350556900945
 10
2232.724001167595
 20
873.8115965015223
 10
2233.004229197554
 20
873.7767806526731
 10
2233.278374267825
 20
873.7308523517109
 10
2233.544513447716
 20
873.6741337526678
 10
2233.800779962097
 20
873.607022695764
 10
2234.045376285498
 20
873.529989916844
 10
2234.276586750454
 20
873.4435757455043
 10
2234.492789581677
 20
873.3483863150681
 10
2234.692468271648
 20
873.2450893109966
 10
2234.874222217824
 20
873.1344092875545
 10
2235.036776546864
 20
873.0171225855828
 10
2235.178991056945
 20
872.8940518870254
 10
2235.299868215459
 20
872.7660604444064
 10
2235.39856015599
 20
872.6340460257343
 10
2235.474374625485
 20
872.4989346173035
 10
2235.526779839913
 20
872.3616739285672
 10
2235.555408214348
 20
872.2232267446349
 10
2235.560058941311
 20
872.0845641730276
 10
2235.540699399298
 20
871.9466588320566
 10
2235.497465381583
 20
871.8104780286036
 10
2235.430660143737
 20
871.6769769731595
 10
2235.340752276506
 20
871.5470920797072
 10
2235.228372418977
 20
871.4217343974526
 10
2235.094308835108
 20
871.3017832204673
 10
2234.939501884615
 20
871.1880799200727
 10
2234.765037427026
 20
871.081422043226
 10
2234.572139205159
 20
870.9825577182991
 10
2234.362160261444
 20
870.8921804074977
 10
2234.1365734473
 20
870.8109240427209
 10
2233.896961092146
 20
870.7393585789853
 10
2233.645003904491
 20
870.677985996599
 10
2233.382469182975
 20
870.6272367801314
 10
2233.11119842004
 20
870.5874668988728
 10
2232.833094385179
 20
870.5589553099658
 10
2232.55010777838
 20
870.5419020017204
 10
2232.264223547363
 20
870.5364265908418
 10
2231.977446964602
 20
870.542567483403
 10
2231.691789561776
 20
870.5602816054549
 10
2231.409255020321
 20
870.5894447051589
 10
2231.131825117045
 20
870.6298522243242
 10
2230.861445823386
 20
870.6812207332367
 10
2230.600013655822
 20
870.7431899187145
 10
2230.34936237317
 20
870.8153251114463
 10
2230.111250114084
 20
870.8971203348841
 10
2229.88734706498
 20
870.9880018543056
 10
2229.679223744871
 20
871.0873322011499
 10
2229.488339989313
 20
871.1944146444029
 10
2229.3160347107
 20
871.3084980776637
 10
2229.163516506762
 20
871.4287822876169
 10
2229.031855183114
 20
871.5544235669536
 10
2228.921974249344
 20
871.6845406323725
 10
2228.834644441251
 20
871.8182208061488
 10
2228.770478314695
 20
871.9545264179123
 10
2228.729925948949
 20
872.0925013817319
 10
2228.713271789723
 20
872.2311779023716
 10
2228.720632653976
 20
872.3695832636778
 10
2228.751956910535
 20
872.5067466514852
 10
2228.807024842248
 20
872.6417059631799
 10
2228.885450187139
 20
872.7735145561586
 10
2228.986682847762
 20
872.9012478878459
 10
2229.110012749738
 20
873.0240100006962
 10
2229.254574822419
 20
873.1409398066926
 10
2229.41935506673
 20
873.2512171272597
 10
2229.603197667654
 20
873.3540684462278
  0
ARC
  5
3F2
330
3BD
100
AcDbEntity
  8
0
  6
Continuous
 62
     7
370
    15
100
AcDbCircle
 10
2242.852598066351
 20
851.7727862381432
 30
0.0
 40
4.607662674581006
100
AcDbArc
 50
238.1164268464735
 51
299.0245470872573
  0
LINE
  5
3F3
330
3BD
100
AcDbEntity
  8
0
  6
Continuous
 62
     7
370
    15
100
AcDbLine
 10
2227.15730691562
 20
866.7103446996124
 30
0.0
 11
2227.07211658084
 21
863.2965711379602
 31
0.0
  0
ARC
  5
3F4
330
3BD
100
AcDbEntity
  8
0
  6
Continuous
 62
     7
370
    15
100
AcDbCircle
 10
2237.726179392388
 20
879.7021087378407
 30
0.0
 40
19.56146002560879
100
AcDbArc
 50
236.9995526172627
 51
253.7450700557904
  0
LWPOLYLINE
  5
3F5
330
3BD
100
AcDbEntity
  8
0
  6
Continuous
 62
     7
370
    15
100
AcDbPolyline
 90
       37
 70
   128
 43
0.0
 10
2228.67797968834
 20
853.8860723888921
 10
2228.685122514362
 20
853.7669789921055
 10
2228.715991269423
 20
853.6371871700161
 10
2228.770700696141
 20
853.5087966467246
 10
2228.848810306381
 20
853.3828411472324
 10
2228.949691207489
 20
853.2603347911603
 10
2229.072531165766
 20
853.1422639276554
 10
2229.216341146097
 20
853.0295791938858
 10
2229.37996327508
 20
852.9231878610701
 10
2229.562080163539
 20
852.8239465296634
 10
2229.761225513372
 20
852.732654232513
 10
2229.975795923318
 20
852.6500460015167
 10
2230.204063798602
 20
852.5767869495773
 10
2230.44419126051
 20
852.5134669155059
 10
2230.694244943912
 20
852.4605957149848
 10
2230.952211563579
 20
852.4185990358329
 10
2231.216014123971
 20
852.3878150106176
 10
2231.483528641984
 20
852.3684914942087
 10
2231.752601248018
 20
852.3607840681982
 10
2232.021065527657
 20
852.3647547882488
 10
2232.28675996438
 20
852.3803716844573
 10
2232.547545342805
 20
852.4075090187579
 10
2232.801321972407
 20
852.4459482972915
 10
2233.04604659298
 20
852.4953800295891
 10
2233.279748825777
 20
852.5554062204076
 10
2233.500547037834
 20
852.6255435741536
 10
2233.706663491774
 20
852.7052273860945
 10
2233.896438659104
 20
852.79381608903
 10
2234.068344581764
 20
852.8905964188137
 10
2234.220997174342
 20
852.9947891571355
 10
2234.353167367923
 20
853.1055554053313
 10
2234.463791005821
 20
853.2220033386998
 10
2234.551977411551
 20
853.343195386952
 10
2234.617016560026
 20
853.4681557829749
 10
2234.658384794264
 20
853.5958784191356
 10
2234.675749041569
 20
853.7253349478671
 10
2234.676112321253
 20
853.7363896645327
  0
LINE
  5
3F6
330
3BD
100
AcDbEntity
  8
0
  6
Continuous
 62
     7
370
    15
100
AcDbLine
 10
2225.529752302462
 20
867.4564489872457
 30
0.0
 11
2225.444561967682
 21
864.042675425594
 31
0.0
  0
LINE
  5
3F7
330
3BD
100
AcDbEntity
  8
0
  6
Continuous
 62
     7
370
    15
100
AcDbLine
 10
2227.07211658084
 20
863.2965711379602
 30
0.0
 11
2225.444561967682
 21
864.042675425594
 31
0.0
  0
LWPOLYLINE
  5
3F8
330
3BD
100
AcDbEntity
  8
0
  6
Continuous
 62
     7
370
    15
100
AcDbPolyline
 90
        3
 70
   128
 43
0.0
 10
2233.744110413723
 20
852.6865784407165
 10
2233.909008870915
 20
852.7796719010586
 10
2233.988718145228
 20
852.8320036368002
  0
ARC
  5
3F9
330
3BD
100
AcDbEntity
  8
0
  6
Continuous
 62
     7
370
    15
100
AcDbCircle
 10
2231.780749212035
 20
857.0233795335974
 30
0.0
 40
4.760528429440047
100
AcDbArc
 50
238.8666961366955
 51
294.3572643024228
  0
LWPOLYLINE
  5
3FA
330
3BD
100
AcDbEntity
  8
0
  6
Continuous
 62
     8
370
    15
100
AcDbPolyline
 90
       40
 70
   128
 43
0.0
 10
2239.696446395198
 20
862.6391908435806
 10
2239.696647948221
 20
862.5924051317568
 10
2239.713302107448
 20
862.453728611117
 10
2239.753854473194
 20
862.3157536472973
 10
2239.81802059975
 20
862.1794480355339
 10
2239.905350407842
 20
862.0457678617576
 10
2240.015231341613
 20
861.9156507963387
 10
2240.146892665261
 20
861.7900095170018
 10
2240.299410869199
 20
861.6697253070487
 10
2240.471716147812
 20
861.5556418737879
 10
2240.66259990337
 20
861.4485594305349
 10
2240.870723223479
 20
861.3492290836907
 10
2241.094626272583
 20
861.2583475642693
 10
2241.332738531669
 20
861.1765523408314
 10
2241.583389814321
 20
861.1044171480996
 10
2241.844821981885
 20
861.0424479626217
 10
2242.115201275544
 20
860.9910794537093
 10
2242.39263117882
 20
860.9506719345439
 10
2242.675165720275
 20
860.9215088348399
 10
2242.960823123101
 20
860.903794712788
 10
2243.247599705862
 20
860.8976538202268
 10
2243.533483936879
 20
860.9031292311057
 10
2243.816470543678
 20
860.9201825393508
 10
2244.094574578539
 20
860.9486941282581
 10
2244.365845341474
 20
860.9884640095165
 10
2244.62838006299
 20
861.0392132259841
 10
2244.880337250645
 20
861.1005858083704
 10
2245.119949605799
 20
861.1721512721059
 10
2245.345536419943
 20
861.2534076368827
 10
2245.555515363658
 20
861.3437849476841
 10
2245.748413585525
 20
861.442649272611
 10
2245.922878043113
 20
861.5493071494579
 10
2246.077684993607
 20
861.6630104498524
 10
2246.211748577476
 20
861.7829616268377
 10
2246.324128435004
 20
861.9083193090924
 10
2246.414036302236
 20
862.0382042025443
 10
2246.480841540082
 20
862.1717052579889
 10
2246.524075557797
 20
862.3078860614418
 10
2246.543435099811
 20
862.4457914024127
 10
2246.54395524821
 20
862.4570734416929
  0
LWPOLYLINE
  5
3FB
330
3BD
100
AcDbEntity
  8
0
  6
Continuous
 62
     8
370
    15
100
AcDbPolyline
 90
       30
 70
   128
 43
0.0
 10
2234.557223781949
 20
866.4792729229841
 10
2234.355608348168
 20
866.3845690337188
 10
2234.137634268937
 20
866.2986768538948
 10
2233.904830475808
 20
866.2221988554403
 10
2233.65882992012
 20
866.155671476565
 10
2233.40135811902
 20
866.0995613590319
 10
2233.1342210522
 20
866.0542620750002
 10
2232.859292494246
 20
866.0200913664002
 10
2232.578500871456
 20
865.9972889162011
 10
2232.293815735316
 20
865.9860146672073
 10
2232.007233947508
 20
865.9863477001751
 10
2231.720765673367
 20
865.9982856791174
 10
2231.436420282008
 20
866.0217448676894
 10
2231.156192252049
 20
866.0565607165388
 10
2230.882047181777
 20
866.102489017501
 10
2230.615908001888
 20
866.159207616544
 10
2230.359641487507
 20
866.2263186734479
 10
2230.115045164104
 20
866.3033514523679
 10
2229.883834699149
 20
866.3897656237075
 10
2229.667631867926
 20
866.4849550541438
 10
2229.467953177956
 20
866.5882520582153
 10
2229.286199231779
 20
866.6989320816574
 10
2229.123644902739
 20
866.8162187836291
 10
2228.981430392658
 20
866.9392894821864
 10
2228.860553234144
 20
867.0672809248054
 10
2228.761861293613
 20
867.1992953434775
 10
2228.686046824118
 20
867.3344067519083
 10
2228.63364160969
 20
867.4716674406447
 10
2228.605013235256
 20
867.610114624577
 10
2228.599483123659
 20
867.7262655319934
  0
ARC
  5
3FC
330
3BD
100
AcDbEntity
  8
0
  6
Continuous
 62
     8
370
    15
100
AcDbCircle
 10
2234.079639789757
 20
867.7805168137123
 30
0.0
 40
1.386117647516255
100
AcDbArc
 50
290.1542033282478
 51
350.6523660732038
  0
ENDBLK
  5
3BF
330
3BD
100
AcDbEntity
  8
0
100
AcDbBlockEnd
  0
ENDSEC
  0
SECTION
  2
ENTITIES
  0
INSERT
  5
366
330
1F
100
AcDbEntity
  8
0
100
AcDbBlockReference
  2
1
 10
0.0
 20
0.0
 30
0.0
  0
INSERT
  5
38A
330
1F
100
AcDbEntity
  8
0
100
AcDbBlockReference
  2
2
 10
0.0
 20
0.0
 30
0.0
  0
INSERT
  5
3BC
330
1F
100
AcDbEntity
  8
0
100
AcDbBlockReference
  2
3
 10
0.0
 20
0.0
 30
0.0
  0
INSERT
  5
3FD
330
1F
100
AcDbEntity
  8
0
100
AcDbBlockReference
  2
4
 10
0.0
 20
0.0
 30
0.0
  0
ENDSEC
  0
SECTION
  2
OBJECTS
  0
DICTIONARY
  5
C
330
0
100
AcDbDictionary
281
     1
  3
ACAD_COLOR
350
6B
  3
ACAD_GROUP
350
D
  3
ACAD_LAYOUT
350
1A
  3
ACAD_MATERIAL
350
6A
  3
ACAD_MLEADERSTYLE
350
12D
  3
ACAD_MLINESTYLE
350
17
  3
ACAD_PLOTSETTINGS
350
19
  3
ACAD_PLOTSTYLENAME
350
E
  3
ACAD_SCALELIST
350
10C
  3
ACAD_TABLESTYLE
350
7E
  3
ACAD_VISUALSTYLE
350
EF
  3
ACDB_RECOMPOSE_DATA
350
15D
  3
AcDbVariableDictionary
350
5E
  3
DWGPROPS
350
40B
  0
DICTIONARY
  5
13C
330
10
100
AcDbDictionary
280
     1
281
     1
  3
ADSK_XREC_LAYER_RECONCILED
360
3FE
  0
DICTIONARY
  5
6B
102
{ACAD_REACTORS
330
C
102
}
330
C
100
AcDbDictionary
281
     1
  0
DICTIONARY
  5
D
102
{ACAD_REACTORS
330
C
102
}
330
C
100
AcDbDictionary
281
     1
  0
DICTIONARY
  5
1A
102
{ACAD_REACTORS
330
C
102
}
330
C
100
AcDbDictionary
281
     1
  3
Layout1
350
D3
  3
Layout2
350
D7
  3
Model
350
22
  0
DICTIONARY
  5
6A
102
{ACAD_REACTORS
330
C
102
}
330
C
100
AcDbDictionary
281
     1
  3
ByBlock
350
ED
  3
ByLayer
350
EC
  3
Global
350
EE
  0
DICTIONARY
  5
12D
102
{ACAD_REACTORS
330
C
102
}
330
C
100
AcDbDictionary
281
     1
  3
Annotative
350
13B
  3
Standard
350
12E
  0
DICTIONARY
  5
17
102
{ACAD_REACTORS
330
C
102
}
330
C
100
AcDbDictionary
281
     1
  3
Standard
350
18
  0
DICTIONARY
  5
19
102
{ACAD_REACTORS
330
C
102
}
330
C
100
AcDbDictionary
281
     1
  0
ACDBDICTIONARYWDFLT
  5
E
102
{ACAD_REACTORS
330
C
102
}
330
C
100
AcDbDictionary
281
     1
  3
Normal
350
F
100
AcDbDictionaryWithDefault
340
F
  0
DICTIONARY
  5
10C
102
{ACAD_REACTORS
330
C
102
}
330
C
100
AcDbDictionary
281
     1
  3
A0
350
10D
  3
A1
350
188
  3
A2
350
189
  3
A3
350
18A
  3
A4
350
18B
  3
A5
350
18C
  3
A6
350
18D
  3
A7
350
18E
  3
A8
350
18F
  3
A9
350
190
  3
B0
350
191
  3
B1
350
192
  3
B2
350
193
  3
B3
350
194
  3
B4
350
195
  3
B5
350
196
  3
B6
350
197
  3
B7
350
198
  3
B8
350
199
  3
B9
350
19A
  3
C0
350
19B
  3
C1
350
19C
  3
C2
350
19D
  3
C3
350
19E
  3
C4
350
19F
  3
C5
350
1A0
  3
C6
350
1A1
  3
C7
350
1A2
  3
C8
350
1A3
  3
C9
350
1A4
  3
D0
350
1A5
  3
D1
350
1A6
  3
D2
350
1A7
  0
DICTIONARY
  5
7E
102
{ACAD_REACTORS
330
C
102
}
330
C
100
AcDbDictionary
281
     1
  3
Standard
350
7F
  0
DICTIONARY
  5
EF
102
{ACAD_REACTORS
330
C
102
}
330
C
100
AcDbDictionary
281
     1
  3
2dWireframe
350
F5
  3
3D Hidden
350
F7
  3
3dWireframe
350
F6
  3
Basic
350
F4
  3
Brighten
350
FB
  3
ColorChange
350
FF
  3
Conceptual
350
F8
  3
Dim
350
FA
  3
Facepattern
350
FE
  3
Flat
350
F0
  3
FlatWithEdges
350
F1
  3
Gouraud
350
F2
  3
GouraudWithEdges
350
F3
  3
Linepattern
350
FD
  3
Realistic
350
F9
  3
Thicken
350
FC
  0
XRECORD
  5
15D
102
{ACAD_REACTORS
330
C
102
}
330
C
100
AcDbXrecord
280
     1
 90
        1
330
7F
  0
DICTIONARY
  5
5E
102
{ACAD_REACTORS
330
C
102
}
330
C
100
AcDbDictionary
281
     1
  3
CANNOSCALE
350
146
  3
CMLEADERSTYLE
350
145
  3
CTABLESTYLE
350
84
  3
DIMASSOC
350
5F
  3
HIDETEXT
350
63
  3
INDEXCTL
350
407
  3
LIGHTINGUNITS
350
405
  3
MSLTSCALE
350
404
  3
PSOLHEIGHT
350
409
  3
PSOLWIDTH
350
408
  3
SORTENTS
350
406
  0
XRECORD
  5
40B
102
{ACAD_REACTORS
330
C
102
}
330
C
100
AcDbXrecord
280
     1
  1
DWGPROPS COOKIE
  2

  3

  4

  6

  7

  8
orhan kara
  9

300
=
301
=
302
=
303
=
304
=
305
=
306
=
307
=
308
=
309
=
 40
0.0004230324074074
 41
2458935.487367975
 42
2458956.462058774
  1

 90
        0
  0
XRECORD
  5
3FE
102
{ACAD_REACTORS
330
13C
102
}
330
13C
100
AcDbXrecord
280
     1
290
     1
  0
LAYOUT
  5
D3
102
{ACAD_XDICTIONARY
360
40F
102
}
102
{ACAD_REACTORS
330
1A
102
}
330
1A
100
AcDbPlotSettings
  1

  2
C:\Documents and Settings\basas\Application Data\Autodesk\AutoCAD 2005\R16.1\enu\plotters\Default Windows System Printer.pc3
  4

  6

 40
0.0
 41
0.0
 42
0.0
 43
0.0
 44
0.0
 45
0.0
 46
0.0
 47
0.0
 48
0.0
 49
0.0
140
0.0
141
0.0
142
1.0
143
1.0
 70
   688
 72
     0
 73
     0
 74
     5
  7

 75
    16
147
1.0
148
0.0
149
0.0
100
AcDbLayout
  1
Layout1
 70
     1
 71
     1
 10
0.0
 20
0.0
 11
12.0
 21
9.0
 12
0.0
 22
0.0
 32
0.0
 14
0.0
 24
0.0
 34
0.0
 15
0.0
 25
0.0
 35
0.0
146
0.0
 13
0.0
 23
0.0
 33
0.0
 16
1.0
 26
0.0
 36
0.0
 17
0.0
 27
1.0
 37
0.0
 76
     0
330
D2
  0
LAYOUT
  5
D7
102
{ACAD_XDICTIONARY
360
411
102
}
102
{ACAD_REACTORS
330
1A
102
}
330
1A
100
AcDbPlotSettings
  1

  2
C:\Documents and Settings\basas\Application Data\Autodesk\AutoCAD 2005\R16.1\enu\plotters\Default Windows System Printer.pc3
  4

  6

 40
0.0
 41
0.0
 42
0.0
 43
0.0
 44
0.0
 45
0.0
 46
0.0
 47
0.0
 48
0.0
 49
0.0
140
0.0
141
0.0
142
1.0
143
1.0
 70
   688
 72
     0
 73
     0
 74
     5
  7

 75
    16
147
1.0
148
0.0
149
0.0
100
AcDbLayout
  1
Layout2
 70
     1
 71
     2
 10
0.0
 20
0.0
 11
12.0
 21
9.0
 12
0.0
 22
0.0
 32
0.0
 14
0.0
 24
0.0
 34
0.0
 15
0.0
 25
0.0
 35
0.0
146
0.0
 13
0.0
 23
0.0
 33
0.0
 16
1.0
 26
0.0
 36
0.0
 17
0.0
 27
1.0
 37
0.0
 76
     0
330
D6
  0
LAYOUT
  5
22
102
{ACAD_XDICTIONARY
360
40C
102
}
102
{ACAD_REACTORS
330
1A
102
}
330
1A
100
AcDbPlotSettings
  1

  2
none_device
  4
ISO_A4_(210.00_x_297.00_MM)
  6

 40
7.5
 41
20.0
 42
7.5
 43
20.0
 44
210.0
 45
297.0
 46
11.54999923706054
 47
-13.65000009536743
 48
0.0
 49
0.0
140
0.0
141
0.0
142
1.0
143
8.704084754739808
 70
 11952
 72
     1
 73
     0
 74
     0
  7

 75
     0
147
0.1148885871608098
148
0.0
149
0.0
100
AcDbLayout
  1
Model
 70
     1
 71
     0
 10
0.0
 20
0.0
 11
12.0
 21
9.0
 12
0.0
 22
0.0
 32
0.0
 14
0.0
 24
0.0
 34
0.0
 15
0.0
 25
0.0
 35
0.0
146
0.0
 13
0.0
 23
0.0
 33
0.0
 16
1.0
 26
0.0
 36
0.0
 17
0.0
 27
1.0
 37
0.0
 76
     0
330
1F
331
EA
1001
ACAD_PSEXT
1000
None
1000
None
1000
Not applicable
1000
The layout will not be plotted unless a new plotter configuration name is selected.
1070
     0
  0
MATERIAL
  5
ED
102
{ACAD_XDICTIONARY
360
415
102
}
102
{ACAD_REACTORS
330
6A
102
}
330
6A
100
AcDbMaterial
  1
ByBlock
  0
MATERIAL
  5
EC
102
{ACAD_XDICTIONARY
360
413
102
}
102
{ACAD_REACTORS
330
6A
102
}
330
6A
100
AcDbMaterial
  1
ByLayer
  0
MATERIAL
  5
EE
102
{ACAD_XDICTIONARY
360
173
102
}
102
{ACAD_REACTORS
330
6A
102
}
330
6A
100
AcDbMaterial
  1
Global
 43
0.0007999999797903
 43
0.0
 43
0.0
 43
0.0
 43
0.0
 43
0.0007999999797903
 43
0.0
 43
0.0
 43
0.0
 43
0.0
 43
1.0
 43
0.0
 43
0.0
 43
0.0
 43
0.0
 43
1.0
 49
0.0007999999797903
 49
0.0
 49
0.0
 49
0.0
 49
0.0
 49
0.0007999999797903
 49
0.0
 49
0.0
 49
0.0
 49
0.0
 49
1.0
 49
0.0
 49
0.0
 49
0.0
 49
0.0
 49
1.0
142
0.0007999999797903
142
0.0
142
0.0
142
0.0
142
0.0
142
0.0007999999797903
142
0.0
142
0.0
142
0.0
142
0.0
142
1.0
142
0.0
142
0.0
142
0.0
142
0.0
142
1.0
144
0.0007999999797903
144
0.0
144
0.0
144
0.0
144
0.0
144
0.0007999999797903
144
0.0
144
0.0
144
0.0
144
0.0
144
1.0
144
0.0
144
0.0
144
0.0
144
0.0
144
1.0
1001
ACAD
1070
    -1
1070
     3
1070
     0
1000

1071
        0
1070
     0
  0
MLEADERSTYLE
  5
13B
102
{ACAD_REACTORS
330
12D
102
}
330
12D
100
AcDbMLeaderStyle
170
     2
171
     1
172
     0
 90
        2
 40
0.0
 41
0.0
173
     1
 91
-1056964608
340
14
 92
       -2
290
     1
 42
2.0
291
     1
 43
8.0
  3
Standard
 44
4.0
300

342
11
174
     1
178
     1
175
     1
176
     0
 93
-1056964608
 45
4.0
292
     0
297
     0
 46
4.0
 94
-1056964608
 47
1.0
 49
1.0
140
1.0
293
     1
141
0.0
294
     1
177
     0
142
1.0
295
     0
296
     1
143
3.75
1001
ACAD_MLEADERVER
1070
     2
  0
MLEADERSTYLE
  5
12E
102
{ACAD_REACTORS
330
12D
102
}
330
12D
100
AcDbMLeaderStyle
170
     2
171
     1
172
     0
 90
        2
 40
0.0
 41
0.0
173
     1
 91
-1056964608
340
14
 92
       -2
290
     1
 42
2.0
291
     1
 43
8.0
  3
Standard
 44
4.0
300

342
11
174
     1
178
     1
175
     1
176
     0
 93
-1056964608
 45
4.0
292
     0
297
     0
 46
4.0
 94
-1056964608
 47
1.0
 49
1.0
140
1.0
293
     1
141
0.0
294
     1
177
     0
142
1.0
295
     0
296
     0
143
3.75
1001
ACAD_MLEADERVER
1070
     2
  0
MLINESTYLE
  5
18
102
{ACAD_REACTORS
330
17
102
}
330
17
100
AcDbMlineStyle
  2
STANDARD
 70
     0
  3

 62
   256
 51
90.0
 52
90.0
 71
     2
 49
0.5
 62
   256
  6
BYLAYER
 49
-0.5
 62
   256
  6
BYLAYER
  0
ACDBPLACEHOLDER
  5
F
102
{ACAD_REACTORS
330
E
102
}
330
E
  0
SCALE
  5
10D
102
{ACAD_REACTORS
330
10C
102
}
330
10C
100
AcDbScale
 70
     0
300
1:1
140
1.0
141
1.0
290
     1
  0
SCALE
  5
188
102
{ACAD_REACTORS
330
10C
102
}
330
10C
100
AcDbScale
 70
     0
300
1:2
140
1.0
141
2.0
290
     0
  0
SCALE
  5
189
102
{ACAD_REACTORS
330
10C
102
}
330
10C
100
AcDbScale
 70
     0
300
1:4
140
1.0
141
4.0
290
     0
  0
SCALE
  5
18A
102
{ACAD_REACTORS
330
10C
102
}
330
10C
100
AcDbScale
 70
     0
300
1:5
140
1.0
141
5.0
290
     0
  0
SCALE
  5
18B
102
{ACAD_REACTORS
330
10C
102
}
330
10C
100
AcDbScale
 70
     0
300
1:8
140
1.0
141
8.0
290
     0
  0
SCALE
  5
18C
102
{ACAD_REACTORS
330
10C
102
}
330
10C
100
AcDbScale
 70
     0
300
1:10
140
1.0
141
10.0
290
     0
  0
SCALE
  5
18D
102
{ACAD_REACTORS
330
10C
102
}
330
10C
100
AcDbScale
 70
     0
300
1:16
140
1.0
141
16.0
290
     0
  0
SCALE
  5
18E
102
{ACAD_REACTORS
330
10C
102
}
330
10C
100
AcDbScale
 70
     0
300
1:20
140
1.0
141
20.0
290
     0
  0
SCALE
  5
18F
102
{ACAD_REACTORS
330
10C
102
}
330
10C
100
AcDbScale
 70
     0
300
1:30
140
1.0
141
30.0
290
     0
  0
SCALE
  5
190
102
{ACAD_REACTORS
330
10C
102
}
330
10C
100
AcDbScale
 70
     0
300
1:40
140
1.0
141
40.0
290
     0
  0
SCALE
  5
191
102
{ACAD_REACTORS
330
10C
102
}
330
10C
100
AcDbScale
 70
     0
300
1:50
140
1.0
141
50.0
290
     0
  0
SCALE
  5
192
102
{ACAD_REACTORS
330
10C
102
}
330
10C
100
AcDbScale
 70
     0
300
1:100
140
1.0
141
100.0
290
     0
  0
SCALE
  5
193
102
{ACAD_REACTORS
330
10C
102
}
330
10C
100
AcDbScale
 70
     0
300
2:1
140
2.0
141
1.0
290
     0
  0
SCALE
  5
194
102
{ACAD_REACTORS
330
10C
102
}
330
10C
100
AcDbScale
 70
     0
300
4:1
140
4.0
141
1.0
290
     0
  0
SCALE
  5
195
102
{ACAD_REACTORS
330
10C
102
}
330
10C
100
AcDbScale
 70
     0
300
8:1
140
8.0
141
1.0
290
     0
  0
SCALE
  5
196
102
{ACAD_REACTORS
330
10C
102
}
330
10C
100
AcDbScale
 70
     0
300
10:1
140
10.0
141
1.0
290
     0
  0
SCALE
  5
197
102
{ACAD_REACTORS
330
10C
102
}
330
10C
100
AcDbScale
 70
     0
300
100:1
140
100.0
141
1.0
290
     0
  0
SCALE
  5
198
102
{ACAD_REACTORS
330
10C
102
}
330
10C
100
AcDbScale
 70
     0
300
1/128" = 1'-0"
140
0.0078125
141
12.0
290
     0
  0
SCALE
  5
199
102
{ACAD_REACTORS
330
10C
102
}
330
10C
100
AcDbScale
 70
     0
300
1/64" = 1'-0"
140
0.015625
141
12.0
290
     0
  0
SCALE
  5
19A
102
{ACAD_REACTORS
330
10C
102
}
330
10C
100
AcDbScale
 70
     0
300
1/32" = 1'-0"
140
0.03125
141
12.0
290
     0
  0
SCALE
  5
19B
102
{ACAD_REACTORS
330
10C
102
}
330
10C
100
AcDbScale
 70
     0
300
1/16" = 1'-0"
140
0.0625
141
12.0
290
     0
  0
SCALE
  5
19C
102
{ACAD_REACTORS
330
10C
102
}
330
10C
100
AcDbScale
 70
     0
300
3/32" = 1'-0"
140
0.09375
141
12.0
290
     0
  0
SCALE
  5
19D
102
{ACAD_REACTORS
330
10C
102
}
330
10C
100
AcDbScale
 70
     0
300
1/8" = 1'-0"
140
0.125
141
12.0
290
     0
  0
SCALE
  5
19E
102
{ACAD_REACTORS
330
10C
102
}
330
10C
100
AcDbScale
 70
     0
300
3/16" = 1'-0"
140
0.1875
141
12.0
290
     0
  0
SCALE
  5
19F
102
{ACAD_REACTORS
330
10C
102
}
330
10C
100
AcDbScale
 70
     0
300
1/4" = 1'-0"
140
0.25
141
12.0
290
     0
  0
SCALE
  5
1A0
102
{ACAD_REACTORS
330
10C
102
}
330
10C
100
AcDbScale
 70
     0
300
3/8" = 1'-0"
140
0.375
141
12.0
290
     0
  0
SCALE
  5
1A1
102
{ACAD_REACTORS
330
10C
102
}
330
10C
100
AcDbScale
 70
     0
300
1/2" = 1'-0"
140
0.5
141
12.0
290
     0
  0
SCALE
  5
1A2
102
{ACAD_REACTORS
330
10C
102
}
330
10C
100
AcDbScale
 70
     0
300
3/4" = 1'-0"
140
0.75
141
12.0
290
     0
  0
SCALE
  5
1A3
102
{ACAD_REACTORS
330
10C
102
}
330
10C
100
AcDbScale
 70
     0
300
1" = 1'-0"
140
1.0
141
12.0
290
     0
  0
SCALE
  5
1A4
102
{ACAD_REACTORS
330
10C
102
}
330
10C
100
AcDbScale
 70
     0
300
1-1/2" = 1'-0"
140
1.5
141
12.0
290
     0
  0
SCALE
  5
1A5
102
{ACAD_REACTORS
330
10C
102
}
330
10C
100
AcDbScale
 70
     0
300
3" = 1'-0"
140
3.0
141
12.0
290
     0
  0
SCALE
  5
1A6
102
{ACAD_REACTORS
330
10C
102
}
330
10C
100
AcDbScale
 70
     0
300
6" = 1'-0"
140
6.0
141
12.0
290
     0
  0
SCALE
  5
1A7
102
{ACAD_REACTORS
330
10C
102
}
330
10C
100
AcDbScale
 70
     0
300
1'-0" = 1'-0"
140
12.0
141
12.0
290
     0
  0
TABLESTYLE
  5
7F
102
{ACAD_XDICTIONARY
360
162
102
}
102
{ACAD_REACTORS
330
7E
102
}
330
7E
100
AcDbTableStyle
  3
Standard
 70
     0
 71
     0
 40
1.5
 41
1.5
280
     0
281
     0
  7
Standard
140
4.5
170
     2
 62
     0
 63
     7
283
     0
274
    -2
284
     1
 64
     0
275
    -2
285
     1
 65
     0
276
    -2
286
     1
 66
     0
277
    -2
287
     1
 67
     0
278
    -2
288
     1
 68
     0
279
    -2
289
     1
 69
     0
  7
Standard
140
6.0
170
     5
 62
     0
 63
     7
283
     0
274
    -2
284
     1
 64
     0
275
    -2
285
     1
 65
     0
276
    -2
286
     1
 66
     0
277
    -2
287
     1
 67
     0
278
    -2
288
     1
 68
     0
279
    -2
289
     1
 69
     0
  7
Standard
140
4.5
170
     5
 62
     0
 63
     7
283
     0
274
    -2
284
     1
 64
     0
275
    -2
285
     1
 65
     0
276
    -2
286
     1
 66
     0
277
    -2
287
     1
 67
     0
278
    -2
288
     1
 68
     0
279
    -2
289
     1
 69
     0
  0
VISUALSTYLE
  5
F5
102
{ACAD_REACTORS
330
EF
102
}
330
EF
100
AcDbVisualStyle
  2
2dWireframe
 70
     4
 71
     0
 72
     2
 73
     1
 90
        0
 40
-0.6
 41
-30.0
 62
     5
 63
     7
 74
     1
 91
        4
 64
     7
 65
   257
 75
     1
175
     1
 42
1.0
 92
        0
 66
   257
 43
1.0
 76
     1
 77
     6
 78
     2
 67
     7
 79
     5
170
     0
171
     0
290
     0
174
     0
 93
        1
 44
0.0
173
     0
291
     0
 45
0.0
1001
ACAD
1000
AcDbSavedByObjectVersion
1070
     0
  0
VISUALSTYLE
  5
F7
102
{ACAD_REACTORS
330
EF
102
}
330
EF
100
AcDbVisualStyle
  2
3D Hidden
 70
     6
 71
     1
 72
     2
 73
     2
 90
        0
 40
-0.6
 41
-30.0
 62
     5
 63
     7
 74
     2
 91
        2
 64
     7
 65
   257
 75
     2
175
     1
 42
40.0
 92
        0
 66
   257
 43
1.0
 76
     1
 77
     6
 78
     2
 67
     7
 79
     3
170
     0
171
     0
290
     0
174
     0
 93
        1
 44
0.0
173
     0
291
     0
 45
0.0
1001
ACAD
1000
AcDbSavedByObjectVersion
1070
     0
  0
VISUALSTYLE
  5
F6
102
{ACAD_REACTORS
330
EF
102
}
330
EF
100
AcDbVisualStyle
  2
3dWireframe
 70
     5
 71
     0
 72
     2
 73
     1
 90
        0
 40
-0.6
 41
-30.0
 62
     5
 63
     7
 74
     1
 91
        4
 64
     7
 65
   257
 75
     1
175
     1
 42
1.0
 92
        0
 66
   257
 43
1.0
 76
     1
 77
     6
 78
     2
 67
     7
 79
     5
170
     0
171
     0
290
     0
174
     0
 93
        1
 44
0.0
173
     0
291
     0
 45
0.0
1001
ACAD
1000
AcDbSavedByObjectVersion
1070
     0
  0
VISUALSTYLE
  5
F4
102
{ACAD_REACTORS
330
EF
102
}
330
EF
100
AcDbVisualStyle
  2
Basic
 70
     7
 71
     1
 72
     0
 73
     1
 90
        0
 40
-0.6
 41
-30.0
 62
     5
 63
     7
 74
     0
 91
        4
 64
     7
 65
   257
 75
     1
175
     1
 42
1.0
 92
        8
 66
     7
 43
1.0
 76
     1
 77
     6
 78
     2
 67
     7
 79
     5
170
     0
171
     0
290
     0
174
     0
 93
        1
 44
0.0
173
     0
291
     1
 45
0.0
1001
ACAD
1000
AcDbSavedByObjectVersion
1070
     0
  0
VISUALSTYLE
  5
FB
102
{ACAD_REACTORS
330
EF
102
}
330
EF
100
AcDbVisualStyle
  2
Brighten
 70
    12
 71
     2
 72
     2
 73
     1
 90
        0
 40
-0.6
 41
-30.0
 62
     5
 63
     7
 74
     1
 91
        4
 64
     7
 65
   257
 75
     1
175
     1
 42
1.0
 92
        8
 66
     7
 43
1.0
 76
     1
 77
     6
 78
     2
 67
     7
 79
     5
170
     0
171
     0
290
     0
174
     0
 93
        1
 44
50.0
173
     0
291
     1
 45
0.0
1001
ACAD
1000
AcDbSavedByObjectVersion
1070
     0
  0
VISUALSTYLE
  5
FF
102
{ACAD_REACTORS
330
EF
102
}
330
EF
100
AcDbVisualStyle
  2
ColorChange
 70
    16
 71
     2
 72
     2
 73
     3
 90
        0
 40
-0.6
 41
-30.0
 62
     5
 63
     8
 74
     1
 91
        4
 64
     7
 65
   257
 75
     1
175
     1
 42
1.0
 92
        8
 66
     8
 43
1.0
 76
     1
 77
     6
 78
     2
 67
     7
 79
     5
170
     0
171
     0
290
     0
174
     0
 93
        1
 44
0.0
173
     0
291
     1
 45
0.0
1001
ACAD
1000
AcDbSavedByObjectVersion
1070
     0
  0
VISUALSTYLE
  5
F8
102
{ACAD_REACTORS
330
EF
102
}
330
EF
100
AcDbVisualStyle
  2
Conceptual
 70
     9
 71
     3
 72
     2
 73
     1
 90
        0
 40
-0.6
 41
-30.0
 62
     5
 63
     7
 74
     2
 91
        2
 64
     7
 65
   257
 75
     1
175
     1
 42
40.0
 92
        8
 66
     7
 43
1.0
 76
     1
 77
     6
 78
     2
 67
     7
 79
     3
170
     0
171
     0
290
     0
174
     0
 93
        1
 44
0.0
173
     0
291
     0
 45
0.0
1001
ACAD
1000
AcDbSavedByObjectVersion
1070
     0
  0
VISUALSTYLE
  5
FA
102
{ACAD_REACTORS
330
EF
102
}
330
EF
100
AcDbVisualStyle
  2
Dim
 70
    11
 71
     2
 72
     2
 73
     1
 90
        0
 40
-0.6
 41
-30.0
 62
     5
 63
     7
 74
     1
 91
        4
 64
     7
 65
   257
 75
     1
175
     1
 42
1.0
 92
        8
 66
     7
 43
1.0
 76
     1
 77
     6
 78
     2
 67
     7
 79
     5
170
     0
171
     0
290
     0
174
     0
 93
        1
 44
-50.0
173
     0
291
     1
 45
0.0
1001
ACAD
1000
AcDbSavedByObjectVersion
1070
     0
  0
VISUALSTYLE
  5
FE
102
{ACAD_REACTORS
330
EF
102
}
330
EF
100
AcDbVisualStyle
  2
Facepattern
 70
    15
 71
     2
 72
     2
 73
     1
 90
        0
 40
-0.6
 41
-30.0
 62
     5
 63
     7
 74
     1
 91
        4
 64
     7
 65
   257
 75
     1
175
     1
 42
1.0
 92
        8
 66
     7
 43
1.0
 76
     1
 77
     6
 78
     2
 67
     7
 79
     5
170
     0
171
     0
290
     0
174
     0
 93
        1
 44
0.0
173
     0
291
     1
 45
0.0
1001
ACAD
1000
AcDbSavedByObjectVersion
1070
     0
  0
VISUALSTYLE
  5
F0
102
{ACAD_REACTORS
330
EF
102
}
330
EF
100
AcDbVisualStyle
  2
Flat
 70
     0
 71
     2
 72
     1
 73
     1
 90
        2
 40
-0.6
 41
30.0
 62
     5
 63
     7
 74
     0
 91
        4
 64
     7
 65
   257
 75
     1
175
     1
 42
1.0
 92
        8
 66
     7
 43
1.0
 76
     1
 77
     6
 78
     2
 67
     7
 79
     5
170
     0
171
     0
290
     0
174
     0
 93
        1
 44
0.0
173
     0
291
     1
 45
0.0
1001
ACAD
1000
AcDbSavedByObjectVersion
1070
     0
  0
VISUALSTYLE
  5
F1
102
{ACAD_REACTORS
330
EF
102
}
330
EF
100
AcDbVisualStyle
  2
FlatWithEdges
 70
     1
 71
     2
 72
     1
 73
     1
 90
        2
 40
-0.6
 41
30.0
 62
     5
 63
     7
 74
     1
 91
        4
 64
     7
 65
   257
 75
     1
175
     1
 42
1.0
 92
        0
 66
   257
 43
1.0
 76
     1
 77
     6
 78
     2
 67
     7
 79
     5
170
     0
171
     0
290
     0
174
     0
 93
        1
 44
0.0
173
     0
291
     1
 45
0.0
1001
ACAD
1000
AcDbSavedByObjectVersion
1070
     0
  0
VISUALSTYLE
  5
F2
102
{ACAD_REACTORS
330
EF
102
}
330
EF
100
AcDbVisualStyle
  2
Gouraud
 70
     2
 71
     2
 72
     2
 73
     1
 90
        2
 40
-0.6
 41
30.0
 62
     5
 63
     7
 74
     0
 91
        4
 64
     7
 65
   257
 75
     1
175
     1
 42
1.0
 92
        0
 66
     7
 43
1.0
 76
     1
 77
     6
 78
     2
 67
     7
 79
     5
170
     0
171
     0
290
     0
174
     0
 93
        1
 44
0.0
173
     0
291
     1
 45
0.0
1001
ACAD
1000
AcDbSavedByObjectVersion
1070
     0
  0
VISUALSTYLE
  5
F3
102
{ACAD_REACTORS
330
EF
102
}
330
EF
100
AcDbVisualStyle
  2
GouraudWithEdges
 70
     3
 71
     2
 72
     2
 73
     1
 90
        2
 40
-0.6
 41
30.0
 62
     5
 63
     7
 74
     1
 91
        4
 64
     7
 65
   257
 75
     1
175
     1
 42
1.0
 92
        0
 66
   257
 43
1.0
 76
     1
 77
     6
 78
     2
 67
     7
 79
     5
170
     0
171
     0
290
     0
174
     0
 93
        1
 44
0.0
173
     0
291
     1
 45
0.0
1001
ACAD
1000
AcDbSavedByObjectVersion
1070
     0
  0
VISUALSTYLE
  5
FD
102
{ACAD_REACTORS
330
EF
102
}
330
EF
100
AcDbVisualStyle
  2
Linepattern
 70
    14
 71
     2
 72
     2
 73
     1
 90
        0
 40
-0.6
 41
-30.0
 62
     5
 63
     7
 74
     1
 91
        4
 64
     7
 65
   257
 75
     7
175
     7
 42
1.0
 92
        8
 66
     7
 43
1.0
 76
     1
 77
     6
 78
     2
 67
     7
 79
     5
170
     0
171
     0
290
     0
174
     0
 93
        1
 44
0.0
173
     0
291
     1
 45
0.0
1001
ACAD
1000
AcDbSavedByObjectVersion
1070
     0
  0
VISUALSTYLE
  5
F9
102
{ACAD_REACTORS
330
EF
102
}
330
EF
100
AcDbVisualStyle
  2
Realistic
 70
     8
 71
     2
 72
     2
 73
     1
 90
        0
 40
-0.6
 41
-30.0
 62
     5
 63
     7
 74
     1
 91
        0
 64
     7
 65
   257
 75
     1
175
     1
 42
1.0
 92
        8
 66
     8
 43
1.0
 76
     1
 77
     6
 78
     2
 67
     7
 79
     5
170
     0
171
     0
290
     0
174
     0
 93
       13
 44
0.0
173
     0
291
     0
 45
0.0
1001
ACAD
1000
AcDbSavedByObjectVersion
1070
     0
  0
VISUALSTYLE
  5
FC
102
{ACAD_REACTORS
330
EF
102
}
330
EF
100
AcDbVisualStyle
  2
Thicken
 70
    13
 71
     2
 72
     2
 73
     1
 90
        0
 40
-0.6
 41
-30.0
 62
     5
 63
     7
 74
     1
 91
        4
 64
     7
 65
   257
 75
     1
175
     1
 42
1.0
 92
       12
 66
     7
 43
1.0
 76
     1
 77
     6
 78
     2
 67
     7
 79
     5
170
     0
171
     0
290
     0
174
     0
 93
        1
 44
0.0
173
     0
291
     1
 45
0.0
1001
ACAD
1000
AcDbSavedByObjectVersion
1070
     0
  0
DICTIONARYVAR
  5
146
102
{ACAD_REACTORS
330
5E
102
}
330
5E
100
DictionaryVariables
280
     0
  1
1:1
  0
DICTIONARYVAR
  5
145
102
{ACAD_REACTORS
330
5E
102
}
330
5E
100
DictionaryVariables
280
     0
  1
STANDARD
  0
DICTIONARYVAR
  5
84
102
{ACAD_REACTORS
330
5E
102
}
330
5E
100
DictionaryVariables
280
     0
  1
STANDARD
  0
DICTIONARYVAR
  5
5F
102
{ACAD_REACTORS
330
5E
102
}
330
5E
100
DictionaryVariables
280
     0
  1
2
  0
DICTIONARYVAR
  5
63
102
{ACAD_REACTORS
330
5E
102
}
330
5E
100
DictionaryVariables
280
     0
  1
1
  0
DICTIONARYVAR
  5
407
102
{ACAD_REACTORS
330
5E
102
}
330
5E
100
DictionaryVariables
280
     0
  1
0
  0
DICTIONARYVAR
  5
405
102
{ACAD_REACTORS
330
5E
102
}
330
5E
100
DictionaryVariables
280
     0
  1
2
  0
DICTIONARYVAR
  5
404
102
{ACAD_REACTORS
330
5E
102
}
330
5E
100
DictionaryVariables
280
     0
  1
1
  0
DICTIONARYVAR
  5
409
102
{ACAD_REACTORS
330
5E
102
}
330
5E
100
DictionaryVariables
280
     0
  1
80.000000
  0
DICTIONARYVAR
  5
408
102
{ACAD_REACTORS
330
5E
102
}
330
5E
100
DictionaryVariables
280
     0
  1
5.000000
  0
DICTIONARYVAR
  5
406
102
{ACAD_REACTORS
330
5E
102
}
330
5E
100
DictionaryVariables
280
     0
  1
127
  0
DICTIONARY
  5
40F
330
D3
100
AcDbDictionary
280
     1
281
     1
  3
ACAD_XREC_ROUNDTRIP
360
410
  0
DICTIONARY
  5
411
330
D7
100
AcDbDictionary
280
     1
281
     1
  3
ACAD_XREC_ROUNDTRIP
360
412
  0
DICTIONARY
  5
40C
330
22
100
AcDbDictionary
280
     1
281
     1
  3
ACAD_XREC_ROUNDTRIP
360
40D
  0
DICTIONARY
  5
415
330
ED
100
AcDbDictionary
280
     1
281
     1
  3
ACAD_XREC_ROUNDTRIP
360
416
  0
DICTIONARY
  5
413
330
EC
100
AcDbDictionary
280
     1
281
     1
  3
ACAD_XREC_ROUNDTRIP
360
414
  0
DICTIONARY
  5
173
330
EE
100
AcDbDictionary
280
     1
281
     1
  3
ACAD_XREC_ROUNDTRIP
360
417
  3
BUMPTILE
360
175
  3
DIFFUSETILE
360
174
  3
OPACITYTILE
360
176
  3
REFLECTIONTILE
360
177
  0
DICTIONARY
  5
162
330
7F
100
AcDbDictionary
280
     1
281
     1
  3
ACAD_ROUNDTRIP_2008_TABLESTYLE_CELLSTYLEMAP
360
40A
  3
ACAD_XREC_ROUNDTRIP
360
40E
  0
XRECORD
  5
410
102
{ACAD_REACTORS
330
40F
102
}
330
40F
100
AcDbXrecord
280
     1
102
SHADEPLOT
 70
     0
102
SHADEPLOTRESLEVEL
 70
     2
102
SHADEPLOTCUSTOMDPI
 70
   300
  0
XRECORD
  5
412
102
{ACAD_REACTORS
330
411
102
}
330
411
100
AcDbXrecord
280
     1
102
SHADEPLOT
 70
     0
102
SHADEPLOTRESLEVEL
 70
     2
102
SHADEPLOTCUSTOMDPI
 70
   300
  0
XRECORD
  5
40D
102
{ACAD_REACTORS
330
40C
102
}
330
40C
100
AcDbXrecord
280
     1
102
SHADEPLOT
 70
     0
102
SHADEPLOTRESLEVEL
 70
     2
102
SHADEPLOTCUSTOMDPI
 70
   300
  0
XRECORD
  5
416
102
{ACAD_REACTORS
330
415
102
}
330
415
100
AcDbXrecord
280
     1
102
MATERIAL
148
0.0
149
0.0
149
0.0
 93
        0
 94
       63
282
     0
 72
     1
 77
     1
171
     1
175
     1
179
     1
273
     0
  0
XRECORD
  5
414
102
{ACAD_REACTORS
330
413
102
}
330
413
100
AcDbXrecord
280
     1
102
MATERIAL
148
0.0
149
0.0
149
0.0
 93
        0
 94
       63
282
     0
 72
     1
 77
     1
171
     1
175
     1
179
     1
273
     0
  0
XRECORD
  5
417
102
{ACAD_REACTORS
330
173
102
}
330
173
100
AcDbXrecord
280
     1
102
MATERIAL
148
0.0
149
0.0
149
0.0
 93
        0
 94
       63
282
     0
 72
     1
 77
     1
171
     1
175
     1
179
     1
273
     0
  0
XRECORD
  5
175
102
{ACAD_REACTORS
330
173
102
}
330
173
100
AcDbXrecord
280
     1
270
     1
271
     1
  0
XRECORD
  5
174
102
{ACAD_REACTORS
330
173
102
}
330
173
100
AcDbXrecord
280
     1
270
     1
271
     1
  0
XRECORD
  5
176
102
{ACAD_REACTORS
330
173
102
}
330
173
100
AcDbXrecord
280
     1
270
     1
271
     1
  0
XRECORD
  5
177
102
{ACAD_REACTORS
330
173
102
}
330
173
100
AcDbXrecord
280
     1
270
     1
271
     1
  0
CELLSTYLEMAP
  5
40A
102
{ACAD_REACTORS
330
162
102
}
330
162
100
AcDbCellStyleMap
 90
        3
300
CELLSTYLE
  1
TABLEFORMAT_BEGIN
 90
        5
170
     1
 91
        0
 92
    32768
 62
   257
 93
        1
300
CONTENTFORMAT
  1
CONTENTFORMAT_BEGIN
 90
        0
 91
        0
 92
      512
 93
        0
300

 40
0.0
140
1.0
 94
        5
 62
     0
340
11
144
6.0
309
CONTENTFORMAT_END
171
     1
301
MARGIN
  1
CELLMARGIN_BEGIN
 40
1.5
 40
1.5
 40
1.5
 40
1.5
 40
4.5
 40
4.5
309
CELLMARGIN_END
 94
        6
 95
        1
302
GRIDFORMAT
  1
GRIDFORMAT_BEGIN
 90
        0
 91
        1
 62
     0
 92
       -2
340
14
 93
        0
 40
1.125
309
GRIDFORMAT_END
 95
        2
302
GRIDFORMAT
  1
GRIDFORMAT_BEGIN
 90
        0
 91
        1
 62
     0
 92
       -2
340
14
 93
        0
 40
1.125
309
GRIDFORMAT_END
 95
        4
302
GRIDFORMAT
  1
GRIDFORMAT_BEGIN
 90
        0
 91
        1
 62
     0
 92
       -2
340
14
 93
        0
 40
1.125
309
GRIDFORMAT_END
 95
        8
302
GRIDFORMAT
  1
GRIDFORMAT_BEGIN
 90
        0
 91
        1
 62
     0
 92
       -2
340
14
 93
        0
 40
1.125
309
GRIDFORMAT_END
 95
       16
302
GRIDFORMAT
  1
GRIDFORMAT_BEGIN
 90
        0
 91
        1
 62
     0
 92
       -2
340
14
 93
        0
 40
1.125
309
GRIDFORMAT_END
 95
       32
302
GRIDFORMAT
  1
GRIDFORMAT_BEGIN
 90
        0
 91
        1
 62
     0
 92
       -2
340
14
 93
        0
 40
1.125
309
GRIDFORMAT_END
309
TABLEFORMAT_END
  1
CELLSTYLE_BEGIN
 90
        1
 91
        1
300
_TITLE
309
CELLSTYLE_END
300
CELLSTYLE
  1
TABLEFORMAT_BEGIN
 90
        5
170
     1
 91
        0
 92
        0
 62
   257
 93
        1
300
CONTENTFORMAT
  1
CONTENTFORMAT_BEGIN
 90
        0
 91
        0
 92
      512
 93
        0
300

 40
0.0
140
1.0
 94
        5
 62
     0
340
11
144
4.5
309
CONTENTFORMAT_END
171
     1
301
MARGIN
  1
CELLMARGIN_BEGIN
 40
1.5
 40
1.5
 40
1.5
 40
1.5
 40
4.5
 40
4.5
309
CELLMARGIN_END
 94
        6
 95
        1
302
GRIDFORMAT
  1
GRIDFORMAT_BEGIN
 90
        0
 91
        1
 62
     0
 92
       -2
340
14
 93
        0
 40
1.125
309
GRIDFORMAT_END
 95
        2
302
GRIDFORMAT
  1
GRIDFORMAT_BEGIN
 90
        0
 91
        1
 62
     0
 92
       -2
340
14
 93
        0
 40
1.125
309
GRIDFORMAT_END
 95
        4
302
GRIDFORMAT
  1
GRIDFORMAT_BEGIN
 90
        0
 91
        1
 62
     0
 92
       -2
340
14
 93
        0
 40
1.125
309
GRIDFORMAT_END
 95
        8
302
GRIDFORMAT
  1
GRIDFORMAT_BEGIN
 90
        0
 91
        1
 62
     0
 92
       -2
340
14
 93
        0
 40
1.125
309
GRIDFORMAT_END
 95
       16
302
GRIDFORMAT
  1
GRIDFORMAT_BEGIN
 90
        0
 91
        1
 62
     0
 92
       -2
340
14
 93
        0
 40
1.125
309
GRIDFORMAT_END
 95
       32
302
GRIDFORMAT
  1
GRIDFORMAT_BEGIN
 90
        0
 91
        1
 62
     0
 92
       -2
340
14
 93
        0
 40
1.125
309
GRIDFORMAT_END
309
TABLEFORMAT_END
  1
CELLSTYLE_BEGIN
 90
        2
 91
        1
300
_HEADER
309
CELLSTYLE_END
300
CELLSTYLE
  1
TABLEFORMAT_BEGIN
 90
        5
170
     1
 91
        0
 92
        0
 62
   257
 93
        1
300
CONTENTFORMAT
  1
CONTENTFORMAT_BEGIN
 90
        0
 91
        0
 92
      512
 93
        0
300

 40
0.0
140
1.0
 94
        2
 62
     0
340
11
144
4.5
309
CONTENTFORMAT_END
171
     1
301
MARGIN
  1
CELLMARGIN_BEGIN
 40
1.5
 40
1.5
 40
1.5
 40
1.5
 40
4.5
 40
4.5
309
CELLMARGIN_END
 94
        6
 95
        1
302
GRIDFORMAT
  1
GRIDFORMAT_BEGIN
 90
        0
 91
        1
 62
     0
 92
       -2
340
14
 93
        0
 40
1.125
309
GRIDFORMAT_END
 95
        2
302
GRIDFORMAT
  1
GRIDFORMAT_BEGIN
 90
        0
 91
        1
 62
     0
 92
       -2
340
14
 93
        0
 40
1.125
309
GRIDFORMAT_END
 95
        4
302
GRIDFORMAT
  1
GRIDFORMAT_BEGIN
 90
        0
 91
        1
 62
     0
 92
       -2
340
14
 93
        0
 40
1.125
309
GRIDFORMAT_END
 95
        8
302
GRIDFORMAT
  1
GRIDFORMAT_BEGIN
 90
        0
 91
        1
 62
     0
 92
       -2
340
14
 93
        0
 40
1.125
309
GRIDFORMAT_END
 95
       16
302
GRIDFORMAT
  1
GRIDFORMAT_BEGIN
 90
        0
 91
        1
 62
     0
 92
       -2
340
14
 93
        0
 40
1.125
309
GRIDFORMAT_END
 95
       32
302
GRIDFORMAT
  1
GRIDFORMAT_BEGIN
 90
        0
 91
        1
 62
     0
 92
       -2
340
14
 93
        0
 40
1.125
309
GRIDFORMAT_END
309
TABLEFORMAT_END
  1
CELLSTYLE_BEGIN
 90
        3
 91
        2
300
_DATA
309
CELLSTYLE_END
  0
XRECORD
  5
40E
102
{ACAD_REACTORS
330
162
102
}
330
162
100
AcDbXrecord
280
     1
102
ACAD_ROUNDTRIP_PRE2007_TABLESTYLE
 90
      512
 91
        0
  1

 92
      512
 93
        0
  2

 94
      512
 95
        0
  3

  0
ENDSEC
  0
EOF
