  0
SECTION
  2
HEADER
  9
$ACADVER
  1
AC1015
  9
$ACADMAINTVER
 70
    20
  9
$DWGCODEPAGE
  3
ANSI_1254
  9
$INSBASE
 10
0.0
 20
0.0
 30
0.0
  9
$EXTMIN
 10
1788.942561784207
 20
830.2427972200346
 30
0.0
  9
$EXTMAX
 10
2035.928814592612
 20
892.8572143682858
 30
0.0
  9
$LIMMIN
 10
0.0
 20
0.0
  9
$LIMMAX
 10
420.0
 20
297.0
  9
$ORTHOMODE
 70
     0
  9
$REGENMODE
 70
     1
  9
$FILLMODE
 70
     1
  9
$QTEXTMODE
 70
     0
  9
$MIRRTEXT
 70
     0
  9
$LTSCALE
 40
1.0
  9
$ATTMODE
 70
     1
  9
$TEXTSIZE
 40
2.5
  9
$TRACEWID
 40
1.0
  9
$TEXTSTYLE
  7
Standard
  9
$CLAYER
  8
0
  9
$CELTYPE
  6
ByLayer
  9
$CECOLOR
 62
   256
  9
$CELTSCALE
 40
1.0
  9
$DISPSILH
 70
     0
  9
$DIMSCALE
 40
1.0
  9
$DIMASZ
 40
2.5
  9
$DIMEXO
 40
0.625
  9
$DIMDLI
 40
3.75
  9
$DIMRND
 40
0.0
  9
$DIMDLE
 40
0.0
  9
$DIMEXE
 40
1.25
  9
$DIMTP
 40
0.0
  9
$DIMTM
 40
0.0
  9
$DIMTXT
 40
2.5
  9
$DIMCEN
 40
2.5
  9
$DIMTSZ
 40
0.0
  9
$DIMTOL
 70
     0
  9
$DIMLIM
 70
     0
  9
$DIMTIH
 70
     0
  9
$DIMTOH
 70
     0
  9
$DIMSE1
 70
     0
  9
$DIMSE2
 70
     0
  9
$DIMTAD
 70
     1
  9
$DIMZIN
 70
     8
  9
$DIMBLK
  1

  9
$DIMASO
 70
     1
  9
$DIMSHO
 70
     1
  9
$DIMPOST
  1

  9
$DIMAPOST
  1

  9
$DIMALT
 70
     0
  9
$DIMALTD
 70
     3
  9
$DIMALTF
 40
0.03937007874016
  9
$DIMLFAC
 40
1.0
  9
$DIMTOFL
 70
     1
  9
$DIMTVP
 40
0.0
  9
$DIMTIX
 70
     0
  9
$DIMSOXD
 70
     0
  9
$DIMSAH
 70
     0
  9
$DIMBLK1
  1

  9
$DIMBLK2
  1

  9
$DIMSTYLE
  2
ISO-25
  9
$DIMCLRD
 70
     0
  9
$DIMCLRE
 70
     0
  9
$DIMCLRT
 70
     0
  9
$DIMTFAC
 40
1.0
  9
$DIMGAP
 40
0.625
  9
$DIMJUST
 70
     0
  9
$DIMSD1
 70
     0
  9
$DIMSD2
 70
     0
  9
$DIMTOLJ
 70
     0
  9
$DIMTZIN
 70
     8
  9
$DIMALTZ
 70
     0
  9
$DIMALTTZ
 70
     0
  9
$DIMUPT
 70
     0
  9
$DIMDEC
 70
     2
  9
$DIMTDEC
 70
     2
  9
$DIMALTU
 70
     2
  9
$DIMALTTD
 70
     3
  9
$DIMTXSTY
  7
Standard
  9
$DIMAUNIT
 70
     0
  9
$DIMADEC
 70
     0
  9
$DIMALTRND
 40
0.0
  9
$DIMAZIN
 70
     0
  9
$DIMDSEP
 70
    44
  9
$DIMATFIT
 70
     3
  9
$DIMFRAC
 70
     0
  9
$DIMLDRBLK
  1

  9
$DIMLUNIT
 70
     2
  9
$DIMLWD
 70
    -2
  9
$DIMLWE
 70
    -2
  9
$DIMTMOVE
 70
     0
  9
$LUNITS
 70
     2
  9
$LUPREC
 70
     4
  9
$SKETCHINC
 40
1.0
  9
$FILLETRAD
 40
0.0
  9
$AUNITS
 70
     0
  9
$AUPREC
 70
     0
  9
$MENU
  1
.
  9
$ELEVATION
 40
0.0
  9
$PELEVATION
 40
0.0
  9
$THICKNESS
 40
0.0
  9
$LIMCHECK
 70
     0
  9
$CHAMFERA
 40
0.0
  9
$CHAMFERB
 40
0.0
  9
$CHAMFERC
 40
0.0
  9
$CHAMFERD
 40
0.0
  9
$SKPOLY
 70
     0
  9
$TDCREATE
 40
2458451.644727118
  9
$TDUCREATE
 40
2458451.519727118
  9
$TDUPDATE
 40
2458956.461837222
  9
$TDUUPDATE
 40
2458956.336837223
  9
$TDINDWG
 40
0.0005262847
  9
$TDUSRTIMER
 40
0.0005262847
  9
$USRTIMER
 70
     1
  9
$ANGBASE
 50
0.0
  9
$ANGDIR
 70
     0
  9
$PDMODE
 70
     0
  9
$PDSIZE
 40
0.0
  9
$PLINEWID
 40
0.0
  9
$SPLFRAME
 70
     0
  9
$SPLINETYPE
 70
     6
  9
$SPLINESEGS
 70
     8
  9
$HANDSEED
  5
A5A
  9
$SURFTAB1
 70
     6
  9
$SURFTAB2
 70
     6
  9
$SURFTYPE
 70
     6
  9
$SURFU
 70
     6
  9
$SURFV
 70
     6
  9
$UCSBASE
  2

  9
$UCSNAME
  2

  9
$UCSORG
 10
0.0
 20
0.0
 30
0.0
  9
$UCSXDIR
 10
1.0
 20
0.0
 30
0.0
  9
$UCSYDIR
 10
0.0
 20
1.0
 30
0.0
  9
$UCSORTHOREF
  2

  9
$UCSORTHOVIEW
 70
     0
  9
$UCSORGTOP
 10
0.0
 20
0.0
 30
0.0
  9
$UCSORGBOTTOM
 10
0.0
 20
0.0
 30
0.0
  9
$UCSORGLEFT
 10
0.0
 20
0.0
 30
0.0
  9
$UCSORGRIGHT
 10
0.0
 20
0.0
 30
0.0
  9
$UCSORGFRONT
 10
0.0
 20
0.0
 30
0.0
  9
$UCSORGBACK
 10
0.0
 20
0.0
 30
0.0
  9
$PUCSBASE
  2

  9
$PUCSNAME
  2

  9
$PUCSORG
 10
0.0
 20
0.0
 30
0.0
  9
$PUCSXDIR
 10
1.0
 20
0.0
 30
0.0
  9
$PUCSYDIR
 10
0.0
 20
1.0
 30
0.0
  9
$PUCSORTHOREF
  2

  9
$PUCSORTHOVIEW
 70
     0
  9
$PUCSORGTOP
 10
0.0
 20
0.0
 30
0.0
  9
$PUCSORGBOTTOM
 10
0.0
 20
0.0
 30
0.0
  9
$PUCSORGLEFT
 10
0.0
 20
0.0
 30
0.0
  9
$PUCSORGRIGHT
 10
0.0
 20
0.0
 30
0.0
  9
$PUCSORGFRONT
 10
0.0
 20
0.0
 30
0.0
  9
$PUCSORGBACK
 10
0.0
 20
0.0
 30
0.0
  9
$USERI1
 70
     0
  9
$USERI2
 70
     0
  9
$USERI3
 70
     0
  9
$USERI4
 70
     0
  9
$USERI5
 70
     0
  9
$USERR1
 40
0.0
  9
$USERR2
 40
0.0
  9
$USERR3
 40
0.0
  9
$USERR4
 40
0.0
  9
$USERR5
 40
0.0
  9
$WORLDVIEW
 70
     1
  9
$SHADEDGE
 70
     3
  9
$SHADEDIF
 70
    70
  9
$TILEMODE
 70
     1
  9
$MAXACTVP
 70
    64
  9
$PINSBASE
 10
0.0
 20
0.0
 30
0.0
  9
$PLIMCHECK
 70
     0
  9
$PEXTMIN
 10
0.0
 20
0.0
 30
0.0
  9
$PEXTMAX
 10
0.0
 20
0.0
 30
0.0
  9
$PLIMMIN
 10
0.0
 20
0.0
  9
$PLIMMAX
 10
12.0
 20
9.0
  9
$UNITMODE
 70
     0
  9
$VISRETAIN
 70
     1
  9
$PLINEGEN
 70
     0
  9
$PSLTSCALE
 70
     1
  9
$TREEDEPTH
 70
  3020
  9
$CMLSTYLE
  2
Standard
  9
$CMLJUST
 70
     0
  9
$CMLSCALE
 40
20.0
  9
$PROXYGRAPHICS
 70
     1
  9
$MEASUREMENT
 70
     1
  9
$CELWEIGHT
370
    -1
  9
$ENDCAPS
280
     0
  9
$JOINSTYLE
280
     0
  9
$LWDISPLAY
290
     0
  9
$INSUNITS
 70
     4
  9
$HYPERLINKBASE
  1

  9
$STYLESHEET
  1

  9
$XEDIT
290
     1
  9
$CEPSNTYPE
380
     0
  9
$PSTYLEMODE
290
     1
  9
$FINGERPRINTGUID
  2
{34ED49E4-C0EC-4C23-B238-09E61D9FACAC}
  9
$VERSIONGUID
  2
{10573FC8-D8D6-4953-B1A5-F0CCAB3C912C}
  9
$EXTNAMES
290
     1
  9
$PSVPSCALE
 40
0.0
  9
$OLESTARTUP
290
     0
  0
ENDSEC
  0
SECTION
  2
CLASSES
  0
CLASS
  1
ACDBDICTIONARYWDFLT
  2
AcDbDictionaryWithDefault
  3
ObjectDBX Classes
 90
        0
280
     0
281
     0
  0
CLASS
  1
ACDBPLACEHOLDER
  2
AcDbPlaceHolder
  3
ObjectDBX Classes
 90
        0
280
     0
281
     0
  0
CLASS
  1
LAYOUT
  2
AcDbLayout
  3
ObjectDBX Classes
 90
        0
280
     0
281
     0
  0
CLASS
  1
DICTIONARYVAR
  2
AcDbDictionaryVar
  3
ObjectDBX Classes
 90
        0
280
     0
281
     0
  0
CLASS
  1
TABLESTYLE
  2
AcDbTableStyle
  3
ObjectDBX Classes
 90
     4095
280
     0
281
     0
  0
CLASS
  1
MATERIAL
  2
AcDbMaterial
  3
ObjectDBX Classes
 90
     1153
280
     0
281
     0
  0
CLASS
  1
VISUALSTYLE
  2
AcDbVisualStyle
  3
ObjectDBX Classes
 90
     4095
280
     0
281
     0
  0
CLASS
  1
SCALE
  2
AcDbScale
  3
ObjectDBX Classes
 90
     1153
280
     0
281
     0
  0
CLASS
  1
MLEADERSTYLE
  2
AcDbMLeaderStyle
  3
ACDB_MLEADERSTYLE_CLASS
 90
     4095
280
     0
281
     0
  0
CLASS
  1
CELLSTYLEMAP
  2
AcDbCellStyleMap
  3
ObjectDBX Classes
 90
     1152
280
     0
281
     0
  0
ENDSEC
  0
SECTION
  2
TABLES
  0
TABLE
  2
VPORT
  5
8
330
0
100
AcDbSymbolTable
 70
     1
  0
VPORT
  5
EA
330
8
100
AcDbSymbolTableRecord
100
AcDbViewportTableRecord
  2
*Active
 70
     0
 10
0.0
 20
0.0
 11
1.0
 21
1.0
 12
1893.246339744668
 22
901.9636215878612
 13
0.0
 23
0.0
 14
10.0
 24
10.0
 15
10.0
 25
10.0
 16
0.0
 26
0.0
 36
1.0
 17
0.0
 27
0.0
 37
0.0
 40
292.7778096146523
 41
1.903110047846889
 42
50.0
 43
0.0
 44
0.0
 50
0.0
 51
0.0
 71
     0
 72
  1000
 73
     1
 74
     3
 75
     0
 76
     0
 77
     0
 78
     0
281
     0
 65
     1
110
0.0
120
0.0
130
0.0
111
1.0
121
0.0
131
0.0
112
0.0
122
1.0
132
0.0
 79
     0
146
0.0
  0
ENDTAB
  0
TABLE
  2
LTYPE
  5
5
330
0
100
AcDbSymbolTable
 70
     1
  0
LTYPE
  5
14
330
5
100
AcDbSymbolTableRecord
100
AcDbLinetypeTableRecord
  2
ByBlock
 70
     0
  3

 72
    65
 73
     0
 40
0.0
  0
LTYPE
  5
15
330
5
100
AcDbSymbolTableRecord
100
AcDbLinetypeTableRecord
  2
ByLayer
 70
     0
  3

 72
    65
 73
     0
 40
0.0
  0
LTYPE
  5
16
330
5
100
AcDbSymbolTableRecord
100
AcDbLinetypeTableRecord
  2
Continuous
 70
     0
  3
Solid line
 72
    65
 73
     0
 40
0.0
  0
ENDTAB
  0
TABLE
  2
LAYER
  5
2
330
0
100
AcDbSymbolTable
 70
     1
  0
LAYER
  5
10
102
{ACAD_XDICTIONARY
360
13C
102
}
330
2
100
AcDbSymbolTableRecord
100
AcDbLayerTableRecord
  2
0
 70
     0
 62
     7
  6
Continuous
370
    -3
390
F
  0
ENDTAB
  0
TABLE
  2
STYLE
  5
3
330
0
100
AcDbSymbolTable
 70
     2
  0
STYLE
  5
11
330
3
100
AcDbSymbolTableRecord
100
AcDbTextStyleTableRecord
  2
Standard
 70
     0
 40
0.0
 41
1.0
 50
0.0
 71
     0
 42
2.5
  3
txt
  4

  0
STYLE
  5
132
330
3
100
AcDbSymbolTableRecord
100
AcDbTextStyleTableRecord
  2
Annotative
 70
     0
 40
0.0
 41
1.0
 50
0.0
 71
     0
 42
2.5
  3
txt.shx
  4

1001
AcadAnnotative
1000
AnnotativeData
1002
{
1070
     1
1070
     1
1002
}
  0
ENDTAB
  0
TABLE
  2
VIEW
  5
6
330
0
100
AcDbSymbolTable
 70
     0
  0
ENDTAB
  0
TABLE
  2
UCS
  5
7
330
0
100
AcDbSymbolTable
 70
     0
  0
ENDTAB
  0
TABLE
  2
APPID
  5
9
330
0
100
AcDbSymbolTable
 70
     7
  0
APPID
  5
12
330
9
100
AcDbSymbolTableRecord
100
AcDbRegAppTableRecord
  2
ACAD
 70
     0
  0
APPID
  5
9E
330
9
100
AcDbSymbolTableRecord
100
AcDbRegAppTableRecord
  2
ACAD_PSEXT
 70
     0
  0
APPID
  5
133
330
9
100
AcDbSymbolTableRecord
100
AcDbRegAppTableRecord
  2
AcadAnnoPO
 70
     0
  0
APPID
  5
134
330
9
100
AcDbSymbolTableRecord
100
AcDbRegAppTableRecord
  2
AcadAnnotative
 70
     0
  0
APPID
  5
135
330
9
100
AcDbSymbolTableRecord
100
AcDbRegAppTableRecord
  2
ACAD_DSTYLE_DIMJAG
 70
     0
  0
APPID
  5
136
330
9
100
AcDbSymbolTableRecord
100
AcDbRegAppTableRecord
  2
ACAD_DSTYLE_DIMTALN
 70
     0
  0
APPID
  5
165
330
9
100
AcDbSymbolTableRecord
100
AcDbRegAppTableRecord
  2
ACAD_MLEADERVER
 70
     0
  0
ENDTAB
  0
TABLE
  2
DIMSTYLE
  5
A
330
0
100
AcDbSymbolTable
 70
     2
100
AcDbDimStyleTable
 71
     2
340
27
340
137
  0
DIMSTYLE
105
27
330
A
100
AcDbSymbolTableRecord
100
AcDbDimStyleTableRecord
  2
ISO-25
 70
     0
 41
2.5
 42
0.625
 43
3.75
 44
1.25
 73
     0
 74
     0
 77
     1
 78
     8
140
2.5
141
2.5
143
0.03937007874016
147
0.625
171
     3
172
     1
271
     2
272
     2
274
     3
278
    44
283
     0
284
     8
340
11
  0
DIMSTYLE
105
137
330
A
100
AcDbSymbolTableRecord
100
AcDbDimStyleTableRecord
  2
Annotative
 70
     0
 40
0.0
 41
2.5
 42
0.625
 43
3.75
 44
1.25
 73
     0
 74
     0
 77
     1
 78
     8
140
2.5
141
2.5
143
0.03937007874016
147
0.625
171
     3
172
     1
271
     2
272
     2
274
     3
278
    44
283
     0
284
     8
340
11
1001
AcadAnnotative
1000
AnnotativeData
1002
{
1070
     1
1070
     1
1002
}
1001
ACAD_DSTYLE_DIMJAG
1070
   388
1040
1.5
1001
ACAD_DSTYLE_DIMTALN
1070
   392
1070
     0
  0
ENDTAB
  0
TABLE
  2
BLOCK_RECORD
  5
1
330
0
100
AcDbSymbolTable
 70
     5
  0
BLOCK_RECORD
  5
1F
330
1
100
AcDbSymbolTableRecord
100
AcDbBlockTableRecord
  2
*Model_Space
340
22
  0
BLOCK_RECORD
  5
D2
330
1
100
AcDbSymbolTableRecord
100
AcDbBlockTableRecord
  2
*Paper_Space
340
D3
  0
BLOCK_RECORD
  5
D6
330
1
100
AcDbSymbolTableRecord
100
AcDbBlockTableRecord
  2
*Paper_Space0
340
D7
  0
BLOCK_RECORD
  5
75B
330
1
100
AcDbSymbolTableRecord
100
AcDbBlockTableRecord
  2
1
340
0
310
2800000020000000200000000100080000000000000400000000000000000000000000000000000000000000000080000080000000808000800000008000800080800000C0C0C000C0DCC000F0CAA6000020400000206000002080000020A0000020C0000020E00000400000004020000040400000406000004080000040A0
310
000040C0000040E00000600000006020000060400000606000006080000060A0000060C0000060E00000800000008020000080400000806000008080000080A0000080C0000080E00000A0000000A0200000A0400000A0600000A0800000A0A00000A0C00000A0E00000C0000000C0200000C0400000C0600000C0800000C0
310
A00000C0C00000C0E00000E0000000E0200000E0400000E0600000E0800000E0A00000E0C00000E0E00040000000400020004000400040006000400080004000A0004000C0004000E00040200000402020004020400040206000402080004020A0004020C0004020E000404000004040200040404000404060004040800040
310
40A0004040C0004040E00040600000406020004060400040606000406080004060A0004060C0004060E00040800000408020004080400040806000408080004080A0004080C0004080E00040A0000040A0200040A0400040A0600040A0800040A0A00040A0C00040A0E00040C0000040C0200040C0400040C0600040C08000
310
40C0A00040C0C00040C0E00040E0000040E0200040E0400040E0600040E0800040E0A00040E0C00040E0E00080000000800020008000400080006000800080008000A0008000C0008000E00080200000802020008020400080206000802080008020A0008020C0008020E00080400000804020008040400080406000804080
310
008040A0008040C0008040E00080600000806020008060400080606000806080008060A0008060C0008060E00080800000808020008080400080806000808080008080A0008080C0008080E00080A0000080A0200080A0400080A0600080A0800080A0A00080A0C00080A0E00080C0000080C0200080C0400080C0600080C0
310
800080C0A00080C0C00080C0E00080E0000080E0200080E0400080E0600080E0800080E0A00080E0C00080E0E000C0000000C0002000C0004000C0006000C0008000C000A000C000C000C000E000C0200000C0202000C0204000C0206000C0208000C020A000C020C000C020E000C0400000C0402000C0404000C0406000C0
310
408000C040A000C040C000C040E000C0600000C0602000C0604000C0606000C0608000C060A000C060C000C060E000C0800000C0802000C0804000C0806000C0808000C080A000C080C000C080E000C0A00000C0A02000C0A04000C0A06000C0A08000C0A0A000C0A0C000C0A0E000C0C00000C0C02000C0C04000C0C06000
310
C0C08000C0C0A000F0FBFF00A4A0A000808080000000FF0000FF000000FFFF00FF000000FF00FF00FFFF0000FFFFFF0000000000000000000000000000000000000000000000000000000000000000000000000000000000000000000000000000000000000000000000000000000000000000000000000000000000000000
310
00000000000000000000000000000000000000000000000000000000000000000000000000000000000000000000000000000000000000000000000000000000000000000000000000000000000000000000000000000000000000000000000000000000000000000000000000000000000000000000000000000000000000
310
00000000000000000000000000000000000000000000000000000000000000000000000000000000000000000000000000000000000000000000000000000000000000000000000000000000000000000000000000000000000000000000000000000000000000000000000000000000000000000000000000000000000000
310
00000000000000000000000000000000000000000000000000000000000000000000000000000000000000000000000000000000000000000000000000000000000000000000000000000000000000000000000000FFFFFFFFFF00FFFF00FFFFFFFFFFFFFFFFFFFF00FFFF00FFFFFFFFFF00000000FF00FFFFFF00FFFF00FF
310
FFFF00FFFF00FFFFFF00FFFF00FFFFFF00FF00000000FF00FFFFFF00FFFF00FFFFFF00FFFF00FFFFFF00FFFF00FFFFFF00FF000000FFFFFFFFFFFFFFFFFFFFFFFFFFFFFFFFFFFFFFFFFFFFFFFFFFFFFFFFFFFF0000FFFFFFFFFFFFFFFFFFFFFFFFFFFFFFFFFFFFFFFFFFFFFFFFFFFFFFFFFFFF000000FFFFFFFFFF00FFFFFF
310
FFFFFFFFFFFFFFFFFFFFFFFFFF00FFFFFFFFFF000000000000000000000000000000000000000000000000000000000000000000000000000000000000000000000000000000000000000000000000000000000000000000000000000000000000000000000000000000000000000000000000000000000000000000000000
310
00000000000000000000000000000000000000000000000000000000000000000000000000000000000000000000000000000000000000000000000000000000000000000000000000000000000000000000000000000000000000000000000000000000000000000000000000000000000000000000000000000000000000
310
00000000000000000000000000000000000000000000000000000000000000000000000000000000000000000000000000000000000000000000000000000000000000000000000000000000000000000000000000000000000000000000000000000000000000000000000000000000000000000000000000000000000000
310
0000000000000000000000000000000000000000000000000000000000000000000000000000000000000000000000000000000000000000
102
{BLKREFS
331
85C
102
}
1001
ACAD
1000
DesignCenter Data
1002
{
1070
     1
1070
     4
1002
}
  0
BLOCK_RECORD
  5
85D
330
1
100
AcDbSymbolTableRecord
100
AcDbBlockTableRecord
  2
2
340
0
310
2800000020000000200000000100080000000000000400000000000000000000000000000000000000000000000080000080000000808000800000008000800080800000C0C0C000C0DCC000F0CAA6000020400000206000002080000020A0000020C0000020E00000400000004020000040400000406000004080000040A0
310
000040C0000040E00000600000006020000060400000606000006080000060A0000060C0000060E00000800000008020000080400000806000008080000080A0000080C0000080E00000A0000000A0200000A0400000A0600000A0800000A0A00000A0C00000A0E00000C0000000C0200000C0400000C0600000C0800000C0
310
A00000C0C00000C0E00000E0000000E0200000E0400000E0600000E0800000E0A00000E0C00000E0E00040000000400020004000400040006000400080004000A0004000C0004000E00040200000402020004020400040206000402080004020A0004020C0004020E000404000004040200040404000404060004040800040
310
40A0004040C0004040E00040600000406020004060400040606000406080004060A0004060C0004060E00040800000408020004080400040806000408080004080A0004080C0004080E00040A0000040A0200040A0400040A0600040A0800040A0A00040A0C00040A0E00040C0000040C0200040C0400040C0600040C08000
310
40C0A00040C0C00040C0E00040E0000040E0200040E0400040E0600040E0800040E0A00040E0C00040E0E00080000000800020008000400080006000800080008000A0008000C0008000E00080200000802020008020400080206000802080008020A0008020C0008020E00080400000804020008040400080406000804080
310
008040A0008040C0008040E00080600000806020008060400080606000806080008060A0008060C0008060E00080800000808020008080400080806000808080008080A0008080C0008080E00080A0000080A0200080A0400080A0600080A0800080A0A00080A0C00080A0E00080C0000080C0200080C0400080C0600080C0
310
800080C0A00080C0C00080C0E00080E0000080E0200080E0400080E0600080E0800080E0A00080E0C00080E0E000C0000000C0002000C0004000C0006000C0008000C000A000C000C000C000E000C0200000C0202000C0204000C0206000C0208000C020A000C020C000C020E000C0400000C0402000C0404000C0406000C0
310
408000C040A000C040C000C040E000C0600000C0602000C0604000C0606000C0608000C060A000C060C000C060E000C0800000C0802000C0804000C0806000C0808000C080A000C080C000C080E000C0A00000C0A02000C0A04000C0A06000C0A08000C0A0A000C0A0C000C0A0E000C0C00000C0C02000C0C04000C0C06000
310
C0C08000C0C0A000F0FBFF00A4A0A000808080000000FF0000FF000000FFFF00FF000000FF00FF00FFFF0000FFFFFF000000000000000000000000000000000000000000000000000000000000000000000000000000000000000000FFFFFFFFFFFFFFFF000000000000000000000000000000000000000000000000FFFFFF
310
FFFFFFFFFF000000000000000000000000000000000000000000000000FF000000000000FF000000000000000000000000000000000000000000000000FF000000000000FF000000000000000000000000000000000000000000000000FF000000000000FF000000000000000000000000000000000000000000000000FF00
310
0000000000FF000000000000000000000000000000000000000000000000FF000000000000FF000000000000000000000000000000000000000000000000FF000000000000FF000000000000000000000000000000000000000000000000FF000000000000FF000000000000000000000000000000000000000000000000FF
310
000000000000FF000000000000000000000000000000000000000000000000FF000000000000FF000000000000000000000000000000000000000000000000FF000000000000FF000000000000000000000000000000000000000000000000FF000000000000FF000000000000000000000000000000000000000000000000
310
FF000000000000FF000000000000000000000000000000000000000000000000FF000000000000FF0000000000000000000000000000000000000000000000FFFFFFFFFFFFFFFFFFFF00000000000000000000000000000000000000000000FF0000000000000000FF00000000000000000000000000000000000000000000
310
FF0000000000000000FF00000000000000000000000000000000000000000000FF0000000000000000FF00000000000000000000000000000000000000000000FF0000000000000000FF00000000000000000000000000000000000000000000FFFFFFFFFFFFFFFFFFFF000000000000000000000000000000000000000000
310
00FFFFFFFFFFFFFFFFFFFF00000000000000000000000000000000000000000000FFA4A4A4A4A4A4A4A4FF00000000000000000000000000000000000000000000FF0000000000000000FF00000000000000000000000000000000000000000000FF0000000000000000FF0000000000000000000000000000000000000000
310
0000FF0000000000000000FF00000000000000000000000000000000000000000000FF0000000000000000FF00000000000000000000000000000000000000000000FF0000000000000000FF00000000000000000000000000000000000000000000FF0000000000000000FF00000000000000000000000000000000000000
310
000000FFFFFFFFFFFFFFFFFFFF00000000000000000000000000000000000000000000000000000000000000000000000000000000000000
102
{BLKREFS
331
87D
102
}
1001
ACAD
1000
DesignCenter Data
1002
{
1070
     1
1070
     4
1002
}
  0
BLOCK_RECORD
  5
87E
330
1
100
AcDbSymbolTableRecord
100
AcDbBlockTableRecord
  2
3
340
0
310
2800000020000000200000000100080000000000000400000000000000000000000000000000000000000000000080000080000000808000800000008000800080800000C0C0C000C0DCC000F0CAA6000020400000206000002080000020A0000020C0000020E00000400000004020000040400000406000004080000040A0
310
000040C0000040E00000600000006020000060400000606000006080000060A0000060C0000060E00000800000008020000080400000806000008080000080A0000080C0000080E00000A0000000A0200000A0400000A0600000A0800000A0A00000A0C00000A0E00000C0000000C0200000C0400000C0600000C0800000C0
310
A00000C0C00000C0E00000E0000000E0200000E0400000E0600000E0800000E0A00000E0C00000E0E00040000000400020004000400040006000400080004000A0004000C0004000E00040200000402020004020400040206000402080004020A0004020C0004020E000404000004040200040404000404060004040800040
310
40A0004040C0004040E00040600000406020004060400040606000406080004060A0004060C0004060E00040800000408020004080400040806000408080004080A0004080C0004080E00040A0000040A0200040A0400040A0600040A0800040A0A00040A0C00040A0E00040C0000040C0200040C0400040C0600040C08000
310
40C0A00040C0C00040C0E00040E0000040E0200040E0400040E0600040E0800040E0A00040E0C00040E0E00080000000800020008000400080006000800080008000A0008000C0008000E00080200000802020008020400080206000802080008020A0008020C0008020E00080400000804020008040400080406000804080
310
008040A0008040C0008040E00080600000806020008060400080606000806080008060A0008060C0008060E00080800000808020008080400080806000808080008080A0008080C0008080E00080A0000080A0200080A0400080A0600080A0800080A0A00080A0C00080A0E00080C0000080C0200080C0400080C0600080C0
310
800080C0A00080C0C00080C0E00080E0000080E0200080E0400080E0600080E0800080E0A00080E0C00080E0E000C0000000C0002000C0004000C0006000C0008000C000A000C000C000C000E000C0200000C0202000C0204000C0206000C0208000C020A000C020C000C020E000C0400000C0402000C0404000C0406000C0
310
408000C040A000C040C000C040E000C0600000C0602000C0604000C0606000C0608000C060A000C060C000C060E000C0800000C0802000C0804000C0806000C0808000C080A000C080C000C080E000C0A00000C0A02000C0A04000C0A06000C0A08000C0A0A000C0A0C000C0A0E000C0C00000C0C02000C0C04000C0C06000
310
C0C08000C0C0A000F0FBFF00A4A0A000808080000000FF0000FF000000FFFF00FF000000FF00FF00FFFF0000FFFFFF0000000000000000000000000000000000000000000000000000000000000000000000000000000000000000000000000000000000000000000000000000000000000000000000000000000000000000
310
00000000000000000000000000000000000000000000000000000000000000000000000000000000000000000000000000000000000000000000000000000000000000000000000000000000000000000000000000000000000000000000000000000000000000000000000000000000000000000000000000000000000000
310
00000000000000000000000000000000000000000000000000000000000000000000000000000000000000000000000000000000000000000000000000000000000000000000000000000000000000000000000000000000000000000000000000000000000000000000000000000000000000000000000000000000000000
310
00000000000000000000000000000000000000000000000000000000000000000000000000000000000000000000000000000000000000000000000000000000000000000000000000000000000000000000000000000000000000000000000000000000000000000000000000000000000000000000000000000000000000
310
000000000000000000000000000000000000000000FFFFFFFFFFFFFFFFFFFFFFFFFFFFFFFFFFFFFFFFFFFFFFFFFFFFFFFFFFFF0000FFFFFFFFFFFFFFFFFFFFFFFFFFFFFFFFFFFFFFFFFFFFFFFFFFFFFFFFFFFF0000000000000000000000000000000000000000000000000000000000000000000000000000000000000000
310
00000000000000000000000000000000000000000000000000000000000000000000000000000000000000000000000000000000000000000000000000000000000000000000000000000000000000000000000000000000000000000000000000000000000000000000000000000000000000000000000000000000000000
310
00000000000000000000000000000000000000000000000000000000000000000000000000000000000000000000000000000000000000000000000000000000000000000000000000000000000000000000000000000000000000000000000000000000000000000000000000000000000000000000000000000000000000
310
00000000000000000000000000000000000000000000000000000000000000000000000000000000000000000000000000000000000000000000000000000000000000000000000000000000000000000000000000000000000000000000000000000000000000000000000000000000000000000000000000000000000000
310
0000000000000000000000000000000000000000000000000000000000000000000000000000000000000000000000000000000000000000
102
{BLKREFS
331
94D
102
}
1001
ACAD
1000
DesignCenter Data
1002
{
1070
     1
1070
     4
1002
}
  0
BLOCK_RECORD
  5
94E
330
1
100
AcDbSymbolTableRecord
100
AcDbBlockTableRecord
  2
4
340
0
310
2800000020000000200000000100080000000000000400000000000000000000000000000000000000000000000080000080000000808000800000008000800080800000C0C0C000C0DCC000F0CAA6000020400000206000002080000020A0000020C0000020E00000400000004020000040400000406000004080000040A0
310
000040C0000040E00000600000006020000060400000606000006080000060A0000060C0000060E00000800000008020000080400000806000008080000080A0000080C0000080E00000A0000000A0200000A0400000A0600000A0800000A0A00000A0C00000A0E00000C0000000C0200000C0400000C0600000C0800000C0
310
A00000C0C00000C0E00000E0000000E0200000E0400000E0600000E0800000E0A00000E0C00000E0E00040000000400020004000400040006000400080004000A0004000C0004000E00040200000402020004020400040206000402080004020A0004020C0004020E000404000004040200040404000404060004040800040
310
40A0004040C0004040E00040600000406020004060400040606000406080004060A0004060C0004060E00040800000408020004080400040806000408080004080A0004080C0004080E00040A0000040A0200040A0400040A0600040A0800040A0A00040A0C00040A0E00040C0000040C0200040C0400040C0600040C08000
310
40C0A00040C0C00040C0E00040E0000040E0200040E0400040E0600040E0800040E0A00040E0C00040E0E00080000000800020008000400080006000800080008000A0008000C0008000E00080200000802020008020400080206000802080008020A0008020C0008020E00080400000804020008040400080406000804080
310
008040A0008040C0008040E00080600000806020008060400080606000806080008060A0008060C0008060E00080800000808020008080400080806000808080008080A0008080C0008080E00080A0000080A0200080A0400080A0600080A0800080A0A00080A0C00080A0E00080C0000080C0200080C0400080C0600080C0
310
800080C0A00080C0C00080C0E00080E0000080E0200080E0400080E0600080E0800080E0A00080E0C00080E0E000C0000000C0002000C0004000C0006000C0008000C000A000C000C000C000E000C0200000C0202000C0204000C0206000C0208000C020A000C020C000C020E000C0400000C0402000C0404000C0406000C0
310
408000C040A000C040C000C040E000C0600000C0602000C0604000C0606000C0608000C060A000C060C000C060E000C0800000C0802000C0804000C0806000C0808000C080A000C080C000C080E000C0A00000C0A02000C0A04000C0A06000C0A08000C0A0A000C0A0C000C0A0E000C0C00000C0C02000C0C04000C0C06000
310
C0C08000C0C0A000F0FBFF00A4A0A000808080000000FF0000FF000000FFFF00FF000000FF00FF00FFFF0000FFFFFF0000000000000000000000000000000000000000000000000000000000000000000000000000000000000000000000000000000000000000000000000000000000000000000000000000000000000000
310
00000000000000000000000000000000000000000000000000000000000000000000000000000000000000000000000000000000000000000000000000000000000000000000000000000000000000000000000000000000000000000000000000000000000000000000000000000000000000000000000000000000000000
310
00000000000000000000000000FFFF000000000000000000000000000000000000000000000000000000FFFF00FFFF000000000000000000000000000000000000000000000000000000FFFFFFFFFF000000000000000000000000000000000000000000000000FFFFFFFF00FFFFFFFFFF0000000000000000000000000000
310
000000000000FFFFFF00FFFFFFFFFFFFFFFF0000000000000000000000000000000000000000FFFFFFFFFFFFFFFFFFFFFF000000000000000000000000000000000000FFFFFFFFFFFFFFFFFF00FFFFFFFF000000000000000000000000000000FFFFFFFF00FFFFFFFFFFFFFFFFFF00000000000000000000000000000000FF
310
FFFF00FFFFFFFFFFFFFFFFFFFFFFFF000000000000000000000000000000FFFFFFFF00FFFFFFFFFFFFFFFFFF00000000000000000000000000000000FFFFFFFFFFFFFFFFFFFFFFFFFFFF000000000000000000000000000000FFFFFFFF00FFFFFFFFFFFFFFFFFFFFFF00000000000000000000000000000000FF00FFFFFFFF
310
FFFFFFFFFFFFFFFF000000000000000000000000000000FFFFFFFF00FFFFFFFFFFFFFFFFFF000000000000000000000000000000000000FF00FFFFFFFFFFFFFFFFFFFF000000000000000000000000000000000000000000FFFFFFFFFFFFFFFFFFFF0000000000000000000000000000000000000000FFFFFFFFFFFFFFFFFF
310
FF00000000000000000000000000000000000000000000FFFFFFFFFFFFFF0000000000000000000000000000000000000000000000000000FFFFFFFFFFFF0000000000000000000000000000000000000000000000000000FFFFFFFF0000000000000000000000000000000000000000000000000000000000000000000000
310
00000000000000000000000000000000000000000000000000000000000000000000000000000000000000000000000000000000000000000000000000000000000000000000000000000000000000000000000000000000000000000000000000000000000000000000000000000000000000000000000000000000000000
310
0000000000000000000000000000000000000000000000000000000000000000000000000000000000000000000000000000000000000000
102
{BLKREFS
331
A3F
102
}
1001
ACAD
1000
DesignCenter Data
1002
{
1070
     1
1070
     4
1002
}
  0
ENDTAB
  0
ENDSEC
  0
SECTION
  2
BLOCKS
  0
BLOCK
  5
20
330
1F
100
AcDbEntity
  8
0
100
AcDbBlockBegin
  2
*Model_Space
 70
     0
 10
0.0
 20
0.0
 30
0.0
  3
*Model_Space
  1

  0
ENDBLK
  5
21
330
1F
100
AcDbEntity
  8
0
100
AcDbBlockEnd
  0
BLOCK
  5
D4
330
D2
100
AcDbEntity
 67
     1
  8
0
100
AcDbBlockBegin
  2
*Paper_Space
 70
     0
 10
0.0
 20
0.0
 30
0.0
  3
*Paper_Space
  1

  0
ENDBLK
  5
D5
330
D2
100
AcDbEntity
 67
     1
  8
0
100
AcDbBlockEnd
  0
BLOCK
  5
D8
330
D6
100
AcDbEntity
 67
     1
  8
0
100
AcDbBlockBegin
  2
*Paper_Space0
 70
     0
 10
0.0
 20
0.0
 30
0.0
  3
*Paper_Space0
  1

  0
ENDBLK
  5
D9
330
D6
100
AcDbEntity
 67
     1
  8
0
100
AcDbBlockEnd
  0
BLOCK
  5
75C
330
75B
100
AcDbEntity
  8
0
100
AcDbBlockBegin
  2
1
 70
     0
 10
0.0
 20
0.0
 30
0.0
  3
1
  1

  0
ARC
  5
75E
330
75B
100
AcDbEntity
  8
0
  6
Continuous
 62
     7
370
    15
100
AcDbCircle
 10
1811.779523622032
 20
880.9440276571192
 30
0.0
 40
0.200000000000017
100
AcDbArc
 50
180.0
 51
270.0
  0
ARC
  5
75F
330
75B
100
AcDbEntity
  8
0
  6
Continuous
 62
     7
370
    15
100
AcDbCircle
 10
1818.229523622032
 20
880.9440276571192
 30
0.0
 40
0.200000000000017
100
AcDbArc
 50
270.0
 51
0.0
  0
LINE
  5
760
330
75B
100
AcDbEntity
  8
0
  6
Continuous
 62
     7
370
    15
100
AcDbLine
 10
1818.429523622032
 20
880.9440276571192
 30
0.0
 11
1818.429523622032
 21
886.1440276571192
 31
0.0
  0
LINE
  5
761
330
75B
100
AcDbEntity
  8
0
  6
Continuous
 62
     7
370
    15
100
AcDbLine
 10
1811.579523622032
 20
886.1440276571192
 30
0.0
 11
1811.579523622032
 21
880.9440276571192
 31
0.0
  0
LINE
  5
762
330
75B
100
AcDbEntity
  8
0
  6
Continuous
 62
     7
370
    15
100
AcDbLine
 10
1830.429523622032
 20
880.9440276571192
 30
0.0
 11
1830.429523622032
 21
886.1440276571192
 31
0.0
  0
LINE
  5
763
330
75B
100
AcDbEntity
  8
0
  6
Continuous
 62
     7
370
    15
100
AcDbLine
 10
1823.579523622032
 20
886.1440276571192
 30
0.0
 11
1823.579523622032
 21
880.9440276571192
 31
0.0
  0
ARC
  5
764
330
75B
100
AcDbEntity
  8
0
  6
Continuous
 62
     7
370
    15
100
AcDbCircle
 10
1823.779523622032
 20
880.9440276571192
 30
0.0
 40
0.200000000000017
100
AcDbArc
 50
180.0
 51
270.0
  0
ARC
  5
765
330
75B
100
AcDbEntity
  8
0
  6
Continuous
 62
     7
370
    15
100
AcDbCircle
 10
1830.229523622032
 20
880.9440276571192
 30
0.0
 40
0.200000000000017
100
AcDbArc
 50
270.0
 51
0.0
  0
LINE
  5
766
330
75B
100
AcDbEntity
  8
0
  6
Continuous
 62
     7
370
    15
100
AcDbLine
 10
1842.429523622032
 20
880.9440276571192
 30
0.0
 11
1842.429523622032
 21
886.1440276571192
 31
0.0
  0
LINE
  5
767
330
75B
100
AcDbEntity
  8
0
  6
Continuous
 62
     7
370
    15
100
AcDbLine
 10
1835.579523622032
 20
886.1440276571192
 30
0.0
 11
1835.579523622032
 21
880.9440276571192
 31
0.0
  0
ARC
  5
768
330
75B
100
AcDbEntity
  8
0
  6
Continuous
 62
     7
370
    15
100
AcDbCircle
 10
1835.779523622032
 20
880.9440276571192
 30
0.0
 40
0.200000000000017
100
AcDbArc
 50
180.0
 51
270.0
  0
ARC
  5
769
330
75B
100
AcDbEntity
  8
0
  6
Continuous
 62
     7
370
    15
100
AcDbCircle
 10
1842.229523622032
 20
880.9440276571192
 30
0.0
 40
0.200000000000017
100
AcDbArc
 50
270.0
 51
0.0
  0
ARC
  5
76A
330
75B
100
AcDbEntity
  8
0
  6
Continuous
 62
     7
370
    15
100
AcDbCircle
 10
1847.779523622032
 20
880.9440276571192
 30
0.0
 40
0.200000000000017
100
AcDbArc
 50
180.0
 51
270.0
  0
ARC
  5
76B
330
75B
100
AcDbEntity
  8
0
  6
Continuous
 62
     7
370
    15
100
AcDbCircle
 10
1854.229523622032
 20
880.9440276571192
 30
0.0
 40
0.200000000000017
100
AcDbArc
 50
270.0
 51
0.0
  0
LINE
  5
76C
330
75B
100
AcDbEntity
  8
0
  6
Continuous
 62
     7
370
    15
100
AcDbLine
 10
1854.429523622032
 20
880.9440276571192
 30
0.0
 11
1854.429523622032
 21
886.1440276571192
 31
0.0
  0
LINE
  5
76D
330
75B
100
AcDbEntity
  8
0
  6
Continuous
 62
     7
370
    15
100
AcDbLine
 10
1847.579523622032
 20
886.1440276571192
 30
0.0
 11
1847.579523622032
 21
880.9440276571192
 31
0.0
  0
ARC
  5
76E
330
75B
100
AcDbEntity
  8
0
  6
Continuous
 62
     7
370
    15
100
AcDbCircle
 10
1859.779523622032
 20
880.9440276571192
 30
0.0
 40
0.200000000000017
100
AcDbArc
 50
180.0
 51
270.0
  0
ARC
  5
76F
330
75B
100
AcDbEntity
  8
0
  6
Continuous
 62
     7
370
    15
100
AcDbCircle
 10
1866.229523622032
 20
880.9440276571192
 30
0.0
 40
0.200000000000017
100
AcDbArc
 50
270.0
 51
0.0
  0
LINE
  5
770
330
75B
100
AcDbEntity
  8
0
  6
Continuous
 62
     7
370
    15
100
AcDbLine
 10
1866.429523622032
 20
880.9440276571192
 30
0.0
 11
1866.429523622032
 21
886.1440276571192
 31
0.0
  0
LINE
  5
771
330
75B
100
AcDbEntity
  8
0
  6
Continuous
 62
     7
370
    15
100
AcDbLine
 10
1859.579523622032
 20
886.1440276571192
 30
0.0
 11
1859.579523622032
 21
880.9440276571192
 31
0.0
  0
ARC
  5
772
330
75B
100
AcDbEntity
  8
0
  6
Continuous
 62
     7
370
    15
100
AcDbCircle
 10
1871.779523622032
 20
880.9440276571192
 30
0.0
 40
0.200000000000017
100
AcDbArc
 50
180.0
 51
270.0
  0
ARC
  5
773
330
75B
100
AcDbEntity
  8
0
  6
Continuous
 62
     7
370
    15
100
AcDbCircle
 10
1878.229523622032
 20
880.9440276571192
 30
0.0
 40
0.200000000000017
100
AcDbArc
 50
270.0
 51
0.0
  0
LINE
  5
774
330
75B
100
AcDbEntity
  8
0
  6
Continuous
 62
     7
370
    15
100
AcDbLine
 10
1878.429523622032
 20
880.9440276571192
 30
0.0
 11
1878.429523622032
 21
886.1440276571192
 31
0.0
  0
LINE
  5
775
330
75B
100
AcDbEntity
  8
0
  6
Continuous
 62
     7
370
    15
100
AcDbLine
 10
1871.579523622031
 20
886.1440276571192
 30
0.0
 11
1871.579523622031
 21
880.9440276571192
 31
0.0
  0
ARC
  5
776
330
75B
100
AcDbEntity
  8
0
  6
Continuous
 62
     7
370
    15
100
AcDbCircle
 10
1883.779523622032
 20
880.9440276571192
 30
0.0
 40
0.200000000000017
100
AcDbArc
 50
180.0
 51
270.0
  0
ARC
  5
777
330
75B
100
AcDbEntity
  8
0
  6
Continuous
 62
     7
370
    15
100
AcDbCircle
 10
1890.229523622032
 20
880.9440276571192
 30
0.0
 40
0.200000000000017
100
AcDbArc
 50
270.0
 51
0.0
  0
LINE
  5
778
330
75B
100
AcDbEntity
  8
0
  6
Continuous
 62
     7
370
    15
100
AcDbLine
 10
1890.429523622032
 20
880.9440276571192
 30
0.0
 11
1890.429523622032
 21
886.1440276571192
 31
0.0
  0
LINE
  5
779
330
75B
100
AcDbEntity
  8
0
  6
Continuous
 62
     7
370
    15
100
AcDbLine
 10
1883.579523622032
 20
886.1440276571192
 30
0.0
 11
1883.579523622032
 21
880.9440276571192
 31
0.0
  0
LINE
  5
77A
330
75B
100
AcDbEntity
  8
0
  6
Continuous
 62
     7
370
    15
100
AcDbLine
 10
1902.429523622032
 20
880.9440276571192
 30
0.0
 11
1902.429523622032
 21
886.1440276571192
 31
0.0
  0
LINE
  5
77B
330
75B
100
AcDbEntity
  8
0
  6
Continuous
 62
     7
370
    15
100
AcDbLine
 10
1895.579523622032
 20
886.1440276571192
 30
0.0
 11
1895.579523622032
 21
880.9440276571192
 31
0.0
  0
ARC
  5
77C
330
75B
100
AcDbEntity
  8
0
  6
Continuous
 62
     7
370
    15
100
AcDbCircle
 10
1895.779523622032
 20
880.9440276571192
 30
0.0
 40
0.200000000000017
100
AcDbArc
 50
180.0
 51
270.0
  0
ARC
  5
77D
330
75B
100
AcDbEntity
  8
0
  6
Continuous
 62
     7
370
    15
100
AcDbCircle
 10
1902.229523622032
 20
880.9440276571192
 30
0.0
 40
0.200000000000017
100
AcDbArc
 50
270.0
 51
0.0
  0
LINE
  5
77E
330
75B
100
AcDbEntity
  8
0
  6
Continuous
 62
     7
370
    15
100
AcDbLine
 10
1914.429523622032
 20
880.9440276571192
 30
0.0
 11
1914.429523622032
 21
886.1440276571192
 31
0.0
  0
LINE
  5
77F
330
75B
100
AcDbEntity
  8
0
  6
Continuous
 62
     7
370
    15
100
AcDbLine
 10
1907.579523622032
 20
886.1440276571192
 30
0.0
 11
1907.579523622032
 21
880.9440276571192
 31
0.0
  0
ARC
  5
780
330
75B
100
AcDbEntity
  8
0
  6
Continuous
 62
     7
370
    15
100
AcDbCircle
 10
1907.779523622032
 20
880.9440276571192
 30
0.0
 40
0.200000000000017
100
AcDbArc
 50
180.0
 51
270.0
  0
ARC
  5
781
330
75B
100
AcDbEntity
  8
0
  6
Continuous
 62
     7
370
    15
100
AcDbCircle
 10
1914.229523622031
 20
880.9440276571192
 30
0.0
 40
0.200000000000017
100
AcDbArc
 50
270.0
 51
0.0
  0
LINE
  5
782
330
75B
100
AcDbEntity
  8
0
  6
Continuous
 62
     7
370
    15
100
AcDbLine
 10
1926.429523622032
 20
880.9440276571192
 30
0.0
 11
1926.429523622032
 21
886.1440276571192
 31
0.0
  0
LINE
  5
783
330
75B
100
AcDbEntity
  8
0
  6
Continuous
 62
     7
370
    15
100
AcDbLine
 10
1919.579523622031
 20
886.1440276571192
 30
0.0
 11
1919.579523622031
 21
880.9440276571192
 31
0.0
  0
ARC
  5
784
330
75B
100
AcDbEntity
  8
0
  6
Continuous
 62
     7
370
    15
100
AcDbCircle
 10
1919.779523622032
 20
880.9440276571192
 30
0.0
 40
0.200000000000017
100
AcDbArc
 50
180.0
 51
270.0
  0
ARC
  5
785
330
75B
100
AcDbEntity
  8
0
  6
Continuous
 62
     7
370
    15
100
AcDbCircle
 10
1926.229523622032
 20
880.9440276571192
 30
0.0
 40
0.200000000000017
100
AcDbArc
 50
270.0
 51
0.0
  0
LINE
  5
786
330
75B
100
AcDbEntity
  8
0
  6
Continuous
 62
     7
370
    15
100
AcDbLine
 10
1811.942846015531
 20
865.1440276570388
 30
0.0
 11
1812.142846015406
 21
864.9440276571633
 31
0.0
  0
LINE
  5
787
330
75B
100
AcDbEntity
  8
0
  6
Continuous
 62
     7
370
    15
100
AcDbLine
 10
1817.742846015479
 20
864.9440276571633
 30
0.0
 11
1817.942846015354
 21
865.1440276570388
 31
0.0
  0
LINE
  5
788
330
75B
100
AcDbEntity
  8
0
  6
Continuous
 62
     7
370
    15
100
AcDbLine
 10
1817.942846015442
 20
865.1440276570388
 30
0.0
 11
1817.942846015442
 21
875.844027657042
 31
0.0
  0
LINE
  5
789
330
75B
100
AcDbEntity
  8
0
  6
Continuous
 62
     7
370
    15
100
AcDbLine
 10
1811.942846015442
 20
875.844027657042
 30
0.0
 11
1811.942846015442
 21
865.1440276570388
 31
0.0
  0
LINE
  5
78A
330
75B
100
AcDbEntity
  8
0
  6
Continuous
 62
     7
370
    15
100
AcDbLine
 10
1818.004523622031
 20
879.8440276571193
 30
0.0
 11
1818.004523622031
 21
880.7440276571194
 31
0.0
  0
LINE
  5
78B
330
75B
100
AcDbEntity
  8
0
  6
Continuous
 62
     7
370
    15
100
AcDbLine
 10
1812.004523622032
 20
880.7440276571194
 30
0.0
 11
1812.004523622032
 21
879.8440276571193
 31
0.0
  0
LINE
  5
78C
330
75B
100
AcDbEntity
  8
0
  6
Continuous
 62
     7
370
    15
100
AcDbLine
 10
1823.942846015531
 20
865.1440276570388
 30
0.0
 11
1824.142846015406
 21
864.9440276571633
 31
0.0
  0
LINE
  5
78D
330
75B
100
AcDbEntity
  8
0
  6
Continuous
 62
     7
370
    15
100
AcDbLine
 10
1829.742846015479
 20
864.9440276571633
 30
0.0
 11
1829.942846015354
 21
865.1440276570388
 31
0.0
  0
LINE
  5
78E
330
75B
100
AcDbEntity
  8
0
  6
Continuous
 62
     7
370
    15
100
AcDbLine
 10
1829.942846015443
 20
865.1440276570388
 30
0.0
 11
1829.942846015443
 21
875.844027657042
 31
0.0
  0
LINE
  5
78F
330
75B
100
AcDbEntity
  8
0
  6
Continuous
 62
     7
370
    15
100
AcDbLine
 10
1823.942846015443
 20
875.844027657042
 30
0.0
 11
1823.942846015443
 21
865.1440276570388
 31
0.0
  0
LINE
  5
790
330
75B
100
AcDbEntity
  8
0
  6
Continuous
 62
     7
370
    15
100
AcDbLine
 10
1830.004523622031
 20
879.8440276571193
 30
0.0
 11
1830.004523622031
 21
880.7440276571194
 31
0.0
  0
LINE
  5
791
330
75B
100
AcDbEntity
  8
0
  6
Continuous
 62
     7
370
    15
100
AcDbLine
 10
1824.004523622032
 20
880.7440276571194
 30
0.0
 11
1824.004523622032
 21
879.8440276571193
 31
0.0
  0
LINE
  5
792
330
75B
100
AcDbEntity
  8
0
  6
Continuous
 62
     7
370
    15
100
AcDbLine
 10
1842.004523622032
 20
879.8440276571193
 30
0.0
 11
1842.004523622032
 21
880.7440276571194
 31
0.0
  0
LINE
  5
793
330
75B
100
AcDbEntity
  8
0
  6
Continuous
 62
     7
370
    15
100
AcDbLine
 10
1836.004523622031
 20
880.7440276571194
 30
0.0
 11
1836.004523622031
 21
879.8440276571193
 31
0.0
  0
LINE
  5
794
330
75B
100
AcDbEntity
  8
0
  6
Continuous
 62
     7
370
    15
100
AcDbLine
 10
1841.942846015443
 20
865.1440276570388
 30
0.0
 11
1841.942846015443
 21
875.844027657042
 31
0.0
  0
LINE
  5
795
330
75B
100
AcDbEntity
  8
0
  6
Continuous
 62
     7
370
    15
100
AcDbLine
 10
1835.942846015442
 20
875.844027657042
 30
0.0
 11
1835.942846015442
 21
865.1440276570388
 31
0.0
  0
LINE
  5
796
330
75B
100
AcDbEntity
  8
0
  6
Continuous
 62
     7
370
    15
100
AcDbLine
 10
1835.942846015531
 20
865.1440276570388
 30
0.0
 11
1836.142846015406
 21
864.9440276571633
 31
0.0
  0
LINE
  5
797
330
75B
100
AcDbEntity
  8
0
  6
Continuous
 62
     7
370
    15
100
AcDbLine
 10
1841.742846015479
 20
864.9440276571633
 30
0.0
 11
1841.942846015354
 21
865.1440276570388
 31
0.0
  0
LINE
  5
798
330
75B
100
AcDbEntity
  8
0
  6
Continuous
 62
     7
370
    15
100
AcDbLine
 10
1847.942846015531
 20
865.1440276570388
 30
0.0
 11
1848.142846015407
 21
864.9440276571633
 31
0.0
  0
LINE
  5
799
330
75B
100
AcDbEntity
  8
0
  6
Continuous
 62
     7
370
    15
100
AcDbLine
 10
1853.742846015479
 20
864.9440276571633
 30
0.0
 11
1853.942846015354
 21
865.1440276570388
 31
0.0
  0
LINE
  5
79A
330
75B
100
AcDbEntity
  8
0
  6
Continuous
 62
     7
370
    15
100
AcDbLine
 10
1854.004523622032
 20
879.8440276571193
 30
0.0
 11
1854.004523622032
 21
880.7440276571194
 31
0.0
  0
LINE
  5
79B
330
75B
100
AcDbEntity
  8
0
  6
Continuous
 62
     7
370
    15
100
AcDbLine
 10
1848.004523622032
 20
880.7440276571194
 30
0.0
 11
1848.004523622032
 21
879.8440276571193
 31
0.0
  0
LINE
  5
79C
330
75B
100
AcDbEntity
  8
0
  6
Continuous
 62
     7
370
    15
100
AcDbLine
 10
1853.942846015442
 20
865.1440276570388
 30
0.0
 11
1853.942846015442
 21
875.844027657042
 31
0.0
  0
LINE
  5
79D
330
75B
100
AcDbEntity
  8
0
  6
Continuous
 62
     7
370
    15
100
AcDbLine
 10
1847.942846015443
 20
875.844027657042
 30
0.0
 11
1847.942846015443
 21
865.1440276570388
 31
0.0
  0
LINE
  5
79E
330
75B
100
AcDbEntity
  8
0
  6
Continuous
 62
     7
370
    15
100
AcDbLine
 10
1859.942846015531
 20
865.1440276570388
 30
0.0
 11
1860.142846015406
 21
864.9440276571633
 31
0.0
  0
LINE
  5
79F
330
75B
100
AcDbEntity
  8
0
  6
Continuous
 62
     7
370
    15
100
AcDbLine
 10
1865.742846015479
 20
864.9440276571633
 30
0.0
 11
1865.942846015354
 21
865.1440276570388
 31
0.0
  0
LINE
  5
7A0
330
75B
100
AcDbEntity
  8
0
  6
Continuous
 62
     7
370
    15
100
AcDbLine
 10
1866.004523622031
 20
879.8440276571193
 30
0.0
 11
1866.004523622031
 21
880.7440276571194
 31
0.0
  0
LINE
  5
7A1
330
75B
100
AcDbEntity
  8
0
  6
Continuous
 62
     7
370
    15
100
AcDbLine
 10
1860.004523622032
 20
880.7440276571194
 30
0.0
 11
1860.004523622032
 21
879.8440276571193
 31
0.0
  0
LINE
  5
7A2
330
75B
100
AcDbEntity
  8
0
  6
Continuous
 62
     7
370
    15
100
AcDbLine
 10
1865.942846015443
 20
865.1440276570388
 30
0.0
 11
1865.942846015443
 21
875.844027657042
 31
0.0
  0
LINE
  5
7A3
330
75B
100
AcDbEntity
  8
0
  6
Continuous
 62
     7
370
    15
100
AcDbLine
 10
1859.942846015442
 20
875.844027657042
 30
0.0
 11
1859.942846015442
 21
865.1440276570388
 31
0.0
  0
LINE
  5
7A4
330
75B
100
AcDbEntity
  8
0
  6
Continuous
 62
     7
370
    15
100
AcDbLine
 10
1871.942846015531
 20
865.1440276570388
 30
0.0
 11
1872.142846015406
 21
864.9440276571633
 31
0.0
  0
LINE
  5
7A5
330
75B
100
AcDbEntity
  8
0
  6
Continuous
 62
     7
370
    15
100
AcDbLine
 10
1877.742846015479
 20
864.9440276571633
 30
0.0
 11
1877.942846015354
 21
865.1440276570388
 31
0.0
  0
LINE
  5
7A6
330
75B
100
AcDbEntity
  8
0
  6
Continuous
 62
     7
370
    15
100
AcDbLine
 10
1878.004523622031
 20
879.8440276571193
 30
0.0
 11
1878.004523622031
 21
880.7440276571194
 31
0.0
  0
LINE
  5
7A7
330
75B
100
AcDbEntity
  8
0
  6
Continuous
 62
     7
370
    15
100
AcDbLine
 10
1872.004523622032
 20
880.7440276571194
 30
0.0
 11
1872.004523622032
 21
879.8440276571193
 31
0.0
  0
LINE
  5
7A8
330
75B
100
AcDbEntity
  8
0
  6
Continuous
 62
     7
370
    15
100
AcDbLine
 10
1877.942846015443
 20
865.1440276570388
 30
0.0
 11
1877.942846015443
 21
875.844027657042
 31
0.0
  0
LINE
  5
7A9
330
75B
100
AcDbEntity
  8
0
  6
Continuous
 62
     7
370
    15
100
AcDbLine
 10
1871.942846015443
 20
875.844027657042
 30
0.0
 11
1871.942846015443
 21
865.1440276570388
 31
0.0
  0
LINE
  5
7AA
330
75B
100
AcDbEntity
  8
0
  6
Continuous
 62
     7
370
    15
100
AcDbLine
 10
1883.942846015531
 20
865.1440276570388
 30
0.0
 11
1884.142846015407
 21
864.9440276571633
 31
0.0
  0
LINE
  5
7AB
330
75B
100
AcDbEntity
  8
0
  6
Continuous
 62
     7
370
    15
100
AcDbLine
 10
1889.742846015479
 20
864.9440276571633
 30
0.0
 11
1889.942846015354
 21
865.1440276570388
 31
0.0
  0
LINE
  5
7AC
330
75B
100
AcDbEntity
  8
0
  6
Continuous
 62
     7
370
    15
100
AcDbLine
 10
1890.004523622032
 20
879.8440276571193
 30
0.0
 11
1890.004523622032
 21
880.7440276571194
 31
0.0
  0
LINE
  5
7AD
330
75B
100
AcDbEntity
  8
0
  6
Continuous
 62
     7
370
    15
100
AcDbLine
 10
1884.004523622031
 20
880.7440276571194
 30
0.0
 11
1884.004523622031
 21
879.8440276571193
 31
0.0
  0
LINE
  5
7AE
330
75B
100
AcDbEntity
  8
0
  6
Continuous
 62
     7
370
    15
100
AcDbLine
 10
1889.942846015443
 20
865.1440276570388
 30
0.0
 11
1889.942846015443
 21
875.844027657042
 31
0.0
  0
LINE
  5
7AF
330
75B
100
AcDbEntity
  8
0
  6
Continuous
 62
     7
370
    15
100
AcDbLine
 10
1883.942846015442
 20
875.844027657042
 30
0.0
 11
1883.942846015442
 21
865.1440276570388
 31
0.0
  0
LINE
  5
7B0
330
75B
100
AcDbEntity
  8
0
  6
Continuous
 62
     7
370
    15
100
AcDbLine
 10
1895.942846015531
 20
865.1440276570388
 30
0.0
 11
1896.142846015407
 21
864.9440276571633
 31
0.0
  0
LINE
  5
7B1
330
75B
100
AcDbEntity
  8
0
  6
Continuous
 62
     7
370
    15
100
AcDbLine
 10
1901.742846015479
 20
864.9440276571633
 30
0.0
 11
1901.942846015354
 21
865.1440276570388
 31
0.0
  0
LINE
  5
7B2
330
75B
100
AcDbEntity
  8
0
  6
Continuous
 62
     7
370
    15
100
AcDbLine
 10
1901.942846015442
 20
865.1440276570388
 30
0.0
 11
1901.942846015442
 21
875.844027657042
 31
0.0
  0
LINE
  5
7B3
330
75B
100
AcDbEntity
  8
0
  6
Continuous
 62
     7
370
    15
100
AcDbLine
 10
1895.942846015443
 20
875.844027657042
 30
0.0
 11
1895.942846015443
 21
865.1440276570388
 31
0.0
  0
LINE
  5
7B4
330
75B
100
AcDbEntity
  8
0
  6
Continuous
 62
     7
370
    15
100
AcDbLine
 10
1902.004523622031
 20
879.8440276571193
 30
0.0
 11
1902.004523622031
 21
880.7440276571194
 31
0.0
  0
LINE
  5
7B5
330
75B
100
AcDbEntity
  8
0
  6
Continuous
 62
     7
370
    15
100
AcDbLine
 10
1896.004523622032
 20
880.7440276571194
 30
0.0
 11
1896.004523622032
 21
879.8440276571193
 31
0.0
  0
LINE
  5
7B6
330
75B
100
AcDbEntity
  8
0
  6
Continuous
 62
     7
370
    15
100
AcDbLine
 10
1914.004523622032
 20
879.8440276571193
 30
0.0
 11
1914.004523622032
 21
880.7440276571194
 31
0.0
  0
LINE
  5
7B7
330
75B
100
AcDbEntity
  8
0
  6
Continuous
 62
     7
370
    15
100
AcDbLine
 10
1908.004523622032
 20
880.7440276571194
 30
0.0
 11
1908.004523622032
 21
879.8440276571193
 31
0.0
  0
LINE
  5
7B8
330
75B
100
AcDbEntity
  8
0
  6
Continuous
 62
     7
370
    15
100
AcDbLine
 10
1913.942846015443
 20
865.1440276570388
 30
0.0
 11
1913.942846015443
 21
875.844027657042
 31
0.0
  0
LINE
  5
7B9
330
75B
100
AcDbEntity
  8
0
  6
Continuous
 62
     7
370
    15
100
AcDbLine
 10
1907.942846015443
 20
875.844027657042
 30
0.0
 11
1907.942846015443
 21
865.1440276570388
 31
0.0
  0
LINE
  5
7BA
330
75B
100
AcDbEntity
  8
0
  6
Continuous
 62
     7
370
    15
100
AcDbLine
 10
1907.942846015531
 20
865.1440276570388
 30
0.0
 11
1908.142846015406
 21
864.9440276571633
 31
0.0
  0
LINE
  5
7BB
330
75B
100
AcDbEntity
  8
0
  6
Continuous
 62
     7
370
    15
100
AcDbLine
 10
1913.742846015479
 20
864.9440276571633
 30
0.0
 11
1913.942846015354
 21
865.1440276570388
 31
0.0
  0
LINE
  5
7BC
330
75B
100
AcDbEntity
  8
0
  6
Continuous
 62
     7
370
    15
100
AcDbLine
 10
1919.942846015531
 20
865.1440276570388
 30
0.0
 11
1920.142846015406
 21
864.9440276571633
 31
0.0
  0
LINE
  5
7BD
330
75B
100
AcDbEntity
  8
0
  6
Continuous
 62
     7
370
    15
100
AcDbLine
 10
1925.742846015479
 20
864.9440276571633
 30
0.0
 11
1925.942846015354
 21
865.1440276570388
 31
0.0
  0
LINE
  5
7BE
330
75B
100
AcDbEntity
  8
0
  6
Continuous
 62
     7
370
    15
100
AcDbLine
 10
1925.942846015443
 20
865.1440276570388
 30
0.0
 11
1925.942846015443
 21
875.844027657042
 31
0.0
  0
LINE
  5
7BF
330
75B
100
AcDbEntity
  8
0
  6
Continuous
 62
     7
370
    15
100
AcDbLine
 10
1919.942846015442
 20
875.844027657042
 30
0.0
 11
1919.942846015442
 21
865.1440276570388
 31
0.0
  0
LINE
  5
7C0
330
75B
100
AcDbEntity
  8
0
  6
Continuous
 62
     7
370
    15
100
AcDbLine
 10
1926.004523622031
 20
879.8440276571193
 30
0.0
 11
1926.004523622031
 21
880.7440276571194
 31
0.0
  0
LINE
  5
7C1
330
75B
100
AcDbEntity
  8
0
  6
Continuous
 62
     7
370
    15
100
AcDbLine
 10
1920.004523622031
 20
880.7440276571194
 30
0.0
 11
1920.004523622031
 21
879.8440276571193
 31
0.0
  0
LINE
  5
7C2
330
75B
100
AcDbEntity
  8
0
  6
Continuous
 62
     7
370
    15
100
AcDbLine
 10
1817.942846015435
 20
875.844027657042
 30
0.0
 11
1817.842846015346
 21
875.9440276571305
 31
0.0
  0
LINE
  5
7C3
330
75B
100
AcDbEntity
  8
0
  6
Continuous
 62
     7
370
    15
100
AcDbLine
 10
1812.042846015539
 20
875.9440276571305
 30
0.0
 11
1811.94284601545
 21
875.844027657042
 31
0.0
  0
LINE
  5
7C4
330
75B
100
AcDbEntity
  8
0
  6
Continuous
 62
     7
370
    15
100
AcDbLine
 10
1829.942846015435
 20
875.844027657042
 30
0.0
 11
1829.842846015346
 21
875.9440276571305
 31
0.0
  0
LINE
  5
7C5
330
75B
100
AcDbEntity
  8
0
  6
Continuous
 62
     7
370
    15
100
AcDbLine
 10
1824.042846015539
 20
875.9440276571305
 30
0.0
 11
1823.94284601545
 21
875.844027657042
 31
0.0
  0
LINE
  5
7C6
330
75B
100
AcDbEntity
  8
0
  6
Continuous
 62
     7
370
    15
100
AcDbLine
 10
1841.942846015435
 20
875.844027657042
 30
0.0
 11
1841.842846015346
 21
875.9440276571305
 31
0.0
  0
LINE
  5
7C7
330
75B
100
AcDbEntity
  8
0
  6
Continuous
 62
     7
370
    15
100
AcDbLine
 10
1836.042846015539
 20
875.9440276571305
 30
0.0
 11
1835.94284601545
 21
875.844027657042
 31
0.0
  0
LINE
  5
7C8
330
75B
100
AcDbEntity
  8
0
  6
Continuous
 62
     7
370
    15
100
AcDbLine
 10
1853.942846015435
 20
875.844027657042
 30
0.0
 11
1853.842846015346
 21
875.9440276571305
 31
0.0
  0
LINE
  5
7C9
330
75B
100
AcDbEntity
  8
0
  6
Continuous
 62
     7
370
    15
100
AcDbLine
 10
1848.042846015539
 20
875.9440276571305
 30
0.0
 11
1847.94284601545
 21
875.844027657042
 31
0.0
  0
LINE
  5
7CA
330
75B
100
AcDbEntity
  8
0
  6
Continuous
 62
     7
370
    15
100
AcDbLine
 10
1865.942846015435
 20
875.844027657042
 30
0.0
 11
1865.842846015346
 21
875.9440276571305
 31
0.0
  0
LINE
  5
7CB
330
75B
100
AcDbEntity
  8
0
  6
Continuous
 62
     7
370
    15
100
AcDbLine
 10
1860.042846015539
 20
875.9440276571305
 30
0.0
 11
1859.94284601545
 21
875.844027657042
 31
0.0
  0
LINE
  5
7CC
330
75B
100
AcDbEntity
  8
0
  6
Continuous
 62
     7
370
    15
100
AcDbLine
 10
1877.942846015434
 20
875.844027657042
 30
0.0
 11
1877.842846015346
 21
875.9440276571305
 31
0.0
  0
LINE
  5
7CD
330
75B
100
AcDbEntity
  8
0
  6
Continuous
 62
     7
370
    15
100
AcDbLine
 10
1872.042846015539
 20
875.9440276571305
 30
0.0
 11
1871.94284601545
 21
875.844027657042
 31
0.0
  0
LINE
  5
7CE
330
75B
100
AcDbEntity
  8
0
  6
Continuous
 62
     7
370
    15
100
AcDbLine
 10
1889.942846015435
 20
875.844027657042
 30
0.0
 11
1889.842846015346
 21
875.9440276571305
 31
0.0
  0
LINE
  5
7CF
330
75B
100
AcDbEntity
  8
0
  6
Continuous
 62
     7
370
    15
100
AcDbLine
 10
1884.042846015539
 20
875.9440276571305
 30
0.0
 11
1883.94284601545
 21
875.844027657042
 31
0.0
  0
LINE
  5
7D0
330
75B
100
AcDbEntity
  8
0
  6
Continuous
 62
     7
370
    15
100
AcDbLine
 10
1901.942846015435
 20
875.844027657042
 30
0.0
 11
1901.842846015346
 21
875.9440276571305
 31
0.0
  0
LINE
  5
7D1
330
75B
100
AcDbEntity
  8
0
  6
Continuous
 62
     7
370
    15
100
AcDbLine
 10
1896.042846015539
 20
875.9440276571305
 30
0.0
 11
1895.94284601545
 21
875.844027657042
 31
0.0
  0
LINE
  5
7D2
330
75B
100
AcDbEntity
  8
0
  6
Continuous
 62
     7
370
    15
100
AcDbLine
 10
1913.942846015435
 20
875.844027657042
 30
0.0
 11
1913.842846015346
 21
875.9440276571305
 31
0.0
  0
LINE
  5
7D3
330
75B
100
AcDbEntity
  8
0
  6
Continuous
 62
     7
370
    15
100
AcDbLine
 10
1908.042846015539
 20
875.9440276571305
 30
0.0
 11
1907.94284601545
 21
875.844027657042
 31
0.0
  0
LINE
  5
7D4
330
75B
100
AcDbEntity
  8
0
  6
Continuous
 62
     7
370
    15
100
AcDbLine
 10
1925.942846015434
 20
875.844027657042
 30
0.0
 11
1925.842846015346
 21
875.9440276571305
 31
0.0
  0
LINE
  5
7D5
330
75B
100
AcDbEntity
  8
0
  6
Continuous
 62
     7
370
    15
100
AcDbLine
 10
1920.042846015539
 20
875.9440276571305
 30
0.0
 11
1919.94284601545
 21
875.844027657042
 31
0.0
  0
LINE
  5
7D6
330
75B
100
AcDbEntity
  8
0
  6
Continuous
 62
     7
370
    15
100
AcDbLine
 10
1817.254523622033
 20
875.9440276571192
 30
0.0
 11
1817.254523622033
 21
879.8440276571193
 31
0.0
  0
LINE
  5
7D7
330
75B
100
AcDbEntity
  8
0
  6
Continuous
 62
     7
370
    15
100
AcDbLine
 10
1817.254523622033
 20
875.9440276571192
 30
0.0
 11
1812.75452362203
 21
875.9440276571192
 31
0.0
  0
LINE
  5
7D8
330
75B
100
AcDbEntity
  8
0
  6
Continuous
 62
     7
370
    15
100
AcDbLine
 10
1812.75452362203
 20
879.8440276571193
 30
0.0
 11
1812.75452362203
 21
875.9440276571192
 31
0.0
  0
LINE
  5
7D9
330
75B
100
AcDbEntity
  8
0
  6
Continuous
 62
     7
370
    15
100
AcDbLine
 10
1817.254523622033
 20
879.8440276571193
 30
0.0
 11
1812.75452362203
 21
879.8440276571193
 31
0.0
  0
LINE
  5
7DA
330
75B
100
AcDbEntity
  8
0
  6
Continuous
 62
     7
370
    15
100
AcDbLine
 10
1829.254523622033
 20
875.9440276571192
 30
0.0
 11
1829.254523622033
 21
879.8440276571193
 31
0.0
  0
LINE
  5
7DB
330
75B
100
AcDbEntity
  8
0
  6
Continuous
 62
     7
370
    15
100
AcDbLine
 10
1824.75452362203
 20
879.8440276571193
 30
0.0
 11
1824.75452362203
 21
875.9440276571192
 31
0.0
  0
LINE
  5
7DC
330
75B
100
AcDbEntity
  8
0
  6
Continuous
 62
     7
370
    15
100
AcDbLine
 10
1829.254523622033
 20
875.9440276571192
 30
0.0
 11
1824.75452362203
 21
875.9440276571192
 31
0.0
  0
LINE
  5
7DD
330
75B
100
AcDbEntity
  8
0
  6
Continuous
 62
     7
370
    15
100
AcDbLine
 10
1829.254523622033
 20
879.8440276571193
 30
0.0
 11
1824.75452362203
 21
879.8440276571193
 31
0.0
  0
LINE
  5
7DE
330
75B
100
AcDbEntity
  8
0
  6
Continuous
 62
     7
370
    15
100
AcDbLine
 10
1841.254523622033
 20
875.9440276571192
 30
0.0
 11
1841.254523622033
 21
879.8440276571193
 31
0.0
  0
LINE
  5
7DF
330
75B
100
AcDbEntity
  8
0
  6
Continuous
 62
     7
370
    15
100
AcDbLine
 10
1836.75452362203
 20
879.8440276571193
 30
0.0
 11
1836.75452362203
 21
875.9440276571192
 31
0.0
  0
LINE
  5
7E0
330
75B
100
AcDbEntity
  8
0
  6
Continuous
 62
     7
370
    15
100
AcDbLine
 10
1841.254523622033
 20
875.9440276571192
 30
0.0
 11
1836.75452362203
 21
875.9440276571192
 31
0.0
  0
LINE
  5
7E1
330
75B
100
AcDbEntity
  8
0
  6
Continuous
 62
     7
370
    15
100
AcDbLine
 10
1841.254523622033
 20
879.8440276571193
 30
0.0
 11
1836.75452362203
 21
879.8440276571193
 31
0.0
  0
LINE
  5
7E2
330
75B
100
AcDbEntity
  8
0
  6
Continuous
 62
     7
370
    15
100
AcDbLine
 10
1853.254523622033
 20
875.9440276571192
 30
0.0
 11
1853.254523622033
 21
879.8440276571193
 31
0.0
  0
LINE
  5
7E3
330
75B
100
AcDbEntity
  8
0
  6
Continuous
 62
     7
370
    15
100
AcDbLine
 10
1848.75452362203
 20
879.8440276571193
 30
0.0
 11
1848.75452362203
 21
875.9440276571192
 31
0.0
  0
LINE
  5
7E4
330
75B
100
AcDbEntity
  8
0
  6
Continuous
 62
     7
370
    15
100
AcDbLine
 10
1853.254523622033
 20
875.9440276571192
 30
0.0
 11
1848.75452362203
 21
875.9440276571192
 31
0.0
  0
LINE
  5
7E5
330
75B
100
AcDbEntity
  8
0
  6
Continuous
 62
     7
370
    15
100
AcDbLine
 10
1853.254523622033
 20
879.8440276571193
 30
0.0
 11
1848.75452362203
 21
879.8440276571193
 31
0.0
  0
LINE
  5
7E6
330
75B
100
AcDbEntity
  8
0
  6
Continuous
 62
     7
370
    15
100
AcDbLine
 10
1865.254523622033
 20
875.9440276571192
 30
0.0
 11
1865.254523622033
 21
879.8440276571193
 31
0.0
  0
LINE
  5
7E7
330
75B
100
AcDbEntity
  8
0
  6
Continuous
 62
     7
370
    15
100
AcDbLine
 10
1860.75452362203
 20
879.8440276571193
 30
0.0
 11
1860.75452362203
 21
875.9440276571192
 31
0.0
  0
LINE
  5
7E8
330
75B
100
AcDbEntity
  8
0
  6
Continuous
 62
     7
370
    15
100
AcDbLine
 10
1865.254523622033
 20
875.9440276571192
 30
0.0
 11
1860.75452362203
 21
875.9440276571192
 31
0.0
  0
LINE
  5
7E9
330
75B
100
AcDbEntity
  8
0
  6
Continuous
 62
     7
370
    15
100
AcDbLine
 10
1865.254523622033
 20
879.8440276571193
 30
0.0
 11
1860.75452362203
 21
879.8440276571193
 31
0.0
  0
LINE
  5
7EA
330
75B
100
AcDbEntity
  8
0
  6
Continuous
 62
     7
370
    15
100
AcDbLine
 10
1877.254523622033
 20
875.9440276571192
 30
0.0
 11
1877.254523622033
 21
879.8440276571193
 31
0.0
  0
LINE
  5
7EB
330
75B
100
AcDbEntity
  8
0
  6
Continuous
 62
     7
370
    15
100
AcDbLine
 10
1872.75452362203
 20
879.8440276571193
 30
0.0
 11
1872.75452362203
 21
875.9440276571192
 31
0.0
  0
LINE
  5
7EC
330
75B
100
AcDbEntity
  8
0
  6
Continuous
 62
     7
370
    15
100
AcDbLine
 10
1877.254523622033
 20
875.9440276571192
 30
0.0
 11
1872.75452362203
 21
875.9440276571192
 31
0.0
  0
LINE
  5
7ED
330
75B
100
AcDbEntity
  8
0
  6
Continuous
 62
     7
370
    15
100
AcDbLine
 10
1877.254523622033
 20
879.8440276571193
 30
0.0
 11
1872.75452362203
 21
879.8440276571193
 31
0.0
  0
LINE
  5
7EE
330
75B
100
AcDbEntity
  8
0
  6
Continuous
 62
     7
370
    15
100
AcDbLine
 10
1889.254523622033
 20
875.9440276571192
 30
0.0
 11
1889.254523622033
 21
879.8440276571193
 31
0.0
  0
LINE
  5
7EF
330
75B
100
AcDbEntity
  8
0
  6
Continuous
 62
     7
370
    15
100
AcDbLine
 10
1884.75452362203
 20
879.8440276571193
 30
0.0
 11
1884.75452362203
 21
875.9440276571192
 31
0.0
  0
LINE
  5
7F0
330
75B
100
AcDbEntity
  8
0
  6
Continuous
 62
     7
370
    15
100
AcDbLine
 10
1889.254523622033
 20
875.9440276571192
 30
0.0
 11
1884.75452362203
 21
875.9440276571192
 31
0.0
  0
LINE
  5
7F1
330
75B
100
AcDbEntity
  8
0
  6
Continuous
 62
     7
370
    15
100
AcDbLine
 10
1889.254523622033
 20
879.8440276571193
 30
0.0
 11
1884.75452362203
 21
879.8440276571193
 31
0.0
  0
LINE
  5
7F2
330
75B
100
AcDbEntity
  8
0
  6
Continuous
 62
     7
370
    15
100
AcDbLine
 10
1901.254523622033
 20
875.9440276571192
 30
0.0
 11
1901.254523622033
 21
879.8440276571193
 31
0.0
  0
LINE
  5
7F3
330
75B
100
AcDbEntity
  8
0
  6
Continuous
 62
     7
370
    15
100
AcDbLine
 10
1896.75452362203
 20
879.8440276571193
 30
0.0
 11
1896.75452362203
 21
875.9440276571192
 31
0.0
  0
LINE
  5
7F4
330
75B
100
AcDbEntity
  8
0
  6
Continuous
 62
     7
370
    15
100
AcDbLine
 10
1901.254523622033
 20
875.9440276571192
 30
0.0
 11
1896.75452362203
 21
875.9440276571192
 31
0.0
  0
LINE
  5
7F5
330
75B
100
AcDbEntity
  8
0
  6
Continuous
 62
     7
370
    15
100
AcDbLine
 10
1901.254523622033
 20
879.8440276571193
 30
0.0
 11
1896.75452362203
 21
879.8440276571193
 31
0.0
  0
LINE
  5
7F6
330
75B
100
AcDbEntity
  8
0
  6
Continuous
 62
     7
370
    15
100
AcDbLine
 10
1913.254523622033
 20
875.9440276571192
 30
0.0
 11
1913.254523622033
 21
879.8440276571193
 31
0.0
  0
LINE
  5
7F7
330
75B
100
AcDbEntity
  8
0
  6
Continuous
 62
     7
370
    15
100
AcDbLine
 10
1908.75452362203
 20
879.8440276571193
 30
0.0
 11
1908.75452362203
 21
875.9440276571192
 31
0.0
  0
LINE
  5
7F8
330
75B
100
AcDbEntity
  8
0
  6
Continuous
 62
     7
370
    15
100
AcDbLine
 10
1913.254523622033
 20
875.9440276571192
 30
0.0
 11
1908.75452362203
 21
875.9440276571192
 31
0.0
  0
LINE
  5
7F9
330
75B
100
AcDbEntity
  8
0
  6
Continuous
 62
     7
370
    15
100
AcDbLine
 10
1913.254523622033
 20
879.8440276571193
 30
0.0
 11
1908.75452362203
 21
879.8440276571193
 31
0.0
  0
LINE
  5
7FA
330
75B
100
AcDbEntity
  8
0
  6
Continuous
 62
     7
370
    15
100
AcDbLine
 10
1925.254523622033
 20
875.9440276571192
 30
0.0
 11
1925.254523622033
 21
879.8440276571193
 31
0.0
  0
LINE
  5
7FB
330
75B
100
AcDbEntity
  8
0
  6
Continuous
 62
     7
370
    15
100
AcDbLine
 10
1920.75452362203
 20
879.8440276571193
 30
0.0
 11
1920.75452362203
 21
875.9440276571192
 31
0.0
  0
LINE
  5
7FC
330
75B
100
AcDbEntity
  8
0
  6
Continuous
 62
     7
370
    15
100
AcDbLine
 10
1925.254523622033
 20
875.9440276571192
 30
0.0
 11
1920.75452362203
 21
875.9440276571192
 31
0.0
  0
LINE
  5
7FD
330
75B
100
AcDbEntity
  8
0
  6
Continuous
 62
     7
370
    15
100
AcDbLine
 10
1925.254523622033
 20
879.8440276571193
 30
0.0
 11
1920.75452362203
 21
879.8440276571193
 31
0.0
  0
LINE
  5
7FE
330
75B
100
AcDbEntity
  8
0
  6
Continuous
 62
     7
370
    15
100
AcDbLine
 10
1811.779523735097
 20
880.7440276571194
 30
0.0
 11
1818.229523622032
 21
880.7440276571194
 31
0.0
  0
LINE
  5
7FF
330
75B
100
AcDbEntity
  8
0
  6
Continuous
 62
     7
370
    15
100
AcDbLine
 10
1818.429523622032
 20
886.1440276571192
 30
0.0
 11
1811.579523622032
 21
886.1440276571192
 31
0.0
  0
LINE
  5
800
330
75B
100
AcDbEntity
  8
0
  6
Continuous
 62
     7
370
    15
100
AcDbLine
 10
1830.429523622032
 20
886.1440276571192
 30
0.0
 11
1823.579523622032
 21
886.1440276571192
 31
0.0
  0
LINE
  5
801
330
75B
100
AcDbEntity
  8
0
  6
Continuous
 62
     7
370
    15
100
AcDbLine
 10
1823.779523735097
 20
880.7440276571194
 30
0.0
 11
1830.229523622032
 21
880.7440276571194
 31
0.0
  0
LINE
  5
802
330
75B
100
AcDbEntity
  8
0
  6
Continuous
 62
     7
370
    15
100
AcDbLine
 10
1842.429523622032
 20
886.1440276571192
 30
0.0
 11
1835.579523622032
 21
886.1440276571192
 31
0.0
  0
LINE
  5
803
330
75B
100
AcDbEntity
  8
0
  6
Continuous
 62
     7
370
    15
100
AcDbLine
 10
1835.779523735096
 20
880.7440276571194
 30
0.0
 11
1842.229523622032
 21
880.7440276571194
 31
0.0
  0
LINE
  5
804
330
75B
100
AcDbEntity
  8
0
  6
Continuous
 62
     7
370
    15
100
AcDbLine
 10
1847.779523735097
 20
880.7440276571194
 30
0.0
 11
1854.229523622032
 21
880.7440276571194
 31
0.0
  0
LINE
  5
805
330
75B
100
AcDbEntity
  8
0
  6
Continuous
 62
     7
370
    15
100
AcDbLine
 10
1854.429523622032
 20
886.1440276571192
 30
0.0
 11
1847.579523622032
 21
886.1440276571192
 31
0.0
  0
LINE
  5
806
330
75B
100
AcDbEntity
  8
0
  6
Continuous
 62
     7
370
    15
100
AcDbLine
 10
1859.779523735097
 20
880.7440276571194
 30
0.0
 11
1866.229523622032
 21
880.7440276571194
 31
0.0
  0
LINE
  5
807
330
75B
100
AcDbEntity
  8
0
  6
Continuous
 62
     7
370
    15
100
AcDbLine
 10
1866.429523622032
 20
886.1440276571192
 30
0.0
 11
1859.579523622032
 21
886.1440276571192
 31
0.0
  0
LINE
  5
808
330
75B
100
AcDbEntity
  8
0
  6
Continuous
 62
     7
370
    15
100
AcDbLine
 10
1871.779523735096
 20
880.7440276571194
 30
0.0
 11
1878.229523622032
 21
880.7440276571194
 31
0.0
  0
LINE
  5
809
330
75B
100
AcDbEntity
  8
0
  6
Continuous
 62
     7
370
    15
100
AcDbLine
 10
1878.429523622032
 20
886.1440276571192
 30
0.0
 11
1871.579523622031
 21
886.1440276571192
 31
0.0
  0
LINE
  5
80A
330
75B
100
AcDbEntity
  8
0
  6
Continuous
 62
     7
370
    15
100
AcDbLine
 10
1883.779523735096
 20
880.7440276571194
 30
0.0
 11
1890.229523622032
 21
880.7440276571194
 31
0.0
  0
LINE
  5
80B
330
75B
100
AcDbEntity
  8
0
  6
Continuous
 62
     7
370
    15
100
AcDbLine
 10
1890.429523622032
 20
886.1440276571192
 30
0.0
 11
1883.579523622032
 21
886.1440276571192
 31
0.0
  0
LINE
  5
80C
330
75B
100
AcDbEntity
  8
0
  6
Continuous
 62
     7
370
    15
100
AcDbLine
 10
1902.429523622032
 20
886.1440276571192
 30
0.0
 11
1895.579523622032
 21
886.1440276571192
 31
0.0
  0
LINE
  5
80D
330
75B
100
AcDbEntity
  8
0
  6
Continuous
 62
     7
370
    15
100
AcDbLine
 10
1895.779523735097
 20
880.7440276571194
 30
0.0
 11
1902.229523622032
 21
880.7440276571194
 31
0.0
  0
LINE
  5
80E
330
75B
100
AcDbEntity
  8
0
  6
Continuous
 62
     7
370
    15
100
AcDbLine
 10
1914.429523622032
 20
886.1440276571192
 30
0.0
 11
1907.579523622032
 21
886.1440276571192
 31
0.0
  0
LINE
  5
80F
330
75B
100
AcDbEntity
  8
0
  6
Continuous
 62
     7
370
    15
100
AcDbLine
 10
1907.779523735097
 20
880.7440276571194
 30
0.0
 11
1914.229523622031
 21
880.7440276571194
 31
0.0
  0
LINE
  5
810
330
75B
100
AcDbEntity
  8
0
  6
Continuous
 62
     7
370
    15
100
AcDbLine
 10
1926.429523622032
 20
886.1440276571192
 30
0.0
 11
1919.579523622031
 21
886.1440276571192
 31
0.0
  0
LINE
  5
811
330
75B
100
AcDbEntity
  8
0
  6
Continuous
 62
     7
370
    15
100
AcDbLine
 10
1919.779523735097
 20
880.7440276571194
 30
0.0
 11
1926.229523622032
 21
880.7440276571194
 31
0.0
  0
LINE
  5
812
330
75B
100
AcDbEntity
  8
0
  6
Continuous
 62
     7
370
    15
100
AcDbLine
 10
1824.75452362203
 20
875.9440276571192
 30
0.0
 11
1817.254523622033
 21
875.9440276571192
 31
0.0
  0
LINE
  5
813
330
75B
100
AcDbEntity
  8
0
  6
Continuous
 62
     7
370
    15
100
AcDbLine
 10
1817.254523622033
 20
879.8440276571193
 30
0.0
 11
1824.75452362203
 21
879.8440276571193
 31
0.0
  0
LINE
  5
814
330
75B
100
AcDbEntity
  8
0
  6
Continuous
 62
     7
370
    15
100
AcDbLine
 10
1836.75452362203
 20
875.9440276571192
 30
0.0
 11
1829.254523622033
 21
875.9440276571192
 31
0.0
  0
LINE
  5
815
330
75B
100
AcDbEntity
  8
0
  6
Continuous
 62
     7
370
    15
100
AcDbLine
 10
1829.254523622033
 20
879.8440276571193
 30
0.0
 11
1836.75452362203
 21
879.8440276571193
 31
0.0
  0
LINE
  5
816
330
75B
100
AcDbEntity
  8
0
  6
Continuous
 62
     7
370
    15
100
AcDbLine
 10
1848.75452362203
 20
875.9440276571192
 30
0.0
 11
1841.254523622033
 21
875.9440276571192
 31
0.0
  0
LINE
  5
817
330
75B
100
AcDbEntity
  8
0
  6
Continuous
 62
     7
370
    15
100
AcDbLine
 10
1841.254523622033
 20
879.8440276571193
 30
0.0
 11
1848.75452362203
 21
879.8440276571193
 31
0.0
  0
LINE
  5
818
330
75B
100
AcDbEntity
  8
0
  6
Continuous
 62
     7
370
    15
100
AcDbLine
 10
1860.75452362203
 20
875.9440276571192
 30
0.0
 11
1853.254523622033
 21
875.9440276571192
 31
0.0
  0
LINE
  5
819
330
75B
100
AcDbEntity
  8
0
  6
Continuous
 62
     7
370
    15
100
AcDbLine
 10
1853.254523622033
 20
879.8440276571193
 30
0.0
 11
1860.75452362203
 21
879.8440276571193
 31
0.0
  0
LINE
  5
81A
330
75B
100
AcDbEntity
  8
0
  6
Continuous
 62
     7
370
    15
100
AcDbLine
 10
1872.75452362203
 20
875.9440276571192
 30
0.0
 11
1865.254523622033
 21
875.9440276571192
 31
0.0
  0
LINE
  5
81B
330
75B
100
AcDbEntity
  8
0
  6
Continuous
 62
     7
370
    15
100
AcDbLine
 10
1865.254523622033
 20
879.8440276571193
 30
0.0
 11
1872.75452362203
 21
879.8440276571193
 31
0.0
  0
LINE
  5
81C
330
75B
100
AcDbEntity
  8
0
  6
Continuous
 62
     7
370
    15
100
AcDbLine
 10
1884.75452362203
 20
875.9440276571192
 30
0.0
 11
1877.254523622033
 21
875.9440276571192
 31
0.0
  0
LINE
  5
81D
330
75B
100
AcDbEntity
  8
0
  6
Continuous
 62
     7
370
    15
100
AcDbLine
 10
1877.254523622033
 20
879.8440276571193
 30
0.0
 11
1884.75452362203
 21
879.8440276571193
 31
0.0
  0
LINE
  5
81E
330
75B
100
AcDbEntity
  8
0
  6
Continuous
 62
     7
370
    15
100
AcDbLine
 10
1896.75452362203
 20
875.9440276571192
 30
0.0
 11
1889.254523622033
 21
875.9440276571192
 31
0.0
  0
LINE
  5
81F
330
75B
100
AcDbEntity
  8
0
  6
Continuous
 62
     7
370
    15
100
AcDbLine
 10
1889.254523622033
 20
879.8440276571193
 30
0.0
 11
1896.75452362203
 21
879.8440276571193
 31
0.0
  0
LINE
  5
820
330
75B
100
AcDbEntity
  8
0
  6
Continuous
 62
     7
370
    15
100
AcDbLine
 10
1908.75452362203
 20
875.9440276571192
 30
0.0
 11
1901.254523622033
 21
875.9440276571192
 31
0.0
  0
LINE
  5
821
330
75B
100
AcDbEntity
  8
0
  6
Continuous
 62
     7
370
    15
100
AcDbLine
 10
1901.254523622033
 20
879.8440276571193
 30
0.0
 11
1908.75452362203
 21
879.8440276571193
 31
0.0
  0
LINE
  5
822
330
75B
100
AcDbEntity
  8
0
  6
Continuous
 62
     7
370
    15
100
AcDbLine
 10
1920.75452362203
 20
875.9440276571192
 30
0.0
 11
1913.254523622033
 21
875.9440276571192
 31
0.0
  0
LINE
  5
823
330
75B
100
AcDbEntity
  8
0
  6
Continuous
 62
     7
370
    15
100
AcDbLine
 10
1913.254523622033
 20
879.8440276571193
 30
0.0
 11
1920.75452362203
 21
879.8440276571193
 31
0.0
  0
LINE
  5
824
330
75B
100
AcDbEntity
  8
0
  6
Continuous
 62
     7
370
    15
100
AcDbLine
 10
1809.004523622031
 20
879.8440276571193
 30
0.0
 11
1809.004523622031
 21
875.9440276571192
 31
0.0
  0
LINE
  5
825
330
75B
100
AcDbEntity
  8
0
  6
Continuous
 62
     7
370
    15
100
AcDbLine
 10
1812.75452362203
 20
875.9440276571192
 30
0.0
 11
1809.004523622031
 21
875.9440276571192
 31
0.0
  0
LINE
  5
826
330
75B
100
AcDbEntity
  8
0
  6
Continuous
 62
     7
370
    15
100
AcDbLine
 10
1809.004523622031
 20
879.8440276571193
 30
0.0
 11
1812.75452362203
 21
879.8440276571193
 31
0.0
  0
LINE
  5
827
330
75B
100
AcDbEntity
  8
0
  6
Continuous
 62
     7
370
    15
100
AcDbLine
 10
1929.004523622031
 20
875.9440276571192
 30
0.0
 11
1929.004523622031
 21
879.8440276571193
 31
0.0
  0
LINE
  5
828
330
75B
100
AcDbEntity
  8
0
  6
Continuous
 62
     7
370
    15
100
AcDbLine
 10
1929.004523622031
 20
875.9440276571192
 30
0.0
 11
1925.254523622033
 21
875.9440276571192
 31
0.0
  0
LINE
  5
829
330
75B
100
AcDbEntity
  8
0
  6
Continuous
 62
     7
370
    15
100
AcDbLine
 10
1925.254523622033
 20
879.8440276571193
 30
0.0
 11
1929.004523622031
 21
879.8440276571193
 31
0.0
  0
LINE
  5
82A
330
75B
100
AcDbEntity
  8
0
  6
Continuous
 62
     7
370
    15
100
AcDbLine
 10
1811.942846015442
 20
865.1440276570388
 30
0.0
 11
1817.942846015354
 21
865.1440276570388
 31
0.0
  0
LINE
  5
82B
330
75B
100
AcDbEntity
  8
0
  6
Continuous
 62
     7
370
    15
100
AcDbLine
 10
1814.942846015443
 20
864.9440276571633
 30
0.0
 11
1817.742846015479
 21
864.9440276571633
 31
0.0
  0
LINE
  5
82C
330
75B
100
AcDbEntity
  8
0
  6
Continuous
 62
     7
370
    15
100
AcDbLine
 10
1812.142846015406
 20
864.9440276571633
 30
0.0
 11
1814.942846015443
 21
864.9440276571633
 31
0.0
  0
LINE
  5
82D
330
75B
100
AcDbEntity
  8
0
  6
Continuous
 62
     7
370
    15
100
AcDbLine
 10
1811.94284601545
 20
875.844027657042
 30
0.0
 11
1817.942846015442
 21
875.844027657042
 31
0.0
  0
LINE
  5
82E
330
75B
100
AcDbEntity
  8
0
  6
Continuous
 62
     7
370
    15
100
AcDbLine
 10
1823.942846015443
 20
865.1440276570388
 30
0.0
 11
1829.942846015354
 21
865.1440276570388
 31
0.0
  0
LINE
  5
82F
330
75B
100
AcDbEntity
  8
0
  6
Continuous
 62
     7
370
    15
100
AcDbLine
 10
1826.942846015442
 20
864.9440276571633
 30
0.0
 11
1829.742846015479
 21
864.9440276571633
 31
0.0
  0
LINE
  5
830
330
75B
100
AcDbEntity
  8
0
  6
Continuous
 62
     7
370
    15
100
AcDbLine
 10
1824.142846015406
 20
864.9440276571633
 30
0.0
 11
1826.942846015442
 21
864.9440276571633
 31
0.0
  0
LINE
  5
831
330
75B
100
AcDbEntity
  8
0
  6
Continuous
 62
     7
370
    15
100
AcDbLine
 10
1823.94284601545
 20
875.844027657042
 30
0.0
 11
1829.942846015443
 21
875.844027657042
 31
0.0
  0
LINE
  5
832
330
75B
100
AcDbEntity
  8
0
  6
Continuous
 62
     7
370
    15
100
AcDbLine
 10
1835.94284601545
 20
875.844027657042
 30
0.0
 11
1841.942846015443
 21
875.844027657042
 31
0.0
  0
LINE
  5
833
330
75B
100
AcDbEntity
  8
0
  6
Continuous
 62
     7
370
    15
100
AcDbLine
 10
1835.942846015442
 20
865.1440276570388
 30
0.0
 11
1841.942846015443
 21
865.1440276570388
 31
0.0
  0
LINE
  5
834
330
75B
100
AcDbEntity
  8
0
  6
Continuous
 62
     7
370
    15
100
AcDbLine
 10
1838.942846015443
 20
864.9440276571633
 30
0.0
 11
1841.742846015479
 21
864.9440276571633
 31
0.0
  0
LINE
  5
835
330
75B
100
AcDbEntity
  8
0
  6
Continuous
 62
     7
370
    15
100
AcDbLine
 10
1836.142846015406
 20
864.9440276571633
 30
0.0
 11
1838.942846015443
 21
864.9440276571633
 31
0.0
  0
LINE
  5
836
330
75B
100
AcDbEntity
  8
0
  6
Continuous
 62
     7
370
    15
100
AcDbLine
 10
1847.942846015443
 20
865.1440276570388
 30
0.0
 11
1853.942846015354
 21
865.1440276570388
 31
0.0
  0
LINE
  5
837
330
75B
100
AcDbEntity
  8
0
  6
Continuous
 62
     7
370
    15
100
AcDbLine
 10
1850.942846015443
 20
864.9440276571633
 30
0.0
 11
1853.742846015479
 21
864.9440276571633
 31
0.0
  0
LINE
  5
838
330
75B
100
AcDbEntity
  8
0
  6
Continuous
 62
     7
370
    15
100
AcDbLine
 10
1848.142846015407
 20
864.9440276571633
 30
0.0
 11
1850.942846015443
 21
864.9440276571633
 31
0.0
  0
LINE
  5
839
330
75B
100
AcDbEntity
  8
0
  6
Continuous
 62
     7
370
    15
100
AcDbLine
 10
1847.94284601545
 20
875.844027657042
 30
0.0
 11
1853.942846015442
 21
875.844027657042
 31
0.0
  0
LINE
  5
83A
330
75B
100
AcDbEntity
  8
0
  6
Continuous
 62
     7
370
    15
100
AcDbLine
 10
1859.942846015442
 20
865.1440276570388
 30
0.0
 11
1865.942846015354
 21
865.1440276570388
 31
0.0
  0
LINE
  5
83B
330
75B
100
AcDbEntity
  8
0
  6
Continuous
 62
     7
370
    15
100
AcDbLine
 10
1862.942846015442
 20
864.9440276571633
 30
0.0
 11
1865.742846015479
 21
864.9440276571633
 31
0.0
  0
LINE
  5
83C
330
75B
100
AcDbEntity
  8
0
  6
Continuous
 62
     7
370
    15
100
AcDbLine
 10
1860.142846015406
 20
864.9440276571633
 30
0.0
 11
1862.942846015442
 21
864.9440276571633
 31
0.0
  0
LINE
  5
83D
330
75B
100
AcDbEntity
  8
0
  6
Continuous
 62
     7
370
    15
100
AcDbLine
 10
1859.94284601545
 20
875.844027657042
 30
0.0
 11
1865.942846015443
 21
875.844027657042
 31
0.0
  0
LINE
  5
83E
330
75B
100
AcDbEntity
  8
0
  6
Continuous
 62
     7
370
    15
100
AcDbLine
 10
1871.942846015443
 20
865.1440276570388
 30
0.0
 11
1877.942846015354
 21
865.1440276570388
 31
0.0
  0
LINE
  5
83F
330
75B
100
AcDbEntity
  8
0
  6
Continuous
 62
     7
370
    15
100
AcDbLine
 10
1874.942846015443
 20
864.9440276571633
 30
0.0
 11
1877.742846015479
 21
864.9440276571633
 31
0.0
  0
LINE
  5
840
330
75B
100
AcDbEntity
  8
0
  6
Continuous
 62
     7
370
    15
100
AcDbLine
 10
1872.142846015406
 20
864.9440276571633
 30
0.0
 11
1874.942846015443
 21
864.9440276571633
 31
0.0
  0
LINE
  5
841
330
75B
100
AcDbEntity
  8
0
  6
Continuous
 62
     7
370
    15
100
AcDbLine
 10
1871.94284601545
 20
875.844027657042
 30
0.0
 11
1877.942846015443
 21
875.844027657042
 31
0.0
  0
LINE
  5
842
330
75B
100
AcDbEntity
  8
0
  6
Continuous
 62
     7
370
    15
100
AcDbLine
 10
1883.942846015442
 20
865.1440276570388
 30
0.0
 11
1889.942846015354
 21
865.1440276570388
 31
0.0
  0
LINE
  5
843
330
75B
100
AcDbEntity
  8
0
  6
Continuous
 62
     7
370
    15
100
AcDbLine
 10
1886.942846015443
 20
864.9440276571633
 30
0.0
 11
1889.742846015479
 21
864.9440276571633
 31
0.0
  0
LINE
  5
844
330
75B
100
AcDbEntity
  8
0
  6
Continuous
 62
     7
370
    15
100
AcDbLine
 10
1884.142846015407
 20
864.9440276571633
 30
0.0
 11
1886.942846015443
 21
864.9440276571633
 31
0.0
  0
LINE
  5
845
330
75B
100
AcDbEntity
  8
0
  6
Continuous
 62
     7
370
    15
100
AcDbLine
 10
1883.94284601545
 20
875.844027657042
 30
0.0
 11
1889.942846015443
 21
875.844027657042
 31
0.0
  0
LINE
  5
846
330
75B
100
AcDbEntity
  8
0
  6
Continuous
 62
     7
370
    15
100
AcDbLine
 10
1895.942846015443
 20
865.1440276570388
 30
0.0
 11
1901.942846015354
 21
865.1440276570388
 31
0.0
  0
LINE
  5
847
330
75B
100
AcDbEntity
  8
0
  6
Continuous
 62
     7
370
    15
100
AcDbLine
 10
1898.942846015443
 20
864.9440276571633
 30
0.0
 11
1901.742846015479
 21
864.9440276571633
 31
0.0
  0
LINE
  5
848
330
75B
100
AcDbEntity
  8
0
  6
Continuous
 62
     7
370
    15
100
AcDbLine
 10
1896.142846015407
 20
864.9440276571633
 30
0.0
 11
1898.942846015443
 21
864.9440276571633
 31
0.0
  0
LINE
  5
849
330
75B
100
AcDbEntity
  8
0
  6
Continuous
 62
     7
370
    15
100
AcDbLine
 10
1895.94284601545
 20
875.844027657042
 30
0.0
 11
1901.942846015442
 21
875.844027657042
 31
0.0
  0
LINE
  5
84A
330
75B
100
AcDbEntity
  8
0
  6
Continuous
 62
     7
370
    15
100
AcDbLine
 10
1907.94284601545
 20
875.844027657042
 30
0.0
 11
1913.942846015443
 21
875.844027657042
 31
0.0
  0
LINE
  5
84B
330
75B
100
AcDbEntity
  8
0
  6
Continuous
 62
     7
370
    15
100
AcDbLine
 10
1907.942846015443
 20
865.1440276570388
 30
0.0
 11
1913.942846015443
 21
865.1440276570388
 31
0.0
  0
LINE
  5
84C
330
75B
100
AcDbEntity
  8
0
  6
Continuous
 62
     7
370
    15
100
AcDbLine
 10
1910.942846015442
 20
864.9440276571633
 30
0.0
 11
1913.742846015479
 21
864.9440276571633
 31
0.0
  0
LINE
  5
84D
330
75B
100
AcDbEntity
  8
0
  6
Continuous
 62
     7
370
    15
100
AcDbLine
 10
1908.142846015406
 20
864.9440276571633
 30
0.0
 11
1910.942846015442
 21
864.9440276571633
 31
0.0
  0
LINE
  5
84E
330
75B
100
AcDbEntity
  8
0
  6
Continuous
 62
     7
370
    15
100
AcDbLine
 10
1919.942846015442
 20
865.1440276570388
 30
0.0
 11
1925.942846015354
 21
865.1440276570388
 31
0.0
  0
LINE
  5
84F
330
75B
100
AcDbEntity
  8
0
  6
Continuous
 62
     7
370
    15
100
AcDbLine
 10
1922.942846015443
 20
864.9440276571633
 30
0.0
 11
1925.742846015479
 21
864.9440276571633
 31
0.0
  0
LINE
  5
850
330
75B
100
AcDbEntity
  8
0
  6
Continuous
 62
     7
370
    15
100
AcDbLine
 10
1920.142846015406
 20
864.9440276571633
 30
0.0
 11
1922.942846015443
 21
864.9440276571633
 31
0.0
  0
LINE
  5
851
330
75B
100
AcDbEntity
  8
0
  6
Continuous
 62
     7
370
    15
100
AcDbLine
 10
1919.94284601545
 20
875.844027657042
 30
0.0
 11
1925.942846015443
 21
875.844027657042
 31
0.0
  0
LINE
  5
852
330
75B
100
AcDbEntity
  8
0
  6
Continuous
 62
     8
370
    15
100
AcDbLine
 10
1818.429523622032
 20
880.9440276571192
 30
0.0
 11
1811.579523622032
 21
880.9440276571192
 31
0.0
  0
LINE
  5
853
330
75B
100
AcDbEntity
  8
0
  6
Continuous
 62
     8
370
    15
100
AcDbLine
 10
1830.429523622032
 20
880.9440276571192
 30
0.0
 11
1823.579523622032
 21
880.9440276571192
 31
0.0
  0
LINE
  5
854
330
75B
100
AcDbEntity
  8
0
  6
Continuous
 62
     8
370
    15
100
AcDbLine
 10
1842.429523622032
 20
880.9440276571192
 30
0.0
 11
1835.579523622032
 21
880.9440276571192
 31
0.0
  0
LINE
  5
855
330
75B
100
AcDbEntity
  8
0
  6
Continuous
 62
     8
370
    15
100
AcDbLine
 10
1854.429523622032
 20
880.9440276571192
 30
0.0
 11
1847.579523622032
 21
880.9440276571192
 31
0.0
  0
LINE
  5
856
330
75B
100
AcDbEntity
  8
0
  6
Continuous
 62
     8
370
    15
100
AcDbLine
 10
1866.429523622032
 20
880.9440276571192
 30
0.0
 11
1859.579523622032
 21
880.9440276571192
 31
0.0
  0
LINE
  5
857
330
75B
100
AcDbEntity
  8
0
  6
Continuous
 62
     8
370
    15
100
AcDbLine
 10
1878.429523622032
 20
880.9440276571192
 30
0.0
 11
1871.579523622031
 21
880.9440276571192
 31
0.0
  0
LINE
  5
858
330
75B
100
AcDbEntity
  8
0
  6
Continuous
 62
     8
370
    15
100
AcDbLine
 10
1890.429523622032
 20
880.9440276571192
 30
0.0
 11
1883.579523622032
 21
880.9440276571192
 31
0.0
  0
LINE
  5
859
330
75B
100
AcDbEntity
  8
0
  6
Continuous
 62
     8
370
    15
100
AcDbLine
 10
1902.429523622032
 20
880.9440276571192
 30
0.0
 11
1895.579523622032
 21
880.9440276571192
 31
0.0
  0
LINE
  5
85A
330
75B
100
AcDbEntity
  8
0
  6
Continuous
 62
     8
370
    15
100
AcDbLine
 10
1914.429523622032
 20
880.9440276571192
 30
0.0
 11
1907.579523622032
 21
880.9440276571192
 31
0.0
  0
LINE
  5
85B
330
75B
100
AcDbEntity
  8
0
  6
Continuous
 62
     8
370
    15
100
AcDbLine
 10
1926.429523622032
 20
880.9440276571192
 30
0.0
 11
1919.579523622031
 21
880.9440276571192
 31
0.0
  0
ENDBLK
  5
75D
330
75B
100
AcDbEntity
  8
0
100
AcDbBlockEnd
  0
BLOCK
  5
85E
330
85D
100
AcDbEntity
  8
0
100
AcDbBlockBegin
  2
2
 70
     0
 10
0.0
 20
0.0
 30
0.0
  3
2
  1

  0
LINE
  5
860
330
85D
100
AcDbEntity
  8
0
  6
Continuous
 62
     7
370
    15
100
AcDbLine
 10
1795.867561784208
 20
880.9440276571192
 30
0.0
 11
1795.867561784208
 21
886.1440276571192
 31
0.0
  0
LINE
  5
861
330
85D
100
AcDbEntity
  8
0
  6
Continuous
 62
     7
370
    15
100
AcDbLine
 10
1789.017561784208
 20
886.1440276571192
 30
0.0
 11
1789.017561784208
 21
880.9440276571192
 31
0.0
  0
ARC
  5
862
330
85D
100
AcDbEntity
  8
0
  6
Continuous
 62
     7
370
    15
100
AcDbCircle
 10
1789.217561784208
 20
880.9440276571192
 30
0.0
 40
0.200000000000017
100
AcDbArc
 50
180.0
 51
270.0
  0
ARC
  5
863
330
85D
100
AcDbEntity
  8
0
  6
Continuous
 62
     7
370
    15
100
AcDbCircle
 10
1795.667561784207
 20
880.9440276571192
 30
0.0
 40
0.200000000000017
100
AcDbArc
 50
270.0
 51
0.0
  0
LINE
  5
864
330
85D
100
AcDbEntity
  8
0
  6
Continuous
 62
     7
370
    15
100
AcDbLine
 10
1795.442561784208
 20
879.8440276571193
 30
0.0
 11
1795.442561784208
 21
880.7440276571194
 31
0.0
  0
LINE
  5
865
330
85D
100
AcDbEntity
  8
0
  6
Continuous
 62
     7
370
    15
100
AcDbLine
 10
1789.442561784207
 20
880.7440276571194
 30
0.0
 11
1789.442561784207
 21
879.8440276571193
 31
0.0
  0
LINE
  5
866
330
85D
100
AcDbEntity
  8
0
  6
Continuous
 62
     7
370
    15
100
AcDbLine
 10
1789.442561784296
 20
865.1440276570388
 30
0.0
 11
1789.642561784171
 21
864.9440276571633
 31
0.0
  0
LINE
  5
867
330
85D
100
AcDbEntity
  8
0
  6
Continuous
 62
     7
370
    15
100
AcDbLine
 10
1795.242561784244
 20
864.9440276571633
 30
0.0
 11
1795.442561784119
 21
865.1440276570388
 31
0.0
  0
LINE
  5
868
330
85D
100
AcDbEntity
  8
0
  6
Continuous
 62
     7
370
    15
100
AcDbLine
 10
1795.442561784208
 20
865.1440276570388
 30
0.0
 11
1795.442561784208
 21
875.844027657042
 31
0.0
  0
LINE
  5
869
330
85D
100
AcDbEntity
  8
0
  6
Continuous
 62
     7
370
    15
100
AcDbLine
 10
1789.442561784207
 20
875.844027657042
 30
0.0
 11
1789.442561784207
 21
865.1440276570388
 31
0.0
  0
LINE
  5
86A
330
85D
100
AcDbEntity
  8
0
  6
Continuous
 62
     7
370
    15
100
AcDbLine
 10
1795.4425617842
 20
875.844027657042
 30
0.0
 11
1795.342561784111
 21
875.9440276571305
 31
0.0
  0
LINE
  5
86B
330
85D
100
AcDbEntity
  8
0
  6
Continuous
 62
     7
370
    15
100
AcDbLine
 10
1789.542561784304
 20
875.9440276571305
 30
0.0
 11
1789.442561784215
 21
875.844027657042
 31
0.0
  0
LINE
  5
86C
330
85D
100
AcDbEntity
  8
0
  6
Continuous
 62
     7
370
    15
100
AcDbLine
 10
1788.942561784207
 20
879.8440276571193
 30
0.0
 11
1788.942561784207
 21
875.9440276571192
 31
0.0
  0
LINE
  5
86D
330
85D
100
AcDbEntity
  8
0
  6
Continuous
 62
     7
370
    15
100
AcDbLine
 10
1795.942561784207
 20
875.9440276571192
 30
0.0
 11
1795.942561784207
 21
879.8440276571193
 31
0.0
  0
LINE
  5
86E
330
85D
100
AcDbEntity
  8
0
  6
Continuous
 62
     7
370
    15
100
AcDbLine
 10
1789.092561784208
 20
875.9440276571192
 30
0.0
 11
1795.792561784208
 21
875.9440276571192
 31
0.0
  0
LINE
  5
86F
330
85D
100
AcDbEntity
  8
0
  6
Continuous
 62
     7
370
    15
100
AcDbLine
 10
1789.092561784208
 20
875.9440276571192
 30
0.0
 11
1789.092561784208
 21
879.8440276571193
 31
0.0
  0
LINE
  5
870
330
85D
100
AcDbEntity
  8
0
  6
Continuous
 62
     7
370
    15
100
AcDbLine
 10
1795.792561784208
 20
879.8440276571193
 30
0.0
 11
1795.792561784208
 21
875.9440276571192
 31
0.0
  0
LINE
  5
871
330
85D
100
AcDbEntity
  8
0
  6
Continuous
 62
     7
370
    15
100
AcDbLine
 10
1789.092561784208
 20
879.8440276571193
 30
0.0
 11
1795.792561784208
 21
879.8440276571193
 31
0.0
  0
LINE
  5
872
330
85D
100
AcDbEntity
  8
0
  6
Continuous
 62
     7
370
    15
100
AcDbLine
 10
1795.867561784208
 20
886.1440276571192
 30
0.0
 11
1789.017561784208
 21
886.1440276571192
 31
0.0
  0
LINE
  5
873
330
85D
100
AcDbEntity
  8
0
  6
Continuous
 62
     7
370
    15
100
AcDbLine
 10
1792.442561784208
 20
880.7440276571194
 30
0.0
 11
1795.667561784207
 21
880.7440276571194
 31
0.0
  0
LINE
  5
874
330
85D
100
AcDbEntity
  8
0
  6
Continuous
 62
     7
370
    15
100
AcDbLine
 10
1789.217561784208
 20
880.7440276571194
 30
0.0
 11
1792.442561784208
 21
880.7440276571194
 31
0.0
  0
LINE
  5
875
330
85D
100
AcDbEntity
  8
0
  6
Continuous
 62
     7
370
    15
100
AcDbLine
 10
1789.442561784296
 20
865.1440276570388
 30
0.0
 11
1795.442561784119
 21
865.1440276570388
 31
0.0
  0
LINE
  5
876
330
85D
100
AcDbEntity
  8
0
  6
Continuous
 62
     7
370
    15
100
AcDbLine
 10
1789.642561784171
 20
864.9440276571633
 30
0.0
 11
1795.242561784244
 21
864.9440276571633
 31
0.0
  0
LINE
  5
877
330
85D
100
AcDbEntity
  8
0
  6
Continuous
 62
     7
370
    15
100
AcDbLine
 10
1789.442561784207
 20
875.844027657042
 30
0.0
 11
1795.442561784208
 21
875.844027657042
 31
0.0
  0
LINE
  5
878
330
85D
100
AcDbEntity
  8
0
  6
Continuous
 62
     7
370
    15
100
AcDbLine
 10
1789.092561784208
 20
875.9440276571192
 30
0.0
 11
1788.942561784207
 21
875.9440276571192
 31
0.0
  0
LINE
  5
879
330
85D
100
AcDbEntity
  8
0
  6
Continuous
 62
     7
370
    15
100
AcDbLine
 10
1789.092561784208
 20
879.8440276571193
 30
0.0
 11
1788.942561784207
 21
879.8440276571193
 31
0.0
  0
LINE
  5
87A
330
85D
100
AcDbEntity
  8
0
  6
Continuous
 62
     7
370
    15
100
AcDbLine
 10
1795.942561784207
 20
875.9440276571192
 30
0.0
 11
1795.792561784208
 21
875.9440276571192
 31
0.0
  0
LINE
  5
87B
330
85D
100
AcDbEntity
  8
0
  6
Continuous
 62
     7
370
    15
100
AcDbLine
 10
1795.942561784207
 20
879.8440276571193
 30
0.0
 11
1795.792561784208
 21
879.8440276571193
 31
0.0
  0
LINE
  5
87C
330
85D
100
AcDbEntity
  8
0
  6
Continuous
 62
     8
370
    15
100
AcDbLine
 10
1795.867561784208
 20
880.9440276571192
 30
0.0
 11
1789.017561784208
 21
880.9440276571192
 31
0.0
  0
ENDBLK
  5
85F
330
85D
100
AcDbEntity
  8
0
100
AcDbBlockEnd
  0
BLOCK
  5
87F
330
87E
100
AcDbEntity
  8
0
100
AcDbBlockBegin
  2
3
 70
     0
 10
0.0
 20
0.0
 30
0.0
  3
3
  1

  0
CIRCLE
  5
881
330
87E
100
AcDbEntity
  8
0
  6
Continuous
 62
     7
370
    15
100
AcDbCircle
 10
1839.004523622032
 20
840.6539279893094
 30
0.0
 40
3.425000000000011
  0
CIRCLE
  5
882
330
87E
100
AcDbEntity
  8
0
  6
Continuous
 62
     7
370
    15
100
AcDbCircle
 10
1839.004523622032
 20
840.6539279893094
 30
0.0
 40
2.475000000006644
  0
CIRCLE
  5
883
330
87E
100
AcDbEntity
  8
0
  6
Continuous
 62
     7
370
    15
100
AcDbCircle
 10
1899.004523622032
 20
840.6539279893094
 30
0.0
 40
3.424999999999997
  0
CIRCLE
  5
884
330
87E
100
AcDbEntity
  8
0
  6
Continuous
 62
     7
370
    15
100
AcDbCircle
 10
1899.004523622032
 20
840.6539279893094
 30
0.0
 40
2.475000000006644
  0
CIRCLE
  5
885
330
87E
100
AcDbEntity
  8
0
  6
Continuous
 62
     7
370
    15
100
AcDbCircle
 10
1827.004523622031
 20
840.6539279893094
 30
0.0
 40
3.424999999999982
  0
CIRCLE
  5
886
330
87E
100
AcDbEntity
  8
0
  6
Continuous
 62
     7
370
    15
100
AcDbCircle
 10
1827.004523622031
 20
840.6539279893094
 30
0.0
 40
2.475000000006644
  0
CIRCLE
  5
887
330
87E
100
AcDbEntity
  8
0
  6
Continuous
 62
     7
370
    15
100
AcDbCircle
 10
1851.004523622032
 20
840.6539279893094
 30
0.0
 40
2.47500000000663
  0
ARC
  5
888
330
87E
100
AcDbEntity
  8
0
  6
Continuous
 62
     7
370
    15
100
AcDbCircle
 10
1851.004523622032
 20
840.6539279893094
 30
0.0
 40
2.197439522055474
100
AcDbArc
 50
13.15214010487884
 51
166.8478598951275
  0
ARC
  5
889
330
87E
100
AcDbEntity
  8
0
  6
Continuous
 62
     7
370
    15
100
AcDbCircle
 10
1851.004523622032
 20
840.6539279893094
 30
0.0
 40
2.145679479869426
100
AcDbArc
 50
166.5246847195484
 51
193.4753152804515
  0
ARC
  5
88A
330
87E
100
AcDbEntity
  8
0
  6
Continuous
 62
     7
370
    15
100
AcDbCircle
 10
1851.004523622032
 20
840.6539279893094
 30
0.0
 40
2.197439522055447
100
AcDbArc
 50
193.1521401048788
 51
346.8478598951275
  0
ARC
  5
88B
330
87E
100
AcDbEntity
  8
0
  6
Continuous
 62
     7
370
    15
100
AcDbCircle
 10
1851.004523622032
 20
840.6539279893094
 30
0.0
 40
2.145679479869412
100
AcDbArc
 50
346.5246847195485
 51
13.47531528045153
  0
CIRCLE
  5
88C
330
87E
100
AcDbEntity
  8
0
  6
Continuous
 62
     7
370
    15
100
AcDbCircle
 10
1911.004523622031
 20
840.6539279893094
 30
0.0
 40
2.475000000006637
  0
ARC
  5
88D
330
87E
100
AcDbEntity
  8
0
  6
Continuous
 62
     7
370
    15
100
AcDbCircle
 10
1911.004523622031
 20
840.6539279893094
 30
0.0
 40
2.197439522055461
100
AcDbArc
 50
13.15214010487884
 51
166.8478598951275
  0
ARC
  5
88E
330
87E
100
AcDbEntity
  8
0
  6
Continuous
 62
     7
370
    15
100
AcDbCircle
 10
1911.004523622031
 20
840.6539279893094
 30
0.0
 40
2.145679479869412
100
AcDbArc
 50
166.5246847195484
 51
193.4753152804515
  0
ARC
  5
88F
330
87E
100
AcDbEntity
  8
0
  6
Continuous
 62
     7
370
    15
100
AcDbCircle
 10
1911.004523622031
 20
840.6539279893094
 30
0.0
 40
2.197439522055461
100
AcDbArc
 50
193.1521401048788
 51
346.8478598951275
  0
ARC
  5
890
330
87E
100
AcDbEntity
  8
0
  6
Continuous
 62
     7
370
    15
100
AcDbCircle
 10
1911.004523622031
 20
840.6539279893094
 30
0.0
 40
2.14567947986942
100
AcDbArc
 50
346.5246847195485
 51
13.47531528045153
  0
CIRCLE
  5
891
330
87E
100
AcDbEntity
  8
0
  6
Continuous
 62
     7
370
    15
100
AcDbCircle
 10
1851.004523622032
 20
840.6539279893094
 30
0.0
 40
3.425000000000011
  0
CIRCLE
  5
892
330
87E
100
AcDbEntity
  8
0
  6
Continuous
 62
     7
370
    15
100
AcDbCircle
 10
1911.004523622031
 20
840.6539279893094
 30
0.0
 40
3.424999999999997
  0
CIRCLE
  5
893
330
87E
100
AcDbEntity
  8
0
  6
Continuous
 62
     7
370
    15
100
AcDbCircle
 10
1863.004523622032
 20
840.6539279893094
 30
0.0
 40
2.475000000006644
  0
ARC
  5
894
330
87E
100
AcDbEntity
  8
0
  6
Continuous
 62
     7
370
    15
100
AcDbCircle
 10
1863.004523622032
 20
840.6539279893094
 30
0.0
 40
2.197439522055447
100
AcDbArc
 50
13.15214010487884
 51
166.8478598951275
  0
ARC
  5
895
330
87E
100
AcDbEntity
  8
0
  6
Continuous
 62
     7
370
    15
100
AcDbCircle
 10
1863.004523622032
 20
840.6539279893094
 30
0.0
 40
2.145679479869412
100
AcDbArc
 50
166.5246847195484
 51
193.4753152804515
  0
ARC
  5
896
330
87E
100
AcDbEntity
  8
0
  6
Continuous
 62
     7
370
    15
100
AcDbCircle
 10
1863.004523622032
 20
840.6539279893094
 30
0.0
 40
2.197439522055474
100
AcDbArc
 50
193.1521401048788
 51
346.8478598951275
  0
ARC
  5
897
330
87E
100
AcDbEntity
  8
0
  6
Continuous
 62
     7
370
    15
100
AcDbCircle
 10
1863.004523622032
 20
840.6539279893094
 30
0.0
 40
2.145679479869412
100
AcDbArc
 50
346.5246847195485
 51
13.47531528045153
  0
CIRCLE
  5
898
330
87E
100
AcDbEntity
  8
0
  6
Continuous
 62
     7
370
    15
100
AcDbCircle
 10
1887.004523622032
 20
840.6539279893094
 30
0.0
 40
3.424999999999982
  0
CIRCLE
  5
899
330
87E
100
AcDbEntity
  8
0
  6
Continuous
 62
     7
370
    15
100
AcDbCircle
 10
1887.004523622032
 20
840.6539279893094
 30
0.0
 40
2.47500000000663
  0
CIRCLE
  5
89A
330
87E
100
AcDbEntity
  8
0
  6
Continuous
 62
     7
370
    15
100
AcDbCircle
 10
1863.004523622032
 20
840.6539279893094
 30
0.0
 40
3.424999999999982
  0
CIRCLE
  5
89B
330
87E
100
AcDbEntity
  8
0
  6
Continuous
 62
     7
370
    15
100
AcDbCircle
 10
1815.004523622032
 20
840.6539279893094
 30
0.0
 40
3.425000000000011
  0
CIRCLE
  5
89C
330
87E
100
AcDbEntity
  8
0
  6
Continuous
 62
     7
370
    15
100
AcDbCircle
 10
1815.004523622032
 20
840.6539279893094
 30
0.0
 40
2.475000000006644
  0
ARC
  5
89D
330
87E
100
AcDbEntity
  8
0
  6
Continuous
 62
     7
370
    15
100
AcDbCircle
 10
1827.004523622031
 20
840.6539279893094
 30
0.0
 40
2.197439522055447
100
AcDbArc
 50
13.15214010487884
 51
166.8478598951275
  0
ARC
  5
89E
330
87E
100
AcDbEntity
  8
0
  6
Continuous
 62
     7
370
    15
100
AcDbCircle
 10
1827.004523622031
 20
840.6539279893094
 30
0.0
 40
2.145679479869398
100
AcDbArc
 50
166.5246847195484
 51
193.4753152804515
  0
ARC
  5
89F
330
87E
100
AcDbEntity
  8
0
  6
Continuous
 62
     7
370
    15
100
AcDbCircle
 10
1827.004523622031
 20
840.6539279893094
 30
0.0
 40
2.197439522055474
100
AcDbArc
 50
193.1521401048788
 51
346.8478598951275
  0
ARC
  5
8A0
330
87E
100
AcDbEntity
  8
0
  6
Continuous
 62
     7
370
    15
100
AcDbCircle
 10
1827.004523622031
 20
840.6539279893094
 30
0.0
 40
2.145679479869426
100
AcDbArc
 50
346.5246847195485
 51
13.47531528045153
  0
CIRCLE
  5
8A1
330
87E
100
AcDbEntity
  8
0
  6
Continuous
 62
     7
370
    15
100
AcDbCircle
 10
1875.004523622031
 20
840.6539279893094
 30
0.0
 40
2.475000000006616
  0
ARC
  5
8A2
330
87E
100
AcDbEntity
  8
0
  6
Continuous
 62
     7
370
    15
100
AcDbCircle
 10
1875.004523622031
 20
840.6539279893094
 30
0.0
 40
2.197439522055474
100
AcDbArc
 50
13.15214010487884
 51
166.8478598951275
  0
ARC
  5
8A3
330
87E
100
AcDbEntity
  8
0
  6
Continuous
 62
     7
370
    15
100
AcDbCircle
 10
1875.004523622031
 20
840.6539279893094
 30
0.0
 40
2.145679479869412
100
AcDbArc
 50
166.5246847195484
 51
193.4753152804515
  0
ARC
  5
8A4
330
87E
100
AcDbEntity
  8
0
  6
Continuous
 62
     7
370
    15
100
AcDbCircle
 10
1875.004523622031
 20
840.6539279893094
 30
0.0
 40
2.197439522055447
100
AcDbArc
 50
193.1521401048788
 51
346.8478598951275
  0
ARC
  5
8A5
330
87E
100
AcDbEntity
  8
0
  6
Continuous
 62
     7
370
    15
100
AcDbCircle
 10
1875.004523622031
 20
840.6539279893094
 30
0.0
 40
2.145679479869412
100
AcDbArc
 50
346.5246847195485
 51
13.47531528045153
  0
ARC
  5
8A6
330
87E
100
AcDbEntity
  8
0
  6
Continuous
 62
     7
370
    15
100
AcDbCircle
 10
1815.004523622032
 20
840.6539279893094
 30
0.0
 40
2.197439522055474
100
AcDbArc
 50
13.15214010487884
 51
166.8478598951275
  0
ARC
  5
8A7
330
87E
100
AcDbEntity
  8
0
  6
Continuous
 62
     7
370
    15
100
AcDbCircle
 10
1815.004523622032
 20
840.6539279893094
 30
0.0
 40
2.145679479869454
100
AcDbArc
 50
166.5246847195484
 51
193.4753152804515
  0
ARC
  5
8A8
330
87E
100
AcDbEntity
  8
0
  6
Continuous
 62
     7
370
    15
100
AcDbCircle
 10
1815.004523622032
 20
840.6539279893094
 30
0.0
 40
2.197439522055447
100
AcDbArc
 50
193.1521401048788
 51
346.8478598951275
  0
ARC
  5
8A9
330
87E
100
AcDbEntity
  8
0
  6
Continuous
 62
     7
370
    15
100
AcDbCircle
 10
1815.004523622032
 20
840.6539279893094
 30
0.0
 40
2.145679479869426
100
AcDbArc
 50
346.5246847195485
 51
13.47531528045153
  0
CIRCLE
  5
8AA
330
87E
100
AcDbEntity
  8
0
  6
Continuous
 62
     7
370
    15
100
AcDbCircle
 10
1875.004523622031
 20
840.6539279893094
 30
0.0
 40
3.425000000000011
  0
ARC
  5
8AB
330
87E
100
AcDbEntity
  8
0
  6
Continuous
 62
     7
370
    15
100
AcDbCircle
 10
1839.004523622032
 20
840.6539279893094
 30
0.0
 40
2.197439522055474
100
AcDbArc
 50
13.15214010487884
 51
166.8478598951275
  0
ARC
  5
8AC
330
87E
100
AcDbEntity
  8
0
  6
Continuous
 62
     7
370
    15
100
AcDbCircle
 10
1839.004523622032
 20
840.6539279893094
 30
0.0
 40
2.145679479869426
100
AcDbArc
 50
166.5246847195484
 51
193.4753152804515
  0
ARC
  5
8AD
330
87E
100
AcDbEntity
  8
0
  6
Continuous
 62
     7
370
    15
100
AcDbCircle
 10
1839.004523622032
 20
840.6539279893094
 30
0.0
 40
2.197439522055447
100
AcDbArc
 50
193.1521401048788
 51
346.8478598951275
  0
ARC
  5
8AE
330
87E
100
AcDbEntity
  8
0
  6
Continuous
 62
     7
370
    15
100
AcDbCircle
 10
1839.004523622032
 20
840.6539279893094
 30
0.0
 40
2.145679479869398
100
AcDbArc
 50
346.5246847195485
 51
13.47531528045153
  0
CIRCLE
  5
8AF
330
87E
100
AcDbEntity
  8
0
  6
Continuous
 62
     7
370
    15
100
AcDbCircle
 10
1923.004523622031
 20
840.6539279893094
 30
0.0
 40
2.475000000006637
  0
ARC
  5
8B0
330
87E
100
AcDbEntity
  8
0
  6
Continuous
 62
     7
370
    15
100
AcDbCircle
 10
1923.004523622031
 20
840.6539279893094
 30
0.0
 40
2.197439522055461
100
AcDbArc
 50
13.15214010487884
 51
166.8478598951275
  0
ARC
  5
8B1
330
87E
100
AcDbEntity
  8
0
  6
Continuous
 62
     7
370
    15
100
AcDbCircle
 10
1923.004523622031
 20
840.6539279893094
 30
0.0
 40
2.145679479869412
100
AcDbArc
 50
166.5246847195484
 51
193.4753152804515
  0
ARC
  5
8B2
330
87E
100
AcDbEntity
  8
0
  6
Continuous
 62
     7
370
    15
100
AcDbCircle
 10
1923.004523622031
 20
840.6539279893094
 30
0.0
 40
2.197439522055461
100
AcDbArc
 50
193.1521401048788
 51
346.8478598951275
  0
ARC
  5
8B3
330
87E
100
AcDbEntity
  8
0
  6
Continuous
 62
     7
370
    15
100
AcDbCircle
 10
1923.004523622031
 20
840.6539279893094
 30
0.0
 40
2.145679479869412
100
AcDbArc
 50
346.5246847195485
 51
13.47531528045153
  0
ARC
  5
8B4
330
87E
100
AcDbEntity
  8
0
  6
Continuous
 62
     7
370
    15
100
AcDbCircle
 10
1887.004523622032
 20
840.6539279893094
 30
0.0
 40
2.197439522055461
100
AcDbArc
 50
13.15214010487884
 51
166.8478598951275
  0
ARC
  5
8B5
330
87E
100
AcDbEntity
  8
0
  6
Continuous
 62
     7
370
    15
100
AcDbCircle
 10
1887.004523622032
 20
840.6539279893094
 30
0.0
 40
2.145679479869412
100
AcDbArc
 50
166.5246847195484
 51
193.4753152804515
  0
ARC
  5
8B6
330
87E
100
AcDbEntity
  8
0
  6
Continuous
 62
     7
370
    15
100
AcDbCircle
 10
1887.004523622032
 20
840.6539279893094
 30
0.0
 40
2.197439522055461
100
AcDbArc
 50
193.1521401048788
 51
346.8478598951275
  0
ARC
  5
8B7
330
87E
100
AcDbEntity
  8
0
  6
Continuous
 62
     7
370
    15
100
AcDbCircle
 10
1887.004523622032
 20
840.6539279893094
 30
0.0
 40
2.145679479869412
100
AcDbArc
 50
346.5246847195485
 51
13.47531528045153
  0
CIRCLE
  5
8B8
330
87E
100
AcDbEntity
  8
0
  6
Continuous
 62
     7
370
    15
100
AcDbCircle
 10
1923.004523622031
 20
840.6539279893094
 30
0.0
 40
3.424999999999997
  0
ARC
  5
8B9
330
87E
100
AcDbEntity
  8
0
  6
Continuous
 62
     7
370
    15
100
AcDbCircle
 10
1899.004523622032
 20
840.6539279893094
 30
0.0
 40
2.197439522055461
100
AcDbArc
 50
13.15214010487884
 51
166.8478598951275
  0
ARC
  5
8BA
330
87E
100
AcDbEntity
  8
0
  6
Continuous
 62
     7
370
    15
100
AcDbCircle
 10
1899.004523622032
 20
840.6539279893094
 30
0.0
 40
2.145679479869412
100
AcDbArc
 50
166.5246847195484
 51
193.4753152804515
  0
ARC
  5
8BB
330
87E
100
AcDbEntity
  8
0
  6
Continuous
 62
     7
370
    15
100
AcDbCircle
 10
1899.004523622032
 20
840.6539279893094
 30
0.0
 40
2.197439522055461
100
AcDbArc
 50
193.1521401048788
 51
346.8478598951275
  0
ARC
  5
8BC
330
87E
100
AcDbEntity
  8
0
  6
Continuous
 62
     7
370
    15
100
AcDbCircle
 10
1899.004523622032
 20
840.6539279893094
 30
0.0
 40
2.145679479869412
100
AcDbArc
 50
346.5246847195485
 51
13.47531528045153
  0
ARC
  5
8BD
330
87E
100
AcDbEntity
  8
0
  6
Continuous
 62
     7
370
    15
100
AcDbCircle
 10
1911.004523622031
 20
840.6539279893094
 30
0.0
 40
2.188421798069985
100
AcDbArc
 50
13.20731410364895
 51
166.792685896351
  0
SPLINE
  5
8BE
330
87E
100
AcDbEntity
  8
0
  6
Continuous
 62
     7
370
    15
100
AcDbSpline
210
0.0
220
0.0
230
1.0
 70
    24
 71
     3
 72
    10
 73
     6
 74
     0
 42
0.0000000001
 43
0.0000000001
 40
0.0
 40
0.0
 40
0.0
 40
0.0
 40
0.5
 40
0.5
 40
1.0
 40
1.0
 40
1.0
 40
1.0
 10
1912.929480517175
 20
841.1539279893094
 30
0.0
 10
1912.980947100767
 20
841.1539279893094
 30
0.0
 10
1913.031346342734
 20
841.1539279893094
 30
0.0
 10
1913.107396341027
 20
841.1539279893094
 30
0.0
 10
1913.131667787665
 20
841.1539279893094
 30
0.0
 10
1913.135061104984
 20
841.1539279893094
 30
0.0
  0
SPLINE
  5
8BF
330
87E
100
AcDbEntity
  8
0
  6
Continuous
 62
     7
370
    15
100
AcDbSpline
210
0.0
220
0.0
230
1.0
 70
     8
 71
     3
 72
    30
 73
    26
 74
     0
 42
0.0000000001
 43
0.0000000001
 40
0.0
 40
0.0
 40
0.0
 40
0.0
 40
0.0252132537977509
 40
0.0504260853629675
 40
0.0756389169281839
 40
0.1008521707259349
 40
0.1510330133366715
 40
0.2198002430167729
 40
0.2874243037647684
 40
0.3549493332343428
 40
0.391443762368866
 40
0.4275783893443493
 40
0.5000255042853522
 40
0.5365198954318836
 40
0.5726545181368488
 40
0.6451015991350566
 40
0.6790949178862577
 40
0.71279276159284
 40
0.7803178337475424
 40
0.8202088460242269
 40
0.9135889664759854
 40
0.9351916714086479
 40
0.9567944804914587
 40
0.9783972909475378
 40
1.0
 40
1.0
 40
1.0
 40
1.0
 10
1909.079566726888
 20
841.1539279893094
 30
0.0
 10
1909.091458046531
 20
841.1962811115328
 30
0.0
 10
1909.11524048668
 20
841.2809866467151
 30
0.0
 10
1909.161453880277
 20
841.4047049296394
 30
0.0
 10
1909.215147004546
 20
841.5252919530285
 30
0.0
 10
1909.297182070741
 20
841.6805396738133
 30
0.0
 10
1909.436447936073
 20
841.8907819952876
 30
0.0
 10
1909.657821300112
 20
842.1317715893176
 30
0.0
 10
1909.942269130876
 20
842.348332267387
 30
0.0
 10
1910.210869282398
 20
842.4843742837051
 30
0.0
 10
1910.442008787254
 20
842.5648798680567
 30
0.0
 10
1910.688115062581
 20
842.6250691173647
 30
0.0
 10
1910.941875553518
 20
842.6486899500904
 30
0.0
 10
1911.194917009381
 20
842.6368319709826
 30
0.0
 10
1911.445726689753
 20
842.600934748639
 30
0.0
 10
1911.685803854389
 20
842.5295210992887
 30
0.0
 10
1911.908615388341
 20
842.4284777353268
 30
0.0
 10
1912.114127875922
 20
842.312260213731
 30
0.0
 10
1912.311203571813
 20
842.1621904245455
 30
0.0
 10
1912.557796407085
 20
841.9130916147551
 30
0.0
 10
1912.713385435607
 20
841.6879928406565
 30
0.0
 10
1912.817713826029
 20
841.4737982114367
 30
0.0
 10
1912.861282743579
 20
841.3694337729467
 30
0.0
 10
1912.899278889887
 20
841.2628836155201
 30
0.0
 10
1912.919413323831
 20
841.190246474553
 30
0.0
 10
1912.929480517175
 20
841.1539279893094
 30
0.0
  0
SPLINE
  5
8C0
330
87E
100
AcDbEntity
  8
0
  6
Continuous
 62
     7
370
    15
100
AcDbSpline
210
0.0
220
0.0
230
1.0
 70
    24
 71
     3
 72
    10
 73
     6
 74
     0
 42
0.0000000001
 43
0.0000000001
 40
0.0
 40
0.0
 40
0.0
 40
0.0
 40
0.5
 40
0.5
 40
1.0
 40
1.0
 40
1.0
 40
1.0
 10
1908.873986139079
 20
841.1539279893094
 30
0.0
 10
1908.877376877364
 20
841.1539279893094
 30
0.0
 10
1908.90175291314
 20
841.1539279893094
 30
0.0
 10
1908.977415490793
 20
841.1539279893094
 30
0.0
 10
1909.028134499966
 20
841.1539279893094
 30
0.0
 10
1909.079566726888
 20
841.1539279893094
 30
0.0
  0
ARC
  5
8C1
330
87E
100
AcDbEntity
  8
0
  6
Continuous
 62
     7
370
    15
100
AcDbCircle
 10
1899.004523622032
 20
840.6539279893094
 30
0.0
 40
2.188421798069978
100
AcDbArc
 50
13.20731410364895
 51
166.792685896351
  0
SPLINE
  5
8C2
330
87E
100
AcDbEntity
  8
0
  6
Continuous
 62
     7
370
    15
100
AcDbSpline
210
0.0
220
0.0
230
1.0
 70
    24
 71
     3
 72
    10
 73
     6
 74
     0
 42
0.0000000001
 43
0.0000000001
 40
0.0
 40
0.0
 40
0.0
 40
0.0
 40
0.5
 40
0.5
 40
1.0
 40
1.0
 40
1.0
 40
1.0
 10
1900.929480517175
 20
841.1539279893094
 30
0.0
 10
1900.980947100767
 20
841.1539279893094
 30
0.0
 10
1901.031346342734
 20
841.1539279893094
 30
0.0
 10
1901.107396341027
 20
841.1539279893094
 30
0.0
 10
1901.131667787665
 20
841.1539279893094
 30
0.0
 10
1901.135061104985
 20
841.1539279893094
 30
0.0
  0
SPLINE
  5
8C3
330
87E
100
AcDbEntity
  8
0
  6
Continuous
 62
     7
370
    15
100
AcDbSpline
210
0.0
220
0.0
230
1.0
 70
     8
 71
     3
 72
    30
 73
    26
 74
     0
 42
0.0000000001
 43
0.0000000001
 40
0.0
 40
0.0
 40
0.0
 40
0.0
 40
0.0252132537977509
 40
0.0504260853629675
 40
0.0756389169281839
 40
0.1008521707259349
 40
0.1510330133366715
 40
0.2198002430167729
 40
0.2874243037647684
 40
0.3549493332343428
 40
0.391443762368866
 40
0.4275783893443493
 40
0.5000255042853522
 40
0.5365198954318835
 40
0.5726545181368487
 40
0.6451015991350566
 40
0.6790949178862576
 40
0.7127927615928399
 40
0.7803178337475424
 40
0.8202088460242269
 40
0.9135889664759854
 40
0.9351916714086479
 40
0.9567944804914587
 40
0.9783972909475378
 40
1.0
 40
1.0
 40
1.0
 40
1.0
 10
1897.079566726888
 20
841.1539279893094
 30
0.0
 10
1897.091458046531
 20
841.1962811115328
 30
0.0
 10
1897.11524048668
 20
841.2809866467151
 30
0.0
 10
1897.161453880277
 20
841.4047049296394
 30
0.0
 10
1897.215147004546
 20
841.5252919530285
 30
0.0
 10
1897.297182070741
 20
841.6805396738133
 30
0.0
 10
1897.436447936073
 20
841.8907819952876
 30
0.0
 10
1897.657821300112
 20
842.1317715893176
 30
0.0
 10
1897.942269130876
 20
842.348332267387
 30
0.0
 10
1898.210869282398
 20
842.4843742837051
 30
0.0
 10
1898.442008787254
 20
842.5648798680567
 30
0.0
 10
1898.68811506258
 20
842.6250691173647
 30
0.0
 10
1898.941875553518
 20
842.6486899500904
 30
0.0
 10
1899.194917009381
 20
842.6368319709826
 30
0.0
 10
1899.445726689753
 20
842.600934748639
 30
0.0
 10
1899.685803854389
 20
842.5295210992887
 30
0.0
 10
1899.908615388341
 20
842.4284777353268
 30
0.0
 10
1900.114127875922
 20
842.312260213731
 30
0.0
 10
1900.311203571813
 20
842.1621904245455
 30
0.0
 10
1900.557796407086
 20
841.9130916147551
 30
0.0
 10
1900.713385435608
 20
841.6879928406565
 30
0.0
 10
1900.81771382603
 20
841.4737982114367
 30
0.0
 10
1900.861282743578
 20
841.3694337729467
 30
0.0
 10
1900.899278889887
 20
841.2628836155201
 30
0.0
 10
1900.919413323831
 20
841.190246474553
 30
0.0
 10
1900.929480517175
 20
841.1539279893094
 30
0.0
  0
SPLINE
  5
8C4
330
87E
100
AcDbEntity
  8
0
  6
Continuous
 62
     7
370
    15
100
AcDbSpline
210
0.0
220
0.0
230
1.0
 70
    24
 71
     3
 72
    10
 73
     6
 74
     0
 42
0.0000000001
 43
0.0000000001
 40
0.0
 40
0.0
 40
0.0
 40
0.0
 40
0.5
 40
0.5
 40
1.0
 40
1.0
 40
1.0
 40
1.0
 10
1896.873986139079
 20
841.1539279893094
 30
0.0
 10
1896.877376877364
 20
841.1539279893094
 30
0.0
 10
1896.901752913139
 20
841.1539279893094
 30
0.0
 10
1896.977415490794
 20
841.1539279893094
 30
0.0
 10
1897.028134499966
 20
841.1539279893094
 30
0.0
 10
1897.079566726888
 20
841.1539279893094
 30
0.0
  0
ARC
  5
8C5
330
87E
100
AcDbEntity
  8
0
  6
Continuous
 62
     7
370
    15
100
AcDbCircle
 10
1827.004523622031
 20
840.6539279893094
 30
0.0
 40
2.188421798070006
100
AcDbArc
 50
13.20731410364895
 51
166.792685896351
  0
SPLINE
  5
8C6
330
87E
100
AcDbEntity
  8
0
  6
Continuous
 62
     7
370
    15
100
AcDbSpline
210
0.0
220
0.0
230
1.0
 70
     8
 71
     3
 72
    30
 73
    26
 74
     0
 42
0.0000000001
 43
0.0000000001
 40
0.0
 40
0.0
 40
0.0
 40
0.0
 40
0.0252132537977505
 40
0.0504260853629672
 40
0.075638916928184
 40
0.1008521707259345
 40
0.1510330133366718
 40
0.2198002430167732
 40
0.2874243037647682
 40
0.3549493332343423
 40
0.3914437623688656
 40
0.4275783893443489
 40
0.5000255042853525
 40
0.5365198954318826
 40
0.5726545181368483
 40
0.6451015991350574
 40
0.6790949178862585
 40
0.7127927615928408
 40
0.7803178337475423
 40
0.820208846024227
 40
0.9135889664759849
 40
0.9351916714086479
 40
0.9567944804914592
 40
0.9783972909475378
 40
0.9999999999999998
 40
0.9999999999999998
 40
0.9999999999999998
 40
0.9999999999999998
 10
1825.079566726888
 20
841.1539279893094
 30
0.0
 10
1825.091458046532
 20
841.1962811115328
 30
0.0
 10
1825.11524048668
 20
841.2809866467151
 30
0.0
 10
1825.161453880277
 20
841.4047049296392
 30
0.0
 10
1825.215147004546
 20
841.5252919530285
 30
0.0
 10
1825.297182070741
 20
841.6805396738133
 30
0.0
 10
1825.436447936073
 20
841.8907819952876
 30
0.0
 10
1825.657821300113
 20
842.1317715893176
 30
0.0
 10
1825.942269130876
 20
842.348332267387
 30
0.0
 10
1826.210869282398
 20
842.4843742837051
 30
0.0
 10
1826.442008787254
 20
842.5648798680567
 30
0.0
 10
1826.68811506258
 20
842.6250691173647
 30
0.0
 10
1826.941875553518
 20
842.6486899500904
 30
0.0
 10
1827.194917009381
 20
842.6368319709826
 30
0.0
 10
1827.445726689753
 20
842.600934748639
 30
0.0
 10
1827.685803854389
 20
842.5295210992887
 30
0.0
 10
1827.908615388341
 20
842.4284777353268
 30
0.0
 10
1828.114127875922
 20
842.312260213731
 30
0.0
 10
1828.311203571813
 20
842.1621904245455
 30
0.0
 10
1828.557796407086
 20
841.9130916147551
 30
0.0
 10
1828.713385435607
 20
841.6879928406565
 30
0.0
 10
1828.817713826029
 20
841.4737982114367
 30
0.0
 10
1828.861282743579
 20
841.3694337729467
 30
0.0
 10
1828.899278889887
 20
841.2628836155201
 30
0.0
 10
1828.919413323831
 20
841.190246474553
 30
0.0
 10
1828.929480517175
 20
841.1539279893094
 30
0.0
  0
SPLINE
  5
8C7
330
87E
100
AcDbEntity
  8
0
  6
Continuous
 62
     7
370
    15
100
AcDbSpline
210
0.0
220
0.0
230
1.0
 70
    24
 71
     3
 72
    10
 73
     6
 74
     0
 42
0.0000000001
 43
0.0000000001
 40
0.0
 40
0.0
 40
0.0
 40
0.0
 40
0.5
 40
0.5
 40
1.0
 40
1.0
 40
1.0
 40
1.0
 10
1824.873986139079
 20
841.1539279893094
 30
0.0
 10
1824.877376877364
 20
841.1539279893094
 30
0.0
 10
1824.90175291314
 20
841.1539279893094
 30
0.0
 10
1824.977415490793
 20
841.1539279893094
 30
0.0
 10
1825.028134499966
 20
841.1539279893094
 30
0.0
 10
1825.079566726888
 20
841.1539279893094
 30
0.0
  0
SPLINE
  5
8C8
330
87E
100
AcDbEntity
  8
0
  6
Continuous
 62
     7
370
    15
100
AcDbSpline
210
0.0
220
0.0
230
1.0
 70
    24
 71
     3
 72
    10
 73
     6
 74
     0
 42
0.0000000001
 43
0.0000000001
 40
0.0
 40
0.0
 40
0.0
 40
0.0
 40
0.5
 40
0.5
 40
1.0
 40
1.0
 40
1.0
 40
1.0
 10
1828.929480517175
 20
841.1539279893094
 30
0.0
 10
1828.980947100767
 20
841.1539279893094
 30
0.0
 10
1829.031346342734
 20
841.1539279893094
 30
0.0
 10
1829.107396341027
 20
841.1539279893094
 30
0.0
 10
1829.131667787665
 20
841.1539279893094
 30
0.0
 10
1829.135061104985
 20
841.1539279893094
 30
0.0
  0
ARC
  5
8C9
330
87E
100
AcDbEntity
  8
0
  6
Continuous
 62
     7
370
    15
100
AcDbCircle
 10
1875.004523622031
 20
840.6539279893094
 30
0.0
 40
2.188421798069978
100
AcDbArc
 50
13.20731410364895
 51
166.792685896351
  0
SPLINE
  5
8CA
330
87E
100
AcDbEntity
  8
0
  6
Continuous
 62
     7
370
    15
100
AcDbSpline
210
0.0
220
0.0
230
1.0
 70
     8
 71
     3
 72
    30
 73
    26
 74
     0
 42
0.0000000001
 43
0.0000000001
 40
0.0
 40
0.0
 40
0.0
 40
0.0
 40
0.0252132537977502
 40
0.0504260853629672
 40
0.0756389169281837
 40
0.1008521707259347
 40
0.1510330133366712
 40
0.2198002430167736
 40
0.2874243037647681
 40
0.3549493332343425
 40
0.3914437623688656
 40
0.427578389344349
 40
0.5000255042853519
 40
0.5365198954318819
 40
0.5726545181368485
 40
0.6451015991350575
 40
0.6790949178862586
 40
0.7127927615928411
 40
0.7803178337475425
 40
0.820208846024227
 40
0.9135889664759847
 40
0.9351916714086478
 40
0.9567944804914592
 40
0.9783972909475378
 40
0.9999999999999998
 40
0.9999999999999998
 40
0.9999999999999998
 40
0.9999999999999998
 10
1873.079566726888
 20
841.1539279893094
 30
0.0
 10
1873.091458046531
 20
841.1962811115328
 30
0.0
 10
1873.11524048668
 20
841.2809866467151
 30
0.0
 10
1873.161453880277
 20
841.4047049296394
 30
0.0
 10
1873.215147004546
 20
841.5252919530285
 30
0.0
 10
1873.297182070741
 20
841.6805396738133
 30
0.0
 10
1873.436447936073
 20
841.8907819952876
 30
0.0
 10
1873.657821300113
 20
842.1317715893176
 30
0.0
 10
1873.942269130876
 20
842.348332267387
 30
0.0
 10
1874.210869282398
 20
842.4843742837051
 30
0.0
 10
1874.442008787254
 20
842.5648798680567
 30
0.0
 10
1874.68811506258
 20
842.6250691173647
 30
0.0
 10
1874.941875553518
 20
842.6486899500904
 30
0.0
 10
1875.194917009381
 20
842.6368319709826
 30
0.0
 10
1875.445726689753
 20
842.600934748639
 30
0.0
 10
1875.685803854389
 20
842.5295210992887
 30
0.0
 10
1875.908615388341
 20
842.4284777353268
 30
0.0
 10
1876.114127875922
 20
842.312260213731
 30
0.0
 10
1876.311203571813
 20
842.1621904245455
 30
0.0
 10
1876.557796407086
 20
841.9130916147551
 30
0.0
 10
1876.713385435607
 20
841.6879928406565
 30
0.0
 10
1876.817713826029
 20
841.4737982114367
 30
0.0
 10
1876.861282743578
 20
841.3694337729467
 30
0.0
 10
1876.899278889888
 20
841.2628836155201
 30
0.0
 10
1876.919413323831
 20
841.190246474553
 30
0.0
 10
1876.929480517175
 20
841.1539279893094
 30
0.0
  0
SPLINE
  5
8CB
330
87E
100
AcDbEntity
  8
0
  6
Continuous
 62
     7
370
    15
100
AcDbSpline
210
0.0
220
0.0
230
1.0
 70
    24
 71
     3
 72
    10
 73
     6
 74
     0
 42
0.0000000001
 43
0.0000000001
 40
0.0
 40
0.0
 40
0.0
 40
0.0
 40
0.5
 40
0.5
 40
1.0
 40
1.0
 40
1.0
 40
1.0
 10
1872.873986139078
 20
841.1539279893094
 30
0.0
 10
1872.877376877364
 20
841.1539279893094
 30
0.0
 10
1872.901752913139
 20
841.1539279893094
 30
0.0
 10
1872.977415490793
 20
841.1539279893094
 30
0.0
 10
1873.028134499966
 20
841.1539279893094
 30
0.0
 10
1873.079566726888
 20
841.1539279893094
 30
0.0
  0
SPLINE
  5
8CC
330
87E
100
AcDbEntity
  8
0
  6
Continuous
 62
     7
370
    15
100
AcDbSpline
210
0.0
220
0.0
230
1.0
 70
    24
 71
     3
 72
    10
 73
     6
 74
     0
 42
0.0000000001
 43
0.0000000001
 40
0.0
 40
0.0
 40
0.0
 40
0.0
 40
0.5
 40
0.5
 40
1.0
 40
1.0
 40
1.0
 40
1.0
 10
1876.929480517175
 20
841.1539279893094
 30
0.0
 10
1876.980947100767
 20
841.1539279893094
 30
0.0
 10
1877.031346342734
 20
841.1539279893094
 30
0.0
 10
1877.107396341027
 20
841.1539279893094
 30
0.0
 10
1877.131667787665
 20
841.1539279893094
 30
0.0
 10
1877.135061104985
 20
841.1539279893094
 30
0.0
  0
ARC
  5
8CD
330
87E
100
AcDbEntity
  8
0
  6
Continuous
 62
     7
370
    15
100
AcDbCircle
 10
1923.004523622031
 20
840.6539279893094
 30
0.0
 40
2.188421798069991
100
AcDbArc
 50
13.20731410364895
 51
166.792685896351
  0
SPLINE
  5
8CE
330
87E
100
AcDbEntity
  8
0
  6
Continuous
 62
     7
370
    15
100
AcDbSpline
210
0.0
220
0.0
230
1.0
 70
    24
 71
     3
 72
    10
 73
     6
 74
     0
 42
0.0000000001
 43
0.0000000001
 40
0.0
 40
0.0
 40
0.0
 40
0.0
 40
0.5
 40
0.5
 40
1.0
 40
1.0
 40
1.0
 40
1.0
 10
1924.929480517175
 20
841.1539279893094
 30
0.0
 10
1924.980947100767
 20
841.1539279893094
 30
0.0
 10
1925.031346342734
 20
841.1539279893094
 30
0.0
 10
1925.107396341027
 20
841.1539279893094
 30
0.0
 10
1925.131667787665
 20
841.1539279893094
 30
0.0
 10
1925.135061104985
 20
841.1539279893094
 30
0.0
  0
SPLINE
  5
8CF
330
87E
100
AcDbEntity
  8
0
  6
Continuous
 62
     7
370
    15
100
AcDbSpline
210
0.0
220
0.0
230
1.0
 70
     8
 71
     3
 72
    30
 73
    26
 74
     0
 42
0.0000000001
 43
0.0000000001
 40
0.0
 40
0.0
 40
0.0
 40
0.0
 40
0.0252132537977509
 40
0.0504260853629675
 40
0.0756389169281839
 40
0.1008521707259349
 40
0.1510330133366715
 40
0.2198002430167729
 40
0.2874243037647684
 40
0.3549493332343428
 40
0.391443762368866
 40
0.4275783893443493
 40
0.5000255042853522
 40
0.5365198954318835
 40
0.5726545181368487
 40
0.6451015991350566
 40
0.6790949178862576
 40
0.7127927615928399
 40
0.7803178337475424
 40
0.8202088460242269
 40
0.9135889664759854
 40
0.9351916714086479
 40
0.9567944804914587
 40
0.9783972909475378
 40
1.0
 40
1.0
 40
1.0
 40
1.0
 10
1921.079566726888
 20
841.1539279893094
 30
0.0
 10
1921.091458046531
 20
841.1962811115328
 30
0.0
 10
1921.11524048668
 20
841.2809866467151
 30
0.0
 10
1921.161453880277
 20
841.4047049296394
 30
0.0
 10
1921.215147004546
 20
841.5252919530285
 30
0.0
 10
1921.297182070741
 20
841.6805396738133
 30
0.0
 10
1921.436447936073
 20
841.8907819952876
 30
0.0
 10
1921.657821300112
 20
842.1317715893176
 30
0.0
 10
1921.942269130876
 20
842.348332267387
 30
0.0
 10
1922.210869282398
 20
842.4843742837051
 30
0.0
 10
1922.442008787254
 20
842.5648798680567
 30
0.0
 10
1922.68811506258
 20
842.6250691173647
 30
0.0
 10
1922.941875553518
 20
842.6486899500904
 30
0.0
 10
1923.194917009381
 20
842.6368319709826
 30
0.0
 10
1923.445726689753
 20
842.600934748639
 30
0.0
 10
1923.685803854389
 20
842.5295210992887
 30
0.0
 10
1923.908615388341
 20
842.4284777353268
 30
0.0
 10
1924.114127875922
 20
842.312260213731
 30
0.0
 10
1924.311203571813
 20
842.1621904245455
 30
0.0
 10
1924.557796407086
 20
841.9130916147551
 30
0.0
 10
1924.713385435607
 20
841.6879928406565
 30
0.0
 10
1924.81771382603
 20
841.4737982114367
 30
0.0
 10
1924.861282743578
 20
841.3694337729467
 30
0.0
 10
1924.899278889888
 20
841.2628836155201
 30
0.0
 10
1924.919413323831
 20
841.190246474553
 30
0.0
 10
1924.929480517175
 20
841.1539279893094
 30
0.0
  0
SPLINE
  5
8D0
330
87E
100
AcDbEntity
  8
0
  6
Continuous
 62
     7
370
    15
100
AcDbSpline
210
0.0
220
0.0
230
1.0
 70
    24
 71
     3
 72
    10
 73
     6
 74
     0
 42
0.0000000001
 43
0.0000000001
 40
0.0
 40
0.0
 40
0.0
 40
0.0
 40
0.5
 40
0.5
 40
1.0
 40
1.0
 40
1.0
 40
1.0
 10
1920.873986139078
 20
841.1539279893094
 30
0.0
 10
1920.877376877364
 20
841.1539279893094
 30
0.0
 10
1920.901752913139
 20
841.1539279893094
 30
0.0
 10
1920.977415490794
 20
841.1539279893094
 30
0.0
 10
1921.028134499966
 20
841.1539279893094
 30
0.0
 10
1921.079566726888
 20
841.1539279893094
 30
0.0
  0
ARC
  5
8D1
330
87E
100
AcDbEntity
  8
0
  6
Continuous
 62
     7
370
    15
100
AcDbCircle
 10
1887.004523622032
 20
840.6539279893094
 30
0.0
 40
2.188421798069991
100
AcDbArc
 50
13.20731410364895
 51
166.792685896351
  0
SPLINE
  5
8D2
330
87E
100
AcDbEntity
  8
0
  6
Continuous
 62
     7
370
    15
100
AcDbSpline
210
0.0
220
0.0
230
1.0
 70
    24
 71
     3
 72
    10
 73
     6
 74
     0
 42
0.0000000001
 43
0.0000000001
 40
0.0
 40
0.0
 40
0.0
 40
0.0
 40
0.5
 40
0.5
 40
1.0
 40
1.0
 40
1.0
 40
1.0
 10
1888.929480517175
 20
841.1539279893094
 30
0.0
 10
1888.980947100767
 20
841.1539279893094
 30
0.0
 10
1889.031346342734
 20
841.1539279893094
 30
0.0
 10
1889.107396341027
 20
841.1539279893094
 30
0.0
 10
1889.131667787665
 20
841.1539279893094
 30
0.0
 10
1889.135061104985
 20
841.1539279893094
 30
0.0
  0
SPLINE
  5
8D3
330
87E
100
AcDbEntity
  8
0
  6
Continuous
 62
     7
370
    15
100
AcDbSpline
210
0.0
220
0.0
230
1.0
 70
     8
 71
     3
 72
    30
 73
    26
 74
     0
 42
0.0000000001
 43
0.0000000001
 40
0.0
 40
0.0
 40
0.0
 40
0.0
 40
0.0252132537977509
 40
0.0504260853629675
 40
0.0756389169281839
 40
0.1008521707259349
 40
0.1510330133366715
 40
0.2198002430167729
 40
0.2874243037647684
 40
0.3549493332343428
 40
0.391443762368866
 40
0.4275783893443493
 40
0.5000255042853522
 40
0.5365198954318835
 40
0.5726545181368487
 40
0.6451015991350566
 40
0.6790949178862576
 40
0.7127927615928399
 40
0.7803178337475424
 40
0.8202088460242269
 40
0.9135889664759854
 40
0.9351916714086479
 40
0.9567944804914587
 40
0.9783972909475378
 40
1.0
 40
1.0
 40
1.0
 40
1.0
 10
1885.079566726888
 20
841.1539279893094
 30
0.0
 10
1885.091458046531
 20
841.1962811115328
 30
0.0
 10
1885.11524048668
 20
841.2809866467151
 30
0.0
 10
1885.161453880277
 20
841.4047049296394
 30
0.0
 10
1885.215147004547
 20
841.5252919530285
 30
0.0
 10
1885.297182070741
 20
841.6805396738133
 30
0.0
 10
1885.436447936072
 20
841.8907819952876
 30
0.0
 10
1885.657821300112
 20
842.1317715893176
 30
0.0
 10
1885.942269130876
 20
842.348332267387
 30
0.0
 10
1886.210869282399
 20
842.4843742837051
 30
0.0
 10
1886.442008787254
 20
842.5648798680567
 30
0.0
 10
1886.68811506258
 20
842.6250691173647
 30
0.0
 10
1886.941875553518
 20
842.6486899500904
 30
0.0
 10
1887.194917009381
 20
842.6368319709826
 30
0.0
 10
1887.445726689753
 20
842.600934748639
 30
0.0
 10
1887.685803854389
 20
842.5295210992887
 30
0.0
 10
1887.908615388341
 20
842.4284777353268
 30
0.0
 10
1888.114127875922
 20
842.312260213731
 30
0.0
 10
1888.311203571813
 20
842.1621904245455
 30
0.0
 10
1888.557796407086
 20
841.9130916147551
 30
0.0
 10
1888.713385435607
 20
841.6879928406565
 30
0.0
 10
1888.817713826029
 20
841.4737982114367
 30
0.0
 10
1888.861282743578
 20
841.3694337729467
 30
0.0
 10
1888.899278889887
 20
841.2628836155201
 30
0.0
 10
1888.919413323831
 20
841.190246474553
 30
0.0
 10
1888.929480517175
 20
841.1539279893094
 30
0.0
  0
SPLINE
  5
8D4
330
87E
100
AcDbEntity
  8
0
  6
Continuous
 62
     7
370
    15
100
AcDbSpline
210
0.0
220
0.0
230
1.0
 70
    24
 71
     3
 72
    10
 73
     6
 74
     0
 42
0.0000000001
 43
0.0000000001
 40
0.0
 40
0.0
 40
0.0
 40
0.0
 40
0.5
 40
0.5
 40
1.0
 40
1.0
 40
1.0
 40
1.0
 10
1884.873986139078
 20
841.1539279893094
 30
0.0
 10
1884.877376877364
 20
841.1539279893094
 30
0.0
 10
1884.901752913139
 20
841.1539279893094
 30
0.0
 10
1884.977415490794
 20
841.1539279893094
 30
0.0
 10
1885.028134499966
 20
841.1539279893094
 30
0.0
 10
1885.079566726888
 20
841.1539279893094
 30
0.0
  0
ARC
  5
8D5
330
87E
100
AcDbEntity
  8
0
  6
Continuous
 62
     7
370
    15
100
AcDbCircle
 10
1815.004523622032
 20
840.6539279893094
 30
0.0
 40
2.188421798069978
100
AcDbArc
 50
13.20731410364895
 51
166.792685896351
  0
SPLINE
  5
8D6
330
87E
100
AcDbEntity
  8
0
  6
Continuous
 62
     7
370
    15
100
AcDbSpline
210
0.0
220
0.0
230
1.0
 70
     8
 71
     3
 72
    30
 73
    26
 74
     0
 42
0.0000000001
 43
0.0000000001
 40
0.0
 40
0.0
 40
0.0
 40
0.0
 40
0.0252132537977505
 40
0.0504260853629673
 40
0.075638916928184
 40
0.1008521707259345
 40
0.1510330133366718
 40
0.2198002430167734
 40
0.2874243037647681
 40
0.3549493332343424
 40
0.3914437623688654
 40
0.4275783893443487
 40
0.5000255042853523
 40
0.5365198954318825
 40
0.5726545181368483
 40
0.6451015991350574
 40
0.6790949178862585
 40
0.7127927615928411
 40
0.7803178337475425
 40
0.8202088460242272
 40
0.9135889664759849
 40
0.9351916714086479
 40
0.9567944804914592
 40
0.9783972909475378
 40
0.9999999999999998
 40
0.9999999999999998
 40
0.9999999999999998
 40
0.9999999999999998
 10
1813.079566726888
 20
841.1539279893094
 30
0.0
 10
1813.091458046531
 20
841.1962811115328
 30
0.0
 10
1813.11524048668
 20
841.2809866467151
 30
0.0
 10
1813.161453880277
 20
841.4047049296392
 30
0.0
 10
1813.215147004546
 20
841.5252919530285
 30
0.0
 10
1813.297182070741
 20
841.6805396738133
 30
0.0
 10
1813.436447936073
 20
841.8907819952876
 30
0.0
 10
1813.657821300112
 20
842.1317715893174
 30
0.0
 10
1813.942269130876
 20
842.348332267387
 30
0.0
 10
1814.210869282398
 20
842.4843742837051
 30
0.0
 10
1814.442008787254
 20
842.5648798680567
 30
0.0
 10
1814.68811506258
 20
842.6250691173647
 30
0.0
 10
1814.941875553518
 20
842.6486899500904
 30
0.0
 10
1815.194917009381
 20
842.6368319709826
 30
0.0
 10
1815.445726689753
 20
842.600934748639
 30
0.0
 10
1815.685803854389
 20
842.5295210992887
 30
0.0
 10
1815.908615388341
 20
842.4284777353268
 30
0.0
 10
1816.114127875922
 20
842.312260213731
 30
0.0
 10
1816.311203571813
 20
842.1621904245455
 30
0.0
 10
1816.557796407086
 20
841.9130916147551
 30
0.0
 10
1816.713385435607
 20
841.6879928406565
 30
0.0
 10
1816.817713826029
 20
841.4737982114367
 30
0.0
 10
1816.861282743579
 20
841.3694337729467
 30
0.0
 10
1816.899278889887
 20
841.2628836155201
 30
0.0
 10
1816.919413323831
 20
841.190246474553
 30
0.0
 10
1816.929480517175
 20
841.1539279893094
 30
0.0
  0
SPLINE
  5
8D7
330
87E
100
AcDbEntity
  8
0
  6
Continuous
 62
     7
370
    15
100
AcDbSpline
210
0.0
220
0.0
230
1.0
 70
    24
 71
     3
 72
    10
 73
     6
 74
     0
 42
0.0000000001
 43
0.0000000001
 40
0.0
 40
0.0
 40
0.0
 40
0.0
 40
0.5
 40
0.5
 40
1.0
 40
1.0
 40
1.0
 40
1.0
 10
1812.873986139079
 20
841.1539279893094
 30
0.0
 10
1812.877376877364
 20
841.1539279893094
 30
0.0
 10
1812.901752913139
 20
841.1539279893094
 30
0.0
 10
1812.977415490794
 20
841.1539279893094
 30
0.0
 10
1813.028134499966
 20
841.1539279893094
 30
0.0
 10
1813.079566726888
 20
841.1539279893094
 30
0.0
  0
SPLINE
  5
8D8
330
87E
100
AcDbEntity
  8
0
  6
Continuous
 62
     7
370
    15
100
AcDbSpline
210
0.0
220
0.0
230
1.0
 70
    24
 71
     3
 72
    10
 73
     6
 74
     0
 42
0.0000000001
 43
0.0000000001
 40
0.0
 40
0.0
 40
0.0
 40
0.0
 40
0.5
 40
0.5
 40
1.0
 40
1.0
 40
1.0
 40
1.0
 10
1816.929480517175
 20
841.1539279893094
 30
0.0
 10
1816.980947100767
 20
841.1539279893094
 30
0.0
 10
1817.031346342734
 20
841.1539279893094
 30
0.0
 10
1817.107396341027
 20
841.1539279893094
 30
0.0
 10
1817.131667787665
 20
841.1539279893094
 30
0.0
 10
1817.135061104985
 20
841.1539279893094
 30
0.0
  0
ARC
  5
8D9
330
87E
100
AcDbEntity
  8
0
  6
Continuous
 62
     7
370
    15
100
AcDbCircle
 10
1839.004523622032
 20
840.6539279893094
 30
0.0
 40
2.188421798069978
100
AcDbArc
 50
13.20731410364895
 51
166.792685896351
  0
SPLINE
  5
8DA
330
87E
100
AcDbEntity
  8
0
  6
Continuous
 62
     7
370
    15
100
AcDbSpline
210
0.0
220
0.0
230
1.0
 70
     8
 71
     3
 72
    30
 73
    26
 74
     0
 42
0.0000000001
 43
0.0000000001
 40
0.0
 40
0.0
 40
0.0
 40
0.0
 40
0.0252132537977505
 40
0.0504260853629673
 40
0.0756389169281841
 40
0.1008521707259345
 40
0.1510330133366718
 40
0.2198002430167732
 40
0.2874243037647682
 40
0.3549493332343427
 40
0.3914437623688652
 40
0.4275783893443485
 40
0.5000255042853522
 40
0.5365198954318822
 40
0.5726545181368487
 40
0.645101599135057
 40
0.6790949178862581
 40
0.7127927615928411
 40
0.7803178337475425
 40
0.820208846024227
 40
0.9135889664759849
 40
0.9351916714086479
 40
0.9567944804914592
 40
0.9783972909475378
 40
0.9999999999999998
 40
0.9999999999999998
 40
0.9999999999999998
 40
0.9999999999999998
 10
1837.079566726888
 20
841.1539279893094
 30
0.0
 10
1837.091458046531
 20
841.1962811115328
 30
0.0
 10
1837.11524048668
 20
841.2809866467151
 30
0.0
 10
1837.161453880277
 20
841.4047049296392
 30
0.0
 10
1837.215147004546
 20
841.5252919530285
 30
0.0
 10
1837.297182070741
 20
841.6805396738133
 30
0.0
 10
1837.436447936073
 20
841.8907819952876
 30
0.0
 10
1837.657821300112
 20
842.1317715893176
 30
0.0
 10
1837.942269130876
 20
842.348332267387
 30
0.0
 10
1838.210869282399
 20
842.4843742837051
 30
0.0
 10
1838.442008787254
 20
842.5648798680567
 30
0.0
 10
1838.68811506258
 20
842.6250691173647
 30
0.0
 10
1838.941875553518
 20
842.6486899500904
 30
0.0
 10
1839.194917009381
 20
842.6368319709826
 30
0.0
 10
1839.445726689753
 20
842.600934748639
 30
0.0
 10
1839.685803854389
 20
842.5295210992887
 30
0.0
 10
1839.908615388341
 20
842.4284777353268
 30
0.0
 10
1840.114127875922
 20
842.312260213731
 30
0.0
 10
1840.311203571813
 20
842.1621904245455
 30
0.0
 10
1840.557796407086
 20
841.9130916147551
 30
0.0
 10
1840.713385435607
 20
841.6879928406565
 30
0.0
 10
1840.81771382603
 20
841.4737982114367
 30
0.0
 10
1840.861282743578
 20
841.3694337729467
 30
0.0
 10
1840.899278889887
 20
841.2628836155201
 30
0.0
 10
1840.919413323831
 20
841.190246474553
 30
0.0
 10
1840.929480517175
 20
841.1539279893094
 30
0.0
  0
SPLINE
  5
8DB
330
87E
100
AcDbEntity
  8
0
  6
Continuous
 62
     7
370
    15
100
AcDbSpline
210
0.0
220
0.0
230
1.0
 70
    24
 71
     3
 72
    10
 73
     6
 74
     0
 42
0.0000000001
 43
0.0000000001
 40
0.0
 40
0.0
 40
0.0
 40
0.0
 40
0.5
 40
0.5
 40
1.0
 40
1.0
 40
1.0
 40
1.0
 10
1836.873986139078
 20
841.1539279893094
 30
0.0
 10
1836.877376877365
 20
841.1539279893094
 30
0.0
 10
1836.901752913139
 20
841.1539279893094
 30
0.0
 10
1836.977415490794
 20
841.1539279893094
 30
0.0
 10
1837.028134499966
 20
841.1539279893094
 30
0.0
 10
1837.079566726888
 20
841.1539279893094
 30
0.0
  0
SPLINE
  5
8DC
330
87E
100
AcDbEntity
  8
0
  6
Continuous
 62
     7
370
    15
100
AcDbSpline
210
0.0
220
0.0
230
1.0
 70
    24
 71
     3
 72
    10
 73
     6
 74
     0
 42
0.0000000001
 43
0.0000000001
 40
0.0
 40
0.0
 40
0.0
 40
0.0
 40
0.5
 40
0.5
 40
1.0
 40
1.0
 40
1.0
 40
1.0
 10
1840.929480517175
 20
841.1539279893094
 30
0.0
 10
1840.980947100767
 20
841.1539279893094
 30
0.0
 10
1841.031346342734
 20
841.1539279893094
 30
0.0
 10
1841.107396341027
 20
841.1539279893094
 30
0.0
 10
1841.131667787665
 20
841.1539279893094
 30
0.0
 10
1841.135061104985
 20
841.1539279893094
 30
0.0
  0
ARC
  5
8DD
330
87E
100
AcDbEntity
  8
0
  6
Continuous
 62
     7
370
    15
100
AcDbCircle
 10
1863.004523622032
 20
840.6539279893094
 30
0.0
 40
2.188421798069991
100
AcDbArc
 50
13.20731410364895
 51
166.792685896351
  0
SPLINE
  5
8DE
330
87E
100
AcDbEntity
  8
0
  6
Continuous
 62
     7
370
    15
100
AcDbSpline
210
0.0
220
0.0
230
1.0
 70
     8
 71
     3
 72
    30
 73
    26
 74
     0
 42
0.0000000001
 43
0.0000000001
 40
0.0
 40
0.0
 40
0.0
 40
0.0
 40
0.0252132537977502
 40
0.0504260853629672
 40
0.0756389169281837
 40
0.1008521707259346
 40
0.1510330133366712
 40
0.2198002430167735
 40
0.287424303764768
 40
0.3549493332343425
 40
0.3914437623688656
 40
0.4275783893443489
 40
0.5000255042853519
 40
0.5365198954318818
 40
0.5726545181368483
 40
0.6451015991350574
 40
0.6790949178862585
 40
0.7127927615928409
 40
0.7803178337475424
 40
0.8202088460242269
 40
0.9135889664759847
 40
0.9351916714086478
 40
0.9567944804914592
 40
0.9783972909475378
 40
1.0
 40
1.0
 40
1.0
 40
1.0
 10
1861.079566726888
 20
841.1539279893094
 30
0.0
 10
1861.091458046531
 20
841.1962811115328
 30
0.0
 10
1861.11524048668
 20
841.2809866467151
 30
0.0
 10
1861.161453880277
 20
841.4047049296394
 30
0.0
 10
1861.215147004546
 20
841.5252919530285
 30
0.0
 10
1861.297182070741
 20
841.6805396738133
 30
0.0
 10
1861.436447936073
 20
841.8907819952876
 30
0.0
 10
1861.657821300113
 20
842.1317715893176
 30
0.0
 10
1861.942269130876
 20
842.348332267387
 30
0.0
 10
1862.210869282398
 20
842.4843742837051
 30
0.0
 10
1862.442008787254
 20
842.5648798680567
 30
0.0
 10
1862.68811506258
 20
842.6250691173647
 30
0.0
 10
1862.941875553518
 20
842.6486899500904
 30
0.0
 10
1863.194917009381
 20
842.6368319709826
 30
0.0
 10
1863.445726689753
 20
842.600934748639
 30
0.0
 10
1863.685803854389
 20
842.5295210992887
 30
0.0
 10
1863.908615388341
 20
842.4284777353268
 30
0.0
 10
1864.114127875922
 20
842.312260213731
 30
0.0
 10
1864.311203571813
 20
842.1621904245455
 30
0.0
 10
1864.557796407086
 20
841.9130916147551
 30
0.0
 10
1864.713385435607
 20
841.6879928406565
 30
0.0
 10
1864.817713826029
 20
841.4737982114367
 30
0.0
 10
1864.861282743579
 20
841.3694337729467
 30
0.0
 10
1864.899278889888
 20
841.2628836155201
 30
0.0
 10
1864.919413323831
 20
841.190246474553
 30
0.0
 10
1864.929480517175
 20
841.1539279893094
 30
0.0
  0
SPLINE
  5
8DF
330
87E
100
AcDbEntity
  8
0
  6
Continuous
 62
     7
370
    15
100
AcDbSpline
210
0.0
220
0.0
230
1.0
 70
    24
 71
     3
 72
    10
 73
     6
 74
     0
 42
0.0000000001
 43
0.0000000001
 40
0.0
 40
0.0
 40
0.0
 40
0.0
 40
0.5
 40
0.5
 40
1.0
 40
1.0
 40
1.0
 40
1.0
 10
1860.873986139079
 20
841.1539279893094
 30
0.0
 10
1860.877376877364
 20
841.1539279893094
 30
0.0
 10
1860.901752913139
 20
841.1539279893094
 30
0.0
 10
1860.977415490793
 20
841.1539279893094
 30
0.0
 10
1861.028134499966
 20
841.1539279893094
 30
0.0
 10
1861.079566726888
 20
841.1539279893094
 30
0.0
  0
SPLINE
  5
8E0
330
87E
100
AcDbEntity
  8
0
  6
Continuous
 62
     7
370
    15
100
AcDbSpline
210
0.0
220
0.0
230
1.0
 70
    24
 71
     3
 72
    10
 73
     6
 74
     0
 42
0.0000000001
 43
0.0000000001
 40
0.0
 40
0.0
 40
0.0
 40
0.0
 40
0.5
 40
0.5
 40
1.0
 40
1.0
 40
1.0
 40
1.0
 10
1864.929480517175
 20
841.1539279893094
 30
0.0
 10
1864.980947100767
 20
841.1539279893094
 30
0.0
 10
1865.031346342734
 20
841.1539279893094
 30
0.0
 10
1865.107396341027
 20
841.1539279893094
 30
0.0
 10
1865.131667787665
 20
841.1539279893094
 30
0.0
 10
1865.135061104984
 20
841.1539279893094
 30
0.0
  0
ARC
  5
8E1
330
87E
100
AcDbEntity
  8
0
  6
Continuous
 62
     7
370
    15
100
AcDbCircle
 10
1851.004523622032
 20
840.6539279893094
 30
0.0
 40
2.188421798069978
100
AcDbArc
 50
13.20731410364895
 51
166.792685896351
  0
SPLINE
  5
8E2
330
87E
100
AcDbEntity
  8
0
  6
Continuous
 62
     7
370
    15
100
AcDbSpline
210
0.0
220
0.0
230
1.0
 70
     8
 71
     3
 72
    30
 73
    26
 74
     0
 42
0.0000000001
 43
0.0000000001
 40
0.0
 40
0.0
 40
0.0
 40
0.0
 40
0.0252132537977502
 40
0.0504260853629672
 40
0.0756389169281837
 40
0.1008521707259347
 40
0.1510330133366712
 40
0.2198002430167736
 40
0.2874243037647681
 40
0.3549493332343425
 40
0.3914437623688657
 40
0.427578389344349
 40
0.5000255042853519
 40
0.5365198954318819
 40
0.5726545181368483
 40
0.6451015991350574
 40
0.6790949178862585
 40
0.7127927615928409
 40
0.7803178337475424
 40
0.8202088460242269
 40
0.9135889664759847
 40
0.9351916714086478
 40
0.9567944804914592
 40
0.9783972909475378
 40
1.0
 40
1.0
 40
1.0
 40
1.0
 10
1849.079566726888
 20
841.1539279893094
 30
0.0
 10
1849.091458046531
 20
841.1962811115328
 30
0.0
 10
1849.11524048668
 20
841.2809866467151
 30
0.0
 10
1849.161453880277
 20
841.4047049296392
 30
0.0
 10
1849.215147004546
 20
841.5252919530285
 30
0.0
 10
1849.297182070741
 20
841.6805396738133
 30
0.0
 10
1849.436447936072
 20
841.8907819952876
 30
0.0
 10
1849.657821300112
 20
842.1317715893176
 30
0.0
 10
1849.942269130876
 20
842.348332267387
 30
0.0
 10
1850.210869282398
 20
842.4843742837051
 30
0.0
 10
1850.442008787254
 20
842.5648798680567
 30
0.0
 10
1850.68811506258
 20
842.6250691173647
 30
0.0
 10
1850.941875553519
 20
842.6486899500904
 30
0.0
 10
1851.194917009381
 20
842.6368319709826
 30
0.0
 10
1851.445726689753
 20
842.600934748639
 30
0.0
 10
1851.685803854389
 20
842.5295210992887
 30
0.0
 10
1851.908615388341
 20
842.4284777353268
 30
0.0
 10
1852.114127875922
 20
842.312260213731
 30
0.0
 10
1852.311203571813
 20
842.1621904245455
 30
0.0
 10
1852.557796407086
 20
841.9130916147551
 30
0.0
 10
1852.713385435607
 20
841.6879928406565
 30
0.0
 10
1852.81771382603
 20
841.4737982114367
 30
0.0
 10
1852.861282743578
 20
841.3694337729467
 30
0.0
 10
1852.899278889887
 20
841.2628836155201
 30
0.0
 10
1852.919413323831
 20
841.190246474553
 30
0.0
 10
1852.929480517175
 20
841.1539279893094
 30
0.0
  0
SPLINE
  5
8E3
330
87E
100
AcDbEntity
  8
0
  6
Continuous
 62
     7
370
    15
100
AcDbSpline
210
0.0
220
0.0
230
1.0
 70
    24
 71
     3
 72
    10
 73
     6
 74
     0
 42
0.0000000001
 43
0.0000000001
 40
0.0
 40
0.0
 40
0.0
 40
0.0
 40
0.5
 40
0.5
 40
1.0
 40
1.0
 40
1.0
 40
1.0
 10
1848.873986139079
 20
841.1539279893094
 30
0.0
 10
1848.877376877364
 20
841.1539279893094
 30
0.0
 10
1848.901752913139
 20
841.1539279893094
 30
0.0
 10
1848.977415490794
 20
841.1539279893094
 30
0.0
 10
1849.028134499966
 20
841.1539279893094
 30
0.0
 10
1849.079566726888
 20
841.1539279893094
 30
0.0
  0
SPLINE
  5
8E4
330
87E
100
AcDbEntity
  8
0
  6
Continuous
 62
     7
370
    15
100
AcDbSpline
210
0.0
220
0.0
230
1.0
 70
    24
 71
     3
 72
    10
 73
     6
 74
     0
 42
0.0000000001
 43
0.0000000001
 40
0.0
 40
0.0
 40
0.0
 40
0.0
 40
0.5
 40
0.5
 40
1.0
 40
1.0
 40
1.0
 40
1.0
 10
1852.929480517175
 20
841.1539279893094
 30
0.0
 10
1852.980947100767
 20
841.1539279893094
 30
0.0
 10
1853.031346342734
 20
841.1539279893094
 30
0.0
 10
1853.107396341027
 20
841.1539279893094
 30
0.0
 10
1853.131667787665
 20
841.1539279893094
 30
0.0
 10
1853.135061104985
 20
841.1539279893094
 30
0.0
  0
ARC
  5
8E5
330
87E
100
AcDbEntity
  8
0
  6
Continuous
 62
     7
370
    15
100
AcDbCircle
 10
1815.004523622032
 20
840.6539279893094
 30
0.0
 40
1.988833589861233
100
AcDbArc
 50
194.5605878049394
 51
345.4394121950607
  0
ARC
  5
8E6
330
87E
100
AcDbEntity
  8
0
  6
Continuous
 62
     7
370
    15
100
AcDbCircle
 10
1815.004523622032
 20
840.6539279893094
 30
0.0
 40
2.188421798069978
100
AcDbArc
 50
193.2073141036489
 51
346.792685896351
  0
SPLINE
  5
8E7
330
87E
100
AcDbEntity
  8
0
  6
Continuous
 62
     7
370
    15
100
AcDbSpline
210
0.0
220
0.0
230
1.0
 70
    24
 71
     3
 72
    10
 73
     6
 74
     0
 42
0.0000000001
 43
0.0000000001
 40
0.0
 40
0.0
 40
0.0
 40
0.0
 40
0.5
 40
0.5
 40
1.0
 40
1.0
 40
1.0
 40
1.0
 10
1813.079566726888
 20
840.1539279893095
 30
0.0
 10
1813.028100143296
 20
840.1539279893095
 30
0.0
 10
1812.977700901329
 20
840.1539279893095
 30
0.0
 10
1812.901650903036
 20
840.1539279893095
 30
0.0
 10
1812.877379456399
 20
840.1539279893095
 30
0.0
 10
1812.873986139079
 20
840.1539279893095
 30
0.0
  0
SPLINE
  5
8E8
330
87E
100
AcDbEntity
  8
0
  6
Continuous
 62
     7
370
    15
100
AcDbSpline
210
0.0
220
0.0
230
1.0
 70
    24
 71
     3
 72
    10
 73
     6
 74
     0
 42
0.0000000001
 43
0.0000000001
 40
0.0
 40
0.0
 40
0.0
 40
0.0
 40
0.5
 40
0.5
 40
1.0
 40
1.0
 40
1.0
 40
1.0
 10
1817.135061104985
 20
840.1539279893095
 30
0.0
 10
1817.131670366699
 20
840.1539279893095
 30
0.0
 10
1817.107294330924
 20
840.1539279893095
 30
0.0
 10
1817.03163175327
 20
840.1539279893095
 30
0.0
 10
1816.980912744097
 20
840.1539279893095
 30
0.0
 10
1816.929480517175
 20
840.1539279893095
 30
0.0
  0
ARC
  5
8E9
330
87E
100
AcDbEntity
  8
0
  6
Continuous
 62
     7
370
    15
100
AcDbCircle
 10
1911.004523622031
 20
840.6539279893094
 30
0.0
 40
1.988833589861233
100
AcDbArc
 50
194.5605878049394
 51
345.4394121950607
  0
ARC
  5
8EA
330
87E
100
AcDbEntity
  8
0
  6
Continuous
 62
     7
370
    15
100
AcDbCircle
 10
1911.004523622031
 20
840.6539279893094
 30
0.0
 40
2.188421798069985
100
AcDbArc
 50
193.2073141036489
 51
346.792685896351
  0
SPLINE
  5
8EB
330
87E
100
AcDbEntity
  8
0
  6
Continuous
 62
     7
370
    15
100
AcDbSpline
210
0.0
220
0.0
230
1.0
 70
    24
 71
     3
 72
    10
 73
     6
 74
     0
 42
0.0000000001
 43
0.0000000001
 40
0.0
 40
0.0
 40
0.0
 40
0.0
 40
0.5
 40
0.5
 40
1.0
 40
1.0
 40
1.0
 40
1.0
 10
1909.079566726888
 20
840.1539279893095
 30
0.0
 10
1909.028100143296
 20
840.1539279893095
 30
0.0
 10
1908.977700901329
 20
840.1539279893095
 30
0.0
 10
1908.901650903036
 20
840.1539279893095
 30
0.0
 10
1908.877379456399
 20
840.1539279893095
 30
0.0
 10
1908.873986139079
 20
840.1539279893095
 30
0.0
  0
SPLINE
  5
8EC
330
87E
100
AcDbEntity
  8
0
  6
Continuous
 62
     7
370
    15
100
AcDbSpline
210
0.0
220
0.0
230
1.0
 70
    24
 71
     3
 72
    10
 73
     6
 74
     0
 42
0.0000000001
 43
0.0000000001
 40
0.0
 40
0.0
 40
0.0
 40
0.0
 40
0.5
 40
0.5
 40
1.0
 40
1.0
 40
1.0
 40
1.0
 10
1913.135061104984
 20
840.1539279893095
 30
0.0
 10
1913.131670366699
 20
840.1539279893095
 30
0.0
 10
1913.107294330924
 20
840.1539279893095
 30
0.0
 10
1913.03163175327
 20
840.1539279893095
 30
0.0
 10
1912.980912744097
 20
840.1539279893095
 30
0.0
 10
1912.929480517175
 20
840.1539279893095
 30
0.0
  0
ARC
  5
8ED
330
87E
100
AcDbEntity
  8
0
  6
Continuous
 62
     7
370
    15
100
AcDbCircle
 10
1839.004523622032
 20
840.6539279893094
 30
0.0
 40
1.988833589861233
100
AcDbArc
 50
194.5605878049394
 51
345.4394121950607
  0
SPLINE
  5
8EE
330
87E
100
AcDbEntity
  8
0
  6
Continuous
 62
     7
370
    15
100
AcDbSpline
210
0.0
220
0.0
230
1.0
 70
    24
 71
     3
 72
    10
 73
     6
 74
     0
 42
0.0000000001
 43
0.0000000001
 40
0.0
 40
0.0
 40
0.0
 40
0.0
 40
0.5
 40
0.5
 40
1.0
 40
1.0
 40
1.0
 40
1.0
 10
1841.135061104985
 20
840.1539279893095
 30
0.0
 10
1841.131670366699
 20
840.1539279893095
 30
0.0
 10
1841.107294330924
 20
840.1539279893095
 30
0.0
 10
1841.03163175327
 20
840.1539279893095
 30
0.0
 10
1840.980912744097
 20
840.1539279893095
 30
0.0
 10
1840.929480517175
 20
840.1539279893095
 30
0.0
  0
ARC
  5
8EF
330
87E
100
AcDbEntity
  8
0
  6
Continuous
 62
     7
370
    15
100
AcDbCircle
 10
1839.004523622032
 20
840.6539279893094
 30
0.0
 40
2.188421798069978
100
AcDbArc
 50
193.2073141036489
 51
346.792685896351
  0
SPLINE
  5
8F0
330
87E
100
AcDbEntity
  8
0
  6
Continuous
 62
     7
370
    15
100
AcDbSpline
210
0.0
220
0.0
230
1.0
 70
    24
 71
     3
 72
    10
 73
     6
 74
     0
 42
0.0000000001
 43
0.0000000001
 40
0.0
 40
0.0
 40
0.0
 40
0.0
 40
0.5
 40
0.5
 40
1.0
 40
1.0
 40
1.0
 40
1.0
 10
1837.079566726888
 20
840.1539279893095
 30
0.0
 10
1837.028100143296
 20
840.1539279893095
 30
0.0
 10
1836.977700901329
 20
840.1539279893095
 30
0.0
 10
1836.901650903036
 20
840.1539279893095
 30
0.0
 10
1836.877379456398
 20
840.1539279893095
 30
0.0
 10
1836.873986139079
 20
840.1539279893095
 30
0.0
  0
ARC
  5
8F1
330
87E
100
AcDbEntity
  8
0
  6
Continuous
 62
     7
370
    15
100
AcDbCircle
 10
1887.004523622032
 20
840.6539279893094
 30
0.0
 40
1.988833589861233
100
AcDbArc
 50
194.5605878049394
 51
345.4394121950607
  0
SPLINE
  5
8F2
330
87E
100
AcDbEntity
  8
0
  6
Continuous
 62
     7
370
    15
100
AcDbSpline
210
0.0
220
0.0
230
1.0
 70
    24
 71
     3
 72
    10
 73
     6
 74
     0
 42
0.0000000001
 43
0.0000000001
 40
0.0
 40
0.0
 40
0.0
 40
0.0
 40
0.5
 40
0.5
 40
1.0
 40
1.0
 40
1.0
 40
1.0
 10
1889.135061104985
 20
840.1539279893095
 30
0.0
 10
1889.131670366699
 20
840.1539279893095
 30
0.0
 10
1889.107294330924
 20
840.1539279893095
 30
0.0
 10
1889.03163175327
 20
840.1539279893095
 30
0.0
 10
1888.980912744097
 20
840.1539279893095
 30
0.0
 10
1888.929480517175
 20
840.1539279893095
 30
0.0
  0
ARC
  5
8F3
330
87E
100
AcDbEntity
  8
0
  6
Continuous
 62
     7
370
    15
100
AcDbCircle
 10
1887.004523622032
 20
840.6539279893094
 30
0.0
 40
2.188421798069991
100
AcDbArc
 50
193.2073141036489
 51
346.792685896351
  0
SPLINE
  5
8F4
330
87E
100
AcDbEntity
  8
0
  6
Continuous
 62
     7
370
    15
100
AcDbSpline
210
0.0
220
0.0
230
1.0
 70
    24
 71
     3
 72
    10
 73
     6
 74
     0
 42
0.0000000001
 43
0.0000000001
 40
0.0
 40
0.0
 40
0.0
 40
0.0
 40
0.5
 40
0.5
 40
1.0
 40
1.0
 40
1.0
 40
1.0
 10
1885.079566726888
 20
840.1539279893095
 30
0.0
 10
1885.028100143296
 20
840.1539279893095
 30
0.0
 10
1884.977700901329
 20
840.1539279893095
 30
0.0
 10
1884.901650903036
 20
840.1539279893095
 30
0.0
 10
1884.877379456398
 20
840.1539279893095
 30
0.0
 10
1884.873986139079
 20
840.1539279893095
 30
0.0
  0
ARC
  5
8F5
330
87E
100
AcDbEntity
  8
0
  6
Continuous
 62
     7
370
    15
100
AcDbCircle
 10
1875.004523622031
 20
840.6539279893094
 30
0.0
 40
1.988833589861219
100
AcDbArc
 50
194.5605878049394
 51
345.4394121950607
  0
SPLINE
  5
8F6
330
87E
100
AcDbEntity
  8
0
  6
Continuous
 62
     7
370
    15
100
AcDbSpline
210
0.0
220
0.0
230
1.0
 70
    24
 71
     3
 72
    10
 73
     6
 74
     0
 42
0.0000000001
 43
0.0000000001
 40
0.0
 40
0.0
 40
0.0
 40
0.0
 40
0.5
 40
0.5
 40
1.0
 40
1.0
 40
1.0
 40
1.0
 10
1877.135061104985
 20
840.1539279893095
 30
0.0
 10
1877.131670366699
 20
840.1539279893095
 30
0.0
 10
1877.107294330924
 20
840.1539279893095
 30
0.0
 10
1877.03163175327
 20
840.1539279893095
 30
0.0
 10
1876.980912744097
 20
840.1539279893095
 30
0.0
 10
1876.929480517175
 20
840.1539279893095
 30
0.0
  0
ARC
  5
8F7
330
87E
100
AcDbEntity
  8
0
  6
Continuous
 62
     7
370
    15
100
AcDbCircle
 10
1875.004523622031
 20
840.6539279893094
 30
0.0
 40
2.188421798069978
100
AcDbArc
 50
193.2073141036489
 51
346.792685896351
  0
SPLINE
  5
8F8
330
87E
100
AcDbEntity
  8
0
  6
Continuous
 62
     7
370
    15
100
AcDbSpline
210
0.0
220
0.0
230
1.0
 70
    24
 71
     3
 72
    10
 73
     6
 74
     0
 42
0.0000000001
 43
0.0000000001
 40
0.0
 40
0.0
 40
0.0
 40
0.0
 40
0.5
 40
0.5
 40
1.0
 40
1.0
 40
1.0
 40
1.0
 10
1873.079566726888
 20
840.1539279893095
 30
0.0
 10
1873.028100143296
 20
840.1539279893095
 30
0.0
 10
1872.977700901329
 20
840.1539279893095
 30
0.0
 10
1872.901650903036
 20
840.1539279893095
 30
0.0
 10
1872.877379456398
 20
840.1539279893095
 30
0.0
 10
1872.873986139079
 20
840.1539279893095
 30
0.0
  0
ARC
  5
8F9
330
87E
100
AcDbEntity
  8
0
  6
Continuous
 62
     7
370
    15
100
AcDbCircle
 10
1851.004523622032
 20
840.6539279893094
 30
0.0
 40
1.988833589861247
100
AcDbArc
 50
194.5605878049394
 51
345.4394121950607
  0
SPLINE
  5
8FA
330
87E
100
AcDbEntity
  8
0
  6
Continuous
 62
     7
370
    15
100
AcDbSpline
210
0.0
220
0.0
230
1.0
 70
    24
 71
     3
 72
    10
 73
     6
 74
     0
 42
0.0000000001
 43
0.0000000001
 40
0.0
 40
0.0
 40
0.0
 40
0.0
 40
0.5
 40
0.5
 40
1.0
 40
1.0
 40
1.0
 40
1.0
 10
1853.135061104985
 20
840.1539279893095
 30
0.0
 10
1853.131670366699
 20
840.1539279893095
 30
0.0
 10
1853.107294330924
 20
840.1539279893095
 30
0.0
 10
1853.031631753269
 20
840.1539279893095
 30
0.0
 10
1852.980912744097
 20
840.1539279893095
 30
0.0
 10
1852.929480517175
 20
840.1539279893095
 30
0.0
  0
ARC
  5
8FB
330
87E
100
AcDbEntity
  8
0
  6
Continuous
 62
     7
370
    15
100
AcDbCircle
 10
1851.004523622032
 20
840.6539279893094
 30
0.0
 40
2.188421798069978
100
AcDbArc
 50
193.2073141036489
 51
346.792685896351
  0
SPLINE
  5
8FC
330
87E
100
AcDbEntity
  8
0
  6
Continuous
 62
     7
370
    15
100
AcDbSpline
210
0.0
220
0.0
230
1.0
 70
    24
 71
     3
 72
    10
 73
     6
 74
     0
 42
0.0000000001
 43
0.0000000001
 40
0.0
 40
0.0
 40
0.0
 40
0.0
 40
0.5
 40
0.5
 40
1.0
 40
1.0
 40
1.0
 40
1.0
 10
1849.079566726888
 20
840.1539279893095
 30
0.0
 10
1849.028100143296
 20
840.1539279893095
 30
0.0
 10
1848.977700901329
 20
840.1539279893095
 30
0.0
 10
1848.901650903036
 20
840.1539279893095
 30
0.0
 10
1848.877379456398
 20
840.1539279893095
 30
0.0
 10
1848.873986139079
 20
840.1539279893095
 30
0.0
  0
ARC
  5
8FD
330
87E
100
AcDbEntity
  8
0
  6
Continuous
 62
     7
370
    15
100
AcDbCircle
 10
1899.004523622032
 20
840.6539279893094
 30
0.0
 40
1.988833589861233
100
AcDbArc
 50
194.5605878049394
 51
345.4394121950607
  0
SPLINE
  5
8FE
330
87E
100
AcDbEntity
  8
0
  6
Continuous
 62
     7
370
    15
100
AcDbSpline
210
0.0
220
0.0
230
1.0
 70
    24
 71
     3
 72
    10
 73
     6
 74
     0
 42
0.0000000001
 43
0.0000000001
 40
0.0
 40
0.0
 40
0.0
 40
0.0
 40
0.5
 40
0.5
 40
1.0
 40
1.0
 40
1.0
 40
1.0
 10
1901.135061104985
 20
840.1539279893095
 30
0.0
 10
1901.131670366699
 20
840.1539279893095
 30
0.0
 10
1901.107294330924
 20
840.1539279893095
 30
0.0
 10
1901.03163175327
 20
840.1539279893095
 30
0.0
 10
1900.980912744097
 20
840.1539279893095
 30
0.0
 10
1900.929480517175
 20
840.1539279893095
 30
0.0
  0
ARC
  5
8FF
330
87E
100
AcDbEntity
  8
0
  6
Continuous
 62
     7
370
    15
100
AcDbCircle
 10
1899.004523622032
 20
840.6539279893094
 30
0.0
 40
2.188421798069978
100
AcDbArc
 50
193.2073141036489
 51
346.792685896351
  0
SPLINE
  5
900
330
87E
100
AcDbEntity
  8
0
  6
Continuous
 62
     7
370
    15
100
AcDbSpline
210
0.0
220
0.0
230
1.0
 70
    24
 71
     3
 72
    10
 73
     6
 74
     0
 42
0.0000000001
 43
0.0000000001
 40
0.0
 40
0.0
 40
0.0
 40
0.0
 40
0.5
 40
0.5
 40
1.0
 40
1.0
 40
1.0
 40
1.0
 10
1897.079566726888
 20
840.1539279893095
 30
0.0
 10
1897.028100143296
 20
840.1539279893095
 30
0.0
 10
1896.977700901329
 20
840.1539279893095
 30
0.0
 10
1896.901650903036
 20
840.1539279893095
 30
0.0
 10
1896.877379456398
 20
840.1539279893095
 30
0.0
 10
1896.873986139079
 20
840.1539279893095
 30
0.0
  0
ARC
  5
901
330
87E
100
AcDbEntity
  8
0
  6
Continuous
 62
     7
370
    15
100
AcDbCircle
 10
1827.004523622031
 20
840.6539279893094
 30
0.0
 40
1.988833589861233
100
AcDbArc
 50
194.5605878049394
 51
345.4394121950607
  0
ARC
  5
902
330
87E
100
AcDbEntity
  8
0
  6
Continuous
 62
     7
370
    15
100
AcDbCircle
 10
1827.004523622031
 20
840.6539279893094
 30
0.0
 40
2.188421798070006
100
AcDbArc
 50
193.2073141036489
 51
346.792685896351
  0
SPLINE
  5
903
330
87E
100
AcDbEntity
  8
0
  6
Continuous
 62
     7
370
    15
100
AcDbSpline
210
0.0
220
0.0
230
1.0
 70
    24
 71
     3
 72
    10
 73
     6
 74
     0
 42
0.0000000001
 43
0.0000000001
 40
0.0
 40
0.0
 40
0.0
 40
0.0
 40
0.5
 40
0.5
 40
1.0
 40
1.0
 40
1.0
 40
1.0
 10
1825.079566726888
 20
840.1539279893095
 30
0.0
 10
1825.028100143296
 20
840.1539279893095
 30
0.0
 10
1824.977700901329
 20
840.1539279893095
 30
0.0
 10
1824.901650903036
 20
840.1539279893095
 30
0.0
 10
1824.877379456398
 20
840.1539279893095
 30
0.0
 10
1824.873986139079
 20
840.1539279893095
 30
0.0
  0
SPLINE
  5
904
330
87E
100
AcDbEntity
  8
0
  6
Continuous
 62
     7
370
    15
100
AcDbSpline
210
0.0
220
0.0
230
1.0
 70
    24
 71
     3
 72
    10
 73
     6
 74
     0
 42
0.0000000001
 43
0.0000000001
 40
0.0
 40
0.0
 40
0.0
 40
0.0
 40
0.5
 40
0.5
 40
1.0
 40
1.0
 40
1.0
 40
1.0
 10
1829.135061104985
 20
840.1539279893095
 30
0.0
 10
1829.131670366699
 20
840.1539279893095
 30
0.0
 10
1829.107294330924
 20
840.1539279893095
 30
0.0
 10
1829.031631753269
 20
840.1539279893095
 30
0.0
 10
1828.980912744097
 20
840.1539279893095
 30
0.0
 10
1828.929480517175
 20
840.1539279893095
 30
0.0
  0
ARC
  5
905
330
87E
100
AcDbEntity
  8
0
  6
Continuous
 62
     7
370
    15
100
AcDbCircle
 10
1923.004523622031
 20
840.6539279893094
 30
0.0
 40
1.988833589861233
100
AcDbArc
 50
194.5605878049394
 51
345.4394121950607
  0
SPLINE
  5
906
330
87E
100
AcDbEntity
  8
0
  6
Continuous
 62
     7
370
    15
100
AcDbSpline
210
0.0
220
0.0
230
1.0
 70
    24
 71
     3
 72
    10
 73
     6
 74
     0
 42
0.0000000001
 43
0.0000000001
 40
0.0
 40
0.0
 40
0.0
 40
0.0
 40
0.5
 40
0.5
 40
1.0
 40
1.0
 40
1.0
 40
1.0
 10
1925.135061104985
 20
840.1539279893095
 30
0.0
 10
1925.131670366699
 20
840.1539279893095
 30
0.0
 10
1925.107294330924
 20
840.1539279893095
 30
0.0
 10
1925.03163175327
 20
840.1539279893095
 30
0.0
 10
1924.980912744097
 20
840.1539279893095
 30
0.0
 10
1924.929480517175
 20
840.1539279893095
 30
0.0
  0
ARC
  5
907
330
87E
100
AcDbEntity
  8
0
  6
Continuous
 62
     7
370
    15
100
AcDbCircle
 10
1923.004523622031
 20
840.6539279893094
 30
0.0
 40
2.188421798069991
100
AcDbArc
 50
193.2073141036489
 51
346.792685896351
  0
SPLINE
  5
908
330
87E
100
AcDbEntity
  8
0
  6
Continuous
 62
     7
370
    15
100
AcDbSpline
210
0.0
220
0.0
230
1.0
 70
    24
 71
     3
 72
    10
 73
     6
 74
     0
 42
0.0000000001
 43
0.0000000001
 40
0.0
 40
0.0
 40
0.0
 40
0.0
 40
0.5
 40
0.5
 40
1.0
 40
1.0
 40
1.0
 40
1.0
 10
1921.079566726888
 20
840.1539279893095
 30
0.0
 10
1921.028100143296
 20
840.1539279893095
 30
0.0
 10
1920.977700901329
 20
840.1539279893095
 30
0.0
 10
1920.901650903036
 20
840.1539279893095
 30
0.0
 10
1920.877379456398
 20
840.1539279893095
 30
0.0
 10
1920.873986139078
 20
840.1539279893095
 30
0.0
  0
ARC
  5
909
330
87E
100
AcDbEntity
  8
0
  6
Continuous
 62
     7
370
    15
100
AcDbCircle
 10
1863.004523622032
 20
840.6539279893094
 30
0.0
 40
1.988833589861233
100
AcDbArc
 50
194.5605878049394
 51
345.4394121950607
  0
ARC
  5
90A
330
87E
100
AcDbEntity
  8
0
  6
Continuous
 62
     7
370
    15
100
AcDbCircle
 10
1863.004523622032
 20
840.6539279893094
 30
0.0
 40
2.188421798069991
100
AcDbArc
 50
193.2073141036489
 51
346.792685896351
  0
SPLINE
  5
90B
330
87E
100
AcDbEntity
  8
0
  6
Continuous
 62
     7
370
    15
100
AcDbSpline
210
0.0
220
0.0
230
1.0
 70
    24
 71
     3
 72
    10
 73
     6
 74
     0
 42
0.0000000001
 43
0.0000000001
 40
0.0
 40
0.0
 40
0.0
 40
0.0
 40
0.5
 40
0.5
 40
1.0
 40
1.0
 40
1.0
 40
1.0
 10
1861.079566726888
 20
840.1539279893095
 30
0.0
 10
1861.028100143296
 20
840.1539279893095
 30
0.0
 10
1860.977700901329
 20
840.1539279893095
 30
0.0
 10
1860.901650903036
 20
840.1539279893095
 30
0.0
 10
1860.877379456399
 20
840.1539279893095
 30
0.0
 10
1860.873986139079
 20
840.1539279893095
 30
0.0
  0
SPLINE
  5
90C
330
87E
100
AcDbEntity
  8
0
  6
Continuous
 62
     7
370
    15
100
AcDbSpline
210
0.0
220
0.0
230
1.0
 70
    24
 71
     3
 72
    10
 73
     6
 74
     0
 42
0.0000000001
 43
0.0000000001
 40
0.0
 40
0.0
 40
0.0
 40
0.0
 40
0.5
 40
0.5
 40
1.0
 40
1.0
 40
1.0
 40
1.0
 10
1865.135061104984
 20
840.1539279893095
 30
0.0
 10
1865.131670366699
 20
840.1539279893095
 30
0.0
 10
1865.107294330924
 20
840.1539279893095
 30
0.0
 10
1865.03163175327
 20
840.1539279893095
 30
0.0
 10
1864.980912744097
 20
840.1539279893095
 30
0.0
 10
1864.929480517175
 20
840.1539279893095
 30
0.0
  0
LINE
  5
90D
330
87E
100
AcDbEntity
  8
0
  6
Continuous
 62
     7
370
    15
100
AcDbLine
 10
1852.929480517175
 20
840.1539279893095
 30
0.0
 11
1849.079566726888
 21
840.1539279893095
 31
0.0
  0
LINE
  5
90E
330
87E
100
AcDbEntity
  8
0
  6
Continuous
 62
     7
370
    15
100
AcDbLine
 10
1816.929480517175
 20
840.1539279893095
 30
0.0
 11
1813.079566726888
 21
840.1539279893095
 31
0.0
  0
LINE
  5
90F
330
87E
100
AcDbEntity
  8
0
  6
Continuous
 62
     7
370
    15
100
AcDbLine
 10
1840.929480517175
 20
840.1539279893095
 30
0.0
 11
1837.079566726888
 21
840.1539279893095
 31
0.0
  0
LINE
  5
910
330
87E
100
AcDbEntity
  8
0
  6
Continuous
 62
     7
370
    15
100
AcDbLine
 10
1888.929480517175
 20
840.1539279893095
 30
0.0
 11
1885.079566726888
 21
840.1539279893095
 31
0.0
  0
LINE
  5
911
330
87E
100
AcDbEntity
  8
0
  6
Continuous
 62
     7
370
    15
100
AcDbLine
 10
1864.929480517175
 20
840.1539279893095
 30
0.0
 11
1861.079566726888
 21
840.1539279893095
 31
0.0
  0
LINE
  5
912
330
87E
100
AcDbEntity
  8
0
  6
Continuous
 62
     7
370
    15
100
AcDbLine
 10
1828.929480517175
 20
840.1539279893095
 30
0.0
 11
1825.079566726888
 21
840.1539279893095
 31
0.0
  0
LINE
  5
913
330
87E
100
AcDbEntity
  8
0
  6
Continuous
 62
     7
370
    15
100
AcDbLine
 10
1876.929480517175
 20
840.1539279893095
 30
0.0
 11
1873.079566726888
 21
840.1539279893095
 31
0.0
  0
LINE
  5
914
330
87E
100
AcDbEntity
  8
0
  6
Continuous
 62
     7
370
    15
100
AcDbLine
 10
1924.929480517175
 20
840.1539279893095
 30
0.0
 11
1921.079566726888
 21
840.1539279893095
 31
0.0
  0
LINE
  5
915
330
87E
100
AcDbEntity
  8
0
  6
Continuous
 62
     7
370
    15
100
AcDbLine
 10
1900.929480517175
 20
840.1539279893095
 30
0.0
 11
1897.079566726888
 21
840.1539279893095
 31
0.0
  0
LINE
  5
916
330
87E
100
AcDbEntity
  8
0
  6
Continuous
 62
     7
370
    15
100
AcDbLine
 10
1912.929480517175
 20
840.1539279893095
 30
0.0
 11
1909.079566726888
 21
840.1539279893095
 31
0.0
  0
LINE
  5
917
330
87E
100
AcDbEntity
  8
0
  6
Continuous
 62
     7
370
    15
100
AcDbLine
 10
1885.079566726888
 20
841.1539279893094
 30
0.0
 11
1888.929480517175
 21
841.1539279893094
 31
0.0
  0
LINE
  5
918
330
87E
100
AcDbEntity
  8
0
  6
Continuous
 62
     7
370
    15
100
AcDbLine
 10
1873.079566726888
 20
841.1539279893094
 30
0.0
 11
1876.929480517175
 21
841.1539279893094
 31
0.0
  0
LINE
  5
919
330
87E
100
AcDbEntity
  8
0
  6
Continuous
 62
     7
370
    15
100
AcDbLine
 10
1825.079566726888
 20
841.1539279893094
 30
0.0
 11
1828.929480517175
 21
841.1539279893094
 31
0.0
  0
LINE
  5
91A
330
87E
100
AcDbEntity
  8
0
  6
Continuous
 62
     7
370
    15
100
AcDbLine
 10
1921.079566726888
 20
841.1539279893094
 30
0.0
 11
1924.929480517175
 21
841.1539279893094
 31
0.0
  0
LINE
  5
91B
330
87E
100
AcDbEntity
  8
0
  6
Continuous
 62
     7
370
    15
100
AcDbLine
 10
1813.079566726888
 20
841.1539279893094
 30
0.0
 11
1816.929480517175
 21
841.1539279893094
 31
0.0
  0
LINE
  5
91C
330
87E
100
AcDbEntity
  8
0
  6
Continuous
 62
     7
370
    15
100
AcDbLine
 10
1897.079566726888
 20
841.1539279893094
 30
0.0
 11
1900.929480517175
 21
841.1539279893094
 31
0.0
  0
LINE
  5
91D
330
87E
100
AcDbEntity
  8
0
  6
Continuous
 62
     7
370
    15
100
AcDbLine
 10
1837.079566726888
 20
841.1539279893094
 30
0.0
 11
1840.929480517175
 21
841.1539279893094
 31
0.0
  0
LINE
  5
91E
330
87E
100
AcDbEntity
  8
0
  6
Continuous
 62
     7
370
    15
100
AcDbLine
 10
1849.079566726888
 20
841.1539279893094
 30
0.0
 11
1852.929480517175
 21
841.1539279893094
 31
0.0
  0
LINE
  5
91F
330
87E
100
AcDbEntity
  8
0
  6
Continuous
 62
     7
370
    15
100
AcDbLine
 10
1861.079566726888
 20
841.1539279893094
 30
0.0
 11
1864.929480517175
 21
841.1539279893094
 31
0.0
  0
LINE
  5
920
330
87E
100
AcDbEntity
  8
0
  6
Continuous
 62
     7
370
    15
100
AcDbLine
 10
1909.079566726888
 20
841.1539279893094
 30
0.0
 11
1912.929480517175
 21
841.1539279893094
 31
0.0
  0
ARC
  5
921
330
87E
100
AcDbEntity
  8
0
  6
Continuous
 62
     7
370
    15
100
AcDbCircle
 10
1827.004523622031
 20
827.2039279893089
 30
0.0
 40
16.95000000000021
100
AcDbArc
 50
82.37185033143047
 51
97.62814966858245
  0
LINE
  5
922
330
87E
100
AcDbEntity
  8
0
  6
Continuous
 62
     7
370
    15
100
AcDbLine
 10
1848.754523622033
 20
844.0039279893094
 30
0.0
 11
1841.25452362203
 21
844.0039279893094
 31
0.0
  0
ARC
  5
923
330
87E
100
AcDbEntity
  8
0
  6
Continuous
 62
     7
370
    15
100
AcDbCircle
 10
1851.004523622032
 20
827.2039279893089
 30
0.0
 40
16.95000000000021
100
AcDbArc
 50
82.37185033143047
 51
97.62814966858245
  0
LINE
  5
924
330
87E
100
AcDbEntity
  8
0
  6
Continuous
 62
     7
370
    15
100
AcDbLine
 10
1860.754523622033
 20
844.0039279893094
 30
0.0
 11
1853.25452362203
 21
844.0039279893094
 31
0.0
  0
ARC
  5
925
330
87E
100
AcDbEntity
  8
0
  6
Continuous
 62
     7
370
    15
100
AcDbCircle
 10
1863.004523622032
 20
827.2039279893089
 30
0.0
 40
16.95000000000021
100
AcDbArc
 50
82.37185033143047
 51
97.62814966858245
  0
LINE
  5
926
330
87E
100
AcDbEntity
  8
0
  6
Continuous
 62
     7
370
    15
100
AcDbLine
 10
1872.754523622033
 20
844.0039279893094
 30
0.0
 11
1865.25452362203
 21
844.0039279893094
 31
0.0
  0
ARC
  5
927
330
87E
100
AcDbEntity
  8
0
  6
Continuous
 62
     7
370
    15
100
AcDbCircle
 10
1875.004523622031
 20
827.2039279893089
 30
0.0
 40
16.95000000000021
100
AcDbArc
 50
82.37185033143047
 51
97.62814966858245
  0
ARC
  5
928
330
87E
100
AcDbEntity
  8
0
  6
Continuous
 62
     7
370
    15
100
AcDbCircle
 10
1887.004523622032
 20
827.2039279893089
 30
0.0
 40
16.95000000000021
100
AcDbArc
 50
82.37185033143047
 51
97.62814966858245
  0
LINE
  5
929
330
87E
100
AcDbEntity
  8
0
  6
Continuous
 62
     7
370
    15
100
AcDbLine
 10
1896.754523622033
 20
844.0039279893094
 30
0.0
 11
1889.25452362203
 21
844.0039279893094
 31
0.0
  0
ARC
  5
92A
330
87E
100
AcDbEntity
  8
0
  6
Continuous
 62
     7
370
    15
100
AcDbCircle
 10
1899.004523622032
 20
827.2039279893089
 30
0.0
 40
16.95000000000021
100
AcDbArc
 50
82.37185033143047
 51
97.62814966858245
  0
LINE
  5
92B
330
87E
100
AcDbEntity
  8
0
  6
Continuous
 62
     7
370
    15
100
AcDbLine
 10
1908.754523622033
 20
844.0039279893094
 30
0.0
 11
1901.25452362203
 21
844.0039279893094
 31
0.0
  0
ARC
  5
92C
330
87E
100
AcDbEntity
  8
0
  6
Continuous
 62
     7
370
    15
100
AcDbCircle
 10
1911.004523622031
 20
827.2039279893089
 30
0.0
 40
16.95000000000021
100
AcDbArc
 50
82.37185033143047
 51
97.62814966858245
  0
LINE
  5
92D
330
87E
100
AcDbEntity
  8
0
  6
Continuous
 62
     7
370
    15
100
AcDbLine
 10
1920.754523622033
 20
844.0039279893094
 30
0.0
 11
1913.25452362203
 21
844.0039279893094
 31
0.0
  0
ARC
  5
92E
330
87E
100
AcDbEntity
  8
0
  6
Continuous
 62
     7
370
    15
100
AcDbCircle
 10
1923.004523622031
 20
827.2039279893089
 30
0.0
 40
16.95000000000021
100
AcDbArc
 50
82.37185033143047
 51
97.62814966858245
  0
LINE
  5
92F
330
87E
100
AcDbEntity
  8
0
  6
Continuous
 62
     7
370
    15
100
AcDbLine
 10
1929.004523622031
 20
844.0039279893095
 30
0.0
 11
1925.25452362203
 21
844.0039279893094
 31
0.0
  0
LINE
  5
930
330
87E
100
AcDbEntity
  8
0
  6
Continuous
 62
     7
370
    15
100
AcDbLine
 10
1929.004523622031
 20
837.3039279893095
 30
0.0
 11
1929.004523622031
 21
844.0039279893095
 31
0.0
  0
LINE
  5
931
330
87E
100
AcDbEntity
  8
0
  6
Continuous
 62
     7
370
    15
100
AcDbLine
 10
1925.254523622033
 20
837.3039279893095
 30
0.0
 11
1929.004523622031
 21
837.3039279893095
 31
0.0
  0
ARC
  5
932
330
87E
100
AcDbEntity
  8
0
  6
Continuous
 62
     7
370
    15
100
AcDbCircle
 10
1923.004523622031
 20
854.1039279893096
 30
0.0
 40
16.95000000000024
100
AcDbArc
 50
262.3718503314176
 51
277.6281496685824
  0
LINE
  5
933
330
87E
100
AcDbEntity
  8
0
  6
Continuous
 62
     7
370
    15
100
AcDbLine
 10
1913.254523622033
 20
837.3039279893095
 30
0.0
 11
1920.75452362203
 21
837.3039279893095
 31
0.0
  0
ARC
  5
934
330
87E
100
AcDbEntity
  8
0
  6
Continuous
 62
     7
370
    15
100
AcDbCircle
 10
1911.004523622031
 20
854.1039279893096
 30
0.0
 40
16.95000000000024
100
AcDbArc
 50
262.3718503314176
 51
277.6281496685824
  0
LINE
  5
935
330
87E
100
AcDbEntity
  8
0
  6
Continuous
 62
     7
370
    15
100
AcDbLine
 10
1901.254523622033
 20
837.3039279893095
 30
0.0
 11
1908.75452362203
 21
837.3039279893095
 31
0.0
  0
LINE
  5
936
330
87E
100
AcDbEntity
  8
0
  6
Continuous
 62
     7
370
    15
100
AcDbLine
 10
1889.254523622033
 20
837.3039279893095
 30
0.0
 11
1896.75452362203
 21
837.3039279893095
 31
0.0
  0
ARC
  5
937
330
87E
100
AcDbEntity
  8
0
  6
Continuous
 62
     7
370
    15
100
AcDbCircle
 10
1887.004523622032
 20
854.1039279893094
 30
0.0
 40
16.95000000000021
100
AcDbArc
 50
262.3718503314176
 51
277.6281496685824
  0
LINE
  5
938
330
87E
100
AcDbEntity
  8
0
  6
Continuous
 62
     7
370
    15
100
AcDbLine
 10
1877.254523622033
 20
837.3039279893095
 30
0.0
 11
1884.75452362203
 21
837.3039279893095
 31
0.0
  0
ARC
  5
939
330
87E
100
AcDbEntity
  8
0
  6
Continuous
 62
     7
370
    15
100
AcDbCircle
 10
1875.004523622031
 20
854.1039279893094
 30
0.0
 40
16.95000000000021
100
AcDbArc
 50
262.3718503314176
 51
277.6281496685824
  0
LINE
  5
93A
330
87E
100
AcDbEntity
  8
0
  6
Continuous
 62
     7
370
    15
100
AcDbLine
 10
1865.254523622033
 20
837.3039279893095
 30
0.0
 11
1872.75452362203
 21
837.3039279893095
 31
0.0
  0
ARC
  5
93B
330
87E
100
AcDbEntity
  8
0
  6
Continuous
 62
     7
370
    15
100
AcDbCircle
 10
1863.004523622032
 20
854.1039279893094
 30
0.0
 40
16.95000000000022
100
AcDbArc
 50
262.3718503314176
 51
277.6281496685824
  0
LINE
  5
93C
330
87E
100
AcDbEntity
  8
0
  6
Continuous
 62
     7
370
    15
100
AcDbLine
 10
1853.254523622033
 20
837.3039279893095
 30
0.0
 11
1860.75452362203
 21
837.3039279893095
 31
0.0
  0
ARC
  5
93D
330
87E
100
AcDbEntity
  8
0
  6
Continuous
 62
     7
370
    15
100
AcDbCircle
 10
1851.004523622032
 20
854.1039279893094
 30
0.0
 40
16.95000000000021
100
AcDbArc
 50
262.3718503314176
 51
277.6281496685824
  0
LINE
  5
93E
330
87E
100
AcDbEntity
  8
0
  6
Continuous
 62
     7
370
    15
100
AcDbLine
 10
1841.254523622033
 20
837.3039279893095
 30
0.0
 11
1848.75452362203
 21
837.3039279893095
 31
0.0
  0
ARC
  5
93F
330
87E
100
AcDbEntity
  8
0
  6
Continuous
 62
     7
370
    15
100
AcDbCircle
 10
1839.004523622032
 20
854.1039279893094
 30
0.0
 40
16.95000000000023
100
AcDbArc
 50
262.3718503314176
 51
277.6281496685824
  0
LINE
  5
940
330
87E
100
AcDbEntity
  8
0
  6
Continuous
 62
     7
370
    15
100
AcDbLine
 10
1829.254523622033
 20
837.3039279893095
 30
0.0
 11
1836.75452362203
 21
837.3039279893095
 31
0.0
  0
ARC
  5
941
330
87E
100
AcDbEntity
  8
0
  6
Continuous
 62
     7
370
    15
100
AcDbCircle
 10
1827.004523622031
 20
854.1039279893094
 30
0.0
 40
16.95000000000022
100
AcDbArc
 50
262.3718503314176
 51
277.6281496685824
  0
LINE
  5
942
330
87E
100
AcDbEntity
  8
0
  6
Continuous
 62
     7
370
    15
100
AcDbLine
 10
1817.254523622033
 20
837.3039279893095
 30
0.0
 11
1824.75452362203
 21
837.3039279893095
 31
0.0
  0
ARC
  5
943
330
87E
100
AcDbEntity
  8
0
  6
Continuous
 62
     7
370
    15
100
AcDbCircle
 10
1815.004523622032
 20
854.1039279893094
 30
0.0
 40
16.95000000000023
100
AcDbArc
 50
262.3718503314176
 51
277.6281496685824
  0
LINE
  5
944
330
87E
100
AcDbEntity
  8
0
  6
Continuous
 62
     7
370
    15
100
AcDbLine
 10
1809.004523622031
 20
844.0039279893094
 30
0.0
 11
1809.004523622031
 21
837.3039279893095
 31
0.0
  0
ARC
  5
945
330
87E
100
AcDbEntity
  8
0
  6
Continuous
 62
     7
370
    15
100
AcDbCircle
 10
1815.004523622032
 20
827.2039279893089
 30
0.0
 40
16.95000000000019
100
AcDbArc
 50
82.37185033143047
 51
97.62814966858245
  0
LINE
  5
946
330
87E
100
AcDbEntity
  8
0
  6
Continuous
 62
     7
370
    15
100
AcDbLine
 10
1824.754523622033
 20
844.0039279893094
 30
0.0
 11
1817.25452362203
 21
844.0039279893094
 31
0.0
  0
LINE
  5
947
330
87E
100
AcDbEntity
  8
0
  6
Continuous
 62
     7
370
    15
100
AcDbLine
 10
1812.754523622033
 20
844.0039279893094
 30
0.0
 11
1809.004523622031
 21
844.0039279893094
 31
0.0
  0
ARC
  5
948
330
87E
100
AcDbEntity
  8
0
  6
Continuous
 62
     7
370
    15
100
AcDbCircle
 10
1899.004523622032
 20
854.1039279893094
 30
0.0
 40
16.95000000000021
100
AcDbArc
 50
262.3718503314176
 51
277.6281496685824
  0
LINE
  5
949
330
87E
100
AcDbEntity
  8
0
  6
Continuous
 62
     7
370
    15
100
AcDbLine
 10
1836.754523622033
 20
844.0039279893094
 30
0.0
 11
1829.25452362203
 21
844.0039279893094
 31
0.0
  0
ARC
  5
94A
330
87E
100
AcDbEntity
  8
0
  6
Continuous
 62
     7
370
    15
100
AcDbCircle
 10
1839.004523622032
 20
827.2039279893089
 30
0.0
 40
16.95000000000021
100
AcDbArc
 50
82.37185033143047
 51
97.62814966858245
  0
LINE
  5
94B
330
87E
100
AcDbEntity
  8
0
  6
Continuous
 62
     7
370
    15
100
AcDbLine
 10
1884.754523622033
 20
844.0039279893094
 30
0.0
 11
1877.25452362203
 21
844.0039279893094
 31
0.0
  0
LINE
  5
94C
330
87E
100
AcDbEntity
  8
0
  6
Continuous
 62
     7
370
    15
100
AcDbLine
 10
1809.004523622031
 20
837.3039279893095
 30
0.0
 11
1812.75452362203
 21
837.3039279893095
 31
0.0
  0
ENDBLK
  5
880
330
87E
100
AcDbEntity
  8
0
100
AcDbBlockEnd
  0
BLOCK
  5
94F
330
94E
100
AcDbEntity
  8
0
100
AcDbBlockBegin
  2
4
 70
     0
 10
0.0
 20
0.0
 30
0.0
  3
4
  1

  0
LINE
  5
951
330
94E
100
AcDbEntity
  8
0
  6
Continuous
 62
     7
370
    15
100
AcDbLine
 10
2098.090408054182
 20
845.5544410154049
 30
0.0
 11
2098.177099067518
 21
849.8868877194862
 31
0.0
  0
LINE
  5
952
330
94E
100
AcDbEntity
  8
0
  6
Continuous
 62
     7
370
    15
100
AcDbLine
 10
2091.328469986803
 20
850.0239268189901
 30
0.0
 11
2091.241778973467
 21
845.6914801149087
 31
0.0
  0
SPLINE
  5
953
330
94E
100
AcDbEntity
  8
0
  6
Continuous
 62
     7
370
    15
100
AcDbSpline
210
0.0
220
0.0
230
1.0
 70
     8
 71
     3
 72
    24
 73
    20
 74
     0
 42
0.0000000001
 43
0.0000000001
 40
0.0
 40
0.0
 40
0.0
 40
0.0
 40
0.0374862664863459
 40
0.0961935796501997
 40
0.1551890267853632
 40
0.215382246868998
 40
0.2768635985888709
 40
0.3391470775738984
 40
0.401706198516693
 40
0.4642007377955018
 40
0.526573334590254
 40
0.5888398142704779
 40
0.6510423468646849
 40
0.7132311876240978
 40
0.775451958722706
 40
0.8377495751195137
 40
0.9001808635964344
 40
0.9628001879842843
 40
1.0
 40
1.0
 40
1.0
 40
1.0
 10
2091.251667324619
 20
845.7214891528185
 30
0.0
 10
2091.248229817888
 20
845.6579549276691
 30
0.0
 10
2091.239408825333
 20
845.4949196318057
 30
0.0
 10
2091.310789688033
 20
845.2344751868912
 30
0.0
 10
2091.451873008793
 20
844.9505287725985
 30
0.0
 10
2091.664873279467
 20
844.6824668778512
 30
0.0
 10
2091.943482996775
 20
844.4343286750626
 30
0.0
 10
2092.283914748914
 20
844.211628571975
 30
0.0
 10
2092.677745253392
 20
844.0199909386569
 30
0.0
 10
2093.115251957951
 20
843.8638168101753
 30
0.0
 10
2093.586110135381
 20
843.7462190180665
 30
0.0
 10
2094.07998439007
 20
843.6693155903791
 30
0.0
 10
2094.586259692912
 20
843.6344730581787
 30
0.0
 10
2095.094162471074
 20
843.642305665989
 30
0.0
 10
2095.592810770146
 20
843.6927334964485
 30
0.0
 10
2096.071905972537
 20
843.7847481904629
 30
0.0
 10
2096.520311348919
 20
843.9174371049677
 30
0.0
 10
2096.876151150112
 20
844.0634785738051
 30
0.0
 10
2097.06937024894
 20
844.1708998907373
 30
0.0
 10
2097.141377625614
 20
844.2109328237032
 30
0.0
  0
SPLINE
  5
954
330
94E
100
AcDbEntity
  8
0
  6
Continuous
 62
     7
370
    15
100
AcDbSpline
210
0.0
220
0.0
230
1.0
 70
     8
 71
     3
 72
    13
 73
     9
 74
     0
 42
0.0000000001
 43
0.0000000001
 40
0.0
 40
0.0
 40
0.0
 40
0.0
 40
0.1140302117348148
 40
0.3306609702319242
 40
0.5470487413582586
 40
0.7607072178741398
 40
0.9693744148725784
 40
0.9999999999999998
 40
0.9999999999999998
 40
0.9999999999999998
 40
0.9999999999999998
 10
2097.141377625614
 20
844.2109328237032
 30
0.0
 10
2097.20233075113
 20
844.2485672649434
 30
0.0
 10
2097.379080573087
 20
844.3576983510414
 30
0.0
 10
2097.627277987385
 20
844.5630820345213
 30
0.0
 10
2097.860414366591
 20
844.832885745947
 30
0.0
 10
2098.011284722709
 20
845.1247415848811
 30
0.0
 10
2098.08375685734
 20
845.3437960045917
 30
0.0
 10
2098.081676631728
 20
845.4616192950702
 30
0.0
 10
2098.081410396675
 20
845.4766987604035
 30
0.0
  0
LINE
  5
955
330
94E
100
AcDbEntity
  8
0
  6
Continuous
 62
     7
370
    15
100
AcDbLine
 10
2097.356684220939
 20
832.4226778112425
 30
0.0
 11
2097.473371202372
 21
838.2541949277115
 31
0.0
  0
LINE
  5
956
330
94E
100
AcDbEntity
  8
0
  6
Continuous
 62
     7
370
    15
100
AcDbLine
 10
2091.516131022642
 20
840.451171304463
 30
0.0
 11
2091.357885026154
 21
832.542712058983
 31
0.0
  0
LINE
  5
957
330
94E
100
AcDbEntity
  8
0
  6
Continuous
 62
     7
370
    15
100
AcDbLine
 10
2089.257072968778
 20
850.1668861058718
 30
0.0
 11
2089.343763982115
 21
854.4993328099533
 31
0.0
  0
LINE
  5
958
330
94E
100
AcDbEntity
  8
0
  6
Continuous
 62
     7
370
    15
100
AcDbLine
 10
2082.4951349014
 20
854.636371909457
 30
0.0
 11
2082.408443888064
 21
850.3039252053756
 31
0.0
  0
SPLINE
  5
959
330
94E
100
AcDbEntity
  8
0
  6
Continuous
 62
     7
370
    15
100
AcDbSpline
210
0.0
220
0.0
230
1.0
 70
     8
 71
     3
 72
    24
 73
    20
 74
     0
 42
0.0000000001
 43
0.0000000001
 40
0.0
 40
0.0
 40
0.0
 40
0.0
 40
0.0374862664863399
 40
0.0961935796501889
 40
0.1551890267853629
 40
0.2153822468690013
 40
0.2768635985888723
 40
0.3391470775738981
 40
0.4017061985166929
 40
0.4642007377955019
 40
0.5265733345902543
 40
0.5888398142704802
 40
0.6510423468646822
 40
0.7132311876241012
 40
0.7754519587227157
 40
0.8377495751195166
 40
0.9001808635964433
 40
0.9628001879842875
 40
1.0
 40
1.0
 40
1.0
 40
1.0
 10
2082.418332239217
 20
850.3339342432855
 30
0.0
 10
2082.414894732485
 20
850.2704000181362
 30
0.0
 10
2082.40607373993
 20
850.1073647222725
 30
0.0
 10
2082.47745460263
 20
849.8469202773579
 30
0.0
 10
2082.618537923389
 20
849.5629738630654
 30
0.0
 10
2082.831538194064
 20
849.294911968318
 30
0.0
 10
2083.110147911372
 20
849.0467737655297
 30
0.0
 10
2083.450579663511
 20
848.8240736624419
 30
0.0
 10
2083.844410167988
 20
848.6324360291238
 30
0.0
 10
2084.281916872547
 20
848.4762619006422
 30
0.0
 10
2084.752775049979
 20
848.3586641085334
 30
0.0
 10
2085.246649304667
 20
848.281760680846
 30
0.0
 10
2085.752924607508
 20
848.2469181486456
 30
0.0
 10
2086.260827385672
 20
848.2547507564559
 30
0.0
 10
2086.759475684742
 20
848.3051785869154
 30
0.0
 10
2087.238570887134
 20
848.39719328093
 30
0.0
 10
2087.686976263515
 20
848.5298821954346
 30
0.0
 10
2088.042816064709
 20
848.6759236642722
 30
0.0
 10
2088.236035163537
 20
848.7833449812042
 30
0.0
 10
2088.308042540211
 20
848.8233779141701
 30
0.0
  0
SPLINE
  5
95A
330
94E
100
AcDbEntity
  8
0
  6
Continuous
 62
     7
370
    15
100
AcDbSpline
210
0.0
220
0.0
230
1.0
 70
     8
 71
     3
 72
    13
 73
     9
 74
     0
 42
0.0000000001
 43
0.0000000001
 40
0.0
 40
0.0
 40
0.0
 40
0.0
 40
0.1140302117348152
 40
0.3306609702319255
 40
0.5470487413582608
 40
0.760707217874143
 40
0.9693744148725823
 40
1.0
 40
1.0
 40
1.0
 40
1.0
 10
2088.308042540211
 20
848.8233779141701
 30
0.0
 10
2088.368995665727
 20
848.8610123554103
 30
0.0
 10
2088.545745487684
 20
848.9701434415083
 30
0.0
 10
2088.793942901982
 20
849.1755271249882
 30
0.0
 10
2089.027079281189
 20
849.4453308364139
 30
0.0
 10
2089.177949637305
 20
849.7371866753482
 30
0.0
 10
2089.250421771937
 20
849.9562410950584
 30
0.0
 10
2089.248341546325
 20
850.0740643855372
 30
0.0
 10
2089.248075311272
 20
850.0891438508704
 30
0.0
  0
LINE
  5
95B
330
94E
100
AcDbEntity
  8
0
  6
Continuous
 62
     7
370
    15
100
AcDbLine
 10
2092.090758486688
 20
831.4277999864792
 30
0.0
 11
2092.238525959314
 21
831.3314937509085
 31
0.0
  0
LINE
  5
95C
330
94E
100
AcDbEntity
  8
0
  6
Continuous
 62
     7
370
    15
100
AcDbLine
 10
2096.428295342244
 20
831.2476576697601
 30
0.0
 11
2096.579797111067
 21
831.3379756138241
 31
0.0
  0
LINE
  5
95D
330
94E
100
AcDbEntity
  8
0
  6
Continuous
 62
     7
370
    15
100
AcDbLine
 10
2088.523349135536
 20
837.0351229017094
 30
0.0
 11
2088.623756508088
 21
842.0530546749406
 31
0.0
  0
LINE
  5
95E
330
94E
100
AcDbEntity
  8
0
  6
Continuous
 62
     7
370
    15
100
AcDbLine
 10
2082.682795937239
 20
845.0636163949299
 30
0.0
 11
2082.52454994075
 21
837.1551571494499
 31
0.0
  0
LINE
  5
95F
330
94E
100
AcDbEntity
  8
0
  6
Continuous
 62
     7
370
    15
100
AcDbLine
 10
2080.423737883375
 20
854.7793311963388
 30
0.0
 11
2080.510428896712
 21
859.11177790042
 31
0.0
  0
LINE
  5
960
330
94E
100
AcDbEntity
  8
0
  6
Continuous
 62
     7
370
    15
100
AcDbLine
 10
2073.661799815997
 20
859.2488169999239
 30
0.0
 11
2073.575108802661
 21
854.9163702958425
 31
0.0
  0
SPLINE
  5
961
330
94E
100
AcDbEntity
  8
0
  6
Continuous
 62
     7
370
    15
100
AcDbSpline
210
0.0
220
0.0
230
1.0
 70
     8
 71
     3
 72
    24
 73
    20
 74
     0
 42
0.0000000001
 43
0.0000000001
 40
0.0
 40
0.0
 40
0.0
 40
0.0
 40
0.0374862664863413
 40
0.0961935796501955
 40
0.1551890267853609
 40
0.2153822468689908
 40
0.2768635985888657
 40
0.33914707757389
 40
0.4017061985166864
 40
0.4642007377954936
 40
0.5265733345902455
 40
0.5888398142704729
 40
0.6510423468646708
 40
0.7132311876240802
 40
0.7754519587226753
 40
0.8377495751194755
 40
0.900180863596401
 40
0.9628001879842544
 40
1.0
 40
1.0
 40
1.0
 40
1.0
 10
2073.584997153813
 20
854.9463793337523
 30
0.0
 10
2073.581559647081
 20
854.8828451086029
 30
0.0
 10
2073.572738654526
 20
854.7198098127395
 30
0.0
 10
2073.644119517227
 20
854.459365367825
 30
0.0
 10
2073.785202837987
 20
854.1754189535325
 30
0.0
 10
2073.99820310866
 20
853.907357058785
 30
0.0
 10
2074.276812825969
 20
853.6592188559966
 30
0.0
 10
2074.617244578108
 20
853.4365187529088
 30
0.0
 10
2075.011075082585
 20
853.2448811195907
 30
0.0
 10
2075.448581787144
 20
853.0887069911091
 30
0.0
 10
2075.919439964575
 20
852.9711091990003
 30
0.0
 10
2076.413314219264
 20
852.8942057713129
 30
0.0
 10
2076.919589522105
 20
852.8593632391125
 30
0.0
 10
2077.427492300268
 20
852.867195846923
 30
0.0
 10
2077.926140599339
 20
852.9176236773823
 30
0.0
 10
2078.40523580173
 20
853.0096383713967
 30
0.0
 10
2078.853641178112
 20
853.1423272859015
 30
0.0
 10
2079.209480979306
 20
853.2883687547391
 30
0.0
 10
2079.402700078134
 20
853.3957900716712
 30
0.0
 10
2079.474707454808
 20
853.435823004637
 30
0.0
  0
SPLINE
  5
962
330
94E
100
AcDbEntity
  8
0
  6
Continuous
 62
     7
370
    15
100
AcDbSpline
210
0.0
220
0.0
230
1.0
 70
     8
 71
     3
 72
    13
 73
     9
 74
     0
 42
0.0000000001
 43
0.0000000001
 40
0.0
 40
0.0
 40
0.0
 40
0.0
 40
0.114030211734814
 40
0.330660970231922
 40
0.5470487413582549
 40
0.7607072178741348
 40
0.9693744148725722
 40
0.9999999999999998
 40
0.9999999999999998
 40
0.9999999999999998
 40
0.9999999999999998
 10
2079.474707454808
 20
853.435823004637
 30
0.0
 10
2079.535660580324
 20
853.4734574458772
 30
0.0
 10
2079.712410402281
 20
853.5825885319752
 30
0.0
 10
2079.960607816579
 20
853.7879722154551
 30
0.0
 10
2080.193744195785
 20
854.0577759268808
 30
0.0
 10
2080.344614551902
 20
854.3496317658151
 30
0.0
 10
2080.417086686534
 20
854.5686861855255
 30
0.0
 10
2080.415006460922
 20
854.6865094760041
 30
0.0
 10
2080.414740225869
 20
854.7015889413373
 30
0.0
  0
LINE
  5
963
330
94E
100
AcDbEntity
  8
0
  6
Continuous
 62
     7
370
    15
100
AcDbLine
 10
2083.257423401285
 20
836.0402450769461
 30
0.0
 11
2083.405190873911
 21
835.9439388413754
 31
0.0
  0
LINE
  5
964
330
94E
100
AcDbEntity
  8
0
  6
Continuous
 62
     7
370
    15
100
AcDbLine
 10
2087.594960256841
 20
835.8601027602272
 30
0.0
 11
2087.746462025663
 21
835.9504207042911
 31
0.0
  0
LINE
  5
965
330
94E
100
AcDbEntity
  8
0
  6
Continuous
 62
     7
370
    15
100
AcDbLine
 10
2079.690014050133
 20
841.6475679921763
 30
0.0
 11
2079.790421422685
 21
846.6654997654075
 31
0.0
  0
LINE
  5
966
330
94E
100
AcDbEntity
  8
0
  6
Continuous
 62
     7
370
    15
100
AcDbLine
 10
2073.849460851836
 20
849.676061485397
 30
0.0
 11
2073.691214855347
 21
841.7676022399168
 31
0.0
  0
LINE
  5
967
330
94E
100
AcDbEntity
  8
0
  6
Continuous
 62
     7
370
    15
100
AcDbLine
 10
2071.590402797972
 20
859.3917762868057
 30
0.0
 11
2071.677093811309
 21
863.7242229908871
 31
0.0
  0
LINE
  5
968
330
94E
100
AcDbEntity
  8
0
  6
Continuous
 62
     7
370
    15
100
AcDbLine
 10
2064.828464730594
 20
863.8612620903908
 30
0.0
 11
2064.741773717257
 21
859.5288153863094
 31
0.0
  0
SPLINE
  5
969
330
94E
100
AcDbEntity
  8
0
  6
Continuous
 62
     7
370
    15
100
AcDbSpline
210
0.0
220
0.0
230
1.0
 70
     8
 71
     3
 72
    24
 73
    20
 74
     0
 42
0.0000000001
 43
0.0000000001
 40
0.0
 40
0.0
 40
0.0
 40
0.0
 40
0.0374862664863388
 40
0.0961935796501942
 40
0.1551890267853728
 40
0.2153822468690017
 40
0.2768635985888745
 40
0.3391470775738986
 40
0.4017061985166934
 40
0.4642007377955025
 40
0.5265733345902546
 40
0.5888398142704729
 40
0.6510423468646777
 40
0.7132311876240917
 40
0.7754519587227006
 40
0.8377495751194976
 40
0.9001808635964209
 40
0.9628001879842736
 40
1.0
 40
1.0
 40
1.0
 40
1.0
 10
2064.75166206841
 20
859.5588244242193
 30
0.0
 10
2064.748224561679
 20
859.49529019907
 30
0.0
 10
2064.739403569123
 20
859.3322549032064
 30
0.0
 10
2064.810784431823
 20
859.0718104582917
 30
0.0
 10
2064.951867752583
 20
858.7878640439994
 30
0.0
 10
2065.164868023257
 20
858.5198021492519
 30
0.0
 10
2065.443477740565
 20
858.2716639464635
 30
0.0
 10
2065.783909492705
 20
858.0489638433757
 30
0.0
 10
2066.177739997182
 20
857.8573262100578
 30
0.0
 10
2066.615246701741
 20
857.701152081576
 30
0.0
 10
2067.086104879172
 20
857.5835542894672
 30
0.0
 10
2067.57997913386
 20
857.5066508617798
 30
0.0
 10
2068.086254436702
 20
857.4718083295795
 30
0.0
 10
2068.594157214865
 20
857.4796409373899
 30
0.0
 10
2069.092805513935
 20
857.5300687678494
 30
0.0
 10
2069.571900716327
 20
857.6220834618638
 30
0.0
 10
2070.020306092709
 20
857.7547723763684
 30
0.0
 10
2070.376145893903
 20
857.900813845206
 30
0.0
 10
2070.569364992731
 20
858.0082351621381
 30
0.0
 10
2070.641372369404
 20
858.0482680951039
 30
0.0
  0
SPLINE
  5
96A
330
94E
100
AcDbEntity
  8
0
  6
Continuous
 62
     7
370
    15
100
AcDbSpline
210
0.0
220
0.0
230
1.0
 70
     8
 71
     3
 72
    13
 73
     9
 74
     0
 42
0.0000000001
 43
0.0000000001
 40
0.0
 40
0.0
 40
0.0
 40
0.0
 40
0.1140302117348148
 40
0.3306609702319243
 40
0.5470487413582588
 40
0.76070721787414
 40
0.9693744148725784
 40
0.9999999999999998
 40
0.9999999999999998
 40
0.9999999999999998
 40
0.9999999999999998
 10
2070.641372369404
 20
858.0482680951039
 30
0.0
 10
2070.702325494921
 20
858.0859025363441
 30
0.0
 10
2070.879075316877
 20
858.1950336224421
 30
0.0
 10
2071.127272731175
 20
858.400417305922
 30
0.0
 10
2071.360409110382
 20
858.6702210173477
 30
0.0
 10
2071.511279466499
 20
858.962076856282
 30
0.0
 10
2071.58375160113
 20
859.1811312759924
 30
0.0
 10
2071.581671375519
 20
859.298954566471
 30
0.0
 10
2071.581405140466
 20
859.3140340318042
 30
0.0
  0
LINE
  5
96B
330
94E
100
AcDbEntity
  8
0
  6
Continuous
 62
     7
370
    15
100
AcDbLine
 10
2074.424088315882
 20
840.652690167413
 30
0.0
 11
2074.571855788508
 21
840.5563839318423
 31
0.0
  0
LINE
  5
96C
330
94E
100
AcDbEntity
  8
0
  6
Continuous
 62
     7
370
    15
100
AcDbLine
 10
2078.761625171438
 20
840.4725478506941
 30
0.0
 11
2078.91312694026
 21
840.5628657947579
 31
0.0
  0
LINE
  5
96D
330
94E
100
AcDbEntity
  8
0
  6
Continuous
 62
     7
370
    15
100
AcDbLine
 10
2070.85667896473
 20
846.2600130826434
 30
0.0
 11
2070.957086337282
 21
851.2779448558744
 31
0.0
  0
LINE
  5
96E
330
94E
100
AcDbEntity
  8
0
  6
Continuous
 62
     7
370
    15
100
AcDbLine
 10
2065.016125766433
 20
854.2885065758639
 30
0.0
 11
2064.857879769944
 21
846.3800473303837
 31
0.0
  0
LINE
  5
96F
330
94E
100
AcDbEntity
  8
0
  6
Continuous
 62
     7
370
    15
100
AcDbLine
 10
2062.757067712569
 20
864.0042213772726
 30
0.0
 11
2062.843758725906
 21
868.336668081354
 31
0.0
  0
LINE
  5
970
330
94E
100
AcDbEntity
  8
0
  6
Continuous
 62
     7
370
    15
100
AcDbLine
 10
2055.995129645191
 20
868.4737071808577
 30
0.0
 11
2055.908438631854
 21
864.1412604767763
 31
0.0
  0
SPLINE
  5
971
330
94E
100
AcDbEntity
  8
0
  6
Continuous
 62
     7
370
    15
100
AcDbSpline
210
0.0
220
0.0
230
1.0
 70
     8
 71
     3
 72
    24
 73
    20
 74
     0
 42
0.0000000001
 43
0.0000000001
 40
0.0
 40
0.0
 40
0.0
 40
0.0
 40
0.0374862664863192
 40
0.0961935796501681
 40
0.1551890267853362
 40
0.2153822468689718
 40
0.2768635985888431
 40
0.3391470775738703
 40
0.4017061985166665
 40
0.4642007377954748
 40
0.5265733345902258
 40
0.5888398142704526
 40
0.6510423468646521
 40
0.7132311876240688
 40
0.7754519587226781
 40
0.8377495751194762
 40
0.9001808635963993
 40
0.9628001879842502
 40
1.0
 40
1.0
 40
1.0
 40
1.0
 10
2055.918326983007
 20
864.1712695146862
 30
0.0
 10
2055.914889476275
 20
864.1077352895369
 30
0.0
 10
2055.90606848372
 20
863.9446999936735
 30
0.0
 10
2055.97744934642
 20
863.6842555487588
 30
0.0
 10
2056.11853266718
 20
863.4003091344665
 30
0.0
 10
2056.331532937854
 20
863.1322472397188
 30
0.0
 10
2056.610142655162
 20
862.8841090369306
 30
0.0
 10
2056.950574407301
 20
862.6614089338428
 30
0.0
 10
2057.344404911779
 20
862.4697713005247
 30
0.0
 10
2057.781911616338
 20
862.3135971720431
 30
0.0
 10
2058.252769793769
 20
862.1959993799343
 30
0.0
 10
2058.746644048457
 20
862.1190959522467
 30
0.0
 10
2059.252919351299
 20
862.0842534200463
 30
0.0
 10
2059.760822129462
 20
862.0920860278568
 30
0.0
 10
2060.259470428533
 20
862.1425138583161
 30
0.0
 10
2060.738565630924
 20
862.2345285523307
 30
0.0
 10
2061.186971007306
 20
862.3672174668353
 30
0.0
 10
2061.5428108085
 20
862.5132589356729
 30
0.0
 10
2061.736029907327
 20
862.620680252605
 30
0.0
 10
2061.808037284001
 20
862.6607131855708
 30
0.0
  0
SPLINE
  5
972
330
94E
100
AcDbEntity
  8
0
  6
Continuous
 62
     7
370
    15
100
AcDbSpline
210
0.0
220
0.0
230
1.0
 70
     8
 71
     3
 72
    13
 73
     9
 74
     0
 42
0.0000000001
 43
0.0000000001
 40
0.0
 40
0.0
 40
0.0
 40
0.0
 40
0.1140302117348138
 40
0.3306609702319215
 40
0.5470487413582541
 40
0.7607072178741336
 40
0.9693744148725704
 40
1.0
 40
1.0
 40
1.0
 40
1.0
 10
2061.808037284001
 20
862.6607131855708
 30
0.0
 10
2061.868990409517
 20
862.698347626811
 30
0.0
 10
2062.045740231474
 20
862.8074787129092
 30
0.0
 10
2062.293937645772
 20
863.0128623963889
 30
0.0
 10
2062.527074024979
 20
863.2826661078148
 30
0.0
 10
2062.677944381096
 20
863.5745219467489
 30
0.0
 10
2062.750416515727
 20
863.7935763664593
 30
0.0
 10
2062.748336290116
 20
863.9113996569379
 30
0.0
 10
2062.748070055063
 20
863.9264791222712
 30
0.0
  0
LINE
  5
973
330
94E
100
AcDbEntity
  8
0
  6
Continuous
 62
     7
370
    15
100
AcDbLine
 10
2065.590753230479
 20
845.2651352578801
 30
0.0
 11
2065.738520703105
 21
845.1688290223092
 31
0.0
  0
LINE
  5
974
330
94E
100
AcDbEntity
  8
0
  6
Continuous
 62
     7
370
    15
100
AcDbLine
 10
2069.928290086035
 20
845.084992941161
 30
0.0
 11
2070.079791854857
 21
845.1753108852249
 31
0.0
  0
LINE
  5
975
330
94E
100
AcDbEntity
  8
0
  6
Continuous
 62
     7
370
    15
100
AcDbLine
 10
2062.023343879327
 20
850.8724581731101
 30
0.0
 11
2062.123751251878
 21
855.8903899463413
 31
0.0
  0
LINE
  5
976
330
94E
100
AcDbEntity
  8
0
  6
Continuous
 62
     7
370
    15
100
AcDbLine
 10
2056.182790681029
 20
858.9009516663308
 30
0.0
 11
2056.024544684541
 21
850.9924924208506
 31
0.0
  0
LINE
  5
977
330
94E
100
AcDbEntity
  8
0
  6
Continuous
 62
     7
370
    15
100
AcDbLine
 10
2053.923732627166
 20
868.6166664677395
 30
0.0
 11
2054.010423640503
 21
872.9491131718209
 31
0.0
  0
LINE
  5
978
330
94E
100
AcDbEntity
  8
0
  6
Continuous
 62
     7
370
    15
100
AcDbLine
 10
2047.161794559788
 20
873.0861522713246
 30
0.0
 11
2047.075103546451
 21
868.7537055672432
 31
0.0
  0
SPLINE
  5
979
330
94E
100
AcDbEntity
  8
0
  6
Continuous
 62
     7
370
    15
100
AcDbSpline
210
0.0
220
0.0
230
1.0
 70
     8
 71
     3
 72
    24
 73
    20
 74
     0
 42
0.0000000001
 43
0.0000000001
 40
0.0
 40
0.0
 40
0.0
 40
0.0
 40
0.0374862664862984
 40
0.0961935796501427
 40
0.1551890267853101
 40
0.215382246868947
 40
0.2768635985888157
 40
0.3391470775738439
 40
0.4017061985166399
 40
0.4642007377954482
 40
0.5265733345901983
 40
0.5888398142704228
 40
0.6510423468646252
 40
0.7132311876240422
 40
0.7754519587226515
 40
0.8377495751194524
 40
0.9001808635963714
 40
0.9628001879842289
 40
1.0
 40
1.0
 40
1.0
 40
1.0
 10
2047.084991897603
 20
868.7837146051531
 30
0.0
 10
2047.081554390872
 20
868.7201803800038
 30
0.0
 10
2047.072733398317
 20
868.5571450841406
 30
0.0
 10
2047.144114261017
 20
868.2967006392258
 30
0.0
 10
2047.285197581777
 20
868.0127542249335
 30
0.0
 10
2047.49819785245
 20
867.7446923301859
 30
0.0
 10
2047.776807569759
 20
867.4965541273975
 30
0.0
 10
2048.117239321898
 20
867.2738540243098
 30
0.0
 10
2048.511069826375
 20
867.0822163909916
 30
0.0
 10
2048.948576530934
 20
866.92604226251
 30
0.0
 10
2049.419434708365
 20
866.8084444704012
 30
0.0
 10
2049.913308963054
 20
866.7315410427137
 30
0.0
 10
2050.419584265895
 20
866.6966985105133
 30
0.0
 10
2050.927487044058
 20
866.7045311183237
 30
0.0
 10
2051.426135343129
 20
866.754958948783
 30
0.0
 10
2051.905230545521
 20
866.8469736427974
 30
0.0
 10
2052.353635921903
 20
866.9796625573022
 30
0.0
 10
2052.709475723096
 20
867.1257040261398
 30
0.0
 10
2052.902694821924
 20
867.2331253430719
 30
0.0
 10
2052.974702198598
 20
867.2731582760377
 30
0.0
  0
SPLINE
  5
97A
330
94E
100
AcDbEntity
  8
0
  6
Continuous
 62
     7
370
    15
100
AcDbSpline
210
0.0
220
0.0
230
1.0
 70
     8
 71
     3
 72
    13
 73
     9
 74
     0
 42
0.0000000001
 43
0.0000000001
 40
0.0
 40
0.0
 40
0.0
 40
0.0
 40
0.1140302117348138
 40
0.3306609702319218
 40
0.5470487413582741
 40
0.7607072178741358
 40
0.969374414872575
 40
1.0
 40
1.0
 40
1.0
 40
1.0
 10
2052.974702198598
 20
867.2731582760377
 30
0.0
 10
2053.035655324114
 20
867.3107927172779
 30
0.0
 10
2053.212405146071
 20
867.4199238033761
 30
0.0
 10
2053.460602560369
 20
867.625307486856
 30
0.0
 10
2053.693738939576
 20
867.8951111982817
 30
0.0
 10
2053.844609295692
 20
868.186967037216
 30
0.0
 10
2053.917081430324
 20
868.4060214569262
 30
0.0
 10
2053.915001204713
 20
868.5238447474048
 30
0.0
 10
2053.91473496966
 20
868.538924212738
 30
0.0
  0
LINE
  5
97B
330
94E
100
AcDbEntity
  8
0
  6
Continuous
 62
     7
370
    15
100
AcDbLine
 10
2056.757418145076
 20
849.8775803483468
 30
0.0
 11
2056.905185617702
 21
849.7812741127763
 31
0.0
  0
LINE
  5
97C
330
94E
100
AcDbEntity
  8
0
  6
Continuous
 62
     7
370
    15
100
AcDbLine
 10
2061.094955000632
 20
849.6974380316279
 30
0.0
 11
2061.246456769454
 21
849.7877559756918
 31
0.0
  0
LINE
  5
97D
330
94E
100
AcDbEntity
  8
0
  6
Continuous
 62
     7
370
    15
100
AcDbLine
 10
2053.190008793924
 20
855.4849032635772
 30
0.0
 11
2053.290416166476
 21
860.5028350368083
 31
0.0
  0
LINE
  5
97E
330
94E
100
AcDbEntity
  8
0
  6
Continuous
 62
     7
370
    15
100
AcDbLine
 10
2047.349455595627
 20
863.5133967567977
 30
0.0
 11
2047.191209599137
 21
855.6049375113175
 31
0.0
  0
LINE
  5
97F
330
94E
100
AcDbEntity
  8
0
  6
Continuous
 62
     7
370
    15
100
AcDbLine
 10
2045.090397541763
 20
873.2291115582064
 30
0.0
 11
2045.177088555099
 21
877.5615582622878
 31
0.0
  0
LINE
  5
980
330
94E
100
AcDbEntity
  8
0
  6
Continuous
 62
     7
370
    15
100
AcDbLine
 10
2038.328459474385
 20
877.6985973617916
 30
0.0
 11
2038.241768461048
 21
873.3661506577103
 31
0.0
  0
SPLINE
  5
981
330
94E
100
AcDbEntity
  8
0
  6
Continuous
 62
     7
370
    15
100
AcDbSpline
210
0.0
220
0.0
230
1.0
 70
     8
 71
     3
 72
    24
 73
    20
 74
     0
 42
0.0000000001
 43
0.0000000001
 40
0.0
 40
0.0
 40
0.0
 40
0.0
 40
0.0374862664863158
 40
0.0961935796501662
 40
0.1551890267853353
 40
0.2153822468689718
 40
0.2768635985888414
 40
0.3391470775738702
 40
0.4017061985166657
 40
0.4642007377954748
 40
0.5265733345902257
 40
0.5888398142704475
 40
0.6510423468646505
 40
0.7132311876240634
 40
0.7754519587226662
 40
0.8377495751194691
 40
0.9001808635963907
 40
0.9628001879842461
 40
1.0
 40
1.0
 40
1.0
 40
1.0
 10
2038.2516568122
 20
873.39615969562
 30
0.0
 10
2038.248219305469
 20
873.3326254704707
 30
0.0
 10
2038.239398312914
 20
873.1695901746073
 30
0.0
 10
2038.310779175613
 20
872.9091457296927
 30
0.0
 10
2038.451862496374
 20
872.6251993154003
 30
0.0
 10
2038.664862767047
 20
872.3571374206528
 30
0.0
 10
2038.943472484356
 20
872.1089992178644
 30
0.0
 10
2039.283904236495
 20
871.8862991147766
 30
0.0
 10
2039.677734740973
 20
871.6946614814585
 30
0.0
 10
2040.115241445531
 20
871.5384873529769
 30
0.0
 10
2040.586099622962
 20
871.4208895608681
 30
0.0
 10
2041.079973877651
 20
871.3439861331805
 30
0.0
 10
2041.586249180492
 20
871.3091436009802
 30
0.0
 10
2042.094151958655
 20
871.3169762087908
 30
0.0
 10
2042.592800257726
 20
871.3674040392501
 30
0.0
 10
2043.071895460117
 20
871.4594187332645
 30
0.0
 10
2043.520300836499
 20
871.5921076477691
 30
0.0
 10
2043.876140637693
 20
871.7381491166067
 30
0.0
 10
2044.069359736521
 20
871.8455704335388
 30
0.0
 10
2044.141367113195
 20
871.8856033665046
 30
0.0
  0
SPLINE
  5
982
330
94E
100
AcDbEntity
  8
0
  6
Continuous
 62
     7
370
    15
100
AcDbSpline
210
0.0
220
0.0
230
1.0
 70
     8
 71
     3
 72
    13
 73
     9
 74
     0
 42
0.0000000001
 43
0.0000000001
 40
0.0
 40
0.0
 40
0.0
 40
0.0
 40
0.1140302117348138
 40
0.3306609702319219
 40
0.5470487413582742
 40
0.7607072178741359
 40
0.9693744148725752
 40
1.0
 40
1.0
 40
1.0
 40
1.0
 10
2044.141367113195
 20
871.8856033665046
 30
0.0
 10
2044.202320238711
 20
871.923237807745
 30
0.0
 10
2044.379070060668
 20
872.032368893843
 30
0.0
 10
2044.627267474966
 20
872.2377525773229
 30
0.0
 10
2044.860403854173
 20
872.5075562887486
 30
0.0
 10
2045.011274210289
 20
872.7994121276829
 30
0.0
 10
2045.083746344921
 20
873.0184665473931
 30
0.0
 10
2045.08166611931
 20
873.1362898378717
 30
0.0
 10
2045.081399884256
 20
873.151369303205
 30
0.0
  0
LINE
  5
983
330
94E
100
AcDbEntity
  8
0
  6
Continuous
 62
     7
370
    15
100
AcDbLine
 10
2047.924083059672
 20
854.4900254388139
 30
0.0
 11
2048.071850532299
 21
854.393719203243
 31
0.0
  0
LINE
  5
984
330
94E
100
AcDbEntity
  8
0
  6
Continuous
 62
     7
370
    15
100
AcDbLine
 10
2052.261619915229
 20
854.3098831220948
 30
0.0
 11
2052.41312168405
 21
854.4002010661587
 31
0.0
  0
LINE
  5
985
330
94E
100
AcDbEntity
  8
0
  6
Continuous
 62
     7
370
    15
100
AcDbLine
 10
2044.356673708521
 20
860.0973483540441
 30
0.0
 11
2044.457081081072
 21
865.115280127275
 31
0.0
  0
LINE
  5
986
330
94E
100
AcDbEntity
  8
0
  6
Continuous
 62
     7
370
    15
100
AcDbLine
 10
2038.516120510223
 20
868.1258418472646
 30
0.0
 11
2038.357874513734
 21
860.2173826017846
 31
0.0
  0
LINE
  5
987
330
94E
100
AcDbEntity
  8
0
  6
Continuous
 62
     7
370
    15
100
AcDbLine
 10
2036.257062456359
 20
877.8415566486733
 30
0.0
 11
2036.343753469696
 21
882.1740033527547
 31
0.0
  0
LINE
  5
988
330
94E
100
AcDbEntity
  8
0
  6
Continuous
 62
     7
370
    15
100
AcDbLine
 10
2029.495124388982
 20
882.3110424522585
 30
0.0
 11
2029.408433375645
 21
877.9785957481772
 31
0.0
  0
SPLINE
  5
989
330
94E
100
AcDbEntity
  8
0
  6
Continuous
 62
     7
370
    15
100
AcDbSpline
210
0.0
220
0.0
230
1.0
 70
     8
 71
     3
 72
    24
 73
    20
 74
     0
 42
0.0000000001
 43
0.0000000001
 40
0.0
 40
0.0
 40
0.0
 40
0.0
 40
0.037486266486326
 40
0.0961935796501742
 40
0.1551890267853445
 40
0.2153822468689817
 40
0.2768635985888497
 40
0.339147077573878
 40
0.4017061985166743
 40
0.4642007377954828
 40
0.5265733345902336
 40
0.5888398142704584
 40
0.6510423468646587
 40
0.7132311876240778
 40
0.7754519587226876
 40
0.8377495751194846
 40
0.9001808635964051
 40
0.962800187984263
 40
1.0
 40
1.0
 40
1.0
 40
1.0
 10
2029.418321726797
 20
878.0086047860871
 30
0.0
 10
2029.414884220066
 20
877.9450705609376
 30
0.0
 10
2029.406063227511
 20
877.7820352650742
 30
0.0
 10
2029.47744409021
 20
877.5215908201596
 30
0.0
 10
2029.618527410971
 20
877.2376444058672
 30
0.0
 10
2029.831527681644
 20
876.9695825111197
 30
0.0
 10
2030.110137398953
 20
876.7214443083313
 30
0.0
 10
2030.450569151092
 20
876.4987442052436
 30
0.0
 10
2030.844399655569
 20
876.3071065719255
 30
0.0
 10
2031.281906360128
 20
876.150932443444
 30
0.0
 10
2031.752764537559
 20
876.033334651335
 30
0.0
 10
2032.246638792248
 20
875.9564312236475
 30
0.0
 10
2032.752914095089
 20
875.9215886914471
 30
0.0
 10
2033.260816873251
 20
875.9294212992575
 30
0.0
 10
2033.759465172323
 20
875.979849129717
 30
0.0
 10
2034.238560374714
 20
876.0718638237314
 30
0.0
 10
2034.686965751097
 20
876.204552738236
 30
0.0
 10
2035.04280555229
 20
876.3505942070738
 30
0.0
 10
2035.236024651118
 20
876.4580155240057
 30
0.0
 10
2035.308032027792
 20
876.4980484569717
 30
0.0
  0
SPLINE
  5
98A
330
94E
100
AcDbEntity
  8
0
  6
Continuous
 62
     7
370
    15
100
AcDbSpline
210
0.0
220
0.0
230
1.0
 70
     8
 71
     3
 72
    13
 73
     9
 74
     0
 42
0.0000000001
 43
0.0000000001
 40
0.0
 40
0.0
 40
0.0
 40
0.0
 40
0.1140302117348138
 40
0.3306609702319573
 40
0.5470487413583035
 40
0.7607072178741598
 40
0.9693744148726215
 40
1.0
 40
1.0
 40
1.0
 40
1.0
 10
2035.308032027792
 20
876.4980484569717
 30
0.0
 10
2035.368985153308
 20
876.5356828982119
 30
0.0
 10
2035.545734975265
 20
876.6448139843099
 30
0.0
 10
2035.793932389562
 20
876.8501976677898
 30
0.0
 10
2036.02706876877
 20
877.1200013792155
 30
0.0
 10
2036.177939124886
 20
877.4118572181498
 30
0.0
 10
2036.250411259517
 20
877.63091163786
 30
0.0
 10
2036.248331033906
 20
877.7487349283388
 30
0.0
 10
2036.248064798853
 20
877.7638143936719
 30
0.0
  0
LINE
  5
98B
330
94E
100
AcDbEntity
  8
0
  6
Continuous
 62
     7
370
    15
100
AcDbLine
 10
2039.090747974269
 20
859.1024705292808
 30
0.0
 11
2039.238515446895
 21
859.0061642937101
 31
0.0
  0
LINE
  5
98C
330
94E
100
AcDbEntity
  8
0
  6
Continuous
 62
     7
370
    15
100
AcDbLine
 10
2043.428284829825
 20
858.9223282125617
 30
0.0
 11
2043.579786598647
 21
859.0126461566256
 31
0.0
  0
LINE
  5
98D
330
94E
100
AcDbEntity
  8
0
  6
Continuous
 62
     7
370
    15
100
AcDbLine
 10
2035.523338623117
 20
864.709793444511
 30
0.0
 11
2035.623745995669
 21
869.7277252177421
 31
0.0
  0
LINE
  5
98E
330
94E
100
AcDbEntity
  8
0
  6
Continuous
 62
     7
370
    15
100
AcDbLine
 10
2029.68278542482
 20
872.7382869377315
 30
0.0
 11
2029.524539428331
 21
864.8298276922515
 31
0.0
  0
LINE
  5
98F
330
94E
100
AcDbEntity
  8
0
  6
Continuous
 62
     7
370
    15
100
AcDbLine
 10
2027.423727370956
 20
882.4540017391402
 30
0.0
 11
2027.510418384293
 21
886.7864484432217
 31
0.0
  0
LINE
  5
990
330
94E
100
AcDbEntity
  8
0
  6
Continuous
 62
     7
370
    15
100
AcDbLine
 10
2020.661789303578
 20
886.9234875427254
 30
0.0
 11
2020.575098290242
 21
882.5910408386441
 31
0.0
  0
SPLINE
  5
991
330
94E
100
AcDbEntity
  8
0
  6
Continuous
 62
     7
370
    15
100
AcDbSpline
210
0.0
220
0.0
230
1.0
 70
     8
 71
     3
 72
    24
 73
    20
 74
     0
 42
0.0000000001
 43
0.0000000001
 40
0.0
 40
0.0
 40
0.0
 40
0.0
 40
0.0374862664863108
 40
0.0961935796501577
 40
0.1551890267853266
 40
0.2153822468689628
 40
0.2768635985888311
 40
0.3391470775738594
 40
0.4017061985166554
 40
0.4642007377954639
 40
0.5265733345902151
 40
0.5888398142704406
 40
0.6510423468646414
 40
0.7132311876240564
 40
0.7754519587226629
 40
0.8377495751194636
 40
0.9001808635963815
 40
0.9628001879842361
 40
1.0
 40
1.0
 40
1.0
 40
1.0
 10
2020.584986641394
 20
882.6210498765538
 30
0.0
 10
2020.581549134663
 20
882.5575156514046
 30
0.0
 10
2020.572728142107
 20
882.3944803555411
 30
0.0
 10
2020.644109004807
 20
882.1340359106265
 30
0.0
 10
2020.785192325567
 20
881.8500894963342
 30
0.0
 10
2020.998192596241
 20
881.5820276015868
 30
0.0
 10
2021.276802313549
 20
881.3338893987983
 30
0.0
 10
2021.617234065689
 20
881.1111892957105
 30
0.0
 10
2022.011064570166
 20
880.9195516623924
 30
0.0
 10
2022.448571274725
 20
880.7633775339109
 30
0.0
 10
2022.919429452156
 20
880.6457797418019
 30
0.0
 10
2023.413303706844
 20
880.5688763141144
 30
0.0
 10
2023.919579009686
 20
880.534033781914
 30
0.0
 10
2024.427481787849
 20
880.5418663897246
 30
0.0
 10
2024.92613008692
 20
880.5922942201839
 30
0.0
 10
2025.405225289311
 20
880.6843089141983
 30
0.0
 10
2025.853630665693
 20
880.8169978287029
 30
0.0
 10
2026.209470466887
 20
880.9630392975405
 30
0.0
 10
2026.402689565715
 20
881.0704606144726
 30
0.0
 10
2026.474696942389
 20
881.1104935474386
 30
0.0
  0
SPLINE
  5
992
330
94E
100
AcDbEntity
  8
0
  6
Continuous
 62
     7
370
    15
100
AcDbSpline
210
0.0
220
0.0
230
1.0
 70
     8
 71
     3
 72
    13
 73
     9
 74
     0
 42
0.0000000001
 43
0.0000000001
 40
0.0
 40
0.0
 40
0.0
 40
0.0
 40
0.1140302117348155
 40
0.3306609702319264
 40
0.5470487413582861
 40
0.7607072178741456
 40
0.9693744148726029
 40
1.0
 40
1.0
 40
1.0
 40
1.0
 10
2026.474696942389
 20
881.1104935474386
 30
0.0
 10
2026.535650067905
 20
881.1481279886788
 30
0.0
 10
2026.712399889861
 20
881.2572590747768
 30
0.0
 10
2026.960597304159
 20
881.4626427582567
 30
0.0
 10
2027.193733683366
 20
881.7324464696824
 30
0.0
 10
2027.344604039483
 20
882.0243023086167
 30
0.0
 10
2027.417076174114
 20
882.2433567283271
 30
0.0
 10
2027.414995948503
 20
882.3611800188057
 30
0.0
 10
2027.41472971345
 20
882.3762594841388
 30
0.0
  0
LINE
  5
993
330
94E
100
AcDbEntity
  8
0
  6
Continuous
 62
     7
370
    15
100
AcDbLine
 10
2030.257412888866
 20
863.7149156197477
 30
0.0
 11
2030.405180361492
 21
863.618609384177
 31
0.0
  0
LINE
  5
994
330
94E
100
AcDbEntity
  8
0
  6
Continuous
 62
     7
370
    15
100
AcDbLine
 10
2034.594949744422
 20
863.5347733030286
 30
0.0
 11
2034.746451513244
 21
863.6250912470925
 31
0.0
  0
LINE
  5
995
330
94E
100
AcDbEntity
  8
0
  6
Continuous
 62
     7
370
    15
100
AcDbLine
 10
2026.690003537714
 20
869.3222385349779
 30
0.0
 11
2026.790410910265
 21
874.340170308209
 31
0.0
  0
LINE
  5
996
330
94E
100
AcDbEntity
  8
0
  6
Continuous
 62
     7
370
    15
100
AcDbLine
 10
2020.849450339417
 20
877.3507320281986
 30
0.0
 11
2020.691204342928
 21
869.4422727827184
 31
0.0
  0
LINE
  5
997
330
94E
100
AcDbEntity
  8
0
  6
Continuous
 62
     7
370
    15
100
AcDbLine
 10
2018.590392285553
 20
887.0664468296071
 30
0.0
 11
2018.677083298889
 21
891.3988935336886
 31
0.0
  0
LINE
  5
998
330
94E
100
AcDbEntity
  8
0
  6
Continuous
 62
     7
370
    15
100
AcDbLine
 10
2011.828454218175
 20
891.5359326331923
 30
0.0
 11
2011.741763204838
 21
887.203485929111
 31
0.0
  0
SPLINE
  5
999
330
94E
100
AcDbEntity
  8
0
  6
Continuous
 62
     7
370
    15
100
AcDbSpline
210
0.0
220
0.0
230
1.0
 70
     8
 71
     3
 72
    24
 73
    20
 74
     0
 42
0.0000000001
 43
0.0000000001
 40
0.0
 40
0.0
 40
0.0
 40
0.0
 40
0.0374862664863112
 40
0.0961935796501577
 40
0.155189026785327
 40
0.2153822468689635
 40
0.2768635985888314
 40
0.3391470775738601
 40
0.401706198516656
 40
0.4642007377954639
 40
0.5265733345902154
 40
0.5888398142704402
 40
0.6510423468646412
 40
0.7132311876240573
 40
0.7754519587226641
 40
0.8377495751194645
 40
0.9001808635963831
 40
0.9628001879842388
 40
1.0
 40
1.0
 40
1.0
 40
1.0
 10
2011.751651555991
 20
887.2334949670209
 30
0.0
 10
2011.748214049259
 20
887.1699607418715
 30
0.0
 10
2011.739393056704
 20
887.0069254460082
 30
0.0
 10
2011.810773919404
 20
886.7464810010936
 30
0.0
 10
2011.951857240164
 20
886.4625345868011
 30
0.0
 10
2012.164857510838
 20
886.1944726920537
 30
0.0
 10
2012.443467228147
 20
885.9463344892651
 30
0.0
 10
2012.783898980285
 20
885.7236343861774
 30
0.0
 10
2013.177729484763
 20
885.5319967528593
 30
0.0
 10
2013.615236189322
 20
885.3758226243778
 30
0.0
 10
2014.086094366753
 20
885.258224832269
 30
0.0
 10
2014.579968621441
 20
885.1813214045815
 30
0.0
 10
2015.086243924283
 20
885.1464788723811
 30
0.0
 10
2015.594146702445
 20
885.1543114801913
 30
0.0
 10
2016.092795001517
 20
885.2047393106508
 30
0.0
 10
2016.571890203908
 20
885.2967540046652
 30
0.0
 10
2017.02029558029
 20
885.4294429191698
 30
0.0
 10
2017.376135381484
 20
885.5754843880074
 30
0.0
 10
2017.569354480312
 20
885.6829057049395
 30
0.0
 10
2017.641361856985
 20
885.7229386379055
 30
0.0
  0
SPLINE
  5
99A
330
94E
100
AcDbEntity
  8
0
  6
Continuous
 62
     7
370
    15
100
AcDbSpline
210
0.0
220
0.0
230
1.0
 70
     8
 71
     3
 72
    13
 73
     9
 74
     0
 42
0.0000000001
 43
0.0000000001
 40
0.0
 40
0.0
 40
0.0
 40
0.0
 40
0.1140302117348138
 40
0.3306609702319307
 40
0.547048741358282
 40
0.7607072178741391
 40
0.9693744148725981
 40
1.0
 40
1.0
 40
1.0
 40
1.0
 10
2017.641361856985
 20
885.7229386379055
 30
0.0
 10
2017.702314982502
 20
885.7605730791457
 30
0.0
 10
2017.879064804458
 20
885.8697041652437
 30
0.0
 10
2018.127262218756
 20
886.0750878487236
 30
0.0
 10
2018.360398597963
 20
886.3448915601493
 30
0.0
 10
2018.51126895408
 20
886.6367473990836
 30
0.0
 10
2018.583741088711
 20
886.8558018187938
 30
0.0
 10
2018.5816608631
 20
886.9736251092726
 30
0.0
 10
2018.581394628046
 20
886.9887045746057
 30
0.0
  0
LINE
  5
99B
330
94E
100
AcDbEntity
  8
0
  6
Continuous
 62
     7
370
    15
100
AcDbLine
 10
2021.424077803463
 20
868.3273607102146
 30
0.0
 11
2021.571845276089
 21
868.2310544746439
 31
0.0
  0
LINE
  5
99C
330
94E
100
AcDbEntity
  8
0
  6
Continuous
 62
     7
370
    15
100
AcDbLine
 10
2025.761614659019
 20
868.1472183934957
 30
0.0
 11
2025.913116427841
 21
868.2375363375596
 31
0.0
  0
LINE
  5
99D
330
94E
100
AcDbEntity
  8
0
  6
Continuous
 62
     7
370
    15
100
AcDbLine
 10
2017.856668452311
 20
873.9346836254449
 30
0.0
 11
2017.957075824862
 21
878.9526153986759
 31
0.0
  0
LINE
  5
99E
330
94E
100
AcDbEntity
  8
0
  6
Continuous
 62
     7
370
    15
100
AcDbLine
 10
2012.016115254014
 20
881.9631771186655
 30
0.0
 11
2011.857869257525
 21
874.0547178731853
 31
0.0
  0
LINE
  5
99F
330
94E
100
AcDbEntity
  8
0
  6
Continuous
 62
     7
370
    15
100
AcDbLine
 10
2012.59074271806
 20
872.9398058006816
 30
0.0
 11
2012.738510190686
 21
872.8434995651108
 31
0.0
  0
LINE
  5
9A0
330
94E
100
AcDbEntity
  8
0
  6
Continuous
 62
     7
370
    15
100
AcDbLine
 10
2016.928279573616
 20
872.7596634839626
 30
0.0
 11
2017.079781342438
 21
872.8499814280265
 31
0.0
  0
LWPOLYLINE
  5
9A1
330
94E
100
AcDbEntity
  8
0
  6
Continuous
 62
     7
370
    15
100
AcDbPolyline
 90
       41
 70
   128
 43
0.0
 10
2092.231603471535
 20
851.2718759721421
 10
2092.625187168564
 20
851.4687063578653
 10
2093.07115937365
 20
851.6282742976748
 10
2093.558538771012
 20
851.7466506993166
 10
2094.075324462363
 20
851.8209207429139
 10
2094.608791468871
 20
851.8492556535049
 10
2095.145804062359
 20
851.830957731553
 10
2095.673139210534
 20
851.7664775326236
 10
2096.177812171923
 20
851.6574027732122
 10
2096.647396223301
 20
851.5064192358938
 10
2097.070328646865
 20
851.3172446364427
 10
2097.436195442714
 20
851.0945370813317
 10
2097.735987756091
 20
850.8437803696921
 10
2097.962323705289
 20
850.5711489639779
 10
2098.109630148071
 20
850.2833559542098
 10
2098.174279910935
 20
849.9874877594182
 10
2098.154681102157
 20
849.6908296364894
 10
2098.051316309456
 20
849.4006862929619
 10
2097.866730717076
 20
849.1242020208835
 10
2097.605469434904
 20
848.8681847806317
 10
2097.273965582786
 20
848.638938566334
 10
2096.880381885759
 20
848.4421081806109
 10
2096.434409680671
 20
848.2825402408016
 10
2095.947030283311
 20
848.1641638391597
 10
2095.430244591959
 20
848.0898937955624
 10
2094.896777585451
 20
848.0615588849712
 10
2094.359764991963
 20
848.0798568069232
 10
2093.832429843788
 20
848.1443370058524
 10
2093.3277568824
 20
848.253411765264
 10
2092.858172831021
 20
848.4043953025825
 10
2092.435240407457
 20
848.5935699020336
 10
2092.069373611608
 20
848.8162774571446
 10
2091.769581298231
 20
849.0670341687842
 10
2091.543245349033
 20
849.3396655744984
 10
2091.395938906251
 20
849.6274585842666
 10
2091.331289143388
 20
849.9233267790581
 10
2091.350887952165
 20
850.2199849019866
 10
2091.454252744866
 20
850.5101282455143
 10
2091.638838337246
 20
850.7866125175928
 10
2091.900099619417
 20
851.0426297578444
 10
2092.231603471535
 20
851.2718759721421
  0
LWPOLYLINE
  5
9A2
330
94E
100
AcDbEntity
  8
0
  6
Continuous
 62
     7
370
    15
100
AcDbPolyline
 90
       35
 70
   128
 43
0.0
 10
2096.57465988853
 20
849.0040904693341
 10
2096.235909700284
 20
848.8394602777914
 10
2095.846653463079
 20
848.7128323226118
 10
2095.420146831212
 20
848.6285187669354
 10
2094.970913976494
 20
848.5893908077779
 10
2094.514252984997
 20
848.5967809008593
 10
2094.06571489908
 20
848.6504373854236
 10
2093.640574145299
 20
848.7485330542424
 10
2093.253308382123
 20
848.8877273769674
 10
2092.917105480643
 20
849.0632802578828
 10
2092.643414427437
 20
849.2692134541817
 10
2092.441555443068
 20
849.4985141578538
 10
2092.318402593142
 20
849.7433738084515
 10
2092.278149700261
 20
849.9954540042505
 10
2092.322167528413
 20
850.2461704565195
 10
2092.448957103253
 20
850.4869853171781
 10
2092.654200757878
 20
850.7096979249718
 10
2092.930909165792
 20
850.9067240691567
 10
2093.269659354039
 20
851.0713542606994
 10
2093.658915591243
 20
851.1979822158791
 10
2094.08542222311
 20
851.2822957715552
 10
2094.534655077828
 20
851.321423730713
 10
2094.991316069326
 20
851.3140336376313
 10
2095.439854155242
 20
851.260377153067
 10
2095.864994909023
 20
851.1622814842482
 10
2096.252260672199
 20
851.0230871615235
 10
2096.58846357368
 20
850.8475342806081
 10
2096.862154626885
 20
850.6416010843091
 10
2097.064013611255
 20
850.412300380637
 10
2097.18716646118
 20
850.1674407300393
 10
2097.227419354061
 20
849.9153605342403
 10
2097.18340152591
 20
849.6646440819713
 10
2097.05661195107
 20
849.4238292213125
 10
2096.851368296444
 20
849.2011166135188
 10
2096.57465988853
 20
849.0040904693341
  0
LINE
  5
9A3
330
94E
100
AcDbEntity
  8
0
  6
Continuous
 62
     7
370
    15
100
AcDbLine
 10
2098.090408054182
 20
845.5544410154049
 30
0.0
 11
2098.08674854646
 21
845.4854516373567
 31
0.0
  0
LWPOLYLINE
  5
9A4
330
94E
100
AcDbEntity
  8
0
  6
Continuous
 62
     7
370
    15
100
AcDbPolyline
 90
       20
 70
   128
 43
0.0
 10
2012.15129016877
 20
886.1843226903362
 10
2012.164909962272
 20
886.0848790939819
 10
2012.261318879233
 20
885.8073251641906
 10
2012.440764855302
 20
885.5415996195503
 10
2012.698085556465
 20
885.295346900175
 10
2013.025878334651
 20
885.0756512484498
 10
2013.414713188443
 20
884.8888329082761
 10
2013.853404047048
 20
884.7402663031616
 10
2014.329330573184
 20
884.6342254238404
 10
2014.828801227215
 20
884.5737608733429
 10
2015.337447147805
 20
884.5606121066991
 10
2015.84063551791
 20
884.5951573899856
 10
2016.323890524273
 20
884.6764029182988
 10
2016.773309800223
 20
884.8020114057121
 10
2017.175964371446
 20
884.9683693247378
 10
2017.520270599039
 20
885.1706908609322
 10
2017.796323419711
 20
885.4031555920654
 10
2017.996181296419
 20
885.6590759310698
 10
2018.114094681931
 20
885.9310895157454
 10
2018.140244884742
 20
886.0630430224201
  0
LWPOLYLINE
  5
9A5
330
94E
100
AcDbEntity
  8
0
  6
Continuous
 62
     7
370
    15
100
AcDbPolyline
 90
       20
 70
   128
 43
0.0
 10
2091.651305937398
 20
844.6723168761339
 10
2091.664925730901
 20
844.5728732797794
 10
2091.761334647862
 20
844.2953193499882
 10
2091.940780623931
 20
844.0295938053479
 10
2092.198101325093
 20
843.7833410859726
 10
2092.52589410328
 20
843.5636454342475
 10
2092.914728957072
 20
843.3768270940738
 10
2093.353419815676
 20
843.2282604889591
 10
2093.829346341813
 20
843.1222196096381
 10
2094.328816995843
 20
843.0617550591405
 10
2094.837462916434
 20
843.0486062924968
 10
2095.340651286538
 20
843.0831515757834
 10
2095.823906292902
 20
843.1643971040964
 10
2096.273325568852
 20
843.2900055915096
 10
2096.675980140075
 20
843.4563635105353
 10
2097.020286367668
 20
843.65868504673
 10
2097.29633918834
 20
843.8911497778631
 10
2097.496197065048
 20
844.1470701168675
 10
2097.61411045056
 20
844.419083701543
 10
2097.640260653371
 20
844.5510372082178
  0
LWPOLYLINE
  5
9A6
330
94E
100
AcDbEntity
  8
0
  6
Continuous
 62
     7
370
    15
100
AcDbPolyline
 90
       20
 70
   128
 43
0.0
 10
2082.817970851995
 20
849.2847619666008
 10
2082.831590645498
 20
849.1853183702465
 10
2082.927999562459
 20
848.9077644404551
 10
2083.107445538528
 20
848.6420388958148
 10
2083.36476623969
 20
848.3957861764395
 10
2083.692559017876
 20
848.1760905247144
 10
2084.081393871669
 20
847.9892721845407
 10
2084.520084730273
 20
847.8407055794262
 10
2084.99601125641
 20
847.734664700105
 10
2085.49548191044
 20
847.6742001496074
 10
2086.004127831031
 20
847.6610513829637
 10
2086.507316201135
 20
847.6955966662503
 10
2086.990571207499
 20
847.7768421945635
 10
2087.439990483449
 20
847.9024506819767
 10
2087.842645054672
 20
848.0688086010022
 10
2088.186951282265
 20
848.2711301371969
 10
2088.463004102937
 20
848.50359486833
 10
2088.662861979645
 20
848.7595152073344
 10
2088.780775365156
 20
849.03152879201
 10
2088.806925567968
 20
849.1634822986847
  0
LWPOLYLINE
  5
9A7
330
94E
100
AcDbEntity
  8
0
  6
Continuous
 62
     7
370
    15
100
AcDbPolyline
 90
       20
 70
   128
 43
0.0
 10
2073.984635766592
 20
853.8972070570677
 10
2073.998255560095
 20
853.7977634607134
 10
2074.094664477056
 20
853.5202095309221
 10
2074.274110453125
 20
853.2544839862818
 10
2074.531431154287
 20
853.0082312669064
 10
2074.859223932474
 20
852.7885356151813
 10
2075.248058786266
 20
852.6017172750076
 10
2075.68674964487
 20
852.4531506698931
 10
2076.162676171007
 20
852.3471097905719
 10
2076.662146825037
 20
852.2866452400744
 10
2077.170792745627
 20
852.2734964734306
 10
2077.673981115732
 20
852.3080417567172
 10
2078.157236122096
 20
852.3892872850302
 10
2078.606655398046
 20
852.5148957724436
 10
2079.009309969269
 20
852.6812536914691
 10
2079.353616196861
 20
852.8835752276638
 10
2079.629669017533
 20
853.1160399587969
 10
2079.829526894241
 20
853.3719602978013
 10
2079.947440279753
 20
853.6439738824769
 10
2079.973590482565
 20
853.7759273891516
  0
LWPOLYLINE
  5
9A8
330
94E
100
AcDbEntity
  8
0
  6
Continuous
 62
     7
370
    15
100
AcDbPolyline
 90
       20
 70
   128
 43
0.0
 10
2065.151300681189
 20
858.5096521475346
 10
2065.164920474692
 20
858.4102085511803
 10
2065.261329391652
 20
858.132654621389
 10
2065.440775367722
 20
857.8669290767486
 10
2065.698096068884
 20
857.6206763573733
 10
2066.02588884707
 20
857.4009807056482
 10
2066.414723700862
 20
857.2141623654745
 10
2066.853414559467
 20
857.06559576036
 10
2067.329341085604
 20
856.9595548810388
 10
2067.828811739634
 20
856.8990903305413
 10
2068.337457660224
 20
856.8859415638977
 10
2068.840646030329
 20
856.9204868471841
 10
2069.323901036693
 20
857.0017323754973
 10
2069.773320312643
 20
857.1273408629107
 10
2070.175974883865
 20
857.2936987819362
 10
2070.520281111458
 20
857.4960203181307
 10
2070.79633393213
 20
857.7284850492638
 10
2070.996191808839
 20
857.9844053882682
 10
2071.11410519435
 20
858.2564189729438
 10
2071.140255397162
 20
858.3883724796185
  0
LWPOLYLINE
  5
9A9
330
94E
100
AcDbEntity
  8
0
  6
Continuous
 62
     7
370
    15
100
AcDbPolyline
 90
       20
 70
   128
 43
0.0
 10
2056.317965595786
 20
863.1220972380017
 10
2056.331585389288
 20
863.0226536416472
 10
2056.42799430625
 20
862.7450997118559
 10
2056.607440282318
 20
862.4793741672156
 10
2056.864760983481
 20
862.2331214478403
 10
2057.192553761667
 20
862.0134257961151
 10
2057.581388615459
 20
861.8266074559416
 10
2058.020079474064
 20
861.6780408508269
 10
2058.496006000201
 20
861.5719999715059
 10
2058.995476654231
 20
861.5115354210084
 10
2059.504122574821
 20
861.4983866543646
 10
2060.007310944925
 20
861.532931937651
 10
2060.490565951289
 20
861.614177465964
 10
2060.93998522724
 20
861.7397859533774
 10
2061.342639798462
 20
861.9061438724029
 10
2061.686946026055
 20
862.1084654085976
 10
2061.962998846727
 20
862.3409301397307
 10
2062.162856723435
 20
862.5968504787351
 10
2062.280770108947
 20
862.8688640634107
 10
2062.306920311758
 20
863.0008175700854
  0
LWPOLYLINE
  5
9AA
330
94E
100
AcDbEntity
  8
0
  6
Continuous
 62
     7
370
    15
100
AcDbPolyline
 90
       20
 70
   128
 43
0.0
 10
2047.484630510382
 20
867.7345423284686
 10
2047.498250303885
 20
867.6350987321141
 10
2047.594659220846
 20
867.3575448023228
 10
2047.774105196915
 20
867.0918192576825
 10
2048.031425898078
 20
866.8455665383072
 10
2048.359218676264
 20
866.6258708865822
 10
2048.748053530056
 20
866.4390525464083
 10
2049.186744388661
 20
866.2904859412938
 10
2049.662670914797
 20
866.1844450619728
 10
2050.162141568828
 20
866.1239805114751
 10
2050.670787489418
 20
866.1108317448315
 10
2051.173975859522
 20
866.145377028118
 10
2051.657230865886
 20
866.2266225564311
 10
2052.106650141837
 20
866.3522310438445
 10
2052.509304713059
 20
866.51858896287
 10
2052.853610940652
 20
866.7209104990645
 10
2053.129663761324
 20
866.9533752301976
 10
2053.329521638032
 20
867.209295569202
 10
2053.447435023544
 20
867.4813091538778
 10
2053.473585226355
 20
867.6132626605523
  0
LWPOLYLINE
  5
9AB
330
94E
100
AcDbEntity
  8
0
  6
Continuous
 62
     7
370
    15
100
AcDbPolyline
 90
       20
 70
   128
 43
0.0
 10
2038.651295424979
 20
872.3469874189355
 10
2038.664915218482
 20
872.247543822581
 10
2038.761324135442
 20
871.9699898927897
 10
2038.940770111512
 20
871.7042643481494
 10
2039.198090812675
 20
871.4580116287741
 10
2039.525883590861
 20
871.2383159770491
 10
2039.914718444653
 20
871.0514976368754
 10
2040.353409303257
 20
870.9029310317607
 10
2040.829335829394
 20
870.7968901524397
 10
2041.328806483424
 20
870.7364256019422
 10
2041.837452404014
 20
870.7232768352984
 10
2042.340640774119
 20
870.7578221185849
 10
2042.823895780483
 20
870.839067646898
 10
2043.273315056433
 20
870.9646761343112
 10
2043.675969627656
 20
871.1310340533369
 10
2044.020275855249
 20
871.3333555895315
 10
2044.296328675921
 20
871.5658203206647
 10
2044.496186552629
 20
871.8217406596691
 10
2044.614099938141
 20
872.0937542443445
 10
2044.640250140952
 20
872.2257077510194
  0
LWPOLYLINE
  5
9AC
330
94E
100
AcDbEntity
  8
0
  6
Continuous
 62
     7
370
    15
100
AcDbPolyline
 90
       20
 70
   128
 43
0.0
 10
2029.817960339576
 20
876.9594325094024
 10
2029.831580133079
 20
876.8599889130481
 10
2029.92798905004
 20
876.5824349832566
 10
2030.107435026109
 20
876.3167094386163
 10
2030.364755727271
 20
876.070456719241
 10
2030.692548505458
 20
875.850761067516
 10
2031.08138335925
 20
875.6639427273423
 10
2031.520074217854
 20
875.5153761222278
 10
2031.996000743991
 20
875.4093352429066
 10
2032.495471398021
 20
875.3488706924089
 10
2033.004117318611
 20
875.3357219257653
 10
2033.507305688716
 20
875.3702672090518
 10
2033.99056069508
 20
875.4515127373649
 10
2034.43997997103
 20
875.5771212247783
 10
2034.842634542253
 20
875.7434791438038
 10
2035.186940769845
 20
875.9458006799984
 10
2035.462993590517
 20
876.1782654111316
 10
2035.662851467225
 20
876.434185750136
 10
2035.780764852737
 20
876.7061993348116
 10
2035.806915055549
 20
876.8381528414861
  0
LWPOLYLINE
  5
9AD
330
94E
100
AcDbEntity
  8
0
  6
Continuous
 62
     7
370
    15
100
AcDbPolyline
 90
        3
 70
   128
 43
0.0
 10
2027.436643724909
 20
882.3772092618312
 10
2027.536033667226
 20
882.3146654598236
 10
2027.904119653917
 20
882.0732248349399
  0
LINE
  5
9AE
330
94E
100
AcDbEntity
  8
0
  6
Continuous
 62
     7
370
    15
100
AcDbLine
 10
2029.47396346277
 20
881.2535097104781
 30
0.0
 11
2027.904119653917
 21
882.0732248349399
 31
0.0
  0
LWPOLYLINE
  5
9AF
330
94E
100
AcDbEntity
  8
0
  6
Continuous
 62
     7
370
    15
100
AcDbPolyline
 90
        3
 70
   128
 43
0.0
 10
2036.269978810312
 20
877.7647641713643
 10
2036.36936875263
 20
877.7022203693565
 10
2036.73745473932
 20
877.4607797444728
  0
LINE
  5
9B0
330
94E
100
AcDbEntity
  8
0
  6
Continuous
 62
     7
370
    15
100
AcDbLine
 10
2038.307298548173
 20
876.641064620011
 30
0.0
 11
2036.73745473932
 21
877.4607797444728
 31
0.0
  0
LWPOLYLINE
  5
9B1
330
94E
100
AcDbEntity
  8
0
  6
Continuous
 62
     7
370
    15
100
AcDbPolyline
 90
        3
 70
   128
 43
0.0
 10
2045.103313895715
 20
873.1523190808974
 10
2045.202703838033
 20
873.0897752788896
 10
2045.570789824723
 20
872.8483346540061
  0
LINE
  5
9B2
330
94E
100
AcDbEntity
  8
0
  6
Continuous
 62
     7
370
    15
100
AcDbLine
 10
2047.140633633576
 20
872.0286195295441
 30
0.0
 11
2045.570789824723
 21
872.8483346540061
 31
0.0
  0
LWPOLYLINE
  5
9B3
330
94E
100
AcDbEntity
  8
0
  6
Continuous
 62
     7
370
    15
100
AcDbPolyline
 90
        3
 70
   128
 43
0.0
 10
2053.936648981119
 20
868.5398739904305
 10
2054.036038923436
 20
868.4773301884227
 10
2054.404124910127
 20
868.235889563539
  0
LINE
  5
9B4
330
94E
100
AcDbEntity
  8
0
  6
Continuous
 62
     7
370
    15
100
AcDbLine
 10
2055.973968718979
 20
867.4161744390772
 30
0.0
 11
2054.404124910127
 21
868.235889563539
 31
0.0
  0
LWPOLYLINE
  5
9B5
330
94E
100
AcDbEntity
  8
0
  6
Continuous
 62
     7
370
    15
100
AcDbPolyline
 90
        3
 70
   128
 43
0.0
 10
2062.769984066522
 20
863.9274288999637
 10
2062.869374008839
 20
863.8648850979558
 10
2063.237459995529
 20
863.6234444730721
  0
LINE
  5
9B6
330
94E
100
AcDbEntity
  8
0
  6
Continuous
 62
     7
370
    15
100
AcDbLine
 10
2064.807303804382
 20
862.8037293486103
 30
0.0
 11
2063.237459995529
 21
863.6234444730721
 31
0.0
  0
LWPOLYLINE
  5
9B7
330
94E
100
AcDbEntity
  8
0
  6
Continuous
 62
     7
370
    15
100
AcDbPolyline
 90
        3
 70
   128
 43
0.0
 10
2071.603319151925
 20
859.3149838094966
 10
2071.702709094243
 20
859.2524400074889
 10
2072.070795080933
 20
859.0109993826052
  0
LINE
  5
9B8
330
94E
100
AcDbEntity
  8
0
  6
Continuous
 62
     7
370
    15
100
AcDbLine
 10
2073.640638889786
 20
858.1912842581434
 30
0.0
 11
2072.070795080933
 21
859.0109993826052
 31
0.0
  0
LWPOLYLINE
  5
9B9
330
94E
100
AcDbEntity
  8
0
  6
Continuous
 62
     7
370
    15
100
AcDbPolyline
 90
        3
 70
   128
 43
0.0
 10
2080.436654237328
 20
854.7025387190299
 10
2080.536044179646
 20
854.639994917022
 10
2080.904130166336
 20
854.3985542921383
  0
LINE
  5
9BA
330
94E
100
AcDbEntity
  8
0
  6
Continuous
 62
     7
370
    15
100
AcDbLine
 10
2082.473973975189
 20
853.5788391676765
 30
0.0
 11
2080.904130166336
 21
854.3985542921383
 31
0.0
  0
LWPOLYLINE
  5
9BB
330
94E
100
AcDbEntity
  8
0
  6
Continuous
 62
     7
370
    15
100
AcDbPolyline
 90
        3
 70
   128
 43
0.0
 10
2089.269989322732
 20
850.0900936285628
 10
2089.369379265049
 20
850.0275498265549
 10
2089.737465251739
 20
849.7861092016714
  0
LINE
  5
9BC
330
94E
100
AcDbEntity
  8
0
  6
Continuous
 62
     7
370
    15
100
AcDbLine
 10
2091.307309060592
 20
848.9663940772095
 30
0.0
 11
2089.737465251739
 21
849.7861092016714
 31
0.0
  0
LWPOLYLINE
  5
9BD
330
94E
100
AcDbEntity
  8
0
  6
Continuous
 62
     7
370
    15
100
AcDbPolyline
 90
        3
 70
   128
 43
0.0
 10
2098.103324408135
 20
845.4776485380959
 10
2098.202714350452
 20
845.415104736088
 10
2098.570800337142
 20
845.1736641112045
  0
LINE
  5
9BE
330
94E
100
AcDbEntity
  8
0
  6
Continuous
 62
     7
370
    15
100
AcDbLine
 10
2101.331217551331
 20
843.7322750204332
 30
0.0
 11
2098.570800337142
 21
845.1736641112045
 31
0.0
  0
LINE
  5
9BF
330
94E
100
AcDbEntity
  8
0
  6
Continuous
 62
     7
370
    15
100
AcDbLine
 10
2096.797627594539
 20
841.0682427984566
 30
0.0
 11
2101.331217551331
 21
843.7322750204332
 31
0.0
  0
LINE
  5
9C0
330
94E
100
AcDbEntity
  8
0
  6
Continuous
 62
     7
370
    15
100
AcDbLine
 10
2094.037210380351
 20
842.5096318892267
 30
0.0
 11
2096.797627594539
 21
841.0682427984566
 31
0.0
  0
ARC
  5
9C1
330
94E
100
AcDbEntity
  8
0
  6
Continuous
 62
     7
370
    15
100
AcDbCircle
 10
2100.439933102944
 20
858.808277130803
 30
0.0
 40
17.51115915561172
100
AcDbArc
 50
236.3029326671493
 51
248.5532274730646
  0
LINE
  5
9C2
330
94E
100
AcDbEntity
  8
0
  6
Continuous
 62
     7
370
    15
100
AcDbLine
 10
2085.203875294948
 20
847.1220769796934
 30
0.0
 11
2090.724709723323
 21
844.2392987981529
 31
0.0
  0
ARC
  5
9C3
330
94E
100
AcDbEntity
  8
0
  6
Continuous
 62
     7
370
    15
100
AcDbCircle
 10
2091.606598017541
 20
863.4207222212692
 30
0.0
 40
17.51115915561104
100
AcDbArc
 50
236.3029326671493
 51
248.5532274730646
  0
LINE
  5
9C4
330
94E
100
AcDbEntity
  8
0
  6
Continuous
 62
     7
370
    15
100
AcDbLine
 10
2076.370540209545
 20
851.7345220701605
 30
0.0
 11
2081.89137463792
 21
848.85174388862
 31
0.0
  0
ARC
  5
9C5
330
94E
100
AcDbEntity
  8
0
  6
Continuous
 62
     7
370
    15
100
AcDbCircle
 10
2082.773262932137
 20
868.0331673117345
 30
0.0
 40
17.51115915560921
100
AcDbArc
 50
236.3029326671493
 51
248.5532274730767
  0
LINE
  5
9C6
330
94E
100
AcDbEntity
  8
0
  6
Continuous
 62
     7
370
    15
100
AcDbLine
 10
2067.537205124142
 20
856.3469671606274
 30
0.0
 11
2073.058039552517
 21
853.4641889790867
 31
0.0
  0
ARC
  5
9C7
330
94E
100
AcDbEntity
  8
0
  6
Continuous
 62
     7
370
    15
100
AcDbCircle
 10
2073.939927846735
 20
872.6456124022053
 30
0.0
 40
17.5111591556135
100
AcDbArc
 50
236.3029326671493
 51
248.5532274730646
  0
LINE
  5
9C8
330
94E
100
AcDbEntity
  8
0
  6
Continuous
 62
     7
370
    15
100
AcDbLine
 10
2058.703870038739
 20
860.9594122510943
 30
0.0
 11
2064.224704467113
 21
858.0766340695538
 31
0.0
  0
ARC
  5
9C9
330
94E
100
AcDbEntity
  8
0
  6
Continuous
 62
     7
370
    15
100
AcDbCircle
 10
2065.106592761331
 20
877.258057492669
 30
0.0
 40
17.51115915560986
100
AcDbArc
 50
236.3029326671493
 51
248.5532274730767
  0
LINE
  5
9CA
330
94E
100
AcDbEntity
  8
0
  6
Continuous
 62
     7
370
    15
100
AcDbLine
 10
2049.870534953336
 20
865.5718573415613
 30
0.0
 11
2055.391369381711
 21
862.6890791600205
 31
0.0
  0
ARC
  5
9CB
330
94E
100
AcDbEntity
  8
0
  6
Continuous
 62
     7
370
    15
100
AcDbCircle
 10
2056.273257675927
 20
881.8705025831359
 30
0.0
 40
17.51115915560979
100
AcDbArc
 50
236.3029326671493
 51
248.5532274730767
  0
LINE
  5
9CC
330
94E
100
AcDbEntity
  8
0
  6
Continuous
 62
     7
370
    15
100
AcDbLine
 10
2041.037199867933
 20
870.1843024320281
 30
0.0
 11
2046.558034296307
 21
867.3015242504876
 31
0.0
  0
ARC
  5
9CD
330
94E
100
AcDbEntity
  8
0
  6
Continuous
 62
     7
370
    15
100
AcDbCircle
 10
2047.439922590523
 20
886.4829476736012
 30
0.0
 40
17.51115915560808
100
AcDbArc
 50
236.3029326671493
 51
248.5532274730767
  0
LINE
  5
9CE
330
94E
100
AcDbEntity
  8
0
  6
Continuous
 62
     7
370
    15
100
AcDbLine
 10
2032.20386478253
 20
874.7967475224951
 30
0.0
 11
2037.724699210904
 21
871.9139693409545
 31
0.0
  0
ARC
  5
9CF
330
94E
100
AcDbEntity
  8
0
  6
Continuous
 62
     7
370
    15
100
AcDbCircle
 10
2038.606587505121
 20
891.0953927640699
 30
0.0
 40
17.51115915561
100
AcDbArc
 50
236.3029326671493
 51
248.5532274730767
  0
LINE
  5
9D0
330
94E
100
AcDbEntity
  8
0
  6
Continuous
 62
     7
370
    15
100
AcDbLine
 10
2023.370529697126
 20
879.409192612962
 30
0.0
 11
2028.891364125501
 21
876.5264144314214
 31
0.0
  0
ARC
  5
9D1
330
94E
100
AcDbEntity
  8
0
  6
Continuous
 62
     7
370
    15
100
AcDbCircle
 10
2029.773252419718
 20
895.7078378545361
 30
0.0
 40
17.51115915560914
100
AcDbArc
 50
236.3029326671493
 51
248.5532274730767
  0
LINE
  5
9D2
330
94E
100
AcDbEntity
  8
0
  6
Continuous
 62
     7
370
    15
100
AcDbLine
 10
2014.537194611723
 20
884.0216377034289
 30
0.0
 11
2020.058029040098
 21
881.1388595218883
 31
0.0
  0
ARC
  5
9D3
330
94E
100
AcDbEntity
  8
0
  6
Continuous
 62
     7
370
    15
100
AcDbCircle
 10
2020.939917334314
 20
900.320282945003
 30
0.0
 40
17.51115915560915
100
AcDbArc
 50
236.3029326671493
 51
248.5532274730767
  0
LINE
  5
9D4
330
94E
100
AcDbEntity
  8
0
  6
Continuous
 62
     7
370
    15
100
AcDbLine
 10
2008.464276740507
 20
887.1926937031256
 30
0.0
 11
2011.224693954694
 21
885.7513046123553
 31
0.0
  0
LINE
  5
9D5
330
94E
100
AcDbEntity
  8
0
  6
Continuous
 62
     7
370
    15
100
AcDbLine
 10
2011.780540298162
 20
889.1413994878032
 30
0.0
 11
2008.464276740507
 21
887.1926937031256
 31
0.0
  0
LWPOLYLINE
  5
9D6
330
94E
100
AcDbEntity
  8
0
  6
Continuous
 62
     7
370
    15
100
AcDbPolyline
 90
        3
 70
   128
 43
0.0
 10
2018.603308639506
 20
886.9896543522981
 10
2018.702698581824
 20
886.9271105502905
 10
2019.070784568514
 20
886.6856699254068
  0
LINE
  5
9D7
330
94E
100
AcDbEntity
  8
0
  6
Continuous
 62
     7
370
    15
100
AcDbLine
 10
2020.640628377367
 20
885.865954800945
 30
0.0
 11
2019.070784568514
 21
886.6856699254068
 31
0.0
  0
LWPOLYLINE
  5
9D8
330
94E
100
AcDbEntity
  8
0
  6
Continuous
 62
     7
370
    15
100
AcDbPolyline
 90
       20
 70
   128
 43
0.0
 10
2020.984625254173
 20
881.5718775998693
 10
2020.998245047676
 20
881.472434003515
 10
2021.094653964636
 20
881.1948800737237
 10
2021.274099940706
 20
880.9291545290832
 10
2021.531420641868
 20
880.6829018097079
 10
2021.859213420054
 20
880.4632061579829
 10
2022.248048273846
 20
880.2763878178092
 10
2022.686739132451
 20
880.1278212126945
 10
2023.162665658588
 20
880.0217803333735
 10
2023.662136312618
 20
879.961315782876
 10
2024.170782233208
 20
879.9481670162322
 10
2024.673970603313
 20
879.9827122995187
 10
2025.157225609676
 20
880.0639578278317
 10
2025.606644885627
 20
880.1895663152452
 10
2026.00929945685
 20
880.3559242342707
 10
2026.353605684442
 20
880.5582457704653
 10
2026.629658505114
 20
880.7907105015985
 10
2026.829516381822
 20
881.0466308406029
 10
2026.947429767334
 20
881.3186444252785
 10
2026.973579970146
 20
881.4505979319532
  0
LINE
  5
9D9
330
94E
100
AcDbEntity
  8
0
  6
Continuous
 62
     7
370
    15
100
AcDbLine
 10
2093.972192120349
 20
839.2602968611656
 30
0.0
 11
2094.037210380351
 21
842.5096318892267
 31
0.0
  0
LINE
  5
9DA
330
94E
100
AcDbEntity
  8
0
  6
Continuous
 62
     7
370
    15
100
AcDbLine
 10
2096.732609334535
 20
837.8189077703956
 30
0.0
 11
2096.797627594539
 21
841.0682427984566
 31
0.0
  0
LINE
  5
9DB
330
94E
100
AcDbEntity
  8
0
  6
Continuous
 62
     7
370
    15
100
AcDbLine
 10
2096.732609334535
 20
837.8189077703956
 30
0.0
 11
2093.972192120349
 21
839.2602968611656
 31
0.0
  0
LINE
  5
9DC
330
94E
100
AcDbEntity
  8
0
  6
Continuous
 62
     7
370
    15
100
AcDbLine
 10
2101.331217551331
 20
843.7322750204332
 30
0.0
 11
2101.266199291329
 21
840.4829399923722
 31
0.0
  0
LINE
  5
9DD
330
94E
100
AcDbEntity
  8
0
  6
Continuous
 62
     7
370
    15
100
AcDbLine
 10
2096.732609334535
 20
837.8189077703956
 30
0.0
 11
2101.266199291329
 21
840.4829399923722
 31
0.0
  0
ARC
  5
9DE
330
94E
100
AcDbEntity
  8
0
  6
Continuous
 62
     7
370
    15
100
AcDbCircle
 10
2100.374914842942
 20
855.558942102742
 30
0.0
 40
17.51115915561163
100
AcDbArc
 50
236.3029326671493
 51
248.5532274730767
  0
LINE
  5
9DF
330
94E
100
AcDbEntity
  8
0
  6
Continuous
 62
     7
370
    15
100
AcDbLine
 10
2090.724709723323
 20
844.2392987981529
 30
0.0
 11
2090.65969146332
 21
840.9899637700918
 31
0.0
  0
LWPOLYLINE
  5
9E0
330
94E
100
AcDbEntity
  8
0
  6
Continuous
 62
     7
370
    15
100
AcDbPolyline
 90
       20
 70
   128
 43
0.0
 10
2091.357885026154
 20
832.542712058983
 10
2091.374455324213
 20
832.3490867602142
 10
2091.470864241174
 20
832.0715328304229
 10
2091.650310217244
 20
831.8058072857827
 10
2091.907630918406
 20
831.5595545664073
 10
2092.235423696592
 20
831.3398589146821
 10
2092.624258550385
 20
831.1530405745084
 10
2093.062949408989
 20
831.0044739693939
 10
2093.538875935126
 20
830.8984330900729
 10
2094.038346589156
 20
830.8379685395753
 10
2094.546992509746
 20
830.8248197729316
 10
2095.050180879851
 20
830.859365056218
 10
2095.533435886215
 20
830.940610584531
 10
2095.982855162164
 20
831.0662190719444
 10
2096.385509733388
 20
831.2325769909701
 10
2096.72981596098
 20
831.4348985271646
 10
2097.005868781652
 20
831.6673632582977
 10
2097.20572665836
 20
831.9232835973021
 10
2097.323640043872
 20
832.1952971819777
 10
2097.356684220939
 20
832.4226778112425
  0
LWPOLYLINE
  5
9E1
330
94E
100
AcDbEntity
  8
0
  6
Continuous
 62
     7
370
    15
100
AcDbPolyline
 90
       41
 70
   128
 43
0.0
 10
2083.398268386132
 20
855.8843210626092
 10
2083.791852083161
 20
856.0811514483322
 10
2084.237824288248
 20
856.2407193881416
 10
2084.725203685608
 20
856.3590957897837
 10
2085.24198937696
 20
856.4333658333808
 10
2085.775456383468
 20
856.461700743972
 10
2086.312468976956
 20
856.4434028220199
 10
2086.839804125131
 20
856.3789226230905
 10
2087.344477086519
 20
856.2698478636793
 10
2087.814061137898
 20
856.1188643263607
 10
2088.236993561462
 20
855.9296897269096
 10
2088.602860357311
 20
855.7069821717986
 10
2088.902652670688
 20
855.456225460159
 10
2089.128988619886
 20
855.1835940544449
 10
2089.276295062668
 20
854.8958010446765
 10
2089.340944825531
 20
854.5999328498853
 10
2089.321346016754
 20
854.3032747269565
 10
2089.217981224053
 20
854.0131313834288
 10
2089.033395631673
 20
853.7366471113505
 10
2088.772134349501
 20
853.4806298710988
 10
2088.440630497383
 20
853.2513836568009
 10
2088.047046800356
 20
853.0545532710778
 10
2087.601074595268
 20
852.8949853312685
 10
2087.113695197908
 20
852.7766089296266
 10
2086.596909506556
 20
852.7023388860293
 10
2086.063442500048
 20
852.6740039754383
 10
2085.526429906559
 20
852.6923018973901
 10
2084.999094758385
 20
852.7567820963195
 10
2084.494421796996
 20
852.8658568557309
 10
2084.024837745618
 20
853.0168403930495
 10
2083.601905322054
 20
853.2060149925007
 10
2083.236038526206
 20
853.4287225476115
 10
2082.936246212828
 20
853.6794792592511
 10
2082.709910263631
 20
853.9521106649653
 10
2082.562603820848
 20
854.2399036747335
 10
2082.497954057984
 20
854.535771869525
 10
2082.517552866761
 20
854.8324299924535
 10
2082.620917659463
 20
855.1225733359812
 10
2082.805503251843
 20
855.3990576080595
 10
2083.066764534014
 20
855.6550748483115
 10
2083.398268386132
 20
855.8843210626092
  0
LWPOLYLINE
  5
9E2
330
94E
100
AcDbEntity
  8
0
  6
Continuous
 62
     7
370
    15
100
AcDbPolyline
 90
       35
 70
   128
 43
0.0
 10
2087.741324803127
 20
853.616535559801
 10
2087.40257461488
 20
853.4519053682585
 10
2087.013318377676
 20
853.3252774130787
 10
2086.586811745809
 20
853.2409638574023
 10
2086.137578891091
 20
853.2018358982448
 10
2085.680917899594
 20
853.2092259913262
 10
2085.232379813677
 20
853.2628824758905
 10
2084.807239059896
 20
853.3609781447095
 10
2084.41997329672
 20
853.5001724674343
 10
2084.08377039524
 20
853.6757253483497
 10
2083.810079342034
 20
853.8816585446486
 10
2083.608220357664
 20
854.1109592483207
 10
2083.485067507739
 20
854.3558188989186
 10
2083.444814614858
 20
854.6078990947174
 10
2083.488832443009
 20
854.8586155469866
 10
2083.61562201785
 20
855.099430407645
 10
2083.820865672475
 20
855.3221430154387
 10
2084.097574080389
 20
855.5191691596236
 10
2084.436324268636
 20
855.6837993511663
 10
2084.825580505841
 20
855.8104273063459
 10
2085.252087137707
 20
855.8947408620223
 10
2085.701319992425
 20
855.9338688211798
 10
2086.157980983923
 20
855.9264787280984
 10
2086.606519069839
 20
855.8728222435341
 10
2087.03165982362
 20
855.7747265747153
 10
2087.418925586796
 20
855.6355322519904
 10
2087.755128488277
 20
855.459979371075
 10
2088.028819541482
 20
855.254046174776
 10
2088.230678525852
 20
855.0247454711039
 10
2088.353831375777
 20
854.7798858205062
 10
2088.394084268658
 20
854.5278056247072
 10
2088.350066440507
 20
854.277089172438
 10
2088.223276865666
 20
854.0362743117796
 10
2088.018033211041
 20
853.8135617039859
 10
2087.741324803127
 20
853.616535559801
  0
LINE
  5
9E3
330
94E
100
AcDbEntity
  8
0
  6
Continuous
 62
     7
370
    15
100
AcDbLine
 10
2089.257072968778
 20
850.1668861058718
 30
0.0
 11
2089.253413461057
 21
850.0978967278237
 31
0.0
  0
LINE
  5
9E4
330
94E
100
AcDbEntity
  8
0
  6
Continuous
 62
     7
370
    15
100
AcDbLine
 10
2085.138857034946
 20
843.8727419516325
 30
0.0
 11
2085.203875294948
 21
847.1220769796934
 31
0.0
  0
LINE
  5
9E5
330
94E
100
AcDbEntity
  8
0
  6
Continuous
 62
     7
370
    15
100
AcDbLine
 10
2090.65969146332
 20
840.9899637700918
 30
0.0
 11
2085.138857034946
 21
843.8727419516325
 31
0.0
  0
LINE
  5
9E6
330
94E
100
AcDbEntity
  8
0
  6
Continuous
 62
     7
370
    15
100
AcDbLine
 10
2081.89137463792
 20
848.85174388862
 30
0.0
 11
2081.826356377917
 21
845.6024088605587
 31
0.0
  0
ARC
  5
9E7
330
94E
100
AcDbEntity
  8
0
  6
Continuous
 62
     7
370
    15
100
AcDbCircle
 10
2091.541579757539
 20
860.1713871932107
 30
0.0
 40
17.51115915561381
100
AcDbArc
 50
236.3029326671493
 51
248.5532274730646
  0
ARC
  5
9E8
330
94E
100
AcDbEntity
  8
0
  6
Continuous
 62
     7
370
    15
100
AcDbCircle
 10
2094.409018031575
 20
835.0681097835254
 30
0.0
 40
4.321265464069207
100
AcDbArc
 50
239.8489363123554
 51
297.8584254763171
  0
LWPOLYLINE
  5
9E9
330
94E
100
AcDbEntity
  8
0
  6
Continuous
 62
     7
370
    15
100
AcDbPolyline
 90
       20
 70
   128
 43
0.0
 10
2082.52454994075
 20
837.1551571494499
 10
2082.54112023881
 20
836.9615318506811
 10
2082.637529155772
 20
836.6839779208898
 10
2082.816975131841
 20
836.4182523762494
 10
2083.074295833003
 20
836.1719996568741
 10
2083.402088611189
 20
835.9523040051492
 10
2083.790923464981
 20
835.7654856649755
 10
2084.229614323586
 20
835.6169190598608
 10
2084.705540849723
 20
835.5108781805396
 10
2085.205011503753
 20
835.4504136300421
 10
2085.713657424344
 20
835.4372648633985
 10
2086.216845794448
 20
835.4718101466851
 10
2086.700100800811
 20
835.5530556749981
 10
2087.149520076761
 20
835.6786641624115
 10
2087.552174647985
 20
835.845022081437
 10
2087.896480875577
 20
836.0473436176315
 10
2088.172533696249
 20
836.2798083487646
 10
2088.372391572957
 20
836.5357286877692
 10
2088.490304958469
 20
836.8077422724448
 10
2088.523349135536
 20
837.0351229017094
  0
LWPOLYLINE
  5
9EA
330
94E
100
AcDbEntity
  8
0
  6
Continuous
 62
     7
370
    15
100
AcDbPolyline
 90
       41
 70
   128
 43
0.0
 10
2074.564933300729
 20
860.4967661530761
 10
2074.958516997757
 20
860.6935965387993
 10
2075.404489202844
 20
860.8531644786086
 10
2075.891868600205
 20
860.9715408802504
 10
2076.408654291557
 20
861.0458109238477
 10
2076.942121298064
 20
861.0741458344389
 10
2077.479133891553
 20
861.0558479124868
 10
2078.006469039728
 20
860.9913677135576
 10
2078.511142001116
 20
860.882292954146
 10
2078.980726052495
 20
860.7313094168276
 10
2079.403658476058
 20
860.5421348173765
 10
2079.769525271907
 20
860.3194272622657
 10
2080.069317585285
 20
860.0686705506259
 10
2080.295653534482
 20
859.7960391449118
 10
2080.442959977265
 20
859.5082461351436
 10
2080.507609740128
 20
859.212377940352
 10
2080.488010931351
 20
858.9157198174234
 10
2080.38464613865
 20
858.6255764738957
 10
2080.200060546269
 20
858.3490922018174
 10
2079.938799264098
 20
858.0930749615657
 10
2079.60729541198
 20
857.863828747268
 10
2079.213711714952
 20
857.6669983615447
 10
2078.767739509865
 20
857.5074304217354
 10
2078.280360112504
 20
857.3890540200935
 10
2077.763574421153
 20
857.3147839764962
 10
2077.230107414645
 20
857.2864490659052
 10
2076.693094821157
 20
857.3047469878572
 10
2076.165759672981
 20
857.3692271867864
 10
2075.661086711594
 20
857.4783019461978
 10
2075.191502660215
 20
857.6292854835163
 10
2074.768570236651
 20
857.8184600829674
 10
2074.402703440802
 20
858.0411676380784
 10
2074.102911127424
 20
858.2919243497181
 10
2073.876575178227
 20
858.5645557554322
 10
2073.729268735445
 20
858.8523487652004
 10
2073.664618972581
 20
859.1482169599919
 10
2073.684217781358
 20
859.4448750829206
 10
2073.787582574059
 20
859.7350184264483
 10
2073.97216816644
 20
860.0115026985266
 10
2074.233429448611
 20
860.2675199387784
 10
2074.564933300729
 20
860.4967661530761
  0
LWPOLYLINE
  5
9EB
330
94E
100
AcDbEntity
  8
0
  6
Continuous
 62
     7
370
    15
100
AcDbPolyline
 90
       35
 70
   128
 43
0.0
 10
2078.907989717724
 20
858.2289806502679
 10
2078.569239529477
 20
858.0643504587252
 10
2078.179983292272
 20
857.9377225035456
 10
2077.753476660406
 20
857.8534089478692
 10
2077.304243805688
 20
857.8142809887117
 10
2076.847582814191
 20
857.8216710817933
 10
2076.399044728274
 20
857.8753275663576
 10
2075.973903974493
 20
857.9734232351764
 10
2075.586638211317
 20
858.1126175579012
 10
2075.250435309837
 20
858.2881704388165
 10
2074.976744256631
 20
858.4941036351155
 10
2074.774885272261
 20
858.7234043387878
 10
2074.651732422336
 20
858.9682639893853
 10
2074.611479529455
 20
859.2203441851843
 10
2074.655497357607
 20
859.4710606374535
 10
2074.782286932446
 20
859.7118754981121
 10
2074.987530587071
 20
859.9345881059058
 10
2075.264238994986
 20
860.1316142500907
 10
2075.602989183233
 20
860.2962444416332
 10
2075.992245420437
 20
860.4228723968128
 10
2076.418752052304
 20
860.5071859524892
 10
2076.867984907022
 20
860.5463139116467
 10
2077.324645898519
 20
860.5389238185653
 10
2077.773183984436
 20
860.485267334001
 10
2078.198324738217
 20
860.3871716651822
 10
2078.585590501393
 20
860.2479773424574
 10
2078.921793402873
 20
860.0724244615419
 10
2079.195484456079
 20
859.8664912652429
 10
2079.397343440449
 20
859.6371905615708
 10
2079.520496290374
 20
859.3923309109731
 10
2079.560749183255
 20
859.1402507151741
 10
2079.516731355103
 20
858.8895342629051
 10
2079.389941780263
 20
858.6487194022465
 10
2079.184698125638
 20
858.4260067944528
 10
2078.907989717724
 20
858.2289806502679
  0
LINE
  5
9EC
330
94E
100
AcDbEntity
  8
0
  6
Continuous
 62
     7
370
    15
100
AcDbLine
 10
2080.423737883375
 20
854.7793311963388
 30
0.0
 11
2080.420078375654
 21
854.7103418182906
 31
0.0
  0
LINE
  5
9ED
330
94E
100
AcDbEntity
  8
0
  6
Continuous
 62
     7
370
    15
100
AcDbLine
 10
2076.305521949543
 20
848.4851870420994
 30
0.0
 11
2076.370540209545
 21
851.7345220701605
 31
0.0
  0
LINE
  5
9EE
330
94E
100
AcDbEntity
  8
0
  6
Continuous
 62
     7
370
    15
100
AcDbLine
 10
2081.826356377917
 20
845.6024088605587
 30
0.0
 11
2076.305521949543
 21
848.4851870420994
 31
0.0
  0
LINE
  5
9EF
330
94E
100
AcDbEntity
  8
0
  6
Continuous
 62
     7
370
    15
100
AcDbLine
 10
2073.058039552517
 20
853.4641889790867
 30
0.0
 11
2072.993021292514
 21
850.2148539510258
 31
0.0
  0
ARC
  5
9F0
330
94E
100
AcDbEntity
  8
0
  6
Continuous
 62
     7
370
    15
100
AcDbCircle
 10
2082.708244672136
 20
864.7838322836767
 30
0.0
 40
17.51115915561272
100
AcDbArc
 50
236.3029326671493
 51
248.5532274730646
  0
ARC
  5
9F1
330
94E
100
AcDbEntity
  8
0
  6
Continuous
 62
     7
370
    15
100
AcDbCircle
 10
2085.575682946172
 20
839.6805548739923
 30
0.0
 40
4.321265464069182
100
AcDbArc
 50
239.8489363123554
 51
297.8584254763171
  0
LWPOLYLINE
  5
9F2
330
94E
100
AcDbEntity
  8
0
  6
Continuous
 62
     7
370
    15
100
AcDbPolyline
 90
       20
 70
   128
 43
0.0
 10
2073.691214855347
 20
841.7676022399168
 10
2073.707785153408
 20
841.573976941148
 10
2073.804194070368
 20
841.2964230113569
 10
2073.983640046437
 20
841.0306974667165
 10
2074.2409607476
 20
840.7844447473411
 10
2074.568753525786
 20
840.5647490956159
 10
2074.957588379578
 20
840.3779307554424
 10
2075.396279238183
 20
840.2293641503277
 10
2075.872205764319
 20
840.1233232710067
 10
2076.37167641835
 20
840.0628587205092
 10
2076.88032233894
 20
840.0497099538654
 10
2077.383510709045
 20
840.084255237152
 10
2077.866765715409
 20
840.165500765465
 10
2078.316184991359
 20
840.2911092528784
 10
2078.718839562581
 20
840.4574671719039
 10
2079.063145790174
 20
840.6597887080986
 10
2079.339198610846
 20
840.8922534392315
 10
2079.539056487554
 20
841.1481737782359
 10
2079.656969873066
 20
841.4201873629115
 10
2079.690014050133
 20
841.6475679921763
  0
LWPOLYLINE
  5
9F3
330
94E
100
AcDbEntity
  8
0
  6
Continuous
 62
     7
370
    15
100
AcDbPolyline
 90
       41
 70
   128
 43
0.0
 10
2065.731598215326
 20
865.1092112435431
 10
2066.125181912354
 20
865.306041629266
 10
2066.571154117441
 20
865.4656095690754
 10
2067.058533514801
 20
865.5839859707175
 10
2067.575319206154
 20
865.6582560143148
 10
2068.108786212661
 20
865.6865909249058
 10
2068.64579880615
 20
865.6682930029537
 10
2069.173133954325
 20
865.6038128040245
 10
2069.677806915713
 20
865.4947380446131
 10
2070.147390967091
 20
865.3437545072945
 10
2070.570323390655
 20
865.1545799078434
 10
2070.936190186504
 20
864.9318723527326
 10
2071.235982499882
 20
864.681115641093
 10
2071.462318449079
 20
864.4084842353786
 10
2071.609624891862
 20
864.1206912256105
 10
2071.674274654725
 20
863.8248230308191
 10
2071.654675845948
 20
863.5281649078903
 10
2071.551311053247
 20
863.2380215643626
 10
2071.366725460866
 20
862.9615372922843
 10
2071.105464178695
 20
862.7055200520326
 10
2070.773960326577
 20
862.4762738377349
 10
2070.380376629549
 20
862.2794434520116
 10
2069.934404424462
 20
862.1198755122023
 10
2069.447025027101
 20
862.0014991105604
 10
2068.93023933575
 20
861.9272290669631
 10
2068.396772329242
 20
861.8988941563721
 10
2067.859759735753
 20
861.9171920783241
 10
2067.332424587578
 20
861.9816722772533
 10
2066.82775162619
 20
862.0907470366647
 10
2066.358167574811
 20
862.2417305739833
 10
2065.935235151247
 20
862.4309051734345
 10
2065.569368355399
 20
862.6536127285453
 10
2065.269576042021
 20
862.904369440185
 10
2065.043240092824
 20
863.1770008458991
 10
2064.895933650042
 20
863.4647938556673
 10
2064.831283887178
 20
863.7606620504588
 10
2064.850882695955
 20
864.0573201733875
 10
2064.954247488656
 20
864.3474635169152
 10
2065.138833081037
 20
864.6239477889935
 10
2065.400094363208
 20
864.8799650292453
 10
2065.731598215326
 20
865.1092112435431
  0
LWPOLYLINE
  5
9F4
330
94E
100
AcDbEntity
  8
0
  6
Continuous
 62
     7
370
    15
100
AcDbPolyline
 90
       35
 70
   128
 43
0.0
 10
2070.074654632321
 20
862.8414257407348
 10
2069.735904444074
 20
862.6767955491922
 10
2069.346648206869
 20
862.5501675940126
 10
2068.920141575003
 20
862.4658540383361
 10
2068.470908720285
 20
862.4267260791787
 10
2068.014247728787
 20
862.4341161722602
 10
2067.565709642871
 20
862.4877726568245
 10
2067.14056888909
 20
862.5858683256433
 10
2066.753303125913
 20
862.7250626483681
 10
2066.417100224433
 20
862.9006155292834
 10
2066.143409171228
 20
863.1065487255824
 10
2065.941550186858
 20
863.3358494292545
 10
2065.818397336933
 20
863.5807090798524
 10
2065.778144444052
 20
863.8327892756512
 10
2065.822162272203
 20
864.0835057279204
 10
2065.948951847044
 20
864.324320588579
 10
2066.154195501669
 20
864.5470331963727
 10
2066.430903909582
 20
864.7440593405574
 10
2066.769654097829
 20
864.9086895321001
 10
2067.158910335034
 20
865.0353174872797
 10
2067.585416966901
 20
865.1196310429561
 10
2068.034649821619
 20
865.1587590021136
 10
2068.491310813116
 20
865.1513689090322
 10
2068.939848899033
 20
865.0977124244679
 10
2069.364989652814
 20
864.9996167556491
 10
2069.752255415989
 20
864.8604224329242
 10
2070.08845831747
 20
864.6848695520089
 10
2070.362149370676
 20
864.47893635571
 10
2070.564008355045
 20
864.2496356520378
 10
2070.68716120497
 20
864.00477600144
 10
2070.727414097852
 20
863.752695805641
 10
2070.6833962697
 20
863.501979353372
 10
2070.55660669486
 20
863.2611644927136
 10
2070.351363040235
 20
863.0384518849197
 10
2070.074654632321
 20
862.8414257407348
  0
LINE
  5
9F5
330
94E
100
AcDbEntity
  8
0
  6
Continuous
 62
     7
370
    15
100
AcDbLine
 10
2071.590402797972
 20
859.3917762868057
 30
0.0
 11
2071.586743290251
 21
859.3227869087575
 31
0.0
  0
LINE
  5
9F6
330
94E
100
AcDbEntity
  8
0
  6
Continuous
 62
     7
370
    15
100
AcDbLine
 10
2067.47218686414
 20
853.0976321325663
 30
0.0
 11
2067.537205124142
 21
856.3469671606274
 31
0.0
  0
LINE
  5
9F7
330
94E
100
AcDbEntity
  8
0
  6
Continuous
 62
     7
370
    15
100
AcDbLine
 10
2072.993021292514
 20
850.2148539510258
 30
0.0
 11
2067.47218686414
 21
853.0976321325663
 31
0.0
  0
LINE
  5
9F8
330
94E
100
AcDbEntity
  8
0
  6
Continuous
 62
     7
370
    15
100
AcDbLine
 10
2064.224704467113
 20
858.0766340695538
 30
0.0
 11
2064.159686207111
 21
854.8272990414927
 31
0.0
  0
ARC
  5
9F9
330
94E
100
AcDbEntity
  8
0
  6
Continuous
 62
     7
370
    15
100
AcDbCircle
 10
2073.874909586731
 20
869.3962773741407
 30
0.0
 40
17.51115915560949
100
AcDbArc
 50
236.3029326671493
 51
248.5532274730767
  0
ARC
  5
9FA
330
94E
100
AcDbEntity
  8
0
  6
Continuous
 62
     7
370
    15
100
AcDbCircle
 10
2076.742347860769
 20
844.2929999644592
 30
0.0
 40
4.32126546406919
100
AcDbArc
 50
239.8489363123554
 51
297.8584254763171
  0
LWPOLYLINE
  5
9FB
330
94E
100
AcDbEntity
  8
0
  6
Continuous
 62
     7
370
    15
100
AcDbPolyline
 90
       20
 70
   128
 43
0.0
 10
2064.857879769944
 20
846.3800473303837
 10
2064.874450068004
 20
846.1864220316151
 10
2064.970858984965
 20
845.9088681018236
 10
2065.150304961034
 20
845.6431425571834
 10
2065.407625662197
 20
845.396889837808
 10
2065.735418440382
 20
845.177194186083
 10
2066.124253294175
 20
844.9903758459093
 10
2066.56294415278
 20
844.8418092407946
 10
2067.038870678917
 20
844.7357683614736
 10
2067.538341332946
 20
844.6753038109759
 10
2068.046987253537
 20
844.6621550443323
 10
2068.550175623641
 20
844.6967003276188
 10
2069.033430630005
 20
844.7779458559319
 10
2069.482849905955
 20
844.9035543433453
 10
2069.885504477178
 20
845.0699122623708
 10
2070.229810704771
 20
845.2722337985655
 10
2070.505863525443
 20
845.5046985296984
 10
2070.705721402151
 20
845.760618868703
 10
2070.823634787663
 20
846.0326324533786
 10
2070.85667896473
 20
846.2600130826434
  0
LWPOLYLINE
  5
9FC
330
94E
100
AcDbEntity
  8
0
  6
Continuous
 62
     7
370
    15
100
AcDbPolyline
 90
       41
 70
   128
 43
0.0
 10
2056.898263129923
 20
869.7216563340099
 10
2057.291846826951
 20
869.9184867197331
 10
2057.737819032038
 20
870.0780546595424
 10
2058.225198429399
 20
870.1964310611844
 10
2058.74198412075
 20
870.2707011047817
 10
2059.275451127258
 20
870.2990360153727
 10
2059.812463720747
 20
870.2807380934206
 10
2060.339798868922
 20
870.2162578944914
 10
2060.84447183031
 20
870.10718313508
 10
2061.314055881688
 20
869.9561995977616
 10
2061.736988305252
 20
869.7670249983103
 10
2062.102855101101
 20
869.5443174431995
 10
2062.402647414478
 20
869.2935607315597
 10
2062.628983363676
 20
869.0209293258456
 10
2062.776289806459
 20
868.7331363160774
 10
2062.840939569321
 20
868.437268121286
 10
2062.821340760544
 20
868.1406099983572
 10
2062.717975967844
 20
867.8504666548297
 10
2062.533390375463
 20
867.5739823827512
 10
2062.272129093292
 20
867.3179651424995
 10
2061.940625241174
 20
867.0887189282018
 10
2061.547041544146
 20
866.8918885424787
 10
2061.101069339059
 20
866.7323206026692
 10
2060.613689941698
 20
866.6139442010274
 10
2060.096904250347
 20
866.5396741574301
 10
2059.563437243839
 20
866.511339246839
 10
2059.02642465035
 20
866.529637168791
 10
2058.499089502175
 20
866.5941173677202
 10
2057.994416540787
 20
866.7031921271316
 10
2057.524832489408
 20
866.8541756644501
 10
2057.101900065845
 20
867.0433502639014
 10
2056.736033269995
 20
867.2660578190123
 10
2056.436240956618
 20
867.5168145306519
 10
2056.20990500742
 20
867.789445936366
 10
2056.062598564639
 20
868.0772389461342
 10
2055.997948801775
 20
868.3731071409257
 10
2056.017547610552
 20
868.6697652638544
 10
2056.120912403253
 20
868.9599086073821
 10
2056.305497995634
 20
869.2363928794604
 10
2056.566759277805
 20
869.4924101197122
 10
2056.898263129923
 20
869.7216563340099
  0
LWPOLYLINE
  5
9FD
330
94E
100
AcDbEntity
  8
0
  6
Continuous
 62
     7
370
    15
100
AcDbPolyline
 90
       35
 70
   128
 43
0.0
 10
2061.241319546918
 20
867.4538708312018
 10
2060.902569358671
 20
867.289240639659
 10
2060.513313121466
 20
867.1626126844795
 10
2060.0868064896
 20
867.0782991288032
 10
2059.637573634882
 20
867.0391711696455
 10
2059.180912643384
 20
867.0465612627271
 10
2058.732374557468
 20
867.1002177472914
 10
2058.307233803686
 20
867.1983134161102
 10
2057.91996804051
 20
867.337507738835
 10
2057.58376513903
 20
867.5130606197505
 10
2057.310074085824
 20
867.7189938160493
 10
2057.108215101455
 20
867.9482945197216
 10
2056.98506225153
 20
868.1931541703193
 10
2056.944809358649
 20
868.4452343661183
 10
2056.9888271868
 20
868.6959508183873
 10
2057.11561676164
 20
868.9367656790459
 10
2057.320860416265
 20
869.1594782868396
 10
2057.59756882418
 20
869.3565044310245
 10
2057.936319012426
 20
869.5211346225672
 10
2058.325575249631
 20
869.6477625777468
 10
2058.752081881497
 20
869.732076133423
 10
2059.201314736216
 20
869.7712040925805
 10
2059.657975727713
 20
869.7638139994991
 10
2060.106513813629
 20
869.7101575149348
 10
2060.531654567411
 20
869.612061846116
 10
2060.918920330586
 20
869.4728675233912
 10
2061.255123232067
 20
869.2973146424758
 10
2061.528814285273
 20
869.0913814461769
 10
2061.730673269642
 20
868.8620807425047
 10
2061.853826119568
 20
868.6172210919069
 10
2061.894079012448
 20
868.3651408961081
 10
2061.850061184297
 20
868.1144244438389
 10
2061.723271609457
 20
867.8736095831803
 10
2061.518027954832
 20
867.6508969753866
 10
2061.241319546918
 20
867.4538708312018
  0
LINE
  5
9FE
330
94E
100
AcDbEntity
  8
0
  6
Continuous
 62
     7
370
    15
100
AcDbLine
 10
2062.757067712569
 20
864.0042213772726
 30
0.0
 11
2062.753408204847
 21
863.9352319992244
 31
0.0
  0
LINE
  5
9FF
330
94E
100
AcDbEntity
  8
0
  6
Continuous
 62
     7
370
    15
100
AcDbLine
 10
2058.638851778736
 20
857.7100772230332
 30
0.0
 11
2058.703870038739
 21
860.9594122510943
 31
0.0
  0
LINE
  5
A00
330
94E
100
AcDbEntity
  8
0
  6
Continuous
 62
     7
370
    15
100
AcDbLine
 10
2064.159686207111
 20
854.8272990414927
 30
0.0
 11
2058.638851778736
 21
857.7100772230332
 31
0.0
  0
LINE
  5
A01
330
94E
100
AcDbEntity
  8
0
  6
Continuous
 62
     7
370
    15
100
AcDbLine
 10
2055.391369381711
 20
862.6890791600205
 30
0.0
 11
2055.326351121708
 21
859.4397441319596
 31
0.0
  0
ARC
  5
A02
330
94E
100
AcDbEntity
  8
0
  6
Continuous
 62
     7
370
    15
100
AcDbCircle
 10
2065.041574501328
 20
874.008722464608
 30
0.0
 40
17.51115915560979
100
AcDbArc
 50
236.3029326671493
 51
248.5532274730767
  0
ARC
  5
A03
330
94E
100
AcDbEntity
  8
0
  6
Continuous
 62
     7
370
    15
100
AcDbCircle
 10
2067.909012775366
 20
848.9054450549261
 30
0.0
 40
4.321265464069157
100
AcDbArc
 50
239.8489363123554
 51
297.8584254763171
  0
LWPOLYLINE
  5
A04
330
94E
100
AcDbEntity
  8
0
  6
Continuous
 62
     7
370
    15
100
AcDbPolyline
 90
       20
 70
   128
 43
0.0
 10
2056.024544684541
 20
850.9924924208506
 10
2056.041114982601
 20
850.7988671220818
 10
2056.137523899562
 20
850.5213131922907
 10
2056.316969875631
 20
850.2555876476503
 10
2056.574290576794
 20
850.0093349282749
 10
2056.902083354979
 20
849.7896392765499
 10
2057.290918208772
 20
849.6028209363762
 10
2057.729609067376
 20
849.4542543312615
 10
2058.205535593513
 20
849.3482134519405
 10
2058.705006247544
 20
849.287748901443
 10
2059.213652168133
 20
849.2746001347992
 10
2059.716840538238
 20
849.3091454180857
 10
2060.200095544602
 20
849.3903909463988
 10
2060.649514820552
 20
849.5159994338122
 10
2061.052169391775
 20
849.6823573528377
 10
2061.396475619368
 20
849.8846788890324
 10
2061.672528440039
 20
850.1171436201655
 10
2061.872386316748
 20
850.3730639591699
 10
2061.99029970226
 20
850.6450775438455
 10
2062.023343879327
 20
850.8724581731101
  0
LWPOLYLINE
  5
A05
330
94E
100
AcDbEntity
  8
0
  6
Continuous
 62
     7
370
    15
100
AcDbPolyline
 90
       41
 70
   128
 43
0.0
 10
2048.06492804452
 20
874.3341014244769
 10
2048.458511741547
 20
874.5309318102
 10
2048.904483946635
 20
874.6904997500093
 10
2049.391863343995
 20
874.8088761516513
 10
2049.908649035347
 20
874.8831461952486
 10
2050.442116041855
 20
874.9114811058396
 10
2050.979128635344
 20
874.8931831838877
 10
2051.506463783518
 20
874.8287029849585
 10
2052.011136744906
 20
874.7196282255469
 10
2052.480720796285
 20
874.5686446882285
 10
2052.903653219849
 20
874.3794700887772
 10
2053.269520015698
 20
874.1567625336664
 10
2053.569312329075
 20
873.9060058220267
 10
2053.795648278273
 20
873.6333744163125
 10
2053.942954721055
 20
873.3455814065443
 10
2054.007604483919
 20
873.049713211753
 10
2053.988005675142
 20
872.7530550888243
 10
2053.88464088244
 20
872.4629117452964
 10
2053.70005529006
 20
872.1864274732181
 10
2053.438794007889
 20
871.9304102329664
 10
2053.10729015577
 20
871.7011640186687
 10
2052.713706458743
 20
871.5043336329456
 10
2052.267734253655
 20
871.3447656931363
 10
2051.780354856295
 20
871.2263892914943
 10
2051.263569164944
 20
871.1521192478969
 10
2050.730102158436
 20
871.1237843373059
 10
2050.193089564947
 20
871.1420822592579
 10
2049.665754416772
 20
871.2065624581871
 10
2049.161081455384
 20
871.3156372175985
 10
2048.691497404005
 20
871.4666207549171
 10
2048.268564980441
 20
871.6557953543683
 10
2047.902698184593
 20
871.8785029094791
 10
2047.602905871215
 20
872.1292596211188
 10
2047.376569922017
 20
872.401891026833
 10
2047.229263479235
 20
872.6896840366011
 10
2047.164613716372
 20
872.9855522313926
 10
2047.184212525149
 20
873.2822103543213
 10
2047.28757731785
 20
873.572353697849
 10
2047.472162910231
 20
873.8488379699273
 10
2047.733424192402
 20
874.1048552101791
 10
2048.06492804452
 20
874.3341014244769
  0
LWPOLYLINE
  5
A06
330
94E
100
AcDbEntity
  8
0
  6
Continuous
 62
     7
370
    15
100
AcDbPolyline
 90
       35
 70
   128
 43
0.0
 10
2052.407984461515
 20
872.0663159216687
 10
2052.069234273268
 20
871.901685730126
 10
2051.679978036063
 20
871.7750577749464
 10
2051.253471404196
 20
871.6907442192701
 10
2050.804238549478
 20
871.6516162601125
 10
2050.347577557981
 20
871.659006353194
 10
2049.899039472065
 20
871.7126628377583
 10
2049.473898718283
 20
871.8107585065773
 10
2049.086632955107
 20
871.949952829302
 10
2048.750430053627
 20
872.1255057102172
 10
2048.476739000421
 20
872.3314389065162
 10
2048.274880016052
 20
872.5607396101883
 10
2048.151727166127
 20
872.8055992607862
 10
2048.111474273245
 20
873.057679456585
 10
2048.155492101397
 20
873.3083959088542
 10
2048.282281676237
 20
873.5492107695128
 10
2048.487525330862
 20
873.7719233773065
 10
2048.764233738776
 20
873.9689495214914
 10
2049.102983927022
 20
874.1335797130341
 10
2049.492240164228
 20
874.2602076682135
 10
2049.918746796095
 20
874.3445212238901
 10
2050.367979650812
 20
874.3836491830476
 10
2050.824640642309
 20
874.376259089966
 10
2051.273178728226
 20
874.3226026054017
 10
2051.698319482007
 20
874.2245069365829
 10
2052.085585245183
 20
874.0853126138581
 10
2052.421788146664
 20
873.9097597329427
 10
2052.695479199869
 20
873.7038265366438
 10
2052.897338184239
 20
873.4745258329716
 10
2053.020491034164
 20
873.2296661823738
 10
2053.060743927045
 20
872.977585986575
 10
2053.016726098894
 20
872.7268695343058
 10
2052.889936524054
 20
872.4860546736474
 10
2052.684692869429
 20
872.2633420658535
 10
2052.407984461515
 20
872.0663159216687
  0
LINE
  5
A07
330
94E
100
AcDbEntity
  8
0
  6
Continuous
 62
     7
370
    15
100
AcDbLine
 10
2053.923732627166
 20
868.6166664677395
 30
0.0
 11
2053.920073119444
 21
868.5476770896913
 31
0.0
  0
LINE
  5
A08
330
94E
100
AcDbEntity
  8
0
  6
Continuous
 62
     7
370
    15
100
AcDbLine
 10
2049.805516693333
 20
862.3225223135003
 30
0.0
 11
2049.870534953336
 21
865.5718573415613
 31
0.0
  0
LINE
  5
A09
330
94E
100
AcDbEntity
  8
0
  6
Continuous
 62
     7
370
    15
100
AcDbLine
 10
2055.326351121708
 20
859.4397441319596
 30
0.0
 11
2049.805516693333
 21
862.3225223135003
 31
0.0
  0
LINE
  5
A0A
330
94E
100
AcDbEntity
  8
0
  6
Continuous
 62
     7
370
    15
100
AcDbLine
 10
2046.558034296307
 20
867.3015242504876
 30
0.0
 11
2046.493016036305
 21
864.0521892224265
 31
0.0
  0
ARC
  5
A0B
330
94E
100
AcDbEntity
  8
0
  6
Continuous
 62
     7
370
    15
100
AcDbCircle
 10
2056.208239415925
 20
878.6211675550749
 30
0.0
 40
17.51115915560967
100
AcDbArc
 50
236.3029326671493
 51
248.5532274730767
  0
ARC
  5
A0C
330
94E
100
AcDbEntity
  8
0
  6
Continuous
 62
     7
370
    15
100
AcDbCircle
 10
2059.075677689962
 20
853.517890145393
 30
0.0
 40
4.321265464069106
100
AcDbArc
 50
239.8489363123554
 51
297.8584254763171
  0
LWPOLYLINE
  5
A0D
330
94E
100
AcDbEntity
  8
0
  6
Continuous
 62
     7
370
    15
100
AcDbPolyline
 90
       20
 70
   128
 43
0.0
 10
2047.191209599137
 20
855.6049375113175
 10
2047.207779897198
 20
855.4113122125489
 10
2047.304188814159
 20
855.1337582827574
 10
2047.483634790228
 20
854.8680327381172
 10
2047.74095549139
 20
854.6217800187418
 10
2048.068748269577
 20
854.4020843670168
 10
2048.457583123369
 20
854.2152660268431
 10
2048.896273981973
 20
854.0666994217286
 10
2049.37220050811
 20
853.9606585424074
 10
2049.87167116214
 20
853.9001939919099
 10
2050.38031708273
 20
853.8870452252663
 10
2050.883505452835
 20
853.9215905085526
 10
2051.366760459199
 20
854.0028360368658
 10
2051.816179735149
 20
854.1284445242791
 10
2052.218834306372
 20
854.2948024433046
 10
2052.563140533965
 20
854.4971239794993
 10
2052.839193354636
 20
854.7295887106324
 10
2053.039051231344
 20
854.9855090496368
 10
2053.156964616857
 20
855.2575226343124
 10
2053.190008793924
 20
855.4849032635772
  0
LWPOLYLINE
  5
A0E
330
94E
100
AcDbEntity
  8
0
  6
Continuous
 62
     7
370
    15
100
AcDbPolyline
 90
       41
 70
   128
 43
0.0
 10
2039.231592959116
 20
878.9465465149437
 10
2039.625176656144
 20
879.1433769006669
 10
2040.071148861231
 20
879.3029448404764
 10
2040.558528258593
 20
879.4213212421182
 10
2041.075313949944
 20
879.4955912857155
 10
2041.608780956452
 20
879.5239261963065
 10
2042.14579354994
 20
879.5056282743546
 10
2042.673128698115
 20
879.4411480754252
 10
2043.177801659503
 20
879.3320733160138
 10
2043.647385710882
 20
879.1810897786954
 10
2044.070318134446
 20
878.9919151792442
 10
2044.436184930295
 20
878.7692076241333
 10
2044.735977243672
 20
878.5184509124935
 10
2044.96231319287
 20
878.2458195067794
 10
2045.109619635652
 20
877.9580264970114
 10
2045.174269398515
 20
877.6621583022198
 10
2045.154670589738
 20
877.365500179291
 10
2045.051305797037
 20
877.0753568357635
 10
2044.866720204657
 20
876.798872563685
 10
2044.605458922486
 20
876.5428553234333
 10
2044.273955070368
 20
876.3136091091356
 10
2043.88037137334
 20
876.1167787234125
 10
2043.434399168252
 20
875.9572107836032
 10
2042.947019770892
 20
875.8388343819612
 10
2042.43023407954
 20
875.7645643383639
 10
2041.896767073032
 20
875.7362294277728
 10
2041.359754479544
 20
875.7545273497248
 10
2040.832419331369
 20
875.819007548654
 10
2040.32774636998
 20
875.9280823080656
 10
2039.858162318602
 20
876.079065845384
 10
2039.435229895038
 20
876.2682404448352
 10
2039.069363099189
 20
876.4909479999461
 10
2038.769570785811
 20
876.7417047115857
 10
2038.543234836614
 20
877.0143361172999
 10
2038.395928393832
 20
877.3021291270682
 10
2038.331278630968
 20
877.5979973218595
 10
2038.350877439746
 20
877.8946554447882
 10
2038.454242232447
 20
878.1847987883159
 10
2038.638827824827
 20
878.4612830603943
 10
2038.900089106999
 20
878.7173003006461
 10
2039.231592959116
 20
878.9465465149437
  0
LWPOLYLINE
  5
A0F
330
94E
100
AcDbEntity
  8
0
  6
Continuous
 62
     7
370
    15
100
AcDbPolyline
 90
       35
 70
   128
 43
0.0
 10
2043.574649376111
 20
876.6787610121356
 10
2043.235899187865
 20
876.5141308205929
 10
2042.84664295066
 20
876.3875028654133
 10
2042.420136318793
 20
876.303189309737
 10
2041.970903464076
 20
876.2640613505794
 10
2041.514242472578
 20
876.2714514436609
 10
2041.065704386662
 20
876.3251079282252
 10
2040.64056363288
 20
876.423203597044
 10
2040.253297869704
 20
876.5623979197689
 10
2039.917094968224
 20
876.7379508006843
 10
2039.643403915018
 20
876.9438839969833
 10
2039.441544930648
 20
877.1731847006554
 10
2039.318392080724
 20
877.4180443512531
 10
2039.278139187842
 20
877.6701245470521
 10
2039.322157015994
 20
877.9208409993211
 10
2039.448946590834
 20
878.1616558599797
 10
2039.654190245459
 20
878.3843684677734
 10
2039.930898653373
 20
878.5813946119583
 10
2040.26964884162
 20
878.746024803501
 10
2040.658905078824
 20
878.8726527586806
 10
2041.085411710691
 20
878.956966314357
 10
2041.534644565409
 20
878.9960942735145
 10
2041.991305556907
 20
878.9887041804329
 10
2042.439843642823
 20
878.9350476958688
 10
2042.864984396604
 20
878.8369520270498
 10
2043.25225015978
 20
878.697757704325
 10
2043.588453061261
 20
878.5222048234096
 10
2043.862144114466
 20
878.3162716271107
 10
2044.064003098836
 20
878.0869709234385
 10
2044.187155948761
 20
877.8421112728407
 10
2044.227408841642
 20
877.5900310770419
 10
2044.183391013491
 20
877.3393146247727
 10
2044.056601438651
 20
877.0984997641141
 10
2043.851357784026
 20
876.8757871563204
 10
2043.574649376111
 20
876.6787610121356
  0
LINE
  5
A10
330
94E
100
AcDbEntity
  8
0
  6
Continuous
 62
     7
370
    15
100
AcDbLine
 10
2045.090397541763
 20
873.2291115582064
 30
0.0
 11
2045.086738034041
 21
873.1601221801584
 31
0.0
  0
LINE
  5
A11
330
94E
100
AcDbEntity
  8
0
  6
Continuous
 62
     7
370
    15
100
AcDbLine
 10
2040.97218160793
 20
866.9349674039672
 30
0.0
 11
2041.037199867933
 21
870.1843024320281
 31
0.0
  0
LINE
  5
A12
330
94E
100
AcDbEntity
  8
0
  6
Continuous
 62
     7
370
    15
100
AcDbLine
 10
2046.493016036305
 20
864.0521892224265
 30
0.0
 11
2040.97218160793
 21
866.9349674039672
 31
0.0
  0
LINE
  5
A13
330
94E
100
AcDbEntity
  8
0
  6
Continuous
 62
     7
370
    15
100
AcDbLine
 10
2037.724699210904
 20
871.9139693409545
 30
0.0
 11
2037.659680950901
 21
868.6646343128934
 31
0.0
  0
ARC
  5
A14
330
94E
100
AcDbEntity
  8
0
  6
Continuous
 62
     7
370
    15
100
AcDbCircle
 10
2047.374904330522
 20
883.2336126455432
 30
0.0
 40
17.51115915561132
100
AcDbArc
 50
236.3029326671493
 51
248.5532274730646
  0
ARC
  5
A15
330
94E
100
AcDbEntity
  8
0
  6
Continuous
 62
     7
370
    15
100
AcDbCircle
 10
2050.242342604559
 20
858.1303352358601
 30
0.0
 40
4.321265464069206
100
AcDbArc
 50
239.8489363123554
 51
297.8584254763056
  0
LWPOLYLINE
  5
A16
330
94E
100
AcDbEntity
  8
0
  6
Continuous
 62
     7
370
    15
100
AcDbPolyline
 90
       20
 70
   128
 43
0.0
 10
2038.357874513734
 20
860.2173826017846
 10
2038.374444811795
 20
860.0237573030158
 10
2038.470853728755
 20
859.7462033732245
 10
2038.650299704825
 20
859.4804778285842
 10
2038.907620405987
 20
859.2342251092089
 10
2039.235413184173
 20
859.0145294574837
 10
2039.624248037966
 20
858.8277111173102
 10
2040.06293889657
 20
858.6791445121955
 10
2040.538865422707
 20
858.5731036328745
 10
2041.038336076737
 20
858.5126390823768
 10
2041.546981997327
 20
858.4994903157332
 10
2042.050170367432
 20
858.5340355990197
 10
2042.533425373795
 20
858.6152811273326
 10
2042.982844649745
 20
858.740889614746
 10
2043.385499220969
 20
858.9072475337715
 10
2043.729805448561
 20
859.1095690699662
 10
2044.005858269233
 20
859.3420338010993
 10
2044.205716145941
 20
859.5979541401039
 10
2044.323629531453
 20
859.8699677247793
 10
2044.356673708521
 20
860.0973483540441
  0
LWPOLYLINE
  5
A17
330
94E
100
AcDbEntity
  8
0
  6
Continuous
 62
     7
370
    15
100
AcDbPolyline
 90
       41
 70
   128
 43
0.0
 10
2030.398257873713
 20
883.5589916054107
 10
2030.791841570741
 20
883.7558219911338
 10
2031.237813775828
 20
883.9153899309431
 10
2031.725193173189
 20
884.0337663325852
 10
2032.241978864541
 20
884.1080363761824
 10
2032.775445871049
 20
884.1363712867735
 10
2033.312458464537
 20
884.1180733648215
 10
2033.839793612712
 20
884.0535931658923
 10
2034.3444665741
 20
883.9445184064809
 10
2034.814050625479
 20
883.7935348691623
 10
2035.236983049042
 20
883.6043602697111
 10
2035.602849844892
 20
883.3816527146002
 10
2035.902642158269
 20
883.1308960029605
 10
2036.128978107467
 20
882.8582645972463
 10
2036.276284550249
 20
882.5704715874781
 10
2036.340934313113
 20
882.2746033926868
 10
2036.321335504335
 20
881.9779452697581
 10
2036.217970711634
 20
881.6878019262302
 10
2036.033385119254
 20
881.4113176541521
 10
2035.772123837082
 20
881.1553004139001
 10
2035.440619984965
 20
880.9260541996025
 10
2035.047036287936
 20
880.7292238138794
 10
2034.601064082849
 20
880.5696558740701
 10
2034.113684685488
 20
880.4512794724281
 10
2033.596898994137
 20
880.3770094288308
 10
2033.063431987629
 20
880.3486745182397
 10
2032.526419394141
 20
880.3669724401917
 10
2031.999084245966
 20
880.4314526391211
 10
2031.494411284578
 20
880.5405273985325
 10
2031.024827233199
 20
880.6915109358511
 10
2030.601894809635
 20
880.8806855353022
 10
2030.236028013786
 20
881.1033930904129
 10
2029.936235700409
 20
881.3541498020526
 10
2029.709899751211
 20
881.6267812077668
 10
2029.562593308429
 20
881.9145742175349
 10
2029.497943545565
 20
882.2104424123265
 10
2029.517542354343
 20
882.5071005352551
 10
2029.620907147044
 20
882.7972438787828
 10
2029.805492739424
 20
883.0737281508611
 10
2030.066754021595
 20
883.3297453911129
 10
2030.398257873713
 20
883.5589916054107
  0
LWPOLYLINE
  5
A18
330
94E
100
AcDbEntity
  8
0
  6
Continuous
 62
     7
370
    15
100
AcDbPolyline
 90
       35
 70
   128
 43
0.0
 10
2034.741314290708
 20
881.2912061026024
 10
2034.402564102462
 20
881.1265759110598
 10
2034.013307865256
 20
880.9999479558802
 10
2033.58680123339
 20
880.9156344002039
 10
2033.137568378672
 20
880.8765064410463
 10
2032.680907387174
 20
880.883896534128
 10
2032.232369301258
 20
880.9375530186921
 10
2031.807228547477
 20
881.0356486875111
 10
2031.419962784301
 20
881.1748430102358
 10
2031.08375988282
 20
881.3503958911512
 10
2030.810068829615
 20
881.5563290874502
 10
2030.608209845245
 20
881.7856297911223
 10
2030.48505699532
 20
882.0304894417201
 10
2030.444804102439
 20
882.282569637519
 10
2030.488821930591
 20
882.5332860897882
 10
2030.615611505431
 20
882.7741009504466
 10
2030.820855160055
 20
882.9968135582403
 10
2031.097563567969
 20
883.1938397024252
 10
2031.436313756216
 20
883.3584698939679
 10
2031.825569993421
 20
883.4850978491473
 10
2032.252076625288
 20
883.5694114048239
 10
2032.701309480006
 20
883.6085393639814
 10
2033.157970471504
 20
883.6011492708999
 10
2033.60650855742
 20
883.5474927863357
 10
2034.031649311201
 20
883.4493971175168
 10
2034.418915074377
 20
883.3102027947919
 10
2034.755117975857
 20
883.1346499138765
 10
2035.028809029063
 20
882.9287167175776
 10
2035.230668013433
 20
882.6994160139054
 10
2035.353820863358
 20
882.4545563633078
 10
2035.394073756239
 20
882.2024761675088
 10
2035.350055928088
 20
881.9517597152396
 10
2035.223266353247
 20
881.7109448545812
 10
2035.018022698622
 20
881.4882322467875
 10
2034.741314290708
 20
881.2912061026024
  0
LINE
  5
A19
330
94E
100
AcDbEntity
  8
0
  6
Continuous
 62
     7
370
    15
100
AcDbLine
 10
2036.257062456359
 20
877.8415566486733
 30
0.0
 11
2036.253402948638
 21
877.7725672706251
 31
0.0
  0
LINE
  5
A1A
330
94E
100
AcDbEntity
  8
0
  6
Continuous
 62
     7
370
    15
100
AcDbLine
 10
2032.138846522527
 20
871.5474124944341
 30
0.0
 11
2032.20386478253
 21
874.7967475224951
 31
0.0
  0
LINE
  5
A1B
330
94E
100
AcDbEntity
  8
0
  6
Continuous
 62
     7
370
    15
100
AcDbLine
 10
2037.659680950901
 20
868.6646343128934
 30
0.0
 11
2032.138846522527
 21
871.5474124944341
 31
0.0
  0
LINE
  5
A1C
330
94E
100
AcDbEntity
  8
0
  6
Continuous
 62
     7
370
    15
100
AcDbLine
 10
2028.891364125501
 20
876.5264144314214
 30
0.0
 11
2028.826345865498
 21
873.2770794033603
 31
0.0
  0
ARC
  5
A1D
330
94E
100
AcDbEntity
  8
0
  6
Continuous
 62
     7
370
    15
100
AcDbCircle
 10
2038.541569245119
 20
887.8460577360097
 30
0.0
 40
17.51115915561093
100
AcDbArc
 50
236.3029326671493
 51
248.5532274730646
  0
ARC
  5
A1E
330
94E
100
AcDbEntity
  8
0
  6
Continuous
 62
     7
370
    15
100
AcDbCircle
 10
2041.409007519156
 20
862.742780326327
 30
0.0
 40
4.321265464069207
100
AcDbArc
 50
239.8489363123554
 51
297.8584254763171
  0
LWPOLYLINE
  5
A1F
330
94E
100
AcDbEntity
  8
0
  6
Continuous
 62
     7
370
    15
100
AcDbPolyline
 90
       20
 70
   128
 43
0.0
 10
2029.524539428331
 20
864.8298276922515
 10
2029.541109726392
 20
864.6362023934827
 10
2029.637518643352
 20
864.3586484636914
 10
2029.816964619421
 20
864.0929229190511
 10
2030.074285320584
 20
863.8466701996758
 10
2030.40207809877
 20
863.6269745479507
 10
2030.790912952562
 20
863.4401562077769
 10
2031.229603811167
 20
863.2915896026624
 10
2031.705530337303
 20
863.1855487233412
 10
2032.205000991334
 20
863.1250841728437
 10
2032.713646911924
 20
863.1119354062001
 10
2033.216835282029
 20
863.1464806894866
 10
2033.700090288393
 20
863.2277262177996
 10
2034.149509564342
 20
863.353334705213
 10
2034.552164135565
 20
863.5196926242386
 10
2034.896470363158
 20
863.7220141604332
 10
2035.17252318383
 20
863.9544788915662
 10
2035.372381060538
 20
864.2103992305706
 10
2035.49029444605
 20
864.4824128152462
 10
2035.523338623117
 20
864.709793444511
  0
LWPOLYLINE
  5
A20
330
94E
100
AcDbEntity
  8
0
  6
Continuous
 62
     7
370
    15
100
AcDbPolyline
 90
       41
 70
   128
 43
0.0
 10
2021.56492278831
 20
888.1714366958776
 10
2021.958506485338
 20
888.3682670816009
 10
2022.404478690425
 20
888.5278350214102
 10
2022.891858087786
 20
888.6462114230521
 10
2023.408643779138
 20
888.7204814666493
 10
2023.942110785645
 20
888.7488163772404
 10
2024.479123379134
 20
888.7305184552884
 10
2025.006458527309
 20
888.666038256359
 10
2025.511131488697
 20
888.5569634969476
 10
2025.980715540076
 20
888.4059799596291
 10
2026.403647963639
 20
888.216805360178
 10
2026.769514759488
 20
887.9940978050672
 10
2027.069307072866
 20
887.7433410934274
 10
2027.295643022064
 20
887.4707096877132
 10
2027.442949464846
 20
887.1829166779452
 10
2027.507599227709
 20
886.8870484831536
 10
2027.488000418932
 20
886.590390360225
 10
2027.384635626231
 20
886.3002470166973
 10
2027.20005003385
 20
886.023762744619
 10
2026.938788751679
 20
885.7677455043672
 10
2026.607284899561
 20
885.5384992900694
 10
2026.213701202533
 20
885.3416689043463
 10
2025.767728997446
 20
885.1821009645369
 10
2025.280349600085
 20
885.063724562895
 10
2024.763563908734
 20
884.9894545192979
 10
2024.230096902226
 20
884.9611196087066
 10
2023.693084308737
 20
884.9794175306586
 10
2023.165749160563
 20
885.0438977295878
 10
2022.661076199174
 20
885.1529724889994
 10
2022.191492147796
 20
885.3039560263178
 10
2021.768559724232
 20
885.4931306257691
 10
2021.402692928383
 20
885.7158381808799
 10
2021.102900615005
 20
885.9665948925195
 10
2020.876564665808
 20
886.2392262982337
 10
2020.729258223026
 20
886.527019308002
 10
2020.664608460162
 20
886.8228875027934
 10
2020.684207268939
 20
887.1195456257222
 10
2020.787572061641
 20
887.4096889692498
 10
2020.972157654021
 20
887.6861732413281
 10
2021.233418936192
 20
887.9421904815799
 10
2021.56492278831
 20
888.1714366958776
  0
LWPOLYLINE
  5
A21
330
94E
100
AcDbEntity
  8
0
  6
Continuous
 62
     7
370
    15
100
AcDbPolyline
 90
       35
 70
   128
 43
0.0
 10
2025.907979205305
 20
885.9036511930694
 10
2025.569229017058
 20
885.7390210015267
 10
2025.179972779853
 20
885.6123930463473
 10
2024.753466147987
 20
885.5280794906708
 10
2024.304233293269
 20
885.4889515315132
 10
2023.847572301771
 20
885.4963416245949
 10
2023.399034215855
 20
885.5499981091591
 10
2022.973893462074
 20
885.648093777978
 10
2022.586627698898
 20
885.7872881007027
 10
2022.250424797417
 20
885.9628409816181
 10
2021.976733744212
 20
886.1687741779171
 10
2021.774874759842
 20
886.3980748815892
 10
2021.651721909917
 20
886.6429345321868
 10
2021.611469017036
 20
886.8950147279859
 10
2021.655486845188
 20
887.1457311802551
 10
2021.782276420028
 20
887.3865460409135
 10
2021.987520074652
 20
887.6092586487073
 10
2022.264228482566
 20
887.8062847928921
 10
2022.602978670813
 20
887.9709149844348
 10
2022.992234908018
 20
888.0975429396144
 10
2023.418741539884
 20
888.1818564952908
 10
2023.867974394603
 20
888.2209844544483
 10
2024.324635386101
 20
888.2135943613668
 10
2024.773173472016
 20
888.1599378768026
 10
2025.198314225798
 20
888.0618422079836
 10
2025.585579988974
 20
887.9226478852588
 10
2025.921782890454
 20
887.7470950043434
 10
2026.19547394366
 20
887.5411618080445
 10
2026.39733292803
 20
887.3118611043723
 10
2026.520485777954
 20
887.0670014537747
 10
2026.560738670836
 20
886.8149212579758
 10
2026.516720842684
 20
886.5642048057067
 10
2026.389931267844
 20
886.3233899450481
 10
2026.184687613219
 20
886.1006773372544
 10
2025.907979205305
 20
885.9036511930694
  0
LINE
  5
A22
330
94E
100
AcDbEntity
  8
0
  6
Continuous
 62
     7
370
    15
100
AcDbLine
 10
2027.423727370956
 20
882.4540017391402
 30
0.0
 11
2027.420067863235
 21
882.385012361092
 31
0.0
  0
LINE
  5
A23
330
94E
100
AcDbEntity
  8
0
  6
Continuous
 62
     7
370
    15
100
AcDbLine
 10
2023.305511437124
 20
876.159857584901
 30
0.0
 11
2023.370529697126
 21
879.409192612962
 31
0.0
  0
LINE
  5
A24
330
94E
100
AcDbEntity
  8
0
  6
Continuous
 62
     7
370
    15
100
AcDbLine
 10
2028.826345865498
 20
873.2770794033603
 30
0.0
 11
2023.305511437124
 21
876.159857584901
 31
0.0
  0
LINE
  5
A25
330
94E
100
AcDbEntity
  8
0
  6
Continuous
 62
     7
370
    15
100
AcDbLine
 10
2020.058029040098
 20
881.1388595218883
 30
0.0
 11
2019.993010780095
 21
877.8895244938274
 31
0.0
  0
ARC
  5
A26
330
94E
100
AcDbEntity
  8
0
  6
Continuous
 62
     7
370
    15
100
AcDbCircle
 10
2029.708234159716
 20
892.4585028264782
 30
0.0
 40
17.51115915561272
100
AcDbArc
 50
236.3029326671493
 51
248.5532274730646
  0
ARC
  5
A27
330
94E
100
AcDbEntity
  8
0
  6
Continuous
 62
     7
370
    15
100
AcDbCircle
 10
2032.575672433753
 20
867.355225416794
 30
0.0
 40
4.321265464069282
100
AcDbArc
 50
239.8489363123554
 51
297.8584254763056
  0
LWPOLYLINE
  5
A28
330
94E
100
AcDbEntity
  8
0
  6
Continuous
 62
     7
370
    15
100
AcDbPolyline
 90
       20
 70
   128
 43
0.0
 10
2020.691204342928
 20
869.4422727827184
 10
2020.707774640988
 20
869.2486474839496
 10
2020.804183557949
 20
868.9710935541583
 10
2020.983629534018
 20
868.705368009518
 10
2021.240950235181
 20
868.4591152901427
 10
2021.568743013367
 20
868.2394196384175
 10
2021.957577867159
 20
868.052601298244
 10
2022.396268725763
 20
867.9040346931293
 10
2022.872195251901
 20
867.7979938138083
 10
2023.37166590593
 20
867.7375292633108
 10
2023.880311826521
 20
867.724380496667
 10
2024.383500196625
 20
867.7589257799535
 10
2024.866755202989
 20
867.8401713082664
 10
2025.316174478939
 20
867.9657797956798
 10
2025.718829050162
 20
868.1321377147055
 10
2026.063135277755
 20
868.3344592509
 10
2026.339188098427
 20
868.5669239820333
 10
2026.539045975135
 20
868.8228443210377
 10
2026.656959360647
 20
869.0948579057133
 10
2026.690003537714
 20
869.3222385349779
  0
LWPOLYLINE
  5
A29
330
94E
100
AcDbEntity
  8
0
  6
Continuous
 62
     7
370
    15
100
AcDbPolyline
 90
       41
 70
   128
 43
0.0
 10
2012.731587702907
 20
892.7838817863445
 10
2013.125171399935
 20
892.9807121720676
 10
2013.571143605022
 20
893.1402801118769
 10
2014.058523002383
 20
893.258656513519
 10
2014.575308693734
 20
893.3329265571162
 10
2015.108775700242
 20
893.3612614677073
 10
2015.645788293731
 20
893.3429635457553
 10
2016.173123441905
 20
893.2784833468261
 10
2016.677796403294
 20
893.1694085874147
 10
2017.147380454673
 20
893.018425050096
 10
2017.570312878236
 20
892.8292504506449
 10
2017.936179674085
 20
892.6065428955341
 10
2018.235971987463
 20
892.3557861838943
 10
2018.46230793666
 20
892.0831547781803
 10
2018.609614379442
 20
891.7953617684121
 10
2018.674264142306
 20
891.4994935736206
 10
2018.654665333528
 20
891.2028354506919
 10
2018.551300540828
 20
890.9126921071642
 10
2018.366714948447
 20
890.6362078350859
 10
2018.105453666276
 20
890.3801905948341
 10
2017.773949814158
 20
890.1509443805364
 10
2017.38036611713
 20
889.9541139948132
 10
2016.934393912043
 20
889.7945460550038
 10
2016.447014514682
 20
889.6761696533619
 10
2015.93022882333
 20
889.6018996097646
 10
2015.396761816823
 20
889.5735646991736
 10
2014.859749223334
 20
889.5918626211255
 10
2014.332414075159
 20
889.6563428200549
 10
2013.827741113771
 20
889.7654175794663
 10
2013.358157062393
 20
889.9164011167849
 10
2012.935224638829
 20
890.105575716236
 10
2012.56935784298
 20
890.3282832713468
 10
2012.269565529602
 20
890.5790399829866
 10
2012.043229580405
 20
890.8516713887006
 10
2011.895923137623
 20
891.1394643984689
 10
2011.831273374759
 20
891.4353325932603
 10
2011.850872183536
 20
891.7319907161891
 10
2011.954236976237
 20
892.0221340597166
 10
2012.138822568618
 20
892.298618331795
 10
2012.400083850789
 20
892.5546355720468
 10
2012.731587702907
 20
892.7838817863445
  0
LWPOLYLINE
  5
A2A
330
94E
100
AcDbEntity
  8
0
  6
Continuous
 62
     7
370
    15
100
AcDbPolyline
 90
       35
 70
   128
 43
0.0
 10
2017.074644119902
 20
890.5160962835363
 10
2016.735893931655
 20
890.3514660919936
 10
2016.34663769445
 20
890.224838136814
 10
2015.920131062584
 20
890.1405245811378
 10
2015.470898207865
 20
890.1013966219803
 10
2015.014237216368
 20
890.1087867150618
 10
2014.565699130452
 20
890.162443199626
 10
2014.140558376671
 20
890.2605388684449
 10
2013.753292613495
 20
890.3997331911696
 10
2013.417089712014
 20
890.575286072085
 10
2013.143398658808
 20
890.781219268384
 10
2012.941539674439
 20
891.0105199720561
 10
2012.818386824514
 20
891.2553796226539
 10
2012.778133931632
 20
891.5074598184528
 10
2012.822151759785
 20
891.758176270722
 10
2012.948941334625
 20
891.9989911313805
 10
2013.154184989249
 20
892.2217037391742
 10
2013.430893397163
 20
892.418729883359
 10
2013.76964358541
 20
892.5833600749017
 10
2014.158899822615
 20
892.7099880300813
 10
2014.585406454481
 20
892.7943015857577
 10
2015.0346393092
 20
892.8334295449154
 10
2015.491300300697
 20
892.8260394518337
 10
2015.939838386613
 20
892.7723829672695
 10
2016.364979140394
 20
892.6742872984506
 10
2016.752244903571
 20
892.5350929757259
 10
2017.088447805051
 20
892.3595400948103
 10
2017.362138858256
 20
892.1536068985115
 10
2017.563997842627
 20
891.9243061948392
 10
2017.687150692552
 20
891.6794465442416
 10
2017.727403585432
 20
891.4273663484426
 10
2017.683385757281
 20
891.1766498961736
 10
2017.556596182441
 20
890.935835035515
 10
2017.351352527816
 20
890.7131224277213
 10
2017.074644119902
 20
890.5160962835363
  0
LINE
  5
A2B
330
94E
100
AcDbEntity
  8
0
  6
Continuous
 62
     7
370
    15
100
AcDbLine
 10
2018.590392285553
 20
887.0664468296071
 30
0.0
 11
2018.586732777832
 21
886.9974574515591
 31
0.0
  0
LINE
  5
A2C
330
94E
100
AcDbEntity
  8
0
  6
Continuous
 62
     7
370
    15
100
AcDbLine
 10
2014.47217635172
 20
880.7723026753679
 30
0.0
 11
2014.537194611723
 21
884.0216377034289
 31
0.0
  0
LINE
  5
A2D
330
94E
100
AcDbEntity
  8
0
  6
Continuous
 62
     7
370
    15
100
AcDbLine
 10
2019.993010780095
 20
877.8895244938274
 30
0.0
 11
2014.47217635172
 21
880.7723026753679
 31
0.0
  0
LINE
  5
A2E
330
94E
100
AcDbEntity
  8
0
  6
Continuous
 62
     7
370
    15
100
AcDbLine
 10
2011.224693954694
 20
885.7513046123553
 30
0.0
 11
2011.159675694692
 21
882.5019695842943
 31
0.0
  0
ARC
  5
A2F
330
94E
100
AcDbEntity
  8
0
  6
Continuous
 62
     7
370
    15
100
AcDbCircle
 10
2020.874899074313
 20
897.0709479169435
 30
0.0
 40
17.51115915561093
100
AcDbArc
 50
236.3029326671493
 51
248.5532274730646
  0
ARC
  5
A30
330
94E
100
AcDbEntity
  8
0
  6
Continuous
 62
     7
370
    15
100
AcDbCircle
 10
2023.74233734835
 20
871.9676705072609
 30
0.0
 40
4.321265464069222
100
AcDbArc
 50
239.8489363123554
 51
297.8584254763056
  0
LWPOLYLINE
  5
A31
330
94E
100
AcDbEntity
  8
0
  6
Continuous
 62
     7
370
    15
100
AcDbPolyline
 90
       20
 70
   128
 43
0.0
 10
2011.857869257525
 20
874.0547178731853
 10
2011.874439555585
 20
873.8610925744165
 10
2011.970848472546
 20
873.5835386446252
 10
2012.150294448615
 20
873.3178130999849
 10
2012.407615149777
 20
873.0715603806096
 10
2012.735407927964
 20
872.8518647288845
 10
2013.124242781756
 20
872.6650463887109
 10
2013.56293364036
 20
872.5164797835962
 10
2014.038860166497
 20
872.4104389042752
 10
2014.538330820527
 20
872.3499743537777
 10
2015.046976741118
 20
872.3368255871339
 10
2015.550165111222
 20
872.3713708704204
 10
2016.033420117586
 20
872.4526163987334
 10
2016.482839393536
 20
872.5782248861468
 10
2016.885493964759
 20
872.7445828051724
 10
2017.229800192352
 20
872.946904341367
 10
2017.505853013024
 20
873.1793690725
 10
2017.705710889732
 20
873.4352894115046
 10
2017.823624275244
 20
873.7073029961802
 10
2017.856668452311
 20
873.9346836254449
  0
LINE
  5
A32
330
94E
100
AcDbEntity
  8
0
  6
Continuous
 62
     7
370
    15
100
AcDbLine
 10
2008.464276740507
 20
887.1926937031256
 30
0.0
 11
2008.399258480505
 21
883.9433586750645
 31
0.0
  0
LINE
  5
A33
330
94E
100
AcDbEntity
  8
0
  6
Continuous
 62
     7
370
    15
100
AcDbLine
 10
2011.159675694692
 20
882.5019695842943
 30
0.0
 11
2008.399258480505
 21
883.9433586750645
 31
0.0
  0
ARC
  5
A34
330
94E
100
AcDbEntity
  8
0
  6
Continuous
 62
     7
370
    15
100
AcDbCircle
 10
2014.909002262947
 20
876.5801155977278
 30
0.0
 40
4.321265464069333
100
AcDbArc
 50
239.8489363123554
 51
297.8584254763056
  0
LWPOLYLINE
  5
A35
330
94E
100
AcDbEntity
  8
0
  6
Continuous
 62
     8
370
    15
100
AcDbPolyline
 90
       22
 70
   128
 43
0.0
 10
2098.08674854646
 20
845.4854516373567
 10
2098.067990088821
 20
845.3583829324081
 10
2097.964625296119
 20
845.0682395888806
 10
2097.780039703739
 20
844.7917553168021
 10
2097.518778421568
 20
844.5357380765504
 10
2097.187274569449
 20
844.3064918622527
 10
2096.793690872422
 20
844.1096614765296
 10
2096.347718667335
 20
843.9500935367203
 10
2095.860339269974
 20
843.8317171350783
 10
2095.343553578622
 20
843.757447091481
 10
2094.810086572115
 20
843.7291121808899
 10
2094.273073978626
 20
843.7474101028419
 10
2093.745738830451
 20
843.8118903017711
 10
2093.241065869063
 20
843.9209650611825
 10
2092.771481817684
 20
844.0719485985011
 10
2092.34854939412
 20
844.2611231979524
 10
2091.982682598271
 20
844.4838307530632
 10
2091.682890284894
 20
844.7345874647028
 10
2091.456554335697
 20
845.007218870417
 10
2091.309247892914
 20
845.2950118801853
 10
2091.244598130051
 20
845.5908800749766
 10
2091.241778973467
 20
845.6914801149087
  0
LWPOLYLINE
  5
A36
330
94E
100
AcDbEntity
  8
0
  6
Continuous
 62
     8
370
    15
100
AcDbPolyline
 90
       22
 70
   128
 43
0.0
 10
2089.253413461057
 20
850.0978967278237
 10
2089.234655003417
 20
849.9708280228752
 10
2089.131290210716
 20
849.6806846793475
 10
2088.946704618336
 20
849.4042004072692
 10
2088.685443336165
 20
849.1481831670173
 10
2088.353939484047
 20
848.9189369527196
 10
2087.960355787019
 20
848.7221065669965
 10
2087.514383581931
 20
848.5625386271872
 10
2087.027004184571
 20
848.4441622255452
 10
2086.51021849322
 20
848.3698921819479
 10
2085.976751486711
 20
848.3415572713569
 10
2085.439738893223
 20
848.3598551933088
 10
2084.912403745048
 20
848.4243353922382
 10
2084.407730783659
 20
848.5334101516496
 10
2083.938146732281
 20
848.684393688968
 10
2083.515214308717
 20
848.8735682884193
 10
2083.149347512868
 20
849.09627584353
 10
2082.849555199491
 20
849.3470325551697
 10
2082.623219250293
 20
849.6196639608839
 10
2082.475912807511
 20
849.907456970652
 10
2082.411263044647
 20
850.2033251654436
 10
2082.408443888064
 20
850.3039252053756
  0
LWPOLYLINE
  5
A37
330
94E
100
AcDbEntity
  8
0
  6
Continuous
 62
     8
370
    15
100
AcDbPolyline
 90
       22
 70
   128
 43
0.0
 10
2080.420078375654
 20
854.7103418182906
 10
2080.401319918014
 20
854.5832731133421
 10
2080.297955125313
 20
854.2931297698144
 10
2080.113369532933
 20
854.0166454977361
 10
2079.852108250761
 20
853.7606282574843
 10
2079.520604398643
 20
853.5313820431865
 10
2079.127020701616
 20
853.3345516574634
 10
2078.681048496529
 20
853.1749837176541
 10
2078.193669099167
 20
853.0566073160121
 10
2077.676883407816
 20
852.9823372724148
 10
2077.143416401308
 20
852.9540023618237
 10
2076.60640380782
 20
852.9723002837757
 10
2076.079068659645
 20
853.0367804827049
 10
2075.574395698257
 20
853.1458552421165
 10
2075.104811646878
 20
853.2968387794349
 10
2074.681879223314
 20
853.4860133788862
 10
2074.316012427465
 20
853.708720933997
 10
2074.016220114088
 20
853.9594776456366
 10
2073.78988416489
 20
854.2321090513508
 10
2073.642577722108
 20
854.5199020611191
 10
2073.577927959244
 20
854.8157702559105
 10
2073.575108802661
 20
854.9163702958425
  0
LWPOLYLINE
  5
A38
330
94E
100
AcDbEntity
  8
0
  6
Continuous
 62
     8
370
    15
100
AcDbPolyline
 90
       22
 70
   128
 43
0.0
 10
2071.586743290251
 20
859.3227869087575
 10
2071.567984832611
 20
859.195718203809
 10
2071.46462003991
 20
858.9055748602813
 10
2071.280034447529
 20
858.629090588203
 10
2071.018773165358
 20
858.3730733479512
 10
2070.68726931324
 20
858.1438271336535
 10
2070.293685616212
 20
857.9469967479303
 10
2069.847713411125
 20
857.7874288081209
 10
2069.360334013764
 20
857.669052406479
 10
2068.843548322413
 20
857.5947823628817
 10
2068.310081315905
 20
857.5664474522907
 10
2067.773068722416
 20
857.5847453742428
 10
2067.245733574242
 20
857.649225573172
 10
2066.741060612853
 20
857.7583003325834
 10
2066.271476561475
 20
857.909283869902
 10
2065.848544137911
 20
858.0984584693531
 10
2065.482677342062
 20
858.3211660244639
 10
2065.182885028685
 20
858.5719227361037
 10
2064.956549079487
 20
858.8445541418177
 10
2064.809242636705
 20
859.132347151586
 10
2064.744592873841
 20
859.4282153463774
 10
2064.741773717257
 20
859.5288153863094
  0
LWPOLYLINE
  5
A39
330
94E
100
AcDbEntity
  8
0
  6
Continuous
 62
     8
370
    15
100
AcDbPolyline
 90
       22
 70
   128
 43
0.0
 10
2062.753408204847
 20
863.9352319992244
 10
2062.734649747207
 20
863.8081632942759
 10
2062.631284954507
 20
863.5180199507484
 10
2062.446699362126
 20
863.2415356786699
 10
2062.185438079955
 20
862.9855184384181
 10
2061.853934227837
 20
862.7562722241204
 10
2061.46035053081
 20
862.5594418383974
 10
2061.014378325722
 20
862.3998738985878
 10
2060.526998928361
 20
862.2814974969459
 10
2060.010213237009
 20
862.2072274533488
 10
2059.476746230502
 20
862.1788925427576
 10
2058.939733637013
 20
862.1971904647095
 10
2058.412398488838
 20
862.2616706636389
 10
2057.90772552745
 20
862.3707454230503
 10
2057.438141476072
 20
862.5217289603687
 10
2057.015209052508
 20
862.71090355982
 10
2056.649342256659
 20
862.933611114931
 10
2056.349549943281
 20
863.1843678265706
 10
2056.123213994084
 20
863.4569992322846
 10
2055.975907551302
 20
863.7447922420529
 10
2055.911257788438
 20
864.0406604368443
 10
2055.908438631854
 20
864.1412604767763
  0
LWPOLYLINE
  5
A3A
330
94E
100
AcDbEntity
  8
0
  6
Continuous
 62
     8
370
    15
100
AcDbPolyline
 90
       22
 70
   128
 43
0.0
 10
2053.920073119444
 20
868.5476770896913
 10
2053.901314661805
 20
868.4206083847428
 10
2053.797949869103
 20
868.1304650412151
 10
2053.613364276723
 20
867.8539807691368
 10
2053.352102994552
 20
867.597963528885
 10
2053.020599142433
 20
867.3687173145873
 10
2052.627015445406
 20
867.1718869288641
 10
2052.181043240318
 20
867.0123189890547
 10
2051.693663842958
 20
866.893942587413
 10
2051.176878151607
 20
866.8196725438155
 10
2050.643411145099
 20
866.7913376332245
 10
2050.10639855161
 20
866.8096355551766
 10
2049.579063403435
 20
866.8741157541058
 10
2049.074390442047
 20
866.9831905135172
 10
2048.604806390668
 20
867.1341740508358
 10
2048.181873967104
 20
867.3233486502869
 10
2047.816007171256
 20
867.5460562053977
 10
2047.516214857878
 20
867.7968129170375
 10
2047.289878908681
 20
868.0694443227517
 10
2047.142572465899
 20
868.3572373325198
 10
2047.077922703035
 20
868.6531055273112
 10
2047.075103546451
 20
868.7537055672432
  0
LWPOLYLINE
  5
A3B
330
94E
100
AcDbEntity
  8
0
  6
Continuous
 62
     8
370
    15
100
AcDbPolyline
 90
       22
 70
   128
 43
0.0
 10
2045.086738034041
 20
873.1601221801584
 10
2045.067979576401
 20
873.0330534752097
 10
2044.9646147837
 20
872.7429101316822
 10
2044.78002919132
 20
872.4664258596037
 10
2044.518767909149
 20
872.2104086193519
 10
2044.187264057031
 20
871.9811624050542
 10
2043.793680360003
 20
871.7843320193312
 10
2043.347708154915
 20
871.6247640795218
 10
2042.860328757555
 20
871.5063876778797
 10
2042.343543066203
 20
871.4321176342826
 10
2041.810076059695
 20
871.4037827236914
 10
2041.273063466207
 20
871.4220806456435
 10
2040.745728318032
 20
871.4865608445727
 10
2040.241055356644
 20
871.5956356039841
 10
2039.771471305265
 20
871.7466191413027
 10
2039.348538881701
 20
871.9357937407538
 10
2038.982672085853
 20
872.1585012958648
 10
2038.682879772474
 20
872.4092580075044
 10
2038.456543823278
 20
872.6818894132186
 10
2038.309237380495
 20
872.9696824229868
 10
2038.244587617632
 20
873.2655506177781
 10
2038.241768461048
 20
873.3661506577103
  0
LWPOLYLINE
  5
A3C
330
94E
100
AcDbEntity
  8
0
  6
Continuous
 62
     8
370
    15
100
AcDbPolyline
 90
       22
 70
   128
 43
0.0
 10
2036.253402948638
 20
877.7725672706251
 10
2036.234644490998
 20
877.6454985656767
 10
2036.131279698297
 20
877.3553552221489
 10
2035.946694105916
 20
877.0788709500706
 10
2035.685432823746
 20
876.8228537098188
 10
2035.353928971627
 20
876.5936074955211
 10
2034.960345274599
 20
876.3967771097979
 10
2034.514373069512
 20
876.2372091699885
 10
2034.026993672152
 20
876.1188327683468
 10
2033.5102079808
 20
876.0445627247495
 10
2032.976740974292
 20
876.0162278141585
 10
2032.439728380804
 20
876.0345257361104
 10
2031.912393232629
 20
876.0990059350397
 10
2031.407720271241
 20
876.2080806944512
 10
2030.938136219862
 20
876.3590642317696
 10
2030.515203796298
 20
876.5482388312207
 10
2030.149337000449
 20
876.7709463863315
 10
2029.849544687072
 20
877.0217030979713
 10
2029.623208737874
 20
877.2943345036855
 10
2029.475902295092
 20
877.5821275134536
 10
2029.411252532228
 20
877.8779957082452
 10
2029.408433375645
 20
877.9785957481772
  0
LWPOLYLINE
  5
A3D
330
94E
100
AcDbEntity
  8
0
  6
Continuous
 62
     8
370
    15
100
AcDbPolyline
 90
       22
 70
   128
 43
0.0
 10
2027.420067863235
 20
882.385012361092
 10
2027.401309405595
 20
882.2579436561436
 10
2027.297944612894
 20
881.967800312616
 10
2027.113359020514
 20
881.6913160405377
 10
2026.852097738343
 20
881.4352988002859
 10
2026.520593886224
 20
881.206052585988
 10
2026.127010189196
 20
881.009222200265
 10
2025.681037984109
 20
880.8496542604556
 10
2025.193658586748
 20
880.7312778588137
 10
2024.676872895397
 20
880.6570078152164
 10
2024.143405888889
 20
880.6286729046252
 10
2023.606393295401
 20
880.6469708265773
 10
2023.079058147226
 20
880.7114510255066
 10
2022.574385185837
 20
880.8205257849181
 10
2022.104801134459
 20
880.9715093222365
 10
2021.681868710895
 20
881.1606839216878
 10
2021.316001915046
 20
881.3833914767986
 10
2021.016209601668
 20
881.6341481884382
 10
2020.789873652471
 20
881.9067795941524
 10
2020.642567209689
 20
882.1945726039206
 10
2020.577917446825
 20
882.4904407987119
 10
2020.575098290242
 20
882.5910408386441
  0
LWPOLYLINE
  5
A3E
330
94E
100
AcDbEntity
  8
0
  6
Continuous
 62
     8
370
    15
100
AcDbPolyline
 90
       22
 70
   128
 43
0.0
 10
2018.586732777832
 20
886.9974574515591
 10
2018.567974320192
 20
886.8703887466105
 10
2018.464609527491
 20
886.5802454030829
 10
2018.28002393511
 20
886.3037611310046
 10
2018.018762652939
 20
886.0477438907528
 10
2017.687258800821
 20
885.8184976764551
 10
2017.293675103793
 20
885.6216672907319
 10
2016.847702898706
 20
885.4620993509225
 10
2016.360323501345
 20
885.3437229492806
 10
2015.843537809994
 20
885.2694529056833
 10
2015.310070803486
 20
885.2411179950923
 10
2014.773058209998
 20
885.2594159170443
 10
2014.245723061822
 20
885.3238961159735
 10
2013.741050100434
 20
885.432970875385
 10
2013.271466049056
 20
885.5839544127034
 10
2012.848533625492
 20
885.7731290121547
 10
2012.482666829643
 20
885.9958365672655
 10
2012.182874516265
 20
886.2465932789053
 10
2011.956538567068
 20
886.5192246846193
 10
2011.809232124286
 20
886.8070176943874
 10
2011.744582361422
 20
887.102885889179
 10
2011.741763204838
 20
887.203485929111
  0
ENDBLK
  5
950
330
94E
100
AcDbEntity
  8
0
100
AcDbBlockEnd
  0
ENDSEC
  0
SECTION
  2
ENTITIES
  0
INSERT
  5
85C
330
1F
100
AcDbEntity
  8
0
100
AcDbBlockReference
  2
1
 10
0.0
 20
0.0
 30
0.0
  0
INSERT
  5
87D
330
1F
100
AcDbEntity
  8
0
100
AcDbBlockReference
  2
2
 10
0.0
 20
0.0
 30
0.0
  0
INSERT
  5
94D
330
1F
100
AcDbEntity
  8
0
100
AcDbBlockReference
  2
3
 10
0.0
 20
0.0
 30
0.0
  0
INSERT
  5
A3F
330
1F
100
AcDbEntity
  8
0
100
AcDbBlockReference
  2
4
 10
-65.40240295871945
 20
-0.5040470994215412
 30
0.0
  0
ENDSEC
  0
SECTION
  2
OBJECTS
  0
DICTIONARY
  5
C
330
0
100
AcDbDictionary
281
     1
  3
ACAD_COLOR
350
6B
  3
ACAD_GROUP
350
D
  3
ACAD_LAYOUT
350
1A
  3
ACAD_MATERIAL
350
6A
  3
ACAD_MLEADERSTYLE
350
12D
  3
ACAD_MLINESTYLE
350
17
  3
ACAD_PLOTSETTINGS
350
19
  3
ACAD_PLOTSTYLENAME
350
E
  3
ACAD_SCALELIST
350
10C
  3
ACAD_TABLESTYLE
350
7E
  3
ACAD_VISUALSTYLE
350
EF
  3
ACDB_RECOMPOSE_DATA
350
15D
  3
AcDbVariableDictionary
350
5E
  3
DWGPROPS
350
A4D
  0
DICTIONARY
  5
13C
330
10
100
AcDbDictionary
280
     1
281
     1
  3
ADSK_XREC_LAYER_RECONCILED
360
A40
  0
DICTIONARY
  5
6B
102
{ACAD_REACTORS
330
C
102
}
330
C
100
AcDbDictionary
281
     1
  0
DICTIONARY
  5
D
102
{ACAD_REACTORS
330
C
102
}
330
C
100
AcDbDictionary
281
     1
  0
DICTIONARY
  5
1A
102
{ACAD_REACTORS
330
C
102
}
330
C
100
AcDbDictionary
281
     1
  3
Layout1
350
D3
  3
Layout2
350
D7
  3
Model
350
22
  0
DICTIONARY
  5
6A
102
{ACAD_REACTORS
330
C
102
}
330
C
100
AcDbDictionary
281
     1
  3
ByBlock
350
ED
  3
ByLayer
350
EC
  3
Global
350
EE
  0
DICTIONARY
  5
12D
102
{ACAD_REACTORS
330
C
102
}
330
C
100
AcDbDictionary
281
     1
  3
Annotative
350
13B
  3
Standard
350
12E
  0
DICTIONARY
  5
17
102
{ACAD_REACTORS
330
C
102
}
330
C
100
AcDbDictionary
281
     1
  3
Standard
350
18
  0
DICTIONARY
  5
19
102
{ACAD_REACTORS
330
C
102
}
330
C
100
AcDbDictionary
281
     1
  0
ACDBDICTIONARYWDFLT
  5
E
102
{ACAD_REACTORS
330
C
102
}
330
C
100
AcDbDictionary
281
     1
  3
Normal
350
F
100
AcDbDictionaryWithDefault
340
F
  0
DICTIONARY
  5
10C
102
{ACAD_REACTORS
330
C
102
}
330
C
100
AcDbDictionary
281
     1
  3
A0
350
10D
  3
A1
350
188
  3
A2
350
189
  3
A3
350
18A
  3
A4
350
18B
  3
A5
350
18C
  3
A6
350
18D
  3
A7
350
18E
  3
A8
350
18F
  3
A9
350
190
  3
B0
350
191
  3
B1
350
192
  3
B2
350
193
  3
B3
350
194
  3
B4
350
195
  3
B5
350
196
  3
B6
350
197
  3
B7
350
198
  3
B8
350
199
  3
B9
350
19A
  3
C0
350
19B
  3
C1
350
19C
  3
C2
350
19D
  3
C3
350
19E
  3
C4
350
19F
  3
C5
350
1A0
  3
C6
350
1A1
  3
C7
350
1A2
  3
C8
350
1A3
  3
C9
350
1A4
  3
D0
350
1A5
  3
D1
350
1A6
  3
D2
350
1A7
  0
DICTIONARY
  5
7E
102
{ACAD_REACTORS
330
C
102
}
330
C
100
AcDbDictionary
281
     1
  3
Standard
350
7F
  0
DICTIONARY
  5
EF
102
{ACAD_REACTORS
330
C
102
}
330
C
100
AcDbDictionary
281
     1
  3
2dWireframe
350
F5
  3
3D Hidden
350
F7
  3
3dWireframe
350
F6
  3
Basic
350
F4
  3
Brighten
350
FB
  3
ColorChange
350
FF
  3
Conceptual
350
F8
  3
Dim
350
FA
  3
Facepattern
350
FE
  3
Flat
350
F0
  3
FlatWithEdges
350
F1
  3
Gouraud
350
F2
  3
GouraudWithEdges
350
F3
  3
Linepattern
350
FD
  3
Realistic
350
F9
  3
Thicken
350
FC
  0
XRECORD
  5
15D
102
{ACAD_REACTORS
330
C
102
}
330
C
100
AcDbXrecord
280
     1
 90
        1
330
7F
  0
DICTIONARY
  5
5E
102
{ACAD_REACTORS
330
C
102
}
330
C
100
AcDbDictionary
281
     1
  3
CANNOSCALE
350
146
  3
CMLEADERSTYLE
350
145
  3
CTABLESTYLE
350
84
  3
DIMASSOC
350
5F
  3
HIDETEXT
350
63
  3
INDEXCTL
350
A49
  3
LIGHTINGUNITS
350
A47
  3
MSLTSCALE
350
A46
  3
PSOLHEIGHT
350
A4B
  3
PSOLWIDTH
350
A4A
  3
SORTENTS
350
A48
  0
XRECORD
  5
A4D
102
{ACAD_REACTORS
330
C
102
}
330
C
100
AcDbXrecord
280
     1
  1
DWGPROPS COOKIE
  2

  3

  4

  6

  7

  8
orhan kara
  9

300
=
301
=
302
=
303
=
304
=
305
=
306
=
307
=
308
=
309
=
 40
0.0005262847222222
 41
2458451.644727118
 42
2458956.461837222
  1

 90
        0
  0
XRECORD
  5
A40
102
{ACAD_REACTORS
330
13C
102
}
330
13C
100
AcDbXrecord
280
     1
290
     1
  0
LAYOUT
  5
D3
102
{ACAD_XDICTIONARY
360
A51
102
}
102
{ACAD_REACTORS
330
1A
102
}
330
1A
100
AcDbPlotSettings
  1

  2
C:\Documents and Settings\basas\Application Data\Autodesk\AutoCAD 2005\R16.1\enu\plotters\Default Windows System Printer.pc3
  4

  6

 40
0.0
 41
0.0
 42
0.0
 43
0.0
 44
0.0
 45
0.0
 46
0.0
 47
0.0
 48
0.0
 49
0.0
140
0.0
141
0.0
142
1.0
143
1.0
 70
   688
 72
     0
 73
     0
 74
     5
  7

 75
    16
147
1.0
148
0.0
149
0.0
100
AcDbLayout
  1
Layout1
 70
     1
 71
     1
 10
0.0
 20
0.0
 11
12.0
 21
9.0
 12
0.0
 22
0.0
 32
0.0
 14
0.0
 24
0.0
 34
0.0
 15
0.0
 25
0.0
 35
0.0
146
0.0
 13
0.0
 23
0.0
 33
0.0
 16
1.0
 26
0.0
 36
0.0
 17
0.0
 27
1.0
 37
0.0
 76
     0
330
D2
  0
LAYOUT
  5
D7
102
{ACAD_XDICTIONARY
360
A53
102
}
102
{ACAD_REACTORS
330
1A
102
}
330
1A
100
AcDbPlotSettings
  1

  2
C:\Documents and Settings\basas\Application Data\Autodesk\AutoCAD 2005\R16.1\enu\plotters\Default Windows System Printer.pc3
  4

  6

 40
0.0
 41
0.0
 42
0.0
 43
0.0
 44
0.0
 45
0.0
 46
0.0
 47
0.0
 48
0.0
 49
0.0
140
0.0
141
0.0
142
1.0
143
1.0
 70
   688
 72
     0
 73
     0
 74
     5
  7

 75
    16
147
1.0
148
0.0
149
0.0
100
AcDbLayout
  1
Layout2
 70
     1
 71
     2
 10
0.0
 20
0.0
 11
12.0
 21
9.0
 12
0.0
 22
0.0
 32
0.0
 14
0.0
 24
0.0
 34
0.0
 15
0.0
 25
0.0
 35
0.0
146
0.0
 13
0.0
 23
0.0
 33
0.0
 16
1.0
 26
0.0
 36
0.0
 17
0.0
 27
1.0
 37
0.0
 76
     0
330
D6
  0
LAYOUT
  5
22
102
{ACAD_XDICTIONARY
360
A4E
102
}
102
{ACAD_REACTORS
330
1A
102
}
330
1A
100
AcDbPlotSettings
  1

  2
none_device
  4
ISO_A4_(210.00_x_297.00_MM)
  6

 40
7.5
 41
20.0
 42
7.5
 43
20.0
 44
210.0
 45
297.0
 46
11.54999923706054
 47
-13.65000009536743
 48
0.0
 49
0.0
140
0.0
141
0.0
142
1.0
143
8.704084754739808
 70
 11952
 72
     1
 73
     0
 74
     0
  7

 75
     0
147
0.1148885871608098
148
0.0
149
0.0
100
AcDbLayout
  1
Model
 70
     1
 71
     0
 10
0.0
 20
0.0
 11
12.0
 21
9.0
 12
0.0
 22
0.0
 32
0.0
 14
0.0
 24
0.0
 34
0.0
 15
0.0
 25
0.0
 35
0.0
146
0.0
 13
0.0
 23
0.0
 33
0.0
 16
1.0
 26
0.0
 36
0.0
 17
0.0
 27
1.0
 37
0.0
 76
     0
330
1F
331
EA
1001
ACAD_PSEXT
1000
None
1000
None
1000
Not applicable
1000
The layout will not be plotted unless a new plotter configuration name is selected.
1070
     0
  0
MATERIAL
  5
ED
102
{ACAD_XDICTIONARY
360
A57
102
}
102
{ACAD_REACTORS
330
6A
102
}
330
6A
100
AcDbMaterial
  1
ByBlock
  0
MATERIAL
  5
EC
102
{ACAD_XDICTIONARY
360
A55
102
}
102
{ACAD_REACTORS
330
6A
102
}
330
6A
100
AcDbMaterial
  1
ByLayer
  0
MATERIAL
  5
EE
102
{ACAD_XDICTIONARY
360
173
102
}
102
{ACAD_REACTORS
330
6A
102
}
330
6A
100
AcDbMaterial
  1
Global
 43
0.0007999999797903
 43
0.0
 43
0.0
 43
0.0
 43
0.0
 43
0.0007999999797903
 43
0.0
 43
0.0
 43
0.0
 43
0.0
 43
1.0
 43
0.0
 43
0.0
 43
0.0
 43
0.0
 43
1.0
 49
0.0007999999797903
 49
0.0
 49
0.0
 49
0.0
 49
0.0
 49
0.0007999999797903
 49
0.0
 49
0.0
 49
0.0
 49
0.0
 49
1.0
 49
0.0
 49
0.0
 49
0.0
 49
0.0
 49
1.0
142
0.0007999999797903
142
0.0
142
0.0
142
0.0
142
0.0
142
0.0007999999797903
142
0.0
142
0.0
142
0.0
142
0.0
142
1.0
142
0.0
142
0.0
142
0.0
142
0.0
142
1.0
144
0.0007999999797903
144
0.0
144
0.0
144
0.0
144
0.0
144
0.0007999999797903
144
0.0
144
0.0
144
0.0
144
0.0
144
1.0
144
0.0
144
0.0
144
0.0
144
0.0
144
1.0
1001
ACAD
1070
    -1
1070
     3
1070
     0
1000

1071
        0
1070
     0
  0
MLEADERSTYLE
  5
13B
102
{ACAD_REACTORS
330
12D
102
}
330
12D
100
AcDbMLeaderStyle
170
     2
171
     1
172
     0
 90
        2
 40
0.0
 41
0.0
173
     1
 91
-1056964608
340
14
 92
       -2
290
     1
 42
2.0
291
     1
 43
8.0
  3
Standard
 44
4.0
300

342
11
174
     1
178
     1
175
     1
176
     0
 93
-1056964608
 45
4.0
292
     0
297
     0
 46
4.0
 94
-1056964608
 47
1.0
 49
1.0
140
1.0
293
     1
141
0.0
294
     1
177
     0
142
1.0
295
     0
296
     1
143
3.75
1001
ACAD_MLEADERVER
1070
     2
  0
MLEADERSTYLE
  5
12E
102
{ACAD_REACTORS
330
12D
102
}
330
12D
100
AcDbMLeaderStyle
170
     2
171
     1
172
     0
 90
        2
 40
0.0
 41
0.0
173
     1
 91
-1056964608
340
14
 92
       -2
290
     1
 42
2.0
291
     1
 43
8.0
  3
Standard
 44
4.0
300

342
11
174
     1
178
     1
175
     1
176
     0
 93
-1056964608
 45
4.0
292
     0
297
     0
 46
4.0
 94
-1056964608
 47
1.0
 49
1.0
140
1.0
293
     1
141
0.0
294
     1
177
     0
142
1.0
295
     0
296
     0
143
3.75
1001
ACAD_MLEADERVER
1070
     2
  0
MLINESTYLE
  5
18
102
{ACAD_REACTORS
330
17
102
}
330
17
100
AcDbMlineStyle
  2
STANDARD
 70
     0
  3

 62
   256
 51
90.0
 52
90.0
 71
     2
 49
0.5
 62
   256
  6
BYLAYER
 49
-0.5
 62
   256
  6
BYLAYER
  0
ACDBPLACEHOLDER
  5
F
102
{ACAD_REACTORS
330
E
102
}
330
E
  0
SCALE
  5
10D
102
{ACAD_REACTORS
330
10C
102
}
330
10C
100
AcDbScale
 70
     0
300
1:1
140
1.0
141
1.0
290
     1
  0
SCALE
  5
188
102
{ACAD_REACTORS
330
10C
102
}
330
10C
100
AcDbScale
 70
     0
300
1:2
140
1.0
141
2.0
290
     0
  0
SCALE
  5
189
102
{ACAD_REACTORS
330
10C
102
}
330
10C
100
AcDbScale
 70
     0
300
1:4
140
1.0
141
4.0
290
     0
  0
SCALE
  5
18A
102
{ACAD_REACTORS
330
10C
102
}
330
10C
100
AcDbScale
 70
     0
300
1:5
140
1.0
141
5.0
290
     0
  0
SCALE
  5
18B
102
{ACAD_REACTORS
330
10C
102
}
330
10C
100
AcDbScale
 70
     0
300
1:8
140
1.0
141
8.0
290
     0
  0
SCALE
  5
18C
102
{ACAD_REACTORS
330
10C
102
}
330
10C
100
AcDbScale
 70
     0
300
1:10
140
1.0
141
10.0
290
     0
  0
SCALE
  5
18D
102
{ACAD_REACTORS
330
10C
102
}
330
10C
100
AcDbScale
 70
     0
300
1:16
140
1.0
141
16.0
290
     0
  0
SCALE
  5
18E
102
{ACAD_REACTORS
330
10C
102
}
330
10C
100
AcDbScale
 70
     0
300
1:20
140
1.0
141
20.0
290
     0
  0
SCALE
  5
18F
102
{ACAD_REACTORS
330
10C
102
}
330
10C
100
AcDbScale
 70
     0
300
1:30
140
1.0
141
30.0
290
     0
  0
SCALE
  5
190
102
{ACAD_REACTORS
330
10C
102
}
330
10C
100
AcDbScale
 70
     0
300
1:40
140
1.0
141
40.0
290
     0
  0
SCALE
  5
191
102
{ACAD_REACTORS
330
10C
102
}
330
10C
100
AcDbScale
 70
     0
300
1:50
140
1.0
141
50.0
290
     0
  0
SCALE
  5
192
102
{ACAD_REACTORS
330
10C
102
}
330
10C
100
AcDbScale
 70
     0
300
1:100
140
1.0
141
100.0
290
     0
  0
SCALE
  5
193
102
{ACAD_REACTORS
330
10C
102
}
330
10C
100
AcDbScale
 70
     0
300
2:1
140
2.0
141
1.0
290
     0
  0
SCALE
  5
194
102
{ACAD_REACTORS
330
10C
102
}
330
10C
100
AcDbScale
 70
     0
300
4:1
140
4.0
141
1.0
290
     0
  0
SCALE
  5
195
102
{ACAD_REACTORS
330
10C
102
}
330
10C
100
AcDbScale
 70
     0
300
8:1
140
8.0
141
1.0
290
     0
  0
SCALE
  5
196
102
{ACAD_REACTORS
330
10C
102
}
330
10C
100
AcDbScale
 70
     0
300
10:1
140
10.0
141
1.0
290
     0
  0
SCALE
  5
197
102
{ACAD_REACTORS
330
10C
102
}
330
10C
100
AcDbScale
 70
     0
300
100:1
140
100.0
141
1.0
290
     0
  0
SCALE
  5
198
102
{ACAD_REACTORS
330
10C
102
}
330
10C
100
AcDbScale
 70
     0
300
1/128" = 1'-0"
140
0.0078125
141
12.0
290
     0
  0
SCALE
  5
199
102
{ACAD_REACTORS
330
10C
102
}
330
10C
100
AcDbScale
 70
     0
300
1/64" = 1'-0"
140
0.015625
141
12.0
290
     0
  0
SCALE
  5
19A
102
{ACAD_REACTORS
330
10C
102
}
330
10C
100
AcDbScale
 70
     0
300
1/32" = 1'-0"
140
0.03125
141
12.0
290
     0
  0
SCALE
  5
19B
102
{ACAD_REACTORS
330
10C
102
}
330
10C
100
AcDbScale
 70
     0
300
1/16" = 1'-0"
140
0.0625
141
12.0
290
     0
  0
SCALE
  5
19C
102
{ACAD_REACTORS
330
10C
102
}
330
10C
100
AcDbScale
 70
     0
300
3/32" = 1'-0"
140
0.09375
141
12.0
290
     0
  0
SCALE
  5
19D
102
{ACAD_REACTORS
330
10C
102
}
330
10C
100
AcDbScale
 70
     0
300
1/8" = 1'-0"
140
0.125
141
12.0
290
     0
  0
SCALE
  5
19E
102
{ACAD_REACTORS
330
10C
102
}
330
10C
100
AcDbScale
 70
     0
300
3/16" = 1'-0"
140
0.1875
141
12.0
290
     0
  0
SCALE
  5
19F
102
{ACAD_REACTORS
330
10C
102
}
330
10C
100
AcDbScale
 70
     0
300
1/4" = 1'-0"
140
0.25
141
12.0
290
     0
  0
SCALE
  5
1A0
102
{ACAD_REACTORS
330
10C
102
}
330
10C
100
AcDbScale
 70
     0
300
3/8" = 1'-0"
140
0.375
141
12.0
290
     0
  0
SCALE
  5
1A1
102
{ACAD_REACTORS
330
10C
102
}
330
10C
100
AcDbScale
 70
     0
300
1/2" = 1'-0"
140
0.5
141
12.0
290
     0
  0
SCALE
  5
1A2
102
{ACAD_REACTORS
330
10C
102
}
330
10C
100
AcDbScale
 70
     0
300
3/4" = 1'-0"
140
0.75
141
12.0
290
     0
  0
SCALE
  5
1A3
102
{ACAD_REACTORS
330
10C
102
}
330
10C
100
AcDbScale
 70
     0
300
1" = 1'-0"
140
1.0
141
12.0
290
     0
  0
SCALE
  5
1A4
102
{ACAD_REACTORS
330
10C
102
}
330
10C
100
AcDbScale
 70
     0
300
1-1/2" = 1'-0"
140
1.5
141
12.0
290
     0
  0
SCALE
  5
1A5
102
{ACAD_REACTORS
330
10C
102
}
330
10C
100
AcDbScale
 70
     0
300
3" = 1'-0"
140
3.0
141
12.0
290
     0
  0
SCALE
  5
1A6
102
{ACAD_REACTORS
330
10C
102
}
330
10C
100
AcDbScale
 70
     0
300
6" = 1'-0"
140
6.0
141
12.0
290
     0
  0
SCALE
  5
1A7
102
{ACAD_REACTORS
330
10C
102
}
330
10C
100
AcDbScale
 70
     0
300
1'-0" = 1'-0"
140
12.0
141
12.0
290
     0
  0
TABLESTYLE
  5
7F
102
{ACAD_XDICTIONARY
360
162
102
}
102
{ACAD_REACTORS
330
7E
102
}
330
7E
100
AcDbTableStyle
  3
Standard
 70
     0
 71
     0
 40
1.5
 41
1.5
280
     0
281
     0
  7
Standard
140
4.5
170
     2
 62
     0
 63
     7
283
     0
274
    -2
284
     1
 64
     0
275
    -2
285
     1
 65
     0
276
    -2
286
     1
 66
     0
277
    -2
287
     1
 67
     0
278
    -2
288
     1
 68
     0
279
    -2
289
     1
 69
     0
  7
Standard
140
6.0
170
     5
 62
     0
 63
     7
283
     0
274
    -2
284
     1
 64
     0
275
    -2
285
     1
 65
     0
276
    -2
286
     1
 66
     0
277
    -2
287
     1
 67
     0
278
    -2
288
     1
 68
     0
279
    -2
289
     1
 69
     0
  7
Standard
140
4.5
170
     5
 62
     0
 63
     7
283
     0
274
    -2
284
     1
 64
     0
275
    -2
285
     1
 65
     0
276
    -2
286
     1
 66
     0
277
    -2
287
     1
 67
     0
278
    -2
288
     1
 68
     0
279
    -2
289
     1
 69
     0
  0
VISUALSTYLE
  5
F5
102
{ACAD_REACTORS
330
EF
102
}
330
EF
100
AcDbVisualStyle
  2
2dWireframe
 70
     4
 71
     0
 72
     2
 73
     1
 90
        0
 40
-0.6
 41
-30.0
 62
     5
 63
     7
 74
     1
 91
        4
 64
     7
 65
   257
 75
     1
175
     1
 42
1.0
 92
        0
 66
   257
 43
1.0
 76
     1
 77
     6
 78
     2
 67
     7
 79
     5
170
     0
171
     0
290
     0
174
     0
 93
        1
 44
0.0
173
     0
291
     0
 45
0.0
1001
ACAD
1000
AcDbSavedByObjectVersion
1070
     0
  0
VISUALSTYLE
  5
F7
102
{ACAD_REACTORS
330
EF
102
}
330
EF
100
AcDbVisualStyle
  2
3D Hidden
 70
     6
 71
     1
 72
     2
 73
     2
 90
        0
 40
-0.6
 41
-30.0
 62
     5
 63
     7
 74
     2
 91
        2
 64
     7
 65
   257
 75
     2
175
     1
 42
40.0
 92
        0
 66
   257
 43
1.0
 76
     1
 77
     6
 78
     2
 67
     7
 79
     3
170
     0
171
     0
290
     0
174
     0
 93
        1
 44
0.0
173
     0
291
     0
 45
0.0
1001
ACAD
1000
AcDbSavedByObjectVersion
1070
     0
  0
VISUALSTYLE
  5
F6
102
{ACAD_REACTORS
330
EF
102
}
330
EF
100
AcDbVisualStyle
  2
3dWireframe
 70
     5
 71
     0
 72
     2
 73
     1
 90
        0
 40
-0.6
 41
-30.0
 62
     5
 63
     7
 74
     1
 91
        4
 64
     7
 65
   257
 75
     1
175
     1
 42
1.0
 92
        0
 66
   257
 43
1.0
 76
     1
 77
     6
 78
     2
 67
     7
 79
     5
170
     0
171
     0
290
     0
174
     0
 93
        1
 44
0.0
173
     0
291
     0
 45
0.0
1001
ACAD
1000
AcDbSavedByObjectVersion
1070
     0
  0
VISUALSTYLE
  5
F4
102
{ACAD_REACTORS
330
EF
102
}
330
EF
100
AcDbVisualStyle
  2
Basic
 70
     7
 71
     1
 72
     0
 73
     1
 90
        0
 40
-0.6
 41
-30.0
 62
     5
 63
     7
 74
     0
 91
        4
 64
     7
 65
   257
 75
     1
175
     1
 42
1.0
 92
        8
 66
     7
 43
1.0
 76
     1
 77
     6
 78
     2
 67
     7
 79
     5
170
     0
171
     0
290
     0
174
     0
 93
        1
 44
0.0
173
     0
291
     1
 45
0.0
1001
ACAD
1000
AcDbSavedByObjectVersion
1070
     0
  0
VISUALSTYLE
  5
FB
102
{ACAD_REACTORS
330
EF
102
}
330
EF
100
AcDbVisualStyle
  2
Brighten
 70
    12
 71
     2
 72
     2
 73
     1
 90
        0
 40
-0.6
 41
-30.0
 62
     5
 63
     7
 74
     1
 91
        4
 64
     7
 65
   257
 75
     1
175
     1
 42
1.0
 92
        8
 66
     7
 43
1.0
 76
     1
 77
     6
 78
     2
 67
     7
 79
     5
170
     0
171
     0
290
     0
174
     0
 93
        1
 44
50.0
173
     0
291
     1
 45
0.0
1001
ACAD
1000
AcDbSavedByObjectVersion
1070
     0
  0
VISUALSTYLE
  5
FF
102
{ACAD_REACTORS
330
EF
102
}
330
EF
100
AcDbVisualStyle
  2
ColorChange
 70
    16
 71
     2
 72
     2
 73
     3
 90
        0
 40
-0.6
 41
-30.0
 62
     5
 63
     8
 74
     1
 91
        4
 64
     7
 65
   257
 75
     1
175
     1
 42
1.0
 92
        8
 66
     8
 43
1.0
 76
     1
 77
     6
 78
     2
 67
     7
 79
     5
170
     0
171
     0
290
     0
174
     0
 93
        1
 44
0.0
173
     0
291
     1
 45
0.0
1001
ACAD
1000
AcDbSavedByObjectVersion
1070
     0
  0
VISUALSTYLE
  5
F8
102
{ACAD_REACTORS
330
EF
102
}
330
EF
100
AcDbVisualStyle
  2
Conceptual
 70
     9
 71
     3
 72
     2
 73
     1
 90
        0
 40
-0.6
 41
-30.0
 62
     5
 63
     7
 74
     2
 91
        2
 64
     7
 65
   257
 75
     1
175
     1
 42
40.0
 92
        8
 66
     7
 43
1.0
 76
     1
 77
     6
 78
     2
 67
     7
 79
     3
170
     0
171
     0
290
     0
174
     0
 93
        1
 44
0.0
173
     0
291
     0
 45
0.0
1001
ACAD
1000
AcDbSavedByObjectVersion
1070
     0
  0
VISUALSTYLE
  5
FA
102
{ACAD_REACTORS
330
EF
102
}
330
EF
100
AcDbVisualStyle
  2
Dim
 70
    11
 71
     2
 72
     2
 73
     1
 90
        0
 40
-0.6
 41
-30.0
 62
     5
 63
     7
 74
     1
 91
        4
 64
     7
 65
   257
 75
     1
175
     1
 42
1.0
 92
        8
 66
     7
 43
1.0
 76
     1
 77
     6
 78
     2
 67
     7
 79
     5
170
     0
171
     0
290
     0
174
     0
 93
        1
 44
-50.0
173
     0
291
     1
 45
0.0
1001
ACAD
1000
AcDbSavedByObjectVersion
1070
     0
  0
VISUALSTYLE
  5
FE
102
{ACAD_REACTORS
330
EF
102
}
330
EF
100
AcDbVisualStyle
  2
Facepattern
 70
    15
 71
     2
 72
     2
 73
     1
 90
        0
 40
-0.6
 41
-30.0
 62
     5
 63
     7
 74
     1
 91
        4
 64
     7
 65
   257
 75
     1
175
     1
 42
1.0
 92
        8
 66
     7
 43
1.0
 76
     1
 77
     6
 78
     2
 67
     7
 79
     5
170
     0
171
     0
290
     0
174
     0
 93
        1
 44
0.0
173
     0
291
     1
 45
0.0
1001
ACAD
1000
AcDbSavedByObjectVersion
1070
     0
  0
VISUALSTYLE
  5
F0
102
{ACAD_REACTORS
330
EF
102
}
330
EF
100
AcDbVisualStyle
  2
Flat
 70
     0
 71
     2
 72
     1
 73
     1
 90
        2
 40
-0.6
 41
30.0
 62
     5
 63
     7
 74
     0
 91
        4
 64
     7
 65
   257
 75
     1
175
     1
 42
1.0
 92
        8
 66
     7
 43
1.0
 76
     1
 77
     6
 78
     2
 67
     7
 79
     5
170
     0
171
     0
290
     0
174
     0
 93
        1
 44
0.0
173
     0
291
     1
 45
0.0
1001
ACAD
1000
AcDbSavedByObjectVersion
1070
     0
  0
VISUALSTYLE
  5
F1
102
{ACAD_REACTORS
330
EF
102
}
330
EF
100
AcDbVisualStyle
  2
FlatWithEdges
 70
     1
 71
     2
 72
     1
 73
     1
 90
        2
 40
-0.6
 41
30.0
 62
     5
 63
     7
 74
     1
 91
        4
 64
     7
 65
   257
 75
     1
175
     1
 42
1.0
 92
        0
 66
   257
 43
1.0
 76
     1
 77
     6
 78
     2
 67
     7
 79
     5
170
     0
171
     0
290
     0
174
     0
 93
        1
 44
0.0
173
     0
291
     1
 45
0.0
1001
ACAD
1000
AcDbSavedByObjectVersion
1070
     0
  0
VISUALSTYLE
  5
F2
102
{ACAD_REACTORS
330
EF
102
}
330
EF
100
AcDbVisualStyle
  2
Gouraud
 70
     2
 71
     2
 72
     2
 73
     1
 90
        2
 40
-0.6
 41
30.0
 62
     5
 63
     7
 74
     0
 91
        4
 64
     7
 65
   257
 75
     1
175
     1
 42
1.0
 92
        0
 66
     7
 43
1.0
 76
     1
 77
     6
 78
     2
 67
     7
 79
     5
170
     0
171
     0
290
     0
174
     0
 93
        1
 44
0.0
173
     0
291
     1
 45
0.0
1001
ACAD
1000
AcDbSavedByObjectVersion
1070
     0
  0
VISUALSTYLE
  5
F3
102
{ACAD_REACTORS
330
EF
102
}
330
EF
100
AcDbVisualStyle
  2
GouraudWithEdges
 70
     3
 71
     2
 72
     2
 73
     1
 90
        2
 40
-0.6
 41
30.0
 62
     5
 63
     7
 74
     1
 91
        4
 64
     7
 65
   257
 75
     1
175
     1
 42
1.0
 92
        0
 66
   257
 43
1.0
 76
     1
 77
     6
 78
     2
 67
     7
 79
     5
170
     0
171
     0
290
     0
174
     0
 93
        1
 44
0.0
173
     0
291
     1
 45
0.0
1001
ACAD
1000
AcDbSavedByObjectVersion
1070
     0
  0
VISUALSTYLE
  5
FD
102
{ACAD_REACTORS
330
EF
102
}
330
EF
100
AcDbVisualStyle
  2
Linepattern
 70
    14
 71
     2
 72
     2
 73
     1
 90
        0
 40
-0.6
 41
-30.0
 62
     5
 63
     7
 74
     1
 91
        4
 64
     7
 65
   257
 75
     7
175
     7
 42
1.0
 92
        8
 66
     7
 43
1.0
 76
     1
 77
     6
 78
     2
 67
     7
 79
     5
170
     0
171
     0
290
     0
174
     0
 93
        1
 44
0.0
173
     0
291
     1
 45
0.0
1001
ACAD
1000
AcDbSavedByObjectVersion
1070
     0
  0
VISUALSTYLE
  5
F9
102
{ACAD_REACTORS
330
EF
102
}
330
EF
100
AcDbVisualStyle
  2
Realistic
 70
     8
 71
     2
 72
     2
 73
     1
 90
        0
 40
-0.6
 41
-30.0
 62
     5
 63
     7
 74
     1
 91
        0
 64
     7
 65
   257
 75
     1
175
     1
 42
1.0
 92
        8
 66
     8
 43
1.0
 76
     1
 77
     6
 78
     2
 67
     7
 79
     5
170
     0
171
     0
290
     0
174
     0
 93
       13
 44
0.0
173
     0
291
     0
 45
0.0
1001
ACAD
1000
AcDbSavedByObjectVersion
1070
     0
  0
VISUALSTYLE
  5
FC
102
{ACAD_REACTORS
330
EF
102
}
330
EF
100
AcDbVisualStyle
  2
Thicken
 70
    13
 71
     2
 72
     2
 73
     1
 90
        0
 40
-0.6
 41
-30.0
 62
     5
 63
     7
 74
     1
 91
        4
 64
     7
 65
   257
 75
     1
175
     1
 42
1.0
 92
       12
 66
     7
 43
1.0
 76
     1
 77
     6
 78
     2
 67
     7
 79
     5
170
     0
171
     0
290
     0
174
     0
 93
        1
 44
0.0
173
     0
291
     1
 45
0.0
1001
ACAD
1000
AcDbSavedByObjectVersion
1070
     0
  0
DICTIONARYVAR
  5
146
102
{ACAD_REACTORS
330
5E
102
}
330
5E
100
DictionaryVariables
280
     0
  1
1:1
  0
DICTIONARYVAR
  5
145
102
{ACAD_REACTORS
330
5E
102
}
330
5E
100
DictionaryVariables
280
     0
  1
STANDARD
  0
DICTIONARYVAR
  5
84
102
{ACAD_REACTORS
330
5E
102
}
330
5E
100
DictionaryVariables
280
     0
  1
STANDARD
  0
DICTIONARYVAR
  5
5F
102
{ACAD_REACTORS
330
5E
102
}
330
5E
100
DictionaryVariables
280
     0
  1
2
  0
DICTIONARYVAR
  5
63
102
{ACAD_REACTORS
330
5E
102
}
330
5E
100
DictionaryVariables
280
     0
  1
1
  0
DICTIONARYVAR
  5
A49
102
{ACAD_REACTORS
330
5E
102
}
330
5E
100
DictionaryVariables
280
     0
  1
0
  0
DICTIONARYVAR
  5
A47
102
{ACAD_REACTORS
330
5E
102
}
330
5E
100
DictionaryVariables
280
     0
  1
2
  0
DICTIONARYVAR
  5
A46
102
{ACAD_REACTORS
330
5E
102
}
330
5E
100
DictionaryVariables
280
     0
  1
1
  0
DICTIONARYVAR
  5
A4B
102
{ACAD_REACTORS
330
5E
102
}
330
5E
100
DictionaryVariables
280
     0
  1
80.000000
  0
DICTIONARYVAR
  5
A4A
102
{ACAD_REACTORS
330
5E
102
}
330
5E
100
DictionaryVariables
280
     0
  1
5.000000
  0
DICTIONARYVAR
  5
A48
102
{ACAD_REACTORS
330
5E
102
}
330
5E
100
DictionaryVariables
280
     0
  1
127
  0
DICTIONARY
  5
A51
330
D3
100
AcDbDictionary
280
     1
281
     1
  3
ACAD_XREC_ROUNDTRIP
360
A52
  0
DICTIONARY
  5
A53
330
D7
100
AcDbDictionary
280
     1
281
     1
  3
ACAD_XREC_ROUNDTRIP
360
A54
  0
DICTIONARY
  5
A4E
330
22
100
AcDbDictionary
280
     1
281
     1
  3
ACAD_XREC_ROUNDTRIP
360
A4F
  0
DICTIONARY
  5
A57
330
ED
100
AcDbDictionary
280
     1
281
     1
  3
ACAD_XREC_ROUNDTRIP
360
A58
  0
DICTIONARY
  5
A55
330
EC
100
AcDbDictionary
280
     1
281
     1
  3
ACAD_XREC_ROUNDTRIP
360
A56
  0
DICTIONARY
  5
173
330
EE
100
AcDbDictionary
280
     1
281
     1
  3
ACAD_XREC_ROUNDTRIP
360
A59
  3
BUMPTILE
360
175
  3
DIFFUSETILE
360
174
  3
OPACITYTILE
360
176
  3
REFLECTIONTILE
360
177
  0
DICTIONARY
  5
162
330
7F
100
AcDbDictionary
280
     1
281
     1
  3
ACAD_ROUNDTRIP_2008_TABLESTYLE_CELLSTYLEMAP
360
A4C
  3
ACAD_XREC_ROUNDTRIP
360
A50
  0
XRECORD
  5
A52
102
{ACAD_REACTORS
330
A51
102
}
330
A51
100
AcDbXrecord
280
     1
102
SHADEPLOT
 70
     0
102
SHADEPLOTRESLEVEL
 70
     2
102
SHADEPLOTCUSTOMDPI
 70
   300
  0
XRECORD
  5
A54
102
{ACAD_REACTORS
330
A53
102
}
330
A53
100
AcDbXrecord
280
     1
102
SHADEPLOT
 70
     0
102
SHADEPLOTRESLEVEL
 70
     2
102
SHADEPLOTCUSTOMDPI
 70
   300
  0
XRECORD
  5
A4F
102
{ACAD_REACTORS
330
A4E
102
}
330
A4E
100
AcDbXrecord
280
     1
102
SHADEPLOT
 70
     0
102
SHADEPLOTRESLEVEL
 70
     2
102
SHADEPLOTCUSTOMDPI
 70
   300
  0
XRECORD
  5
A58
102
{ACAD_REACTORS
330
A57
102
}
330
A57
100
AcDbXrecord
280
     1
102
MATERIAL
148
0.0
149
0.0
149
0.0
 93
        0
 94
       63
282
     0
 72
     1
 77
     1
171
     1
175
     1
179
     1
273
     0
  0
XRECORD
  5
A56
102
{ACAD_REACTORS
330
A55
102
}
330
A55
100
AcDbXrecord
280
     1
102
MATERIAL
148
0.0
149
0.0
149
0.0
 93
        0
 94
       63
282
     0
 72
     1
 77
     1
171
     1
175
     1
179
     1
273
     0
  0
XRECORD
  5
A59
102
{ACAD_REACTORS
330
173
102
}
330
173
100
AcDbXrecord
280
     1
102
MATERIAL
148
0.0
149
0.0
149
0.0
 93
        0
 94
       63
282
     0
 72
     1
 77
     1
171
     1
175
     1
179
     1
273
     0
  0
XRECORD
  5
175
102
{ACAD_REACTORS
330
173
102
}
330
173
100
AcDbXrecord
280
     1
270
     1
271
     1
  0
XRECORD
  5
174
102
{ACAD_REACTORS
330
173
102
}
330
173
100
AcDbXrecord
280
     1
270
     1
271
     1
  0
XRECORD
  5
176
102
{ACAD_REACTORS
330
173
102
}
330
173
100
AcDbXrecord
280
     1
270
     1
271
     1
  0
XRECORD
  5
177
102
{ACAD_REACTORS
330
173
102
}
330
173
100
AcDbXrecord
280
     1
270
     1
271
     1
  0
CELLSTYLEMAP
  5
A4C
102
{ACAD_REACTORS
330
162
102
}
330
162
100
AcDbCellStyleMap
 90
        3
300
CELLSTYLE
  1
TABLEFORMAT_BEGIN
 90
        5
170
     1
 91
        0
 92
    32768
 62
   257
 93
        1
300
CONTENTFORMAT
  1
CONTENTFORMAT_BEGIN
 90
        0
 91
        0
 92
      512
 93
        0
300

 40
0.0
140
1.0
 94
        5
 62
     0
340
11
144
6.0
309
CONTENTFORMAT_END
171
     1
301
MARGIN
  1
CELLMARGIN_BEGIN
 40
1.5
 40
1.5
 40
1.5
 40
1.5
 40
4.5
 40
4.5
309
CELLMARGIN_END
 94
        6
 95
        1
302
GRIDFORMAT
  1
GRIDFORMAT_BEGIN
 90
        0
 91
        1
 62
     0
 92
       -2
340
14
 93
        0
 40
1.125
309
GRIDFORMAT_END
 95
        2
302
GRIDFORMAT
  1
GRIDFORMAT_BEGIN
 90
        0
 91
        1
 62
     0
 92
       -2
340
14
 93
        0
 40
1.125
309
GRIDFORMAT_END
 95
        4
302
GRIDFORMAT
  1
GRIDFORMAT_BEGIN
 90
        0
 91
        1
 62
     0
 92
       -2
340
14
 93
        0
 40
1.125
309
GRIDFORMAT_END
 95
        8
302
GRIDFORMAT
  1
GRIDFORMAT_BEGIN
 90
        0
 91
        1
 62
     0
 92
       -2
340
14
 93
        0
 40
1.125
309
GRIDFORMAT_END
 95
       16
302
GRIDFORMAT
  1
GRIDFORMAT_BEGIN
 90
        0
 91
        1
 62
     0
 92
       -2
340
14
 93
        0
 40
1.125
309
GRIDFORMAT_END
 95
       32
302
GRIDFORMAT
  1
GRIDFORMAT_BEGIN
 90
        0
 91
        1
 62
     0
 92
       -2
340
14
 93
        0
 40
1.125
309
GRIDFORMAT_END
309
TABLEFORMAT_END
  1
CELLSTYLE_BEGIN
 90
        1
 91
        1
300
_TITLE
309
CELLSTYLE_END
300
CELLSTYLE
  1
TABLEFORMAT_BEGIN
 90
        5
170
     1
 91
        0
 92
        0
 62
   257
 93
        1
300
CONTENTFORMAT
  1
CONTENTFORMAT_BEGIN
 90
        0
 91
        0
 92
      512
 93
        0
300

 40
0.0
140
1.0
 94
        5
 62
     0
340
11
144
4.5
309
CONTENTFORMAT_END
171
     1
301
MARGIN
  1
CELLMARGIN_BEGIN
 40
1.5
 40
1.5
 40
1.5
 40
1.5
 40
4.5
 40
4.5
309
CELLMARGIN_END
 94
        6
 95
        1
302
GRIDFORMAT
  1
GRIDFORMAT_BEGIN
 90
        0
 91
        1
 62
     0
 92
       -2
340
14
 93
        0
 40
1.125
309
GRIDFORMAT_END
 95
        2
302
GRIDFORMAT
  1
GRIDFORMAT_BEGIN
 90
        0
 91
        1
 62
     0
 92
       -2
340
14
 93
        0
 40
1.125
309
GRIDFORMAT_END
 95
        4
302
GRIDFORMAT
  1
GRIDFORMAT_BEGIN
 90
        0
 91
        1
 62
     0
 92
       -2
340
14
 93
        0
 40
1.125
309
GRIDFORMAT_END
 95
        8
302
GRIDFORMAT
  1
GRIDFORMAT_BEGIN
 90
        0
 91
        1
 62
     0
 92
       -2
340
14
 93
        0
 40
1.125
309
GRIDFORMAT_END
 95
       16
302
GRIDFORMAT
  1
GRIDFORMAT_BEGIN
 90
        0
 91
        1
 62
     0
 92
       -2
340
14
 93
        0
 40
1.125
309
GRIDFORMAT_END
 95
       32
302
GRIDFORMAT
  1
GRIDFORMAT_BEGIN
 90
        0
 91
        1
 62
     0
 92
       -2
340
14
 93
        0
 40
1.125
309
GRIDFORMAT_END
309
TABLEFORMAT_END
  1
CELLSTYLE_BEGIN
 90
        2
 91
        1
300
_HEADER
309
CELLSTYLE_END
300
CELLSTYLE
  1
TABLEFORMAT_BEGIN
 90
        5
170
     1
 91
        0
 92
        0
 62
   257
 93
        1
300
CONTENTFORMAT
  1
CONTENTFORMAT_BEGIN
 90
        0
 91
        0
 92
      512
 93
        0
300

 40
0.0
140
1.0
 94
        2
 62
     0
340
11
144
4.5
309
CONTENTFORMAT_END
171
     1
301
MARGIN
  1
CELLMARGIN_BEGIN
 40
1.5
 40
1.5
 40
1.5
 40
1.5
 40
4.5
 40
4.5
309
CELLMARGIN_END
 94
        6
 95
        1
302
GRIDFORMAT
  1
GRIDFORMAT_BEGIN
 90
        0
 91
        1
 62
     0
 92
       -2
340
14
 93
        0
 40
1.125
309
GRIDFORMAT_END
 95
        2
302
GRIDFORMAT
  1
GRIDFORMAT_BEGIN
 90
        0
 91
        1
 62
     0
 92
       -2
340
14
 93
        0
 40
1.125
309
GRIDFORMAT_END
 95
        4
302
GRIDFORMAT
  1
GRIDFORMAT_BEGIN
 90
        0
 91
        1
 62
     0
 92
       -2
340
14
 93
        0
 40
1.125
309
GRIDFORMAT_END
 95
        8
302
GRIDFORMAT
  1
GRIDFORMAT_BEGIN
 90
        0
 91
        1
 62
     0
 92
       -2
340
14
 93
        0
 40
1.125
309
GRIDFORMAT_END
 95
       16
302
GRIDFORMAT
  1
GRIDFORMAT_BEGIN
 90
        0
 91
        1
 62
     0
 92
       -2
340
14
 93
        0
 40
1.125
309
GRIDFORMAT_END
 95
       32
302
GRIDFORMAT
  1
GRIDFORMAT_BEGIN
 90
        0
 91
        1
 62
     0
 92
       -2
340
14
 93
        0
 40
1.125
309
GRIDFORMAT_END
309
TABLEFORMAT_END
  1
CELLSTYLE_BEGIN
 90
        3
 91
        2
300
_DATA
309
CELLSTYLE_END
  0
XRECORD
  5
A50
102
{ACAD_REACTORS
330
162
102
}
330
162
100
AcDbXrecord
280
     1
102
ACAD_ROUNDTRIP_PRE2007_TABLESTYLE
 90
      512
 91
        0
  1

 92
      512
 93
        0
  2

 94
      512
 95
        0
  3

  0
ENDSEC
  0
EOF
