  0
SECTION
  2
HEADER
  9
$ACADVER
  1
AC1015
  9
$ACADMAINTVER
 70
    20
  9
$DWGCODEPAGE
  3
ANSI_1254
  9
$INSBASE
 10
0.0
 20
0.0
 30
0.0
  9
$EXTMIN
 10
2069.869195241335
 20
863.4067227417917
 30
0.0
  9
$EXTMAX
 10
2299.757029293674
 20
921.0306742378245
 30
0.0
  9
$LIMMIN
 10
0.0
 20
0.0
  9
$LIMMAX
 10
420.0
 20
297.0
  9
$ORTHOMODE
 70
     0
  9
$REGENMODE
 70
     1
  9
$FILLMODE
 70
     1
  9
$QTEXTMODE
 70
     0
  9
$MIRRTEXT
 70
     0
  9
$LTSCALE
 40
1.0
  9
$ATTMODE
 70
     1
  9
$TEXTSIZE
 40
2.5
  9
$TRACEWID
 40
1.0
  9
$TEXTSTYLE
  7
Standard
  9
$CLAYER
  8
0
  9
$CELTYPE
  6
ByLayer
  9
$CECOLOR
 62
   256
  9
$CELTSCALE
 40
1.0
  9
$DISPSILH
 70
     0
  9
$DIMSCALE
 40
1.0
  9
$DIMASZ
 40
2.5
  9
$DIMEXO
 40
0.625
  9
$DIMDLI
 40
3.75
  9
$DIMRND
 40
0.0
  9
$DIMDLE
 40
0.0
  9
$DIMEXE
 40
1.25
  9
$DIMTP
 40
0.0
  9
$DIMTM
 40
0.0
  9
$DIMTXT
 40
2.5
  9
$DIMCEN
 40
2.5
  9
$DIMTSZ
 40
0.0
  9
$DIMTOL
 70
     0
  9
$DIMLIM
 70
     0
  9
$DIMTIH
 70
     0
  9
$DIMTOH
 70
     0
  9
$DIMSE1
 70
     0
  9
$DIMSE2
 70
     0
  9
$DIMTAD
 70
     1
  9
$DIMZIN
 70
     8
  9
$DIMBLK
  1

  9
$DIMASO
 70
     1
  9
$DIMSHO
 70
     1
  9
$DIMPOST
  1

  9
$DIMAPOST
  1

  9
$DIMALT
 70
     0
  9
$DIMALTD
 70
     3
  9
$DIMALTF
 40
0.03937007874016
  9
$DIMLFAC
 40
1.0
  9
$DIMTOFL
 70
     1
  9
$DIMTVP
 40
0.0
  9
$DIMTIX
 70
     0
  9
$DIMSOXD
 70
     0
  9
$DIMSAH
 70
     0
  9
$DIMBLK1
  1

  9
$DIMBLK2
  1

  9
$DIMSTYLE
  2
ISO-25
  9
$DIMCLRD
 70
     0
  9
$DIMCLRE
 70
     0
  9
$DIMCLRT
 70
     0
  9
$DIMTFAC
 40
1.0
  9
$DIMGAP
 40
0.625
  9
$DIMJUST
 70
     0
  9
$DIMSD1
 70
     0
  9
$DIMSD2
 70
     0
  9
$DIMTOLJ
 70
     0
  9
$DIMTZIN
 70
     8
  9
$DIMALTZ
 70
     0
  9
$DIMALTTZ
 70
     0
  9
$DIMUPT
 70
     0
  9
$DIMDEC
 70
     2
  9
$DIMTDEC
 70
     2
  9
$DIMALTU
 70
     2
  9
$DIMALTTD
 70
     3
  9
$DIMTXSTY
  7
Standard
  9
$DIMAUNIT
 70
     0
  9
$DIMADEC
 70
     0
  9
$DIMALTRND
 40
0.0
  9
$DIMAZIN
 70
     0
  9
$DIMDSEP
 70
    44
  9
$DIMATFIT
 70
     3
  9
$DIMFRAC
 70
     0
  9
$DIMLDRBLK
  1

  9
$DIMLUNIT
 70
     2
  9
$DIMLWD
 70
    -2
  9
$DIMLWE
 70
    -2
  9
$DIMTMOVE
 70
     0
  9
$LUNITS
 70
     2
  9
$LUPREC
 70
     4
  9
$SKETCHINC
 40
1.0
  9
$FILLETRAD
 40
0.0
  9
$AUNITS
 70
     0
  9
$AUPREC
 70
     0
  9
$MENU
  1
.
  9
$ELEVATION
 40
0.0
  9
$PELEVATION
 40
0.0
  9
$THICKNESS
 40
0.0
  9
$LIMCHECK
 70
     0
  9
$CHAMFERA
 40
0.0
  9
$CHAMFERB
 40
0.0
  9
$CHAMFERC
 40
0.0
  9
$CHAMFERD
 40
0.0
  9
$SKPOLY
 70
     0
  9
$TDCREATE
 40
2458935.443688970
  9
$TDUCREATE
 40
2458935.318688970
  9
$TDUPDATE
 40
2458956.461624757
  9
$TDUUPDATE
 40
2458956.336624757
  9
$TDINDWG
 40
0.0003881366
  9
$TDUSRTIMER
 40
0.0003881366
  9
$USRTIMER
 70
     1
  9
$ANGBASE
 50
0.0
  9
$ANGDIR
 70
     0
  9
$PDMODE
 70
     0
  9
$PDSIZE
 40
0.0
  9
$PLINEWID
 40
0.0
  9
$SPLFRAME
 70
     0
  9
$SPLINETYPE
 70
     6
  9
$SPLINESEGS
 70
     8
  9
$HANDSEED
  5
A18
  9
$SURFTAB1
 70
     6
  9
$SURFTAB2
 70
     6
  9
$SURFTYPE
 70
     6
  9
$SURFU
 70
     6
  9
$SURFV
 70
     6
  9
$UCSBASE
  2

  9
$UCSNAME
  2

  9
$UCSORG
 10
0.0
 20
0.0
 30
0.0
  9
$UCSXDIR
 10
1.0
 20
0.0
 30
0.0
  9
$UCSYDIR
 10
0.0
 20
1.0
 30
0.0
  9
$UCSORTHOREF
  2

  9
$UCSORTHOVIEW
 70
     0
  9
$UCSORGTOP
 10
0.0
 20
0.0
 30
0.0
  9
$UCSORGBOTTOM
 10
0.0
 20
0.0
 30
0.0
  9
$UCSORGLEFT
 10
0.0
 20
0.0
 30
0.0
  9
$UCSORGRIGHT
 10
0.0
 20
0.0
 30
0.0
  9
$UCSORGFRONT
 10
0.0
 20
0.0
 30
0.0
  9
$UCSORGBACK
 10
0.0
 20
0.0
 30
0.0
  9
$PUCSBASE
  2

  9
$PUCSNAME
  2

  9
$PUCSORG
 10
0.0
 20
0.0
 30
0.0
  9
$PUCSXDIR
 10
1.0
 20
0.0
 30
0.0
  9
$PUCSYDIR
 10
0.0
 20
1.0
 30
0.0
  9
$PUCSORTHOREF
  2

  9
$PUCSORTHOVIEW
 70
     0
  9
$PUCSORGTOP
 10
0.0
 20
0.0
 30
0.0
  9
$PUCSORGBOTTOM
 10
0.0
 20
0.0
 30
0.0
  9
$PUCSORGLEFT
 10
0.0
 20
0.0
 30
0.0
  9
$PUCSORGRIGHT
 10
0.0
 20
0.0
 30
0.0
  9
$PUCSORGFRONT
 10
0.0
 20
0.0
 30
0.0
  9
$PUCSORGBACK
 10
0.0
 20
0.0
 30
0.0
  9
$USERI1
 70
     0
  9
$USERI2
 70
     0
  9
$USERI3
 70
     0
  9
$USERI4
 70
     0
  9
$USERI5
 70
     0
  9
$USERR1
 40
0.0
  9
$USERR2
 40
0.0
  9
$USERR3
 40
0.0
  9
$USERR4
 40
0.0
  9
$USERR5
 40
0.0
  9
$WORLDVIEW
 70
     1
  9
$SHADEDGE
 70
     3
  9
$SHADEDIF
 70
    70
  9
$TILEMODE
 70
     1
  9
$MAXACTVP
 70
    64
  9
$PINSBASE
 10
0.0
 20
0.0
 30
0.0
  9
$PLIMCHECK
 70
     0
  9
$PEXTMIN
 10
0.0
 20
0.0
 30
0.0
  9
$PEXTMAX
 10
0.0
 20
0.0
 30
0.0
  9
$PLIMMIN
 10
0.0
 20
0.0
  9
$PLIMMAX
 10
12.0
 20
9.0
  9
$UNITMODE
 70
     0
  9
$VISRETAIN
 70
     1
  9
$PLINEGEN
 70
     0
  9
$PSLTSCALE
 70
     1
  9
$TREEDEPTH
 70
  3020
  9
$CMLSTYLE
  2
Standard
  9
$CMLJUST
 70
     0
  9
$CMLSCALE
 40
20.0
  9
$PROXYGRAPHICS
 70
     1
  9
$MEASUREMENT
 70
     1
  9
$CELWEIGHT
370
    -1
  9
$ENDCAPS
280
     0
  9
$JOINSTYLE
280
     0
  9
$LWDISPLAY
290
     0
  9
$INSUNITS
 70
     4
  9
$HYPERLINKBASE
  1

  9
$STYLESHEET
  1

  9
$XEDIT
290
     1
  9
$CEPSNTYPE
380
     0
  9
$PSTYLEMODE
290
     1
  9
$FINGERPRINTGUID
  2
{5CCC2D05-90C7-4ABC-A1BC-01F3044D94B1}
  9
$VERSIONGUID
  2
{C7FDD77C-A2C5-4B77-B058-8BD7B7B21F8D}
  9
$EXTNAMES
290
     1
  9
$PSVPSCALE
 40
0.0
  9
$OLESTARTUP
290
     0
  0
ENDSEC
  0
SECTION
  2
CLASSES
  0
CLASS
  1
ACDBDICTIONARYWDFLT
  2
AcDbDictionaryWithDefault
  3
ObjectDBX Classes
 90
        0
280
     0
281
     0
  0
CLASS
  1
ACDBPLACEHOLDER
  2
AcDbPlaceHolder
  3
ObjectDBX Classes
 90
        0
280
     0
281
     0
  0
CLASS
  1
LAYOUT
  2
AcDbLayout
  3
ObjectDBX Classes
 90
        0
280
     0
281
     0
  0
CLASS
  1
DICTIONARYVAR
  2
AcDbDictionaryVar
  3
ObjectDBX Classes
 90
        0
280
     0
281
     0
  0
CLASS
  1
TABLESTYLE
  2
AcDbTableStyle
  3
ObjectDBX Classes
 90
     4095
280
     0
281
     0
  0
CLASS
  1
MATERIAL
  2
AcDbMaterial
  3
ObjectDBX Classes
 90
     1153
280
     0
281
     0
  0
CLASS
  1
VISUALSTYLE
  2
AcDbVisualStyle
  3
ObjectDBX Classes
 90
     4095
280
     0
281
     0
  0
CLASS
  1
SCALE
  2
AcDbScale
  3
ObjectDBX Classes
 90
     1153
280
     0
281
     0
  0
CLASS
  1
MLEADERSTYLE
  2
AcDbMLeaderStyle
  3
ACDB_MLEADERSTYLE_CLASS
 90
     4095
280
     0
281
     0
  0
CLASS
  1
CELLSTYLEMAP
  2
AcDbCellStyleMap
  3
ObjectDBX Classes
 90
     1152
280
     0
281
     0
  0
ENDSEC
  0
SECTION
  2
TABLES
  0
TABLE
  2
VPORT
  5
8
330
0
100
AcDbSymbolTable
 70
     1
  0
VPORT
  5
EA
330
8
100
AcDbSymbolTableRecord
100
AcDbViewportTableRecord
  2
*Active
 70
     0
 10
0.0
 20
0.0
 11
1.0
 21
1.0
 12
2256.042970926518
 22
920.0509221684269
 13
0.0
 23
0.0
 14
10.0
 24
10.0
 15
10.0
 25
10.0
 16
0.0
 26
0.0
 36
1.0
 17
0.0
 27
0.0
 37
0.0
 40
272.6116769319022
 41
1.903110047846889
 42
50.0
 43
0.0
 44
0.0
 50
0.0
 51
0.0
 71
     0
 72
  1000
 73
     1
 74
     3
 75
     0
 76
     0
 77
     0
 78
     0
281
     0
 65
     1
110
0.0
120
0.0
130
0.0
111
1.0
121
0.0
131
0.0
112
0.0
122
1.0
132
0.0
 79
     0
146
0.0
  0
ENDTAB
  0
TABLE
  2
LTYPE
  5
5
330
0
100
AcDbSymbolTable
 70
     1
  0
LTYPE
  5
14
330
5
100
AcDbSymbolTableRecord
100
AcDbLinetypeTableRecord
  2
ByBlock
 70
     0
  3

 72
    65
 73
     0
 40
0.0
  0
LTYPE
  5
15
330
5
100
AcDbSymbolTableRecord
100
AcDbLinetypeTableRecord
  2
ByLayer
 70
     0
  3

 72
    65
 73
     0
 40
0.0
  0
LTYPE
  5
16
330
5
100
AcDbSymbolTableRecord
100
AcDbLinetypeTableRecord
  2
Continuous
 70
     0
  3
Solid line
 72
    65
 73
     0
 40
0.0
  0
ENDTAB
  0
TABLE
  2
LAYER
  5
2
330
0
100
AcDbSymbolTable
 70
     1
  0
LAYER
  5
10
102
{ACAD_XDICTIONARY
360
13C
102
}
330
2
100
AcDbSymbolTableRecord
100
AcDbLayerTableRecord
  2
0
 70
     0
 62
     7
  6
Continuous
370
    -3
390
F
  0
ENDTAB
  0
TABLE
  2
STYLE
  5
3
330
0
100
AcDbSymbolTable
 70
     2
  0
STYLE
  5
11
330
3
100
AcDbSymbolTableRecord
100
AcDbTextStyleTableRecord
  2
Standard
 70
     0
 40
0.0
 41
1.0
 50
0.0
 71
     0
 42
2.5
  3
txt
  4

  0
STYLE
  5
132
330
3
100
AcDbSymbolTableRecord
100
AcDbTextStyleTableRecord
  2
Annotative
 70
     0
 40
0.0
 41
1.0
 50
0.0
 71
     0
 42
2.5
  3
txt.shx
  4

1001
AcadAnnotative
1000
AnnotativeData
1002
{
1070
     1
1070
     1
1002
}
  0
ENDTAB
  0
TABLE
  2
VIEW
  5
6
330
0
100
AcDbSymbolTable
 70
     0
  0
ENDTAB
  0
TABLE
  2
UCS
  5
7
330
0
100
AcDbSymbolTable
 70
     0
  0
ENDTAB
  0
TABLE
  2
APPID
  5
9
330
0
100
AcDbSymbolTable
 70
     7
  0
APPID
  5
12
330
9
100
AcDbSymbolTableRecord
100
AcDbRegAppTableRecord
  2
ACAD
 70
     0
  0
APPID
  5
9E
330
9
100
AcDbSymbolTableRecord
100
AcDbRegAppTableRecord
  2
ACAD_PSEXT
 70
     0
  0
APPID
  5
133
330
9
100
AcDbSymbolTableRecord
100
AcDbRegAppTableRecord
  2
AcadAnnoPO
 70
     0
  0
APPID
  5
134
330
9
100
AcDbSymbolTableRecord
100
AcDbRegAppTableRecord
  2
AcadAnnotative
 70
     0
  0
APPID
  5
135
330
9
100
AcDbSymbolTableRecord
100
AcDbRegAppTableRecord
  2
ACAD_DSTYLE_DIMJAG
 70
     0
  0
APPID
  5
136
330
9
100
AcDbSymbolTableRecord
100
AcDbRegAppTableRecord
  2
ACAD_DSTYLE_DIMTALN
 70
     0
  0
APPID
  5
165
330
9
100
AcDbSymbolTableRecord
100
AcDbRegAppTableRecord
  2
ACAD_MLEADERVER
 70
     0
  0
ENDTAB
  0
TABLE
  2
DIMSTYLE
  5
A
330
0
100
AcDbSymbolTable
 70
     2
100
AcDbDimStyleTable
 71
     2
340
27
340
137
  0
DIMSTYLE
105
27
330
A
100
AcDbSymbolTableRecord
100
AcDbDimStyleTableRecord
  2
ISO-25
 70
     0
 41
2.5
 42
0.625
 43
3.75
 44
1.25
 73
     0
 74
     0
 77
     1
 78
     8
140
2.5
141
2.5
143
0.03937007874016
147
0.625
171
     3
172
     1
271
     2
272
     2
274
     3
278
    44
283
     0
284
     8
340
11
  0
DIMSTYLE
105
137
330
A
100
AcDbSymbolTableRecord
100
AcDbDimStyleTableRecord
  2
Annotative
 70
     0
 40
0.0
 41
2.5
 42
0.625
 43
3.75
 44
1.25
 73
     0
 74
     0
 77
     1
 78
     8
140
2.5
141
2.5
143
0.03937007874016
147
0.625
171
     3
172
     1
271
     2
272
     2
274
     3
278
    44
283
     0
284
     8
340
11
1001
AcadAnnotative
1000
AnnotativeData
1002
{
1070
     1
1070
     1
1002
}
1001
ACAD_DSTYLE_DIMJAG
1070
   388
1040
1.5
1001
ACAD_DSTYLE_DIMTALN
1070
   392
1070
     0
  0
ENDTAB
  0
TABLE
  2
BLOCK_RECORD
  5
1
330
0
100
AcDbSymbolTable
 70
     5
  0
BLOCK_RECORD
  5
1F
330
1
100
AcDbSymbolTableRecord
100
AcDbBlockTableRecord
  2
*Model_Space
340
22
  0
BLOCK_RECORD
  5
D2
330
1
100
AcDbSymbolTableRecord
100
AcDbBlockTableRecord
  2
*Paper_Space
340
D3
  0
BLOCK_RECORD
  5
D6
330
1
100
AcDbSymbolTableRecord
100
AcDbBlockTableRecord
  2
*Paper_Space0
340
D7
  0
BLOCK_RECORD
  5
72F
330
1
100
AcDbSymbolTableRecord
100
AcDbBlockTableRecord
  2
1
340
0
310
2800000020000000200000000100080000000000000400000000000000000000000000000000000000000000000080000080000000808000800000008000800080800000C0C0C000C0DCC000F0CAA6000020400000206000002080000020A0000020C0000020E00000400000004020000040400000406000004080000040A0
310
000040C0000040E00000600000006020000060400000606000006080000060A0000060C0000060E00000800000008020000080400000806000008080000080A0000080C0000080E00000A0000000A0200000A0400000A0600000A0800000A0A00000A0C00000A0E00000C0000000C0200000C0400000C0600000C0800000C0
310
A00000C0C00000C0E00000E0000000E0200000E0400000E0600000E0800000E0A00000E0C00000E0E00040000000400020004000400040006000400080004000A0004000C0004000E00040200000402020004020400040206000402080004020A0004020C0004020E000404000004040200040404000404060004040800040
310
40A0004040C0004040E00040600000406020004060400040606000406080004060A0004060C0004060E00040800000408020004080400040806000408080004080A0004080C0004080E00040A0000040A0200040A0400040A0600040A0800040A0A00040A0C00040A0E00040C0000040C0200040C0400040C0600040C08000
310
40C0A00040C0C00040C0E00040E0000040E0200040E0400040E0600040E0800040E0A00040E0C00040E0E00080000000800020008000400080006000800080008000A0008000C0008000E00080200000802020008020400080206000802080008020A0008020C0008020E00080400000804020008040400080406000804080
310
008040A0008040C0008040E00080600000806020008060400080606000806080008060A0008060C0008060E00080800000808020008080400080806000808080008080A0008080C0008080E00080A0000080A0200080A0400080A0600080A0800080A0A00080A0C00080A0E00080C0000080C0200080C0400080C0600080C0
310
800080C0A00080C0C00080C0E00080E0000080E0200080E0400080E0600080E0800080E0A00080E0C00080E0E000C0000000C0002000C0004000C0006000C0008000C000A000C000C000C000E000C0200000C0202000C0204000C0206000C0208000C020A000C020C000C020E000C0400000C0402000C0404000C0406000C0
310
408000C040A000C040C000C040E000C0600000C0602000C0604000C0606000C0608000C060A000C060C000C060E000C0800000C0802000C0804000C0806000C0808000C080A000C080C000C080E000C0A00000C0A02000C0A04000C0A06000C0A08000C0A0A000C0A0C000C0A0E000C0C00000C0C02000C0C04000C0C06000
310
C0C08000C0C0A000F0FBFF00A4A0A000808080000000FF0000FF000000FFFF00FF000000FF00FF00FFFF0000FFFFFF0000000000000000000000000000000000000000000000000000000000000000000000000000000000000000000000000000000000000000000000000000000000000000000000000000000000000000
310
00000000000000000000000000000000000000000000000000000000000000000000000000000000000000000000000000000000000000000000000000000000000000000000000000000000000000000000000000000000000000000000000000000000000000000000000000000000000000000000000000000000000000
310
00000000000000000000000000000000000000000000000000000000000000000000000000000000000000000000000000000000000000000000000000000000000000000000000000000000000000000000000000000000000000000000000000000000000000000000000000000000000000000000000000000000000000
310
00000000000000000000000000000000000000000000000000000000000000000000000000000000000000000000000000000000000000000000000000000000000000000000000000000000000000000000000000FFFFFFFFFFFFFFFFFF00FFFF00FFFF00FFFF00FFFFFFFFFFFFFFFFFF00000000FF00FFFF00FFFF00FF00
310
FFFF00FFFF00FFFF00FF00FFFF00FFFF00FF00000000FF00FFFF00FFFF00FF00FFFF00FFFF00FFFF00FF00FFFF00FFFF00FF000000FFFFFFFFFFFFFFFFFFFFFFFFFFFFFFFFFFFFFFFFFFFFFFFFFFFFFFFFFFFF0000FFFFFFFFFFFFFFFFFFFFFFFFFFFFFFFFFFFFFFFFFFFFFFFFFFFFFFFFFFFF000000FFFFFFFFFFFFFFFFFF
310
FFFFFF00FFFF00FFFFFFFFFFFFFFFFFFFFFFFF000000000000000000000000000000000000000000000000000000000000000000000000000000000000000000000000000000000000000000000000000000000000000000000000000000000000000000000000000000000000000000000000000000000000000000000000
310
00000000000000000000000000000000000000000000000000000000000000000000000000000000000000000000000000000000000000000000000000000000000000000000000000000000000000000000000000000000000000000000000000000000000000000000000000000000000000000000000000000000000000
310
00000000000000000000000000000000000000000000000000000000000000000000000000000000000000000000000000000000000000000000000000000000000000000000000000000000000000000000000000000000000000000000000000000000000000000000000000000000000000000000000000000000000000
310
0000000000000000000000000000000000000000000000000000000000000000000000000000000000000000000000000000000000000000
102
{BLKREFS
331
817
102
}
1001
ACAD
1000
DesignCenter Data
1002
{
1070
     1
1070
     4
1002
}
  0
BLOCK_RECORD
  5
818
330
1
100
AcDbSymbolTableRecord
100
AcDbBlockTableRecord
  2
2
340
0
310
2800000020000000200000000100080000000000000400000000000000000000000000000000000000000000000080000080000000808000800000008000800080800000C0C0C000C0DCC000F0CAA6000020400000206000002080000020A0000020C0000020E00000400000004020000040400000406000004080000040A0
310
000040C0000040E00000600000006020000060400000606000006080000060A0000060C0000060E00000800000008020000080400000806000008080000080A0000080C0000080E00000A0000000A0200000A0400000A0600000A0800000A0A00000A0C00000A0E00000C0000000C0200000C0400000C0600000C0800000C0
310
A00000C0C00000C0E00000E0000000E0200000E0400000E0600000E0800000E0A00000E0C00000E0E00040000000400020004000400040006000400080004000A0004000C0004000E00040200000402020004020400040206000402080004020A0004020C0004020E000404000004040200040404000404060004040800040
310
40A0004040C0004040E00040600000406020004060400040606000406080004060A0004060C0004060E00040800000408020004080400040806000408080004080A0004080C0004080E00040A0000040A0200040A0400040A0600040A0800040A0A00040A0C00040A0E00040C0000040C0200040C0400040C0600040C08000
310
40C0A00040C0C00040C0E00040E0000040E0200040E0400040E0600040E0800040E0A00040E0C00040E0E00080000000800020008000400080006000800080008000A0008000C0008000E00080200000802020008020400080206000802080008020A0008020C0008020E00080400000804020008040400080406000804080
310
008040A0008040C0008040E00080600000806020008060400080606000806080008060A0008060C0008060E00080800000808020008080400080806000808080008080A0008080C0008080E00080A0000080A0200080A0400080A0600080A0800080A0A00080A0C00080A0E00080C0000080C0200080C0400080C0600080C0
310
800080C0A00080C0C00080C0E00080E0000080E0200080E0400080E0600080E0800080E0A00080E0C00080E0E000C0000000C0002000C0004000C0006000C0008000C000A000C000C000C000E000C0200000C0202000C0204000C0206000C0208000C020A000C020C000C020E000C0400000C0402000C0404000C0406000C0
310
408000C040A000C040C000C040E000C0600000C0602000C0604000C0606000C0608000C060A000C060C000C060E000C0800000C0802000C0804000C0806000C0808000C080A000C080C000C080E000C0A00000C0A02000C0A04000C0A06000C0A08000C0A0A000C0A0C000C0A0E000C0C00000C0C02000C0C04000C0C06000
310
C0C08000C0C0A000F0FBFF00A4A0A000808080000000FF0000FF000000FFFF00FF000000FF00FF00FFFF0000FFFFFF0000000000000000000000000000000000000000000000000000000000000000000000000000000000000000000000000000000000000000000000000000000000000000000000000000000000000000
310
00000000000000000000000000000000000000000000000000000000000000000000000000000000000000000000000000000000000000000000000000000000000000000000000000000000000000000000000000000000000000000000000000000000000000000000000000000000000000000000000000000000000000
310
00000000000000000000000000000000000000000000000000000000000000000000000000000000000000000000000000000000000000000000000000000000000000000000000000000000000000000000000000000000000000000000000000000000000000000000000000000000000000000000000000000000000000
310
00000000000000000000000000000000000000000000000000000000000000000000000000000000000000000000000000000000000000000000000000000000000000000000000000000000000000000000000000000000000000000000000000000000000000000000000000000000000000000000000000000000000000
310
000000000000000000000000000000000000000000FFFFFFFFFFFFFFFFFFFFFFFFFFFFFFFFFFFFFFFFFFFFFFFFFFFFFFFFFFFF0000FFFFFFFFFFFFFFFFFFFFFFFFFFFFFFFFFFFFFFFFFFFFFFFFFFFFFFFFFFFF0000000000000000000000000000000000000000000000000000000000000000000000000000000000000000
310
00000000000000000000000000000000000000000000000000000000000000000000000000000000000000000000000000000000000000000000000000000000000000000000000000000000000000000000000000000000000000000000000000000000000000000000000000000000000000000000000000000000000000
310
00000000000000000000000000000000000000000000000000000000000000000000000000000000000000000000000000000000000000000000000000000000000000000000000000000000000000000000000000000000000000000000000000000000000000000000000000000000000000000000000000000000000000
310
00000000000000000000000000000000000000000000000000000000000000000000000000000000000000000000000000000000000000000000000000000000000000000000000000000000000000000000000000000000000000000000000000000000000000000000000000000000000000000000000000000000000000
310
0000000000000000000000000000000000000000000000000000000000000000000000000000000000000000000000000000000000000000
102
{BLKREFS
331
8DC
102
}
1001
ACAD
1000
DesignCenter Data
1002
{
1070
     1
1070
     4
1002
}
  0
BLOCK_RECORD
  5
8DD
330
1
100
AcDbSymbolTableRecord
100
AcDbBlockTableRecord
  2
3
340
0
310
2800000020000000200000000100080000000000000400000000000000000000000000000000000000000000000080000080000000808000800000008000800080800000C0C0C000C0DCC000F0CAA6000020400000206000002080000020A0000020C0000020E00000400000004020000040400000406000004080000040A0
310
000040C0000040E00000600000006020000060400000606000006080000060A0000060C0000060E00000800000008020000080400000806000008080000080A0000080C0000080E00000A0000000A0200000A0400000A0600000A0800000A0A00000A0C00000A0E00000C0000000C0200000C0400000C0600000C0800000C0
310
A00000C0C00000C0E00000E0000000E0200000E0400000E0600000E0800000E0A00000E0C00000E0E00040000000400020004000400040006000400080004000A0004000C0004000E00040200000402020004020400040206000402080004020A0004020C0004020E000404000004040200040404000404060004040800040
310
40A0004040C0004040E00040600000406020004060400040606000406080004060A0004060C0004060E00040800000408020004080400040806000408080004080A0004080C0004080E00040A0000040A0200040A0400040A0600040A0800040A0A00040A0C00040A0E00040C0000040C0200040C0400040C0600040C08000
310
40C0A00040C0C00040C0E00040E0000040E0200040E0400040E0600040E0800040E0A00040E0C00040E0E00080000000800020008000400080006000800080008000A0008000C0008000E00080200000802020008020400080206000802080008020A0008020C0008020E00080400000804020008040400080406000804080
310
008040A0008040C0008040E00080600000806020008060400080606000806080008060A0008060C0008060E00080800000808020008080400080806000808080008080A0008080C0008080E00080A0000080A0200080A0400080A0600080A0800080A0A00080A0C00080A0E00080C0000080C0200080C0400080C0600080C0
310
800080C0A00080C0C00080C0E00080E0000080E0200080E0400080E0600080E0800080E0A00080E0C00080E0E000C0000000C0002000C0004000C0006000C0008000C000A000C000C000C000E000C0200000C0202000C0204000C0206000C0208000C020A000C020C000C020E000C0400000C0402000C0404000C0406000C0
310
408000C040A000C040C000C040E000C0600000C0602000C0604000C0606000C0608000C060A000C060C000C060E000C0800000C0802000C0804000C0806000C0808000C080A000C080C000C080E000C0A00000C0A02000C0A04000C0A06000C0A08000C0A0A000C0A0C000C0A0E000C0C00000C0C02000C0C04000C0C06000
310
C0C08000C0C0A000F0FBFF00A4A0A000808080000000FF0000FF000000FFFF00FF000000FF00FF00FFFF0000FFFFFF000000000000000000000000000000000000000000000000000000000000000000000000000000000000000000FFFFFFFFFFFFFFFF000000000000000000000000000000000000000000000000FFFFFF
310
FFFFFFFFFF000000000000000000000000000000000000000000000000FF000000000000FF000000000000000000000000000000000000000000000000FF000000000000FF000000000000000000000000000000000000000000000000FF000000000000FF000000000000000000000000000000000000000000000000FF00
310
0000000000FF000000000000000000000000000000000000000000000000FF000000000000FF000000000000000000000000000000000000000000000000FF000000000000FF000000000000000000000000000000000000000000000000FF000000000000FF000000000000000000000000000000000000000000000000FF
310
000000000000FF000000000000000000000000000000000000000000000000FF000000000000FF000000000000000000000000000000000000000000000000FF000000000000FF000000000000000000000000000000000000000000000000FF000000000000FF000000000000000000000000000000000000000000000000
310
FF000000000000FF000000000000000000000000000000000000000000000000FF000000000000FF0000000000000000000000000000000000000000000000FFFFFFFFFFFFFFFFFFFF00000000000000000000000000000000000000000000FF0000000000000000FF00000000000000000000000000000000000000000000
310
FF0000000000000000FF00000000000000000000000000000000000000000000FF0000000000000000FF00000000000000000000000000000000000000000000FF0000000000000000FF00000000000000000000000000000000000000000000FFFFFFFFFFFFFFFFFFFF000000000000000000000000000000000000000000
310
00FFFFFFFFFFFFFFFFFFFF00000000000000000000000000000000000000000000FFA4A4A4A4A4A4A4A4FF00000000000000000000000000000000000000000000FF0000000000000000FF00000000000000000000000000000000000000000000FF0000000000000000FF0000000000000000000000000000000000000000
310
0000FF0000000000000000FF00000000000000000000000000000000000000000000FF0000000000000000FF00000000000000000000000000000000000000000000FF0000000000000000FF00000000000000000000000000000000000000000000FF0000000000000000FF00000000000000000000000000000000000000
310
000000FFFFFFFFFFFFFFFFFFFF00000000000000000000000000000000000000000000000000000000000000000000000000000000000000
102
{BLKREFS
331
8FE
102
}
1001
ACAD
1000
DesignCenter Data
1002
{
1070
     1
1070
     4
1002
}
  0
BLOCK_RECORD
  5
8FF
330
1
100
AcDbSymbolTableRecord
100
AcDbBlockTableRecord
  2
4
340
0
310
2800000020000000200000000100080000000000000400000000000000000000000000000000000000000000000080000080000000808000800000008000800080800000C0C0C000C0DCC000F0CAA6000020400000206000002080000020A0000020C0000020E00000400000004020000040400000406000004080000040A0
310
000040C0000040E00000600000006020000060400000606000006080000060A0000060C0000060E00000800000008020000080400000806000008080000080A0000080C0000080E00000A0000000A0200000A0400000A0600000A0800000A0A00000A0C00000A0E00000C0000000C0200000C0400000C0600000C0800000C0
310
A00000C0C00000C0E00000E0000000E0200000E0400000E0600000E0800000E0A00000E0C00000E0E00040000000400020004000400040006000400080004000A0004000C0004000E00040200000402020004020400040206000402080004020A0004020C0004020E000404000004040200040404000404060004040800040
310
40A0004040C0004040E00040600000406020004060400040606000406080004060A0004060C0004060E00040800000408020004080400040806000408080004080A0004080C0004080E00040A0000040A0200040A0400040A0600040A0800040A0A00040A0C00040A0E00040C0000040C0200040C0400040C0600040C08000
310
40C0A00040C0C00040C0E00040E0000040E0200040E0400040E0600040E0800040E0A00040E0C00040E0E00080000000800020008000400080006000800080008000A0008000C0008000E00080200000802020008020400080206000802080008020A0008020C0008020E00080400000804020008040400080406000804080
310
008040A0008040C0008040E00080600000806020008060400080606000806080008060A0008060C0008060E00080800000808020008080400080806000808080008080A0008080C0008080E00080A0000080A0200080A0400080A0600080A0800080A0A00080A0C00080A0E00080C0000080C0200080C0400080C0600080C0
310
800080C0A00080C0C00080C0E00080E0000080E0200080E0400080E0600080E0800080E0A00080E0C00080E0E000C0000000C0002000C0004000C0006000C0008000C000A000C000C000C000E000C0200000C0202000C0204000C0206000C0208000C020A000C020C000C020E000C0400000C0402000C0404000C0406000C0
310
408000C040A000C040C000C040E000C0600000C0602000C0604000C0606000C0608000C060A000C060C000C060E000C0800000C0802000C0804000C0806000C0808000C080A000C080C000C080E000C0A00000C0A02000C0A04000C0A06000C0A08000C0A0A000C0A0C000C0A0E000C0C00000C0C02000C0C04000C0C06000
310
C0C08000C0C0A000F0FBFF00A4A0A000808080000000FF0000FF000000FFFF00FF000000FF00FF00FFFF0000FFFFFF0000000000000000000000000000000000000000000000000000000000000000000000000000000000000000000000000000000000000000000000000000000000000000000000000000000000000000
310
00000000000000000000000000000000000000000000000000000000000000000000000000000000000000000000000000000000000000000000000000000000000000000000000000000000000000000000000000000000000000000000000000000000000000000000000000000000000000000000000000000000000000
310
000000000000000000000000FFFFFF0000000000000000000000000000000000000000000000000000000000FF00FF0000000000000000000000000000000000000000000000000000FFFFFFFF00FF0000000000000000000000000000000000000000000000FFFFFFFF00FFFFFFFF00000000000000000000000000000000
310
0000000000FFFFFF00FFFF00FFFFFFFFFFFF000000000000000000000000000000000000FFFFFFFF00FFFFFFFFFFFFFFFFFF000000000000000000000000000000FFFFFFFF00FFFFFFFFFFFFFFFFFF00FF0000000000000000000000000000FFFFFF0000FFFFFFFFFFFFFF00FFFFFFFFFF00000000000000000000000000FF
310
00FFFF0000FFFF00FFFFFFFFFFFFFFFFFF0000000000000000000000FFFFFFFF0000FF00FFFFFFFFFFFFFFFFFFFFFF0000000000000000000000FFFFFF0000FF00FFFFFFFFFF0000FFFFFFFF0000000000000000000000FFFFFF0000FF0000FFFFFFFFFFFFFFFFFFFF0000000000000000000000000000FFFFFFFF00FFFFFF
310
FFFFFFFFFFFFFFFFFFFF0000000000000000000000000000FF00FFFFFFFFFFFFFF0000FFFFFFFF0000000000000000000000000000000000FFFFFFFFFFFFFFFFFFFFFFFF00000000000000000000000000000000000000FFFFFFFFFFFFFFFFFFFFFFFF00000000000000000000000000000000000000FFFFFFFFFFFFFFFFFF
310
FFFF000000000000000000000000000000000000000000FFFFFF00FFFFFFFF00000000000000000000000000000000000000000000000000FFFFFFFFFFFF000000000000000000000000000000000000000000000000000000FFFFFF0000000000000000000000000000000000000000000000000000000000000000000000
310
00000000000000000000000000000000000000000000000000000000000000000000000000000000000000000000000000000000000000000000000000000000000000000000000000000000000000000000000000000000000000000000000000000000000000000000000000000000000000000000000000000000000000
310
0000000000000000000000000000000000000000000000000000000000000000000000000000000000000000000000000000000000000000
102
{BLKREFS
331
9FD
102
}
1001
ACAD
1000
DesignCenter Data
1002
{
1070
     1
1070
     4
1002
}
  0
ENDTAB
  0
ENDSEC
  0
SECTION
  2
BLOCKS
  0
BLOCK
  5
20
330
1F
100
AcDbEntity
  8
0
100
AcDbBlockBegin
  2
*Model_Space
 70
     0
 10
0.0
 20
0.0
 30
0.0
  3
*Model_Space
  1

  0
ENDBLK
  5
21
330
1F
100
AcDbEntity
  8
0
100
AcDbBlockEnd
  0
BLOCK
  5
D4
330
D2
100
AcDbEntity
 67
     1
  8
0
100
AcDbBlockBegin
  2
*Paper_Space
 70
     0
 10
0.0
 20
0.0
 30
0.0
  3
*Paper_Space
  1

  0
ENDBLK
  5
D5
330
D2
100
AcDbEntity
 67
     1
  8
0
100
AcDbBlockEnd
  0
BLOCK
  5
D8
330
D6
100
AcDbEntity
 67
     1
  8
0
100
AcDbBlockBegin
  2
*Paper_Space0
 70
     0
 10
0.0
 20
0.0
 30
0.0
  3
*Paper_Space0
  1

  0
ENDBLK
  5
D9
330
D6
100
AcDbEntity
 67
     1
  8
0
100
AcDbBlockEnd
  0
BLOCK
  5
730
330
72F
100
AcDbEntity
  8
0
100
AcDbBlockBegin
  2
1
 70
     0
 10
0.0
 20
0.0
 30
0.0
  3
1
  1

  0
ARC
  5
732
330
72F
100
AcDbEntity
  8
0
  6
Continuous
 62
     7
370
    15
100
AcDbCircle
 10
2194.61210767305
 20
902.3883833314075
 30
0.0
 40
0.200000000000017
100
AcDbArc
 50
180.0
 51
270.0
  0
ARC
  5
733
330
72F
100
AcDbEntity
  8
0
  6
Continuous
 62
     7
370
    15
100
AcDbCircle
 10
2201.06210767305
 20
902.3883833314075
 30
0.0
 40
0.1999999999999886
100
AcDbArc
 50
270.0
 51
0.0
  0
ARC
  5
734
330
72F
100
AcDbEntity
  8
0
  6
Continuous
 62
     7
370
    15
100
AcDbCircle
 10
2098.61210767305
 20
902.3883833314075
 30
0.0
 40
0.200000000000017
100
AcDbArc
 50
180.0
 51
270.0
  0
ARC
  5
735
330
72F
100
AcDbEntity
  8
0
  6
Continuous
 62
     7
370
    15
100
AcDbCircle
 10
2105.06210767305
 20
902.3883833314075
 30
0.0
 40
0.2000000000000028
100
AcDbArc
 50
270.0
 51
0.0
  0
ARC
  5
736
330
72F
100
AcDbEntity
  8
0
  6
Continuous
 62
     7
370
    15
100
AcDbCircle
 10
2110.61210767305
 20
902.3883833314075
 30
0.0
 40
0.2000000000000028
100
AcDbArc
 50
180.0
 51
270.0
  0
ARC
  5
737
330
72F
100
AcDbEntity
  8
0
  6
Continuous
 62
     7
370
    15
100
AcDbCircle
 10
2117.06210767305
 20
902.3883833314075
 30
0.0
 40
0.2000000000000028
100
AcDbArc
 50
270.0
 51
0.0
  0
ARC
  5
738
330
72F
100
AcDbEntity
  8
0
  6
Continuous
 62
     7
370
    15
100
AcDbCircle
 10
2122.61210767305
 20
902.3883833314075
 30
0.0
 40
0.2000000000000028
100
AcDbArc
 50
180.0
 51
270.0
  0
ARC
  5
739
330
72F
100
AcDbEntity
  8
0
  6
Continuous
 62
     7
370
    15
100
AcDbCircle
 10
2129.06210767305
 20
902.3883833314075
 30
0.0
 40
0.200000000000017
100
AcDbArc
 50
270.0
 51
0.0
  0
ARC
  5
73A
330
72F
100
AcDbEntity
  8
0
  6
Continuous
 62
     7
370
    15
100
AcDbCircle
 10
2134.61210767305
 20
902.3883833314075
 30
0.0
 40
0.200000000000017
100
AcDbArc
 50
180.0
 51
270.0
  0
ARC
  5
73B
330
72F
100
AcDbEntity
  8
0
  6
Continuous
 62
     7
370
    15
100
AcDbCircle
 10
2141.06210767305
 20
902.3883833314075
 30
0.0
 40
0.1999999999999886
100
AcDbArc
 50
270.0
 51
0.0
  0
ARC
  5
73C
330
72F
100
AcDbEntity
  8
0
  6
Continuous
 62
     7
370
    15
100
AcDbCircle
 10
2146.61210767305
 20
902.3883833314075
 30
0.0
 40
0.1999999999999886
100
AcDbArc
 50
180.0
 51
270.0
  0
ARC
  5
73D
330
72F
100
AcDbEntity
  8
0
  6
Continuous
 62
     7
370
    15
100
AcDbCircle
 10
2153.06210767305
 20
902.3883833314075
 30
0.0
 40
0.1999999999999886
100
AcDbArc
 50
270.0
 51
0.0
  0
ARC
  5
73E
330
72F
100
AcDbEntity
  8
0
  6
Continuous
 62
     7
370
    15
100
AcDbCircle
 10
2158.61210767305
 20
902.3883833314075
 30
0.0
 40
0.200000000000017
100
AcDbArc
 50
180.0
 51
270.0
  0
ARC
  5
73F
330
72F
100
AcDbEntity
  8
0
  6
Continuous
 62
     7
370
    15
100
AcDbCircle
 10
2165.06210767305
 20
902.3883833314075
 30
0.0
 40
0.1999999999999886
100
AcDbArc
 50
270.0
 51
0.0
  0
ARC
  5
740
330
72F
100
AcDbEntity
  8
0
  6
Continuous
 62
     7
370
    15
100
AcDbCircle
 10
2170.61210767305
 20
902.3883833314075
 30
0.0
 40
0.1999999999999886
100
AcDbArc
 50
180.0
 51
270.0
  0
ARC
  5
741
330
72F
100
AcDbEntity
  8
0
  6
Continuous
 62
     7
370
    15
100
AcDbCircle
 10
2177.06210767305
 20
902.3883833314075
 30
0.0
 40
0.200000000000017
100
AcDbArc
 50
270.0
 51
0.0
  0
ARC
  5
742
330
72F
100
AcDbEntity
  8
0
  6
Continuous
 62
     7
370
    15
100
AcDbCircle
 10
2182.61210767305
 20
902.3883833314075
 30
0.0
 40
0.1999999999999886
100
AcDbArc
 50
180.0
 51
270.0
  0
ARC
  5
743
330
72F
100
AcDbEntity
  8
0
  6
Continuous
 62
     7
370
    15
100
AcDbCircle
 10
2189.06210767305
 20
902.3883833314075
 30
0.0
 40
0.200000000000017
100
AcDbArc
 50
270.0
 51
0.0
  0
LINE
  5
744
330
72F
100
AcDbEntity
  8
0
  6
Continuous
 62
     7
370
    15
100
AcDbLine
 10
2105.26210767305
 20
902.3883833314075
 30
0.0
 11
2105.26210767305
 21
907.5883833314076
 31
0.0
  0
LINE
  5
745
330
72F
100
AcDbEntity
  8
0
  6
Continuous
 62
     7
370
    15
100
AcDbLine
 10
2098.41210767305
 20
907.5883833314076
 30
0.0
 11
2098.41210767305
 21
902.3883833314075
 31
0.0
  0
LINE
  5
746
330
72F
100
AcDbEntity
  8
0
  6
Continuous
 62
     7
370
    15
100
AcDbLine
 10
2117.26210767305
 20
902.3883833314075
 30
0.0
 11
2117.26210767305
 21
907.5883833314076
 31
0.0
  0
LINE
  5
747
330
72F
100
AcDbEntity
  8
0
  6
Continuous
 62
     7
370
    15
100
AcDbLine
 10
2110.41210767305
 20
907.5883833314076
 30
0.0
 11
2110.41210767305
 21
902.3883833314075
 31
0.0
  0
LINE
  5
748
330
72F
100
AcDbEntity
  8
0
  6
Continuous
 62
     7
370
    15
100
AcDbLine
 10
2129.26210767305
 20
902.3883833314075
 30
0.0
 11
2129.26210767305
 21
907.5883833314076
 31
0.0
  0
LINE
  5
749
330
72F
100
AcDbEntity
  8
0
  6
Continuous
 62
     7
370
    15
100
AcDbLine
 10
2122.41210767305
 20
907.5883833314076
 30
0.0
 11
2122.41210767305
 21
902.3883833314075
 31
0.0
  0
LINE
  5
74A
330
72F
100
AcDbEntity
  8
0
  6
Continuous
 62
     7
370
    15
100
AcDbLine
 10
2141.26210767305
 20
902.3883833314075
 30
0.0
 11
2141.26210767305
 21
907.5883833314076
 31
0.0
  0
LINE
  5
74B
330
72F
100
AcDbEntity
  8
0
  6
Continuous
 62
     7
370
    15
100
AcDbLine
 10
2134.41210767305
 20
907.5883833314076
 30
0.0
 11
2134.41210767305
 21
902.3883833314075
 31
0.0
  0
LINE
  5
74C
330
72F
100
AcDbEntity
  8
0
  6
Continuous
 62
     7
370
    15
100
AcDbLine
 10
2153.26210767305
 20
902.3883833314075
 30
0.0
 11
2153.26210767305
 21
907.5883833314076
 31
0.0
  0
LINE
  5
74D
330
72F
100
AcDbEntity
  8
0
  6
Continuous
 62
     7
370
    15
100
AcDbLine
 10
2146.41210767305
 20
907.5883833314076
 30
0.0
 11
2146.41210767305
 21
902.3883833314075
 31
0.0
  0
LINE
  5
74E
330
72F
100
AcDbEntity
  8
0
  6
Continuous
 62
     7
370
    15
100
AcDbLine
 10
2165.26210767305
 20
902.3883833314075
 30
0.0
 11
2165.26210767305
 21
907.5883833314076
 31
0.0
  0
LINE
  5
74F
330
72F
100
AcDbEntity
  8
0
  6
Continuous
 62
     7
370
    15
100
AcDbLine
 10
2158.41210767305
 20
907.5883833314076
 30
0.0
 11
2158.41210767305
 21
902.3883833314075
 31
0.0
  0
LINE
  5
750
330
72F
100
AcDbEntity
  8
0
  6
Continuous
 62
     7
370
    15
100
AcDbLine
 10
2177.26210767305
 20
902.3883833314075
 30
0.0
 11
2177.26210767305
 21
907.5883833314076
 31
0.0
  0
LINE
  5
751
330
72F
100
AcDbEntity
  8
0
  6
Continuous
 62
     7
370
    15
100
AcDbLine
 10
2170.41210767305
 20
907.5883833314076
 30
0.0
 11
2170.41210767305
 21
902.3883833314075
 31
0.0
  0
LINE
  5
752
330
72F
100
AcDbEntity
  8
0
  6
Continuous
 62
     7
370
    15
100
AcDbLine
 10
2189.26210767305
 20
902.3883833314075
 30
0.0
 11
2189.26210767305
 21
907.5883833314076
 31
0.0
  0
LINE
  5
753
330
72F
100
AcDbEntity
  8
0
  6
Continuous
 62
     7
370
    15
100
AcDbLine
 10
2182.41210767305
 20
907.5883833314076
 30
0.0
 11
2182.41210767305
 21
902.3883833314075
 31
0.0
  0
LINE
  5
754
330
72F
100
AcDbEntity
  8
0
  6
Continuous
 62
     7
370
    15
100
AcDbLine
 10
2201.26210767305
 20
902.3883833314075
 30
0.0
 11
2201.26210767305
 21
907.5883833314076
 31
0.0
  0
LINE
  5
755
330
72F
100
AcDbEntity
  8
0
  6
Continuous
 62
     7
370
    15
100
AcDbLine
 10
2194.41210767305
 20
907.5883833314076
 30
0.0
 11
2194.41210767305
 21
902.3883833314075
 31
0.0
  0
LINE
  5
756
330
72F
100
AcDbEntity
  8
0
  6
Continuous
 62
     7
370
    15
100
AcDbLine
 10
2098.775430066549
 20
886.5883833313271
 30
0.0
 11
2098.975430066424
 21
886.3883833314515
 31
0.0
  0
LINE
  5
757
330
72F
100
AcDbEntity
  8
0
  6
Continuous
 62
     7
370
    15
100
AcDbLine
 10
2104.575430066497
 20
886.3883833314515
 30
0.0
 11
2104.775430066372
 21
886.5883833313271
 31
0.0
  0
LINE
  5
758
330
72F
100
AcDbEntity
  8
0
  6
Continuous
 62
     7
370
    15
100
AcDbLine
 10
2104.83710767305
 20
901.2883833314075
 30
0.0
 11
2104.83710767305
 21
902.1883833314076
 31
0.0
  0
LINE
  5
759
330
72F
100
AcDbEntity
  8
0
  6
Continuous
 62
     7
370
    15
100
AcDbLine
 10
2098.83710767305
 20
902.1883833314076
 30
0.0
 11
2098.83710767305
 21
901.2883833314075
 31
0.0
  0
LINE
  5
75A
330
72F
100
AcDbEntity
  8
0
  6
Continuous
 62
     7
370
    15
100
AcDbLine
 10
2104.775430066461
 20
886.5883833313271
 30
0.0
 11
2104.775430066461
 21
897.2883833313302
 31
0.0
  0
LINE
  5
75B
330
72F
100
AcDbEntity
  8
0
  6
Continuous
 62
     7
370
    15
100
AcDbLine
 10
2098.77543006646
 20
897.2883833313302
 30
0.0
 11
2098.77543006646
 21
886.5883833313271
 31
0.0
  0
LINE
  5
75C
330
72F
100
AcDbEntity
  8
0
  6
Continuous
 62
     7
370
    15
100
AcDbLine
 10
2116.837107673049
 20
901.2883833314075
 30
0.0
 11
2116.837107673049
 21
902.1883833314076
 31
0.0
  0
LINE
  5
75D
330
72F
100
AcDbEntity
  8
0
  6
Continuous
 62
     7
370
    15
100
AcDbLine
 10
2110.83710767305
 20
902.1883833314076
 30
0.0
 11
2110.83710767305
 21
901.2883833314075
 31
0.0
  0
LINE
  5
75E
330
72F
100
AcDbEntity
  8
0
  6
Continuous
 62
     7
370
    15
100
AcDbLine
 10
2110.775430066549
 20
886.5883833313271
 30
0.0
 11
2110.975430066424
 21
886.3883833314515
 31
0.0
  0
LINE
  5
75F
330
72F
100
AcDbEntity
  8
0
  6
Continuous
 62
     7
370
    15
100
AcDbLine
 10
2116.575430066497
 20
886.3883833314515
 30
0.0
 11
2116.775430066372
 21
886.5883833313271
 31
0.0
  0
LINE
  5
760
330
72F
100
AcDbEntity
  8
0
  6
Continuous
 62
     7
370
    15
100
AcDbLine
 10
2116.775430066461
 20
886.5883833313271
 30
0.0
 11
2116.775430066461
 21
897.2883833313302
 31
0.0
  0
LINE
  5
761
330
72F
100
AcDbEntity
  8
0
  6
Continuous
 62
     7
370
    15
100
AcDbLine
 10
2110.77543006646
 20
897.2883833313302
 30
0.0
 11
2110.77543006646
 21
886.5883833313271
 31
0.0
  0
LINE
  5
762
330
72F
100
AcDbEntity
  8
0
  6
Continuous
 62
     7
370
    15
100
AcDbLine
 10
2128.775430066461
 20
886.5883833313271
 30
0.0
 11
2128.775430066461
 21
897.2883833313302
 31
0.0
  0
LINE
  5
763
330
72F
100
AcDbEntity
  8
0
  6
Continuous
 62
     7
370
    15
100
AcDbLine
 10
2122.775430066461
 20
897.2883833313302
 30
0.0
 11
2122.775430066461
 21
886.5883833313271
 31
0.0
  0
LINE
  5
764
330
72F
100
AcDbEntity
  8
0
  6
Continuous
 62
     7
370
    15
100
AcDbLine
 10
2122.775430066549
 20
886.5883833313271
 30
0.0
 11
2122.975430066424
 21
886.3883833314515
 31
0.0
  0
LINE
  5
765
330
72F
100
AcDbEntity
  8
0
  6
Continuous
 62
     7
370
    15
100
AcDbLine
 10
2128.575430066497
 20
886.3883833314515
 30
0.0
 11
2128.775430066372
 21
886.5883833313271
 31
0.0
  0
LINE
  5
766
330
72F
100
AcDbEntity
  8
0
  6
Continuous
 62
     7
370
    15
100
AcDbLine
 10
2128.83710767305
 20
901.2883833314075
 30
0.0
 11
2128.83710767305
 21
902.1883833314076
 31
0.0
  0
LINE
  5
767
330
72F
100
AcDbEntity
  8
0
  6
Continuous
 62
     7
370
    15
100
AcDbLine
 10
2122.83710767305
 20
902.1883833314076
 30
0.0
 11
2122.83710767305
 21
901.2883833314075
 31
0.0
  0
LINE
  5
768
330
72F
100
AcDbEntity
  8
0
  6
Continuous
 62
     7
370
    15
100
AcDbLine
 10
2134.775430066549
 20
886.5883833313271
 30
0.0
 11
2134.975430066424
 21
886.3883833314515
 31
0.0
  0
LINE
  5
769
330
72F
100
AcDbEntity
  8
0
  6
Continuous
 62
     7
370
    15
100
AcDbLine
 10
2140.575430066497
 20
886.3883833314515
 30
0.0
 11
2140.775430066372
 21
886.5883833313271
 31
0.0
  0
LINE
  5
76A
330
72F
100
AcDbEntity
  8
0
  6
Continuous
 62
     7
370
    15
100
AcDbLine
 10
2140.775430066461
 20
886.5883833313271
 30
0.0
 11
2140.775430066461
 21
897.2883833313302
 31
0.0
  0
LINE
  5
76B
330
72F
100
AcDbEntity
  8
0
  6
Continuous
 62
     7
370
    15
100
AcDbLine
 10
2134.77543006646
 20
897.2883833313302
 30
0.0
 11
2134.77543006646
 21
886.5883833313271
 31
0.0
  0
LINE
  5
76C
330
72F
100
AcDbEntity
  8
0
  6
Continuous
 62
     7
370
    15
100
AcDbLine
 10
2140.83710767305
 20
901.2883833314075
 30
0.0
 11
2140.83710767305
 21
902.1883833314076
 31
0.0
  0
LINE
  5
76D
330
72F
100
AcDbEntity
  8
0
  6
Continuous
 62
     7
370
    15
100
AcDbLine
 10
2134.83710767305
 20
902.1883833314076
 30
0.0
 11
2134.83710767305
 21
901.2883833314075
 31
0.0
  0
LINE
  5
76E
330
72F
100
AcDbEntity
  8
0
  6
Continuous
 62
     7
370
    15
100
AcDbLine
 10
2152.83710767305
 20
901.2883833314075
 30
0.0
 11
2152.83710767305
 21
902.1883833314076
 31
0.0
  0
LINE
  5
76F
330
72F
100
AcDbEntity
  8
0
  6
Continuous
 62
     7
370
    15
100
AcDbLine
 10
2146.83710767305
 20
902.1883833314076
 30
0.0
 11
2146.83710767305
 21
901.2883833314075
 31
0.0
  0
LINE
  5
770
330
72F
100
AcDbEntity
  8
0
  6
Continuous
 62
     7
370
    15
100
AcDbLine
 10
2152.775430066461
 20
886.5883833313271
 30
0.0
 11
2152.775430066461
 21
897.2883833313302
 31
0.0
  0
LINE
  5
771
330
72F
100
AcDbEntity
  8
0
  6
Continuous
 62
     7
370
    15
100
AcDbLine
 10
2146.77543006646
 20
897.2883833313302
 30
0.0
 11
2146.77543006646
 21
886.5883833313271
 31
0.0
  0
LINE
  5
772
330
72F
100
AcDbEntity
  8
0
  6
Continuous
 62
     7
370
    15
100
AcDbLine
 10
2146.775430066549
 20
886.5883833313271
 30
0.0
 11
2146.975430066424
 21
886.3883833314515
 31
0.0
  0
LINE
  5
773
330
72F
100
AcDbEntity
  8
0
  6
Continuous
 62
     7
370
    15
100
AcDbLine
 10
2152.575430066497
 20
886.3883833314515
 30
0.0
 11
2152.775430066372
 21
886.5883833313271
 31
0.0
  0
LINE
  5
774
330
72F
100
AcDbEntity
  8
0
  6
Continuous
 62
     7
370
    15
100
AcDbLine
 10
2164.83710767305
 20
901.2883833314075
 30
0.0
 11
2164.83710767305
 21
902.1883833314076
 31
0.0
  0
LINE
  5
775
330
72F
100
AcDbEntity
  8
0
  6
Continuous
 62
     7
370
    15
100
AcDbLine
 10
2158.83710767305
 20
902.1883833314076
 30
0.0
 11
2158.83710767305
 21
901.2883833314075
 31
0.0
  0
LINE
  5
776
330
72F
100
AcDbEntity
  8
0
  6
Continuous
 62
     7
370
    15
100
AcDbLine
 10
2164.775430066461
 20
886.5883833313271
 30
0.0
 11
2164.775430066461
 21
897.2883833313302
 31
0.0
  0
LINE
  5
777
330
72F
100
AcDbEntity
  8
0
  6
Continuous
 62
     7
370
    15
100
AcDbLine
 10
2158.77543006646
 20
897.2883833313302
 30
0.0
 11
2158.77543006646
 21
886.5883833313271
 31
0.0
  0
LINE
  5
778
330
72F
100
AcDbEntity
  8
0
  6
Continuous
 62
     7
370
    15
100
AcDbLine
 10
2158.775430066549
 20
886.5883833313271
 30
0.0
 11
2158.975430066425
 21
886.3883833314515
 31
0.0
  0
LINE
  5
779
330
72F
100
AcDbEntity
  8
0
  6
Continuous
 62
     7
370
    15
100
AcDbLine
 10
2164.575430066497
 20
886.3883833314515
 30
0.0
 11
2164.775430066372
 21
886.5883833313271
 31
0.0
  0
LINE
  5
77A
330
72F
100
AcDbEntity
  8
0
  6
Continuous
 62
     7
370
    15
100
AcDbLine
 10
2176.83710767305
 20
901.2883833314075
 30
0.0
 11
2176.83710767305
 21
902.1883833314076
 31
0.0
  0
LINE
  5
77B
330
72F
100
AcDbEntity
  8
0
  6
Continuous
 62
     7
370
    15
100
AcDbLine
 10
2170.83710767305
 20
902.1883833314076
 30
0.0
 11
2170.83710767305
 21
901.2883833314075
 31
0.0
  0
LINE
  5
77C
330
72F
100
AcDbEntity
  8
0
  6
Continuous
 62
     7
370
    15
100
AcDbLine
 10
2170.775430066549
 20
886.5883833313271
 30
0.0
 11
2170.975430066425
 21
886.3883833314515
 31
0.0
  0
LINE
  5
77D
330
72F
100
AcDbEntity
  8
0
  6
Continuous
 62
     7
370
    15
100
AcDbLine
 10
2176.575430066497
 20
886.3883833314515
 30
0.0
 11
2176.775430066372
 21
886.5883833313271
 31
0.0
  0
LINE
  5
77E
330
72F
100
AcDbEntity
  8
0
  6
Continuous
 62
     7
370
    15
100
AcDbLine
 10
2176.775430066461
 20
886.5883833313271
 30
0.0
 11
2176.775430066461
 21
897.2883833313302
 31
0.0
  0
LINE
  5
77F
330
72F
100
AcDbEntity
  8
0
  6
Continuous
 62
     7
370
    15
100
AcDbLine
 10
2170.775430066461
 20
897.2883833313302
 30
0.0
 11
2170.775430066461
 21
886.5883833313271
 31
0.0
  0
LINE
  5
780
330
72F
100
AcDbEntity
  8
0
  6
Continuous
 62
     7
370
    15
100
AcDbLine
 10
2188.775430066461
 20
886.5883833313271
 30
0.0
 11
2188.775430066461
 21
897.2883833313302
 31
0.0
  0
LINE
  5
781
330
72F
100
AcDbEntity
  8
0
  6
Continuous
 62
     7
370
    15
100
AcDbLine
 10
2182.775430066461
 20
897.2883833313302
 30
0.0
 11
2182.775430066461
 21
886.5883833313271
 31
0.0
  0
LINE
  5
782
330
72F
100
AcDbEntity
  8
0
  6
Continuous
 62
     7
370
    15
100
AcDbLine
 10
2182.775430066549
 20
886.5883833313271
 30
0.0
 11
2182.975430066425
 21
886.3883833314515
 31
0.0
  0
LINE
  5
783
330
72F
100
AcDbEntity
  8
0
  6
Continuous
 62
     7
370
    15
100
AcDbLine
 10
2188.575430066497
 20
886.3883833314515
 30
0.0
 11
2188.775430066372
 21
886.5883833313271
 31
0.0
  0
LINE
  5
784
330
72F
100
AcDbEntity
  8
0
  6
Continuous
 62
     7
370
    15
100
AcDbLine
 10
2188.83710767305
 20
901.2883833314075
 30
0.0
 11
2188.83710767305
 21
902.1883833314076
 31
0.0
  0
LINE
  5
785
330
72F
100
AcDbEntity
  8
0
  6
Continuous
 62
     7
370
    15
100
AcDbLine
 10
2182.83710767305
 20
902.1883833314076
 30
0.0
 11
2182.83710767305
 21
901.2883833314075
 31
0.0
  0
LINE
  5
786
330
72F
100
AcDbEntity
  8
0
  6
Continuous
 62
     7
370
    15
100
AcDbLine
 10
2200.77543006646
 20
886.5883833313271
 30
0.0
 11
2200.77543006646
 21
897.2883833313302
 31
0.0
  0
LINE
  5
787
330
72F
100
AcDbEntity
  8
0
  6
Continuous
 62
     7
370
    15
100
AcDbLine
 10
2194.775430066461
 20
897.2883833313302
 30
0.0
 11
2194.775430066461
 21
886.5883833313271
 31
0.0
  0
LINE
  5
788
330
72F
100
AcDbEntity
  8
0
  6
Continuous
 62
     7
370
    15
100
AcDbLine
 10
2194.775430066549
 20
886.5883833313271
 30
0.0
 11
2194.975430066425
 21
886.3883833314515
 31
0.0
  0
LINE
  5
789
330
72F
100
AcDbEntity
  8
0
  6
Continuous
 62
     7
370
    15
100
AcDbLine
 10
2200.575430066497
 20
886.3883833314515
 30
0.0
 11
2200.775430066372
 21
886.5883833313271
 31
0.0
  0
LINE
  5
78A
330
72F
100
AcDbEntity
  8
0
  6
Continuous
 62
     7
370
    15
100
AcDbLine
 10
2200.83710767305
 20
901.2883833314075
 30
0.0
 11
2200.83710767305
 21
902.1883833314076
 31
0.0
  0
LINE
  5
78B
330
72F
100
AcDbEntity
  8
0
  6
Continuous
 62
     7
370
    15
100
AcDbLine
 10
2194.83710767305
 20
902.1883833314076
 30
0.0
 11
2194.83710767305
 21
901.2883833314075
 31
0.0
  0
LINE
  5
78C
330
72F
100
AcDbEntity
  8
0
  6
Continuous
 62
     7
370
    15
100
AcDbLine
 10
2104.775430066453
 20
897.2883833313302
 30
0.0
 11
2104.675430066365
 21
897.3883833314188
 31
0.0
  0
LINE
  5
78D
330
72F
100
AcDbEntity
  8
0
  6
Continuous
 62
     7
370
    15
100
AcDbLine
 10
2098.875430066557
 20
897.3883833314188
 30
0.0
 11
2098.775430066468
 21
897.2883833313302
 31
0.0
  0
LINE
  5
78E
330
72F
100
AcDbEntity
  8
0
  6
Continuous
 62
     7
370
    15
100
AcDbLine
 10
2116.775430066453
 20
897.2883833313302
 30
0.0
 11
2116.675430066365
 21
897.3883833314188
 31
0.0
  0
LINE
  5
78F
330
72F
100
AcDbEntity
  8
0
  6
Continuous
 62
     7
370
    15
100
AcDbLine
 10
2110.875430066557
 20
897.3883833314188
 30
0.0
 11
2110.775430066468
 21
897.2883833313302
 31
0.0
  0
LINE
  5
790
330
72F
100
AcDbEntity
  8
0
  6
Continuous
 62
     7
370
    15
100
AcDbLine
 10
2128.775430066453
 20
897.2883833313302
 30
0.0
 11
2128.675430066364
 21
897.3883833314188
 31
0.0
  0
LINE
  5
791
330
72F
100
AcDbEntity
  8
0
  6
Continuous
 62
     7
370
    15
100
AcDbLine
 10
2122.875430066557
 20
897.3883833314188
 30
0.0
 11
2122.775430066468
 21
897.2883833313302
 31
0.0
  0
LINE
  5
792
330
72F
100
AcDbEntity
  8
0
  6
Continuous
 62
     7
370
    15
100
AcDbLine
 10
2140.775430066453
 20
897.2883833313302
 30
0.0
 11
2140.675430066364
 21
897.3883833314188
 31
0.0
  0
LINE
  5
793
330
72F
100
AcDbEntity
  8
0
  6
Continuous
 62
     7
370
    15
100
AcDbLine
 10
2134.875430066557
 20
897.3883833314188
 30
0.0
 11
2134.775430066468
 21
897.2883833313302
 31
0.0
  0
LINE
  5
794
330
72F
100
AcDbEntity
  8
0
  6
Continuous
 62
     7
370
    15
100
AcDbLine
 10
2152.775430066453
 20
897.2883833313302
 30
0.0
 11
2152.675430066365
 21
897.3883833314188
 31
0.0
  0
LINE
  5
795
330
72F
100
AcDbEntity
  8
0
  6
Continuous
 62
     7
370
    15
100
AcDbLine
 10
2146.875430066557
 20
897.3883833314188
 30
0.0
 11
2146.775430066468
 21
897.2883833313302
 31
0.0
  0
LINE
  5
796
330
72F
100
AcDbEntity
  8
0
  6
Continuous
 62
     7
370
    15
100
AcDbLine
 10
2164.775430066453
 20
897.2883833313302
 30
0.0
 11
2164.675430066364
 21
897.3883833314188
 31
0.0
  0
LINE
  5
797
330
72F
100
AcDbEntity
  8
0
  6
Continuous
 62
     7
370
    15
100
AcDbLine
 10
2158.875430066557
 20
897.3883833314188
 30
0.0
 11
2158.775430066468
 21
897.2883833313302
 31
0.0
  0
LINE
  5
798
330
72F
100
AcDbEntity
  8
0
  6
Continuous
 62
     7
370
    15
100
AcDbLine
 10
2176.775430066453
 20
897.2883833313302
 30
0.0
 11
2176.675430066364
 21
897.3883833314188
 31
0.0
  0
LINE
  5
799
330
72F
100
AcDbEntity
  8
0
  6
Continuous
 62
     7
370
    15
100
AcDbLine
 10
2170.875430066557
 20
897.3883833314188
 30
0.0
 11
2170.775430066468
 21
897.2883833313302
 31
0.0
  0
LINE
  5
79A
330
72F
100
AcDbEntity
  8
0
  6
Continuous
 62
     7
370
    15
100
AcDbLine
 10
2188.775430066453
 20
897.2883833313302
 30
0.0
 11
2188.675430066376
 21
897.3883833314076
 31
0.0
  0
LINE
  5
79B
330
72F
100
AcDbEntity
  8
0
  6
Continuous
 62
     7
370
    15
100
AcDbLine
 10
2182.875430066546
 20
897.3883833314076
 30
0.0
 11
2182.775430066469
 21
897.2883833313302
 31
0.0
  0
LINE
  5
79C
330
72F
100
AcDbEntity
  8
0
  6
Continuous
 62
     7
370
    15
100
AcDbLine
 10
2200.775430066452
 20
897.2883833313302
 30
0.0
 11
2200.675430066364
 21
897.3883833314188
 31
0.0
  0
LINE
  5
79D
330
72F
100
AcDbEntity
  8
0
  6
Continuous
 62
     7
370
    15
100
AcDbLine
 10
2194.875430066558
 20
897.3883833314188
 30
0.0
 11
2194.775430066469
 21
897.2883833313302
 31
0.0
  0
LINE
  5
79E
330
72F
100
AcDbEntity
  8
0
  6
Continuous
 62
     7
370
    15
100
AcDbLine
 10
2105.28420790368
 20
897.3883833314076
 30
0.0
 11
2098.39000744242
 21
897.3883833314076
 31
0.0
  0
LINE
  5
79F
330
72F
100
AcDbEntity
  8
0
  6
Continuous
 62
     7
370
    15
100
AcDbLine
 10
2098.39000744242
 20
901.2883833314075
 30
0.0
 11
2098.39000744242
 21
897.3883833314076
 31
0.0
  0
LINE
  5
7A0
330
72F
100
AcDbEntity
  8
0
  6
Continuous
 62
     7
370
    15
100
AcDbLine
 10
2105.28420790368
 20
901.2883833314075
 30
0.0
 11
2098.39000744242
 21
901.2883833314075
 31
0.0
  0
LINE
  5
7A1
330
72F
100
AcDbEntity
  8
0
  6
Continuous
 62
     7
370
    15
100
AcDbLine
 10
2105.28420790368
 20
897.3883833314076
 30
0.0
 11
2105.28420790368
 21
901.2883833314075
 31
0.0
  0
LINE
  5
7A2
330
72F
100
AcDbEntity
  8
0
  6
Continuous
 62
     7
370
    15
100
AcDbLine
 10
2110.39000744242
 20
901.2883833314075
 30
0.0
 11
2110.39000744242
 21
897.3883833314076
 31
0.0
  0
LINE
  5
7A3
330
72F
100
AcDbEntity
  8
0
  6
Continuous
 62
     7
370
    15
100
AcDbLine
 10
2117.284207903679
 20
897.3883833314076
 30
0.0
 11
2117.284207903679
 21
901.2883833314075
 31
0.0
  0
LINE
  5
7A4
330
72F
100
AcDbEntity
  8
0
  6
Continuous
 62
     7
370
    15
100
AcDbLine
 10
2117.284207903679
 20
897.3883833314076
 30
0.0
 11
2110.39000744242
 21
897.3883833314076
 31
0.0
  0
LINE
  5
7A5
330
72F
100
AcDbEntity
  8
0
  6
Continuous
 62
     7
370
    15
100
AcDbLine
 10
2117.284207903679
 20
901.2883833314075
 30
0.0
 11
2110.39000744242
 21
901.2883833314075
 31
0.0
  0
LINE
  5
7A6
330
72F
100
AcDbEntity
  8
0
  6
Continuous
 62
     7
370
    15
100
AcDbLine
 10
2122.39000744242
 20
901.2883833314075
 30
0.0
 11
2122.39000744242
 21
897.3883833314076
 31
0.0
  0
LINE
  5
7A7
330
72F
100
AcDbEntity
  8
0
  6
Continuous
 62
     7
370
    15
100
AcDbLine
 10
2129.28420790368
 20
897.3883833314076
 30
0.0
 11
2129.28420790368
 21
901.2883833314075
 31
0.0
  0
LINE
  5
7A8
330
72F
100
AcDbEntity
  8
0
  6
Continuous
 62
     7
370
    15
100
AcDbLine
 10
2129.28420790368
 20
897.3883833314076
 30
0.0
 11
2122.39000744242
 21
897.3883833314076
 31
0.0
  0
LINE
  5
7A9
330
72F
100
AcDbEntity
  8
0
  6
Continuous
 62
     7
370
    15
100
AcDbLine
 10
2129.28420790368
 20
901.2883833314075
 30
0.0
 11
2122.39000744242
 21
901.2883833314075
 31
0.0
  0
LINE
  5
7AA
330
72F
100
AcDbEntity
  8
0
  6
Continuous
 62
     7
370
    15
100
AcDbLine
 10
2134.39000744242
 20
901.2883833314075
 30
0.0
 11
2134.39000744242
 21
897.3883833314076
 31
0.0
  0
LINE
  5
7AB
330
72F
100
AcDbEntity
  8
0
  6
Continuous
 62
     7
370
    15
100
AcDbLine
 10
2141.28420790368
 20
897.3883833314076
 30
0.0
 11
2141.28420790368
 21
901.2883833314075
 31
0.0
  0
LINE
  5
7AC
330
72F
100
AcDbEntity
  8
0
  6
Continuous
 62
     7
370
    15
100
AcDbLine
 10
2141.28420790368
 20
897.3883833314076
 30
0.0
 11
2134.39000744242
 21
897.3883833314076
 31
0.0
  0
LINE
  5
7AD
330
72F
100
AcDbEntity
  8
0
  6
Continuous
 62
     7
370
    15
100
AcDbLine
 10
2141.28420790368
 20
901.2883833314075
 30
0.0
 11
2134.39000744242
 21
901.2883833314075
 31
0.0
  0
LINE
  5
7AE
330
72F
100
AcDbEntity
  8
0
  6
Continuous
 62
     7
370
    15
100
AcDbLine
 10
2146.39000744242
 20
901.2883833314075
 30
0.0
 11
2146.39000744242
 21
897.3883833314076
 31
0.0
  0
LINE
  5
7AF
330
72F
100
AcDbEntity
  8
0
  6
Continuous
 62
     7
370
    15
100
AcDbLine
 10
2153.28420790368
 20
897.3883833314076
 30
0.0
 11
2153.28420790368
 21
901.2883833314075
 31
0.0
  0
LINE
  5
7B0
330
72F
100
AcDbEntity
  8
0
  6
Continuous
 62
     7
370
    15
100
AcDbLine
 10
2153.28420790368
 20
897.3883833314076
 30
0.0
 11
2146.39000744242
 21
897.3883833314076
 31
0.0
  0
LINE
  5
7B1
330
72F
100
AcDbEntity
  8
0
  6
Continuous
 62
     7
370
    15
100
AcDbLine
 10
2153.28420790368
 20
901.2883833314075
 30
0.0
 11
2146.39000744242
 21
901.2883833314075
 31
0.0
  0
LINE
  5
7B2
330
72F
100
AcDbEntity
  8
0
  6
Continuous
 62
     7
370
    15
100
AcDbLine
 10
2158.39000744242
 20
901.2883833314075
 30
0.0
 11
2158.39000744242
 21
897.3883833314076
 31
0.0
  0
LINE
  5
7B3
330
72F
100
AcDbEntity
  8
0
  6
Continuous
 62
     7
370
    15
100
AcDbLine
 10
2165.284207903679
 20
897.3883833314076
 30
0.0
 11
2165.284207903679
 21
901.2883833314075
 31
0.0
  0
LINE
  5
7B4
330
72F
100
AcDbEntity
  8
0
  6
Continuous
 62
     7
370
    15
100
AcDbLine
 10
2165.284207903679
 20
897.3883833314076
 30
0.0
 11
2158.39000744242
 21
897.3883833314076
 31
0.0
  0
LINE
  5
7B5
330
72F
100
AcDbEntity
  8
0
  6
Continuous
 62
     7
370
    15
100
AcDbLine
 10
2165.284207903679
 20
901.2883833314075
 30
0.0
 11
2158.39000744242
 21
901.2883833314075
 31
0.0
  0
LINE
  5
7B6
330
72F
100
AcDbEntity
  8
0
  6
Continuous
 62
     7
370
    15
100
AcDbLine
 10
2170.39000744242
 20
901.2883833314075
 30
0.0
 11
2170.39000744242
 21
897.3883833314076
 31
0.0
  0
LINE
  5
7B7
330
72F
100
AcDbEntity
  8
0
  6
Continuous
 62
     7
370
    15
100
AcDbLine
 10
2177.28420790368
 20
897.3883833314076
 30
0.0
 11
2177.28420790368
 21
901.2883833314075
 31
0.0
  0
LINE
  5
7B8
330
72F
100
AcDbEntity
  8
0
  6
Continuous
 62
     7
370
    15
100
AcDbLine
 10
2177.28420790368
 20
897.3883833314076
 30
0.0
 11
2170.39000744242
 21
897.3883833314076
 31
0.0
  0
LINE
  5
7B9
330
72F
100
AcDbEntity
  8
0
  6
Continuous
 62
     7
370
    15
100
AcDbLine
 10
2177.28420790368
 20
901.2883833314075
 30
0.0
 11
2170.39000744242
 21
901.2883833314075
 31
0.0
  0
LINE
  5
7BA
330
72F
100
AcDbEntity
  8
0
  6
Continuous
 62
     7
370
    15
100
AcDbLine
 10
2182.39000744242
 20
901.2883833314075
 30
0.0
 11
2182.39000744242
 21
897.3883833314076
 31
0.0
  0
LINE
  5
7BB
330
72F
100
AcDbEntity
  8
0
  6
Continuous
 62
     7
370
    15
100
AcDbLine
 10
2189.28420790368
 20
897.3883833314076
 30
0.0
 11
2189.28420790368
 21
901.2883833314075
 31
0.0
  0
LINE
  5
7BC
330
72F
100
AcDbEntity
  8
0
  6
Continuous
 62
     7
370
    15
100
AcDbLine
 10
2189.28420790368
 20
897.3883833314076
 30
0.0
 11
2182.39000744242
 21
897.3883833314076
 31
0.0
  0
LINE
  5
7BD
330
72F
100
AcDbEntity
  8
0
  6
Continuous
 62
     7
370
    15
100
AcDbLine
 10
2189.28420790368
 20
901.2883833314075
 30
0.0
 11
2182.39000744242
 21
901.2883833314075
 31
0.0
  0
LINE
  5
7BE
330
72F
100
AcDbEntity
  8
0
  6
Continuous
 62
     7
370
    15
100
AcDbLine
 10
2194.39000744242
 20
901.2883833314075
 30
0.0
 11
2194.39000744242
 21
897.3883833314076
 31
0.0
  0
LINE
  5
7BF
330
72F
100
AcDbEntity
  8
0
  6
Continuous
 62
     7
370
    15
100
AcDbLine
 10
2201.28420790368
 20
897.3883833314076
 30
0.0
 11
2201.28420790368
 21
901.2883833314075
 31
0.0
  0
LINE
  5
7C0
330
72F
100
AcDbEntity
  8
0
  6
Continuous
 62
     7
370
    15
100
AcDbLine
 10
2201.28420790368
 20
897.3883833314076
 30
0.0
 11
2194.39000744242
 21
897.3883833314076
 31
0.0
  0
LINE
  5
7C1
330
72F
100
AcDbEntity
  8
0
  6
Continuous
 62
     7
370
    15
100
AcDbLine
 10
2201.28420790368
 20
901.2883833314075
 30
0.0
 11
2194.39000744242
 21
901.2883833314075
 31
0.0
  0
SPLINE
  5
7C2
330
72F
100
AcDbEntity
  8
0
  6
Continuous
 62
     7
370
    15
100
AcDbSpline
210
0.0
220
0.0
230
1.0
 70
    24
 71
     3
 72
    10
 73
     6
 74
     0
 42
0.0000000001
 43
0.0000000001
 40
0.0
 40
0.0
 40
0.0
 40
0.0
 40
0.5
 40
0.5
 40
1.0
 40
1.0
 40
1.0
 40
1.0
 10
2194.61210767305
 20
902.1883833314076
 30
0.0
 10
2194.61210767305
 20
902.1883833314076
 30
0.0
 10
2196.057181766048
 20
902.1883833314076
 30
0.0
 10
2199.617033580052
 20
902.1883833314076
 30
0.0
 10
2201.06210767305
 20
902.1883833314076
 30
0.0
 10
2201.06210767305
 20
902.1883833314076
 30
0.0
  0
SPLINE
  5
7C3
330
72F
100
AcDbEntity
  8
0
  6
Continuous
 62
     7
370
    15
100
AcDbSpline
210
0.0
220
0.0
230
1.0
 70
    24
 71
     3
 72
    10
 73
     6
 74
     0
 42
0.0000000001
 43
0.0000000001
 40
0.0
 40
0.0
 40
0.0
 40
0.0
 40
0.5
 40
0.5
 40
1.0
 40
1.0
 40
1.0
 40
1.0
 10
2098.61210767305
 20
902.1883833314076
 30
0.0
 10
2098.61210767305
 20
902.1883833314076
 30
0.0
 10
2100.057181766048
 20
902.1883833314076
 30
0.0
 10
2103.617033580052
 20
902.1883833314076
 30
0.0
 10
2105.06210767305
 20
902.1883833314076
 30
0.0
 10
2105.06210767305
 20
902.1883833314076
 30
0.0
  0
SPLINE
  5
7C4
330
72F
100
AcDbEntity
  8
0
  6
Continuous
 62
     7
370
    15
100
AcDbSpline
210
0.0
220
0.0
230
1.0
 70
    24
 71
     3
 72
    10
 73
     6
 74
     0
 42
0.0000000001
 43
0.0000000001
 40
0.0
 40
0.0
 40
0.0
 40
0.0
 40
0.5
 40
0.5
 40
1.0
 40
1.0
 40
1.0
 40
1.0
 10
2110.61210767305
 20
902.1883833314076
 30
0.0
 10
2110.61210767305
 20
902.1883833314076
 30
0.0
 10
2112.057181766048
 20
902.1883833314076
 30
0.0
 10
2115.617033580052
 20
902.1883833314076
 30
0.0
 10
2117.06210767305
 20
902.1883833314076
 30
0.0
 10
2117.06210767305
 20
902.1883833314076
 30
0.0
  0
SPLINE
  5
7C5
330
72F
100
AcDbEntity
  8
0
  6
Continuous
 62
     7
370
    15
100
AcDbSpline
210
0.0
220
0.0
230
1.0
 70
    24
 71
     3
 72
    10
 73
     6
 74
     0
 42
0.0000000001
 43
0.0000000001
 40
0.0
 40
0.0
 40
0.0
 40
0.0
 40
0.5
 40
0.5
 40
1.0
 40
1.0
 40
1.0
 40
1.0
 10
2122.61210767305
 20
902.1883833314076
 30
0.0
 10
2122.61210767305
 20
902.1883833314076
 30
0.0
 10
2124.057181766048
 20
902.1883833314076
 30
0.0
 10
2127.617033580051
 20
902.1883833314076
 30
0.0
 10
2129.06210767305
 20
902.1883833314076
 30
0.0
 10
2129.06210767305
 20
902.1883833314076
 30
0.0
  0
SPLINE
  5
7C6
330
72F
100
AcDbEntity
  8
0
  6
Continuous
 62
     7
370
    15
100
AcDbSpline
210
0.0
220
0.0
230
1.0
 70
    24
 71
     3
 72
    10
 73
     6
 74
     0
 42
0.0000000001
 43
0.0000000001
 40
0.0
 40
0.0
 40
0.0
 40
0.0
 40
0.5
 40
0.5
 40
1.0
 40
1.0
 40
1.0
 40
1.0
 10
2134.61210767305
 20
902.1883833314076
 30
0.0
 10
2134.61210767305
 20
902.1883833314076
 30
0.0
 10
2136.057181766048
 20
902.1883833314076
 30
0.0
 10
2139.617033580051
 20
902.1883833314076
 30
0.0
 10
2141.06210767305
 20
902.1883833314076
 30
0.0
 10
2141.06210767305
 20
902.1883833314076
 30
0.0
  0
SPLINE
  5
7C7
330
72F
100
AcDbEntity
  8
0
  6
Continuous
 62
     7
370
    15
100
AcDbSpline
210
0.0
220
0.0
230
1.0
 70
    24
 71
     3
 72
    10
 73
     6
 74
     0
 42
0.0000000001
 43
0.0000000001
 40
0.0
 40
0.0
 40
0.0
 40
0.0
 40
0.5
 40
0.5
 40
1.0
 40
1.0
 40
1.0
 40
1.0
 10
2146.61210767305
 20
902.1883833314076
 30
0.0
 10
2146.61210767305
 20
902.1883833314076
 30
0.0
 10
2148.057181766048
 20
902.1883833314076
 30
0.0
 10
2151.617033580052
 20
902.1883833314076
 30
0.0
 10
2153.06210767305
 20
902.1883833314076
 30
0.0
 10
2153.06210767305
 20
902.1883833314076
 30
0.0
  0
SPLINE
  5
7C8
330
72F
100
AcDbEntity
  8
0
  6
Continuous
 62
     7
370
    15
100
AcDbSpline
210
0.0
220
0.0
230
1.0
 70
    24
 71
     3
 72
    10
 73
     6
 74
     0
 42
0.0000000001
 43
0.0000000001
 40
0.0
 40
0.0
 40
0.0
 40
0.0
 40
0.5
 40
0.5
 40
1.0
 40
1.0
 40
1.0
 40
1.0
 10
2158.61210767305
 20
902.1883833314076
 30
0.0
 10
2158.61210767305
 20
902.1883833314076
 30
0.0
 10
2160.057181766048
 20
902.1883833314076
 30
0.0
 10
2163.617033580052
 20
902.1883833314076
 30
0.0
 10
2165.06210767305
 20
902.1883833314076
 30
0.0
 10
2165.06210767305
 20
902.1883833314076
 30
0.0
  0
SPLINE
  5
7C9
330
72F
100
AcDbEntity
  8
0
  6
Continuous
 62
     7
370
    15
100
AcDbSpline
210
0.0
220
0.0
230
1.0
 70
    24
 71
     3
 72
    10
 73
     6
 74
     0
 42
0.0000000001
 43
0.0000000001
 40
0.0
 40
0.0
 40
0.0
 40
0.0
 40
0.5
 40
0.5
 40
1.0
 40
1.0
 40
1.0
 40
1.0
 10
2170.61210767305
 20
902.1883833314076
 30
0.0
 10
2170.61210767305
 20
902.1883833314076
 30
0.0
 10
2172.057181766048
 20
902.1883833314076
 30
0.0
 10
2175.617033580051
 20
902.1883833314076
 30
0.0
 10
2177.06210767305
 20
902.1883833314076
 30
0.0
 10
2177.06210767305
 20
902.1883833314076
 30
0.0
  0
SPLINE
  5
7CA
330
72F
100
AcDbEntity
  8
0
  6
Continuous
 62
     7
370
    15
100
AcDbSpline
210
0.0
220
0.0
230
1.0
 70
    24
 71
     3
 72
    10
 73
     6
 74
     0
 42
0.0000000001
 43
0.0000000001
 40
0.0
 40
0.0
 40
0.0
 40
0.0
 40
0.5
 40
0.5
 40
1.0
 40
1.0
 40
1.0
 40
1.0
 10
2182.61210767305
 20
902.1883833314076
 30
0.0
 10
2182.61210767305
 20
902.1883833314076
 30
0.0
 10
2184.057181766048
 20
902.1883833314076
 30
0.0
 10
2187.617033580051
 20
902.1883833314076
 30
0.0
 10
2189.06210767305
 20
902.1883833314076
 30
0.0
 10
2189.06210767305
 20
902.1883833314076
 30
0.0
  0
LINE
  5
7CB
330
72F
100
AcDbEntity
  8
0
  6
Continuous
 62
     7
370
    15
100
AcDbLine
 10
2105.26210767305
 20
907.5883833314076
 30
0.0
 11
2098.41210767305
 21
907.5883833314076
 31
0.0
  0
LINE
  5
7CC
330
72F
100
AcDbEntity
  8
0
  6
Continuous
 62
     7
370
    15
100
AcDbLine
 10
2117.26210767305
 20
907.5883833314076
 30
0.0
 11
2110.41210767305
 21
907.5883833314076
 31
0.0
  0
LINE
  5
7CD
330
72F
100
AcDbEntity
  8
0
  6
Continuous
 62
     7
370
    15
100
AcDbLine
 10
2129.26210767305
 20
907.5883833314076
 30
0.0
 11
2122.41210767305
 21
907.5883833314076
 31
0.0
  0
LINE
  5
7CE
330
72F
100
AcDbEntity
  8
0
  6
Continuous
 62
     7
370
    15
100
AcDbLine
 10
2141.26210767305
 20
907.5883833314076
 30
0.0
 11
2134.41210767305
 21
907.5883833314076
 31
0.0
  0
LINE
  5
7CF
330
72F
100
AcDbEntity
  8
0
  6
Continuous
 62
     7
370
    15
100
AcDbLine
 10
2153.26210767305
 20
907.5883833314076
 30
0.0
 11
2146.41210767305
 21
907.5883833314076
 31
0.0
  0
LINE
  5
7D0
330
72F
100
AcDbEntity
  8
0
  6
Continuous
 62
     7
370
    15
100
AcDbLine
 10
2165.26210767305
 20
907.5883833314076
 30
0.0
 11
2158.41210767305
 21
907.5883833314076
 31
0.0
  0
LINE
  5
7D1
330
72F
100
AcDbEntity
  8
0
  6
Continuous
 62
     7
370
    15
100
AcDbLine
 10
2177.26210767305
 20
907.5883833314076
 30
0.0
 11
2170.41210767305
 21
907.5883833314076
 31
0.0
  0
LINE
  5
7D2
330
72F
100
AcDbEntity
  8
0
  6
Continuous
 62
     7
370
    15
100
AcDbLine
 10
2189.26210767305
 20
907.5883833314076
 30
0.0
 11
2182.41210767305
 21
907.5883833314076
 31
0.0
  0
LINE
  5
7D3
330
72F
100
AcDbEntity
  8
0
  6
Continuous
 62
     7
370
    15
100
AcDbLine
 10
2201.26210767305
 20
907.5883833314076
 30
0.0
 11
2194.41210767305
 21
907.5883833314076
 31
0.0
  0
LINE
  5
7D4
330
72F
100
AcDbEntity
  8
0
  6
Continuous
 62
     7
370
    15
100
AcDbLine
 10
2096.13710767305
 20
901.2883833314075
 30
0.0
 11
2096.13710767305
 21
897.3883833314076
 31
0.0
  0
LINE
  5
7D5
330
72F
100
AcDbEntity
  8
0
  6
Continuous
 62
     7
370
    15
100
AcDbLine
 10
2098.39000744242
 20
897.3883833314076
 30
0.0
 11
2096.13710767305
 21
897.3883833314076
 31
0.0
  0
LINE
  5
7D6
330
72F
100
AcDbEntity
  8
0
  6
Continuous
 62
     7
370
    15
100
AcDbLine
 10
2096.13710767305
 20
901.2883833314075
 30
0.0
 11
2098.39000744242
 21
901.2883833314075
 31
0.0
  0
LINE
  5
7D7
330
72F
100
AcDbEntity
  8
0
  6
Continuous
 62
     7
370
    15
100
AcDbLine
 10
2110.39000744242
 20
897.3883833314076
 30
0.0
 11
2105.28420790368
 21
897.3883833314076
 31
0.0
  0
LINE
  5
7D8
330
72F
100
AcDbEntity
  8
0
  6
Continuous
 62
     7
370
    15
100
AcDbLine
 10
2105.28420790368
 20
901.2883833314075
 30
0.0
 11
2110.39000744242
 21
901.2883833314075
 31
0.0
  0
LINE
  5
7D9
330
72F
100
AcDbEntity
  8
0
  6
Continuous
 62
     7
370
    15
100
AcDbLine
 10
2122.39000744242
 20
897.3883833314076
 30
0.0
 11
2117.284207903679
 21
897.3883833314076
 31
0.0
  0
LINE
  5
7DA
330
72F
100
AcDbEntity
  8
0
  6
Continuous
 62
     7
370
    15
100
AcDbLine
 10
2117.284207903679
 20
901.2883833314075
 30
0.0
 11
2122.39000744242
 21
901.2883833314075
 31
0.0
  0
LINE
  5
7DB
330
72F
100
AcDbEntity
  8
0
  6
Continuous
 62
     7
370
    15
100
AcDbLine
 10
2134.39000744242
 20
897.3883833314076
 30
0.0
 11
2129.28420790368
 21
897.3883833314076
 31
0.0
  0
LINE
  5
7DC
330
72F
100
AcDbEntity
  8
0
  6
Continuous
 62
     7
370
    15
100
AcDbLine
 10
2129.28420790368
 20
901.2883833314075
 30
0.0
 11
2134.39000744242
 21
901.2883833314075
 31
0.0
  0
LINE
  5
7DD
330
72F
100
AcDbEntity
  8
0
  6
Continuous
 62
     7
370
    15
100
AcDbLine
 10
2146.39000744242
 20
897.3883833314076
 30
0.0
 11
2141.28420790368
 21
897.3883833314076
 31
0.0
  0
LINE
  5
7DE
330
72F
100
AcDbEntity
  8
0
  6
Continuous
 62
     7
370
    15
100
AcDbLine
 10
2141.28420790368
 20
901.2883833314075
 30
0.0
 11
2146.39000744242
 21
901.2883833314075
 31
0.0
  0
LINE
  5
7DF
330
72F
100
AcDbEntity
  8
0
  6
Continuous
 62
     7
370
    15
100
AcDbLine
 10
2158.39000744242
 20
897.3883833314076
 30
0.0
 11
2153.28420790368
 21
897.3883833314076
 31
0.0
  0
LINE
  5
7E0
330
72F
100
AcDbEntity
  8
0
  6
Continuous
 62
     7
370
    15
100
AcDbLine
 10
2153.28420790368
 20
901.2883833314075
 30
0.0
 11
2158.39000744242
 21
901.2883833314075
 31
0.0
  0
LINE
  5
7E1
330
72F
100
AcDbEntity
  8
0
  6
Continuous
 62
     7
370
    15
100
AcDbLine
 10
2170.39000744242
 20
897.3883833314076
 30
0.0
 11
2165.284207903679
 21
897.3883833314076
 31
0.0
  0
LINE
  5
7E2
330
72F
100
AcDbEntity
  8
0
  6
Continuous
 62
     7
370
    15
100
AcDbLine
 10
2165.284207903679
 20
901.2883833314075
 30
0.0
 11
2170.39000744242
 21
901.2883833314075
 31
0.0
  0
LINE
  5
7E3
330
72F
100
AcDbEntity
  8
0
  6
Continuous
 62
     7
370
    15
100
AcDbLine
 10
2194.39000744242
 20
897.3883833314076
 30
0.0
 11
2189.28420790368
 21
897.3883833314076
 31
0.0
  0
LINE
  5
7E4
330
72F
100
AcDbEntity
  8
0
  6
Continuous
 62
     7
370
    15
100
AcDbLine
 10
2189.28420790368
 20
901.2883833314075
 30
0.0
 11
2194.39000744242
 21
901.2883833314075
 31
0.0
  0
LINE
  5
7E5
330
72F
100
AcDbEntity
  8
0
  6
Continuous
 62
     7
370
    15
100
AcDbLine
 10
2182.39000744242
 20
897.3883833314076
 30
0.0
 11
2177.28420790368
 21
897.3883833314076
 31
0.0
  0
LINE
  5
7E6
330
72F
100
AcDbEntity
  8
0
  6
Continuous
 62
     7
370
    15
100
AcDbLine
 10
2177.28420790368
 20
901.2883833314075
 30
0.0
 11
2182.39000744242
 21
901.2883833314075
 31
0.0
  0
LINE
  5
7E7
330
72F
100
AcDbEntity
  8
0
  6
Continuous
 62
     7
370
    15
100
AcDbLine
 10
2203.537107673049
 20
901.2883833314075
 30
0.0
 11
2203.537107673049
 21
897.3883833314076
 31
0.0
  0
LINE
  5
7E8
330
72F
100
AcDbEntity
  8
0
  6
Continuous
 62
     7
370
    15
100
AcDbLine
 10
2203.537107673049
 20
897.3883833314076
 30
0.0
 11
2201.28420790368
 21
897.3883833314076
 31
0.0
  0
LINE
  5
7E9
330
72F
100
AcDbEntity
  8
0
  6
Continuous
 62
     7
370
    15
100
AcDbLine
 10
2201.28420790368
 20
901.2883833314075
 30
0.0
 11
2203.537107673049
 21
901.2883833314075
 31
0.0
  0
LINE
  5
7EA
330
72F
100
AcDbEntity
  8
0
  6
Continuous
 62
     7
370
    15
100
AcDbLine
 10
2098.77543006646
 20
886.5883833313271
 30
0.0
 11
2104.775430066372
 21
886.5883833313271
 31
0.0
  0
LINE
  5
7EB
330
72F
100
AcDbEntity
  8
0
  6
Continuous
 62
     7
370
    15
100
AcDbLine
 10
2101.775430066461
 20
886.3883833314515
 30
0.0
 11
2104.575430066497
 21
886.3883833314515
 31
0.0
  0
LINE
  5
7EC
330
72F
100
AcDbEntity
  8
0
  6
Continuous
 62
     7
370
    15
100
AcDbLine
 10
2098.975430066424
 20
886.3883833314515
 30
0.0
 11
2101.775430066461
 21
886.3883833314515
 31
0.0
  0
LINE
  5
7ED
330
72F
100
AcDbEntity
  8
0
  6
Continuous
 62
     7
370
    15
100
AcDbLine
 10
2098.775430066468
 20
897.2883833313302
 30
0.0
 11
2104.775430066461
 21
897.2883833313302
 31
0.0
  0
LINE
  5
7EE
330
72F
100
AcDbEntity
  8
0
  6
Continuous
 62
     7
370
    15
100
AcDbLine
 10
2110.77543006646
 20
886.5883833313271
 30
0.0
 11
2116.775430066372
 21
886.5883833313271
 31
0.0
  0
LINE
  5
7EF
330
72F
100
AcDbEntity
  8
0
  6
Continuous
 62
     7
370
    15
100
AcDbLine
 10
2113.775430066461
 20
886.3883833314515
 30
0.0
 11
2116.575430066497
 21
886.3883833314515
 31
0.0
  0
LINE
  5
7F0
330
72F
100
AcDbEntity
  8
0
  6
Continuous
 62
     7
370
    15
100
AcDbLine
 10
2110.975430066424
 20
886.3883833314515
 30
0.0
 11
2113.775430066461
 21
886.3883833314515
 31
0.0
  0
LINE
  5
7F1
330
72F
100
AcDbEntity
  8
0
  6
Continuous
 62
     7
370
    15
100
AcDbLine
 10
2110.775430066468
 20
897.2883833313302
 30
0.0
 11
2116.775430066461
 21
897.2883833313302
 31
0.0
  0
LINE
  5
7F2
330
72F
100
AcDbEntity
  8
0
  6
Continuous
 62
     7
370
    15
100
AcDbLine
 10
2122.775430066468
 20
897.2883833313302
 30
0.0
 11
2128.775430066461
 21
897.2883833313302
 31
0.0
  0
LINE
  5
7F3
330
72F
100
AcDbEntity
  8
0
  6
Continuous
 62
     7
370
    15
100
AcDbLine
 10
2122.775430066461
 20
886.5883833313271
 30
0.0
 11
2128.775430066461
 21
886.5883833313271
 31
0.0
  0
LINE
  5
7F4
330
72F
100
AcDbEntity
  8
0
  6
Continuous
 62
     7
370
    15
100
AcDbLine
 10
2125.775430066461
 20
886.3883833314515
 30
0.0
 11
2128.575430066497
 21
886.3883833314515
 31
0.0
  0
LINE
  5
7F5
330
72F
100
AcDbEntity
  8
0
  6
Continuous
 62
     7
370
    15
100
AcDbLine
 10
2122.975430066424
 20
886.3883833314515
 30
0.0
 11
2125.775430066461
 21
886.3883833314515
 31
0.0
  0
LINE
  5
7F6
330
72F
100
AcDbEntity
  8
0
  6
Continuous
 62
     7
370
    15
100
AcDbLine
 10
2134.77543006646
 20
886.5883833313271
 30
0.0
 11
2140.775430066372
 21
886.5883833313271
 31
0.0
  0
LINE
  5
7F7
330
72F
100
AcDbEntity
  8
0
  6
Continuous
 62
     7
370
    15
100
AcDbLine
 10
2137.775430066461
 20
886.3883833314515
 30
0.0
 11
2140.575430066497
 21
886.3883833314515
 31
0.0
  0
LINE
  5
7F8
330
72F
100
AcDbEntity
  8
0
  6
Continuous
 62
     7
370
    15
100
AcDbLine
 10
2134.975430066424
 20
886.3883833314515
 30
0.0
 11
2137.775430066461
 21
886.3883833314515
 31
0.0
  0
LINE
  5
7F9
330
72F
100
AcDbEntity
  8
0
  6
Continuous
 62
     7
370
    15
100
AcDbLine
 10
2134.775430066468
 20
897.2883833313302
 30
0.0
 11
2140.775430066461
 21
897.2883833313302
 31
0.0
  0
LINE
  5
7FA
330
72F
100
AcDbEntity
  8
0
  6
Continuous
 62
     7
370
    15
100
AcDbLine
 10
2146.775430066468
 20
897.2883833313302
 30
0.0
 11
2152.775430066461
 21
897.2883833313302
 31
0.0
  0
LINE
  5
7FB
330
72F
100
AcDbEntity
  8
0
  6
Continuous
 62
     7
370
    15
100
AcDbLine
 10
2146.77543006646
 20
886.5883833313271
 30
0.0
 11
2152.775430066461
 21
886.5883833313271
 31
0.0
  0
LINE
  5
7FC
330
72F
100
AcDbEntity
  8
0
  6
Continuous
 62
     7
370
    15
100
AcDbLine
 10
2149.775430066461
 20
886.3883833314515
 30
0.0
 11
2152.575430066497
 21
886.3883833314515
 31
0.0
  0
LINE
  5
7FD
330
72F
100
AcDbEntity
  8
0
  6
Continuous
 62
     7
370
    15
100
AcDbLine
 10
2146.975430066424
 20
886.3883833314515
 30
0.0
 11
2149.775430066461
 21
886.3883833314515
 31
0.0
  0
LINE
  5
7FE
330
72F
100
AcDbEntity
  8
0
  6
Continuous
 62
     7
370
    15
100
AcDbLine
 10
2158.775430066468
 20
897.2883833313302
 30
0.0
 11
2164.775430066461
 21
897.2883833313302
 31
0.0
  0
LINE
  5
7FF
330
72F
100
AcDbEntity
  8
0
  6
Continuous
 62
     7
370
    15
100
AcDbLine
 10
2158.77543006646
 20
886.5883833313271
 30
0.0
 11
2164.775430066461
 21
886.5883833313271
 31
0.0
  0
LINE
  5
800
330
72F
100
AcDbEntity
  8
0
  6
Continuous
 62
     7
370
    15
100
AcDbLine
 10
2161.775430066461
 20
886.3883833314515
 30
0.0
 11
2164.575430066497
 21
886.3883833314515
 31
0.0
  0
LINE
  5
801
330
72F
100
AcDbEntity
  8
0
  6
Continuous
 62
     7
370
    15
100
AcDbLine
 10
2158.975430066425
 20
886.3883833314515
 30
0.0
 11
2161.775430066461
 21
886.3883833314515
 31
0.0
  0
LINE
  5
802
330
72F
100
AcDbEntity
  8
0
  6
Continuous
 62
     7
370
    15
100
AcDbLine
 10
2170.775430066461
 20
886.5883833313271
 30
0.0
 11
2176.775430066372
 21
886.5883833313271
 31
0.0
  0
LINE
  5
803
330
72F
100
AcDbEntity
  8
0
  6
Continuous
 62
     7
370
    15
100
AcDbLine
 10
2173.775430066461
 20
886.3883833314515
 30
0.0
 11
2176.575430066497
 21
886.3883833314515
 31
0.0
  0
LINE
  5
804
330
72F
100
AcDbEntity
  8
0
  6
Continuous
 62
     7
370
    15
100
AcDbLine
 10
2170.975430066425
 20
886.3883833314515
 30
0.0
 11
2173.775430066461
 21
886.3883833314515
 31
0.0
  0
LINE
  5
805
330
72F
100
AcDbEntity
  8
0
  6
Continuous
 62
     7
370
    15
100
AcDbLine
 10
2170.775430066468
 20
897.2883833313302
 30
0.0
 11
2176.775430066461
 21
897.2883833313302
 31
0.0
  0
LINE
  5
806
330
72F
100
AcDbEntity
  8
0
  6
Continuous
 62
     7
370
    15
100
AcDbLine
 10
2182.775430066469
 20
897.2883833313302
 30
0.0
 11
2188.775430066461
 21
897.2883833313302
 31
0.0
  0
LINE
  5
807
330
72F
100
AcDbEntity
  8
0
  6
Continuous
 62
     7
370
    15
100
AcDbLine
 10
2182.775430066461
 20
886.5883833313271
 30
0.0
 11
2188.775430066461
 21
886.5883833313271
 31
0.0
  0
LINE
  5
808
330
72F
100
AcDbEntity
  8
0
  6
Continuous
 62
     7
370
    15
100
AcDbLine
 10
2185.775430066461
 20
886.3883833314515
 30
0.0
 11
2188.575430066497
 21
886.3883833314515
 31
0.0
  0
LINE
  5
809
330
72F
100
AcDbEntity
  8
0
  6
Continuous
 62
     7
370
    15
100
AcDbLine
 10
2182.975430066425
 20
886.3883833314515
 30
0.0
 11
2185.775430066461
 21
886.3883833314515
 31
0.0
  0
LINE
  5
80A
330
72F
100
AcDbEntity
  8
0
  6
Continuous
 62
     7
370
    15
100
AcDbLine
 10
2194.775430066469
 20
897.2883833313302
 30
0.0
 11
2200.77543006646
 21
897.2883833313302
 31
0.0
  0
LINE
  5
80B
330
72F
100
AcDbEntity
  8
0
  6
Continuous
 62
     7
370
    15
100
AcDbLine
 10
2194.775430066461
 20
886.5883833313271
 30
0.0
 11
2200.77543006646
 21
886.5883833313271
 31
0.0
  0
LINE
  5
80C
330
72F
100
AcDbEntity
  8
0
  6
Continuous
 62
     7
370
    15
100
AcDbLine
 10
2197.775430066461
 20
886.3883833314515
 30
0.0
 11
2200.575430066497
 21
886.3883833314515
 31
0.0
  0
LINE
  5
80D
330
72F
100
AcDbEntity
  8
0
  6
Continuous
 62
     7
370
    15
100
AcDbLine
 10
2194.975430066425
 20
886.3883833314515
 30
0.0
 11
2197.775430066461
 21
886.3883833314515
 31
0.0
  0
LINE
  5
80E
330
72F
100
AcDbEntity
  8
0
  6
Continuous
 62
     8
370
    15
100
AcDbLine
 10
2201.26210767305
 20
902.3883833314075
 30
0.0
 11
2194.41210767305
 21
902.3883833314075
 31
0.0
  0
LINE
  5
80F
330
72F
100
AcDbEntity
  8
0
  6
Continuous
 62
     8
370
    15
100
AcDbLine
 10
2105.26210767305
 20
902.3883833314075
 30
0.0
 11
2098.41210767305
 21
902.3883833314075
 31
0.0
  0
LINE
  5
810
330
72F
100
AcDbEntity
  8
0
  6
Continuous
 62
     8
370
    15
100
AcDbLine
 10
2117.26210767305
 20
902.3883833314075
 30
0.0
 11
2110.41210767305
 21
902.3883833314075
 31
0.0
  0
LINE
  5
811
330
72F
100
AcDbEntity
  8
0
  6
Continuous
 62
     8
370
    15
100
AcDbLine
 10
2129.26210767305
 20
902.3883833314075
 30
0.0
 11
2122.41210767305
 21
902.3883833314075
 31
0.0
  0
LINE
  5
812
330
72F
100
AcDbEntity
  8
0
  6
Continuous
 62
     8
370
    15
100
AcDbLine
 10
2141.26210767305
 20
902.3883833314075
 30
0.0
 11
2134.41210767305
 21
902.3883833314075
 31
0.0
  0
LINE
  5
813
330
72F
100
AcDbEntity
  8
0
  6
Continuous
 62
     8
370
    15
100
AcDbLine
 10
2153.26210767305
 20
902.3883833314075
 30
0.0
 11
2146.41210767305
 21
902.3883833314075
 31
0.0
  0
LINE
  5
814
330
72F
100
AcDbEntity
  8
0
  6
Continuous
 62
     8
370
    15
100
AcDbLine
 10
2165.26210767305
 20
902.3883833314075
 30
0.0
 11
2158.41210767305
 21
902.3883833314075
 31
0.0
  0
LINE
  5
815
330
72F
100
AcDbEntity
  8
0
  6
Continuous
 62
     8
370
    15
100
AcDbLine
 10
2177.26210767305
 20
902.3883833314075
 30
0.0
 11
2170.41210767305
 21
902.3883833314075
 31
0.0
  0
LINE
  5
816
330
72F
100
AcDbEntity
  8
0
  6
Continuous
 62
     8
370
    15
100
AcDbLine
 10
2189.26210767305
 20
902.3883833314075
 30
0.0
 11
2182.41210767305
 21
902.3883833314075
 31
0.0
  0
ENDBLK
  5
731
330
72F
100
AcDbEntity
  8
0
100
AcDbBlockEnd
  0
BLOCK
  5
819
330
818
100
AcDbEntity
  8
0
100
AcDbBlockBegin
  2
2
 70
     0
 10
0.0
 20
0.0
 30
0.0
  3
2
  1

  0
CIRCLE
  5
81B
330
818
100
AcDbEntity
  8
0
  6
Continuous
 62
     7
370
    15
100
AcDbCircle
 10
2137.83710767305
 20
867.1067227417919
 30
0.0
 40
2.475000000010311
  0
CIRCLE
  5
81C
330
818
100
AcDbEntity
  8
0
  6
Continuous
 62
     7
370
    15
100
AcDbCircle
 10
2137.83710767305
 20
867.1067227417919
 30
0.0
 40
3.425000000000011
  0
CIRCLE
  5
81D
330
818
100
AcDbEntity
  8
0
  6
Continuous
 62
     7
370
    15
100
AcDbCircle
 10
2197.83710767305
 20
867.1067227417919
 30
0.0
 40
2.475000000010794
  0
CIRCLE
  5
81E
330
818
100
AcDbEntity
  8
0
  6
Continuous
 62
     7
370
    15
100
AcDbCircle
 10
2197.83710767305
 20
867.1067227417919
 30
0.0
 40
3.425000000000011
  0
CIRCLE
  5
81F
330
818
100
AcDbEntity
  8
0
  6
Continuous
 62
     7
370
    15
100
AcDbCircle
 10
2161.83710767305
 20
867.1067227417919
 30
0.0
 40
2.475000000010311
  0
ARC
  5
820
330
818
100
AcDbEntity
  8
0
  6
Continuous
 62
     7
370
    15
100
AcDbCircle
 10
2161.83710767305
 20
867.1067227417919
 30
0.0
 40
2.197439522057301
100
AcDbArc
 50
13.15214010487884
 51
166.8478598951401
  0
ARC
  5
821
330
818
100
AcDbEntity
  8
0
  6
Continuous
 62
     7
370
    15
100
AcDbCircle
 10
2161.83710767305
 20
867.1067227417919
 30
0.0
 40
2.145679479873075
100
AcDbArc
 50
166.5246847195768
 51
193.4753152804231
  0
ARC
  5
822
330
818
100
AcDbEntity
  8
0
  6
Continuous
 62
     7
370
    15
100
AcDbCircle
 10
2161.83710767305
 20
867.1067227417919
 30
0.0
 40
2.197439522057329
100
AcDbArc
 50
193.1521401048788
 51
346.8478598951402
  0
ARC
  5
823
330
818
100
AcDbEntity
  8
0
  6
Continuous
 62
     7
370
    15
100
AcDbCircle
 10
2161.83710767305
 20
867.1067227417919
 30
0.0
 40
2.145679479873102
100
AcDbArc
 50
346.5246847195768
 51
13.47531528042316
  0
CIRCLE
  5
824
330
818
100
AcDbEntity
  8
0
  6
Continuous
 62
     7
370
    15
100
AcDbCircle
 10
2101.83710767305
 20
867.1067227417918
 30
0.0
 40
2.475000000010325
  0
ARC
  5
825
330
818
100
AcDbEntity
  8
0
  6
Continuous
 62
     7
370
    15
100
AcDbCircle
 10
2101.83710767305
 20
867.1067227417918
 30
0.0
 40
2.197439522057301
100
AcDbArc
 50
13.15214010487884
 51
166.8478598951401
  0
ARC
  5
826
330
818
100
AcDbEntity
  8
0
  6
Continuous
 62
     7
370
    15
100
AcDbCircle
 10
2101.83710767305
 20
867.1067227417918
 30
0.0
 40
2.145679479873088
100
AcDbArc
 50
166.5246847195768
 51
193.4753152804231
  0
ARC
  5
827
330
818
100
AcDbEntity
  8
0
  6
Continuous
 62
     7
370
    15
100
AcDbCircle
 10
2101.83710767305
 20
867.1067227417918
 30
0.0
 40
2.197439522057315
100
AcDbArc
 50
193.1521401048788
 51
346.8478598951402
  0
ARC
  5
828
330
818
100
AcDbEntity
  8
0
  6
Continuous
 62
     7
370
    15
100
AcDbCircle
 10
2101.83710767305
 20
867.1067227417918
 30
0.0
 40
2.145679479873088
100
AcDbArc
 50
346.5246847195768
 51
13.47531528042316
  0
CIRCLE
  5
829
330
818
100
AcDbEntity
  8
0
  6
Continuous
 62
     7
370
    15
100
AcDbCircle
 10
2185.83710767305
 20
867.1067227417919
 30
0.0
 40
2.475000000010339
  0
ARC
  5
82A
330
818
100
AcDbEntity
  8
0
  6
Continuous
 62
     7
370
    15
100
AcDbCircle
 10
2185.83710767305
 20
867.1067227417919
 30
0.0
 40
2.197439522057301
100
AcDbArc
 50
13.15214010487884
 51
166.8478598951401
  0
ARC
  5
82B
330
818
100
AcDbEntity
  8
0
  6
Continuous
 62
     7
370
    15
100
AcDbCircle
 10
2185.83710767305
 20
867.1067227417919
 30
0.0
 40
2.145679479873075
100
AcDbArc
 50
166.5246847195768
 51
193.4753152804231
  0
ARC
  5
82C
330
818
100
AcDbEntity
  8
0
  6
Continuous
 62
     7
370
    15
100
AcDbCircle
 10
2185.83710767305
 20
867.1067227417919
 30
0.0
 40
2.197439522057301
100
AcDbArc
 50
193.1521401048788
 51
346.8478598951402
  0
ARC
  5
82D
330
818
100
AcDbEntity
  8
0
  6
Continuous
 62
     7
370
    15
100
AcDbCircle
 10
2185.83710767305
 20
867.1067227417919
 30
0.0
 40
2.145679479873075
100
AcDbArc
 50
346.5246847195768
 51
13.47531528042316
  0
CIRCLE
  5
82E
330
818
100
AcDbEntity
  8
0
  6
Continuous
 62
     7
370
    15
100
AcDbCircle
 10
2185.83710767305
 20
867.1067227417919
 30
0.0
 40
3.424999999999982
  0
CIRCLE
  5
82F
330
818
100
AcDbEntity
  8
0
  6
Continuous
 62
     7
370
    15
100
AcDbCircle
 10
2101.83710767305
 20
867.1067227417918
 30
0.0
 40
3.424999999999997
  0
CIRCLE
  5
830
330
818
100
AcDbEntity
  8
0
  6
Continuous
 62
     7
370
    15
100
AcDbCircle
 10
2113.83710767305
 20
867.1067227417918
 30
0.0
 40
2.475000000010325
  0
CIRCLE
  5
831
330
818
100
AcDbEntity
  8
0
  6
Continuous
 62
     7
370
    15
100
AcDbCircle
 10
2113.83710767305
 20
867.1067227417918
 30
0.0
 40
3.424999999999997
  0
CIRCLE
  5
832
330
818
100
AcDbEntity
  8
0
  6
Continuous
 62
     7
370
    15
100
AcDbCircle
 10
2125.83710767305
 20
867.1067227417918
 30
0.0
 40
2.475000000010339
  0
CIRCLE
  5
833
330
818
100
AcDbEntity
  8
0
  6
Continuous
 62
     7
370
    15
100
AcDbCircle
 10
2125.83710767305
 20
867.1067227417918
 30
0.0
 40
3.425000000000011
  0
ARC
  5
834
330
818
100
AcDbEntity
  8
0
  6
Continuous
 62
     7
370
    15
100
AcDbCircle
 10
2137.83710767305
 20
867.1067227417919
 30
0.0
 40
2.197439522057301
100
AcDbArc
 50
13.15214010487884
 51
166.8478598951401
  0
ARC
  5
835
330
818
100
AcDbEntity
  8
0
  6
Continuous
 62
     7
370
    15
100
AcDbCircle
 10
2137.83710767305
 20
867.1067227417919
 30
0.0
 40
2.145679479873075
100
AcDbArc
 50
166.5246847195768
 51
193.4753152804231
  0
ARC
  5
836
330
818
100
AcDbEntity
  8
0
  6
Continuous
 62
     7
370
    15
100
AcDbCircle
 10
2137.83710767305
 20
867.1067227417919
 30
0.0
 40
2.197439522057329
100
AcDbArc
 50
193.1521401048788
 51
346.8478598951402
  0
ARC
  5
837
330
818
100
AcDbEntity
  8
0
  6
Continuous
 62
     7
370
    15
100
AcDbCircle
 10
2137.83710767305
 20
867.1067227417919
 30
0.0
 40
2.145679479873102
100
AcDbArc
 50
346.5246847195768
 51
13.47531528042316
  0
ARC
  5
838
330
818
100
AcDbEntity
  8
0
  6
Continuous
 62
     7
370
    15
100
AcDbCircle
 10
2113.83710767305
 20
867.1067227417918
 30
0.0
 40
2.197439522057315
100
AcDbArc
 50
13.15214010487884
 51
166.8478598951401
  0
ARC
  5
839
330
818
100
AcDbEntity
  8
0
  6
Continuous
 62
     7
370
    15
100
AcDbCircle
 10
2113.83710767305
 20
867.1067227417918
 30
0.0
 40
2.145679479873088
100
AcDbArc
 50
166.5246847195768
 51
193.4753152804231
  0
ARC
  5
83A
330
818
100
AcDbEntity
  8
0
  6
Continuous
 62
     7
370
    15
100
AcDbCircle
 10
2113.83710767305
 20
867.1067227417918
 30
0.0
 40
2.197439522057315
100
AcDbArc
 50
193.1521401048788
 51
346.8478598951402
  0
ARC
  5
83B
330
818
100
AcDbEntity
  8
0
  6
Continuous
 62
     7
370
    15
100
AcDbCircle
 10
2113.83710767305
 20
867.1067227417918
 30
0.0
 40
2.145679479873088
100
AcDbArc
 50
346.5246847195768
 51
13.47531528042316
  0
CIRCLE
  5
83C
330
818
100
AcDbEntity
  8
0
  6
Continuous
 62
     7
370
    15
100
AcDbCircle
 10
2149.83710767305
 20
867.1067227417919
 30
0.0
 40
2.475000000010282
  0
ARC
  5
83D
330
818
100
AcDbEntity
  8
0
  6
Continuous
 62
     7
370
    15
100
AcDbCircle
 10
2149.83710767305
 20
867.1067227417919
 30
0.0
 40
2.197439522057329
100
AcDbArc
 50
13.15214010487884
 51
166.8478598951401
  0
ARC
  5
83E
330
818
100
AcDbEntity
  8
0
  6
Continuous
 62
     7
370
    15
100
AcDbCircle
 10
2149.83710767305
 20
867.1067227417919
 30
0.0
 40
2.145679479873102
100
AcDbArc
 50
166.5246847195768
 51
193.4753152804231
  0
ARC
  5
83F
330
818
100
AcDbEntity
  8
0
  6
Continuous
 62
     7
370
    15
100
AcDbCircle
 10
2149.83710767305
 20
867.1067227417919
 30
0.0
 40
2.197439522057301
100
AcDbArc
 50
193.1521401048788
 51
346.8478598951402
  0
ARC
  5
840
330
818
100
AcDbEntity
  8
0
  6
Continuous
 62
     7
370
    15
100
AcDbCircle
 10
2149.83710767305
 20
867.1067227417919
 30
0.0
 40
2.145679479873102
100
AcDbArc
 50
346.5246847195768
 51
13.47531528042316
  0
ARC
  5
841
330
818
100
AcDbEntity
  8
0
  6
Continuous
 62
     7
370
    15
100
AcDbCircle
 10
2197.83710767305
 20
867.1067227417919
 30
0.0
 40
2.197439522057772
100
AcDbArc
 50
13.1521401048725
 51
166.8478598951401
  0
ARC
  5
842
330
818
100
AcDbEntity
  8
0
  6
Continuous
 62
     7
370
    15
100
AcDbCircle
 10
2197.83710767305
 20
867.1067227417919
 30
0.0
 40
2.145679479873544
100
AcDbArc
 50
166.5246847195768
 51
193.4753152804231
  0
ARC
  5
843
330
818
100
AcDbEntity
  8
0
  6
Continuous
 62
     7
370
    15
100
AcDbCircle
 10
2197.83710767305
 20
867.1067227417919
 30
0.0
 40
2.197439522057744
100
AcDbArc
 50
193.1521401048725
 51
346.8478598951402
  0
ARC
  5
844
330
818
100
AcDbEntity
  8
0
  6
Continuous
 62
     7
370
    15
100
AcDbCircle
 10
2197.83710767305
 20
867.1067227417919
 30
0.0
 40
2.145679479873544
100
AcDbArc
 50
346.5246847195768
 51
13.47531528042316
  0
CIRCLE
  5
845
330
818
100
AcDbEntity
  8
0
  6
Continuous
 62
     7
370
    15
100
AcDbCircle
 10
2173.83710767305
 20
867.1067227417919
 30
0.0
 40
2.475000000010311
  0
ARC
  5
846
330
818
100
AcDbEntity
  8
0
  6
Continuous
 62
     7
370
    15
100
AcDbCircle
 10
2173.83710767305
 20
867.1067227417919
 30
0.0
 40
2.197439522057301
100
AcDbArc
 50
13.15214010487884
 51
166.8478598951401
  0
ARC
  5
847
330
818
100
AcDbEntity
  8
0
  6
Continuous
 62
     7
370
    15
100
AcDbCircle
 10
2173.83710767305
 20
867.1067227417919
 30
0.0
 40
2.145679479873102
100
AcDbArc
 50
166.5246847195768
 51
193.4753152804231
  0
ARC
  5
848
330
818
100
AcDbEntity
  8
0
  6
Continuous
 62
     7
370
    15
100
AcDbCircle
 10
2173.83710767305
 20
867.1067227417919
 30
0.0
 40
2.197439522057301
100
AcDbArc
 50
193.1521401048788
 51
346.8478598951402
  0
ARC
  5
849
330
818
100
AcDbEntity
  8
0
  6
Continuous
 62
     7
370
    15
100
AcDbCircle
 10
2173.83710767305
 20
867.1067227417919
 30
0.0
 40
2.145679479873102
100
AcDbArc
 50
346.5246847195768
 51
13.47531528042316
  0
CIRCLE
  5
84A
330
818
100
AcDbEntity
  8
0
  6
Continuous
 62
     7
370
    15
100
AcDbCircle
 10
2149.83710767305
 20
867.1067227417919
 30
0.0
 40
3.424999999999982
  0
CIRCLE
  5
84B
330
818
100
AcDbEntity
  8
0
  6
Continuous
 62
     7
370
    15
100
AcDbCircle
 10
2173.83710767305
 20
867.1067227417919
 30
0.0
 40
3.424999999999982
  0
ARC
  5
84C
330
818
100
AcDbEntity
  8
0
  6
Continuous
 62
     7
370
    15
100
AcDbCircle
 10
2125.83710767305
 20
867.1067227417918
 30
0.0
 40
2.197439522057315
100
AcDbArc
 50
13.15214010487884
 51
166.8478598951401
  0
ARC
  5
84D
330
818
100
AcDbEntity
  8
0
  6
Continuous
 62
     7
370
    15
100
AcDbCircle
 10
2125.83710767305
 20
867.1067227417918
 30
0.0
 40
2.145679479873085
100
AcDbArc
 50
166.5246847195768
 51
193.4753152804231
  0
ARC
  5
84E
330
818
100
AcDbEntity
  8
0
  6
Continuous
 62
     7
370
    15
100
AcDbCircle
 10
2125.83710767305
 20
867.1067227417918
 30
0.0
 40
2.197439522057298
100
AcDbArc
 50
193.1521401048788
 51
346.8478598951402
  0
ARC
  5
84F
330
818
100
AcDbEntity
  8
0
  6
Continuous
 62
     7
370
    15
100
AcDbCircle
 10
2125.83710767305
 20
867.1067227417918
 30
0.0
 40
2.145679479873075
100
AcDbArc
 50
346.5246847195768
 51
13.47531528042316
  0
CIRCLE
  5
850
330
818
100
AcDbEntity
  8
0
  6
Continuous
 62
     7
370
    15
100
AcDbCircle
 10
2161.83710767305
 20
867.1067227417919
 30
0.0
 40
3.425000000000011
  0
SPLINE
  5
851
330
818
100
AcDbEntity
  8
0
  6
Continuous
 62
     7
370
    15
100
AcDbSpline
210
0.0
220
0.0
230
1.0
 70
     8
 71
     3
 72
    14
 73
    10
 74
     0
 42
0.0000000001
 43
0.0000000001
 40
0.0
 40
0.0
 40
0.0
 40
0.0
 40
0.25
 40
0.25
 40
0.5
 40
0.5
 40
0.75
 40
0.75
 40
0.9999999999999998
 40
0.9999999999999998
 40
0.9999999999999998
 40
0.9999999999999998
 10
2195.912150777906
 20
867.6067227417918
 30
0.0
 10
2196.022870023291
 20
868.0329822914504
 30
0.0
 10
2196.271975400424
 20
868.4104773093082
 30
0.0
 10
2196.968706607819
 20
868.9493552588826
 30
0.0
 10
2197.396703364518
 20
869.0955563316531
 30
0.0
 10
2198.277511981582
 20
869.0955563316531
 30
0.0
 10
2198.705508738281
 20
868.9493552588826
 30
0.0
 10
2199.402239945675
 20
868.4104773093082
 30
0.0
 10
2199.651345322808
 20
868.0329822914504
 30
0.0
 10
2199.762064568193
 20
867.6067227417918
 30
0.0
  0
LINE
  5
852
330
818
100
AcDbEntity
  8
0
  6
Continuous
 62
     7
370
    15
100
AcDbLine
 10
2195.912150777906
 20
867.6067227417918
 30
0.0
 11
2199.762064568193
 21
867.6067227417918
 31
0.0
  0
SPLINE
  5
853
330
818
100
AcDbEntity
  8
0
  6
Continuous
 62
     7
370
    15
100
AcDbSpline
210
0.0
220
0.0
230
1.0
 70
     8
 71
     3
 72
    14
 73
    10
 74
     0
 42
0.0000000001
 43
0.0000000001
 40
0.0
 40
0.0
 40
0.0
 40
0.0
 40
0.25
 40
0.25
 40
0.5000000000000001
 40
0.5000000000000001
 40
0.7500000000000002
 40
0.7500000000000002
 40
1.0
 40
1.0
 40
1.0
 40
1.0
 10
2111.912150777906
 20
867.6067227417918
 30
0.0
 10
2112.022870023292
 20
868.0329822914504
 30
0.0
 10
2112.271975400425
 20
868.4104773093082
 30
0.0
 10
2112.968706607819
 20
868.9493552588825
 30
0.0
 10
2113.396703364518
 20
869.0955563316531
 30
0.0
 10
2114.277511981582
 20
869.0955563316531
 30
0.0
 10
2114.705508738281
 20
868.9493552588825
 30
0.0
 10
2115.402239945675
 20
868.4104773093082
 30
0.0
 10
2115.651345322808
 20
868.0329822914504
 30
0.0
 10
2115.762064568193
 20
867.6067227417918
 30
0.0
  0
LINE
  5
854
330
818
100
AcDbEntity
  8
0
  6
Continuous
 62
     7
370
    15
100
AcDbLine
 10
2111.912150777906
 20
867.6067227417918
 30
0.0
 11
2115.762064568193
 21
867.6067227417918
 31
0.0
  0
SPLINE
  5
855
330
818
100
AcDbEntity
  8
0
  6
Continuous
 62
     7
370
    15
100
AcDbSpline
210
0.0
220
0.0
230
1.0
 70
     8
 71
     3
 72
    14
 73
    10
 74
     0
 42
0.0000000001
 43
0.0000000001
 40
0.0
 40
0.0
 40
0.0
 40
0.0
 40
0.25
 40
0.25
 40
0.5
 40
0.5
 40
0.75
 40
0.75
 40
0.9999999999999998
 40
0.9999999999999998
 40
0.9999999999999998
 40
0.9999999999999998
 10
2171.912150777906
 20
867.6067227417918
 30
0.0
 10
2172.022870023292
 20
868.0329822914504
 30
0.0
 10
2172.271975400424
 20
868.4104773093082
 30
0.0
 10
2172.968706607819
 20
868.9493552588826
 30
0.0
 10
2173.396703364518
 20
869.0955563316531
 30
0.0
 10
2174.277511981582
 20
869.0955563316531
 30
0.0
 10
2174.705508738281
 20
868.9493552588826
 30
0.0
 10
2175.402239945675
 20
868.4104773093082
 30
0.0
 10
2175.651345322808
 20
868.0329822914504
 30
0.0
 10
2175.762064568193
 20
867.6067227417918
 30
0.0
  0
LINE
  5
856
330
818
100
AcDbEntity
  8
0
  6
Continuous
 62
     7
370
    15
100
AcDbLine
 10
2171.912150777906
 20
867.6067227417918
 30
0.0
 11
2175.762064568193
 21
867.6067227417918
 31
0.0
  0
SPLINE
  5
857
330
818
100
AcDbEntity
  8
0
  6
Continuous
 62
     7
370
    15
100
AcDbSpline
210
0.0
220
0.0
230
1.0
 70
     8
 71
     3
 72
    14
 73
    10
 74
     0
 42
0.0000000001
 43
0.0000000001
 40
0.0
 40
0.0
 40
0.0
 40
0.0
 40
0.25
 40
0.25
 40
0.5
 40
0.5
 40
0.75
 40
0.75
 40
0.9999999999999998
 40
0.9999999999999998
 40
0.9999999999999998
 40
0.9999999999999998
 10
2159.912150777906
 20
867.6067227417918
 30
0.0
 10
2160.022870023292
 20
868.0329822914504
 30
0.0
 10
2160.271975400425
 20
868.4104773093082
 30
0.0
 10
2160.968706607819
 20
868.9493552588826
 30
0.0
 10
2161.396703364518
 20
869.0955563316531
 30
0.0
 10
2162.277511981582
 20
869.0955563316531
 30
0.0
 10
2162.705508738281
 20
868.9493552588826
 30
0.0
 10
2163.402239945675
 20
868.4104773093082
 30
0.0
 10
2163.651345322808
 20
868.0329822914504
 30
0.0
 10
2163.762064568193
 20
867.6067227417918
 30
0.0
  0
LINE
  5
858
330
818
100
AcDbEntity
  8
0
  6
Continuous
 62
     7
370
    15
100
AcDbLine
 10
2159.912150777906
 20
867.6067227417918
 30
0.0
 11
2163.762064568193
 21
867.6067227417918
 31
0.0
  0
SPLINE
  5
859
330
818
100
AcDbEntity
  8
0
  6
Continuous
 62
     7
370
    15
100
AcDbSpline
210
0.0
220
0.0
230
1.0
 70
     8
 71
     3
 72
    14
 73
    10
 74
     0
 42
0.0000000001
 43
0.0000000001
 40
0.0
 40
0.0
 40
0.0
 40
0.0
 40
0.25
 40
0.25
 40
0.5000000000000001
 40
0.5000000000000001
 40
0.7500000000000002
 40
0.7500000000000002
 40
1.0
 40
1.0
 40
1.0
 40
1.0
 10
2099.912150777907
 20
867.6067227417918
 30
0.0
 10
2100.022870023292
 20
868.0329822914504
 30
0.0
 10
2100.271975400424
 20
868.4104773093082
 30
0.0
 10
2100.968706607819
 20
868.9493552588825
 30
0.0
 10
2101.396703364518
 20
869.0955563316531
 30
0.0
 10
2102.277511981582
 20
869.0955563316531
 30
0.0
 10
2102.705508738281
 20
868.9493552588825
 30
0.0
 10
2103.402239945675
 20
868.4104773093082
 30
0.0
 10
2103.651345322808
 20
868.0329822914504
 30
0.0
 10
2103.762064568194
 20
867.6067227417918
 30
0.0
  0
LINE
  5
85A
330
818
100
AcDbEntity
  8
0
  6
Continuous
 62
     7
370
    15
100
AcDbLine
 10
2099.912150777907
 20
867.6067227417918
 30
0.0
 11
2103.762064568194
 21
867.6067227417918
 31
0.0
  0
SPLINE
  5
85B
330
818
100
AcDbEntity
  8
0
  6
Continuous
 62
     7
370
    15
100
AcDbSpline
210
0.0
220
0.0
230
1.0
 70
     8
 71
     3
 72
    14
 73
    10
 74
     0
 42
0.0000000001
 43
0.0000000001
 40
0.0
 40
0.0
 40
0.0
 40
0.0
 40
0.2499999999999999
 40
0.2499999999999999
 40
0.4999999999999999
 40
0.4999999999999999
 40
0.7499999999999999
 40
0.7499999999999999
 40
1.0
 40
1.0
 40
1.0
 40
1.0
 10
2123.912150777906
 20
867.6067227417918
 30
0.0
 10
2124.022870023292
 20
868.0329822914504
 30
0.0
 10
2124.271975400424
 20
868.4104773093082
 30
0.0
 10
2124.968706607819
 20
868.9493552588825
 30
0.0
 10
2125.396703364518
 20
869.0955563316531
 30
0.0
 10
2126.277511981582
 20
869.0955563316531
 30
0.0
 10
2126.705508738281
 20
868.9493552588825
 30
0.0
 10
2127.402239945675
 20
868.4104773093082
 30
0.0
 10
2127.651345322808
 20
868.0329822914504
 30
0.0
 10
2127.762064568193
 20
867.6067227417918
 30
0.0
  0
LINE
  5
85C
330
818
100
AcDbEntity
  8
0
  6
Continuous
 62
     7
370
    15
100
AcDbLine
 10
2123.912150777906
 20
867.6067227417918
 30
0.0
 11
2127.762064568193
 21
867.6067227417918
 31
0.0
  0
SPLINE
  5
85D
330
818
100
AcDbEntity
  8
0
  6
Continuous
 62
     7
370
    15
100
AcDbSpline
210
0.0
220
0.0
230
1.0
 70
     8
 71
     3
 72
    14
 73
    10
 74
     0
 42
0.0000000001
 43
0.0000000001
 40
0.0
 40
0.0
 40
0.0
 40
0.0
 40
0.25
 40
0.25
 40
0.5
 40
0.5
 40
0.75
 40
0.75
 40
0.9999999999999998
 40
0.9999999999999998
 40
0.9999999999999998
 40
0.9999999999999998
 10
2183.912150777906
 20
867.6067227417918
 30
0.0
 10
2184.022870023292
 20
868.0329822914504
 30
0.0
 10
2184.271975400424
 20
868.4104773093082
 30
0.0
 10
2184.968706607819
 20
868.9493552588826
 30
0.0
 10
2185.396703364518
 20
869.0955563316531
 30
0.0
 10
2186.277511981582
 20
869.0955563316531
 30
0.0
 10
2186.705508738281
 20
868.9493552588826
 30
0.0
 10
2187.402239945675
 20
868.4104773093082
 30
0.0
 10
2187.651345322808
 20
868.0329822914504
 30
0.0
 10
2187.762064568193
 20
867.6067227417918
 30
0.0
  0
LINE
  5
85E
330
818
100
AcDbEntity
  8
0
  6
Continuous
 62
     7
370
    15
100
AcDbLine
 10
2183.912150777906
 20
867.6067227417918
 30
0.0
 11
2187.762064568193
 21
867.6067227417918
 31
0.0
  0
SPLINE
  5
85F
330
818
100
AcDbEntity
  8
0
  6
Continuous
 62
     7
370
    15
100
AcDbSpline
210
0.0
220
0.0
230
1.0
 70
     8
 71
     3
 72
    14
 73
    10
 74
     0
 42
0.0000000001
 43
0.0000000001
 40
0.0
 40
0.0
 40
0.0
 40
0.0
 40
0.2499999999999999
 40
0.2499999999999999
 40
0.4999999999999999
 40
0.4999999999999999
 40
0.7499999999999999
 40
0.7499999999999999
 40
1.0
 40
1.0
 40
1.0
 40
1.0
 10
2135.912150777906
 20
867.6067227417918
 30
0.0
 10
2136.022870023292
 20
868.0329822914504
 30
0.0
 10
2136.271975400424
 20
868.4104773093082
 30
0.0
 10
2136.968706607819
 20
868.9493552588826
 30
0.0
 10
2137.396703364518
 20
869.0955563316531
 30
0.0
 10
2138.277511981582
 20
869.0955563316531
 30
0.0
 10
2138.705508738281
 20
868.9493552588826
 30
0.0
 10
2139.402239945676
 20
868.4104773093082
 30
0.0
 10
2139.651345322808
 20
868.0329822914504
 30
0.0
 10
2139.762064568193
 20
867.6067227417918
 30
0.0
  0
LINE
  5
860
330
818
100
AcDbEntity
  8
0
  6
Continuous
 62
     7
370
    15
100
AcDbLine
 10
2135.912150777906
 20
867.6067227417918
 30
0.0
 11
2139.762064568193
 21
867.6067227417918
 31
0.0
  0
SPLINE
  5
861
330
818
100
AcDbEntity
  8
0
  6
Continuous
 62
     7
370
    15
100
AcDbSpline
210
0.0
220
0.0
230
1.0
 70
     8
 71
     3
 72
    14
 73
    10
 74
     0
 42
0.0000000001
 43
0.0000000001
 40
0.0
 40
0.0
 40
0.0
 40
0.0
 40
0.2499999999999999
 40
0.2499999999999999
 40
0.4999999999999999
 40
0.4999999999999999
 40
0.7499999999999999
 40
0.7499999999999999
 40
1.0
 40
1.0
 40
1.0
 40
1.0
 10
2147.912150777907
 20
867.6067227417918
 30
0.0
 10
2148.022870023291
 20
868.0329822914504
 30
0.0
 10
2148.271975400424
 20
868.4104773093082
 30
0.0
 10
2148.968706607819
 20
868.9493552588826
 30
0.0
 10
2149.396703364518
 20
869.0955563316531
 30
0.0
 10
2150.277511981582
 20
869.0955563316531
 30
0.0
 10
2150.705508738281
 20
868.9493552588826
 30
0.0
 10
2151.402239945675
 20
868.4104773093082
 30
0.0
 10
2151.651345322808
 20
868.0329822914504
 30
0.0
 10
2151.762064568194
 20
867.6067227417918
 30
0.0
  0
LINE
  5
862
330
818
100
AcDbEntity
  8
0
  6
Continuous
 62
     7
370
    15
100
AcDbLine
 10
2147.912150777907
 20
867.6067227417918
 30
0.0
 11
2151.762064568194
 21
867.6067227417918
 31
0.0
  0
SPLINE
  5
863
330
818
100
AcDbEntity
  8
0
  6
Continuous
 62
     7
370
    15
100
AcDbSpline
210
0.0
220
0.0
230
1.0
 70
     8
 71
     3
 72
    10
 73
     6
 74
     0
 42
0.0000000001
 43
0.0000000001
 40
0.0
 40
0.0
 40
0.0
 40
0.0
 40
0.5
 40
0.5
 40
1.0
 40
1.0
 40
1.0
 40
1.0
 10
2139.762064568193
 20
866.6067227417919
 30
0.0
 10
2139.651345322808
 20
866.1804631921333
 30
0.0
 10
2139.402239945676
 20
865.8029681742755
 30
0.0
 10
2138.705508738281
 20
865.2640902247012
 30
0.0
 10
2138.277511981582
 20
865.1178891519306
 30
0.0
 10
2137.83710767305
 20
865.1178891519306
 30
0.0
  0
SPLINE
  5
864
330
818
100
AcDbEntity
  8
0
  6
Continuous
 62
     7
370
    15
100
AcDbSpline
210
0.0
220
0.0
230
1.0
 70
     8
 71
     3
 72
    10
 73
     6
 74
     0
 42
0.0000000001
 43
0.0000000001
 40
0.0
 40
0.0
 40
0.0
 40
0.0
 40
0.5
 40
0.5
 40
0.9999999999999998
 40
0.9999999999999998
 40
0.9999999999999998
 40
0.9999999999999998
 10
2137.83710767305
 20
865.1178891519306
 30
0.0
 10
2137.396703364518
 20
865.1178891519306
 30
0.0
 10
2136.968706607819
 20
865.2640902247012
 30
0.0
 10
2136.271975400424
 20
865.8029681742755
 30
0.0
 10
2136.022870023292
 20
866.1804631921333
 30
0.0
 10
2135.912150777906
 20
866.6067227417919
 30
0.0
  0
LINE
  5
865
330
818
100
AcDbEntity
  8
0
  6
Continuous
 62
     7
370
    15
100
AcDbLine
 10
2139.762064568193
 20
866.6067227417919
 30
0.0
 11
2135.912150777906
 21
866.6067227417919
 31
0.0
  0
SPLINE
  5
866
330
818
100
AcDbEntity
  8
0
  6
Continuous
 62
     7
370
    15
100
AcDbSpline
210
0.0
220
0.0
230
1.0
 70
     8
 71
     3
 72
    10
 73
     6
 74
     0
 42
0.0000000001
 43
0.0000000001
 40
0.0
 40
0.0
 40
0.0
 40
0.0
 40
0.5000000000000004
 40
0.5000000000000004
 40
1.0
 40
1.0
 40
1.0
 40
1.0
 10
2115.762064568193
 20
866.6067227417919
 30
0.0
 10
2115.651345322808
 20
866.1804631921333
 30
0.0
 10
2115.402239945675
 20
865.8029681742755
 30
0.0
 10
2114.705508738281
 20
865.2640902247012
 30
0.0
 10
2114.277511981582
 20
865.1178891519306
 30
0.0
 10
2113.83710767305
 20
865.1178891519306
 30
0.0
  0
SPLINE
  5
867
330
818
100
AcDbEntity
  8
0
  6
Continuous
 62
     7
370
    15
100
AcDbSpline
210
0.0
220
0.0
230
1.0
 70
     8
 71
     3
 72
    10
 73
     6
 74
     0
 42
0.0000000001
 43
0.0000000001
 40
0.0
 40
0.0
 40
0.0
 40
0.0
 40
0.5
 40
0.5
 40
1.0
 40
1.0
 40
1.0
 40
1.0
 10
2113.83710767305
 20
865.1178891519306
 30
0.0
 10
2113.396703364518
 20
865.1178891519306
 30
0.0
 10
2112.968706607819
 20
865.2640902247012
 30
0.0
 10
2112.271975400425
 20
865.8029681742755
 30
0.0
 10
2112.022870023292
 20
866.1804631921333
 30
0.0
 10
2111.912150777906
 20
866.6067227417919
 30
0.0
  0
LINE
  5
868
330
818
100
AcDbEntity
  8
0
  6
Continuous
 62
     7
370
    15
100
AcDbLine
 10
2115.762064568193
 20
866.6067227417919
 30
0.0
 11
2111.912150777906
 21
866.6067227417919
 31
0.0
  0
SPLINE
  5
869
330
818
100
AcDbEntity
  8
0
  6
Continuous
 62
     7
370
    15
100
AcDbSpline
210
0.0
220
0.0
230
1.0
 70
     8
 71
     3
 72
    10
 73
     6
 74
     0
 42
0.0000000001
 43
0.0000000001
 40
0.0
 40
0.0
 40
0.0
 40
0.0
 40
0.5
 40
0.5
 40
1.0
 40
1.0
 40
1.0
 40
1.0
 10
2175.762064568193
 20
866.6067227417919
 30
0.0
 10
2175.651345322808
 20
866.1804631921333
 30
0.0
 10
2175.402239945675
 20
865.8029681742755
 30
0.0
 10
2174.705508738281
 20
865.2640902247012
 30
0.0
 10
2174.277511981582
 20
865.1178891519306
 30
0.0
 10
2173.83710767305
 20
865.1178891519306
 30
0.0
  0
SPLINE
  5
86A
330
818
100
AcDbEntity
  8
0
  6
Continuous
 62
     7
370
    15
100
AcDbSpline
210
0.0
220
0.0
230
1.0
 70
     8
 71
     3
 72
    10
 73
     6
 74
     0
 42
0.0000000001
 43
0.0000000001
 40
0.0
 40
0.0
 40
0.0
 40
0.0
 40
0.5
 40
0.5
 40
1.0
 40
1.0
 40
1.0
 40
1.0
 10
2173.83710767305
 20
865.1178891519306
 30
0.0
 10
2173.396703364518
 20
865.1178891519306
 30
0.0
 10
2172.968706607819
 20
865.2640902247012
 30
0.0
 10
2172.271975400424
 20
865.8029681742755
 30
0.0
 10
2172.022870023292
 20
866.1804631921333
 30
0.0
 10
2171.912150777906
 20
866.6067227417919
 30
0.0
  0
LINE
  5
86B
330
818
100
AcDbEntity
  8
0
  6
Continuous
 62
     7
370
    15
100
AcDbLine
 10
2175.762064568193
 20
866.6067227417919
 30
0.0
 11
2171.912150777906
 21
866.6067227417919
 31
0.0
  0
SPLINE
  5
86C
330
818
100
AcDbEntity
  8
0
  6
Continuous
 62
     7
370
    15
100
AcDbSpline
210
0.0
220
0.0
230
1.0
 70
     8
 71
     3
 72
    10
 73
     6
 74
     0
 42
0.0000000001
 43
0.0000000001
 40
0.0
 40
0.0
 40
0.0
 40
0.0
 40
0.5000000000000004
 40
0.5000000000000004
 40
1.0
 40
1.0
 40
1.0
 40
1.0
 10
2103.762064568194
 20
866.6067227417919
 30
0.0
 10
2103.651345322808
 20
866.1804631921333
 30
0.0
 10
2103.402239945675
 20
865.8029681742755
 30
0.0
 10
2102.705508738281
 20
865.2640902247012
 30
0.0
 10
2102.277511981582
 20
865.1178891519306
 30
0.0
 10
2101.83710767305
 20
865.1178891519306
 30
0.0
  0
SPLINE
  5
86D
330
818
100
AcDbEntity
  8
0
  6
Continuous
 62
     7
370
    15
100
AcDbSpline
210
0.0
220
0.0
230
1.0
 70
     8
 71
     3
 72
    10
 73
     6
 74
     0
 42
0.0000000001
 43
0.0000000001
 40
0.0
 40
0.0
 40
0.0
 40
0.0
 40
0.5
 40
0.5
 40
1.0
 40
1.0
 40
1.0
 40
1.0
 10
2101.83710767305
 20
865.1178891519306
 30
0.0
 10
2101.396703364518
 20
865.1178891519306
 30
0.0
 10
2100.968706607819
 20
865.2640902247012
 30
0.0
 10
2100.271975400424
 20
865.8029681742755
 30
0.0
 10
2100.022870023292
 20
866.1804631921333
 30
0.0
 10
2099.912150777907
 20
866.6067227417919
 30
0.0
  0
LINE
  5
86E
330
818
100
AcDbEntity
  8
0
  6
Continuous
 62
     7
370
    15
100
AcDbLine
 10
2103.762064568194
 20
866.6067227417919
 30
0.0
 11
2099.912150777907
 21
866.6067227417919
 31
0.0
  0
SPLINE
  5
86F
330
818
100
AcDbEntity
  8
0
  6
Continuous
 62
     7
370
    15
100
AcDbSpline
210
0.0
220
0.0
230
1.0
 70
     8
 71
     3
 72
    10
 73
     6
 74
     0
 42
0.0000000001
 43
0.0000000001
 40
0.0
 40
0.0
 40
0.0
 40
0.0
 40
0.5
 40
0.5
 40
1.0
 40
1.0
 40
1.0
 40
1.0
 10
2151.762064568194
 20
866.6067227417919
 30
0.0
 10
2151.651345322808
 20
866.1804631921333
 30
0.0
 10
2151.402239945675
 20
865.8029681742755
 30
0.0
 10
2150.705508738281
 20
865.2640902247012
 30
0.0
 10
2150.277511981582
 20
865.1178891519306
 30
0.0
 10
2149.83710767305
 20
865.1178891519306
 30
0.0
  0
SPLINE
  5
870
330
818
100
AcDbEntity
  8
0
  6
Continuous
 62
     7
370
    15
100
AcDbSpline
210
0.0
220
0.0
230
1.0
 70
     8
 71
     3
 72
    10
 73
     6
 74
     0
 42
0.0000000001
 43
0.0000000001
 40
0.0
 40
0.0
 40
0.0
 40
0.0
 40
0.5
 40
0.5
 40
0.9999999999999998
 40
0.9999999999999998
 40
0.9999999999999998
 40
0.9999999999999998
 10
2149.83710767305
 20
865.1178891519306
 30
0.0
 10
2149.396703364518
 20
865.1178891519306
 30
0.0
 10
2148.968706607819
 20
865.2640902247012
 30
0.0
 10
2148.271975400424
 20
865.8029681742755
 30
0.0
 10
2148.022870023291
 20
866.1804631921333
 30
0.0
 10
2147.912150777907
 20
866.6067227417919
 30
0.0
  0
LINE
  5
871
330
818
100
AcDbEntity
  8
0
  6
Continuous
 62
     7
370
    15
100
AcDbLine
 10
2151.762064568194
 20
866.6067227417919
 30
0.0
 11
2147.912150777907
 21
866.6067227417919
 31
0.0
  0
SPLINE
  5
872
330
818
100
AcDbEntity
  8
0
  6
Continuous
 62
     7
370
    15
100
AcDbSpline
210
0.0
220
0.0
230
1.0
 70
     8
 71
     3
 72
    10
 73
     6
 74
     0
 42
0.0000000001
 43
0.0000000001
 40
0.0
 40
0.0
 40
0.0
 40
0.0
 40
0.5
 40
0.5
 40
1.0
 40
1.0
 40
1.0
 40
1.0
 10
2187.762064568193
 20
866.6067227417919
 30
0.0
 10
2187.651345322808
 20
866.1804631921333
 30
0.0
 10
2187.402239945675
 20
865.8029681742755
 30
0.0
 10
2186.705508738281
 20
865.2640902247012
 30
0.0
 10
2186.277511981582
 20
865.1178891519306
 30
0.0
 10
2185.83710767305
 20
865.1178891519306
 30
0.0
  0
SPLINE
  5
873
330
818
100
AcDbEntity
  8
0
  6
Continuous
 62
     7
370
    15
100
AcDbSpline
210
0.0
220
0.0
230
1.0
 70
     8
 71
     3
 72
    10
 73
     6
 74
     0
 42
0.0000000001
 43
0.0000000001
 40
0.0
 40
0.0
 40
0.0
 40
0.0
 40
0.5
 40
0.5
 40
1.0
 40
1.0
 40
1.0
 40
1.0
 10
2185.83710767305
 20
865.1178891519307
 30
0.0
 10
2185.396703364518
 20
865.1178891519307
 30
0.0
 10
2184.968706607819
 20
865.2640902247012
 30
0.0
 10
2184.271975400424
 20
865.8029681742755
 30
0.0
 10
2184.022870023292
 20
866.1804631921333
 30
0.0
 10
2183.912150777906
 20
866.6067227417919
 30
0.0
  0
LINE
  5
874
330
818
100
AcDbEntity
  8
0
  6
Continuous
 62
     7
370
    15
100
AcDbLine
 10
2187.762064568193
 20
866.6067227417919
 30
0.0
 11
2183.912150777906
 21
866.6067227417919
 31
0.0
  0
SPLINE
  5
875
330
818
100
AcDbEntity
  8
0
  6
Continuous
 62
     7
370
    15
100
AcDbSpline
210
0.0
220
0.0
230
1.0
 70
     8
 71
     3
 72
    10
 73
     6
 74
     0
 42
0.0000000001
 43
0.0000000001
 40
0.0
 40
0.0
 40
0.0
 40
0.0
 40
0.5
 40
0.5
 40
1.0
 40
1.0
 40
1.0
 40
1.0
 10
2163.762064568193
 20
866.6067227417919
 30
0.0
 10
2163.651345322808
 20
866.1804631921333
 30
0.0
 10
2163.402239945675
 20
865.8029681742755
 30
0.0
 10
2162.705508738281
 20
865.2640902247012
 30
0.0
 10
2162.277511981582
 20
865.1178891519306
 30
0.0
 10
2161.83710767305
 20
865.1178891519306
 30
0.0
  0
SPLINE
  5
876
330
818
100
AcDbEntity
  8
0
  6
Continuous
 62
     7
370
    15
100
AcDbSpline
210
0.0
220
0.0
230
1.0
 70
     8
 71
     3
 72
    10
 73
     6
 74
     0
 42
0.0000000001
 43
0.0000000001
 40
0.0
 40
0.0
 40
0.0
 40
0.0
 40
0.5
 40
0.5
 40
1.0
 40
1.0
 40
1.0
 40
1.0
 10
2161.83710767305
 20
865.1178891519306
 30
0.0
 10
2161.396703364518
 20
865.1178891519306
 30
0.0
 10
2160.968706607819
 20
865.2640902247012
 30
0.0
 10
2160.271975400425
 20
865.8029681742755
 30
0.0
 10
2160.022870023292
 20
866.1804631921333
 30
0.0
 10
2159.912150777906
 20
866.6067227417919
 30
0.0
  0
LINE
  5
877
330
818
100
AcDbEntity
  8
0
  6
Continuous
 62
     7
370
    15
100
AcDbLine
 10
2163.762064568193
 20
866.6067227417919
 30
0.0
 11
2159.912150777906
 21
866.6067227417919
 31
0.0
  0
SPLINE
  5
878
330
818
100
AcDbEntity
  8
0
  6
Continuous
 62
     7
370
    15
100
AcDbSpline
210
0.0
220
0.0
230
1.0
 70
     8
 71
     3
 72
    10
 73
     6
 74
     0
 42
0.0000000001
 43
0.0000000001
 40
0.0
 40
0.0
 40
0.0
 40
0.0
 40
0.5
 40
0.5
 40
1.0
 40
1.0
 40
1.0
 40
1.0
 10
2127.762064568193
 20
866.6067227417919
 30
0.0
 10
2127.651345322808
 20
866.1804631921333
 30
0.0
 10
2127.402239945675
 20
865.8029681742755
 30
0.0
 10
2126.705508738281
 20
865.2640902247012
 30
0.0
 10
2126.277511981582
 20
865.1178891519306
 30
0.0
 10
2125.83710767305
 20
865.1178891519306
 30
0.0
  0
SPLINE
  5
879
330
818
100
AcDbEntity
  8
0
  6
Continuous
 62
     7
370
    15
100
AcDbSpline
210
0.0
220
0.0
230
1.0
 70
     8
 71
     3
 72
    10
 73
     6
 74
     0
 42
0.0000000001
 43
0.0000000001
 40
0.0
 40
0.0
 40
0.0
 40
0.0
 40
0.5
 40
0.5
 40
0.9999999999999998
 40
0.9999999999999998
 40
0.9999999999999998
 40
0.9999999999999998
 10
2125.83710767305
 20
865.1178891519306
 30
0.0
 10
2125.396703364518
 20
865.1178891519306
 30
0.0
 10
2124.968706607819
 20
865.2640902247012
 30
0.0
 10
2124.271975400424
 20
865.8029681742755
 30
0.0
 10
2124.022870023292
 20
866.1804631921333
 30
0.0
 10
2123.912150777906
 20
866.6067227417919
 30
0.0
  0
LINE
  5
87A
330
818
100
AcDbEntity
  8
0
  6
Continuous
 62
     7
370
    15
100
AcDbLine
 10
2127.762064568193
 20
866.6067227417919
 30
0.0
 11
2123.912150777906
 21
866.6067227417919
 31
0.0
  0
SPLINE
  5
87B
330
818
100
AcDbEntity
  8
0
  6
Continuous
 62
     7
370
    15
100
AcDbSpline
210
0.0
220
0.0
230
1.0
 70
     8
 71
     3
 72
    10
 73
     6
 74
     0
 42
0.0000000001
 43
0.0000000001
 40
0.0
 40
0.0
 40
0.0
 40
0.0
 40
0.5
 40
0.5
 40
1.0
 40
1.0
 40
1.0
 40
1.0
 10
2199.762064568193
 20
866.6067227417919
 30
0.0
 10
2199.651345322808
 20
866.1804631921333
 30
0.0
 10
2199.402239945675
 20
865.8029681742755
 30
0.0
 10
2198.705508738281
 20
865.2640902247012
 30
0.0
 10
2198.277511981582
 20
865.1178891519306
 30
0.0
 10
2197.83710767305
 20
865.1178891519306
 30
0.0
  0
SPLINE
  5
87C
330
818
100
AcDbEntity
  8
0
  6
Continuous
 62
     7
370
    15
100
AcDbSpline
210
0.0
220
0.0
230
1.0
 70
     8
 71
     3
 72
    10
 73
     6
 74
     0
 42
0.0000000001
 43
0.0000000001
 40
0.0
 40
0.0
 40
0.0
 40
0.0
 40
0.5
 40
0.5
 40
1.0
 40
1.0
 40
1.0
 40
1.0
 10
2197.83710767305
 20
865.1178891519307
 30
0.0
 10
2197.396703364518
 20
865.1178891519307
 30
0.0
 10
2196.968706607819
 20
865.2640902247012
 30
0.0
 10
2196.271975400424
 20
865.8029681742755
 30
0.0
 10
2196.022870023291
 20
866.1804631921333
 30
0.0
 10
2195.912150777906
 20
866.6067227417919
 30
0.0
  0
LINE
  5
87D
330
818
100
AcDbEntity
  8
0
  6
Continuous
 62
     7
370
    15
100
AcDbLine
 10
2199.762064568193
 20
866.6067227417919
 30
0.0
 11
2195.912150777906
 21
866.6067227417919
 31
0.0
  0
ARC
  5
87E
330
818
100
AcDbEntity
  8
0
  6
Continuous
 62
     7
370
    15
100
AcDbCircle
 10
2197.83710767305
 20
867.1067227417919
 30
0.0
 40
2.188421798070006
100
AcDbArc
 50
13.20731410364895
 51
166.792685896351
  0
SPLINE
  5
87F
330
818
100
AcDbEntity
  8
0
  6
Continuous
 62
     7
370
    15
100
AcDbSpline
210
0.0
220
0.0
230
1.0
 70
    24
 71
     3
 72
    10
 73
     6
 74
     0
 42
0.0000000001
 43
0.0000000001
 40
0.0
 40
0.0
 40
0.0
 40
0.0
 40
0.5
 40
0.5
 40
1.0
 40
1.0
 40
1.0
 40
1.0
 10
2199.762064568193
 20
867.6067227417918
 30
0.0
 10
2199.813531151785
 20
867.6067227417918
 30
0.0
 10
2199.863930393753
 20
867.6067227417918
 30
0.0
 10
2199.939980392045
 20
867.6067227417918
 30
0.0
 10
2199.964251838683
 20
867.6067227417918
 30
0.0
 10
2199.967645156003
 20
867.6067227417918
 30
0.0
  0
SPLINE
  5
880
330
818
100
AcDbEntity
  8
0
  6
Continuous
 62
     7
370
    15
100
AcDbSpline
210
0.0
220
0.0
230
1.0
 70
    24
 71
     3
 72
    10
 73
     6
 74
     0
 42
0.0000000001
 43
0.0000000001
 40
0.0
 40
0.0
 40
0.0
 40
0.0
 40
0.5
 40
0.5
 40
1.0
 40
1.0
 40
1.0
 40
1.0
 10
2195.706570190097
 20
867.6067227417918
 30
0.0
 10
2195.709960928382
 20
867.6067227417918
 30
0.0
 10
2195.734336964158
 20
867.6067227417918
 30
0.0
 10
2195.809999541812
 20
867.6067227417918
 30
0.0
 10
2195.860718550985
 20
867.6067227417918
 30
0.0
 10
2195.912150777906
 20
867.6067227417918
 30
0.0
  0
ARC
  5
881
330
818
100
AcDbEntity
  8
0
  6
Continuous
 62
     7
370
    15
100
AcDbCircle
 10
2173.83710767305
 20
867.1067227417919
 30
0.0
 40
2.188421798069978
100
AcDbArc
 50
193.2073141036489
 51
346.792685896351
  0
SPLINE
  5
882
330
818
100
AcDbEntity
  8
0
  6
Continuous
 62
     7
370
    15
100
AcDbSpline
210
0.0
220
0.0
230
1.0
 70
    24
 71
     3
 72
    10
 73
     6
 74
     0
 42
0.0000000001
 43
0.0000000001
 40
0.0
 40
0.0
 40
0.0
 40
0.0
 40
0.5
 40
0.5
 40
1.0
 40
1.0
 40
1.0
 40
1.0
 10
2175.967645156003
 20
866.6067227417919
 30
0.0
 10
2175.964254417717
 20
866.6067227417919
 30
0.0
 10
2175.939878381942
 20
866.6067227417919
 30
0.0
 10
2175.864215804288
 20
866.6067227417919
 30
0.0
 10
2175.813496795115
 20
866.6067227417919
 30
0.0
 10
2175.762064568193
 20
866.6067227417919
 30
0.0
  0
SPLINE
  5
883
330
818
100
AcDbEntity
  8
0
  6
Continuous
 62
     7
370
    15
100
AcDbSpline
210
0.0
220
0.0
230
1.0
 70
    24
 71
     3
 72
    10
 73
     6
 74
     0
 42
0.0000000001
 43
0.0000000001
 40
0.0
 40
0.0
 40
0.0
 40
0.0
 40
0.5
 40
0.5
 40
1.0
 40
1.0
 40
1.0
 40
1.0
 10
2171.912150777906
 20
866.6067227417919
 30
0.0
 10
2171.860684194314
 20
866.6067227417919
 30
0.0
 10
2171.810284952347
 20
866.6067227417919
 30
0.0
 10
2171.734234954054
 20
866.6067227417919
 30
0.0
 10
2171.709963507416
 20
866.6067227417919
 30
0.0
 10
2171.706570190097
 20
866.6067227417919
 30
0.0
  0
ARC
  5
884
330
818
100
AcDbEntity
  8
0
  6
Continuous
 62
     7
370
    15
100
AcDbCircle
 10
2101.83710767305
 20
867.1067227417918
 30
0.0
 40
2.188421798069978
100
AcDbArc
 50
193.2073141036489
 51
346.792685896351
  0
SPLINE
  5
885
330
818
100
AcDbEntity
  8
0
  6
Continuous
 62
     7
370
    15
100
AcDbSpline
210
0.0
220
0.0
230
1.0
 70
    24
 71
     3
 72
    10
 73
     6
 74
     0
 42
0.0000000001
 43
0.0000000001
 40
0.0
 40
0.0
 40
0.0
 40
0.0
 40
0.5
 40
0.5
 40
1.0
 40
1.0
 40
1.0
 40
1.0
 10
2103.967645156003
 20
866.6067227417919
 30
0.0
 10
2103.964254417717
 20
866.6067227417919
 30
0.0
 10
2103.939878381942
 20
866.6067227417919
 30
0.0
 10
2103.864215804287
 20
866.6067227417919
 30
0.0
 10
2103.813496795115
 20
866.6067227417919
 30
0.0
 10
2103.762064568194
 20
866.6067227417919
 30
0.0
  0
SPLINE
  5
886
330
818
100
AcDbEntity
  8
0
  6
Continuous
 62
     7
370
    15
100
AcDbSpline
210
0.0
220
0.0
230
1.0
 70
    24
 71
     3
 72
    10
 73
     6
 74
     0
 42
0.0000000001
 43
0.0000000001
 40
0.0
 40
0.0
 40
0.0
 40
0.0
 40
0.5
 40
0.5
 40
1.0
 40
1.0
 40
1.0
 40
1.0
 10
2099.912150777907
 20
866.6067227417919
 30
0.0
 10
2099.860684194315
 20
866.6067227417919
 30
0.0
 10
2099.810284952347
 20
866.6067227417919
 30
0.0
 10
2099.734234954054
 20
866.6067227417919
 30
0.0
 10
2099.709963507416
 20
866.6067227417919
 30
0.0
 10
2099.706570190097
 20
866.6067227417919
 30
0.0
  0
ARC
  5
887
330
818
100
AcDbEntity
  8
0
  6
Continuous
 62
     7
370
    15
100
AcDbCircle
 10
2185.83710767305
 20
867.1067227417919
 30
0.0
 40
2.188421798069978
100
AcDbArc
 50
193.2073141036489
 51
346.792685896351
  0
SPLINE
  5
888
330
818
100
AcDbEntity
  8
0
  6
Continuous
 62
     7
370
    15
100
AcDbSpline
210
0.0
220
0.0
230
1.0
 70
    24
 71
     3
 72
    10
 73
     6
 74
     0
 42
0.0000000001
 43
0.0000000001
 40
0.0
 40
0.0
 40
0.0
 40
0.0
 40
0.5
 40
0.5
 40
1.0
 40
1.0
 40
1.0
 40
1.0
 10
2187.967645156003
 20
866.6067227417919
 30
0.0
 10
2187.964254417717
 20
866.6067227417919
 30
0.0
 10
2187.939878381942
 20
866.6067227417919
 30
0.0
 10
2187.864215804288
 20
866.6067227417919
 30
0.0
 10
2187.813496795115
 20
866.6067227417919
 30
0.0
 10
2187.762064568193
 20
866.6067227417919
 30
0.0
  0
SPLINE
  5
889
330
818
100
AcDbEntity
  8
0
  6
Continuous
 62
     7
370
    15
100
AcDbSpline
210
0.0
220
0.0
230
1.0
 70
    24
 71
     3
 72
    10
 73
     6
 74
     0
 42
0.0000000001
 43
0.0000000001
 40
0.0
 40
0.0
 40
0.0
 40
0.0
 40
0.5
 40
0.5
 40
1.0
 40
1.0
 40
1.0
 40
1.0
 10
2183.912150777906
 20
866.6067227417919
 30
0.0
 10
2183.860684194314
 20
866.6067227417919
 30
0.0
 10
2183.810284952347
 20
866.6067227417919
 30
0.0
 10
2183.734234954054
 20
866.6067227417919
 30
0.0
 10
2183.709963507416
 20
866.6067227417919
 30
0.0
 10
2183.706570190097
 20
866.6067227417919
 30
0.0
  0
ARC
  5
88A
330
818
100
AcDbEntity
  8
0
  6
Continuous
 62
     7
370
    15
100
AcDbCircle
 10
2149.83710767305
 20
867.1067227417919
 30
0.0
 40
2.188421798070006
100
AcDbArc
 50
193.2073141036489
 51
346.792685896351
  0
SPLINE
  5
88B
330
818
100
AcDbEntity
  8
0
  6
Continuous
 62
     7
370
    15
100
AcDbSpline
210
0.0
220
0.0
230
1.0
 70
    24
 71
     3
 72
    10
 73
     6
 74
     0
 42
0.0000000001
 43
0.0000000001
 40
0.0
 40
0.0
 40
0.0
 40
0.0
 40
0.5
 40
0.5
 40
1.0
 40
1.0
 40
1.0
 40
1.0
 10
2151.967645156003
 20
866.6067227417919
 30
0.0
 10
2151.964254417717
 20
866.6067227417919
 30
0.0
 10
2151.939878381942
 20
866.6067227417919
 30
0.0
 10
2151.864215804287
 20
866.6067227417919
 30
0.0
 10
2151.813496795115
 20
866.6067227417919
 30
0.0
 10
2151.762064568194
 20
866.6067227417919
 30
0.0
  0
SPLINE
  5
88C
330
818
100
AcDbEntity
  8
0
  6
Continuous
 62
     7
370
    15
100
AcDbSpline
210
0.0
220
0.0
230
1.0
 70
    24
 71
     3
 72
    10
 73
     6
 74
     0
 42
0.0000000001
 43
0.0000000001
 40
0.0
 40
0.0
 40
0.0
 40
0.0
 40
0.5
 40
0.5
 40
1.0
 40
1.0
 40
1.0
 40
1.0
 10
2147.912150777907
 20
866.6067227417919
 30
0.0
 10
2147.860684194315
 20
866.6067227417919
 30
0.0
 10
2147.810284952347
 20
866.6067227417919
 30
0.0
 10
2147.734234954054
 20
866.6067227417919
 30
0.0
 10
2147.709963507416
 20
866.6067227417919
 30
0.0
 10
2147.706570190097
 20
866.6067227417919
 30
0.0
  0
ARC
  5
88D
330
818
100
AcDbEntity
  8
0
  6
Continuous
 62
     7
370
    15
100
AcDbCircle
 10
2137.83710767305
 20
867.1067227417919
 30
0.0
 40
2.188421798069978
100
AcDbArc
 50
193.2073141036489
 51
346.792685896351
  0
SPLINE
  5
88E
330
818
100
AcDbEntity
  8
0
  6
Continuous
 62
     7
370
    15
100
AcDbSpline
210
0.0
220
0.0
230
1.0
 70
    24
 71
     3
 72
    10
 73
     6
 74
     0
 42
0.0000000001
 43
0.0000000001
 40
0.0
 40
0.0
 40
0.0
 40
0.0
 40
0.5
 40
0.5
 40
1.0
 40
1.0
 40
1.0
 40
1.0
 10
2139.967645156003
 20
866.6067227417919
 30
0.0
 10
2139.964254417717
 20
866.6067227417919
 30
0.0
 10
2139.939878381942
 20
866.6067227417919
 30
0.0
 10
2139.864215804287
 20
866.6067227417919
 30
0.0
 10
2139.813496795115
 20
866.6067227417919
 30
0.0
 10
2139.762064568193
 20
866.6067227417919
 30
0.0
  0
SPLINE
  5
88F
330
818
100
AcDbEntity
  8
0
  6
Continuous
 62
     7
370
    15
100
AcDbSpline
210
0.0
220
0.0
230
1.0
 70
    24
 71
     3
 72
    10
 73
     6
 74
     0
 42
0.0000000001
 43
0.0000000001
 40
0.0
 40
0.0
 40
0.0
 40
0.0
 40
0.5
 40
0.5
 40
1.0
 40
1.0
 40
1.0
 40
1.0
 10
2135.912150777906
 20
866.6067227417919
 30
0.0
 10
2135.860684194314
 20
866.6067227417919
 30
0.0
 10
2135.810284952347
 20
866.6067227417919
 30
0.0
 10
2135.734234954054
 20
866.6067227417919
 30
0.0
 10
2135.709963507416
 20
866.6067227417919
 30
0.0
 10
2135.706570190097
 20
866.6067227417919
 30
0.0
  0
ARC
  5
890
330
818
100
AcDbEntity
  8
0
  6
Continuous
 62
     7
370
    15
100
AcDbCircle
 10
2113.83710767305
 20
867.1067227417918
 30
0.0
 40
2.188421798069978
100
AcDbArc
 50
193.2073141036489
 51
346.792685896351
  0
SPLINE
  5
891
330
818
100
AcDbEntity
  8
0
  6
Continuous
 62
     7
370
    15
100
AcDbSpline
210
0.0
220
0.0
230
1.0
 70
    24
 71
     3
 72
    10
 73
     6
 74
     0
 42
0.0000000001
 43
0.0000000001
 40
0.0
 40
0.0
 40
0.0
 40
0.0
 40
0.5
 40
0.5
 40
1.0
 40
1.0
 40
1.0
 40
1.0
 10
2115.967645156003
 20
866.6067227417919
 30
0.0
 10
2115.964254417717
 20
866.6067227417919
 30
0.0
 10
2115.939878381942
 20
866.6067227417919
 30
0.0
 10
2115.864215804288
 20
866.6067227417919
 30
0.0
 10
2115.813496795115
 20
866.6067227417919
 30
0.0
 10
2115.762064568193
 20
866.6067227417919
 30
0.0
  0
SPLINE
  5
892
330
818
100
AcDbEntity
  8
0
  6
Continuous
 62
     7
370
    15
100
AcDbSpline
210
0.0
220
0.0
230
1.0
 70
    24
 71
     3
 72
    10
 73
     6
 74
     0
 42
0.0000000001
 43
0.0000000001
 40
0.0
 40
0.0
 40
0.0
 40
0.0
 40
0.5
 40
0.5
 40
1.0
 40
1.0
 40
1.0
 40
1.0
 10
2111.912150777906
 20
866.6067227417919
 30
0.0
 10
2111.860684194315
 20
866.6067227417919
 30
0.0
 10
2111.810284952347
 20
866.6067227417919
 30
0.0
 10
2111.734234954054
 20
866.6067227417919
 30
0.0
 10
2111.709963507417
 20
866.6067227417919
 30
0.0
 10
2111.706570190097
 20
866.6067227417919
 30
0.0
  0
ARC
  5
893
330
818
100
AcDbEntity
  8
0
  6
Continuous
 62
     7
370
    15
100
AcDbCircle
 10
2161.83710767305
 20
867.1067227417919
 30
0.0
 40
2.188421798069978
100
AcDbArc
 50
193.2073141036489
 51
346.792685896351
  0
SPLINE
  5
894
330
818
100
AcDbEntity
  8
0
  6
Continuous
 62
     7
370
    15
100
AcDbSpline
210
0.0
220
0.0
230
1.0
 70
    24
 71
     3
 72
    10
 73
     6
 74
     0
 42
0.0000000001
 43
0.0000000001
 40
0.0
 40
0.0
 40
0.0
 40
0.0
 40
0.5
 40
0.5
 40
1.0
 40
1.0
 40
1.0
 40
1.0
 10
2163.967645156003
 20
866.6067227417919
 30
0.0
 10
2163.964254417717
 20
866.6067227417919
 30
0.0
 10
2163.939878381942
 20
866.6067227417919
 30
0.0
 10
2163.864215804288
 20
866.6067227417919
 30
0.0
 10
2163.813496795115
 20
866.6067227417919
 30
0.0
 10
2163.762064568193
 20
866.6067227417919
 30
0.0
  0
SPLINE
  5
895
330
818
100
AcDbEntity
  8
0
  6
Continuous
 62
     7
370
    15
100
AcDbSpline
210
0.0
220
0.0
230
1.0
 70
    24
 71
     3
 72
    10
 73
     6
 74
     0
 42
0.0000000001
 43
0.0000000001
 40
0.0
 40
0.0
 40
0.0
 40
0.0
 40
0.5
 40
0.5
 40
1.0
 40
1.0
 40
1.0
 40
1.0
 10
2159.912150777906
 20
866.6067227417919
 30
0.0
 10
2159.860684194314
 20
866.6067227417919
 30
0.0
 10
2159.810284952347
 20
866.6067227417919
 30
0.0
 10
2159.734234954054
 20
866.6067227417919
 30
0.0
 10
2159.709963507417
 20
866.6067227417919
 30
0.0
 10
2159.706570190097
 20
866.6067227417919
 30
0.0
  0
ARC
  5
896
330
818
100
AcDbEntity
  8
0
  6
Continuous
 62
     7
370
    15
100
AcDbCircle
 10
2125.83710767305
 20
867.1067227417918
 30
0.0
 40
2.188421798070002
100
AcDbArc
 50
193.2073141036489
 51
346.792685896351
  0
SPLINE
  5
897
330
818
100
AcDbEntity
  8
0
  6
Continuous
 62
     7
370
    15
100
AcDbSpline
210
0.0
220
0.0
230
1.0
 70
    24
 71
     3
 72
    10
 73
     6
 74
     0
 42
0.0000000001
 43
0.0000000001
 40
0.0
 40
0.0
 40
0.0
 40
0.0
 40
0.5
 40
0.5
 40
1.0
 40
1.0
 40
1.0
 40
1.0
 10
2127.967645156003
 20
866.6067227417919
 30
0.0
 10
2127.964254417717
 20
866.6067227417919
 30
0.0
 10
2127.939878381942
 20
866.6067227417919
 30
0.0
 10
2127.864215804288
 20
866.6067227417919
 30
0.0
 10
2127.813496795115
 20
866.6067227417919
 30
0.0
 10
2127.762064568193
 20
866.6067227417919
 30
0.0
  0
SPLINE
  5
898
330
818
100
AcDbEntity
  8
0
  6
Continuous
 62
     7
370
    15
100
AcDbSpline
210
0.0
220
0.0
230
1.0
 70
    24
 71
     3
 72
    10
 73
     6
 74
     0
 42
0.0000000001
 43
0.0000000001
 40
0.0
 40
0.0
 40
0.0
 40
0.0
 40
0.5
 40
0.5
 40
1.0
 40
1.0
 40
1.0
 40
1.0
 10
2123.912150777906
 20
866.6067227417919
 30
0.0
 10
2123.860684194314
 20
866.6067227417919
 30
0.0
 10
2123.810284952347
 20
866.6067227417919
 30
0.0
 10
2123.734234954054
 20
866.6067227417919
 30
0.0
 10
2123.709963507417
 20
866.6067227417919
 30
0.0
 10
2123.706570190097
 20
866.6067227417919
 30
0.0
  0
ARC
  5
899
330
818
100
AcDbEntity
  8
0
  6
Continuous
 62
     7
370
    15
100
AcDbCircle
 10
2137.83710767305
 20
867.1067227417919
 30
0.0
 40
2.188421798069978
100
AcDbArc
 50
13.20731410364895
 51
166.792685896351
  0
SPLINE
  5
89A
330
818
100
AcDbEntity
  8
0
  6
Continuous
 62
     7
370
    15
100
AcDbSpline
210
0.0
220
0.0
230
1.0
 70
    24
 71
     3
 72
    10
 73
     6
 74
     0
 42
0.0000000001
 43
0.0000000001
 40
0.0
 40
0.0
 40
0.0
 40
0.0
 40
0.5
 40
0.5
 40
1.0
 40
1.0
 40
1.0
 40
1.0
 10
2139.762064568193
 20
867.6067227417918
 30
0.0
 10
2139.813531151785
 20
867.6067227417918
 30
0.0
 10
2139.863930393753
 20
867.6067227417918
 30
0.0
 10
2139.939980392046
 20
867.6067227417918
 30
0.0
 10
2139.964251838683
 20
867.6067227417918
 30
0.0
 10
2139.967645156003
 20
867.6067227417918
 30
0.0
  0
SPLINE
  5
89B
330
818
100
AcDbEntity
  8
0
  6
Continuous
 62
     7
370
    15
100
AcDbSpline
210
0.0
220
0.0
230
1.0
 70
    24
 71
     3
 72
    10
 73
     6
 74
     0
 42
0.0000000001
 43
0.0000000001
 40
0.0
 40
0.0
 40
0.0
 40
0.0
 40
0.5
 40
0.5
 40
1.0
 40
1.0
 40
1.0
 40
1.0
 10
2135.706570190097
 20
867.6067227417918
 30
0.0
 10
2135.709960928382
 20
867.6067227417918
 30
0.0
 10
2135.734336964158
 20
867.6067227417918
 30
0.0
 10
2135.809999541812
 20
867.6067227417918
 30
0.0
 10
2135.860718550985
 20
867.6067227417918
 30
0.0
 10
2135.912150777906
 20
867.6067227417918
 30
0.0
  0
ARC
  5
89C
330
818
100
AcDbEntity
  8
0
  6
Continuous
 62
     7
370
    15
100
AcDbCircle
 10
2125.83710767305
 20
867.1067227417919
 30
0.0
 40
2.188421798070002
100
AcDbArc
 50
13.20731410364895
 51
166.792685896351
  0
SPLINE
  5
89D
330
818
100
AcDbEntity
  8
0
  6
Continuous
 62
     7
370
    15
100
AcDbSpline
210
0.0
220
0.0
230
1.0
 70
    24
 71
     3
 72
    10
 73
     6
 74
     0
 42
0.0000000001
 43
0.0000000001
 40
0.0
 40
0.0
 40
0.0
 40
0.0
 40
0.5
 40
0.5
 40
1.0
 40
1.0
 40
1.0
 40
1.0
 10
2127.762064568193
 20
867.6067227417918
 30
0.0
 10
2127.813531151785
 20
867.6067227417918
 30
0.0
 10
2127.863930393752
 20
867.6067227417918
 30
0.0
 10
2127.939980392046
 20
867.6067227417918
 30
0.0
 10
2127.964251838683
 20
867.6067227417918
 30
0.0
 10
2127.967645156003
 20
867.6067227417918
 30
0.0
  0
SPLINE
  5
89E
330
818
100
AcDbEntity
  8
0
  6
Continuous
 62
     7
370
    15
100
AcDbSpline
210
0.0
220
0.0
230
1.0
 70
    24
 71
     3
 72
    10
 73
     6
 74
     0
 42
0.0000000001
 43
0.0000000001
 40
0.0
 40
0.0
 40
0.0
 40
0.0
 40
0.5
 40
0.5
 40
1.0
 40
1.0
 40
1.0
 40
1.0
 10
2123.706570190097
 20
867.6067227417918
 30
0.0
 10
2123.709960928382
 20
867.6067227417918
 30
0.0
 10
2123.734336964158
 20
867.6067227417918
 30
0.0
 10
2123.809999541812
 20
867.6067227417918
 30
0.0
 10
2123.860718550985
 20
867.6067227417918
 30
0.0
 10
2123.912150777906
 20
867.6067227417918
 30
0.0
  0
ARC
  5
89F
330
818
100
AcDbEntity
  8
0
  6
Continuous
 62
     7
370
    15
100
AcDbCircle
 10
2113.83710767305
 20
867.1067227417918
 30
0.0
 40
2.188421798069978
100
AcDbArc
 50
13.20731410364895
 51
166.792685896351
  0
SPLINE
  5
8A0
330
818
100
AcDbEntity
  8
0
  6
Continuous
 62
     7
370
    15
100
AcDbSpline
210
0.0
220
0.0
230
1.0
 70
    24
 71
     3
 72
    10
 73
     6
 74
     0
 42
0.0000000001
 43
0.0000000001
 40
0.0
 40
0.0
 40
0.0
 40
0.0
 40
0.5
 40
0.5
 40
1.0
 40
1.0
 40
1.0
 40
1.0
 10
2115.762064568193
 20
867.6067227417918
 30
0.0
 10
2115.813531151785
 20
867.6067227417918
 30
0.0
 10
2115.863930393753
 20
867.6067227417918
 30
0.0
 10
2115.939980392045
 20
867.6067227417918
 30
0.0
 10
2115.964251838683
 20
867.6067227417918
 30
0.0
 10
2115.967645156003
 20
867.6067227417918
 30
0.0
  0
SPLINE
  5
8A1
330
818
100
AcDbEntity
  8
0
  6
Continuous
 62
     7
370
    15
100
AcDbSpline
210
0.0
220
0.0
230
1.0
 70
    24
 71
     3
 72
    10
 73
     6
 74
     0
 42
0.0000000001
 43
0.0000000001
 40
0.0
 40
0.0
 40
0.0
 40
0.0
 40
0.5
 40
0.5
 40
1.0
 40
1.0
 40
1.0
 40
1.0
 10
2111.706570190097
 20
867.6067227417918
 30
0.0
 10
2111.709960928382
 20
867.6067227417918
 30
0.0
 10
2111.734336964158
 20
867.6067227417918
 30
0.0
 10
2111.809999541812
 20
867.6067227417918
 30
0.0
 10
2111.860718550985
 20
867.6067227417918
 30
0.0
 10
2111.912150777906
 20
867.6067227417918
 30
0.0
  0
ARC
  5
8A2
330
818
100
AcDbEntity
  8
0
  6
Continuous
 62
     7
370
    15
100
AcDbCircle
 10
2173.83710767305
 20
867.1067227417919
 30
0.0
 40
2.188421798069978
100
AcDbArc
 50
13.20731410364895
 51
166.792685896351
  0
SPLINE
  5
8A3
330
818
100
AcDbEntity
  8
0
  6
Continuous
 62
     7
370
    15
100
AcDbSpline
210
0.0
220
0.0
230
1.0
 70
    24
 71
     3
 72
    10
 73
     6
 74
     0
 42
0.0000000001
 43
0.0000000001
 40
0.0
 40
0.0
 40
0.0
 40
0.0
 40
0.5
 40
0.5
 40
1.0
 40
1.0
 40
1.0
 40
1.0
 10
2175.762064568193
 20
867.6067227417918
 30
0.0
 10
2175.813531151785
 20
867.6067227417918
 30
0.0
 10
2175.863930393752
 20
867.6067227417918
 30
0.0
 10
2175.939980392046
 20
867.6067227417918
 30
0.0
 10
2175.964251838683
 20
867.6067227417918
 30
0.0
 10
2175.967645156003
 20
867.6067227417918
 30
0.0
  0
SPLINE
  5
8A4
330
818
100
AcDbEntity
  8
0
  6
Continuous
 62
     7
370
    15
100
AcDbSpline
210
0.0
220
0.0
230
1.0
 70
    24
 71
     3
 72
    10
 73
     6
 74
     0
 42
0.0000000001
 43
0.0000000001
 40
0.0
 40
0.0
 40
0.0
 40
0.0
 40
0.5
 40
0.5
 40
1.0
 40
1.0
 40
1.0
 40
1.0
 10
2171.706570190097
 20
867.6067227417918
 30
0.0
 10
2171.709960928383
 20
867.6067227417918
 30
0.0
 10
2171.734336964158
 20
867.6067227417918
 30
0.0
 10
2171.809999541812
 20
867.6067227417918
 30
0.0
 10
2171.860718550985
 20
867.6067227417918
 30
0.0
 10
2171.912150777906
 20
867.6067227417918
 30
0.0
  0
ARC
  5
8A5
330
818
100
AcDbEntity
  8
0
  6
Continuous
 62
     7
370
    15
100
AcDbCircle
 10
2185.83710767305
 20
867.1067227417919
 30
0.0
 40
2.188421798069978
100
AcDbArc
 50
13.20731410364895
 51
166.792685896351
  0
SPLINE
  5
8A6
330
818
100
AcDbEntity
  8
0
  6
Continuous
 62
     7
370
    15
100
AcDbSpline
210
0.0
220
0.0
230
1.0
 70
    24
 71
     3
 72
    10
 73
     6
 74
     0
 42
0.0000000001
 43
0.0000000001
 40
0.0
 40
0.0
 40
0.0
 40
0.0
 40
0.5
 40
0.5
 40
1.0
 40
1.0
 40
1.0
 40
1.0
 10
2187.762064568193
 20
867.6067227417918
 30
0.0
 10
2187.813531151785
 20
867.6067227417918
 30
0.0
 10
2187.863930393753
 20
867.6067227417918
 30
0.0
 10
2187.939980392046
 20
867.6067227417918
 30
0.0
 10
2187.964251838683
 20
867.6067227417918
 30
0.0
 10
2187.967645156003
 20
867.6067227417918
 30
0.0
  0
SPLINE
  5
8A7
330
818
100
AcDbEntity
  8
0
  6
Continuous
 62
     7
370
    15
100
AcDbSpline
210
0.0
220
0.0
230
1.0
 70
    24
 71
     3
 72
    10
 73
     6
 74
     0
 42
0.0000000001
 43
0.0000000001
 40
0.0
 40
0.0
 40
0.0
 40
0.0
 40
0.5
 40
0.5
 40
1.0
 40
1.0
 40
1.0
 40
1.0
 10
2183.706570190096
 20
867.6067227417918
 30
0.0
 10
2183.709960928382
 20
867.6067227417918
 30
0.0
 10
2183.734336964158
 20
867.6067227417918
 30
0.0
 10
2183.809999541812
 20
867.6067227417918
 30
0.0
 10
2183.860718550985
 20
867.6067227417918
 30
0.0
 10
2183.912150777906
 20
867.6067227417918
 30
0.0
  0
ARC
  5
8A8
330
818
100
AcDbEntity
  8
0
  6
Continuous
 62
     7
370
    15
100
AcDbCircle
 10
2149.83710767305
 20
867.1067227417919
 30
0.0
 40
2.188421798069978
100
AcDbArc
 50
13.20731410364895
 51
166.792685896351
  0
SPLINE
  5
8A9
330
818
100
AcDbEntity
  8
0
  6
Continuous
 62
     7
370
    15
100
AcDbSpline
210
0.0
220
0.0
230
1.0
 70
    24
 71
     3
 72
    10
 73
     6
 74
     0
 42
0.0000000001
 43
0.0000000001
 40
0.0
 40
0.0
 40
0.0
 40
0.0
 40
0.5
 40
0.5
 40
1.0
 40
1.0
 40
1.0
 40
1.0
 10
2151.762064568194
 20
867.6067227417918
 30
0.0
 10
2151.813531151785
 20
867.6067227417918
 30
0.0
 10
2151.863930393753
 20
867.6067227417918
 30
0.0
 10
2151.939980392046
 20
867.6067227417918
 30
0.0
 10
2151.964251838683
 20
867.6067227417918
 30
0.0
 10
2151.967645156003
 20
867.6067227417918
 30
0.0
  0
SPLINE
  5
8AA
330
818
100
AcDbEntity
  8
0
  6
Continuous
 62
     7
370
    15
100
AcDbSpline
210
0.0
220
0.0
230
1.0
 70
    24
 71
     3
 72
    10
 73
     6
 74
     0
 42
0.0000000001
 43
0.0000000001
 40
0.0
 40
0.0
 40
0.0
 40
0.0
 40
0.5
 40
0.5
 40
1.0
 40
1.0
 40
1.0
 40
1.0
 10
2147.706570190097
 20
867.6067227417918
 30
0.0
 10
2147.709960928382
 20
867.6067227417918
 30
0.0
 10
2147.734336964158
 20
867.6067227417918
 30
0.0
 10
2147.809999541812
 20
867.6067227417918
 30
0.0
 10
2147.860718550985
 20
867.6067227417918
 30
0.0
 10
2147.912150777907
 20
867.6067227417918
 30
0.0
  0
ARC
  5
8AB
330
818
100
AcDbEntity
  8
0
  6
Continuous
 62
     7
370
    15
100
AcDbCircle
 10
2161.83710767305
 20
867.1067227417919
 30
0.0
 40
2.188421798069978
100
AcDbArc
 50
13.20731410364895
 51
166.792685896351
  0
SPLINE
  5
8AC
330
818
100
AcDbEntity
  8
0
  6
Continuous
 62
     7
370
    15
100
AcDbSpline
210
0.0
220
0.0
230
1.0
 70
    24
 71
     3
 72
    10
 73
     6
 74
     0
 42
0.0000000001
 43
0.0000000001
 40
0.0
 40
0.0
 40
0.0
 40
0.0
 40
0.5
 40
0.5
 40
1.0
 40
1.0
 40
1.0
 40
1.0
 10
2163.762064568193
 20
867.6067227417918
 30
0.0
 10
2163.813531151785
 20
867.6067227417918
 30
0.0
 10
2163.863930393753
 20
867.6067227417918
 30
0.0
 10
2163.939980392045
 20
867.6067227417918
 30
0.0
 10
2163.964251838683
 20
867.6067227417918
 30
0.0
 10
2163.967645156003
 20
867.6067227417918
 30
0.0
  0
SPLINE
  5
8AD
330
818
100
AcDbEntity
  8
0
  6
Continuous
 62
     7
370
    15
100
AcDbSpline
210
0.0
220
0.0
230
1.0
 70
    24
 71
     3
 72
    10
 73
     6
 74
     0
 42
0.0000000001
 43
0.0000000001
 40
0.0
 40
0.0
 40
0.0
 40
0.0
 40
0.5
 40
0.5
 40
1.0
 40
1.0
 40
1.0
 40
1.0
 10
2159.706570190097
 20
867.6067227417918
 30
0.0
 10
2159.709960928382
 20
867.6067227417918
 30
0.0
 10
2159.734336964158
 20
867.6067227417918
 30
0.0
 10
2159.809999541812
 20
867.6067227417918
 30
0.0
 10
2159.860718550985
 20
867.6067227417918
 30
0.0
 10
2159.912150777906
 20
867.6067227417918
 30
0.0
  0
ARC
  5
8AE
330
818
100
AcDbEntity
  8
0
  6
Continuous
 62
     7
370
    15
100
AcDbCircle
 10
2101.83710767305
 20
867.1067227417918
 30
0.0
 40
2.188421798069978
100
AcDbArc
 50
13.20731410364895
 51
166.792685896351
  0
SPLINE
  5
8AF
330
818
100
AcDbEntity
  8
0
  6
Continuous
 62
     7
370
    15
100
AcDbSpline
210
0.0
220
0.0
230
1.0
 70
    24
 71
     3
 72
    10
 73
     6
 74
     0
 42
0.0000000001
 43
0.0000000001
 40
0.0
 40
0.0
 40
0.0
 40
0.0
 40
0.5
 40
0.5
 40
1.0
 40
1.0
 40
1.0
 40
1.0
 10
2103.762064568194
 20
867.6067227417918
 30
0.0
 10
2103.813531151786
 20
867.6067227417918
 30
0.0
 10
2103.863930393753
 20
867.6067227417918
 30
0.0
 10
2103.939980392046
 20
867.6067227417918
 30
0.0
 10
2103.964251838683
 20
867.6067227417918
 30
0.0
 10
2103.967645156003
 20
867.6067227417918
 30
0.0
  0
SPLINE
  5
8B0
330
818
100
AcDbEntity
  8
0
  6
Continuous
 62
     7
370
    15
100
AcDbSpline
210
0.0
220
0.0
230
1.0
 70
    24
 71
     3
 72
    10
 73
     6
 74
     0
 42
0.0000000001
 43
0.0000000001
 40
0.0
 40
0.0
 40
0.0
 40
0.0
 40
0.5
 40
0.5
 40
1.0
 40
1.0
 40
1.0
 40
1.0
 10
2099.706570190097
 20
867.6067227417918
 30
0.0
 10
2099.709960928382
 20
867.6067227417918
 30
0.0
 10
2099.734336964158
 20
867.6067227417918
 30
0.0
 10
2099.809999541812
 20
867.6067227417918
 30
0.0
 10
2099.860718550985
 20
867.6067227417918
 30
0.0
 10
2099.912150777907
 20
867.6067227417918
 30
0.0
  0
ARC
  5
8B1
330
818
100
AcDbEntity
  8
0
  6
Continuous
 62
     7
370
    15
100
AcDbCircle
 10
2197.83710767305
 20
867.1067227417919
 30
0.0
 40
2.188421798069978
100
AcDbArc
 50
193.2073141036489
 51
346.792685896351
  0
SPLINE
  5
8B2
330
818
100
AcDbEntity
  8
0
  6
Continuous
 62
     7
370
    15
100
AcDbSpline
210
0.0
220
0.0
230
1.0
 70
    24
 71
     3
 72
    10
 73
     6
 74
     0
 42
0.0000000001
 43
0.0000000001
 40
0.0
 40
0.0
 40
0.0
 40
0.0
 40
0.5
 40
0.5
 40
1.0
 40
1.0
 40
1.0
 40
1.0
 10
2199.967645156003
 20
866.6067227417919
 30
0.0
 10
2199.964254417717
 20
866.6067227417919
 30
0.0
 10
2199.939878381942
 20
866.6067227417919
 30
0.0
 10
2199.864215804288
 20
866.6067227417919
 30
0.0
 10
2199.813496795115
 20
866.6067227417919
 30
0.0
 10
2199.762064568193
 20
866.6067227417919
 30
0.0
  0
SPLINE
  5
8B3
330
818
100
AcDbEntity
  8
0
  6
Continuous
 62
     7
370
    15
100
AcDbSpline
210
0.0
220
0.0
230
1.0
 70
    24
 71
     3
 72
    10
 73
     6
 74
     0
 42
0.0000000001
 43
0.0000000001
 40
0.0
 40
0.0
 40
0.0
 40
0.0
 40
0.5
 40
0.5
 40
1.0
 40
1.0
 40
1.0
 40
1.0
 10
2195.912150777906
 20
866.6067227417919
 30
0.0
 10
2195.860684194315
 20
866.6067227417919
 30
0.0
 10
2195.810284952347
 20
866.6067227417919
 30
0.0
 10
2195.734234954054
 20
866.6067227417919
 30
0.0
 10
2195.709963507416
 20
866.6067227417919
 30
0.0
 10
2195.706570190097
 20
866.6067227417919
 30
0.0
  0
LINE
  5
8B4
330
818
100
AcDbEntity
  8
0
  6
Continuous
 62
     7
370
    15
100
AcDbLine
 10
2122.410374534915
 20
870.4567227417919
 30
0.0
 11
2117.263840811185
 21
870.4567227417919
 31
0.0
  0
ARC
  5
8B5
330
818
100
AcDbEntity
  8
0
  6
Continuous
 62
     7
370
    15
100
AcDbCircle
 10
2161.83710767305
 20
880.556722741792
 30
0.0
 40
17.15000000000022
100
AcDbArc
 50
258.4047273409468
 51
281.5952726590532
  0
LINE
  5
8B6
330
818
100
AcDbEntity
  8
0
  6
Continuous
 62
     7
370
    15
100
AcDbLine
 10
2165.284207903679
 20
863.7567227417919
 30
0.0
 11
2170.39000744242
 21
863.7567227417919
 31
0.0
  0
LINE
  5
8B7
330
818
100
AcDbEntity
  8
0
  6
Continuous
 62
     7
370
    15
100
AcDbLine
 10
2158.410374534915
 20
870.4567227417919
 30
0.0
 11
2153.263840811185
 21
870.4567227417919
 31
0.0
  0
ARC
  5
8B8
330
818
100
AcDbEntity
  8
0
  6
Continuous
 62
     7
370
    15
100
AcDbCircle
 10
2197.83710767305
 20
880.556722741792
 30
0.0
 40
17.15000000000023
100
AcDbArc
 50
258.4047273409468
 51
281.5952726590532
  0
LINE
  5
8B9
330
818
100
AcDbEntity
  8
0
  6
Continuous
 62
     7
370
    15
100
AcDbLine
 10
2141.28420790368
 20
863.7567227417919
 30
0.0
 11
2146.39000744242
 21
863.7567227417919
 31
0.0
  0
ARC
  5
8BA
330
818
100
AcDbEntity
  8
0
  6
Continuous
 62
     7
370
    15
100
AcDbCircle
 10
2185.83710767305
 20
880.556722741792
 30
0.0
 40
17.15000000000023
100
AcDbArc
 50
258.4047273409468
 51
281.5952726590532
  0
LINE
  5
8BB
330
818
100
AcDbEntity
  8
0
  6
Continuous
 62
     7
370
    15
100
AcDbLine
 10
2189.28420790368
 20
863.7567227417919
 30
0.0
 11
2194.39000744242
 21
863.7567227417919
 31
0.0
  0
LINE
  5
8BC
330
818
100
AcDbEntity
  8
0
  6
Continuous
 62
     7
370
    15
100
AcDbLine
 10
2134.410374534915
 20
870.4567227417919
 30
0.0
 11
2129.263840811185
 21
870.4567227417919
 31
0.0
  0
ARC
  5
8BD
330
818
100
AcDbEntity
  8
0
  6
Continuous
 62
     7
370
    15
100
AcDbCircle
 10
2101.83710767305
 20
880.556722741792
 30
0.0
 40
17.15000000000022
100
AcDbArc
 50
258.4047273409468
 51
281.5952726590532
  0
ARC
  5
8BE
330
818
100
AcDbEntity
  8
0
  6
Continuous
 62
     7
370
    15
100
AcDbCircle
 10
2113.83710767305
 20
880.556722741792
 30
0.0
 40
17.15000000000021
100
AcDbArc
 50
258.4047273409468
 51
281.5952726590532
  0
LINE
  5
8BF
330
818
100
AcDbEntity
  8
0
  6
Continuous
 62
     7
370
    15
100
AcDbLine
 10
2096.13710767305
 20
870.4567227417919
 30
0.0
 11
2096.13710767305
 21
863.7567227417919
 31
0.0
  0
LINE
  5
8C0
330
818
100
AcDbEntity
  8
0
  6
Continuous
 62
     7
370
    15
100
AcDbLine
 10
2203.537107673049
 20
863.7567227417919
 30
0.0
 11
2203.537107673049
 21
870.4567227417919
 31
0.0
  0
LINE
  5
8C1
330
818
100
AcDbEntity
  8
0
  6
Continuous
 62
     7
370
    15
100
AcDbLine
 10
2153.28420790368
 20
863.7567227417919
 30
0.0
 11
2158.39000744242
 21
863.7567227417919
 31
0.0
  0
LINE
  5
8C2
330
818
100
AcDbEntity
  8
0
  6
Continuous
 62
     7
370
    15
100
AcDbLine
 10
2201.28420790368
 20
863.7567227417919
 30
0.0
 11
2203.537107673049
 21
863.7567227417919
 31
0.0
  0
ARC
  5
8C3
330
818
100
AcDbEntity
  8
0
  6
Continuous
 62
     7
370
    15
100
AcDbCircle
 10
2149.83710767305
 20
880.556722741792
 30
0.0
 40
17.15000000000021
100
AcDbArc
 50
258.4047273409468
 51
281.5952726590532
  0
ARC
  5
8C4
330
818
100
AcDbEntity
  8
0
  6
Continuous
 62
     7
370
    15
100
AcDbCircle
 10
2149.83710767305
 20
853.8567227417916
 30
0.0
 40
16.95000000000021
100
AcDbArc
 50
78.33628343583669
 51
101.6637165641633
  0
LINE
  5
8C5
330
818
100
AcDbEntity
  8
0
  6
Continuous
 62
     7
370
    15
100
AcDbLine
 10
2177.28420790368
 20
863.7567227417919
 30
0.0
 11
2182.39000744242
 21
863.7567227417919
 31
0.0
  0
LINE
  5
8C6
330
818
100
AcDbEntity
  8
0
  6
Continuous
 62
     7
370
    15
100
AcDbLine
 10
2182.410374534915
 20
870.4567227417919
 30
0.0
 11
2177.263840811185
 21
870.4567227417919
 31
0.0
  0
LINE
  5
8C7
330
818
100
AcDbEntity
  8
0
  6
Continuous
 62
     7
370
    15
100
AcDbLine
 10
2117.284207903679
 20
863.7567227417919
 30
0.0
 11
2122.39000744242
 21
863.7567227417919
 31
0.0
  0
ARC
  5
8C8
330
818
100
AcDbEntity
  8
0
  6
Continuous
 62
     7
370
    15
100
AcDbCircle
 10
2173.83710767305
 20
880.556722741792
 30
0.0
 40
17.1500000000002
100
AcDbArc
 50
258.4047273409468
 51
281.5952726590532
  0
ARC
  5
8C9
330
818
100
AcDbEntity
  8
0
  6
Continuous
 62
     7
370
    15
100
AcDbCircle
 10
2125.83710767305
 20
853.8567227417916
 30
0.0
 40
16.95000000000019
100
AcDbArc
 50
78.33628343583669
 51
101.6637165641633
  0
LINE
  5
8CA
330
818
100
AcDbEntity
  8
0
  6
Continuous
 62
     7
370
    15
100
AcDbLine
 10
2098.410374534915
 20
870.4567227417919
 30
0.0
 11
2096.13710767305
 21
870.4567227417919
 31
0.0
  0
LINE
  5
8CB
330
818
100
AcDbEntity
  8
0
  6
Continuous
 62
     7
370
    15
100
AcDbLine
 10
2170.410374534915
 20
870.4567227417919
 30
0.0
 11
2165.263840811185
 21
870.4567227417919
 31
0.0
  0
ARC
  5
8CC
330
818
100
AcDbEntity
  8
0
  6
Continuous
 62
     7
370
    15
100
AcDbCircle
 10
2161.83710767305
 20
853.8567227417916
 30
0.0
 40
16.95000000000021
100
AcDbArc
 50
78.33628343583669
 51
101.6637165641633
  0
ARC
  5
8CD
330
818
100
AcDbEntity
  8
0
  6
Continuous
 62
     7
370
    15
100
AcDbCircle
 10
2185.83710767305
 20
853.8567227417916
 30
0.0
 40
16.9500000000002
100
AcDbArc
 50
78.33628343583669
 51
101.6637165641633
  0
LINE
  5
8CE
330
818
100
AcDbEntity
  8
0
  6
Continuous
 62
     7
370
    15
100
AcDbLine
 10
2129.28420790368
 20
863.7567227417919
 30
0.0
 11
2134.39000744242
 21
863.7567227417919
 31
0.0
  0
LINE
  5
8CF
330
818
100
AcDbEntity
  8
0
  6
Continuous
 62
     7
370
    15
100
AcDbLine
 10
2194.410374534915
 20
870.4567227417919
 30
0.0
 11
2189.263840811185
 21
870.4567227417919
 31
0.0
  0
ARC
  5
8D0
330
818
100
AcDbEntity
  8
0
  6
Continuous
 62
     7
370
    15
100
AcDbCircle
 10
2137.83710767305
 20
853.8567227417916
 30
0.0
 40
16.95000000000019
100
AcDbArc
 50
78.33628343583669
 51
101.6637165641633
  0
LINE
  5
8D1
330
818
100
AcDbEntity
  8
0
  6
Continuous
 62
     7
370
    15
100
AcDbLine
 10
2105.28420790368
 20
863.7567227417919
 30
0.0
 11
2110.39000744242
 21
863.7567227417919
 31
0.0
  0
ARC
  5
8D2
330
818
100
AcDbEntity
  8
0
  6
Continuous
 62
     7
370
    15
100
AcDbCircle
 10
2173.83710767305
 20
853.8567227417916
 30
0.0
 40
16.95000000000021
100
AcDbArc
 50
78.33628343583669
 51
101.6637165641633
  0
LINE
  5
8D3
330
818
100
AcDbEntity
  8
0
  6
Continuous
 62
     7
370
    15
100
AcDbLine
 10
2203.537107673049
 20
870.4567227417919
 30
0.0
 11
2201.263840811185
 21
870.4567227417919
 31
0.0
  0
ARC
  5
8D4
330
818
100
AcDbEntity
  8
0
  6
Continuous
 62
     7
370
    15
100
AcDbCircle
 10
2113.83710767305
 20
853.8567227417916
 30
0.0
 40
16.95000000000021
100
AcDbArc
 50
78.33628343583669
 51
101.6637165641633
  0
ARC
  5
8D5
330
818
100
AcDbEntity
  8
0
  6
Continuous
 62
     7
370
    15
100
AcDbCircle
 10
2101.83710767305
 20
853.8567227417916
 30
0.0
 40
16.95000000000021
100
AcDbArc
 50
78.33628343583669
 51
101.6637165641633
  0
LINE
  5
8D6
330
818
100
AcDbEntity
  8
0
  6
Continuous
 62
     7
370
    15
100
AcDbLine
 10
2146.410374534915
 20
870.4567227417919
 30
0.0
 11
2141.263840811185
 21
870.4567227417919
 31
0.0
  0
ARC
  5
8D7
330
818
100
AcDbEntity
  8
0
  6
Continuous
 62
     7
370
    15
100
AcDbCircle
 10
2125.83710767305
 20
880.556722741792
 30
0.0
 40
17.15000000000022
100
AcDbArc
 50
258.4047273409468
 51
281.5952726590532
  0
ARC
  5
8D8
330
818
100
AcDbEntity
  8
0
  6
Continuous
 62
     7
370
    15
100
AcDbCircle
 10
2137.83710767305
 20
880.556722741792
 30
0.0
 40
17.15000000000022
100
AcDbArc
 50
258.4047273409468
 51
281.5952726590532
  0
LINE
  5
8D9
330
818
100
AcDbEntity
  8
0
  6
Continuous
 62
     7
370
    15
100
AcDbLine
 10
2110.410374534915
 20
870.4567227417919
 30
0.0
 11
2105.263840811185
 21
870.4567227417919
 31
0.0
  0
ARC
  5
8DA
330
818
100
AcDbEntity
  8
0
  6
Continuous
 62
     7
370
    15
100
AcDbCircle
 10
2197.83710767305
 20
853.8567227417916
 30
0.0
 40
16.95000000000021
100
AcDbArc
 50
78.33628343583669
 51
101.6637165641633
  0
LINE
  5
8DB
330
818
100
AcDbEntity
  8
0
  6
Continuous
 62
     7
370
    15
100
AcDbLine
 10
2096.13710767305
 20
863.7567227417919
 30
0.0
 11
2098.39000744242
 21
863.7567227417919
 31
0.0
  0
ENDBLK
  5
81A
330
818
100
AcDbEntity
  8
0
100
AcDbBlockEnd
  0
BLOCK
  5
8DE
330
8DD
100
AcDbEntity
  8
0
100
AcDbBlockBegin
  2
3
 70
     0
 10
0.0
 20
0.0
 30
0.0
  3
3
  1

  0
LINE
  5
8E0
330
8DD
100
AcDbEntity
  8
0
  6
Continuous
 62
     7
370
    15
100
AcDbLine
 10
2069.869195241335
 20
901.2883833314075
 30
0.0
 11
2069.869195241335
 21
897.3883833314076
 31
0.0
  0
LINE
  5
8E1
330
8DD
100
AcDbEntity
  8
0
  6
Continuous
 62
     7
370
    15
100
AcDbLine
 10
2077.269195241335
 20
897.3883833314076
 30
0.0
 11
2077.269195241335
 21
901.2883833314075
 31
0.0
  0
ARC
  5
8E2
330
8DD
100
AcDbEntity
  8
0
  6
Continuous
 62
     7
370
    15
100
AcDbCircle
 10
2070.344195241335
 20
902.3883833314075
 30
0.0
 40
0.2000000000000028
100
AcDbArc
 50
180.0
 51
270.0
  0
ARC
  5
8E3
330
8DD
100
AcDbEntity
  8
0
  6
Continuous
 62
     7
370
    15
100
AcDbCircle
 10
2076.794195241335
 20
902.3883833314075
 30
0.0
 40
0.2000000000000028
100
AcDbArc
 50
270.0
 51
0.0
  0
LINE
  5
8E4
330
8DD
100
AcDbEntity
  8
0
  6
Continuous
 62
     7
370
    15
100
AcDbLine
 10
2076.994195241335
 20
902.3883833314075
 30
0.0
 11
2076.994195241335
 21
907.5883833314076
 31
0.0
  0
LINE
  5
8E5
330
8DD
100
AcDbEntity
  8
0
  6
Continuous
 62
     7
370
    15
100
AcDbLine
 10
2070.144195241335
 20
907.5883833314076
 30
0.0
 11
2070.144195241335
 21
902.3883833314075
 31
0.0
  0
LINE
  5
8E6
330
8DD
100
AcDbEntity
  8
0
  6
Continuous
 62
     7
370
    15
100
AcDbLine
 10
2076.569195241335
 20
901.2883833314075
 30
0.0
 11
2076.569195241335
 21
902.1883833314076
 31
0.0
  0
LINE
  5
8E7
330
8DD
100
AcDbEntity
  8
0
  6
Continuous
 62
     7
370
    15
100
AcDbLine
 10
2070.569195241335
 20
902.1883833314076
 30
0.0
 11
2070.569195241335
 21
901.2883833314075
 31
0.0
  0
LINE
  5
8E8
330
8DD
100
AcDbEntity
  8
0
  6
Continuous
 62
     7
370
    15
100
AcDbLine
 10
2076.569195241335
 20
886.5883833313271
 30
0.0
 11
2076.569195241335
 21
897.2883833313302
 31
0.0
  0
LINE
  5
8E9
330
8DD
100
AcDbEntity
  8
0
  6
Continuous
 62
     7
370
    15
100
AcDbLine
 10
2070.569195241335
 20
897.2883833313302
 30
0.0
 11
2070.569195241335
 21
886.5883833313271
 31
0.0
  0
LINE
  5
8EA
330
8DD
100
AcDbEntity
  8
0
  6
Continuous
 62
     7
370
    15
100
AcDbLine
 10
2070.569195241423
 20
886.5883833313271
 30
0.0
 11
2070.769195241299
 21
886.3883833314515
 31
0.0
  0
LINE
  5
8EB
330
8DD
100
AcDbEntity
  8
0
  6
Continuous
 62
     7
370
    15
100
AcDbLine
 10
2076.369195241371
 20
886.3883833314515
 30
0.0
 11
2076.569195241247
 21
886.5883833313271
 31
0.0
  0
LINE
  5
8EC
330
8DD
100
AcDbEntity
  8
0
  6
Continuous
 62
     7
370
    15
100
AcDbLine
 10
2076.569195241327
 20
897.2883833313302
 30
0.0
 11
2076.469195241238
 21
897.3883833314188
 31
0.0
  0
LINE
  5
8ED
330
8DD
100
AcDbEntity
  8
0
  6
Continuous
 62
     7
370
    15
100
AcDbLine
 10
2070.669195241432
 20
897.3883833314188
 30
0.0
 11
2070.569195241343
 21
897.2883833313302
 31
0.0
  0
LINE
  5
8EE
330
8DD
100
AcDbEntity
  8
0
  6
Continuous
 62
     7
370
    15
100
AcDbLine
 10
2070.219195241335
 20
901.2883833314075
 30
0.0
 11
2070.219195241335
 21
897.3883833314076
 31
0.0
  0
LINE
  5
8EF
330
8DD
100
AcDbEntity
  8
0
  6
Continuous
 62
     7
370
    15
100
AcDbLine
 10
2076.919195241335
 20
901.2883833314075
 30
0.0
 11
2076.919195241335
 21
897.3883833314076
 31
0.0
  0
LINE
  5
8F0
330
8DD
100
AcDbEntity
  8
0
  6
Continuous
 62
     7
370
    15
100
AcDbLine
 10
2070.219195241335
 20
901.2883833314075
 30
0.0
 11
2076.919195241335
 21
901.2883833314075
 31
0.0
  0
LINE
  5
8F1
330
8DD
100
AcDbEntity
  8
0
  6
Continuous
 62
     7
370
    15
100
AcDbLine
 10
2076.919195241335
 20
897.3883833314076
 30
0.0
 11
2070.219195241335
 21
897.3883833314076
 31
0.0
  0
LINE
  5
8F2
330
8DD
100
AcDbEntity
  8
0
  6
Continuous
 62
     7
370
    15
100
AcDbLine
 10
2070.219195241335
 20
901.2883833314075
 30
0.0
 11
2069.869195241335
 21
901.2883833314075
 31
0.0
  0
LINE
  5
8F3
330
8DD
100
AcDbEntity
  8
0
  6
Continuous
 62
     7
370
    15
100
AcDbLine
 10
2070.219195241335
 20
897.3883833314076
 30
0.0
 11
2069.869195241335
 21
897.3883833314076
 31
0.0
  0
LINE
  5
8F4
330
8DD
100
AcDbEntity
  8
0
  6
Continuous
 62
     7
370
    15
100
AcDbLine
 10
2077.269195241335
 20
901.2883833314075
 30
0.0
 11
2076.919195241335
 21
901.2883833314075
 31
0.0
  0
LINE
  5
8F5
330
8DD
100
AcDbEntity
  8
0
  6
Continuous
 62
     7
370
    15
100
AcDbLine
 10
2077.269195241335
 20
897.3883833314076
 30
0.0
 11
2076.919195241335
 21
897.3883833314076
 31
0.0
  0
SPLINE
  5
8F6
330
8DD
100
AcDbEntity
  8
0
  6
Continuous
 62
     7
370
    15
100
AcDbSpline
210
0.0
220
0.0
230
1.0
 70
    24
 71
     3
 72
    10
 73
     6
 74
     0
 42
0.0000000001
 43
0.0000000001
 40
0.0
 40
0.0
 40
0.0
 40
0.0
 40
0.5
 40
0.5
 40
1.0
 40
1.0
 40
1.0
 40
1.0
 10
2070.344195241335
 20
902.1883833314076
 30
0.0
 10
2070.344195241335
 20
902.1883833314076
 30
0.0
 10
2070.683988167975
 20
902.1883833314076
 30
0.0
 10
2071.893563576042
 20
902.1883833314076
 30
0.0
 10
2072.713896267935
 20
902.1883833314076
 30
0.0
 10
2073.569195241335
 20
902.1883833314076
 30
0.0
  0
SPLINE
  5
8F7
330
8DD
100
AcDbEntity
  8
0
  6
Continuous
 62
     7
370
    15
100
AcDbSpline
210
0.0
220
0.0
230
1.0
 70
    24
 71
     3
 72
     8
 73
     4
 74
     0
 42
0.0000000001
 43
0.0000000001
 40
0.0
 40
0.0
 40
0.0
 40
0.0
 40
1.0
 40
1.0
 40
1.0
 40
1.0
 10
2073.569195241335
 20
902.1883833314076
 30
0.0
 10
2075.349121148337
 20
902.1883833314076
 30
0.0
 10
2076.794195241335
 20
902.1883833314076
 30
0.0
 10
2076.794195241335
 20
902.1883833314076
 30
0.0
  0
LINE
  5
8F8
330
8DD
100
AcDbEntity
  8
0
  6
Continuous
 62
     7
370
    15
100
AcDbLine
 10
2076.994195241335
 20
907.5883833314076
 30
0.0
 11
2070.144195241335
 21
907.5883833314076
 31
0.0
  0
LINE
  5
8F9
330
8DD
100
AcDbEntity
  8
0
  6
Continuous
 62
     7
370
    15
100
AcDbLine
 10
2070.569195241335
 20
897.2883833313302
 30
0.0
 11
2076.569195241335
 21
897.2883833313302
 31
0.0
  0
LINE
  5
8FA
330
8DD
100
AcDbEntity
  8
0
  6
Continuous
 62
     7
370
    15
100
AcDbLine
 10
2070.569195241335
 20
886.5883833313271
 30
0.0
 11
2076.569195241335
 21
886.5883833313271
 31
0.0
  0
LINE
  5
8FB
330
8DD
100
AcDbEntity
  8
0
  6
Continuous
 62
     7
370
    15
100
AcDbLine
 10
2070.769195241299
 20
886.3883833314515
 30
0.0
 11
2076.369195241371
 21
886.3883833314515
 31
0.0
  0
LINE
  5
8FC
330
8DD
100
AcDbEntity
  8
0
  6
Continuous
 62
     8
370
    15
100
AcDbLine
 10
2073.569195241335
 20
902.3883833314075
 30
0.0
 11
2070.144195241335
 21
902.3883833314075
 31
0.0
  0
LINE
  5
8FD
330
8DD
100
AcDbEntity
  8
0
  6
Continuous
 62
     8
370
    15
100
AcDbLine
 10
2076.994195241335
 20
902.3883833314075
 30
0.0
 11
2073.569195241335
 21
902.3883833314075
 31
0.0
  0
ENDBLK
  5
8DF
330
8DD
100
AcDbEntity
  8
0
100
AcDbBlockEnd
  0
BLOCK
  5
900
330
8FF
100
AcDbEntity
  8
0
100
AcDbBlockBegin
  2
4
 70
     0
 10
0.0
 20
0.0
 30
0.0
  3
4
  1

  0
LINE
  5
902
330
8FF
100
AcDbEntity
  8
0
  6
Continuous
 62
     7
370
    15
100
AcDbLine
 10
2296.795037188607
 20
882.2789758237302
 30
0.0
 11
2296.867872336053
 21
886.8758816689018
 31
0.0
  0
LINE
  5
903
330
8FF
100
AcDbEntity
  8
0
  6
Continuous
 62
     7
370
    15
100
AcDbLine
 10
2290.018732001765
 20
886.9844020874024
 30
0.0
 11
2289.945896854319
 21
882.3874962422307
 31
0.0
  0
SPLINE
  5
904
330
8FF
100
AcDbEntity
  8
0
  6
Continuous
 62
     7
370
    15
100
AcDbSpline
210
0.0
220
0.0
230
1.0
 70
     8
 71
     3
 72
    10
 73
     6
 74
     0
 42
0.0000000001
 43
0.0000000001
 40
0.0
 40
0.0
 40
0.0
 40
0.0
 40
0.0696736289266233
 40
0.7941296128291173
 40
1.0
 40
1.0
 40
1.0
 40
1.0
 10
2296.597166118766
 20
881.7242029093145
 30
0.0
 10
2296.603751472846
 20
881.731877827711
 30
0.0
 10
2296.67881035476
 20
881.8193554009138
 30
0.0
 10
2296.737756015947
 20
881.9386816135603
 30
0.0
 10
2296.75509895287
 20
882.0515426145176
 30
0.0
 10
2296.758936742757
 20
882.0765174391448
 30
0.0
  0
SPLINE
  5
905
330
8FF
100
AcDbEntity
  8
0
  6
Continuous
 62
     7
370
    15
100
AcDbSpline
210
0.0
220
0.0
230
1.0
 70
     8
 71
     3
 72
    22
 73
    18
 74
     0
 42
0.0000000001
 43
0.0000000001
 40
0.0
 40
0.0
 40
0.0
 40
0.0
 40
0.0877795483723448
 40
0.1677603191762134
 40
0.2398864793448288
 40
0.3042955137485052
 40
0.3614504981013228
 40
0.4158014684838708
 40
0.4689280493463139
 40
0.5208484012618681
 40
0.6208934394805138
 40
0.6751883869310315
 40
0.7405626495644078
 40
0.8172086363722554
 40
0.9053104800928535
 40
0.9538105776401787
 40
1.0
 40
1.0
 40
1.0
 40
1.0
 10
2289.945898392749
 20
882.3875929436315
 30
0.0
 10
2289.965086666734
 20
882.2388614877594
 30
0.0
 10
2290.001758431718
 20
881.9546126283
 30
0.0
 10
2290.292891415446
 20
881.5796981507832
 30
0.0
 10
2290.674703747914
 20
881.2825966218708
 30
0.0
 10
2291.108154849146
 20
881.0583642316528
 30
0.0
 10
2291.557915891491
 20
880.89334245411
 30
0.0
 10
2292.021744337715
 20
880.7718585858882
 30
0.0
 10
2292.501083532624
 20
880.6873239297791
 30
0.0
 10
2293.141425313138
 20
880.6225495401022
 30
0.0
 10
2293.804234467035
 20
880.623393905952
 30
0.0
 10
2294.481667495893
 20
880.6969827535398
 30
0.0
 10
2295.057722349096
 20
880.8129503093962
 30
0.0
 10
2295.666157148929
 20
881.014470363212
 30
0.0
 10
2296.125905317366
 20
881.2654621503128
 30
0.0
 10
2296.433402049784
 20
881.5135108028545
 30
0.0
 10
2296.543473440301
 20
881.6551241205575
 30
0.0
 10
2296.597166118766
 20
881.7242029093145
 30
0.0
  0
LINE
  5
906
330
8FF
100
AcDbEntity
  8
0
  6
Continuous
 62
     7
370
    15
100
AcDbLine
 10
2296.354683090494
 20
881.3132864520714
 30
0.0
 11
2296.357081055928
 21
881.4646312588999
 31
0.0
  0
LINE
  5
907
330
8FF
100
AcDbEntity
  8
0
  6
Continuous
 62
     7
370
    15
100
AcDbLine
 10
2290.35768886071
 20
881.5505223257147
 30
0.0
 11
2290.355436082359
 21
881.4083408332399
 31
0.0
  0
LINE
  5
908
330
8FF
100
AcDbEntity
  8
0
  6
Continuous
 62
     7
370
    15
100
AcDbLine
 10
2296.105088996352
 20
868.3390674536111
 30
0.0
 11
2296.218100445665
 21
875.4716539882108
 31
0.0
  0
LINE
  5
909
330
8FF
100
AcDbEntity
  8
0
  6
Continuous
 62
     7
370
    15
100
AcDbLine
 10
2290.24066059914
 20
876.9430420789785
 30
0.0
 11
2290.105841988216
 21
868.4341218347796
 31
0.0
  0
LINE
  5
90A
330
8FF
100
AcDbEntity
  8
0
  6
Continuous
 62
     7
370
    15
100
AcDbLine
 10
2288.293786099657
 20
886.341432638871
 30
0.0
 11
2288.366621247103
 21
890.9383384840426
 31
0.0
  0
LINE
  5
90B
330
8FF
100
AcDbEntity
  8
0
  6
Continuous
 62
     7
370
    15
100
AcDbLine
 10
2281.517480912815
 20
891.0468589025434
 30
0.0
 11
2281.44464576537
 21
886.4499530573716
 31
0.0
  0
SPLINE
  5
90C
330
8FF
100
AcDbEntity
  8
0
  6
Continuous
 62
     7
370
    15
100
AcDbSpline
210
0.0
220
0.0
230
1.0
 70
     8
 71
     3
 72
    10
 73
     6
 74
     0
 42
0.0000000001
 43
0.0000000001
 40
0.0
 40
0.0
 40
0.0
 40
0.0
 40
0.0696736289266384
 40
0.7941296128291154
 40
1.0
 40
1.0
 40
1.0
 40
1.0
 10
2288.095915029815
 20
885.7866597244553
 30
0.0
 10
2288.102500383896
 20
885.794334642852
 30
0.0
 10
2288.17755926581
 20
885.8818122160545
 30
0.0
 10
2288.236504926997
 20
886.0011384287012
 30
0.0
 10
2288.25384786392
 20
886.1139994296586
 30
0.0
 10
2288.257685653807
 20
886.1389742542856
 30
0.0
  0
SPLINE
  5
90D
330
8FF
100
AcDbEntity
  8
0
  6
Continuous
 62
     7
370
    15
100
AcDbSpline
210
0.0
220
0.0
230
1.0
 70
     8
 71
     3
 72
    22
 73
    18
 74
     0
 42
0.0000000001
 43
0.0000000001
 40
0.0
 40
0.0
 40
0.0
 40
0.0
 40
0.0877795483723453
 40
0.1677603191762138
 40
0.2398864793448293
 40
0.3042955137485059
 40
0.3614504981013234
 40
0.4158014684838715
 40
0.4689280493463146
 40
0.5208484012618689
 40
0.6208934394805147
 40
0.6751883869310324
 40
0.7405626495644088
 40
0.8172086363722565
 40
0.9053104800928544
 40
0.9538105776401797
 40
1.0
 40
1.0
 40
1.0
 40
1.0
 10
2281.444647303799
 20
886.4500497587725
 30
0.0
 10
2281.463835577785
 20
886.3013183029002
 30
0.0
 10
2281.500507342768
 20
886.017069443441
 30
0.0
 10
2281.791640326496
 20
885.6421549659241
 30
0.0
 10
2282.173452658964
 20
885.3450534370118
 30
0.0
 10
2282.606903760196
 20
885.1208210467936
 30
0.0
 10
2283.056664802541
 20
884.955799269251
 30
0.0
 10
2283.520493248766
 20
884.8343154010292
 30
0.0
 10
2283.999832443674
 20
884.7497807449201
 30
0.0
 10
2284.640174224188
 20
884.6850063552432
 30
0.0
 10
2285.302983378086
 20
884.685850721093
 30
0.0
 10
2285.980416406944
 20
884.7594395686806
 30
0.0
 10
2286.556471260146
 20
884.8754071245371
 30
0.0
 10
2287.164906059979
 20
885.0769271783528
 30
0.0
 10
2287.624654228416
 20
885.3279189654537
 30
0.0
 10
2287.932150960834
 20
885.5759676179953
 30
0.0
 10
2288.042222351351
 20
885.7175809356984
 30
0.0
 10
2288.095915029815
 20
885.7866597244553
 30
0.0
  0
LINE
  5
90E
330
8FF
100
AcDbEntity
  8
0
  6
Continuous
 62
     7
370
    15
100
AcDbLine
 10
2290.547197109664
 20
867.6862686659998
 30
0.0
 11
2290.714946983248
 21
867.5561529936603
 31
0.0
  0
LINE
  5
90F
330
8FF
100
AcDbEntity
  8
0
  6
Continuous
 62
     7
370
    15
100
AcDbLine
 10
2295.468474979066
 20
867.4808362645112
 30
0.0
 11
2295.640262819254
 21
867.6055721704862
 31
0.0
  0
LINE
  5
910
330
8FF
100
AcDbEntity
  8
0
  6
Continuous
 62
     7
370
    15
100
AcDbLine
 10
2287.853432001544
 20
885.3757432672123
 30
0.0
 11
2287.855829966979
 21
885.5270880740407
 31
0.0
  0
LINE
  5
911
330
8FF
100
AcDbEntity
  8
0
  6
Continuous
 62
     7
370
    15
100
AcDbLine
 10
2281.856437771759
 20
885.6129791408559
 30
0.0
 11
2281.854184993409
 21
885.4707976483807
 31
0.0
  0
LINE
  5
912
330
8FF
100
AcDbEntity
  8
0
  6
Continuous
 62
     7
370
    15
100
AcDbLine
 10
2287.603837907402
 20
872.4015242687521
 30
0.0
 11
2287.698573214046
 21
878.3806332583694
 31
0.0
  0
LINE
  5
913
330
8FF
100
AcDbEntity
  8
0
  6
Continuous
 62
     7
370
    15
100
AcDbLine
 10
2281.73940951019
 20
881.0054988941192
 30
0.0
 11
2281.604590899267
 21
872.4965786499204
 31
0.0
  0
LINE
  5
914
330
8FF
100
AcDbEntity
  8
0
  6
Continuous
 62
     7
370
    15
100
AcDbLine
 10
2279.792535010707
 20
890.403889454012
 30
0.0
 11
2279.865370158153
 21
895.0007952991837
 31
0.0
  0
LINE
  5
915
330
8FF
100
AcDbEntity
  8
0
  6
Continuous
 62
     7
370
    15
100
AcDbLine
 10
2273.016229823865
 20
895.1093157176842
 30
0.0
 11
2272.943394676419
 21
890.5124098725124
 31
0.0
  0
SPLINE
  5
916
330
8FF
100
AcDbEntity
  8
0
  6
Continuous
 62
     7
370
    15
100
AcDbSpline
210
0.0
220
0.0
230
1.0
 70
     8
 71
     3
 72
    10
 73
     6
 74
     0
 42
0.0000000001
 43
0.0000000001
 40
0.0
 40
0.0
 40
0.0
 40
0.0
 40
0.0696736289266215
 40
0.7941296128291069
 40
1.0
 40
1.0
 40
1.0
 40
1.0
 10
2279.594663940866
 20
889.8491165395963
 30
0.0
 10
2279.601249294946
 20
889.8567914579928
 30
0.0
 10
2279.67630817686
 20
889.9442690311955
 30
0.0
 10
2279.735253838047
 20
890.063595243842
 30
0.0
 10
2279.75259677497
 20
890.1764562447995
 30
0.0
 10
2279.756434564857
 20
890.2014310694266
 30
0.0
  0
SPLINE
  5
917
330
8FF
100
AcDbEntity
  8
0
  6
Continuous
 62
     7
370
    15
100
AcDbSpline
210
0.0
220
0.0
230
1.0
 70
     8
 71
     3
 72
    22
 73
    18
 74
     0
 42
0.0000000001
 43
0.0000000001
 40
0.0
 40
0.0
 40
0.0
 40
0.0
 40
0.0877795483723447
 40
0.167760319176213
 40
0.2398864793448288
 40
0.3042955137485048
 40
0.3614504981013228
 40
0.4158014684838707
 40
0.4689280493463138
 40
0.520848401261868
 40
0.6208934394805136
 40
0.6751883869310314
 40
0.7405626495644077
 40
0.8172086363722552
 40
0.9053104800928533
 40
0.9538105776401785
 40
1.0
 40
1.0
 40
1.0
 40
1.0
 10
2272.943396214849
 20
890.5125065739133
 30
0.0
 10
2272.962584488835
 20
890.363775118041
 30
0.0
 10
2272.999256253818
 20
890.079526258582
 30
0.0
 10
2273.290389237546
 20
889.7046117810649
 30
0.0
 10
2273.672201570014
 20
889.4075102521528
 30
0.0
 10
2274.105652671247
 20
889.1832778619344
 30
0.0
 10
2274.555413713591
 20
889.0182560843918
 30
0.0
 10
2275.019242159816
 20
888.8967722161702
 30
0.0
 10
2275.498581354724
 20
888.8122375600611
 30
0.0
 10
2276.138923135238
 20
888.747463170384
 30
0.0
 10
2276.801732289136
 20
888.7483075362338
 30
0.0
 10
2277.479165317993
 20
888.8218963838216
 30
0.0
 10
2278.055220171196
 20
888.9378639396779
 30
0.0
 10
2278.663654971029
 20
889.1393839934938
 30
0.0
 10
2279.123403139466
 20
889.3903757805945
 30
0.0
 10
2279.430899871884
 20
889.6384244331363
 30
0.0
 10
2279.540971262401
 20
889.7800377508394
 30
0.0
 10
2279.594663940866
 20
889.8491165395963
 30
0.0
  0
LINE
  5
918
330
8FF
100
AcDbEntity
  8
0
  6
Continuous
 62
     7
370
    15
100
AcDbLine
 10
2282.045946020714
 20
871.7487254811405
 30
0.0
 11
2282.213695894298
 21
871.6186098088011
 31
0.0
  0
LINE
  5
919
330
8FF
100
AcDbEntity
  8
0
  6
Continuous
 62
     7
370
    15
100
AcDbLine
 10
2286.967223890116
 20
871.5432930796522
 30
0.0
 11
2287.139011730304
 21
871.6680289856272
 31
0.0
  0
LINE
  5
91A
330
8FF
100
AcDbEntity
  8
0
  6
Continuous
 62
     7
370
    15
100
AcDbLine
 10
2279.352180912594
 20
889.4382000823533
 30
0.0
 11
2279.354578878029
 21
889.5895448891817
 31
0.0
  0
LINE
  5
91B
330
8FF
100
AcDbEntity
  8
0
  6
Continuous
 62
     7
370
    15
100
AcDbLine
 10
2273.35518668281
 20
889.6754359559967
 30
0.0
 11
2273.352933904459
 21
889.5332544635216
 31
0.0
  0
LINE
  5
91C
330
8FF
100
AcDbEntity
  8
0
  6
Continuous
 62
     7
370
    15
100
AcDbLine
 10
2279.102586818452
 20
876.4639810838929
 30
0.0
 11
2279.197322125096
 21
882.4430900735103
 31
0.0
  0
LINE
  5
91D
330
8FF
100
AcDbEntity
  8
0
  6
Continuous
 62
     7
370
    15
100
AcDbLine
 10
2273.238158421241
 20
885.0679557092602
 30
0.0
 11
2273.103339810317
 21
876.5590354650614
 31
0.0
  0
LINE
  5
91E
330
8FF
100
AcDbEntity
  8
0
  6
Continuous
 62
     7
370
    15
100
AcDbLine
 10
2271.291283921758
 20
894.4663462691528
 30
0.0
 11
2271.364119069203
 21
899.0632521143245
 31
0.0
  0
LINE
  5
91F
330
8FF
100
AcDbEntity
  8
0
  6
Continuous
 62
     7
370
    15
100
AcDbLine
 10
2264.514978734915
 20
899.1717725328252
 30
0.0
 11
2264.442143587469
 21
894.5748666876536
 31
0.0
  0
SPLINE
  5
920
330
8FF
100
AcDbEntity
  8
0
  6
Continuous
 62
     7
370
    15
100
AcDbSpline
210
0.0
220
0.0
230
1.0
 70
     8
 71
     3
 72
    10
 73
     6
 74
     0
 42
0.0000000001
 43
0.0000000001
 40
0.0
 40
0.0
 40
0.0
 40
0.0
 40
0.0696736289266029
 40
0.7941296128290861
 40
0.9999999999999998
 40
0.9999999999999998
 40
0.9999999999999998
 40
0.9999999999999998
 10
2271.093412851916
 20
893.9115733547371
 30
0.0
 10
2271.099998205996
 20
893.9192482731337
 30
0.0
 10
2271.17505708791
 20
894.0067258463363
 30
0.0
 10
2271.234002749098
 20
894.126052058983
 30
0.0
 10
2271.25134568602
 20
894.2389130599403
 30
0.0
 10
2271.255183475908
 20
894.2638878845675
 30
0.0
  0
SPLINE
  5
921
330
8FF
100
AcDbEntity
  8
0
  6
Continuous
 62
     7
370
    15
100
AcDbSpline
210
0.0
220
0.0
230
1.0
 70
     8
 71
     3
 72
    22
 73
    18
 74
     0
 42
0.0000000001
 43
0.0000000001
 40
0.0
 40
0.0
 40
0.0
 40
0.0
 40
0.0877795483723448
 40
0.1677603191762133
 40
0.2398864793448285
 40
0.3042955137485049
 40
0.3614504981013224
 40
0.4158014684838704
 40
0.4689280493463134
 40
0.5208484012618674
 40
0.620893439480513
 40
0.6751883869310306
 40
0.7405626495644074
 40
0.8172086363722545
 40
0.9053104800928512
 40
0.9538105776401776
 40
1.0
 40
1.0
 40
1.0
 40
1.0
 10
2264.442145125899
 20
894.5749633890542
 30
0.0
 10
2264.461333399885
 20
894.4262319331819
 30
0.0
 10
2264.498005164868
 20
894.1419830737228
 30
0.0
 10
2264.789138148596
 20
893.7670685962059
 30
0.0
 10
2265.170950481064
 20
893.4699670672936
 30
0.0
 10
2265.604401582296
 20
893.2457346770755
 30
0.0
 10
2266.054162624641
 20
893.0807128995327
 30
0.0
 10
2266.517991070866
 20
892.9592290313109
 30
0.0
 10
2266.997330265774
 20
892.8746943752019
 30
0.0
 10
2267.637672046288
 20
892.8099199855251
 30
0.0
 10
2268.300481200185
 20
892.8107643513747
 30
0.0
 10
2268.977914229044
 20
892.8843531989626
 30
0.0
 10
2269.553969082247
 20
893.0003207548189
 30
0.0
 10
2270.162403882079
 20
893.2018408086348
 30
0.0
 10
2270.622152050516
 20
893.4528325957355
 30
0.0
 10
2270.929648782934
 20
893.7008812482773
 30
0.0
 10
2271.039720173451
 20
893.8424945659802
 30
0.0
 10
2271.093412851916
 20
893.9115733547371
 30
0.0
  0
LINE
  5
922
330
8FF
100
AcDbEntity
  8
0
  6
Continuous
 62
     7
370
    15
100
AcDbLine
 10
2273.544694931764
 20
875.8111822962815
 30
0.0
 11
2273.712444805348
 21
875.681066623942
 31
0.0
  0
LINE
  5
923
330
8FF
100
AcDbEntity
  8
0
  6
Continuous
 62
     7
370
    15
100
AcDbLine
 10
2278.465972801166
 20
875.6057498947932
 30
0.0
 11
2278.637760641354
 21
875.7304858007682
 31
0.0
  0
LINE
  5
924
330
8FF
100
AcDbEntity
  8
0
  6
Continuous
 62
     7
370
    15
100
AcDbLine
 10
2270.850929823645
 20
893.5006568974941
 30
0.0
 11
2270.853327789078
 21
893.6520017043225
 31
0.0
  0
LINE
  5
925
330
8FF
100
AcDbEntity
  8
0
  6
Continuous
 62
     7
370
    15
100
AcDbLine
 10
2264.85393559386
 20
893.7378927711376
 30
0.0
 11
2264.851682815509
 21
893.5957112786626
 31
0.0
  0
LINE
  5
926
330
8FF
100
AcDbEntity
  8
0
  6
Continuous
 62
     7
370
    15
100
AcDbLine
 10
2270.601335729502
 20
880.5264378990338
 30
0.0
 11
2270.696071036146
 21
886.5055468886511
 31
0.0
  0
LINE
  5
927
330
8FF
100
AcDbEntity
  8
0
  6
Continuous
 62
     7
370
    15
100
AcDbLine
 10
2264.73690733229
 20
889.130412524401
 30
0.0
 11
2264.602088721367
 21
880.6214922802022
 31
0.0
  0
LINE
  5
928
330
8FF
100
AcDbEntity
  8
0
  6
Continuous
 62
     7
370
    15
100
AcDbLine
 10
2262.790032832807
 20
898.5288030842937
 30
0.0
 11
2262.862867980253
 21
903.1257089294653
 31
0.0
  0
LINE
  5
929
330
8FF
100
AcDbEntity
  8
0
  6
Continuous
 62
     7
370
    15
100
AcDbLine
 10
2256.013727645965
 20
903.2342293479661
 30
0.0
 11
2255.94089249852
 21
898.6373235027944
 31
0.0
  0
SPLINE
  5
92A
330
8FF
100
AcDbEntity
  8
0
  6
Continuous
 62
     7
370
    15
100
AcDbSpline
210
0.0
220
0.0
230
1.0
 70
     8
 71
     3
 72
    10
 73
     6
 74
     0
 42
0.0000000001
 43
0.0000000001
 40
0.0
 40
0.0
 40
0.0
 40
0.0
 40
0.0696736289266244
 40
0.7941296128291052
 40
1.0
 40
1.0
 40
1.0
 40
1.0
 10
2262.592161762966
 20
897.9740301698781
 30
0.0
 10
2262.598747117046
 20
897.9817050882745
 30
0.0
 10
2262.67380599896
 20
898.0691826614773
 30
0.0
 10
2262.732751660148
 20
898.188508874124
 30
0.0
 10
2262.75009459707
 20
898.3013698750813
 30
0.0
 10
2262.753932386957
 20
898.3263446997083
 30
0.0
  0
SPLINE
  5
92B
330
8FF
100
AcDbEntity
  8
0
  6
Continuous
 62
     7
370
    15
100
AcDbSpline
210
0.0
220
0.0
230
1.0
 70
     8
 71
     3
 72
    22
 73
    18
 74
     0
 42
0.0000000001
 43
0.0000000001
 40
0.0
 40
0.0
 40
0.0
 40
0.0
 40
0.0877795483723453
 40
0.1677603191762139
 40
0.2398864793448288
 40
0.3042955137485056
 40
0.3614504981013232
 40
0.4158014684838712
 40
0.4689280493463146
 40
0.5208484012618686
 40
0.6208934394805146
 40
0.6751883869310321
 40
0.7405626495644087
 40
0.8172086363722563
 40
0.9053104800928537
 40
0.9538105776401796
 40
1.0
 40
1.0
 40
1.0
 40
1.0
 10
2255.94089403695
 20
898.637420204195
 30
0.0
 10
2255.960082310935
 20
898.4886887483227
 30
0.0
 10
2255.996754075919
 20
898.2044398888637
 30
0.0
 10
2256.287887059646
 20
897.8295254113469
 30
0.0
 10
2256.669699392114
 20
897.5324238824345
 30
0.0
 10
2257.103150493347
 20
897.3081914922163
 30
0.0
 10
2257.552911535691
 20
897.1431697146735
 30
0.0
 10
2258.016739981916
 20
897.0216858464519
 30
0.0
 10
2258.496079176824
 20
896.9371511903428
 30
0.0
 10
2259.136420957339
 20
896.8723768006659
 30
0.0
 10
2259.799230111236
 20
896.8732211665155
 30
0.0
 10
2260.476663140094
 20
896.9468100141034
 30
0.0
 10
2261.052717993297
 20
897.0627775699599
 30
0.0
 10
2261.661152793129
 20
897.2642976237755
 30
0.0
 10
2262.120900961567
 20
897.5152894108765
 30
0.0
 10
2262.428397693984
 20
897.7633380634181
 30
0.0
 10
2262.538469084502
 20
897.9049513811212
 30
0.0
 10
2262.592161762966
 20
897.9740301698781
 30
0.0
  0
LINE
  5
92C
330
8FF
100
AcDbEntity
  8
0
  6
Continuous
 62
     7
370
    15
100
AcDbLine
 10
2265.043443842814
 20
879.8736391114223
 30
0.0
 11
2265.211193716398
 21
879.743523439083
 31
0.0
  0
LINE
  5
92D
330
8FF
100
AcDbEntity
  8
0
  6
Continuous
 62
     7
370
    15
100
AcDbLine
 10
2269.964721712216
 20
879.6682067099339
 30
0.0
 11
2270.136509552404
 21
879.792942615909
 31
0.0
  0
LINE
  5
92E
330
8FF
100
AcDbEntity
  8
0
  6
Continuous
 62
     7
370
    15
100
AcDbLine
 10
2262.349678734695
 20
897.5631137126351
 30
0.0
 11
2262.352076700129
 21
897.7144585194634
 31
0.0
  0
LINE
  5
92F
330
8FF
100
AcDbEntity
  8
0
  6
Continuous
 62
     7
370
    15
100
AcDbLine
 10
2256.35268450491
 20
897.8003495862784
 30
0.0
 11
2256.350431726559
 21
897.6581680938036
 31
0.0
  0
LINE
  5
930
330
8FF
100
AcDbEntity
  8
0
  6
Continuous
 62
     7
370
    15
100
AcDbLine
 10
2262.100084640552
 20
884.5888947141748
 30
0.0
 11
2262.194819947196
 21
890.5680037037921
 31
0.0
  0
LINE
  5
931
330
8FF
100
AcDbEntity
  8
0
  6
Continuous
 62
     7
370
    15
100
AcDbLine
 10
2256.235656243341
 20
893.192869339542
 30
0.0
 11
2256.100837632417
 21
884.6839490953431
 31
0.0
  0
LINE
  5
932
330
8FF
100
AcDbEntity
  8
0
  6
Continuous
 62
     7
370
    15
100
AcDbLine
 10
2254.288781743858
 20
902.5912598994347
 30
0.0
 11
2254.361616891304
 21
907.1881657446063
 31
0.0
  0
LINE
  5
933
330
8FF
100
AcDbEntity
  8
0
  6
Continuous
 62
     7
370
    15
100
AcDbLine
 10
2247.512476557016
 20
907.2966861631069
 30
0.0
 11
2247.43964140957
 21
902.6997803179353
 31
0.0
  0
SPLINE
  5
934
330
8FF
100
AcDbEntity
  8
0
  6
Continuous
 62
     7
370
    15
100
AcDbSpline
210
0.0
220
0.0
230
1.0
 70
     8
 71
     3
 72
    10
 73
     6
 74
     0
 42
0.0000000001
 43
0.0000000001
 40
0.0
 40
0.0
 40
0.0
 40
0.0
 40
0.0696736289266243
 40
0.7941296128291048
 40
1.0
 40
1.0
 40
1.0
 40
1.0
 10
2254.090910674016
 20
902.036486985019
 30
0.0
 10
2254.097496028097
 20
902.0441619034155
 30
0.0
 10
2254.17255491001
 20
902.1316394766182
 30
0.0
 10
2254.231500571198
 20
902.2509656892648
 30
0.0
 10
2254.24884350812
 20
902.3638266902221
 30
0.0
 10
2254.252681298008
 20
902.3888015148493
 30
0.0
  0
SPLINE
  5
935
330
8FF
100
AcDbEntity
  8
0
  6
Continuous
 62
     7
370
    15
100
AcDbSpline
210
0.0
220
0.0
230
1.0
 70
     8
 71
     3
 72
    22
 73
    18
 74
     0
 42
0.0000000001
 43
0.0000000001
 40
0.0
 40
0.0
 40
0.0
 40
0.0
 40
0.0877795483723453
 40
0.1677603191762139
 40
0.2398864793448288
 40
0.3042955137485056
 40
0.3614504981013232
 40
0.4158014684838712
 40
0.4689280493463146
 40
0.5208484012618686
 40
0.6208934394805146
 40
0.6751883869310321
 40
0.7405626495644086
 40
0.8172086363722561
 40
0.9053104800928533
 40
0.9538105776401796
 40
1.0
 40
1.0
 40
1.0
 40
1.0
 10
2247.439642948
 20
902.699877019336
 30
0.0
 10
2247.458831221985
 20
902.5511455634637
 30
0.0
 10
2247.495502986968
 20
902.2668967040047
 30
0.0
 10
2247.786635970697
 20
901.8919822264876
 30
0.0
 10
2248.168448303164
 20
901.5948806975755
 30
0.0
 10
2248.601899404397
 20
901.3706483073573
 30
0.0
 10
2249.051660446741
 20
901.2056265298145
 30
0.0
 10
2249.515488892966
 20
901.0841426615929
 30
0.0
 10
2249.994828087874
 20
900.9996080054836
 30
0.0
 10
2250.635169868388
 20
900.9348336158067
 30
0.0
 10
2251.297979022286
 20
900.9356779816565
 30
0.0
 10
2251.975412051144
 20
901.0092668292443
 30
0.0
 10
2252.551466904346
 20
901.1252343851007
 30
0.0
 10
2253.159901704179
 20
901.3267544389165
 30
0.0
 10
2253.619649872617
 20
901.5777462260173
 30
0.0
 10
2253.927146605034
 20
901.825794878559
 30
0.0
 10
2254.037217995551
 20
901.9674081962621
 30
0.0
 10
2254.090910674016
 20
902.036486985019
 30
0.0
  0
LINE
  5
936
330
8FF
100
AcDbEntity
  8
0
  6
Continuous
 62
     7
370
    15
100
AcDbLine
 10
2256.542192753864
 20
883.9360959265633
 30
0.0
 11
2256.709942627448
 21
883.8059802542238
 31
0.0
  0
LINE
  5
937
330
8FF
100
AcDbEntity
  8
0
  6
Continuous
 62
     7
370
    15
100
AcDbLine
 10
2261.463470623267
 20
883.7306635250749
 30
0.0
 11
2261.635258463454
 21
883.8553994310499
 31
0.0
  0
LINE
  5
938
330
8FF
100
AcDbEntity
  8
0
  6
Continuous
 62
     7
370
    15
100
AcDbLine
 10
2253.848427645745
 20
901.625570527776
 30
0.0
 11
2253.850825611179
 21
901.7769153346044
 31
0.0
  0
LINE
  5
939
330
8FF
100
AcDbEntity
  8
0
  6
Continuous
 62
     7
370
    15
100
AcDbLine
 10
2247.85143341596
 20
901.8628064014194
 30
0.0
 11
2247.849180637609
 21
901.7206249089445
 31
0.0
  0
LINE
  5
93A
330
8FF
100
AcDbEntity
  8
0
  6
Continuous
 62
     7
370
    15
100
AcDbLine
 10
2253.598833551603
 20
888.6513515293156
 30
0.0
 11
2253.693568858246
 21
894.6304605189329
 31
0.0
  0
LINE
  5
93B
330
8FF
100
AcDbEntity
  8
0
  6
Continuous
 62
     7
370
    15
100
AcDbLine
 10
2247.734405154391
 20
897.2553261546829
 30
0.0
 11
2247.599586543467
 21
888.7464059104841
 31
0.0
  0
LINE
  5
93C
330
8FF
100
AcDbEntity
  8
0
  6
Continuous
 62
     7
370
    15
100
AcDbLine
 10
2245.787530654908
 20
906.6537167145755
 30
0.0
 11
2245.860365802354
 21
911.2506225597472
 31
0.0
  0
LINE
  5
93D
330
8FF
100
AcDbEntity
  8
0
  6
Continuous
 62
     7
370
    15
100
AcDbLine
 10
2239.011225468066
 20
911.3591429782479
 30
0.0
 11
2238.93839032062
 21
906.7622371330763
 31
0.0
  0
SPLINE
  5
93E
330
8FF
100
AcDbEntity
  8
0
  6
Continuous
 62
     7
370
    15
100
AcDbSpline
210
0.0
220
0.0
230
1.0
 70
     8
 71
     3
 72
    10
 73
     6
 74
     0
 42
0.0000000001
 43
0.0000000001
 40
0.0
 40
0.0
 40
0.0
 40
0.0
 40
0.0696736289266225
 40
0.7941296128291045
 40
1.0
 40
1.0
 40
1.0
 40
1.0
 10
2245.589659585066
 20
906.09894380016
 30
0.0
 10
2245.596244939147
 20
906.1066187185565
 30
0.0
 10
2245.67130382106
 20
906.194096291759
 30
0.0
 10
2245.730249482248
 20
906.3134225044057
 30
0.0
 10
2245.747592419171
 20
906.426283505363
 30
0.0
 10
2245.751430209057
 20
906.4512583299901
 30
0.0
  0
SPLINE
  5
93F
330
8FF
100
AcDbEntity
  8
0
  6
Continuous
 62
     7
370
    15
100
AcDbSpline
210
0.0
220
0.0
230
1.0
 70
     8
 71
     3
 72
    22
 73
    18
 74
     0
 42
0.0000000001
 43
0.0000000001
 40
0.0
 40
0.0
 40
0.0
 40
0.0
 40
0.0877795483723453
 40
0.1677603191762138
 40
0.2398864793448287
 40
0.3042955137485055
 40
0.3614504981013231
 40
0.4158014684838711
 40
0.4689280493463145
 40
0.5208484012618684
 40
0.6208934394805144
 40
0.675188386931032
 40
0.7405626495644083
 40
0.8172086363722559
 40
0.9053104800928531
 40
0.9538105776401794
 40
1.0
 40
1.0
 40
1.0
 40
1.0
 10
2238.938391859049
 20
906.762333834477
 30
0.0
 10
2238.957580133035
 20
906.6136023786047
 30
0.0
 10
2238.994251898019
 20
906.3293535191455
 30
0.0
 10
2239.285384881746
 20
905.9544390416286
 30
0.0
 10
2239.667197214215
 20
905.6573375127163
 30
0.0
 10
2240.100648315447
 20
905.4331051224981
 30
0.0
 10
2240.550409357791
 20
905.2680833449555
 30
0.0
 10
2241.014237804016
 20
905.1465994767337
 30
0.0
 10
2241.493576998924
 20
905.0620648206246
 30
0.0
 10
2242.133918779439
 20
904.9972904309477
 30
0.0
 10
2242.796727933336
 20
904.9981347967975
 30
0.0
 10
2243.474160962194
 20
905.0717236443851
 30
0.0
 10
2244.050215815397
 20
905.1876912002416
 30
0.0
 10
2244.658650615229
 20
905.3892112540575
 30
0.0
 10
2245.118398783667
 20
905.6402030411582
 30
0.0
 10
2245.425895516084
 20
905.8882516937
 30
0.0
 10
2245.535966906602
 20
906.0298650114029
 30
0.0
 10
2245.589659585066
 20
906.09894380016
 30
0.0
  0
LINE
  5
940
330
8FF
100
AcDbEntity
  8
0
  6
Continuous
 62
     7
370
    15
100
AcDbLine
 10
2248.040941664914
 20
887.9985527417042
 30
0.0
 11
2248.208691538498
 21
887.8684370693648
 31
0.0
  0
LINE
  5
941
330
8FF
100
AcDbEntity
  8
0
  6
Continuous
 62
     7
370
    15
100
AcDbLine
 10
2252.962219534317
 20
887.7931203402159
 30
0.0
 11
2253.134007374504
 21
887.9178562461909
 31
0.0
  0
LINE
  5
942
330
8FF
100
AcDbEntity
  8
0
  6
Continuous
 62
     7
370
    15
100
AcDbLine
 10
2245.347176556795
 20
905.688027342917
 30
0.0
 11
2245.349574522229
 21
905.8393721497452
 31
0.0
  0
LINE
  5
943
330
8FF
100
AcDbEntity
  8
0
  6
Continuous
 62
     7
370
    15
100
AcDbLine
 10
2239.35018232701
 20
905.9252632165604
 30
0.0
 11
2239.34792954866
 21
905.7830817240853
 31
0.0
  0
LINE
  5
944
330
8FF
100
AcDbEntity
  8
0
  6
Continuous
 62
     7
370
    15
100
AcDbLine
 10
2245.097582462653
 20
892.7138083444566
 30
0.0
 11
2245.192317769296
 21
898.6929173340739
 31
0.0
  0
LINE
  5
945
330
8FF
100
AcDbEntity
  8
0
  6
Continuous
 62
     7
370
    15
100
AcDbLine
 10
2239.23315406544
 20
901.3177829698237
 30
0.0
 11
2239.098335454517
 21
892.8088627256249
 31
0.0
  0
LINE
  5
946
330
8FF
100
AcDbEntity
  8
0
  6
Continuous
 62
     7
370
    15
100
AcDbLine
 10
2237.286279565958
 20
910.7161735297166
 30
0.0
 11
2237.359114713404
 21
915.3130793748882
 31
0.0
  0
LINE
  5
947
330
8FF
100
AcDbEntity
  8
0
  6
Continuous
 62
     7
370
    15
100
AcDbLine
 10
2230.509974379116
 20
915.4215997933887
 30
0.0
 11
2230.43713923167
 21
910.8246939482171
 31
0.0
  0
SPLINE
  5
948
330
8FF
100
AcDbEntity
  8
0
  6
Continuous
 62
     7
370
    15
100
AcDbSpline
210
0.0
220
0.0
230
1.0
 70
     8
 71
     3
 72
    10
 73
     6
 74
     0
 42
0.0000000001
 43
0.0000000001
 40
0.0
 40
0.0
 40
0.0
 40
0.0
 40
0.0696736289265829
 40
0.7941296128290962
 40
1.0
 40
1.0
 40
1.0
 40
1.0
 10
2237.088408496116
 20
910.1614006153008
 30
0.0
 10
2237.094993850196
 20
910.1690755336973
 30
0.0
 10
2237.170052732111
 20
910.2565531069002
 30
0.0
 10
2237.228998393298
 20
910.3758793195465
 30
0.0
 10
2237.24634133022
 20
910.488740320504
 30
0.0
 10
2237.250179120108
 20
910.5137151451311
 30
0.0
  0
SPLINE
  5
949
330
8FF
100
AcDbEntity
  8
0
  6
Continuous
 62
     7
370
    15
100
AcDbSpline
210
0.0
220
0.0
230
1.0
 70
     8
 71
     3
 72
    22
 73
    18
 74
     0
 42
0.0000000001
 43
0.0000000001
 40
0.0
 40
0.0
 40
0.0
 40
0.0
 40
0.0877795483723454
 40
0.1677603191762136
 40
0.239886479344828
 40
0.3042955137485047
 40
0.3614504981013215
 40
0.41580146848387
 40
0.4689280493463122
 40
0.5208484012618671
 40
0.6208934394805122
 40
0.6751883869310291
 40
0.7405626495644054
 40
0.8172086363722531
 40
0.9053104800928501
 40
0.9538105776401762
 40
0.9999999999999998
 40
0.9999999999999998
 40
0.9999999999999998
 40
0.9999999999999998
 10
2230.4371407701
 20
910.8247906496178
 30
0.0
 10
2230.456329044085
 20
910.6760591937456
 30
0.0
 10
2230.493000809069
 20
910.3918103342865
 30
0.0
 10
2230.784133792797
 20
910.0168958567694
 30
0.0
 10
2231.165946125264
 20
909.7197943278573
 30
0.0
 10
2231.599397226497
 20
909.495561937639
 30
0.0
 10
2232.049158268841
 20
909.3305401600964
 30
0.0
 10
2232.512986715066
 20
909.2090562918746
 30
0.0
 10
2232.992325909974
 20
909.1245216357656
 30
0.0
 10
2233.632667690489
 20
909.0597472460885
 30
0.0
 10
2234.295476844386
 20
909.0605916119383
 30
0.0
 10
2234.972909873244
 20
909.1341804595261
 30
0.0
 10
2235.548964726447
 20
909.2501480153826
 30
0.0
 10
2236.15739952628
 20
909.4516680691983
 30
0.0
 10
2236.617147694717
 20
909.7026598562992
 30
0.0
 10
2236.924644427134
 20
909.9507085088408
 30
0.0
 10
2237.034715817651
 20
910.0923218265439
 30
0.0
 10
2237.088408496116
 20
910.1614006153008
 30
0.0
  0
LINE
  5
94A
330
8FF
100
AcDbEntity
  8
0
  6
Continuous
 62
     7
370
    15
100
AcDbLine
 10
2239.539690575965
 20
892.061009556845
 30
0.0
 11
2239.707440449548
 21
891.9308938845055
 31
0.0
  0
LINE
  5
94B
330
8FF
100
AcDbEntity
  8
0
  6
Continuous
 62
     7
370
    15
100
AcDbLine
 10
2244.460968445367
 20
891.8555771553567
 30
0.0
 11
2244.632756285554
 21
891.9803130613317
 31
0.0
  0
LINE
  5
94C
330
8FF
100
AcDbEntity
  8
0
  6
Continuous
 62
     7
370
    15
100
AcDbLine
 10
2236.845925467845
 20
909.7504841580578
 30
0.0
 11
2236.848323433279
 21
909.9018289648862
 31
0.0
  0
LINE
  5
94D
330
8FF
100
AcDbEntity
  8
0
  6
Continuous
 62
     7
370
    15
100
AcDbLine
 10
2230.84893123806
 20
909.9877200317012
 30
0.0
 11
2230.846678459709
 21
909.8455385392263
 31
0.0
  0
LINE
  5
94E
330
8FF
100
AcDbEntity
  8
0
  6
Continuous
 62
     7
370
    15
100
AcDbLine
 10
2236.596331373703
 20
896.7762651595974
 30
0.0
 11
2236.691066680346
 21
902.7553741492146
 31
0.0
  0
LINE
  5
94F
330
8FF
100
AcDbEntity
  8
0
  6
Continuous
 62
     7
370
    15
100
AcDbLine
 10
2230.731902976491
 20
905.3802397849647
 30
0.0
 11
2230.597084365567
 21
896.8713195407659
 31
0.0
  0
LINE
  5
950
330
8FF
100
AcDbEntity
  8
0
  6
Continuous
 62
     7
370
    15
100
AcDbLine
 10
2228.785028477008
 20
914.7786303448574
 30
0.0
 11
2228.857863624454
 21
919.375536190029
 31
0.0
  0
LINE
  5
951
330
8FF
100
AcDbEntity
  8
0
  6
Continuous
 62
     7
370
    15
100
AcDbLine
 10
2222.008723290166
 20
919.4840566085296
 30
0.0
 11
2221.93588814272
 21
914.8871507633581
 31
0.0
  0
SPLINE
  5
952
330
8FF
100
AcDbEntity
  8
0
  6
Continuous
 62
     7
370
    15
100
AcDbSpline
210
0.0
220
0.0
230
1.0
 70
     8
 71
     3
 72
    10
 73
     6
 74
     0
 42
0.0000000001
 43
0.0000000001
 40
0.0
 40
0.0
 40
0.0
 40
0.0
 40
0.0696736289265628
 40
0.794129612829093
 40
1.0
 40
1.0
 40
1.0
 40
1.0
 10
2228.587157407166
 20
914.2238574304418
 30
0.0
 10
2228.593742761247
 20
914.2315323488382
 30
0.0
 10
2228.668801643161
 20
914.319009922041
 30
0.0
 10
2228.727747304348
 20
914.4383361346875
 30
0.0
 10
2228.74509024127
 20
914.5511971356448
 30
0.0
 10
2228.748928031158
 20
914.576171960272
 30
0.0
  0
SPLINE
  5
953
330
8FF
100
AcDbEntity
  8
0
  6
Continuous
 62
     7
370
    15
100
AcDbSpline
210
0.0
220
0.0
230
1.0
 70
     8
 71
     3
 72
    22
 73
    18
 74
     0
 42
0.0000000001
 43
0.0000000001
 40
0.0
 40
0.0
 40
0.0
 40
0.0
 40
0.0877795483723441
 40
0.1677603191762135
 40
0.2398864793448277
 40
0.3042955137485044
 40
0.3614504981013211
 40
0.4158014684838695
 40
0.4689280493463116
 40
0.5208484012618652
 40
0.6208934394805113
 40
0.6751883869310285
 40
0.7405626495644049
 40
0.817208636372252
 40
0.9053104800928487
 40
0.9538105776401748
 40
1.0
 40
1.0
 40
1.0
 40
1.0
 10
2221.93588968115
 20
914.8872474647587
 30
0.0
 10
2221.955077955136
 20
914.7385160088866
 30
0.0
 10
2221.991749720119
 20
914.4542671494273
 30
0.0
 10
2222.282882703847
 20
914.0793526719104
 30
0.0
 10
2222.664695036315
 20
913.782251142998
 30
0.0
 10
2223.098146137547
 20
913.55801875278
 30
0.0
 10
2223.547907179892
 20
913.3929969752372
 30
0.0
 10
2224.011735626116
 20
913.2715131070154
 30
0.0
 10
2224.491074821024
 20
913.1869784509063
 30
0.0
 10
2225.131416601539
 20
913.1222040612295
 30
0.0
 10
2225.794225755436
 20
913.1230484270792
 30
0.0
 10
2226.471658784294
 20
913.1966372746671
 30
0.0
 10
2227.047713637497
 20
913.3126048305234
 30
0.0
 10
2227.65614843733
 20
913.5141248843392
 30
0.0
 10
2228.115896605767
 20
913.76511667144
 30
0.0
 10
2228.423393338184
 20
914.0131653239818
 30
0.0
 10
2228.533464728702
 20
914.1547786416847
 30
0.0
 10
2228.587157407166
 20
914.2238574304418
 30
0.0
  0
LINE
  5
954
330
8FF
100
AcDbEntity
  8
0
  6
Continuous
 62
     7
370
    15
100
AcDbLine
 10
2231.038439487015
 20
896.123466371986
 30
0.0
 11
2231.206189360598
 21
895.9933506996465
 31
0.0
  0
LINE
  5
955
330
8FF
100
AcDbEntity
  8
0
  6
Continuous
 62
     7
370
    15
100
AcDbLine
 10
2235.959717356417
 20
895.9180339704976
 30
0.0
 11
2236.131505196604
 21
896.0427698764727
 31
0.0
  0
LINE
  5
956
330
8FF
100
AcDbEntity
  8
0
  6
Continuous
 62
     7
370
    15
100
AcDbLine
 10
2228.344674378895
 20
913.8129409731986
 30
0.0
 11
2228.347072344329
 21
913.964285780027
 31
0.0
  0
LINE
  5
957
330
8FF
100
AcDbEntity
  8
0
  6
Continuous
 62
     7
370
    15
100
AcDbLine
 10
2222.34768014911
 20
914.0501768468421
 30
0.0
 11
2222.345427370759
 21
913.9079953543671
 31
0.0
  0
LINE
  5
958
330
8FF
100
AcDbEntity
  8
0
  6
Continuous
 62
     7
370
    15
100
AcDbLine
 10
2228.095080284753
 20
900.8387219747383
 30
0.0
 11
2228.189815591397
 21
906.8178309643556
 31
0.0
  0
LINE
  5
959
330
8FF
100
AcDbEntity
  8
0
  6
Continuous
 62
     7
370
    15
100
AcDbLine
 10
2222.23065188754
 20
909.4426966001055
 30
0.0
 11
2222.095833276617
 21
900.9337763559068
 31
0.0
  0
LINE
  5
95A
330
8FF
100
AcDbEntity
  8
0
  6
Continuous
 62
     7
370
    15
100
AcDbLine
 10
2222.537188398065
 20
900.185923187127
 30
0.0
 11
2222.704938271649
 21
900.0558075147875
 31
0.0
  0
LINE
  5
95B
330
8FF
100
AcDbEntity
  8
0
  6
Continuous
 62
     7
370
    15
100
AcDbLine
 10
2227.458466267467
 20
899.9804907856384
 30
0.0
 11
2227.630254107655
 21
900.1052266916135
 31
0.0
  0
LWPOLYLINE
  5
95C
330
8FF
100
AcDbEntity
  8
0
  6
Continuous
 62
     7
370
    15
100
AcDbPolyline
 90
       37
 70
   128
 43
0.0
 10
2295.196685206013
 20
886.0922601600334
 10
2294.866780336233
 20
885.9664564837606
 10
2294.493623802654
 20
885.8699339005482
 10
2294.088553777722
 20
885.8056252002445
 10
2293.66387810917
 20
885.7754843701664
 10
2293.232500352289
 20
885.7804272241837
 10
2292.807527701935
 20
885.8203035761786
 10
2292.401872737043
 20
885.8939018033735
 10
2292.02786107845
 20
885.9989856608784
 10
2291.696856881142
 20
886.1323622288574
 10
2291.41891754016
 20
886.2899789277845
 10
2291.202488101733
 20
886.4670466540207
 10
2291.054144664832
 20
886.6581852943049
 10
2290.978394569719
 20
886.8575871977729
 10
2290.977539444705
 20
887.0591936384899
 10
2291.051605272329
 20
887.2568789067727
 10
2291.198341599899
 20
887.444636435778
 10
2291.413289918354
 20
887.6167613079969
 10
2291.689919131806
 20
887.7680235962863
 10
2292.019824001585
 20
887.8938272725591
 10
2292.392980535164
 20
887.9903498557714
 10
2292.798050560096
 20
888.054658556075
 10
2293.222726228649
 20
888.0847993861532
 10
2293.65410398553
 20
888.0798565321358
 10
2294.079076635883
 20
888.0399801801411
 10
2294.484731600775
 20
887.966381952946
 10
2294.858743259369
 20
887.8612980954413
 10
2295.189747456676
 20
887.7279215274622
 10
2295.467686797659
 20
887.570304828535
 10
2295.684116236085
 20
887.393237102299
 10
2295.832459672987
 20
887.2020984620148
 10
2295.908209768099
 20
887.0026965585468
 10
2295.909064893113
 20
886.8010901178298
 10
2295.834999065489
 20
886.6034048495469
 10
2295.688262737919
 20
886.4156473205417
 10
2295.473314419465
 20
886.2435224483229
 10
2295.196685206013
 20
886.0922601600334
  0
LWPOLYLINE
  5
95D
330
8FF
100
AcDbEntity
  8
0
  6
Continuous
 62
     7
370
    15
100
AcDbPolyline
 90
       43
 70
   128
 43
0.0
 10
2291.016903420604
 20
888.089634760807
 10
2291.40420934433
 20
888.2412265620692
 10
2291.837065232256
 20
888.363530897995
 10
2292.30580179912
 20
888.4538156918216
 10
2292.799948244583
 20
888.5100641304459
 10
2293.308466153606
 20
888.5310197166971
 10
2293.8199960764
 20
888.5162143374062
 10
2294.323111279768
 20
888.4659787202814
 10
2294.806573001441
 20
888.3814350459971
 10
2295.259581505453
 20
888.2644718805332
 10
2295.672017330397
 20
888.11770198773
 10
2296.034667341475
 20
887.9444039644628
 10
2296.339430536699
 20
887.7484490022052
 10
2296.579499009895
 20
887.5342144110078
 10
2296.749510028073
 20
887.3064858376265
 10
2296.845665826021
 20
887.07035036208
 10
2296.865818442106
 20
886.8310828606903
 10
2296.809517700185
 20
886.5940281740604
 10
2296.6780212658
 20
886.3644817121688
 10
2296.474266552003
 20
886.14757116366
 10
2296.202805102405
 20
885.9481419517537
 10
2295.869700917213
 20
885.7706489954974
 10
2295.482394993488
 20
885.6190571942349
 10
2295.049539105562
 20
885.4967528583092
 10
2294.580802538698
 20
885.4064680644826
 10
2294.086656093234
 20
885.3502196258581
 10
2293.578138184213
 20
885.3292640396071
 10
2293.066608261419
 20
885.344069418898
 10
2292.56349305805
 20
885.394305036023
 10
2292.080031336377
 20
885.4788487103071
 10
2291.627022832366
 20
885.595811875771
 10
2291.214587007422
 20
885.7425817685742
 10
2290.851936996344
 20
885.9158797918414
 10
2290.547173801119
 20
886.1118347540992
 10
2290.307105327923
 20
886.3260693452964
 10
2290.137094309745
 20
886.5537979186777
 10
2290.040938511797
 20
886.7899333942242
 10
2290.020785895713
 20
887.0292008956139
 10
2290.077086637633
 20
887.2662555822438
 10
2290.208583072018
 20
887.4958020441354
 10
2290.412337785816
 20
887.7127125926442
 10
2290.683799235413
 20
887.9121418045503
 10
2291.016903420604
 20
888.089634760807
  0
ARC
  5
95E
330
8FF
100
AcDbEntity
  8
0
  6
Continuous
 62
     7
370
    15
100
AcDbCircle
 10
2295.945688635192
 20
882.3037333328532
 30
0.0
 40
0.849709302905974
100
AcDbArc
 50
321.3085754189381
 51
358.3303683297742
  0
LWPOLYLINE
  5
95F
330
8FF
100
AcDbEntity
  8
0
  6
Continuous
 62
     7
370
    15
100
AcDbPolyline
 90
       22
 70
   128
 43
0.0
 10
2222.345427370759
 20
913.9079953543671
 10
2222.346079060875
 20
913.8666020255874
 10
2222.395558286485
 20
913.6415727529765
 10
2222.521427820836
 20
913.4222127565251
 10
2222.720427709105
 20
913.2142033449168
 10
2222.987403958715
 20
913.0229318526499
 10
2223.315442025037
 20
912.8533521109035
 10
2223.696045894464
 20
912.7098561459133
 10
2224.1193581267
 20
912.596160427797
 10
2224.574415157286
 20
912.5152096159325
 10
2225.049431248161
 20
912.4691002938257
 10
2225.532103732083
 20
912.4590266686986
 10
2226.009931645258
 20
912.485249642151
 10
2226.470539495723
 20
912.5470900529446
 10
2226.9019977821
 20
912.6429462669232
 10
2227.293131961405
 20
912.7703356584955
 10
2227.633811863847
 20
912.9259589093347
 10
2227.915214058905
 20
913.1057854589887
 10
2228.130050377539
 20
913.3051578942806
 10
2228.272756671946
 20
913.5189125738614
 10
2228.339636924062
 20
913.7415133638103
 10
2228.344674378895
 20
913.8129409731986
  0
LWPOLYLINE
  5
960
330
8FF
100
AcDbEntity
  8
0
  6
Continuous
 62
     7
370
    15
100
AcDbPolyline
 90
       22
 70
   128
 43
0.0
 10
2230.846678459709
 20
909.8455385392263
 10
2230.847330149824
 20
909.8041452104464
 10
2230.896809375435
 20
909.5791159378357
 10
2231.022678909786
 20
909.3597559413844
 10
2231.221678798055
 20
909.151746529776
 10
2231.488655047664
 20
908.9604750375089
 10
2231.816693113987
 20
908.7908952957628
 10
2232.197296983414
 20
908.6473993307725
 10
2232.620609215651
 20
908.5337036126562
 10
2233.075666246236
 20
908.4527528007917
 10
2233.55068233711
 20
908.4066434786846
 10
2234.033354821034
 20
908.3965698535578
 10
2234.511182734208
 20
908.4227928270102
 10
2234.971790584673
 20
908.4846332378038
 10
2235.40324887105
 20
908.5804894517822
 10
2235.794383050355
 20
908.7078788433547
 10
2236.135062952797
 20
908.8635020941937
 10
2236.416465147855
 20
909.0433286438479
 10
2236.63130146649
 20
909.2427010791396
 10
2236.774007760896
 20
909.4564557587204
 10
2236.840888013011
 20
909.6790565486694
 10
2236.845925467845
 20
909.7504841580578
  0
LWPOLYLINE
  5
961
330
8FF
100
AcDbEntity
  8
0
  6
Continuous
 62
     7
370
    15
100
AcDbPolyline
 90
       22
 70
   128
 43
0.0
 10
2239.34792954866
 20
905.7830817240853
 10
2239.348581238775
 20
905.7416883953056
 10
2239.398060464385
 20
905.5166591226948
 10
2239.523929998736
 20
905.2972991262434
 10
2239.722929887005
 20
905.0892897146351
 10
2239.989906136615
 20
904.8980182223681
 10
2240.317944202937
 20
904.7284384806218
 10
2240.698548072364
 20
904.5849425156315
 10
2241.121860304601
 20
904.4712467975152
 10
2241.576917335187
 20
904.3902959856508
 10
2242.05193342606
 20
904.3441866635438
 10
2242.534605909983
 20
904.3341130384169
 10
2243.012433823157
 20
904.3603360118693
 10
2243.473041673623
 20
904.4221764226628
 10
2243.90449996
 20
904.5180326366413
 10
2244.295634139305
 20
904.6454220282138
 10
2244.636314041747
 20
904.8010452790528
 10
2244.917716236805
 20
904.9808718287069
 10
2245.132552555439
 20
905.1802442639987
 10
2245.275258849846
 20
905.3939989435797
 10
2245.342139101961
 20
905.6165997335284
 10
2245.347176556795
 20
905.688027342917
  0
LWPOLYLINE
  5
962
330
8FF
100
AcDbEntity
  8
0
  6
Continuous
 62
     7
370
    15
100
AcDbPolyline
 90
       22
 70
   128
 43
0.0
 10
2247.849180637609
 20
901.7206249089445
 10
2247.849832327724
 20
901.6792315801646
 10
2247.899311553335
 20
901.454202307554
 10
2248.025181087686
 20
901.2348423111024
 10
2248.224180975954
 20
901.0268328994941
 10
2248.491157225564
 20
900.8355614072272
 10
2248.819195291886
 20
900.665981665481
 10
2249.199799161314
 20
900.5224857004906
 10
2249.62311139355
 20
900.4087899823744
 10
2250.078168424136
 20
900.3278391705098
 10
2250.55318451501
 20
900.281729848403
 10
2251.035856998933
 20
900.2716562232759
 10
2251.513684912108
 20
900.2978791967283
 10
2251.974292762573
 20
900.3597196075219
 10
2252.40575104895
 20
900.4555758215005
 10
2252.796885228255
 20
900.5829652130728
 10
2253.137565130697
 20
900.7385884639118
 10
2253.418967325754
 20
900.9184150135661
 10
2253.633803644389
 20
901.1177874488579
 10
2253.776509938796
 20
901.3315421284387
 10
2253.843390190911
 20
901.5541429183874
 10
2253.848427645745
 20
901.625570527776
  0
LWPOLYLINE
  5
963
330
8FF
100
AcDbEntity
  8
0
  6
Continuous
 62
     7
370
    15
100
AcDbPolyline
 90
       22
 70
   128
 43
0.0
 10
2256.350431726559
 20
897.6581680938036
 10
2256.351083416674
 20
897.6167747650237
 10
2256.400562642284
 20
897.391745492413
 10
2256.526432176636
 20
897.1723854959616
 10
2256.725432064905
 20
896.9643760843533
 10
2256.992408314514
 20
896.7731045920862
 10
2257.320446380837
 20
896.60352485034
 10
2257.701050250264
 20
896.4600288853496
 10
2258.1243624825
 20
896.3463331672334
 10
2258.579419513086
 20
896.265382355369
 10
2259.05443560396
 20
896.2192730332619
 10
2259.537108087883
 20
896.2091994081351
 10
2260.014936001057
 20
896.2354223815875
 10
2260.475543851523
 20
896.2972627923811
 10
2260.9070021379
 20
896.3931190063595
 10
2261.298136317204
 20
896.520508397932
 10
2261.638816219647
 20
896.676131648771
 10
2261.920218414704
 20
896.8559581984251
 10
2262.135054733338
 20
897.0553306337169
 10
2262.277761027746
 20
897.2690853132977
 10
2262.344641279861
 20
897.4916861032466
 10
2262.349678734695
 20
897.5631137126351
  0
LWPOLYLINE
  5
964
330
8FF
100
AcDbEntity
  8
0
  6
Continuous
 62
     7
370
    15
100
AcDbPolyline
 90
       22
 70
   128
 43
0.0
 10
2264.851682815509
 20
893.5957112786626
 10
2264.852334505624
 20
893.5543179498829
 10
2264.901813731234
 20
893.329288677272
 10
2265.027683265586
 20
893.1099286808207
 10
2265.226683153855
 20
892.9019192692123
 10
2265.493659403464
 20
892.7106477769454
 10
2265.821697469786
 20
892.5410680351991
 10
2266.202301339214
 20
892.3975720702086
 10
2266.62561357145
 20
892.2838763520925
 10
2267.080670602036
 20
892.202925540228
 10
2267.55568669291
 20
892.1568162181211
 10
2268.038359176833
 20
892.1467425929941
 10
2268.516187090007
 20
892.1729655664464
 10
2268.976794940473
 20
892.2348059772401
 10
2269.40825322685
 20
892.3306621912185
 10
2269.799387406154
 20
892.458051582791
 10
2270.140067308596
 20
892.61367483363
 10
2270.421469503654
 20
892.7935013832842
 10
2270.636305822289
 20
892.9928738185761
 10
2270.779012116696
 20
893.2066284981569
 10
2270.845892368811
 20
893.4292292881057
 10
2270.850929823645
 20
893.5006568974941
  0
LWPOLYLINE
  5
965
330
8FF
100
AcDbEntity
  8
0
  6
Continuous
 62
     7
370
    15
100
AcDbPolyline
 90
       22
 70
   128
 43
0.0
 10
2273.352933904459
 20
889.5332544635216
 10
2273.353585594574
 20
889.4918611347419
 10
2273.403064820184
 20
889.2668318621312
 10
2273.528934354536
 20
889.0474718656799
 10
2273.727934242804
 20
888.8394624540715
 10
2273.994910492414
 20
888.6481909618044
 10
2274.322948558737
 20
888.4786112200583
 10
2274.703552428164
 20
888.3351152550678
 10
2275.1268646604
 20
888.2214195369517
 10
2275.581921690986
 20
888.1404687250872
 10
2276.05693778186
 20
888.0943594029801
 10
2276.539610265782
 20
888.0842857778532
 10
2277.017438178956
 20
888.1105087513056
 10
2277.478046029423
 20
888.1723491620991
 10
2277.909504315799
 20
888.2682053760778
 10
2278.300638495104
 20
888.3955947676502
 10
2278.641318397546
 20
888.5512180184891
 10
2278.922720592604
 20
888.7310445681434
 10
2279.137556911239
 20
888.9304170034352
 10
2279.280263205646
 20
889.1441716830158
 10
2279.347143457761
 20
889.3667724729649
 10
2279.352180912594
 20
889.4382000823533
  0
LWPOLYLINE
  5
966
330
8FF
100
AcDbEntity
  8
0
  6
Continuous
 62
     7
370
    15
100
AcDbPolyline
 90
       22
 70
   128
 43
0.0
 10
2290.355436082359
 20
881.4083408332399
 10
2290.356087772474
 20
881.3669475044601
 10
2290.405566998084
 20
881.1419182318493
 10
2290.531436532436
 20
880.9225582353979
 10
2290.730436420704
 20
880.7145488237896
 10
2290.997412670314
 20
880.5232773315227
 10
2291.325450736636
 20
880.3536975897763
 10
2291.706054606064
 20
880.2102016247861
 10
2292.1293668383
 20
880.0965059066697
 10
2292.584423868886
 20
880.0155550948053
 10
2293.05943995976
 20
879.9694457726983
 10
2293.542112443683
 20
879.9593721475714
 10
2294.019940356857
 20
879.9855951210238
 10
2294.480548207323
 20
880.0474355318174
 10
2294.912006493699
 20
880.143291745796
 10
2295.303140673004
 20
880.2706811373683
 10
2295.643820575446
 20
880.4263043882073
 10
2295.925222770504
 20
880.6061309378616
 10
2296.140059089139
 20
880.8055033731532
 10
2296.282765383546
 20
881.019258052734
 10
2296.349645635661
 20
881.241858842683
 10
2296.354683090494
 20
881.3132864520714
  0
ARC
  5
967
330
8FF
100
AcDbEntity
  8
0
  6
Continuous
 62
     7
370
    15
100
AcDbCircle
 10
2239.395327439471
 20
894.8151722792593
 30
0.0
 40
13.32192330186057
100
AcDbArc
 50
54.4595897166414
 51
61.41943390695948
  0
LINE
  5
968
330
8FF
100
AcDbEntity
  8
0
  6
Continuous
 62
     7
370
    15
100
AcDbLine
 10
2247.483859088591
 20
905.4905278385797
 30
0.0
 11
2247.139055061234
 21
905.6552978772678
 31
0.0
  0
ARC
  5
969
330
8FF
100
AcDbEntity
  8
0
  6
Continuous
 62
     7
370
    15
100
AcDbCircle
 10
2247.896578528421
 20
890.7527154641194
 30
0.0
 40
13.32192330185926
100
AcDbArc
 50
54.4595897166414
 51
61.41943390695948
  0
LINE
  5
96A
330
8FF
100
AcDbEntity
  8
0
  6
Continuous
 62
     7
370
    15
100
AcDbLine
 10
2255.98511017754
 20
901.4280710234388
 30
0.0
 11
2255.640306150183
 21
901.5928410621269
 31
0.0
  0
ARC
  5
96B
330
8FF
100
AcDbEntity
  8
0
  6
Continuous
 62
     7
370
    15
100
AcDbCircle
 10
2256.397829617367
 20
886.6902586489729
 30
0.0
 40
13.32192330186606
100
AcDbArc
 50
54.4595897166414
 51
61.41943390695948
  0
LINE
  5
96C
330
8FF
100
AcDbEntity
  8
0
  6
Continuous
 62
     7
370
    15
100
AcDbLine
 10
2264.48636126649
 20
897.3656142082978
 30
0.0
 11
2264.141557239133
 21
897.5303842469859
 31
0.0
  0
ARC
  5
96D
330
8FF
100
AcDbEntity
  8
0
  6
Continuous
 62
     7
370
    15
100
AcDbCircle
 10
2264.899080706321
 20
882.6278018338379
 30
0.0
 40
13.32192330185901
100
AcDbArc
 50
54.4595897166414
 51
61.41943390695948
  0
LINE
  5
96E
330
8FF
100
AcDbEntity
  8
0
  6
Continuous
 62
     7
370
    15
100
AcDbLine
 10
2272.98761235544
 20
893.303157393157
 30
0.0
 11
2272.642808328083
 21
893.4679274318451
 31
0.0
  0
ARC
  5
96F
330
8FF
100
AcDbEntity
  8
0
  6
Continuous
 62
     7
370
    15
100
AcDbCircle
 10
2273.40033179526
 20
878.5653450186805
 30
0.0
 40
13.32192330187856
100
AcDbArc
 50
54.4595897166414
 51
61.41943390695637
  0
LINE
  5
970
330
8FF
100
AcDbEntity
  8
0
  6
Continuous
 62
     7
370
    15
100
AcDbLine
 10
2281.48886344439
 20
889.240700578016
 30
0.0
 11
2281.144059417034
 21
889.4054706167041
 31
0.0
  0
ARC
  5
971
330
8FF
100
AcDbEntity
  8
0
  6
Continuous
 62
     7
370
    15
100
AcDbCircle
 10
2281.901582884219
 20
874.5028882035521
 30
0.0
 40
13.32192330186352
100
AcDbArc
 50
54.4595897166414
 51
61.41943390695948
  0
LINE
  5
972
330
8FF
100
AcDbEntity
  8
0
  6
Continuous
 62
     7
370
    15
100
AcDbLine
 10
2289.99011453334
 20
885.1782437628751
 30
0.0
 11
2289.645310505983
 21
885.3430138015633
 31
0.0
  0
ARC
  5
973
330
8FF
100
AcDbEntity
  8
0
  6
Continuous
 62
     7
370
    15
100
AcDbCircle
 10
2290.402833973177
 20
870.4404313884255
 30
0.0
 40
13.32192330184681
100
AcDbArc
 50
54.4595897166414
 51
61.41943390695948
  0
LINE
  5
974
330
8FF
100
AcDbEntity
  8
0
  6
Continuous
 62
     7
370
    15
100
AcDbLine
 10
2299.757029293674
 20
880.5109696151212
 30
0.0
 11
2298.146561594933
 21
881.2805569864222
 31
0.0
  0
LINE
  5
975
330
8FF
100
AcDbEntity
  8
0
  6
Continuous
 62
     7
370
    15
100
AcDbLine
 10
2295.02927841368
 20
878.351323695807
 30
0.0
 11
2299.757029293674
 21
880.5109696151212
 31
0.0
  0
LINE
  5
976
330
8FF
100
AcDbEntity
  8
0
  6
Continuous
 62
     7
370
    15
100
AcDbLine
 10
2293.433239528876
 20
879.1140160309655
 30
0.0
 11
2295.02927841368
 21
878.351323695807
 31
0.0
  0
ARC
  5
977
330
8FF
100
AcDbEntity
  8
0
  6
Continuous
 62
     7
370
    15
100
AcDbCircle
 10
2298.49695263713
 20
895.9878462776618
 30
0.0
 40
17.61724546111059
100
AcDbArc
 50
235.6210395231084
 51
253.2958836498253
  0
LINE
  5
978
330
8FF
100
AcDbEntity
  8
0
  6
Continuous
 62
     7
370
    15
100
AcDbLine
 10
2284.931988439926
 20
883.1764728461065
 30
0.0
 11
2288.549128763983
 21
881.4479653350316
 31
0.0
  0
ARC
  5
979
330
8FF
100
AcDbEntity
  8
0
  6
Continuous
 62
     7
370
    15
100
AcDbCircle
 10
2289.995701548181
 20
900.050303092804
 30
0.0
 40
17.61724546111204
100
AcDbArc
 50
235.6210395231084
 51
253.2958836498253
  0
LINE
  5
97A
330
8FF
100
AcDbEntity
  8
0
  6
Continuous
 62
     7
370
    15
100
AcDbLine
 10
2276.430737350976
 20
887.2389296612475
 30
0.0
 11
2280.047877675032
 21
885.5104221501724
 31
0.0
  0
ARC
  5
97B
330
8FF
100
AcDbEntity
  8
0
  6
Continuous
 62
     7
370
    15
100
AcDbCircle
 10
2281.494450459231
 20
904.1127599079462
 30
0.0
 40
17.61724546111339
100
AcDbArc
 50
235.6210395231121
 51
253.2958836498253
  0
LINE
  5
97C
330
8FF
100
AcDbEntity
  8
0
  6
Continuous
 62
     7
370
    15
100
AcDbLine
 10
2267.929486262026
 20
891.3013864763883
 30
0.0
 11
2271.546626586083
 21
889.5728789653132
 31
0.0
  0
ARC
  5
97D
330
8FF
100
AcDbEntity
  8
0
  6
Continuous
 62
     7
370
    15
100
AcDbCircle
 10
2272.993199370281
 20
908.1752167230868
 30
0.0
 40
17.61724546111307
100
AcDbArc
 50
235.6210395231084
 51
253.2958836498253
  0
LINE
  5
97E
330
8FF
100
AcDbEntity
  8
0
  6
Continuous
 62
     7
370
    15
100
AcDbLine
 10
2259.428235173076
 20
895.3638432915292
 30
0.0
 11
2263.045375497133
 21
893.6353357804543
 31
0.0
  0
ARC
  5
97F
330
8FF
100
AcDbEntity
  8
0
  6
Continuous
 62
     7
370
    15
100
AcDbCircle
 10
2264.491948281331
 20
912.2376735382271
 30
0.0
 40
17.61724546111245
100
AcDbArc
 50
235.6210395231084
 51
253.2958836498253
  0
LINE
  5
980
330
8FF
100
AcDbEntity
  8
0
  6
Continuous
 62
     7
370
    15
100
AcDbLine
 10
2250.926984084126
 20
899.4263001066702
 30
0.0
 11
2254.544124408183
 21
897.6977925955951
 31
0.0
  0
ARC
  5
981
330
8FF
100
AcDbEntity
  8
0
  6
Continuous
 62
     7
370
    15
100
AcDbCircle
 10
2255.99069719238
 20
916.3001303533652
 30
0.0
 40
17.61724546110938
100
AcDbArc
 50
235.6210395231084
 51
253.2958836498253
  0
LINE
  5
982
330
8FF
100
AcDbEntity
  8
0
  6
Continuous
 62
     7
370
    15
100
AcDbLine
 10
2242.425732995176
 20
903.488756921811
 30
0.0
 11
2246.042873319233
 21
901.7602494107361
 31
0.0
  0
ARC
  5
983
330
8FF
100
AcDbEntity
  8
0
  6
Continuous
 62
     7
370
    15
100
AcDbCircle
 10
2247.489446103431
 20
920.3625871685085
 30
0.0
 40
17.61724546111195
100
AcDbArc
 50
235.6210395231084
 51
253.2958836498253
  0
LINE
  5
984
330
8FF
100
AcDbEntity
  8
0
  6
Continuous
 62
     7
370
    15
100
AcDbLine
 10
2233.924481906226
 20
907.551213736952
 30
0.0
 11
2237.541622230283
 21
905.8227062258769
 31
0.0
  0
ARC
  5
985
330
8FF
100
AcDbEntity
  8
0
  6
Continuous
 62
     7
370
    15
100
AcDbCircle
 10
2238.98819501448
 20
924.4250439836477
 30
0.0
 40
17.61724546111025
100
AcDbArc
 50
235.6210395231084
 51
253.2958836498253
  0
LINE
  5
986
330
8FF
100
AcDbEntity
  8
0
  6
Continuous
 62
     7
370
    15
100
AcDbLine
 10
2225.423230817277
 20
911.6136705520927
 30
0.0
 11
2229.040371141334
 21
909.8851630410178
 31
0.0
  0
ARC
  5
987
330
8FF
100
AcDbEntity
  8
0
  6
Continuous
 62
     7
370
    15
100
AcDbCircle
 10
2230.486943925531
 20
928.487500798791
 30
0.0
 40
17.61724546111262
100
AcDbArc
 50
235.6210395231084
 51
253.2958836498253
  0
LINE
  5
988
330
8FF
100
AcDbEntity
  8
0
  6
Continuous
 62
     7
370
    15
100
AcDbLine
 10
2218.943081167579
 20
914.7103121913177
 30
0.0
 11
2220.539120052383
 21
913.9476198561588
 31
0.0
  0
LINE
  5
989
330
8FF
100
AcDbEntity
  8
0
  6
Continuous
 62
     7
370
    15
100
AcDbLine
 10
2221.954884916092
 20
916.0861100792258
 30
0.0
 11
2218.943081167579
 21
914.7103121913177
 31
0.0
  0
ARC
  5
98A
330
8FF
100
AcDbEntity
  8
0
  6
Continuous
 62
     7
370
    15
100
AcDbCircle
 10
2222.392825261565
 20
902.9400859095321
 30
0.0
 40
13.32192330187112
100
AcDbArc
 50
54.4595897166414
 51
61.41943390695948
  0
LINE
  5
98B
330
8FF
100
AcDbEntity
  8
0
  6
Continuous
 62
     7
370
    15
100
AcDbLine
 10
2230.48135691069
 20
913.6154414688615
 30
0.0
 11
2230.136552883334
 21
913.7802115075496
 31
0.0
  0
ARC
  5
98C
330
8FF
100
AcDbEntity
  8
0
  6
Continuous
 62
     7
370
    15
100
AcDbCircle
 10
2230.894076350519
 20
898.8776290943983
 30
0.0
 40
13.32192330186274
100
AcDbArc
 50
54.4595897166414
 51
61.41943390695948
  0
LINE
  5
98D
330
8FF
100
AcDbEntity
  8
0
  6
Continuous
 62
     7
370
    15
100
AcDbLine
 10
2238.982607999641
 20
909.5529846537205
 30
0.0
 11
2238.637803972284
 21
909.7177546924086
 31
0.0
  0
LWPOLYLINE
  5
98E
330
8FF
100
AcDbEntity
  8
0
  6
Continuous
 62
     7
370
    15
100
AcDbPolyline
 90
       22
 70
   128
 43
0.0
 10
2281.854184993409
 20
885.4707976483807
 10
2281.854836683524
 20
885.4294043196011
 10
2281.904315909134
 20
885.2043750469903
 10
2282.030185443486
 20
884.9850150505389
 10
2282.229185331754
 20
884.7770056389306
 10
2282.496161581364
 20
884.5857341466635
 10
2282.824199647686
 20
884.4161544049173
 10
2283.204803517114
 20
884.2726584399271
 10
2283.62811574935
 20
884.1589627218107
 10
2284.083172779936
 20
884.0780119099463
 10
2284.55818887081
 20
884.0319025878393
 10
2285.040861354733
 20
884.0218289627124
 10
2285.518689267907
 20
884.0480519361646
 10
2285.979297118373
 20
884.1098923469584
 10
2286.410755404749
 20
884.2057485609368
 10
2286.801889584054
 20
884.3331379525093
 10
2287.142569486496
 20
884.4887612033483
 10
2287.423971681554
 20
884.6685877530024
 10
2287.638808000188
 20
884.8679601882942
 10
2287.781514294596
 20
885.081714867875
 10
2287.848394546711
 20
885.3043156578239
 10
2287.853432001544
 20
885.3757432672123
  0
LINE
  5
98F
330
8FF
100
AcDbEntity
  8
0
  6
Continuous
 62
     7
370
    15
100
AcDbLine
 10
2294.974652053095
 20
874.9036443119281
 30
0.0
 11
2293.378613168291
 21
875.6663366470869
 31
0.0
  0
LINE
  5
990
330
8FF
100
AcDbEntity
  8
0
  6
Continuous
 62
     7
370
    15
100
AcDbLine
 10
2293.378613168291
 20
875.6663366470869
 30
0.0
 11
2293.433239528876
 21
879.1140160309655
 31
0.0
  0
LINE
  5
991
330
8FF
100
AcDbEntity
  8
0
  6
Continuous
 62
     7
370
    15
100
AcDbLine
 10
2295.02927841368
 20
878.351323695807
 30
0.0
 11
2294.974652053095
 21
874.9036443119281
 31
0.0
  0
LINE
  5
992
330
8FF
100
AcDbEntity
  8
0
  6
Continuous
 62
     7
370
    15
100
AcDbLine
 10
2299.757029293674
 20
880.5109696151212
 30
0.0
 11
2299.70240293309
 21
877.0632902312424
 31
0.0
  0
LINE
  5
993
330
8FF
100
AcDbEntity
  8
0
  6
Continuous
 62
     7
370
    15
100
AcDbLine
 10
2299.70240293309
 20
877.0632902312424
 30
0.0
 11
2294.974652053095
 21
874.9036443119281
 31
0.0
  0
ARC
  5
994
330
8FF
100
AcDbEntity
  8
0
  6
Continuous
 62
     7
370
    15
100
AcDbCircle
 10
2298.442326276545
 20
892.5401668937839
 30
0.0
 40
17.61724546111155
100
AcDbArc
 50
235.6210395231084
 51
253.2958836498253
  0
LINE
  5
995
330
8FF
100
AcDbEntity
  8
0
  6
Continuous
 62
     7
370
    15
100
AcDbLine
 10
2288.549128763983
 20
881.4479653350316
 30
0.0
 11
2288.494502403398
 21
878.0002859511528
 31
0.0
  0
LWPOLYLINE
  5
996
330
8FF
100
AcDbEntity
  8
0
  6
Continuous
 62
     7
370
    15
100
AcDbPolyline
 90
       22
 70
   128
 43
0.0
 10
2290.105841988216
 20
868.4341218347796
 10
2290.106493678331
 20
868.3927285059997
 10
2290.155972903942
 20
868.1676992333891
 10
2290.281842438293
 20
867.9483392369377
 10
2290.480842326562
 20
867.7403298253294
 10
2290.747818576171
 20
867.5490583330624
 10
2291.075856642494
 20
867.3794785913161
 10
2291.456460511922
 20
867.2359826263257
 10
2291.879772744158
 20
867.1222869082095
 10
2292.334829774743
 20
867.0413360963451
 10
2292.809845865617
 20
866.9952267742381
 10
2293.29251834954
 20
866.985153149111
 10
2293.770346262714
 20
867.0113761225634
 10
2294.23095411318
 20
867.073216533357
 10
2294.662412399557
 20
867.1690727473356
 10
2295.053546578861
 20
867.2964621389079
 10
2295.394226481304
 20
867.4520853897471
 10
2295.675628676362
 20
867.6319119394012
 10
2295.890464994997
 20
867.831284374693
 10
2296.033171289403
 20
868.0450390542738
 10
2296.100051541519
 20
868.2676398442227
 10
2296.105088996352
 20
868.3390674536111
  0
LINE
  5
997
330
8FF
100
AcDbEntity
  8
0
  6
Continuous
 62
     7
370
    15
100
AcDbLine
 10
2284.877362079341
 20
879.7287934622278
 30
0.0
 11
2284.931988439926
 21
883.1764728461065
 31
0.0
  0
LINE
  5
998
330
8FF
100
AcDbEntity
  8
0
  6
Continuous
 62
     7
370
    15
100
AcDbLine
 10
2288.494502403398
 20
878.0002859511528
 30
0.0
 11
2284.877362079341
 21
879.7287934622278
 31
0.0
  0
LWPOLYLINE
  5
999
330
8FF
100
AcDbEntity
  8
0
  6
Continuous
 62
     7
370
    15
100
AcDbPolyline
 90
       37
 70
   128
 43
0.0
 10
2286.695434117063
 20
890.1547169751744
 10
2286.365529247283
 20
890.0289132989016
 10
2285.992372713704
 20
889.9323907156894
 10
2285.587302688772
 20
889.8680820153856
 10
2285.16262702022
 20
889.8379411853074
 10
2284.731249263339
 20
889.8428840393249
 10
2284.306276612986
 20
889.8827603913195
 10
2283.900621648093
 20
889.9563586185147
 10
2283.5266099895
 20
890.0614424760194
 10
2283.195605792193
 20
890.1948190439984
 10
2282.91766645121
 20
890.3524357429255
 10
2282.701237012784
 20
890.5295034691617
 10
2282.552893575882
 20
890.7206421094459
 10
2282.47714348077
 20
890.9200440129138
 10
2282.476288355756
 20
891.1216504536309
 10
2282.55035418338
 20
891.3193357219135
 10
2282.69709051095
 20
891.5070932509188
 10
2282.912038829404
 20
891.6792181231375
 10
2283.188668042856
 20
891.8304804114271
 10
2283.518572912635
 20
891.9562840876999
 10
2283.891729446215
 20
892.052806670912
 10
2284.296799471146
 20
892.1171153712158
 10
2284.721475139699
 20
892.1472562012938
 10
2285.15285289658
 20
892.1423133472766
 10
2285.577825546933
 20
892.1024369952819
 10
2285.983480511825
 20
892.0288387680868
 10
2286.357492170418
 20
891.9237549105821
 10
2286.688496367726
 20
891.7903783426028
 10
2286.966435708709
 20
891.6327616436758
 10
2287.182865147135
 20
891.4556939174397
 10
2287.331208584036
 20
891.2645552771556
 10
2287.406958679149
 20
891.0651533736878
 10
2287.407813804163
 20
890.8635469329706
 10
2287.333747976539
 20
890.6658616646879
 10
2287.187011648969
 20
890.4781041356827
 10
2286.972063330514
 20
890.3059792634639
 10
2286.695434117063
 20
890.1547169751744
  0
LWPOLYLINE
  5
99A
330
8FF
100
AcDbEntity
  8
0
  6
Continuous
 62
     7
370
    15
100
AcDbPolyline
 90
       43
 70
   128
 43
0.0
 10
2282.515652331655
 20
892.1520915759478
 10
2282.902958255379
 20
892.3036833772101
 10
2283.335814143306
 20
892.425987713136
 10
2283.804550710171
 20
892.5162725069625
 10
2284.298697155634
 20
892.5725209455871
 10
2284.807215064656
 20
892.593476531838
 10
2285.318744987449
 20
892.578671152547
 10
2285.821860190818
 20
892.5284355354222
 10
2286.305321912491
 20
892.4438918611381
 10
2286.758330416502
 20
892.326928695674
 10
2287.170766241446
 20
892.1801588028708
 10
2287.533416252524
 20
892.0068607796038
 10
2287.838179447749
 20
891.810905817346
 10
2288.078247920945
 20
891.5966712261488
 10
2288.248258939123
 20
891.3689426527673
 10
2288.344414737071
 20
891.1328071772208
 10
2288.364567353156
 20
890.8935396758311
 10
2288.308266611235
 20
890.6564849892014
 10
2288.17677017685
 20
890.4269385273098
 10
2287.973015463053
 20
890.210027978801
 10
2287.701554013454
 20
890.0105987668947
 10
2287.368449828264
 20
889.8331058106382
 10
2286.981143904539
 20
889.6815140093758
 10
2286.548288016613
 20
889.5592096734501
 10
2286.079551449748
 20
889.4689248796234
 10
2285.585405004285
 20
889.4126764409991
 10
2285.076887095263
 20
889.3917208547479
 10
2284.565357172469
 20
889.406526234039
 10
2284.0622419691
 20
889.456761851164
 10
2283.578780247427
 20
889.5413055254479
 10
2283.125771743416
 20
889.658268690912
 10
2282.713335918472
 20
889.8050385837152
 10
2282.350685907394
 20
889.9783366069824
 10
2282.045922712169
 20
890.17429156924
 10
2281.805854238974
 20
890.3885261604372
 10
2281.635843220796
 20
890.6162547338187
 10
2281.539687422847
 20
890.8523902093651
 10
2281.519534806763
 20
891.0916577107549
 10
2281.575835548683
 20
891.3287123973846
 10
2281.707331983068
 20
891.5582588592762
 10
2281.911086696866
 20
891.7751694077852
 10
2282.182548146464
 20
891.9745986196913
 10
2282.515652331655
 20
892.1520915759478
  0
ARC
  5
99B
330
8FF
100
AcDbEntity
  8
0
  6
Continuous
 62
     7
370
    15
100
AcDbCircle
 10
2287.444437546245
 20
886.3661901479934
 30
0.0
 40
0.8497093029039149
100
AcDbArc
 50
321.308575418875
 51
358.3303683298132
  0
LINE
  5
99C
330
8FF
100
AcDbEntity
  8
0
  6
Continuous
 62
     7
370
    15
100
AcDbLine
 10
2280.047877675032
 20
885.5104221501724
 30
0.0
 11
2279.993251314448
 21
882.0627427662937
 31
0.0
  0
ARC
  5
99D
330
8FF
100
AcDbEntity
  8
0
  6
Continuous
 62
     7
370
    15
100
AcDbCircle
 10
2289.941075187596
 20
896.6026237089257
 30
0.0
 40
17.61724546111256
100
AcDbArc
 50
235.6210395231084
 51
253.2958836498253
  0
ARC
  5
99E
330
8FF
100
AcDbEntity
  8
0
  6
Continuous
 62
     7
370
    15
100
AcDbCircle
 10
2293.126145264068
 20
871.6844022765306
 30
0.0
 40
4.812117591161661
100
AcDbArc
 50
245.4515123474427
 51
299.1276204469898
  0
LWPOLYLINE
  5
99F
330
8FF
100
AcDbEntity
  8
0
  6
Continuous
 62
     7
370
    15
100
AcDbPolyline
 90
        3
 70
   128
 43
0.0
 10
2290.714946983248
 20
867.5561529936603
 10
2290.827340683355
 20
867.475581727059
 10
2291.126887653274
 20
867.3072519801792
  0
LWPOLYLINE
  5
9A0
330
8FF
100
AcDbEntity
  8
0
  6
Continuous
 62
     7
370
    15
100
AcDbPolyline
 90
       22
 70
   128
 43
0.0
 10
2281.604590899267
 20
872.4965786499204
 10
2281.605242589382
 20
872.4551853211407
 10
2281.654721814992
 20
872.2301560485298
 10
2281.780591349343
 20
872.0107960520786
 10
2281.979591237612
 20
871.8027866404701
 10
2282.246567487222
 20
871.6115151482032
 10
2282.574605553544
 20
871.441935406457
 10
2282.955209422971
 20
871.2984394414666
 10
2283.378521655207
 20
871.1847437233503
 10
2283.833578685793
 20
871.1037929114858
 10
2284.308594776668
 20
871.0576835893789
 10
2284.79126726059
 20
871.0476099642519
 10
2285.269095173765
 20
871.0738329377043
 10
2285.72970302423
 20
871.1356733484979
 10
2286.161161310607
 20
871.2315295624764
 10
2286.552295489912
 20
871.3589189540488
 10
2286.892975392354
 20
871.5145422048879
 10
2287.174377587412
 20
871.6943687545422
 10
2287.389213906046
 20
871.8937411898339
 10
2287.531920200454
 20
872.1074958694147
 10
2287.598800452569
 20
872.3300966593635
 10
2287.603837907402
 20
872.4015242687521
  0
LINE
  5
9A1
330
8FF
100
AcDbEntity
  8
0
  6
Continuous
 62
     7
370
    15
100
AcDbLine
 10
2276.376110990392
 20
883.7912502773686
 30
0.0
 11
2276.430737350976
 21
887.2389296612475
 31
0.0
  0
LINE
  5
9A2
330
8FF
100
AcDbEntity
  8
0
  6
Continuous
 62
     7
370
    15
100
AcDbLine
 10
2279.993251314448
 20
882.0627427662937
 30
0.0
 11
2276.376110990392
 21
883.7912502773686
 31
0.0
  0
LWPOLYLINE
  5
9A3
330
8FF
100
AcDbEntity
  8
0
  6
Continuous
 62
     7
370
    15
100
AcDbPolyline
 90
       37
 70
   128
 43
0.0
 10
2278.194183028113
 20
894.2171737903153
 10
2277.864278158333
 20
894.0913701140425
 10
2277.491121624754
 20
893.9948475308302
 10
2277.086051599822
 20
893.9305388305266
 10
2276.661375931269
 20
893.9003980004484
 10
2276.229998174389
 20
893.9053408544657
 10
2275.805025524036
 20
893.9452172064605
 10
2275.399370559144
 20
894.0188154336556
 10
2275.025358900551
 20
894.1238992911603
 10
2274.694354703243
 20
894.2572758591394
 10
2274.41641536226
 20
894.4148925580664
 10
2274.199985923834
 20
894.5919602843027
 10
2274.051642486933
 20
894.7830989245868
 10
2273.97589239182
 20
894.9825008280548
 10
2273.975037266806
 20
895.1841072687717
 10
2274.04910309443
 20
895.3817925370545
 10
2274.195839422
 20
895.5695500660597
 10
2274.410787740455
 20
895.7416749382785
 10
2274.687416953906
 20
895.8929372265679
 10
2275.017321823685
 20
896.0187409028407
 10
2275.390478357265
 20
896.115263486053
 10
2275.795548382196
 20
896.1795721863566
 10
2276.220224050749
 20
896.2097130164348
 10
2276.65160180763
 20
896.2047701624175
 10
2277.076574457983
 20
896.1648938104227
 10
2277.482229422875
 20
896.0912955832275
 10
2277.856241081468
 20
895.9862117257229
 10
2278.187245278775
 20
895.852835157744
 10
2278.465184619759
 20
895.6952184588168
 10
2278.681614058184
 20
895.5181507325805
 10
2278.829957495087
 20
895.3270120922965
 10
2278.905707590199
 20
895.1276101888286
 10
2278.906562715213
 20
894.9260037481115
 10
2278.832496887589
 20
894.7283184798289
 10
2278.685760560019
 20
894.5405609508236
 10
2278.470812241564
 20
894.3684360786047
 10
2278.194183028113
 20
894.2171737903153
  0
LWPOLYLINE
  5
9A4
330
8FF
100
AcDbEntity
  8
0
  6
Continuous
 62
     7
370
    15
100
AcDbPolyline
 90
       43
 70
   128
 43
0.0
 10
2274.014401242705
 20
896.2145483910887
 10
2274.401707166429
 20
896.3661401923511
 10
2274.834563054356
 20
896.4884445282768
 10
2275.303299621221
 20
896.5787293221035
 10
2275.797446066684
 20
896.6349777607279
 10
2276.305963975706
 20
896.6559333469788
 10
2276.8174938985
 20
896.6411279676879
 10
2277.320609101868
 20
896.5908923505631
 10
2277.804070823541
 20
896.506348676279
 10
2278.257079327553
 20
896.389385510815
 10
2278.669515152497
 20
896.2426156180118
 10
2279.032165163574
 20
896.0693175947445
 10
2279.336928358799
 20
895.8733626324869
 10
2279.576996831995
 20
895.6591280412897
 10
2279.747007850173
 20
895.4313994679083
 10
2279.843163648121
 20
895.1952639923618
 10
2279.863316264206
 20
894.955996490972
 10
2279.807015522286
 20
894.7189418043421
 10
2279.6755190879
 20
894.4893953424507
 10
2279.471764374102
 20
894.2724847939418
 10
2279.200302924504
 20
894.0730555820357
 10
2278.867198739314
 20
893.8955626257792
 10
2278.479892815589
 20
893.7439708245168
 10
2278.047036927663
 20
893.6216664885909
 10
2277.578300360798
 20
893.5313816947644
 10
2277.084153915335
 20
893.47513325614
 10
2276.575636006313
 20
893.4541776698889
 10
2276.064106083519
 20
893.4689830491798
 10
2275.56099088015
 20
893.5192186663048
 10
2275.077529158477
 20
893.6037623405889
 10
2274.624520654466
 20
893.7207255060528
 10
2274.212084829522
 20
893.8674953988561
 10
2273.849434818444
 20
894.0407934221232
 10
2273.54467162322
 20
894.2367483843808
 10
2273.304603150023
 20
894.4509829755782
 10
2273.134592131846
 20
894.6787115489597
 10
2273.038436333898
 20
894.9148470245059
 10
2273.018283717813
 20
895.1541145258957
 10
2273.074584459733
 20
895.3911692125258
 10
2273.206080894119
 20
895.6207156744172
 10
2273.409835607916
 20
895.8376262229259
 10
2273.681297057514
 20
896.0370554348322
 10
2274.014401242705
 20
896.2145483910887
  0
ARC
  5
9A5
330
8FF
100
AcDbEntity
  8
0
  6
Continuous
 62
     7
370
    15
100
AcDbCircle
 10
2278.943186457293
 20
890.4286469631351
 30
0.0
 40
0.8497093029060984
100
AcDbArc
 50
321.3085754189218
 51
358.3303683297677
  0
LINE
  5
9A6
330
8FF
100
AcDbEntity
  8
0
  6
Continuous
 62
     7
370
    15
100
AcDbLine
 10
2271.546626586083
 20
889.5728789653132
 30
0.0
 11
2271.492000225498
 21
886.1251995814345
 31
0.0
  0
ARC
  5
9A7
330
8FF
100
AcDbEntity
  8
0
  6
Continuous
 62
     7
370
    15
100
AcDbCircle
 10
2281.439824098645
 20
900.6650805240647
 30
0.0
 40
17.61724546111032
100
AcDbArc
 50
235.6210395231084
 51
253.2958836498253
  0
ARC
  5
9A8
330
8FF
100
AcDbEntity
  8
0
  6
Continuous
 62
     7
370
    15
100
AcDbCircle
 10
2284.624894175118
 20
875.7468590916717
 30
0.0
 40
4.812117591161954
100
AcDbArc
 50
245.4515123474427
 51
299.1276204469898
  0
LWPOLYLINE
  5
9A9
330
8FF
100
AcDbEntity
  8
0
  6
Continuous
 62
     7
370
    15
100
AcDbPolyline
 90
        3
 70
   128
 43
0.0
 10
2282.213695894298
 20
871.6186098088011
 10
2282.326089594405
 20
871.5380385421999
 10
2282.625636564324
 20
871.3697087953201
  0
LWPOLYLINE
  5
9AA
330
8FF
100
AcDbEntity
  8
0
  6
Continuous
 62
     7
370
    15
100
AcDbPolyline
 90
       22
 70
   128
 43
0.0
 10
2273.103339810317
 20
876.5590354650614
 10
2273.103991500432
 20
876.5176421362815
 10
2273.153470726042
 20
876.2926128636708
 10
2273.279340260394
 20
876.0732528672194
 10
2273.478340148662
 20
875.8652434556111
 10
2273.745316398272
 20
875.6739719633442
 10
2274.073354464594
 20
875.5043922215978
 10
2274.453958334022
 20
875.3608962566074
 10
2274.877270566258
 20
875.2472005384912
 10
2275.332327596844
 20
875.1662497266268
 10
2275.807343687718
 20
875.1201404045199
 10
2276.29001617164
 20
875.1100667793929
 10
2276.767844084814
 20
875.1362897528453
 10
2277.228451935281
 20
875.1981301636389
 10
2277.659910221657
 20
875.2939863776175
 10
2278.051044400962
 20
875.4213757691898
 10
2278.391724303404
 20
875.5769990200288
 10
2278.673126498462
 20
875.7568255696831
 10
2278.887962817096
 20
875.9561980049747
 10
2279.030669111504
 20
876.1699526845555
 10
2279.097549363618
 20
876.3925534745045
 10
2279.102586818452
 20
876.4639810838929
  0
LINE
  5
9AB
330
8FF
100
AcDbEntity
  8
0
  6
Continuous
 62
     7
370
    15
100
AcDbLine
 10
2267.874859901441
 20
887.8537070925096
 30
0.0
 11
2267.929486262026
 21
891.3013864763883
 31
0.0
  0
LINE
  5
9AC
330
8FF
100
AcDbEntity
  8
0
  6
Continuous
 62
     7
370
    15
100
AcDbLine
 10
2271.492000225498
 20
886.1251995814345
 30
0.0
 11
2267.874859901441
 21
887.8537070925096
 31
0.0
  0
LWPOLYLINE
  5
9AD
330
8FF
100
AcDbEntity
  8
0
  6
Continuous
 62
     7
370
    15
100
AcDbPolyline
 90
       37
 70
   128
 43
0.0
 10
2269.692931939163
 20
898.2796306054563
 10
2269.363027069383
 20
898.1538269291833
 10
2268.989870535804
 20
898.0573043459711
 10
2268.584800510872
 20
897.9929956456675
 10
2268.16012484232
 20
897.9628548155893
 10
2267.728747085439
 20
897.9677976696066
 10
2267.303774435086
 20
898.0076740216013
 10
2266.898119470194
 20
898.0812722487964
 10
2266.5241078116
 20
898.1863561063011
 10
2266.193103614293
 20
898.3197326742804
 10
2265.915164273311
 20
898.4773493732074
 10
2265.698734834884
 20
898.6544170994434
 10
2265.550391397983
 20
898.8455557397276
 10
2265.47464130287
 20
899.0449576431956
 10
2265.473786177856
 20
899.2465640839126
 10
2265.547852005481
 20
899.4442493521953
 10
2265.69458833305
 20
899.6320068812005
 10
2265.909536651504
 20
899.8041317534193
 10
2266.186165864956
 20
899.9553940417088
 10
2266.516070734736
 20
900.0811977179816
 10
2266.889227268315
 20
900.177720301194
 10
2267.294297293247
 20
900.2420290014976
 10
2267.718972961799
 20
900.2721698315758
 10
2268.15035071868
 20
900.2672269775583
 10
2268.575323369034
 20
900.2273506255637
 10
2268.980978333925
 20
900.1537523983685
 10
2269.354989992518
 20
900.0486685408638
 10
2269.685994189826
 20
899.9152919728848
 10
2269.963933530808
 20
899.7576752739577
 10
2270.180362969235
 20
899.5806075477215
 10
2270.328706406136
 20
899.3894689074373
 10
2270.404456501249
 20
899.1900670039695
 10
2270.405311626263
 20
898.9884605632525
 10
2270.331245798639
 20
898.7907752949697
 10
2270.184509471069
 20
898.6030177659644
 10
2269.969561152615
 20
898.4308928937457
 10
2269.692931939163
 20
898.2796306054563
  0
LWPOLYLINE
  5
9AE
330
8FF
100
AcDbEntity
  8
0
  6
Continuous
 62
     7
370
    15
100
AcDbPolyline
 90
       43
 70
   128
 43
0.0
 10
2265.513150153755
 20
900.2770052062297
 10
2265.90045607748
 20
900.4285970074919
 10
2266.333311965406
 20
900.5509013434178
 10
2266.802048532271
 20
900.6411861372443
 10
2267.296194977734
 20
900.6974345758688
 10
2267.804712886756
 20
900.71839016212
 10
2268.31624280955
 20
900.7035847828287
 10
2268.819358012919
 20
900.6533491657039
 10
2269.302819734591
 20
900.5688054914198
 10
2269.755828238603
 20
900.4518423259559
 10
2270.168264063547
 20
900.3050724331526
 10
2270.530914074624
 20
900.1317744098855
 10
2270.835677269849
 20
899.9358194476279
 10
2271.075745743045
 20
899.7215848564305
 10
2271.245756761223
 20
899.493856283049
 10
2271.341912559171
 20
899.2577208075028
 10
2271.362065175256
 20
899.018453306113
 10
2271.305764433336
 20
898.7813986194831
 10
2271.17426799895
 20
898.5518521575915
 10
2270.970513285153
 20
898.3349416090828
 10
2270.699051835554
 20
898.1355123971765
 10
2270.365947650363
 20
897.95801944092
 10
2269.978641726639
 20
897.8064276396578
 10
2269.545785838713
 20
897.6841233037319
 10
2269.077049271848
 20
897.5938385099052
 10
2268.582902826385
 20
897.5375900712808
 10
2268.074384917364
 20
897.5166344850297
 10
2267.562854994569
 20
897.5314398643208
 10
2267.0597397912
 20
897.5816754814458
 10
2266.576278069527
 20
897.6662191557297
 10
2266.123269565516
 20
897.7831823211937
 10
2265.710833740572
 20
897.9299522139969
 10
2265.348183729495
 20
898.1032502372642
 10
2265.04342053427
 20
898.2992051995219
 10
2264.803352061074
 20
898.513439790719
 10
2264.633341042896
 20
898.7411683641004
 10
2264.537185244948
 20
898.9773038396469
 10
2264.517032628862
 20
899.2165713410368
 10
2264.573333370783
 20
899.4536260276666
 10
2264.704829805169
 20
899.683172489558
 10
2264.908584518966
 20
899.9000830380669
 10
2265.180045968564
 20
900.099512249973
 10
2265.513150153755
 20
900.2770052062297
  0
ARC
  5
9AF
330
8FF
100
AcDbEntity
  8
0
  6
Continuous
 62
     7
370
    15
100
AcDbCircle
 10
2270.441935368345
 20
894.4911037782754
 30
0.0
 40
0.849709302904332
100
AcDbArc
 50
321.3085754188802
 51
358.3303683298067
  0
LINE
  5
9B0
330
8FF
100
AcDbEntity
  8
0
  6
Continuous
 62
     7
370
    15
100
AcDbLine
 10
2263.045375497133
 20
893.6353357804543
 30
0.0
 11
2262.990749136548
 21
890.1876563965755
 31
0.0
  0
ARC
  5
9B1
330
8FF
100
AcDbEntity
  8
0
  6
Continuous
 62
     7
370
    15
100
AcDbCircle
 10
2272.938573009695
 20
904.7275373392041
 30
0.0
 40
17.61724546110885
100
AcDbArc
 50
235.6210395231084
 51
253.2958836498253
  0
ARC
  5
9B2
330
8FF
100
AcDbEntity
  8
0
  6
Continuous
 62
     7
370
    15
100
AcDbCircle
 10
2276.123643086168
 20
879.8093159068125
 30
0.0
 40
4.812117591161698
100
AcDbArc
 50
245.4515123474427
 51
299.1276204469898
  0
LWPOLYLINE
  5
9B3
330
8FF
100
AcDbEntity
  8
0
  6
Continuous
 62
     7
370
    15
100
AcDbPolyline
 90
        3
 70
   128
 43
0.0
 10
2273.712444805348
 20
875.681066623942
 10
2273.824838505456
 20
875.6004953573407
 10
2274.124385475374
 20
875.4321656104611
  0
LWPOLYLINE
  5
9B4
330
8FF
100
AcDbEntity
  8
0
  6
Continuous
 62
     7
370
    15
100
AcDbPolyline
 90
       22
 70
   128
 43
0.0
 10
2264.602088721367
 20
880.6214922802022
 10
2264.602740411482
 20
880.5800989514224
 10
2264.652219637092
 20
880.3550696788118
 10
2264.778089171443
 20
880.1357096823604
 10
2264.977089059712
 20
879.9277002707519
 10
2265.244065309322
 20
879.736428778485
 10
2265.572103375644
 20
879.5668490367388
 10
2265.952707245071
 20
879.4233530717484
 10
2266.376019477307
 20
879.3096573536322
 10
2266.831076507894
 20
879.2287065417676
 10
2267.306092598767
 20
879.1825972196608
 10
2267.788765082691
 20
879.1725235945337
 10
2268.266592995865
 20
879.1987465679861
 10
2268.727200846331
 20
879.2605869787797
 10
2269.158659132707
 20
879.3564431927583
 10
2269.549793312012
 20
879.4838325843306
 10
2269.890473214454
 20
879.6394558351698
 10
2270.171875409512
 20
879.8192823848239
 10
2270.386711728146
 20
880.0186548201157
 10
2270.529418022554
 20
880.2324094996965
 10
2270.596298274669
 20
880.4550102896453
 10
2270.601335729502
 20
880.5264378990338
  0
LINE
  5
9B5
330
8FF
100
AcDbEntity
  8
0
  6
Continuous
 62
     7
370
    15
100
AcDbLine
 10
2259.373608812492
 20
891.9161639076506
 30
0.0
 11
2259.428235173076
 21
895.3638432915292
 31
0.0
  0
LINE
  5
9B6
330
8FF
100
AcDbEntity
  8
0
  6
Continuous
 62
     7
370
    15
100
AcDbLine
 10
2262.990749136548
 20
890.1876563965755
 30
0.0
 11
2259.373608812492
 21
891.9161639076506
 31
0.0
  0
LWPOLYLINE
  5
9B7
330
8FF
100
AcDbEntity
  8
0
  6
Continuous
 62
     7
370
    15
100
AcDbPolyline
 90
       37
 70
   128
 43
0.0
 10
2261.191680850213
 20
902.3420874205971
 10
2260.861775980433
 20
902.2162837443245
 10
2260.488619446855
 20
902.1197611611121
 10
2260.083549421922
 20
902.0554524608083
 10
2259.65887375337
 20
902.0253116307301
 10
2259.227495996489
 20
902.0302544847476
 10
2258.802523346136
 20
902.0701308367423
 10
2258.396868381244
 20
902.1437290639374
 10
2258.022856722651
 20
902.2488129214421
 10
2257.691852525343
 20
902.3821894894211
 10
2257.413913184361
 20
902.5398061883482
 10
2257.197483745934
 20
902.7168739145846
 10
2257.049140309033
 20
902.9080125548686
 10
2256.97339021392
 20
903.1074144583365
 10
2256.972535088906
 20
903.3090208990534
 10
2257.04660091653
 20
903.5067061673363
 10
2257.193337244101
 20
903.6944636963415
 10
2257.408285562555
 20
903.8665885685603
 10
2257.684914776007
 20
904.0178508568498
 10
2258.014819645786
 20
904.1436545331226
 10
2258.387976179365
 20
904.2401771163348
 10
2258.793046204297
 20
904.3044858166386
 10
2259.217721872849
 20
904.3346266467167
 10
2259.64909962973
 20
904.3296837926993
 10
2260.074072280083
 20
904.2898074407046
 10
2260.479727244975
 20
904.2162092135095
 10
2260.853738903568
 20
904.1111253560048
 10
2261.184743100876
 20
903.9777487880256
 10
2261.462682441859
 20
903.8201320890985
 10
2261.679111880285
 20
903.6430643628625
 10
2261.827455317187
 20
903.4519257225783
 10
2261.903205412299
 20
903.2525238191103
 10
2261.904060537313
 20
903.0509173783933
 10
2261.829994709689
 20
902.8532321101106
 10
2261.683258382119
 20
902.6654745811054
 10
2261.468310063664
 20
902.4933497088866
 10
2261.191680850213
 20
902.3420874205971
  0
LWPOLYLINE
  5
9B8
330
8FF
100
AcDbEntity
  8
0
  6
Continuous
 62
     7
370
    15
100
AcDbPolyline
 90
       43
 70
   128
 43
0.0
 10
2257.011899064805
 20
904.3394620213705
 10
2257.39920498853
 20
904.4910538226329
 10
2257.832060876456
 20
904.6133581585586
 10
2258.300797443321
 20
904.7036429523853
 10
2258.794943888783
 20
904.7598913910096
 10
2259.303461797806
 20
904.7808469772608
 10
2259.8149917206
 20
904.7660415979697
 10
2260.318106923969
 20
904.7158059808449
 10
2260.801568645641
 20
904.6312623065608
 10
2261.254577149653
 20
904.5142991410967
 10
2261.667012974597
 20
904.3675292482936
 10
2262.029662985674
 20
904.1942312250265
 10
2262.334426180899
 20
903.9982762627687
 10
2262.574494654096
 20
903.7840416715715
 10
2262.744505672273
 20
903.55631309819
 10
2262.840661470221
 20
903.3201776226436
 10
2262.860814086306
 20
903.0809101212538
 10
2262.804513344386
 20
902.8438554346241
 10
2262.67301691
 20
902.6143089727325
 10
2262.469262196203
 20
902.3973984242235
 10
2262.197800746605
 20
902.1979692123174
 10
2261.864696561414
 20
902.0204762560608
 10
2261.477390637689
 20
901.8688844547986
 10
2261.044534749763
 20
901.7465801188727
 10
2260.575798182898
 20
901.6562953250462
 10
2260.081651737435
 20
901.6000468864218
 10
2259.573133828413
 20
901.5790913001707
 10
2259.061603905619
 20
901.5938966794617
 10
2258.55848870225
 20
901.6441322965865
 10
2258.075026980578
 20
901.7286759708706
 10
2257.622018476566
 20
901.8456391363347
 10
2257.209582651622
 20
901.9924090291379
 10
2256.846932640545
 20
902.1657070524051
 10
2256.54216944532
 20
902.3616620146627
 10
2256.302100972124
 20
902.5758966058599
 10
2256.132089953946
 20
902.8036251792414
 10
2256.035934155998
 20
903.0397606547879
 10
2256.015781539913
 20
903.2790281561776
 10
2256.072082281834
 20
903.5160828428073
 10
2256.203578716219
 20
903.7456293046989
 10
2256.407333430016
 20
903.9625398532077
 10
2256.678794879614
 20
904.161969065114
 10
2257.011899064805
 20
904.3394620213705
  0
ARC
  5
9B9
330
8FF
100
AcDbEntity
  8
0
  6
Continuous
 62
     7
370
    15
100
AcDbCircle
 10
2261.940684279393
 20
898.5535605934172
 30
0.0
 40
0.8497093029066665
100
AcDbArc
 50
321.3085754189482
 51
358.3303683297547
  0
LINE
  5
9BA
330
8FF
100
AcDbEntity
  8
0
  6
Continuous
 62
     7
370
    15
100
AcDbLine
 10
2254.544124408183
 20
897.6977925955951
 30
0.0
 11
2254.489498047599
 21
894.2501132117165
 31
0.0
  0
ARC
  5
9BB
330
8FF
100
AcDbEntity
  8
0
  6
Continuous
 62
     7
370
    15
100
AcDbCircle
 10
2264.437321920745
 20
908.7899941543458
 30
0.0
 40
17.6172454611095
100
AcDbArc
 50
235.6210395231084
 51
253.2958836498253
  0
ARC
  5
9BC
330
8FF
100
AcDbEntity
  8
0
  6
Continuous
 62
     7
370
    15
100
AcDbCircle
 10
2267.622391997218
 20
883.8717727219535
 30
0.0
 40
4.812117591161823
100
AcDbArc
 50
245.4515123474427
 51
299.1276204469898
  0
LWPOLYLINE
  5
9BD
330
8FF
100
AcDbEntity
  8
0
  6
Continuous
 62
     7
370
    15
100
AcDbPolyline
 90
        3
 70
   128
 43
0.0
 10
2265.211193716398
 20
879.743523439083
 10
2265.323587416505
 20
879.6629521724817
 10
2265.623134386424
 20
879.4946224256019
  0
LWPOLYLINE
  5
9BE
330
8FF
100
AcDbEntity
  8
0
  6
Continuous
 62
     7
370
    15
100
AcDbPolyline
 90
       22
 70
   128
 43
0.0
 10
2256.100837632417
 20
884.6839490953431
 10
2256.101489322532
 20
884.6425557665634
 10
2256.150968548142
 20
884.4175264939526
 10
2256.276838082494
 20
884.1981664975012
 10
2256.475837970763
 20
883.9901570858929
 10
2256.742814220372
 20
883.7988855936259
 10
2257.070852286695
 20
883.6293058518798
 10
2257.451456156122
 20
883.4858098868894
 10
2257.874768388358
 20
883.372114168773
 10
2258.329825418944
 20
883.2911633569086
 10
2258.804841509818
 20
883.2450540348016
 10
2259.28751399374
 20
883.2349804096747
 10
2259.765341906915
 20
883.2612033831271
 10
2260.22594975738
 20
883.3230437939207
 10
2260.657408043757
 20
883.4189000078991
 10
2261.048542223062
 20
883.5462893994716
 10
2261.389222125504
 20
883.7019126503106
 10
2261.670624320562
 20
883.8817391999649
 10
2261.885460639197
 20
884.0811116352565
 10
2262.028166933604
 20
884.2948663148375
 10
2262.095047185718
 20
884.5174671047862
 10
2262.100084640552
 20
884.5888947141748
  0
LINE
  5
9BF
330
8FF
100
AcDbEntity
  8
0
  6
Continuous
 62
     7
370
    15
100
AcDbLine
 10
2250.872357723542
 20
895.9786207227914
 30
0.0
 11
2250.926984084126
 21
899.4263001066702
 31
0.0
  0
LINE
  5
9C0
330
8FF
100
AcDbEntity
  8
0
  6
Continuous
 62
     7
370
    15
100
AcDbLine
 10
2254.489498047599
 20
894.2501132117165
 30
0.0
 11
2250.872357723542
 21
895.9786207227914
 31
0.0
  0
LWPOLYLINE
  5
9C1
330
8FF
100
AcDbEntity
  8
0
  6
Continuous
 62
     7
370
    15
100
AcDbPolyline
 90
       37
 70
   128
 43
0.0
 10
2252.690429761263
 20
906.4045442357381
 10
2252.360524891483
 20
906.2787405594653
 10
2251.987368357905
 20
906.1822179762529
 10
2251.582298332973
 20
906.1179092759493
 10
2251.15762266442
 20
906.0877684458713
 10
2250.726244907539
 20
906.0927112998884
 10
2250.301272257186
 20
906.1325876518832
 10
2249.895617292294
 20
906.2061858790784
 10
2249.521605633701
 20
906.3112697365831
 10
2249.190601436393
 20
906.4446463045621
 10
2248.91266209541
 20
906.6022630034892
 10
2248.696232656984
 20
906.7793307297254
 10
2248.547889220083
 20
906.9704693700094
 10
2248.47213912497
 20
907.1698712734773
 10
2248.471283999956
 20
907.3714777141944
 10
2248.54534982758
 20
907.5691629824772
 10
2248.69208615515
 20
907.7569205114825
 10
2248.907034473605
 20
907.9290453837012
 10
2249.183663687057
 20
908.0803076719906
 10
2249.513568556836
 20
908.2061113482634
 10
2249.886725090415
 20
908.3026339314757
 10
2250.291795115347
 20
908.3669426317795
 10
2250.716470783899
 20
908.3970834618575
 10
2251.14784854078
 20
908.3921406078403
 10
2251.572821191134
 20
908.3522642558454
 10
2251.978476156025
 20
908.2786660286503
 10
2252.352487814619
 20
908.1735821711456
 10
2252.683492011926
 20
908.0402056031667
 10
2252.961431352909
 20
907.8825889042395
 10
2253.177860791335
 20
907.7055211780033
 10
2253.326204228237
 20
907.5143825377192
 10
2253.401954323349
 20
907.3149806342511
 10
2253.402809448363
 20
907.1133741935343
 10
2253.328743620739
 20
906.9156889252514
 10
2253.182007293169
 20
906.7279313962462
 10
2252.967058974715
 20
906.5558065240274
 10
2252.690429761263
 20
906.4045442357381
  0
LWPOLYLINE
  5
9C2
330
8FF
100
AcDbEntity
  8
0
  6
Continuous
 62
     7
370
    15
100
AcDbPolyline
 90
       43
 70
   128
 43
0.0
 10
2248.510647975855
 20
908.4019188365115
 10
2248.89795389958
 20
908.5535106377738
 10
2249.330809787506
 20
908.6758149736995
 10
2249.79954635437
 20
908.7660997675261
 10
2250.293692799834
 20
908.8223482061506
 10
2250.802210708856
 20
908.8433037924017
 10
2251.31374063165
 20
908.8284984131107
 10
2251.816855835019
 20
908.7782627959857
 10
2252.300317556692
 20
908.6937191217018
 10
2252.753326060703
 20
908.5767559562377
 10
2253.165761885647
 20
908.4299860634345
 10
2253.528411896725
 20
908.2566880401673
 10
2253.83317509195
 20
908.0607330779097
 10
2254.073243565145
 20
907.8464984867123
 10
2254.243254583323
 20
907.618769913331
 10
2254.339410381271
 20
907.3826344377845
 10
2254.359562997356
 20
907.1433669363948
 10
2254.303262255436
 20
906.9063122497649
 10
2254.17176582105
 20
906.6767657878733
 10
2253.968011107253
 20
906.4598552393645
 10
2253.696549657655
 20
906.2604260274584
 10
2253.363445472464
 20
906.0829330712019
 10
2252.976139548739
 20
905.9313412699394
 10
2252.543283660813
 20
905.8090369340137
 10
2252.074547093949
 20
905.7187521401871
 10
2251.580400648485
 20
905.6625037015626
 10
2251.071882739463
 20
905.6415481153116
 10
2250.56035281667
 20
905.6563534946025
 10
2250.057237613301
 20
905.7065891117273
 10
2249.573775891628
 20
905.7911327860116
 10
2249.120767387616
 20
905.9080959514757
 10
2248.708331562672
 20
906.0548658442787
 10
2248.345681551594
 20
906.2281638675459
 10
2248.04091835637
 20
906.4241188298037
 10
2247.800849883174
 20
906.6383534210009
 10
2247.630838864996
 20
906.8660819943822
 10
2247.534683067048
 20
907.1022174699287
 10
2247.514530450963
 20
907.3414849713186
 10
2247.570831192883
 20
907.5785396579483
 10
2247.702327627269
 20
907.8080861198399
 10
2247.906082341066
 20
908.0249966683487
 10
2248.177543790664
 20
908.224425880255
 10
2248.510647975855
 20
908.4019188365115
  0
ARC
  5
9C3
330
8FF
100
AcDbEntity
  8
0
  6
Continuous
 62
     7
370
    15
100
AcDbCircle
 10
2253.439433190441
 20
902.6160174085585
 30
0.0
 40
0.8497093029077138
100
AcDbArc
 50
321.3085754189584
 51
358.3303683297286
  0
LINE
  5
9C4
330
8FF
100
AcDbEntity
  8
0
  6
Continuous
 62
     7
370
    15
100
AcDbLine
 10
2246.042873319233
 20
901.7602494107361
 30
0.0
 11
2245.988246958649
 21
898.3125700268573
 31
0.0
  0
ARC
  5
9C5
330
8FF
100
AcDbEntity
  8
0
  6
Continuous
 62
     7
370
    15
100
AcDbCircle
 10
2255.936070831796
 20
912.8524509694877
 30
0.0
 40
17.61724546111069
100
AcDbArc
 50
235.6210395231084
 51
253.2958836498253
  0
ARC
  5
9C6
330
8FF
100
AcDbEntity
  8
0
  6
Continuous
 62
     7
370
    15
100
AcDbCircle
 10
2259.121140908268
 20
887.9342295370943
 30
0.0
 40
4.812117591161643
100
AcDbArc
 50
245.4515123474427
 51
299.1276204469898
  0
LWPOLYLINE
  5
9C7
330
8FF
100
AcDbEntity
  8
0
  6
Continuous
 62
     7
370
    15
100
AcDbPolyline
 90
        3
 70
   128
 43
0.0
 10
2256.709942627448
 20
883.8059802542238
 10
2256.822336327556
 20
883.7254089876225
 10
2257.121883297474
 20
883.5570792407429
  0
LWPOLYLINE
  5
9C8
330
8FF
100
AcDbEntity
  8
0
  6
Continuous
 62
     7
370
    15
100
AcDbPolyline
 90
       22
 70
   128
 43
0.0
 10
2247.599586543467
 20
888.7464059104841
 10
2247.600238233582
 20
888.7050125817042
 10
2247.649717459192
 20
888.4799833090935
 10
2247.775586993544
 20
888.2606233126422
 10
2247.974586881813
 20
888.0526139010338
 10
2248.241563131422
 20
887.8613424087669
 10
2248.569601197744
 20
887.6917626670206
 10
2248.950205067172
 20
887.5482667020303
 10
2249.373517299408
 20
887.434570983914
 10
2249.828574329994
 20
887.3536201720495
 10
2250.303590420868
 20
887.3075108499426
 10
2250.786262904791
 20
887.2974372248156
 10
2251.264090817965
 20
887.323660198268
 10
2251.724698668431
 20
887.3855006090616
 10
2252.156156954808
 20
887.4813568230402
 10
2252.547291134112
 20
887.6087462146125
 10
2252.887971036555
 20
887.7643694654516
 10
2253.169373231612
 20
887.9441960151057
 10
2253.384209550247
 20
888.1435684503975
 10
2253.526915844654
 20
888.3573231299783
 10
2253.593796096769
 20
888.5799239199272
 10
2253.598833551603
 20
888.6513515293156
  0
LINE
  5
9C9
330
8FF
100
AcDbEntity
  8
0
  6
Continuous
 62
     7
370
    15
100
AcDbLine
 10
2242.371106634592
 20
900.0410775379323
 30
0.0
 11
2242.425732995176
 21
903.488756921811
 31
0.0
  0
LINE
  5
9CA
330
8FF
100
AcDbEntity
  8
0
  6
Continuous
 62
     7
370
    15
100
AcDbLine
 10
2245.988246958649
 20
898.3125700268573
 30
0.0
 11
2242.371106634592
 21
900.0410775379323
 31
0.0
  0
LWPOLYLINE
  5
9CB
330
8FF
100
AcDbEntity
  8
0
  6
Continuous
 62
     7
370
    15
100
AcDbPolyline
 90
       37
 70
   128
 43
0.0
 10
2244.189178672313
 20
910.4670010508788
 10
2243.859273802534
 20
910.3411973746061
 10
2243.486117268954
 20
910.2446747913939
 10
2243.081047244023
 20
910.1803660910903
 10
2242.65637157547
 20
910.1502252610121
 10
2242.22499381859
 20
910.1551681150294
 10
2241.800021168236
 20
910.195044467024
 10
2241.394366203344
 20
910.2686426942192
 10
2241.020354544751
 20
910.3737265517239
 10
2240.689350347444
 20
910.5071031197031
 10
2240.411411006461
 20
910.6647198186301
 10
2240.194981568035
 20
910.8417875448663
 10
2240.046638131133
 20
911.0329261851504
 10
2239.970888036021
 20
911.2323280886183
 10
2239.970032911006
 20
911.4339345293354
 10
2240.04409873863
 20
911.631619797618
 10
2240.1908350662
 20
911.8193773266233
 10
2240.405783384655
 20
911.991502198842
 10
2240.682412598107
 20
912.1427644871316
 10
2241.012317467886
 20
912.2685681634044
 10
2241.385474001465
 20
912.3650907466165
 10
2241.790544026397
 20
912.4293994469203
 10
2242.21521969495
 20
912.4595402769985
 10
2242.64659745183
 20
912.454597422981
 10
2243.071570102184
 20
912.4147210709864
 10
2243.477225067076
 20
912.3411228437912
 10
2243.851236725669
 20
912.2360389862866
 10
2244.182240922976
 20
912.1026624183075
 10
2244.460180263959
 20
911.9450457193805
 10
2244.676609702385
 20
911.7679779931442
 10
2244.824953139287
 20
911.57683935286
 10
2244.900703234399
 20
911.3774374493923
 10
2244.901558359414
 20
911.1758310086752
 10
2244.827492531789
 20
910.9781457403924
 10
2244.680756204219
 20
910.7903882113872
 10
2244.465807885765
 20
910.6182633391684
 10
2244.189178672313
 20
910.4670010508788
  0
LWPOLYLINE
  5
9CC
330
8FF
100
AcDbEntity
  8
0
  6
Continuous
 62
     7
370
    15
100
AcDbPolyline
 90
       43
 70
   128
 43
0.0
 10
2240.009396886905
 20
912.4643756516523
 10
2240.39670281063
 20
912.6159674529146
 10
2240.829558698556
 20
912.7382717888405
 10
2241.298295265421
 20
912.828556582667
 10
2241.792441710884
 20
912.8848050212916
 10
2242.300959619906
 20
912.9057606075425
 10
2242.8124895427
 20
912.8909552282516
 10
2243.315604746069
 20
912.8407196111266
 10
2243.799066467742
 20
912.7561759368425
 10
2244.252074971753
 20
912.6392127713787
 10
2244.664510796697
 20
912.4924428785753
 10
2245.027160807774
 20
912.3191448553082
 10
2245.331924002999
 20
912.1231898930505
 10
2245.571992476195
 20
911.9089553018532
 10
2245.742003494373
 20
911.6812267284718
 10
2245.838159292321
 20
911.4450912529255
 10
2245.858311908406
 20
911.2058237515357
 10
2245.802011166486
 20
910.9687690649058
 10
2245.6705147321
 20
910.7392226030142
 10
2245.466760018303
 20
910.5223120545055
 10
2245.195298568705
 20
910.3228828425992
 10
2244.862194383514
 20
910.1453898863427
 10
2244.474888459789
 20
909.9937980850805
 10
2244.042032571863
 20
909.8714937491546
 10
2243.573296004998
 20
909.7812089553279
 10
2243.079149559536
 20
909.7249605167036
 10
2242.570631650513
 20
909.7040049304524
 10
2242.059101727719
 20
909.7188103097435
 10
2241.555986524351
 20
909.7690459268685
 10
2241.072524802678
 20
909.8535896011524
 10
2240.619516298667
 20
909.9705527666165
 10
2240.207080473723
 20
910.1173226594196
 10
2239.844430462645
 20
910.2906206826869
 10
2239.53966726742
 20
910.4865756449447
 10
2239.299598794224
 20
910.7008102361417
 10
2239.129587776046
 20
910.9285388095232
 10
2239.033431978098
 20
911.1646742850696
 10
2239.013279362013
 20
911.4039417864594
 10
2239.069580103933
 20
911.6409964730891
 10
2239.201076538319
 20
911.8705429349809
 10
2239.404831252116
 20
912.0874534834896
 10
2239.676292701714
 20
912.2868826953959
 10
2240.009396886905
 20
912.4643756516523
  0
ARC
  5
9CD
330
8FF
100
AcDbEntity
  8
0
  6
Continuous
 62
     7
370
    15
100
AcDbCircle
 10
2244.938182101494
 20
906.6784742236984
 30
0.0
 40
0.8497093029054148
100
AcDbArc
 50
321.3085754189167
 51
358.3303683297872
  0
LINE
  5
9CE
330
8FF
100
AcDbEntity
  8
0
  6
Continuous
 62
     7
370
    15
100
AcDbLine
 10
2237.541622230283
 20
905.8227062258769
 30
0.0
 11
2237.486995869699
 21
902.3750268419982
 31
0.0
  0
ARC
  5
9CF
330
8FF
100
AcDbEntity
  8
0
  6
Continuous
 62
     7
370
    15
100
AcDbCircle
 10
2247.434819742846
 20
916.9149077846295
 30
0.0
 40
17.61724546111162
100
AcDbArc
 50
235.6210395231084
 51
253.2958836498253
  0
ARC
  5
9D0
330
8FF
100
AcDbEntity
  8
0
  6
Continuous
 62
     7
370
    15
100
AcDbCircle
 10
2250.619889819319
 20
891.9966863522354
 30
0.0
 40
4.812117591161961
100
AcDbArc
 50
245.4515123474427
 51
299.1276204469898
  0
LWPOLYLINE
  5
9D1
330
8FF
100
AcDbEntity
  8
0
  6
Continuous
 62
     7
370
    15
100
AcDbPolyline
 90
        3
 70
   128
 43
0.0
 10
2248.208691538498
 20
887.8684370693648
 10
2248.321085238606
 20
887.7878658027634
 10
2248.620632208524
 20
887.6195360558838
  0
LWPOLYLINE
  5
9D2
330
8FF
100
AcDbEntity
  8
0
  6
Continuous
 62
     7
370
    15
100
AcDbPolyline
 90
       22
 70
   128
 43
0.0
 10
2239.098335454517
 20
892.8088627256249
 10
2239.098987144632
 20
892.7674693968452
 10
2239.148466370243
 20
892.5424401242343
 10
2239.274335904593
 20
892.3230801277831
 10
2239.473335792863
 20
892.1150707161746
 10
2239.740312042473
 20
891.9237992239077
 10
2240.068350108794
 20
891.7542194821615
 10
2240.448953978221
 20
891.6107235171711
 10
2240.872266210458
 20
891.4970277990548
 10
2241.327323241044
 20
891.4160769871903
 10
2241.802339331918
 20
891.3699676650836
 10
2242.285011815841
 20
891.3598940399564
 10
2242.762839729015
 20
891.3861170134088
 10
2243.223447579481
 20
891.4479574242024
 10
2243.654905865858
 20
891.543813638181
 10
2244.046040045162
 20
891.6712030297533
 10
2244.386719947605
 20
891.8268262805925
 10
2244.668122142662
 20
892.0066528302466
 10
2244.882958461297
 20
892.2060252655384
 10
2245.025664755704
 20
892.4197799451192
 10
2245.092545007819
 20
892.642380735068
 10
2245.097582462653
 20
892.7138083444566
  0
LINE
  5
9D3
330
8FF
100
AcDbEntity
  8
0
  6
Continuous
 62
     7
370
    15
100
AcDbLine
 10
2233.869855545642
 20
904.1035343530731
 30
0.0
 11
2233.924481906226
 21
907.551213736952
 31
0.0
  0
LINE
  5
9D4
330
8FF
100
AcDbEntity
  8
0
  6
Continuous
 62
     7
370
    15
100
AcDbLine
 10
2237.486995869699
 20
902.3750268419982
 30
0.0
 11
2233.869855545642
 21
904.1035343530731
 31
0.0
  0
LWPOLYLINE
  5
9D5
330
8FF
100
AcDbEntity
  8
0
  6
Continuous
 62
     7
370
    15
100
AcDbPolyline
 90
       37
 70
   128
 43
0.0
 10
2235.687927583363
 20
914.5294578660198
 10
2235.358022713584
 20
914.4036541897472
 10
2234.984866180005
 20
914.3071316065347
 10
2234.579796155073
 20
914.2428229062311
 10
2234.15512048652
 20
914.212682076153
 10
2233.72374272964
 20
914.2176249301703
 10
2233.298770079286
 20
914.257501282165
 10
2232.893115114395
 20
914.3310995093601
 10
2232.519103455801
 20
914.4361833668648
 10
2232.188099258493
 20
914.5695599348439
 10
2231.910159917511
 20
914.7271766337709
 10
2231.693730479085
 20
914.9042443600071
 10
2231.545387042183
 20
915.0953830002913
 10
2231.46963694707
 20
915.2947849037593
 10
2231.468781822056
 20
915.4963913444762
 10
2231.542847649681
 20
915.694076612759
 10
2231.689583977251
 20
915.8818341417642
 10
2231.904532295705
 20
916.0539590139832
 10
2232.181161509156
 20
916.2052213022725
 10
2232.511066378936
 20
916.3310249785451
 10
2232.884222912515
 20
916.4275475617575
 10
2233.289292937447
 20
916.4918562620611
 10
2233.713968606
 20
916.5219970921393
 10
2234.14534636288
 20
916.517054238122
 10
2234.570319013234
 20
916.4771778861272
 10
2234.975973978126
 20
916.4035796589322
 10
2235.349985636719
 20
916.2984958014273
 10
2235.680989834026
 20
916.1651192334485
 10
2235.958929175009
 20
916.0075025345213
 10
2236.175358613435
 20
915.8304348082852
 10
2236.323702050337
 20
915.639296168001
 10
2236.399452145449
 20
915.4398942645331
 10
2236.400307270464
 20
915.238287823816
 10
2236.326241442839
 20
915.0406025555334
 10
2236.179505115269
 20
914.8528450265281
 10
2235.964556796815
 20
914.6807201543092
 10
2235.687927583363
 20
914.5294578660198
  0
LWPOLYLINE
  5
9D6
330
8FF
100
AcDbEntity
  8
0
  6
Continuous
 62
     7
370
    15
100
AcDbPolyline
 90
       43
 70
   128
 43
0.0
 10
2231.508145797956
 20
916.5268324667932
 10
2231.89545172168
 20
916.6784242680556
 10
2232.328307609606
 20
916.8007286039813
 10
2232.797044176471
 20
916.891013397808
 10
2233.291190621935
 20
916.9472618364324
 10
2233.799708530956
 20
916.9682174226833
 10
2234.31123845375
 20
916.9534120433924
 10
2234.814353657119
 20
916.9031764262676
 10
2235.297815378792
 20
916.8186327519835
 10
2235.750823882803
 20
916.7016695865195
 10
2236.163259707748
 20
916.5548996937163
 10
2236.525909718825
 20
916.3816016704492
 10
2236.83067291405
 20
916.1856467081914
 10
2237.070741387245
 20
915.9714121169942
 10
2237.240752405424
 20
915.7436835436127
 10
2237.336908203372
 20
915.5075480680663
 10
2237.357060819457
 20
915.2682805666765
 10
2237.300760077536
 20
915.0312258800468
 10
2237.169263643151
 20
914.801679418155
 10
2236.965508929353
 20
914.5847688696463
 10
2236.694047479755
 20
914.3853396577402
 10
2236.360943294564
 20
914.2078467014837
 10
2235.97363737084
 20
914.0562549002213
 10
2235.540781482913
 20
913.9339505642954
 10
2235.072044916049
 20
913.8436657704689
 10
2234.577898470585
 20
913.7874173318445
 10
2234.069380561563
 20
913.7664617455934
 10
2233.557850638769
 20
913.7812671248843
 10
2233.054735435401
 20
913.8315027420093
 10
2232.571273713728
 20
913.9160464162934
 10
2232.118265209717
 20
914.0330095817573
 10
2231.705829384772
 20
914.1797794745606
 10
2231.343179373695
 20
914.3530774978279
 10
2231.03841617847
 20
914.5490324600855
 10
2230.798347705274
 20
914.7632670512829
 10
2230.628336687096
 20
914.9909956246641
 10
2230.532180889148
 20
915.2271311002104
 10
2230.512028273063
 20
915.4663986016002
 10
2230.568329014984
 20
915.7034532882301
 10
2230.699825449369
 20
915.9329997501217
 10
2230.903580163166
 20
916.1499102986304
 10
2231.175041612765
 20
916.3493395105367
 10
2231.508145797956
 20
916.5268324667932
  0
ARC
  5
9D7
330
8FF
100
AcDbEntity
  8
0
  6
Continuous
 62
     7
370
    15
100
AcDbCircle
 10
2236.436931012544
 20
910.7409310388392
 30
0.0
 40
0.8497093029052789
100
AcDbArc
 50
321.3085754189116
 51
358.3303683297872
  0
LINE
  5
9D8
330
8FF
100
AcDbEntity
  8
0
  6
Continuous
 62
     7
370
    15
100
AcDbLine
 10
2229.040371141334
 20
909.8851630410178
 30
0.0
 11
2228.985744780748
 21
906.4374836571392
 31
0.0
  0
ARC
  5
9D9
330
8FF
100
AcDbEntity
  8
0
  6
Continuous
 62
     7
370
    15
100
AcDbCircle
 10
2238.933568653896
 20
920.9773645997692
 30
0.0
 40
17.61724546111028
100
AcDbArc
 50
235.6210395231084
 51
253.2958836498253
  0
ARC
  5
9DA
330
8FF
100
AcDbEntity
  8
0
  6
Continuous
 62
     7
370
    15
100
AcDbCircle
 10
2242.118638730369
 20
896.059143167376
 30
0.0
 40
4.812117591161592
100
AcDbArc
 50
245.4515123474427
 51
299.1276204469898
  0
LWPOLYLINE
  5
9DB
330
8FF
100
AcDbEntity
  8
0
  6
Continuous
 62
     7
370
    15
100
AcDbPolyline
 90
        3
 70
   128
 43
0.0
 10
2239.707440449548
 20
891.9308938845055
 10
2239.819834149656
 20
891.8503226179044
 10
2240.119381119574
 20
891.6819928710246
  0
LWPOLYLINE
  5
9DC
330
8FF
100
AcDbEntity
  8
0
  6
Continuous
 62
     7
370
    15
100
AcDbPolyline
 90
       22
 70
   128
 43
0.0
 10
2230.597084365567
 20
896.8713195407659
 10
2230.597736055682
 20
896.829926211986
 10
2230.647215281293
 20
896.6048969393753
 10
2230.773084815644
 20
896.3855369429239
 10
2230.972084703913
 20
896.1775275313156
 10
2231.239060953523
 20
895.9862560390487
 10
2231.567099019844
 20
895.8166762973023
 10
2231.947702889272
 20
895.6731803323121
 10
2232.371015121508
 20
895.5594846141959
 10
2232.826072152094
 20
895.4785338023313
 10
2233.301088242968
 20
895.4324244802243
 10
2233.783760726891
 20
895.4223508550974
 10
2234.261588640065
 20
895.4485738285498
 10
2234.722196490531
 20
895.5104142393434
 10
2235.153654776908
 20
895.606270453322
 10
2235.544788956213
 20
895.7336598448943
 10
2235.885468858655
 20
895.8892830957333
 10
2236.166871053713
 20
896.0691096453876
 10
2236.381707372347
 20
896.2684820806792
 10
2236.524413666754
 20
896.48223676026
 10
2236.591293918869
 20
896.7048375502089
 10
2236.596331373703
 20
896.7762651595974
  0
LINE
  5
9DD
330
8FF
100
AcDbEntity
  8
0
  6
Continuous
 62
     7
370
    15
100
AcDbLine
 10
2225.368604456692
 20
908.1659911682141
 30
0.0
 11
2225.423230817277
 21
911.6136705520927
 31
0.0
  0
LINE
  5
9DE
330
8FF
100
AcDbEntity
  8
0
  6
Continuous
 62
     7
370
    15
100
AcDbLine
 10
2228.985744780748
 20
906.4374836571392
 30
0.0
 11
2225.368604456692
 21
908.1659911682141
 31
0.0
  0
LWPOLYLINE
  5
9DF
330
8FF
100
AcDbEntity
  8
0
  6
Continuous
 62
     7
370
    15
100
AcDbPolyline
 90
       37
 70
   128
 43
0.0
 10
2227.186676494413
 20
918.5919146811608
 10
2226.856771624634
 20
918.466111004888
 10
2226.483615091055
 20
918.3695884216756
 10
2226.078545066123
 20
918.305279721372
 10
2225.65386939757
 20
918.2751388912938
 10
2225.222491640689
 20
918.2800817453111
 10
2224.797518990337
 20
918.3199580973059
 10
2224.391864025444
 20
918.3935563245011
 10
2224.017852366851
 20
918.4986401820058
 10
2223.686848169544
 20
918.6320167499848
 10
2223.408908828561
 20
918.7896334489119
 10
2223.192479390135
 20
918.9667011751479
 10
2223.044135953233
 20
919.1578398154321
 10
2222.968385858121
 20
919.3572417189001
 10
2222.967530733106
 20
919.5588481596171
 10
2223.041596560731
 20
919.7565334278998
 10
2223.1883328883
 20
919.944290956905
 10
2223.403281206755
 20
920.116415829124
 10
2223.679910420207
 20
920.2676781174133
 10
2224.009815289987
 20
920.3934817936861
 10
2224.382971823565
 20
920.4900043768985
 10
2224.788041848497
 20
920.5543130772021
 10
2225.21271751705
 20
920.5844539072803
 10
2225.64409527393
 20
920.579511053263
 10
2226.069067924284
 20
920.5396347012682
 10
2226.474722889176
 20
920.466036474073
 10
2226.848734547769
 20
920.3609526165683
 10
2227.179738745077
 20
920.2275760485893
 10
2227.457678086059
 20
920.0699593496622
 10
2227.674107524485
 20
919.892891623426
 10
2227.822450961387
 20
919.7017529831418
 10
2227.898201056499
 20
919.502351079674
 10
2227.899056181513
 20
919.300744638957
 10
2227.82499035389
 20
919.1030593706742
 10
2227.67825402632
 20
918.9153018416689
 10
2227.463305707865
 20
918.7431769694502
 10
2227.186676494413
 20
918.5919146811608
  0
LWPOLYLINE
  5
9E0
330
8FF
100
AcDbEntity
  8
0
  6
Continuous
 62
     7
370
    15
100
AcDbPolyline
 90
       43
 70
   128
 43
0.0
 10
2223.006894709005
 20
920.5892892819342
 10
2223.39420063273
 20
920.7408810831964
 10
2223.827056520657
 20
920.8631854191223
 10
2224.295793087522
 20
920.9534702129488
 10
2224.789939532984
 20
921.0097186515733
 10
2225.298457442006
 20
921.0306742378245
 10
2225.8099873648
 20
921.0158688585334
 10
2226.313102568169
 20
920.9656332414086
 10
2226.796564289842
 20
920.8810895671243
 10
2227.249572793853
 20
920.7641264016604
 10
2227.662008618797
 20
920.6173565088572
 10
2228.024658629875
 20
920.44405848559
 10
2228.329421825099
 20
920.2481035233324
 10
2228.569490298295
 20
920.033868932135
 10
2228.739501316473
 20
919.8061403587537
 10
2228.835657114421
 20
919.5700048832073
 10
2228.855809730506
 20
919.3307373818175
 10
2228.799508988586
 20
919.0936826951876
 10
2228.668012554201
 20
918.864136233296
 10
2228.464257840403
 20
918.6472256847872
 10
2228.192796390805
 20
918.4477964728809
 10
2227.859692205614
 20
918.2703035166246
 10
2227.47238628189
 20
918.1187117153623
 10
2227.039530393963
 20
917.9964073794364
 10
2226.570793827098
 20
917.9061225856099
 10
2226.076647381636
 20
917.8498741469853
 10
2225.568129472614
 20
917.8289185607344
 10
2225.056599549819
 20
917.8437239400253
 10
2224.553484346451
 20
917.8939595571502
 10
2224.070022624778
 20
917.9785032314342
 10
2223.617014120767
 20
918.0954663968982
 10
2223.204578295822
 20
918.2422362897014
 10
2222.841928284745
 20
918.4155343129686
 10
2222.537165089521
 20
918.6114892752264
 10
2222.297096616324
 20
918.8257238664236
 10
2222.127085598147
 20
919.0534524398049
 10
2222.030929800199
 20
919.2895879153514
 10
2222.010777184113
 20
919.5288554167413
 10
2222.067077926034
 20
919.765910103371
 10
2222.198574360419
 20
919.9954565652626
 10
2222.402329074217
 20
920.2123671137714
 10
2222.673790523815
 20
920.4117963256775
 10
2223.006894709005
 20
920.5892892819342
  0
ARC
  5
9E1
330
8FF
100
AcDbEntity
  8
0
  6
Continuous
 62
     7
370
    15
100
AcDbCircle
 10
2227.935679923595
 20
914.8033878539802
 30
0.0
 40
0.84970930290505
100
AcDbArc
 50
321.3085754189116
 51
358.3303683297937
  0
LINE
  5
9E2
330
8FF
100
AcDbEntity
  8
0
  6
Continuous
 62
     7
370
    15
100
AcDbLine
 10
2220.539120052383
 20
913.9476198561588
 30
0.0
 11
2220.484493691799
 21
910.49994047228
 31
0.0
  0
ARC
  5
9E3
330
8FF
100
AcDbEntity
  8
0
  6
Continuous
 62
     7
370
    15
100
AcDbCircle
 10
2230.432317564946
 20
925.0398214149093
 30
0.0
 40
17.61724546110945
100
AcDbArc
 50
235.6210395231084
 51
253.2958836498253
  0
ARC
  5
9E4
330
8FF
100
AcDbEntity
  8
0
  6
Continuous
 62
     7
370
    15
100
AcDbCircle
 10
2233.617387641419
 20
900.1215999825172
 30
0.0
 40
4.812117591161848
100
AcDbArc
 50
245.4515123474427
 51
299.1276204469898
  0
LWPOLYLINE
  5
9E5
330
8FF
100
AcDbEntity
  8
0
  6
Continuous
 62
     7
370
    15
100
AcDbPolyline
 90
        3
 70
   128
 43
0.0
 10
2231.206189360598
 20
895.9933506996465
 10
2231.318583060706
 20
895.9127794330454
 10
2231.618130030625
 20
895.7444496861656
  0
LWPOLYLINE
  5
9E6
330
8FF
100
AcDbEntity
  8
0
  6
Continuous
 62
     7
370
    15
100
AcDbPolyline
 90
       22
 70
   128
 43
0.0
 10
2222.095833276617
 20
900.9337763559068
 10
2222.096484966732
 20
900.8923830271269
 10
2222.145964192343
 20
900.6673537545163
 10
2222.271833726694
 20
900.4479937580649
 10
2222.470833614963
 20
900.2399843464566
 10
2222.737809864572
 20
900.0487128541896
 10
2223.065847930895
 20
899.8791331124433
 10
2223.446451800322
 20
899.7356371474529
 10
2223.869764032558
 20
899.6219414293367
 10
2224.324821063144
 20
899.5409906174723
 10
2224.799837154018
 20
899.4948812953653
 10
2225.282509637941
 20
899.4848076702382
 10
2225.760337551115
 20
899.5110306436906
 10
2226.220945401581
 20
899.5728710544842
 10
2226.652403687958
 20
899.6687272684628
 10
2227.043537867262
 20
899.7961166600351
 10
2227.384217769705
 20
899.9517399108743
 10
2227.665619964762
 20
900.1315664605284
 10
2227.880456283397
 20
900.3309388958202
 10
2228.023162577804
 20
900.544693575401
 10
2228.090042829919
 20
900.7672943653499
 10
2228.095080284753
 20
900.8387219747383
  0
LINE
  5
9E7
330
8FF
100
AcDbEntity
  8
0
  6
Continuous
 62
     7
370
    15
100
AcDbLine
 10
2218.943081167579
 20
914.7103121913177
 30
0.0
 11
2218.888454806994
 21
911.2626328074389
 31
0.0
  0
LINE
  5
9E8
330
8FF
100
AcDbEntity
  8
0
  6
Continuous
 62
     7
370
    15
100
AcDbLine
 10
2220.484493691799
 20
910.49994047228
 30
0.0
 11
2218.888454806994
 21
911.2626328074389
 31
0.0
  0
ARC
  5
9E9
330
8FF
100
AcDbEntity
  8
0
  6
Continuous
 62
     7
370
    15
100
AcDbCircle
 10
2225.116136552469
 20
904.184056797658
 30
0.0
 40
4.812117591161848
100
AcDbArc
 50
245.4515123474427
 51
299.1276204469898
  0
LWPOLYLINE
  5
9EA
330
8FF
100
AcDbEntity
  8
0
  6
Continuous
 62
     7
370
    15
100
AcDbPolyline
 90
        3
 70
   128
 43
0.0
 10
2222.704938271649
 20
900.0558075147875
 10
2222.817331971756
 20
899.9752362481864
 10
2223.116878941674
 20
899.8069065013066
  0
LWPOLYLINE
  5
9EB
330
8FF
100
AcDbEntity
  8
0
  6
Continuous
 62
     8
370
    15
100
AcDbPolyline
 90
       17
 70
   128
 43
0.0
 10
2295.796865769768
 20
881.1737431503257
 10
2295.409559846043
 20
881.0221513490633
 10
2294.976703958116
 20
880.8998470131376
 10
2294.507967391251
 20
880.8095622193109
 10
2294.013820945789
 20
880.7533137806865
 10
2293.505303036766
 20
880.7323581944354
 10
2292.993773113973
 20
880.7471635737265
 10
2292.490657910605
 20
880.7973991908513
 10
2292.007196188931
 20
880.8819428651354
 10
2291.55418768492
 20
880.9989060305994
 10
2291.141751859976
 20
881.1456759234026
 10
2290.779101848898
 20
881.3189739466697
 10
2290.474338653673
 20
881.5149289089275
 10
2290.234270180477
 20
881.7291635001247
 10
2290.0642591623
 20
881.9568920735061
 10
2289.968103364351
 20
882.1930275490526
 10
2289.945896854319
 20
882.3874962422307
  0
ARC
  5
9EC
330
8FF
100
AcDbEntity
  8
0
  6
Continuous
 62
     8
370
    15
100
AcDbCircle
 10
2295.079711672862
 20
882.9962661948856
 30
0.0
 40
1.958545441561404
100
AcDbArc
 50
291.4794003013747
 51
321.3321565091714
  0
LWPOLYLINE
  5
9ED
330
8FF
100
AcDbEntity
  8
0
  6
Continuous
 62
     8
370
    15
100
AcDbPolyline
 90
       17
 70
   128
 43
0.0
 10
2287.295614680818
 20
885.2361999654664
 10
2286.908308757093
 20
885.0846081642043
 10
2286.475452869167
 20
884.9623038282784
 10
2286.006716302302
 20
884.8720190344518
 10
2285.512569856839
 20
884.8157705958273
 10
2285.004051947817
 20
884.7948150095763
 10
2284.492522025023
 20
884.8096203888673
 10
2283.989406821654
 20
884.8598560059922
 10
2283.505945099981
 20
884.9443996802763
 10
2283.05293659597
 20
885.0613628457402
 10
2282.640500771026
 20
885.2081327385436
 10
2282.277850759948
 20
885.3814307618106
 10
2281.973087564724
 20
885.5773857240683
 10
2281.733019091527
 20
885.7916203152656
 10
2281.56300807335
 20
886.0193488886471
 10
2281.466852275402
 20
886.2554843641934
 10
2281.44464576537
 20
886.4499530573716
  0
ARC
  5
9EE
330
8FF
100
AcDbEntity
  8
0
  6
Continuous
 62
     8
370
    15
100
AcDbCircle
 10
2286.578460583928
 20
887.0587230100053
 30
0.0
 40
1.958545441535818
100
AcDbArc
 50
291.4794003011787
 51
321.3321565093749
  0
LWPOLYLINE
  5
9EF
330
8FF
100
AcDbEntity
  8
0
  6
Continuous
 62
     8
370
    15
100
AcDbPolyline
 90
       17
 70
   128
 43
0.0
 10
2278.794363591868
 20
889.2986567806074
 10
2278.407057668143
 20
889.1470649793451
 10
2277.974201780216
 20
889.0247606434193
 10
2277.505465213351
 20
888.9344758495926
 10
2277.011318767889
 20
888.8782274109683
 10
2276.502800858867
 20
888.8572718247173
 10
2275.991270936073
 20
888.8720772040082
 10
2275.488155732705
 20
888.922312821133
 10
2275.004694011032
 20
889.0068564954171
 10
2274.55168550702
 20
889.1238196608812
 10
2274.139249682076
 20
889.2705895536844
 10
2273.776599670998
 20
889.4438875769516
 10
2273.471836475774
 20
889.6398425392092
 10
2273.231768002577
 20
889.8540771304064
 10
2273.0617569844
 20
890.0818057037879
 10
2272.965601186452
 20
890.3179411793344
 10
2272.943394676419
 20
890.5124098725124
  0
ARC
  5
9F0
330
8FF
100
AcDbEntity
  8
0
  6
Continuous
 62
     8
370
    15
100
AcDbCircle
 10
2278.077209494961
 20
891.1211798251677
 30
0.0
 40
1.958545441561823
100
AcDbArc
 50
291.4794003013747
 51
321.3321565091714
  0
LWPOLYLINE
  5
9F1
330
8FF
100
AcDbEntity
  8
0
  6
Continuous
 62
     8
370
    15
100
AcDbPolyline
 90
       17
 70
   128
 43
0.0
 10
2270.293112502918
 20
893.3611135957484
 10
2269.905806579193
 20
893.209521794486
 10
2269.472950691267
 20
893.0872174585601
 10
2269.004214124402
 20
892.9969326647336
 10
2268.510067678939
 20
892.9406842261091
 10
2268.001549769917
 20
892.9197286398581
 10
2267.490019847123
 20
892.9345340191492
 10
2266.986904643754
 20
892.984769636274
 10
2266.503442922081
 20
893.0693133105581
 10
2266.05043441807
 20
893.1862764760222
 10
2265.637998593126
 20
893.3330463688253
 10
2265.275348582048
 20
893.5063443920924
 10
2264.970585386824
 20
893.7022993543502
 10
2264.730516913628
 20
893.9165339455474
 10
2264.56050589545
 20
894.1442625189289
 10
2264.464350097502
 20
894.3803979944753
 10
2264.442143587469
 20
894.5748666876536
  0
ARC
  5
9F2
330
8FF
100
AcDbEntity
  8
0
  6
Continuous
 62
     8
370
    15
100
AcDbCircle
 10
2269.575958406012
 20
895.1836366403085
 30
0.0
 40
1.958545441561617
100
AcDbArc
 50
291.4794003013747
 51
321.3321565091714
  0
LWPOLYLINE
  5
9F3
330
8FF
100
AcDbEntity
  8
0
  6
Continuous
 62
     8
370
    15
100
AcDbPolyline
 90
       17
 70
   128
 43
0.0
 10
2261.791861413968
 20
897.4235704108892
 10
2261.404555490243
 20
897.271978609627
 10
2260.971699602317
 20
897.1496742737011
 10
2260.502963035452
 20
897.0593894798746
 10
2260.008816589989
 20
897.00314104125
 10
2259.500298680967
 20
896.9821854549989
 10
2258.988768758174
 20
896.99699083429
 10
2258.485653554804
 20
897.047226451415
 10
2258.002191833131
 20
897.1317701256991
 10
2257.54918332912
 20
897.2487332911629
 10
2257.136747504176
 20
897.3955031839661
 10
2256.774097493098
 20
897.5688012072334
 10
2256.469334297874
 20
897.764756169491
 10
2256.229265824678
 20
897.9789907606884
 10
2256.0592548065
 20
898.2067193340698
 10
2255.963099008552
 20
898.4428548096161
 10
2255.94089249852
 20
898.6373235027944
  0
ARC
  5
9F4
330
8FF
100
AcDbEntity
  8
0
  6
Continuous
 62
     8
370
    15
100
AcDbCircle
 10
2261.074707317062
 20
899.2460934554493
 30
0.0
 40
1.958545441561519
100
AcDbArc
 50
291.4794003013747
 51
321.3321565091714
  0
LWPOLYLINE
  5
9F5
330
8FF
100
AcDbEntity
  8
0
  6
Continuous
 62
     8
370
    15
100
AcDbPolyline
 90
       17
 70
   128
 43
0.0
 10
2253.290610325018
 20
901.4860272260301
 10
2252.903304401293
 20
901.3344354247678
 10
2252.470448513367
 20
901.2121310888421
 10
2252.001711946503
 20
901.1218462950154
 10
2251.507565501039
 20
901.065597856391
 10
2250.999047592017
 20
901.04464227014
 10
2250.487517669223
 20
901.059447649431
 10
2249.984402465855
 20
901.1096832665558
 10
2249.500940744182
 20
901.1942269408399
 10
2249.04793224017
 20
901.3111901063039
 10
2248.635496415226
 20
901.4579599991071
 10
2248.272846404148
 20
901.6312580223743
 10
2247.968083208924
 20
901.8272129846321
 10
2247.728014735728
 20
902.0414475758292
 10
2247.55800371755
 20
902.2691761492106
 10
2247.461847919602
 20
902.5053116247571
 10
2247.43964140957
 20
902.6997803179353
  0
ARC
  5
9F6
330
8FF
100
AcDbEntity
  8
0
  6
Continuous
 62
     8
370
    15
100
AcDbCircle
 10
2252.573456228118
 20
903.3085502705819
 30
0.0
 40
1.958545441551493
100
AcDbArc
 50
291.4794003012924
 51
321.3321565092548
  0
LWPOLYLINE
  5
9F7
330
8FF
100
AcDbEntity
  8
0
  6
Continuous
 62
     8
370
    15
100
AcDbPolyline
 90
       17
 70
   128
 43
0.0
 10
2244.789359236068
 20
905.5484840411711
 10
2244.402053312343
 20
905.3968922399088
 10
2243.969197424417
 20
905.2745879039829
 10
2243.500460857552
 20
905.1843031101563
 10
2243.00631441209
 20
905.1280546715318
 10
2242.497796503068
 20
905.1070990852808
 10
2241.986266580274
 20
905.1219044645719
 10
2241.483151376904
 20
905.1721400816967
 10
2240.999689655231
 20
905.2566837559808
 10
2240.54668115122
 20
905.3736469214447
 10
2240.134245326276
 20
905.5204168142481
 10
2239.771595315199
 20
905.6937148375153
 10
2239.466832119974
 20
905.8896697997729
 10
2239.226763646778
 20
906.1039043909701
 10
2239.0567526286
 20
906.3316329643516
 10
2238.960596830652
 20
906.5677684398981
 10
2238.93839032062
 20
906.7622371330763
  0
ARC
  5
9F8
330
8FF
100
AcDbEntity
  8
0
  6
Continuous
 62
     8
370
    15
100
AcDbCircle
 10
2244.072205139162
 20
907.3710070857313
 30
0.0
 40
1.958545441561599
100
AcDbArc
 50
291.4794003013747
 51
321.3321565091714
  0
LWPOLYLINE
  5
9F9
330
8FF
100
AcDbEntity
  8
0
  6
Continuous
 62
     8
370
    15
100
AcDbPolyline
 90
       17
 70
   128
 43
0.0
 10
2236.288108147118
 20
909.6109408563121
 10
2235.900802223393
 20
909.4593490550495
 10
2235.467946335467
 20
909.3370447191238
 10
2234.999209768602
 20
909.2467599252973
 10
2234.50506332314
 20
909.190511486673
 10
2233.996545414118
 20
909.1695559004218
 10
2233.485015491323
 20
909.1843612797127
 10
2232.981900287955
 20
909.2345968968377
 10
2232.498438566282
 20
909.3191405711218
 10
2232.045430062271
 20
909.4361037365857
 10
2231.632994237326
 20
909.5828736293888
 10
2231.270344226249
 20
909.7561716526561
 10
2230.965581031024
 20
909.9521266149137
 10
2230.725512557828
 20
910.1663612061111
 10
2230.55550153965
 20
910.3940897794924
 10
2230.459345741703
 20
910.6302252550388
 10
2230.43713923167
 20
910.8246939482171
  0
ARC
  5
9FA
330
8FF
100
AcDbEntity
  8
0
  6
Continuous
 62
     8
370
    15
100
AcDbCircle
 10
2235.570954050219
 20
911.4334639008635
 30
0.0
 40
1.958545441551274
100
AcDbArc
 50
291.4794003012924
 51
321.3321565092548
  0
LWPOLYLINE
  5
9FB
330
8FF
100
AcDbEntity
  8
0
  6
Continuous
 62
     8
370
    15
100
AcDbPolyline
 90
       17
 70
   128
 43
0.0
 10
2227.786857058168
 20
913.6733976714529
 10
2227.399551134444
 20
913.5218058701907
 10
2226.966695246517
 20
913.3995015342648
 10
2226.497958679653
 20
913.3092167404381
 10
2226.003812234189
 20
913.2529683018137
 10
2225.495294325167
 20
913.2320127155626
 10
2224.983764402374
 20
913.2468180948537
 10
2224.480649199005
 20
913.2970537119787
 10
2223.997187477332
 20
913.3815973862626
 10
2223.544178973321
 20
913.4985605517266
 10
2223.131743148377
 20
913.6453304445298
 10
2222.769093137299
 20
913.8186284677969
 10
2222.464329942074
 20
914.0145834300547
 10
2222.224261468878
 20
914.2288180212519
 10
2222.0542504507
 20
914.4565465946334
 10
2221.958094652752
 20
914.6926820701798
 10
2221.93588814272
 20
914.8871507633581
  0
ARC
  5
9FC
330
8FF
100
AcDbEntity
  8
0
  6
Continuous
 62
     8
370
    15
100
AcDbCircle
 10
2227.069702961262
 20
915.4959207160143
 30
0.0
 40
1.958545441563035
100
AcDbArc
 50
291.4794003013771
 51
321.3321565091663
  0
ENDBLK
  5
901
330
8FF
100
AcDbEntity
  8
0
100
AcDbBlockEnd
  0
ENDSEC
  0
SECTION
  2
ENTITIES
  0
INSERT
  5
817
330
1F
100
AcDbEntity
  8
0
100
AcDbBlockReference
  2
1
 10
0.0
 20
0.0
 30
0.0
  0
INSERT
  5
8DC
330
1F
100
AcDbEntity
  8
0
100
AcDbBlockReference
  2
2
 10
0.0
 20
0.0
 30
0.0
  0
INSERT
  5
8FE
330
1F
100
AcDbEntity
  8
0
100
AcDbBlockReference
  2
3
 10
0.0
 20
0.0
 30
0.0
  0
INSERT
  5
9FD
330
1F
100
AcDbEntity
  8
0
100
AcDbBlockReference
  2
4
 10
0.0
 20
0.0
 30
0.0
  0
ENDSEC
  0
SECTION
  2
OBJECTS
  0
DICTIONARY
  5
C
330
0
100
AcDbDictionary
281
     1
  3
ACAD_COLOR
350
6B
  3
ACAD_GROUP
350
D
  3
ACAD_LAYOUT
350
1A
  3
ACAD_MATERIAL
350
6A
  3
ACAD_MLEADERSTYLE
350
12D
  3
ACAD_MLINESTYLE
350
17
  3
ACAD_PLOTSETTINGS
350
19
  3
ACAD_PLOTSTYLENAME
350
E
  3
ACAD_SCALELIST
350
10C
  3
ACAD_TABLESTYLE
350
7E
  3
ACAD_VISUALSTYLE
350
EF
  3
ACDB_RECOMPOSE_DATA
350
15D
  3
AcDbVariableDictionary
350
5E
  3
DWGPROPS
350
A0B
  0
DICTIONARY
  5
13C
330
10
100
AcDbDictionary
280
     1
281
     1
  3
ADSK_XREC_LAYER_RECONCILED
360
9FE
  0
DICTIONARY
  5
6B
102
{ACAD_REACTORS
330
C
102
}
330
C
100
AcDbDictionary
281
     1
  0
DICTIONARY
  5
D
102
{ACAD_REACTORS
330
C
102
}
330
C
100
AcDbDictionary
281
     1
  0
DICTIONARY
  5
1A
102
{ACAD_REACTORS
330
C
102
}
330
C
100
AcDbDictionary
281
     1
  3
Layout1
350
D3
  3
Layout2
350
D7
  3
Model
350
22
  0
DICTIONARY
  5
6A
102
{ACAD_REACTORS
330
C
102
}
330
C
100
AcDbDictionary
281
     1
  3
ByBlock
350
ED
  3
ByLayer
350
EC
  3
Global
350
EE
  0
DICTIONARY
  5
12D
102
{ACAD_REACTORS
330
C
102
}
330
C
100
AcDbDictionary
281
     1
  3
Annotative
350
13B
  3
Standard
350
12E
  0
DICTIONARY
  5
17
102
{ACAD_REACTORS
330
C
102
}
330
C
100
AcDbDictionary
281
     1
  3
Standard
350
18
  0
DICTIONARY
  5
19
102
{ACAD_REACTORS
330
C
102
}
330
C
100
AcDbDictionary
281
     1
  0
ACDBDICTIONARYWDFLT
  5
E
102
{ACAD_REACTORS
330
C
102
}
330
C
100
AcDbDictionary
281
     1
  3
Normal
350
F
100
AcDbDictionaryWithDefault
340
F
  0
DICTIONARY
  5
10C
102
{ACAD_REACTORS
330
C
102
}
330
C
100
AcDbDictionary
281
     1
  3
A0
350
10D
  3
A1
350
188
  3
A2
350
189
  3
A3
350
18A
  3
A4
350
18B
  3
A5
350
18C
  3
A6
350
18D
  3
A7
350
18E
  3
A8
350
18F
  3
A9
350
190
  3
B0
350
191
  3
B1
350
192
  3
B2
350
193
  3
B3
350
194
  3
B4
350
195
  3
B5
350
196
  3
B6
350
197
  3
B7
350
198
  3
B8
350
199
  3
B9
350
19A
  3
C0
350
19B
  3
C1
350
19C
  3
C2
350
19D
  3
C3
350
19E
  3
C4
350
19F
  3
C5
350
1A0
  3
C6
350
1A1
  3
C7
350
1A2
  3
C8
350
1A3
  3
C9
350
1A4
  3
D0
350
1A5
  3
D1
350
1A6
  3
D2
350
1A7
  0
DICTIONARY
  5
7E
102
{ACAD_REACTORS
330
C
102
}
330
C
100
AcDbDictionary
281
     1
  3
Standard
350
7F
  0
DICTIONARY
  5
EF
102
{ACAD_REACTORS
330
C
102
}
330
C
100
AcDbDictionary
281
     1
  3
2dWireframe
350
F5
  3
3D Hidden
350
F7
  3
3dWireframe
350
F6
  3
Basic
350
F4
  3
Brighten
350
FB
  3
ColorChange
350
FF
  3
Conceptual
350
F8
  3
Dim
350
FA
  3
Facepattern
350
FE
  3
Flat
350
F0
  3
FlatWithEdges
350
F1
  3
Gouraud
350
F2
  3
GouraudWithEdges
350
F3
  3
Linepattern
350
FD
  3
Realistic
350
F9
  3
Thicken
350
FC
  0
XRECORD
  5
15D
102
{ACAD_REACTORS
330
C
102
}
330
C
100
AcDbXrecord
280
     1
 90
        1
330
7F
  0
DICTIONARY
  5
5E
102
{ACAD_REACTORS
330
C
102
}
330
C
100
AcDbDictionary
281
     1
  3
CANNOSCALE
350
146
  3
CMLEADERSTYLE
350
145
  3
CTABLESTYLE
350
84
  3
DIMASSOC
350
5F
  3
HIDETEXT
350
63
  3
INDEXCTL
350
A07
  3
LIGHTINGUNITS
350
A05
  3
MSLTSCALE
350
A04
  3
PSOLHEIGHT
350
A09
  3
PSOLWIDTH
350
A08
  3
SORTENTS
350
A06
  0
XRECORD
  5
A0B
102
{ACAD_REACTORS
330
C
102
}
330
C
100
AcDbXrecord
280
     1
  1
DWGPROPS COOKIE
  2

  3

  4

  6

  7

  8
orhan kara
  9

300
=
301
=
302
=
303
=
304
=
305
=
306
=
307
=
308
=
309
=
 40
0.0003881365740741
 41
2458935.44368897
 42
2458956.461624757
  1

 90
        0
  0
XRECORD
  5
9FE
102
{ACAD_REACTORS
330
13C
102
}
330
13C
100
AcDbXrecord
280
     1
290
     1
  0
LAYOUT
  5
D3
102
{ACAD_XDICTIONARY
360
A0F
102
}
102
{ACAD_REACTORS
330
1A
102
}
330
1A
100
AcDbPlotSettings
  1

  2
C:\Documents and Settings\basas\Application Data\Autodesk\AutoCAD 2005\R16.1\enu\plotters\Default Windows System Printer.pc3
  4

  6

 40
0.0
 41
0.0
 42
0.0
 43
0.0
 44
0.0
 45
0.0
 46
0.0
 47
0.0
 48
0.0
 49
0.0
140
0.0
141
0.0
142
1.0
143
1.0
 70
   688
 72
     0
 73
     0
 74
     5
  7

 75
    16
147
1.0
148
0.0
149
0.0
100
AcDbLayout
  1
Layout1
 70
     1
 71
     1
 10
0.0
 20
0.0
 11
12.0
 21
9.0
 12
0.0
 22
0.0
 32
0.0
 14
0.0
 24
0.0
 34
0.0
 15
0.0
 25
0.0
 35
0.0
146
0.0
 13
0.0
 23
0.0
 33
0.0
 16
1.0
 26
0.0
 36
0.0
 17
0.0
 27
1.0
 37
0.0
 76
     0
330
D2
  0
LAYOUT
  5
D7
102
{ACAD_XDICTIONARY
360
A11
102
}
102
{ACAD_REACTORS
330
1A
102
}
330
1A
100
AcDbPlotSettings
  1

  2
C:\Documents and Settings\basas\Application Data\Autodesk\AutoCAD 2005\R16.1\enu\plotters\Default Windows System Printer.pc3
  4

  6

 40
0.0
 41
0.0
 42
0.0
 43
0.0
 44
0.0
 45
0.0
 46
0.0
 47
0.0
 48
0.0
 49
0.0
140
0.0
141
0.0
142
1.0
143
1.0
 70
   688
 72
     0
 73
     0
 74
     5
  7

 75
    16
147
1.0
148
0.0
149
0.0
100
AcDbLayout
  1
Layout2
 70
     1
 71
     2
 10
0.0
 20
0.0
 11
12.0
 21
9.0
 12
0.0
 22
0.0
 32
0.0
 14
0.0
 24
0.0
 34
0.0
 15
0.0
 25
0.0
 35
0.0
146
0.0
 13
0.0
 23
0.0
 33
0.0
 16
1.0
 26
0.0
 36
0.0
 17
0.0
 27
1.0
 37
0.0
 76
     0
330
D6
  0
LAYOUT
  5
22
102
{ACAD_XDICTIONARY
360
A0C
102
}
102
{ACAD_REACTORS
330
1A
102
}
330
1A
100
AcDbPlotSettings
  1

  2
none_device
  4
ISO_A4_(210.00_x_297.00_MM)
  6

 40
7.5
 41
20.0
 42
7.5
 43
20.0
 44
210.0
 45
297.0
 46
11.54999923706054
 47
-13.65000009536743
 48
0.0
 49
0.0
140
0.0
141
0.0
142
1.0
143
8.704084754739808
 70
 11952
 72
     1
 73
     0
 74
     0
  7

 75
     0
147
0.1148885871608098
148
0.0
149
0.0
100
AcDbLayout
  1
Model
 70
     1
 71
     0
 10
0.0
 20
0.0
 11
12.0
 21
9.0
 12
0.0
 22
0.0
 32
0.0
 14
0.0
 24
0.0
 34
0.0
 15
0.0
 25
0.0
 35
0.0
146
0.0
 13
0.0
 23
0.0
 33
0.0
 16
1.0
 26
0.0
 36
0.0
 17
0.0
 27
1.0
 37
0.0
 76
     0
330
1F
331
EA
1001
ACAD_PSEXT
1000
None
1000
None
1000
Not applicable
1000
The layout will not be plotted unless a new plotter configuration name is selected.
1070
     0
  0
MATERIAL
  5
ED
102
{ACAD_XDICTIONARY
360
A15
102
}
102
{ACAD_REACTORS
330
6A
102
}
330
6A
100
AcDbMaterial
  1
ByBlock
  0
MATERIAL
  5
EC
102
{ACAD_XDICTIONARY
360
A13
102
}
102
{ACAD_REACTORS
330
6A
102
}
330
6A
100
AcDbMaterial
  1
ByLayer
  0
MATERIAL
  5
EE
102
{ACAD_XDICTIONARY
360
173
102
}
102
{ACAD_REACTORS
330
6A
102
}
330
6A
100
AcDbMaterial
  1
Global
 43
0.0007999999797903
 43
0.0
 43
0.0
 43
0.0
 43
0.0
 43
0.0007999999797903
 43
0.0
 43
0.0
 43
0.0
 43
0.0
 43
1.0
 43
0.0
 43
0.0
 43
0.0
 43
0.0
 43
1.0
 49
0.0007999999797903
 49
0.0
 49
0.0
 49
0.0
 49
0.0
 49
0.0007999999797903
 49
0.0
 49
0.0
 49
0.0
 49
0.0
 49
1.0
 49
0.0
 49
0.0
 49
0.0
 49
0.0
 49
1.0
142
0.0007999999797903
142
0.0
142
0.0
142
0.0
142
0.0
142
0.0007999999797903
142
0.0
142
0.0
142
0.0
142
0.0
142
1.0
142
0.0
142
0.0
142
0.0
142
0.0
142
1.0
144
0.0007999999797903
144
0.0
144
0.0
144
0.0
144
0.0
144
0.0007999999797903
144
0.0
144
0.0
144
0.0
144
0.0
144
1.0
144
0.0
144
0.0
144
0.0
144
0.0
144
1.0
1001
ACAD
1070
    -1
1070
     3
1070
     0
1000

1071
        0
1070
     0
  0
MLEADERSTYLE
  5
13B
102
{ACAD_REACTORS
330
12D
102
}
330
12D
100
AcDbMLeaderStyle
170
     2
171
     1
172
     0
 90
        2
 40
0.0
 41
0.0
173
     1
 91
-1056964608
340
14
 92
       -2
290
     1
 42
2.0
291
     1
 43
8.0
  3
Standard
 44
4.0
300

342
11
174
     1
178
     1
175
     1
176
     0
 93
-1056964608
 45
4.0
292
     0
297
     0
 46
4.0
 94
-1056964608
 47
1.0
 49
1.0
140
1.0
293
     1
141
0.0
294
     1
177
     0
142
1.0
295
     0
296
     1
143
3.75
1001
ACAD_MLEADERVER
1070
     2
  0
MLEADERSTYLE
  5
12E
102
{ACAD_REACTORS
330
12D
102
}
330
12D
100
AcDbMLeaderStyle
170
     2
171
     1
172
     0
 90
        2
 40
0.0
 41
0.0
173
     1
 91
-1056964608
340
14
 92
       -2
290
     1
 42
2.0
291
     1
 43
8.0
  3
Standard
 44
4.0
300

342
11
174
     1
178
     1
175
     1
176
     0
 93
-1056964608
 45
4.0
292
     0
297
     0
 46
4.0
 94
-1056964608
 47
1.0
 49
1.0
140
1.0
293
     1
141
0.0
294
     1
177
     0
142
1.0
295
     0
296
     0
143
3.75
1001
ACAD_MLEADERVER
1070
     2
  0
MLINESTYLE
  5
18
102
{ACAD_REACTORS
330
17
102
}
330
17
100
AcDbMlineStyle
  2
STANDARD
 70
     0
  3

 62
   256
 51
90.0
 52
90.0
 71
     2
 49
0.5
 62
   256
  6
BYLAYER
 49
-0.5
 62
   256
  6
BYLAYER
  0
ACDBPLACEHOLDER
  5
F
102
{ACAD_REACTORS
330
E
102
}
330
E
  0
SCALE
  5
10D
102
{ACAD_REACTORS
330
10C
102
}
330
10C
100
AcDbScale
 70
     0
300
1:1
140
1.0
141
1.0
290
     1
  0
SCALE
  5
188
102
{ACAD_REACTORS
330
10C
102
}
330
10C
100
AcDbScale
 70
     0
300
1:2
140
1.0
141
2.0
290
     0
  0
SCALE
  5
189
102
{ACAD_REACTORS
330
10C
102
}
330
10C
100
AcDbScale
 70
     0
300
1:4
140
1.0
141
4.0
290
     0
  0
SCALE
  5
18A
102
{ACAD_REACTORS
330
10C
102
}
330
10C
100
AcDbScale
 70
     0
300
1:5
140
1.0
141
5.0
290
     0
  0
SCALE
  5
18B
102
{ACAD_REACTORS
330
10C
102
}
330
10C
100
AcDbScale
 70
     0
300
1:8
140
1.0
141
8.0
290
     0
  0
SCALE
  5
18C
102
{ACAD_REACTORS
330
10C
102
}
330
10C
100
AcDbScale
 70
     0
300
1:10
140
1.0
141
10.0
290
     0
  0
SCALE
  5
18D
102
{ACAD_REACTORS
330
10C
102
}
330
10C
100
AcDbScale
 70
     0
300
1:16
140
1.0
141
16.0
290
     0
  0
SCALE
  5
18E
102
{ACAD_REACTORS
330
10C
102
}
330
10C
100
AcDbScale
 70
     0
300
1:20
140
1.0
141
20.0
290
     0
  0
SCALE
  5
18F
102
{ACAD_REACTORS
330
10C
102
}
330
10C
100
AcDbScale
 70
     0
300
1:30
140
1.0
141
30.0
290
     0
  0
SCALE
  5
190
102
{ACAD_REACTORS
330
10C
102
}
330
10C
100
AcDbScale
 70
     0
300
1:40
140
1.0
141
40.0
290
     0
  0
SCALE
  5
191
102
{ACAD_REACTORS
330
10C
102
}
330
10C
100
AcDbScale
 70
     0
300
1:50
140
1.0
141
50.0
290
     0
  0
SCALE
  5
192
102
{ACAD_REACTORS
330
10C
102
}
330
10C
100
AcDbScale
 70
     0
300
1:100
140
1.0
141
100.0
290
     0
  0
SCALE
  5
193
102
{ACAD_REACTORS
330
10C
102
}
330
10C
100
AcDbScale
 70
     0
300
2:1
140
2.0
141
1.0
290
     0
  0
SCALE
  5
194
102
{ACAD_REACTORS
330
10C
102
}
330
10C
100
AcDbScale
 70
     0
300
4:1
140
4.0
141
1.0
290
     0
  0
SCALE
  5
195
102
{ACAD_REACTORS
330
10C
102
}
330
10C
100
AcDbScale
 70
     0
300
8:1
140
8.0
141
1.0
290
     0
  0
SCALE
  5
196
102
{ACAD_REACTORS
330
10C
102
}
330
10C
100
AcDbScale
 70
     0
300
10:1
140
10.0
141
1.0
290
     0
  0
SCALE
  5
197
102
{ACAD_REACTORS
330
10C
102
}
330
10C
100
AcDbScale
 70
     0
300
100:1
140
100.0
141
1.0
290
     0
  0
SCALE
  5
198
102
{ACAD_REACTORS
330
10C
102
}
330
10C
100
AcDbScale
 70
     0
300
1/128" = 1'-0"
140
0.0078125
141
12.0
290
     0
  0
SCALE
  5
199
102
{ACAD_REACTORS
330
10C
102
}
330
10C
100
AcDbScale
 70
     0
300
1/64" = 1'-0"
140
0.015625
141
12.0
290
     0
  0
SCALE
  5
19A
102
{ACAD_REACTORS
330
10C
102
}
330
10C
100
AcDbScale
 70
     0
300
1/32" = 1'-0"
140
0.03125
141
12.0
290
     0
  0
SCALE
  5
19B
102
{ACAD_REACTORS
330
10C
102
}
330
10C
100
AcDbScale
 70
     0
300
1/16" = 1'-0"
140
0.0625
141
12.0
290
     0
  0
SCALE
  5
19C
102
{ACAD_REACTORS
330
10C
102
}
330
10C
100
AcDbScale
 70
     0
300
3/32" = 1'-0"
140
0.09375
141
12.0
290
     0
  0
SCALE
  5
19D
102
{ACAD_REACTORS
330
10C
102
}
330
10C
100
AcDbScale
 70
     0
300
1/8" = 1'-0"
140
0.125
141
12.0
290
     0
  0
SCALE
  5
19E
102
{ACAD_REACTORS
330
10C
102
}
330
10C
100
AcDbScale
 70
     0
300
3/16" = 1'-0"
140
0.1875
141
12.0
290
     0
  0
SCALE
  5
19F
102
{ACAD_REACTORS
330
10C
102
}
330
10C
100
AcDbScale
 70
     0
300
1/4" = 1'-0"
140
0.25
141
12.0
290
     0
  0
SCALE
  5
1A0
102
{ACAD_REACTORS
330
10C
102
}
330
10C
100
AcDbScale
 70
     0
300
3/8" = 1'-0"
140
0.375
141
12.0
290
     0
  0
SCALE
  5
1A1
102
{ACAD_REACTORS
330
10C
102
}
330
10C
100
AcDbScale
 70
     0
300
1/2" = 1'-0"
140
0.5
141
12.0
290
     0
  0
SCALE
  5
1A2
102
{ACAD_REACTORS
330
10C
102
}
330
10C
100
AcDbScale
 70
     0
300
3/4" = 1'-0"
140
0.75
141
12.0
290
     0
  0
SCALE
  5
1A3
102
{ACAD_REACTORS
330
10C
102
}
330
10C
100
AcDbScale
 70
     0
300
1" = 1'-0"
140
1.0
141
12.0
290
     0
  0
SCALE
  5
1A4
102
{ACAD_REACTORS
330
10C
102
}
330
10C
100
AcDbScale
 70
     0
300
1-1/2" = 1'-0"
140
1.5
141
12.0
290
     0
  0
SCALE
  5
1A5
102
{ACAD_REACTORS
330
10C
102
}
330
10C
100
AcDbScale
 70
     0
300
3" = 1'-0"
140
3.0
141
12.0
290
     0
  0
SCALE
  5
1A6
102
{ACAD_REACTORS
330
10C
102
}
330
10C
100
AcDbScale
 70
     0
300
6" = 1'-0"
140
6.0
141
12.0
290
     0
  0
SCALE
  5
1A7
102
{ACAD_REACTORS
330
10C
102
}
330
10C
100
AcDbScale
 70
     0
300
1'-0" = 1'-0"
140
12.0
141
12.0
290
     0
  0
TABLESTYLE
  5
7F
102
{ACAD_XDICTIONARY
360
162
102
}
102
{ACAD_REACTORS
330
7E
102
}
330
7E
100
AcDbTableStyle
  3
Standard
 70
     0
 71
     0
 40
1.5
 41
1.5
280
     0
281
     0
  7
Standard
140
4.5
170
     2
 62
     0
 63
     7
283
     0
274
    -2
284
     1
 64
     0
275
    -2
285
     1
 65
     0
276
    -2
286
     1
 66
     0
277
    -2
287
     1
 67
     0
278
    -2
288
     1
 68
     0
279
    -2
289
     1
 69
     0
  7
Standard
140
6.0
170
     5
 62
     0
 63
     7
283
     0
274
    -2
284
     1
 64
     0
275
    -2
285
     1
 65
     0
276
    -2
286
     1
 66
     0
277
    -2
287
     1
 67
     0
278
    -2
288
     1
 68
     0
279
    -2
289
     1
 69
     0
  7
Standard
140
4.5
170
     5
 62
     0
 63
     7
283
     0
274
    -2
284
     1
 64
     0
275
    -2
285
     1
 65
     0
276
    -2
286
     1
 66
     0
277
    -2
287
     1
 67
     0
278
    -2
288
     1
 68
     0
279
    -2
289
     1
 69
     0
  0
VISUALSTYLE
  5
F5
102
{ACAD_REACTORS
330
EF
102
}
330
EF
100
AcDbVisualStyle
  2
2dWireframe
 70
     4
 71
     0
 72
     2
 73
     1
 90
        0
 40
-0.6
 41
-30.0
 62
     5
 63
     7
 74
     1
 91
        4
 64
     7
 65
   257
 75
     1
175
     1
 42
1.0
 92
        0
 66
   257
 43
1.0
 76
     1
 77
     6
 78
     2
 67
     7
 79
     5
170
     0
171
     0
290
     0
174
     0
 93
        1
 44
0.0
173
     0
291
     0
 45
0.0
1001
ACAD
1000
AcDbSavedByObjectVersion
1070
     0
  0
VISUALSTYLE
  5
F7
102
{ACAD_REACTORS
330
EF
102
}
330
EF
100
AcDbVisualStyle
  2
3D Hidden
 70
     6
 71
     1
 72
     2
 73
     2
 90
        0
 40
-0.6
 41
-30.0
 62
     5
 63
     7
 74
     2
 91
        2
 64
     7
 65
   257
 75
     2
175
     1
 42
40.0
 92
        0
 66
   257
 43
1.0
 76
     1
 77
     6
 78
     2
 67
     7
 79
     3
170
     0
171
     0
290
     0
174
     0
 93
        1
 44
0.0
173
     0
291
     0
 45
0.0
1001
ACAD
1000
AcDbSavedByObjectVersion
1070
     0
  0
VISUALSTYLE
  5
F6
102
{ACAD_REACTORS
330
EF
102
}
330
EF
100
AcDbVisualStyle
  2
3dWireframe
 70
     5
 71
     0
 72
     2
 73
     1
 90
        0
 40
-0.6
 41
-30.0
 62
     5
 63
     7
 74
     1
 91
        4
 64
     7
 65
   257
 75
     1
175
     1
 42
1.0
 92
        0
 66
   257
 43
1.0
 76
     1
 77
     6
 78
     2
 67
     7
 79
     5
170
     0
171
     0
290
     0
174
     0
 93
        1
 44
0.0
173
     0
291
     0
 45
0.0
1001
ACAD
1000
AcDbSavedByObjectVersion
1070
     0
  0
VISUALSTYLE
  5
F4
102
{ACAD_REACTORS
330
EF
102
}
330
EF
100
AcDbVisualStyle
  2
Basic
 70
     7
 71
     1
 72
     0
 73
     1
 90
        0
 40
-0.6
 41
-30.0
 62
     5
 63
     7
 74
     0
 91
        4
 64
     7
 65
   257
 75
     1
175
     1
 42
1.0
 92
        8
 66
     7
 43
1.0
 76
     1
 77
     6
 78
     2
 67
     7
 79
     5
170
     0
171
     0
290
     0
174
     0
 93
        1
 44
0.0
173
     0
291
     1
 45
0.0
1001
ACAD
1000
AcDbSavedByObjectVersion
1070
     0
  0
VISUALSTYLE
  5
FB
102
{ACAD_REACTORS
330
EF
102
}
330
EF
100
AcDbVisualStyle
  2
Brighten
 70
    12
 71
     2
 72
     2
 73
     1
 90
        0
 40
-0.6
 41
-30.0
 62
     5
 63
     7
 74
     1
 91
        4
 64
     7
 65
   257
 75
     1
175
     1
 42
1.0
 92
        8
 66
     7
 43
1.0
 76
     1
 77
     6
 78
     2
 67
     7
 79
     5
170
     0
171
     0
290
     0
174
     0
 93
        1
 44
50.0
173
     0
291
     1
 45
0.0
1001
ACAD
1000
AcDbSavedByObjectVersion
1070
     0
  0
VISUALSTYLE
  5
FF
102
{ACAD_REACTORS
330
EF
102
}
330
EF
100
AcDbVisualStyle
  2
ColorChange
 70
    16
 71
     2
 72
     2
 73
     3
 90
        0
 40
-0.6
 41
-30.0
 62
     5
 63
     8
 74
     1
 91
        4
 64
     7
 65
   257
 75
     1
175
     1
 42
1.0
 92
        8
 66
     8
 43
1.0
 76
     1
 77
     6
 78
     2
 67
     7
 79
     5
170
     0
171
     0
290
     0
174
     0
 93
        1
 44
0.0
173
     0
291
     1
 45
0.0
1001
ACAD
1000
AcDbSavedByObjectVersion
1070
     0
  0
VISUALSTYLE
  5
F8
102
{ACAD_REACTORS
330
EF
102
}
330
EF
100
AcDbVisualStyle
  2
Conceptual
 70
     9
 71
     3
 72
     2
 73
     1
 90
        0
 40
-0.6
 41
-30.0
 62
     5
 63
     7
 74
     2
 91
        2
 64
     7
 65
   257
 75
     1
175
     1
 42
40.0
 92
        8
 66
     7
 43
1.0
 76
     1
 77
     6
 78
     2
 67
     7
 79
     3
170
     0
171
     0
290
     0
174
     0
 93
        1
 44
0.0
173
     0
291
     0
 45
0.0
1001
ACAD
1000
AcDbSavedByObjectVersion
1070
     0
  0
VISUALSTYLE
  5
FA
102
{ACAD_REACTORS
330
EF
102
}
330
EF
100
AcDbVisualStyle
  2
Dim
 70
    11
 71
     2
 72
     2
 73
     1
 90
        0
 40
-0.6
 41
-30.0
 62
     5
 63
     7
 74
     1
 91
        4
 64
     7
 65
   257
 75
     1
175
     1
 42
1.0
 92
        8
 66
     7
 43
1.0
 76
     1
 77
     6
 78
     2
 67
     7
 79
     5
170
     0
171
     0
290
     0
174
     0
 93
        1
 44
-50.0
173
     0
291
     1
 45
0.0
1001
ACAD
1000
AcDbSavedByObjectVersion
1070
     0
  0
VISUALSTYLE
  5
FE
102
{ACAD_REACTORS
330
EF
102
}
330
EF
100
AcDbVisualStyle
  2
Facepattern
 70
    15
 71
     2
 72
     2
 73
     1
 90
        0
 40
-0.6
 41
-30.0
 62
     5
 63
     7
 74
     1
 91
        4
 64
     7
 65
   257
 75
     1
175
     1
 42
1.0
 92
        8
 66
     7
 43
1.0
 76
     1
 77
     6
 78
     2
 67
     7
 79
     5
170
     0
171
     0
290
     0
174
     0
 93
        1
 44
0.0
173
     0
291
     1
 45
0.0
1001
ACAD
1000
AcDbSavedByObjectVersion
1070
     0
  0
VISUALSTYLE
  5
F0
102
{ACAD_REACTORS
330
EF
102
}
330
EF
100
AcDbVisualStyle
  2
Flat
 70
     0
 71
     2
 72
     1
 73
     1
 90
        2
 40
-0.6
 41
30.0
 62
     5
 63
     7
 74
     0
 91
        4
 64
     7
 65
   257
 75
     1
175
     1
 42
1.0
 92
        8
 66
     7
 43
1.0
 76
     1
 77
     6
 78
     2
 67
     7
 79
     5
170
     0
171
     0
290
     0
174
     0
 93
        1
 44
0.0
173
     0
291
     1
 45
0.0
1001
ACAD
1000
AcDbSavedByObjectVersion
1070
     0
  0
VISUALSTYLE
  5
F1
102
{ACAD_REACTORS
330
EF
102
}
330
EF
100
AcDbVisualStyle
  2
FlatWithEdges
 70
     1
 71
     2
 72
     1
 73
     1
 90
        2
 40
-0.6
 41
30.0
 62
     5
 63
     7
 74
     1
 91
        4
 64
     7
 65
   257
 75
     1
175
     1
 42
1.0
 92
        0
 66
   257
 43
1.0
 76
     1
 77
     6
 78
     2
 67
     7
 79
     5
170
     0
171
     0
290
     0
174
     0
 93
        1
 44
0.0
173
     0
291
     1
 45
0.0
1001
ACAD
1000
AcDbSavedByObjectVersion
1070
     0
  0
VISUALSTYLE
  5
F2
102
{ACAD_REACTORS
330
EF
102
}
330
EF
100
AcDbVisualStyle
  2
Gouraud
 70
     2
 71
     2
 72
     2
 73
     1
 90
        2
 40
-0.6
 41
30.0
 62
     5
 63
     7
 74
     0
 91
        4
 64
     7
 65
   257
 75
     1
175
     1
 42
1.0
 92
        0
 66
     7
 43
1.0
 76
     1
 77
     6
 78
     2
 67
     7
 79
     5
170
     0
171
     0
290
     0
174
     0
 93
        1
 44
0.0
173
     0
291
     1
 45
0.0
1001
ACAD
1000
AcDbSavedByObjectVersion
1070
     0
  0
VISUALSTYLE
  5
F3
102
{ACAD_REACTORS
330
EF
102
}
330
EF
100
AcDbVisualStyle
  2
GouraudWithEdges
 70
     3
 71
     2
 72
     2
 73
     1
 90
        2
 40
-0.6
 41
30.0
 62
     5
 63
     7
 74
     1
 91
        4
 64
     7
 65
   257
 75
     1
175
     1
 42
1.0
 92
        0
 66
   257
 43
1.0
 76
     1
 77
     6
 78
     2
 67
     7
 79
     5
170
     0
171
     0
290
     0
174
     0
 93
        1
 44
0.0
173
     0
291
     1
 45
0.0
1001
ACAD
1000
AcDbSavedByObjectVersion
1070
     0
  0
VISUALSTYLE
  5
FD
102
{ACAD_REACTORS
330
EF
102
}
330
EF
100
AcDbVisualStyle
  2
Linepattern
 70
    14
 71
     2
 72
     2
 73
     1
 90
        0
 40
-0.6
 41
-30.0
 62
     5
 63
     7
 74
     1
 91
        4
 64
     7
 65
   257
 75
     7
175
     7
 42
1.0
 92
        8
 66
     7
 43
1.0
 76
     1
 77
     6
 78
     2
 67
     7
 79
     5
170
     0
171
     0
290
     0
174
     0
 93
        1
 44
0.0
173
     0
291
     1
 45
0.0
1001
ACAD
1000
AcDbSavedByObjectVersion
1070
     0
  0
VISUALSTYLE
  5
F9
102
{ACAD_REACTORS
330
EF
102
}
330
EF
100
AcDbVisualStyle
  2
Realistic
 70
     8
 71
     2
 72
     2
 73
     1
 90
        0
 40
-0.6
 41
-30.0
 62
     5
 63
     7
 74
     1
 91
        0
 64
     7
 65
   257
 75
     1
175
     1
 42
1.0
 92
        8
 66
     8
 43
1.0
 76
     1
 77
     6
 78
     2
 67
     7
 79
     5
170
     0
171
     0
290
     0
174
     0
 93
       13
 44
0.0
173
     0
291
     0
 45
0.0
1001
ACAD
1000
AcDbSavedByObjectVersion
1070
     0
  0
VISUALSTYLE
  5
FC
102
{ACAD_REACTORS
330
EF
102
}
330
EF
100
AcDbVisualStyle
  2
Thicken
 70
    13
 71
     2
 72
     2
 73
     1
 90
        0
 40
-0.6
 41
-30.0
 62
     5
 63
     7
 74
     1
 91
        4
 64
     7
 65
   257
 75
     1
175
     1
 42
1.0
 92
       12
 66
     7
 43
1.0
 76
     1
 77
     6
 78
     2
 67
     7
 79
     5
170
     0
171
     0
290
     0
174
     0
 93
        1
 44
0.0
173
     0
291
     1
 45
0.0
1001
ACAD
1000
AcDbSavedByObjectVersion
1070
     0
  0
DICTIONARYVAR
  5
146
102
{ACAD_REACTORS
330
5E
102
}
330
5E
100
DictionaryVariables
280
     0
  1
1:1
  0
DICTIONARYVAR
  5
145
102
{ACAD_REACTORS
330
5E
102
}
330
5E
100
DictionaryVariables
280
     0
  1
STANDARD
  0
DICTIONARYVAR
  5
84
102
{ACAD_REACTORS
330
5E
102
}
330
5E
100
DictionaryVariables
280
     0
  1
STANDARD
  0
DICTIONARYVAR
  5
5F
102
{ACAD_REACTORS
330
5E
102
}
330
5E
100
DictionaryVariables
280
     0
  1
2
  0
DICTIONARYVAR
  5
63
102
{ACAD_REACTORS
330
5E
102
}
330
5E
100
DictionaryVariables
280
     0
  1
1
  0
DICTIONARYVAR
  5
A07
102
{ACAD_REACTORS
330
5E
102
}
330
5E
100
DictionaryVariables
280
     0
  1
0
  0
DICTIONARYVAR
  5
A05
102
{ACAD_REACTORS
330
5E
102
}
330
5E
100
DictionaryVariables
280
     0
  1
2
  0
DICTIONARYVAR
  5
A04
102
{ACAD_REACTORS
330
5E
102
}
330
5E
100
DictionaryVariables
280
     0
  1
1
  0
DICTIONARYVAR
  5
A09
102
{ACAD_REACTORS
330
5E
102
}
330
5E
100
DictionaryVariables
280
     0
  1
80.000000
  0
DICTIONARYVAR
  5
A08
102
{ACAD_REACTORS
330
5E
102
}
330
5E
100
DictionaryVariables
280
     0
  1
5.000000
  0
DICTIONARYVAR
  5
A06
102
{ACAD_REACTORS
330
5E
102
}
330
5E
100
DictionaryVariables
280
     0
  1
127
  0
DICTIONARY
  5
A0F
330
D3
100
AcDbDictionary
280
     1
281
     1
  3
ACAD_XREC_ROUNDTRIP
360
A10
  0
DICTIONARY
  5
A11
330
D7
100
AcDbDictionary
280
     1
281
     1
  3
ACAD_XREC_ROUNDTRIP
360
A12
  0
DICTIONARY
  5
A0C
330
22
100
AcDbDictionary
280
     1
281
     1
  3
ACAD_XREC_ROUNDTRIP
360
A0D
  0
DICTIONARY
  5
A15
330
ED
100
AcDbDictionary
280
     1
281
     1
  3
ACAD_XREC_ROUNDTRIP
360
A16
  0
DICTIONARY
  5
A13
330
EC
100
AcDbDictionary
280
     1
281
     1
  3
ACAD_XREC_ROUNDTRIP
360
A14
  0
DICTIONARY
  5
173
330
EE
100
AcDbDictionary
280
     1
281
     1
  3
ACAD_XREC_ROUNDTRIP
360
A17
  3
BUMPTILE
360
175
  3
DIFFUSETILE
360
174
  3
OPACITYTILE
360
176
  3
REFLECTIONTILE
360
177
  0
DICTIONARY
  5
162
330
7F
100
AcDbDictionary
280
     1
281
     1
  3
ACAD_ROUNDTRIP_2008_TABLESTYLE_CELLSTYLEMAP
360
A0A
  3
ACAD_XREC_ROUNDTRIP
360
A0E
  0
XRECORD
  5
A10
102
{ACAD_REACTORS
330
A0F
102
}
330
A0F
100
AcDbXrecord
280
     1
102
SHADEPLOT
 70
     0
102
SHADEPLOTRESLEVEL
 70
     2
102
SHADEPLOTCUSTOMDPI
 70
   300
  0
XRECORD
  5
A12
102
{ACAD_REACTORS
330
A11
102
}
330
A11
100
AcDbXrecord
280
     1
102
SHADEPLOT
 70
     0
102
SHADEPLOTRESLEVEL
 70
     2
102
SHADEPLOTCUSTOMDPI
 70
   300
  0
XRECORD
  5
A0D
102
{ACAD_REACTORS
330
A0C
102
}
330
A0C
100
AcDbXrecord
280
     1
102
SHADEPLOT
 70
     0
102
SHADEPLOTRESLEVEL
 70
     2
102
SHADEPLOTCUSTOMDPI
 70
   300
  0
XRECORD
  5
A16
102
{ACAD_REACTORS
330
A15
102
}
330
A15
100
AcDbXrecord
280
     1
102
MATERIAL
148
0.0
149
0.0
149
0.0
 93
        0
 94
       63
282
     0
 72
     1
 77
     1
171
     1
175
     1
179
     1
273
     0
  0
XRECORD
  5
A14
102
{ACAD_REACTORS
330
A13
102
}
330
A13
100
AcDbXrecord
280
     1
102
MATERIAL
148
0.0
149
0.0
149
0.0
 93
        0
 94
       63
282
     0
 72
     1
 77
     1
171
     1
175
     1
179
     1
273
     0
  0
XRECORD
  5
A17
102
{ACAD_REACTORS
330
173
102
}
330
173
100
AcDbXrecord
280
     1
102
MATERIAL
148
0.0
149
0.0
149
0.0
 93
        0
 94
       63
282
     0
 72
     1
 77
     1
171
     1
175
     1
179
     1
273
     0
  0
XRECORD
  5
175
102
{ACAD_REACTORS
330
173
102
}
330
173
100
AcDbXrecord
280
     1
270
     1
271
     1
  0
XRECORD
  5
174
102
{ACAD_REACTORS
330
173
102
}
330
173
100
AcDbXrecord
280
     1
270
     1
271
     1
  0
XRECORD
  5
176
102
{ACAD_REACTORS
330
173
102
}
330
173
100
AcDbXrecord
280
     1
270
     1
271
     1
  0
XRECORD
  5
177
102
{ACAD_REACTORS
330
173
102
}
330
173
100
AcDbXrecord
280
     1
270
     1
271
     1
  0
CELLSTYLEMAP
  5
A0A
102
{ACAD_REACTORS
330
162
102
}
330
162
100
AcDbCellStyleMap
 90
        3
300
CELLSTYLE
  1
TABLEFORMAT_BEGIN
 90
        5
170
     1
 91
        0
 92
    32768
 62
   257
 93
        1
300
CONTENTFORMAT
  1
CONTENTFORMAT_BEGIN
 90
        0
 91
        0
 92
      512
 93
        0
300

 40
0.0
140
1.0
 94
        5
 62
     0
340
11
144
6.0
309
CONTENTFORMAT_END
171
     1
301
MARGIN
  1
CELLMARGIN_BEGIN
 40
1.5
 40
1.5
 40
1.5
 40
1.5
 40
4.5
 40
4.5
309
CELLMARGIN_END
 94
        6
 95
        1
302
GRIDFORMAT
  1
GRIDFORMAT_BEGIN
 90
        0
 91
        1
 62
     0
 92
       -2
340
14
 93
        0
 40
1.125
309
GRIDFORMAT_END
 95
        2
302
GRIDFORMAT
  1
GRIDFORMAT_BEGIN
 90
        0
 91
        1
 62
     0
 92
       -2
340
14
 93
        0
 40
1.125
309
GRIDFORMAT_END
 95
        4
302
GRIDFORMAT
  1
GRIDFORMAT_BEGIN
 90
        0
 91
        1
 62
     0
 92
       -2
340
14
 93
        0
 40
1.125
309
GRIDFORMAT_END
 95
        8
302
GRIDFORMAT
  1
GRIDFORMAT_BEGIN
 90
        0
 91
        1
 62
     0
 92
       -2
340
14
 93
        0
 40
1.125
309
GRIDFORMAT_END
 95
       16
302
GRIDFORMAT
  1
GRIDFORMAT_BEGIN
 90
        0
 91
        1
 62
     0
 92
       -2
340
14
 93
        0
 40
1.125
309
GRIDFORMAT_END
 95
       32
302
GRIDFORMAT
  1
GRIDFORMAT_BEGIN
 90
        0
 91
        1
 62
     0
 92
       -2
340
14
 93
        0
 40
1.125
309
GRIDFORMAT_END
309
TABLEFORMAT_END
  1
CELLSTYLE_BEGIN
 90
        1
 91
        1
300
_TITLE
309
CELLSTYLE_END
300
CELLSTYLE
  1
TABLEFORMAT_BEGIN
 90
        5
170
     1
 91
        0
 92
        0
 62
   257
 93
        1
300
CONTENTFORMAT
  1
CONTENTFORMAT_BEGIN
 90
        0
 91
        0
 92
      512
 93
        0
300

 40
0.0
140
1.0
 94
        5
 62
     0
340
11
144
4.5
309
CONTENTFORMAT_END
171
     1
301
MARGIN
  1
CELLMARGIN_BEGIN
 40
1.5
 40
1.5
 40
1.5
 40
1.5
 40
4.5
 40
4.5
309
CELLMARGIN_END
 94
        6
 95
        1
302
GRIDFORMAT
  1
GRIDFORMAT_BEGIN
 90
        0
 91
        1
 62
     0
 92
       -2
340
14
 93
        0
 40
1.125
309
GRIDFORMAT_END
 95
        2
302
GRIDFORMAT
  1
GRIDFORMAT_BEGIN
 90
        0
 91
        1
 62
     0
 92
       -2
340
14
 93
        0
 40
1.125
309
GRIDFORMAT_END
 95
        4
302
GRIDFORMAT
  1
GRIDFORMAT_BEGIN
 90
        0
 91
        1
 62
     0
 92
       -2
340
14
 93
        0
 40
1.125
309
GRIDFORMAT_END
 95
        8
302
GRIDFORMAT
  1
GRIDFORMAT_BEGIN
 90
        0
 91
        1
 62
     0
 92
       -2
340
14
 93
        0
 40
1.125
309
GRIDFORMAT_END
 95
       16
302
GRIDFORMAT
  1
GRIDFORMAT_BEGIN
 90
        0
 91
        1
 62
     0
 92
       -2
340
14
 93
        0
 40
1.125
309
GRIDFORMAT_END
 95
       32
302
GRIDFORMAT
  1
GRIDFORMAT_BEGIN
 90
        0
 91
        1
 62
     0
 92
       -2
340
14
 93
        0
 40
1.125
309
GRIDFORMAT_END
309
TABLEFORMAT_END
  1
CELLSTYLE_BEGIN
 90
        2
 91
        1
300
_HEADER
309
CELLSTYLE_END
300
CELLSTYLE
  1
TABLEFORMAT_BEGIN
 90
        5
170
     1
 91
        0
 92
        0
 62
   257
 93
        1
300
CONTENTFORMAT
  1
CONTENTFORMAT_BEGIN
 90
        0
 91
        0
 92
      512
 93
        0
300

 40
0.0
140
1.0
 94
        2
 62
     0
340
11
144
4.5
309
CONTENTFORMAT_END
171
     1
301
MARGIN
  1
CELLMARGIN_BEGIN
 40
1.5
 40
1.5
 40
1.5
 40
1.5
 40
4.5
 40
4.5
309
CELLMARGIN_END
 94
        6
 95
        1
302
GRIDFORMAT
  1
GRIDFORMAT_BEGIN
 90
        0
 91
        1
 62
     0
 92
       -2
340
14
 93
        0
 40
1.125
309
GRIDFORMAT_END
 95
        2
302
GRIDFORMAT
  1
GRIDFORMAT_BEGIN
 90
        0
 91
        1
 62
     0
 92
       -2
340
14
 93
        0
 40
1.125
309
GRIDFORMAT_END
 95
        4
302
GRIDFORMAT
  1
GRIDFORMAT_BEGIN
 90
        0
 91
        1
 62
     0
 92
       -2
340
14
 93
        0
 40
1.125
309
GRIDFORMAT_END
 95
        8
302
GRIDFORMAT
  1
GRIDFORMAT_BEGIN
 90
        0
 91
        1
 62
     0
 92
       -2
340
14
 93
        0
 40
1.125
309
GRIDFORMAT_END
 95
       16
302
GRIDFORMAT
  1
GRIDFORMAT_BEGIN
 90
        0
 91
        1
 62
     0
 92
       -2
340
14
 93
        0
 40
1.125
309
GRIDFORMAT_END
 95
       32
302
GRIDFORMAT
  1
GRIDFORMAT_BEGIN
 90
        0
 91
        1
 62
     0
 92
       -2
340
14
 93
        0
 40
1.125
309
GRIDFORMAT_END
309
TABLEFORMAT_END
  1
CELLSTYLE_BEGIN
 90
        3
 91
        2
300
_DATA
309
CELLSTYLE_END
  0
XRECORD
  5
A0E
102
{ACAD_REACTORS
330
162
102
}
330
162
100
AcDbXrecord
280
     1
102
ACAD_ROUNDTRIP_PRE2007_TABLESTYLE
 90
      512
 91
        0
  1

 92
      512
 93
        0
  2

 94
      512
 95
        0
  3

  0
ENDSEC
  0
EOF
