  0
SECTION
  2
HEADER
  9
$ACADVER
  1
AC1015
  9
$ACADMAINTVER
 70
    20
  9
$DWGCODEPAGE
  3
ANSI_1254
  9
$INSBASE
 10
0.0
 20
0.0
 30
0.0
  9
$EXTMIN
 10
2179.014831088581
 20
902.357400926985
 30
0.0
  9
$EXTMAX
 10
2385.7648695549
 20
955.917269028262
 30
0.0
  9
$LIMMIN
 10
0.0
 20
0.0
  9
$LIMMAX
 10
420.0
 20
297.0
  9
$ORTHOMODE
 70
     0
  9
$REGENMODE
 70
     1
  9
$FILLMODE
 70
     1
  9
$QTEXTMODE
 70
     0
  9
$MIRRTEXT
 70
     0
  9
$LTSCALE
 40
1.0
  9
$ATTMODE
 70
     1
  9
$TEXTSIZE
 40
2.5
  9
$TRACEWID
 40
1.0
  9
$TEXTSTYLE
  7
Standard
  9
$CLAYER
  8
0
  9
$CELTYPE
  6
ByLayer
  9
$CECOLOR
 62
   256
  9
$CELTSCALE
 40
1.0
  9
$DISPSILH
 70
     0
  9
$DIMSCALE
 40
1.0
  9
$DIMASZ
 40
2.5
  9
$DIMEXO
 40
0.625
  9
$DIMDLI
 40
3.75
  9
$DIMRND
 40
0.0
  9
$DIMDLE
 40
0.0
  9
$DIMEXE
 40
1.25
  9
$DIMTP
 40
0.0
  9
$DIMTM
 40
0.0
  9
$DIMTXT
 40
2.5
  9
$DIMCEN
 40
2.5
  9
$DIMTSZ
 40
0.0
  9
$DIMTOL
 70
     0
  9
$DIMLIM
 70
     0
  9
$DIMTIH
 70
     0
  9
$DIMTOH
 70
     0
  9
$DIMSE1
 70
     0
  9
$DIMSE2
 70
     0
  9
$DIMTAD
 70
     1
  9
$DIMZIN
 70
     8
  9
$DIMBLK
  1

  9
$DIMASO
 70
     1
  9
$DIMSHO
 70
     1
  9
$DIMPOST
  1

  9
$DIMAPOST
  1

  9
$DIMALT
 70
     0
  9
$DIMALTD
 70
     3
  9
$DIMALTF
 40
0.03937007874016
  9
$DIMLFAC
 40
1.0
  9
$DIMTOFL
 70
     1
  9
$DIMTVP
 40
0.0
  9
$DIMTIX
 70
     0
  9
$DIMSOXD
 70
     0
  9
$DIMSAH
 70
     0
  9
$DIMBLK1
  1

  9
$DIMBLK2
  1

  9
$DIMSTYLE
  2
ISO-25
  9
$DIMCLRD
 70
     0
  9
$DIMCLRE
 70
     0
  9
$DIMCLRT
 70
     0
  9
$DIMTFAC
 40
1.0
  9
$DIMGAP
 40
0.625
  9
$DIMJUST
 70
     0
  9
$DIMSD1
 70
     0
  9
$DIMSD2
 70
     0
  9
$DIMTOLJ
 70
     0
  9
$DIMTZIN
 70
     8
  9
$DIMALTZ
 70
     0
  9
$DIMALTTZ
 70
     0
  9
$DIMUPT
 70
     0
  9
$DIMDEC
 70
     2
  9
$DIMTDEC
 70
     2
  9
$DIMALTU
 70
     2
  9
$DIMALTTD
 70
     3
  9
$DIMTXSTY
  7
Standard
  9
$DIMAUNIT
 70
     0
  9
$DIMADEC
 70
     0
  9
$DIMALTRND
 40
0.0
  9
$DIMAZIN
 70
     0
  9
$DIMDSEP
 70
    44
  9
$DIMATFIT
 70
     3
  9
$DIMFRAC
 70
     0
  9
$DIMLDRBLK
  1

  9
$DIMLUNIT
 70
     2
  9
$DIMLWD
 70
    -2
  9
$DIMLWE
 70
    -2
  9
$DIMTMOVE
 70
     0
  9
$LUNITS
 70
     2
  9
$LUPREC
 70
     4
  9
$SKETCHINC
 40
1.0
  9
$FILLETRAD
 40
0.0
  9
$AUNITS
 70
     0
  9
$AUPREC
 70
     0
  9
$MENU
  1
.
  9
$ELEVATION
 40
0.0
  9
$PELEVATION
 40
0.0
  9
$THICKNESS
 40
0.0
  9
$LIMCHECK
 70
     0
  9
$CHAMFERA
 40
0.0
  9
$CHAMFERB
 40
0.0
  9
$CHAMFERC
 40
0.0
  9
$CHAMFERD
 40
0.0
  9
$SKPOLY
 70
     0
  9
$TDCREATE
 40
2458935.442718970
  9
$TDUCREATE
 40
2458935.317718970
  9
$TDUPDATE
 40
2458956.460672639
  9
$TDUUPDATE
 40
2458956.335672639
  9
$TDINDWG
 40
0.0001494213
  9
$TDUSRTIMER
 40
0.0001494213
  9
$USRTIMER
 70
     1
  9
$ANGBASE
 50
0.0
  9
$ANGDIR
 70
     0
  9
$PDMODE
 70
     0
  9
$PDSIZE
 40
0.0
  9
$PLINEWID
 40
0.0
  9
$SPLFRAME
 70
     0
  9
$SPLINETYPE
 70
     6
  9
$SPLINESEGS
 70
     8
  9
$HANDSEED
  5
445
  9
$SURFTAB1
 70
     6
  9
$SURFTAB2
 70
     6
  9
$SURFTYPE
 70
     6
  9
$SURFU
 70
     6
  9
$SURFV
 70
     6
  9
$UCSBASE
  2

  9
$UCSNAME
  2

  9
$UCSORG
 10
0.0
 20
0.0
 30
0.0
  9
$UCSXDIR
 10
1.0
 20
0.0
 30
0.0
  9
$UCSYDIR
 10
0.0
 20
1.0
 30
0.0
  9
$UCSORTHOREF
  2

  9
$UCSORTHOVIEW
 70
     0
  9
$UCSORGTOP
 10
0.0
 20
0.0
 30
0.0
  9
$UCSORGBOTTOM
 10
0.0
 20
0.0
 30
0.0
  9
$UCSORGLEFT
 10
0.0
 20
0.0
 30
0.0
  9
$UCSORGRIGHT
 10
0.0
 20
0.0
 30
0.0
  9
$UCSORGFRONT
 10
0.0
 20
0.0
 30
0.0
  9
$UCSORGBACK
 10
0.0
 20
0.0
 30
0.0
  9
$PUCSBASE
  2

  9
$PUCSNAME
  2

  9
$PUCSORG
 10
0.0
 20
0.0
 30
0.0
  9
$PUCSXDIR
 10
1.0
 20
0.0
 30
0.0
  9
$PUCSYDIR
 10
0.0
 20
1.0
 30
0.0
  9
$PUCSORTHOREF
  2

  9
$PUCSORTHOVIEW
 70
     0
  9
$PUCSORGTOP
 10
0.0
 20
0.0
 30
0.0
  9
$PUCSORGBOTTOM
 10
0.0
 20
0.0
 30
0.0
  9
$PUCSORGLEFT
 10
0.0
 20
0.0
 30
0.0
  9
$PUCSORGRIGHT
 10
0.0
 20
0.0
 30
0.0
  9
$PUCSORGFRONT
 10
0.0
 20
0.0
 30
0.0
  9
$PUCSORGBACK
 10
0.0
 20
0.0
 30
0.0
  9
$USERI1
 70
     0
  9
$USERI2
 70
     0
  9
$USERI3
 70
     0
  9
$USERI4
 70
     0
  9
$USERI5
 70
     0
  9
$USERR1
 40
0.0
  9
$USERR2
 40
0.0
  9
$USERR3
 40
0.0
  9
$USERR4
 40
0.0
  9
$USERR5
 40
0.0
  9
$WORLDVIEW
 70
     1
  9
$SHADEDGE
 70
     3
  9
$SHADEDIF
 70
    70
  9
$TILEMODE
 70
     1
  9
$MAXACTVP
 70
    64
  9
$PINSBASE
 10
0.0
 20
0.0
 30
0.0
  9
$PLIMCHECK
 70
     0
  9
$PEXTMIN
 10
0.0
 20
0.0
 30
0.0
  9
$PEXTMAX
 10
0.0
 20
0.0
 30
0.0
  9
$PLIMMIN
 10
0.0
 20
0.0
  9
$PLIMMAX
 10
12.0
 20
9.0
  9
$UNITMODE
 70
     0
  9
$VISRETAIN
 70
     1
  9
$PLINEGEN
 70
     0
  9
$PSLTSCALE
 70
     1
  9
$TREEDEPTH
 70
  3020
  9
$CMLSTYLE
  2
Standard
  9
$CMLJUST
 70
     0
  9
$CMLSCALE
 40
20.0
  9
$PROXYGRAPHICS
 70
     1
  9
$MEASUREMENT
 70
     1
  9
$CELWEIGHT
370
    -1
  9
$ENDCAPS
280
     0
  9
$JOINSTYLE
280
     0
  9
$LWDISPLAY
290
     0
  9
$INSUNITS
 70
     4
  9
$HYPERLINKBASE
  1

  9
$STYLESHEET
  1

  9
$XEDIT
290
     1
  9
$CEPSNTYPE
380
     0
  9
$PSTYLEMODE
290
     1
  9
$FINGERPRINTGUID
  2
{6DC65128-D8BC-4692-8939-446138285BCA}
  9
$VERSIONGUID
  2
{3FC525AA-BBC6-472D-A37D-75A67D94841C}
  9
$EXTNAMES
290
     1
  9
$PSVPSCALE
 40
0.0
  9
$OLESTARTUP
290
     0
  0
ENDSEC
  0
SECTION
  2
CLASSES
  0
CLASS
  1
ACDBDICTIONARYWDFLT
  2
AcDbDictionaryWithDefault
  3
ObjectDBX Classes
 90
        0
280
     0
281
     0
  0
CLASS
  1
ACDBPLACEHOLDER
  2
AcDbPlaceHolder
  3
ObjectDBX Classes
 90
        0
280
     0
281
     0
  0
CLASS
  1
LAYOUT
  2
AcDbLayout
  3
ObjectDBX Classes
 90
        0
280
     0
281
     0
  0
CLASS
  1
DICTIONARYVAR
  2
AcDbDictionaryVar
  3
ObjectDBX Classes
 90
        0
280
     0
281
     0
  0
CLASS
  1
TABLESTYLE
  2
AcDbTableStyle
  3
ObjectDBX Classes
 90
     4095
280
     0
281
     0
  0
CLASS
  1
MATERIAL
  2
AcDbMaterial
  3
ObjectDBX Classes
 90
     1153
280
     0
281
     0
  0
CLASS
  1
VISUALSTYLE
  2
AcDbVisualStyle
  3
ObjectDBX Classes
 90
     4095
280
     0
281
     0
  0
CLASS
  1
SCALE
  2
AcDbScale
  3
ObjectDBX Classes
 90
     1153
280
     0
281
     0
  0
CLASS
  1
MLEADERSTYLE
  2
AcDbMLeaderStyle
  3
ACDB_MLEADERSTYLE_CLASS
 90
     4095
280
     0
281
     0
  0
CLASS
  1
CELLSTYLEMAP
  2
AcDbCellStyleMap
  3
ObjectDBX Classes
 90
     1152
280
     0
281
     0
  0
ENDSEC
  0
SECTION
  2
TABLES
  0
TABLE
  2
VPORT
  5
8
330
0
100
AcDbSymbolTable
 70
     1
  0
VPORT
  5
EA
330
8
100
AcDbSymbolTableRecord
100
AcDbViewportTableRecord
  2
*Active
 70
     0
 10
0.0
 20
0.0
 11
1.0
 21
1.0
 12
2292.698845825912
 22
940.9624351731666
 13
0.0
 23
0.0
 14
10.0
 24
10.0
 15
10.0
 25
10.0
 16
0.0
 26
0.0
 36
1.0
 17
0.0
 27
0.0
 37
0.0
 40
153.1784710591824
 41
1.903110047846889
 42
50.0
 43
0.0
 44
0.0
 50
0.0
 51
0.0
 71
     0
 72
  1000
 73
     1
 74
     3
 75
     0
 76
     0
 77
     0
 78
     0
281
     0
 65
     1
110
0.0
120
0.0
130
0.0
111
1.0
121
0.0
131
0.0
112
0.0
122
1.0
132
0.0
 79
     0
146
0.0
  0
ENDTAB
  0
TABLE
  2
LTYPE
  5
5
330
0
100
AcDbSymbolTable
 70
     1
  0
LTYPE
  5
14
330
5
100
AcDbSymbolTableRecord
100
AcDbLinetypeTableRecord
  2
ByBlock
 70
     0
  3

 72
    65
 73
     0
 40
0.0
  0
LTYPE
  5
15
330
5
100
AcDbSymbolTableRecord
100
AcDbLinetypeTableRecord
  2
ByLayer
 70
     0
  3

 72
    65
 73
     0
 40
0.0
  0
LTYPE
  5
16
330
5
100
AcDbSymbolTableRecord
100
AcDbLinetypeTableRecord
  2
Continuous
 70
     0
  3
Solid line
 72
    65
 73
     0
 40
0.0
  0
ENDTAB
  0
TABLE
  2
LAYER
  5
2
330
0
100
AcDbSymbolTable
 70
     1
  0
LAYER
  5
10
102
{ACAD_XDICTIONARY
360
13C
102
}
330
2
100
AcDbSymbolTableRecord
100
AcDbLayerTableRecord
  2
0
 70
     0
 62
     7
  6
Continuous
370
    -3
390
F
  0
ENDTAB
  0
TABLE
  2
STYLE
  5
3
330
0
100
AcDbSymbolTable
 70
     2
  0
STYLE
  5
11
330
3
100
AcDbSymbolTableRecord
100
AcDbTextStyleTableRecord
  2
Standard
 70
     0
 40
0.0
 41
1.0
 50
0.0
 71
     0
 42
2.5
  3
txt
  4

  0
STYLE
  5
132
330
3
100
AcDbSymbolTableRecord
100
AcDbTextStyleTableRecord
  2
Annotative
 70
     0
 40
0.0
 41
1.0
 50
0.0
 71
     0
 42
2.5
  3
txt.shx
  4

1001
AcadAnnotative
1000
AnnotativeData
1002
{
1070
     1
1070
     1
1002
}
  0
ENDTAB
  0
TABLE
  2
VIEW
  5
6
330
0
100
AcDbSymbolTable
 70
     0
  0
ENDTAB
  0
TABLE
  2
UCS
  5
7
330
0
100
AcDbSymbolTable
 70
     0
  0
ENDTAB
  0
TABLE
  2
APPID
  5
9
330
0
100
AcDbSymbolTable
 70
     7
  0
APPID
  5
12
330
9
100
AcDbSymbolTableRecord
100
AcDbRegAppTableRecord
  2
ACAD
 70
     0
  0
APPID
  5
9E
330
9
100
AcDbSymbolTableRecord
100
AcDbRegAppTableRecord
  2
ACAD_PSEXT
 70
     0
  0
APPID
  5
133
330
9
100
AcDbSymbolTableRecord
100
AcDbRegAppTableRecord
  2
AcadAnnoPO
 70
     0
  0
APPID
  5
134
330
9
100
AcDbSymbolTableRecord
100
AcDbRegAppTableRecord
  2
AcadAnnotative
 70
     0
  0
APPID
  5
135
330
9
100
AcDbSymbolTableRecord
100
AcDbRegAppTableRecord
  2
ACAD_DSTYLE_DIMJAG
 70
     0
  0
APPID
  5
136
330
9
100
AcDbSymbolTableRecord
100
AcDbRegAppTableRecord
  2
ACAD_DSTYLE_DIMTALN
 70
     0
  0
APPID
  5
165
330
9
100
AcDbSymbolTableRecord
100
AcDbRegAppTableRecord
  2
ACAD_MLEADERVER
 70
     0
  0
ENDTAB
  0
TABLE
  2
DIMSTYLE
  5
A
330
0
100
AcDbSymbolTable
 70
     2
100
AcDbDimStyleTable
 71
     2
340
27
340
137
  0
DIMSTYLE
105
27
330
A
100
AcDbSymbolTableRecord
100
AcDbDimStyleTableRecord
  2
ISO-25
 70
     0
 41
2.5
 42
0.625
 43
3.75
 44
1.25
 73
     0
 74
     0
 77
     1
 78
     8
140
2.5
141
2.5
143
0.03937007874016
147
0.625
171
     3
172
     1
271
     2
272
     2
274
     3
278
    44
283
     0
284
     8
340
11
  0
DIMSTYLE
105
137
330
A
100
AcDbSymbolTableRecord
100
AcDbDimStyleTableRecord
  2
Annotative
 70
     0
 40
0.0
 41
2.5
 42
0.625
 43
3.75
 44
1.25
 73
     0
 74
     0
 77
     1
 78
     8
140
2.5
141
2.5
143
0.03937007874016
147
0.625
171
     3
172
     1
271
     2
272
     2
274
     3
278
    44
283
     0
284
     8
340
11
1001
AcadAnnotative
1000
AnnotativeData
1002
{
1070
     1
1070
     1
1002
}
1001
ACAD_DSTYLE_DIMJAG
1070
   388
1040
1.5
1001
ACAD_DSTYLE_DIMTALN
1070
   392
1070
     0
  0
ENDTAB
  0
TABLE
  2
BLOCK_RECORD
  5
1
330
0
100
AcDbSymbolTable
 70
     5
  0
BLOCK_RECORD
  5
1F
330
1
100
AcDbSymbolTableRecord
100
AcDbBlockTableRecord
  2
*Model_Space
340
22
  0
BLOCK_RECORD
  5
D2
330
1
100
AcDbSymbolTableRecord
100
AcDbBlockTableRecord
  2
*Paper_Space
340
D3
  0
BLOCK_RECORD
  5
D6
330
1
100
AcDbSymbolTableRecord
100
AcDbBlockTableRecord
  2
*Paper_Space0
340
D7
  0
BLOCK_RECORD
  5
1AD
330
1
100
AcDbSymbolTableRecord
100
AcDbBlockTableRecord
  2
1
340
0
310
2800000020000000200000000100080000000000000400000000000000000000000000000000000000000000000080000080000000808000800000008000800080800000C0C0C000C0DCC000F0CAA6000020400000206000002080000020A0000020C0000020E00000400000004020000040400000406000004080000040A0
310
000040C0000040E00000600000006020000060400000606000006080000060A0000060C0000060E00000800000008020000080400000806000008080000080A0000080C0000080E00000A0000000A0200000A0400000A0600000A0800000A0A00000A0C00000A0E00000C0000000C0200000C0400000C0600000C0800000C0
310
A00000C0C00000C0E00000E0000000E0200000E0400000E0600000E0800000E0A00000E0C00000E0E00040000000400020004000400040006000400080004000A0004000C0004000E00040200000402020004020400040206000402080004020A0004020C0004020E000404000004040200040404000404060004040800040
310
40A0004040C0004040E00040600000406020004060400040606000406080004060A0004060C0004060E00040800000408020004080400040806000408080004080A0004080C0004080E00040A0000040A0200040A0400040A0600040A0800040A0A00040A0C00040A0E00040C0000040C0200040C0400040C0600040C08000
310
40C0A00040C0C00040C0E00040E0000040E0200040E0400040E0600040E0800040E0A00040E0C00040E0E00080000000800020008000400080006000800080008000A0008000C0008000E00080200000802020008020400080206000802080008020A0008020C0008020E00080400000804020008040400080406000804080
310
008040A0008040C0008040E00080600000806020008060400080606000806080008060A0008060C0008060E00080800000808020008080400080806000808080008080A0008080C0008080E00080A0000080A0200080A0400080A0600080A0800080A0A00080A0C00080A0E00080C0000080C0200080C0400080C0600080C0
310
800080C0A00080C0C00080C0E00080E0000080E0200080E0400080E0600080E0800080E0A00080E0C00080E0E000C0000000C0002000C0004000C0006000C0008000C000A000C000C000C000E000C0200000C0202000C0204000C0206000C0208000C020A000C020C000C020E000C0400000C0402000C0404000C0406000C0
310
408000C040A000C040C000C040E000C0600000C0602000C0604000C0606000C0608000C060A000C060C000C060E000C0800000C0802000C0804000C0806000C0808000C080A000C080C000C080E000C0A00000C0A02000C0A04000C0A06000C0A08000C0A0A000C0A0C000C0A0E000C0C00000C0C02000C0C04000C0C06000
310
C0C08000C0C0A000F0FBFF00A4A0A000808080000000FF0000FF000000FFFF00FF000000FF00FF00FFFF0000FFFFFF0000000000000000000000000000000000000000000000000000000000000000000000000000000000000000000000000000000000000000000000000000000000000000000000000000000000000000
310
00000000000000000000000000000000000000000000000000000000000000000000000000000000000000000000000000000000000000000000000000000000000000000000000000000000000000000000000000000000000000000000000000000000000000000000000000000000000000000000000000000000000000
310
00000000000000000000000000000000000000000000000000000000000000000000000000000000000000000000000000000000000000000000000000000000000000000000000000000000000000000000000000000000000000000000000000000000000000000000000000000000000000000000000000000000000000
310
0000000000000000000000000000000000000000000000000000000000000000000000000000000000000000000000000000000000FFFFFF00FFFFFFFFFFFF00FFFFFFFFFFFF00FFFFFFFFFFFF00FFFFFF00000000FF00FF00FF00FFFF00FF00FF00FFFF00FF00FF00FFFF00FF00FF00FF00000000FF00FF00FF00FFFF00FF
310
00FF00FFFF00FF00FF00FFFF00FF00FF00FF00000000FF00FF00FF00FFFF00FF00FF00FFFF00FF00FF00FFFF00FF00FF00FF000000FFFFFFFFFFFFFFFFFFFFFFFFFFFFFFFFFFFFFFFFFFFFFFFFFFFFFFFFFFFF0000FFFFFFFFFFFFFFFFFFFFFFFFFFFFFFFFFFFFFFFFFFFFFFFFFFFFFFFFFFFF000000FF00FF00FF00FFFF00
310
FF00FF00FFFF00FF00FF00FFFF00FF00FF00FF00000000FFFFFF00FFFFFFFFFFFF00FFFFFFFFFFFF00FFFFFFFFFFFF00FFFFFF00000000000000000000000000000000000000000000000000000000000000000000000000000000000000000000000000000000000000000000000000000000000000000000000000000000
310
00000000000000000000000000000000000000000000000000000000000000000000000000000000000000000000000000000000000000000000000000000000000000000000000000000000000000000000000000000000000000000000000000000000000000000000000000000000000000000000000000000000000000
310
00000000000000000000000000000000000000000000000000000000000000000000000000000000000000000000000000000000000000000000000000000000000000000000000000000000000000000000000000000000000000000000000000000000000000000000000000000000000000000000000000000000000000
310
0000000000000000000000000000000000000000000000000000000000000000000000000000000000000000000000000000000000000000
102
{BLKREFS
331
427
102
}
1001
ACAD
1000
DesignCenter Data
1002
{
1070
     1
1070
     4
1002
}
  0
BLOCK_RECORD
  5
27C
330
1
100
AcDbSymbolTableRecord
100
AcDbBlockTableRecord
  2
2
340
0
310
2800000020000000200000000100080000000000000400000000000000000000000000000000000000000000000080000080000000808000800000008000800080800000C0C0C000C0DCC000F0CAA6000020400000206000002080000020A0000020C0000020E00000400000004020000040400000406000004080000040A0
310
000040C0000040E00000600000006020000060400000606000006080000060A0000060C0000060E00000800000008020000080400000806000008080000080A0000080C0000080E00000A0000000A0200000A0400000A0600000A0800000A0A00000A0C00000A0E00000C0000000C0200000C0400000C0600000C0800000C0
310
A00000C0C00000C0E00000E0000000E0200000E0400000E0600000E0800000E0A00000E0C00000E0E00040000000400020004000400040006000400080004000A0004000C0004000E00040200000402020004020400040206000402080004020A0004020C0004020E000404000004040200040404000404060004040800040
310
40A0004040C0004040E00040600000406020004060400040606000406080004060A0004060C0004060E00040800000408020004080400040806000408080004080A0004080C0004080E00040A0000040A0200040A0400040A0600040A0800040A0A00040A0C00040A0E00040C0000040C0200040C0400040C0600040C08000
310
40C0A00040C0C00040C0E00040E0000040E0200040E0400040E0600040E0800040E0A00040E0C00040E0E00080000000800020008000400080006000800080008000A0008000C0008000E00080200000802020008020400080206000802080008020A0008020C0008020E00080400000804020008040400080406000804080
310
008040A0008040C0008040E00080600000806020008060400080606000806080008060A0008060C0008060E00080800000808020008080400080806000808080008080A0008080C0008080E00080A0000080A0200080A0400080A0600080A0800080A0A00080A0C00080A0E00080C0000080C0200080C0400080C0600080C0
310
800080C0A00080C0C00080C0E00080E0000080E0200080E0400080E0600080E0800080E0A00080E0C00080E0E000C0000000C0002000C0004000C0006000C0008000C000A000C000C000C000E000C0200000C0202000C0204000C0206000C0208000C020A000C020C000C020E000C0400000C0402000C0404000C0406000C0
310
408000C040A000C040C000C040E000C0600000C0602000C0604000C0606000C0608000C060A000C060C000C060E000C0800000C0802000C0804000C0806000C0808000C080A000C080C000C080E000C0A00000C0A02000C0A04000C0A06000C0A08000C0A0A000C0A0C000C0A0E000C0C00000C0C02000C0C04000C0C06000
310
C0C08000C0C0A000F0FBFF00A4A0A000808080000000FF0000FF000000FFFF00FF000000FF00FF00FFFF0000FFFFFF000000000000000000000000000000000000000000000000000000000000000000000000000000000000000000FFFFFFFFFFFFFFFF000000000000000000000000000000000000000000000000FFFFFF
310
FFFFFFFFFF000000000000000000000000000000000000000000000000FF000000000000FF000000000000000000000000000000000000000000000000FF000000000000FF000000000000000000000000000000000000000000000000FF000000000000FF000000000000000000000000000000000000000000000000FF00
310
0000000000FF000000000000000000000000000000000000000000000000FF000000000000FF000000000000000000000000000000000000000000000000FF000000000000FF000000000000000000000000000000000000000000000000FF000000000000FF000000000000000000000000000000000000000000000000FF
310
000000000000FF000000000000000000000000000000000000000000000000FF000000000000FF000000000000000000000000000000000000000000000000FF000000000000FF000000000000000000000000000000000000000000000000FF000000000000FF000000000000000000000000000000000000000000000000
310
FF000000000000FF000000000000000000000000000000000000000000000000FF000000000000FF0000000000000000000000000000000000000000000000FFFFFFFFFFFFFFFFFFFF00000000000000000000000000000000000000000000FF0000000000000000FF00000000000000000000000000000000000000000000
310
FF0000000000000000FF00000000000000000000000000000000000000000000FF0000000000000000FF00000000000000000000000000000000000000000000FF0000000000000000FF00000000000000000000000000000000000000000000FFFFFFFFFFFFFFFFFFFF000000000000000000000000000000000000000000
310
00FFFFFFFFFFFFFFFFFFFF00000000000000000000000000000000000000000000FFA4A4A4A4A4A4A4A4FF00000000000000000000000000000000000000000000FF0000000000000000FF00000000000000000000000000000000000000000000FF0000000000000000FF0000000000000000000000000000000000000000
310
0000FF0000000000000000FF00000000000000000000000000000000000000000000FF0000000000000000FF00000000000000000000000000000000000000000000FF0000000000000000FF00000000000000000000000000000000000000000000FF0000000000000000FF00000000000000000000000000000000000000
310
000000FFFFFFFFFFFFFFFFFFFF00000000000000000000000000000000000000000000000000000000000000000000000000000000000000
102
{BLKREFS
331
428
102
}
1001
ACAD
1000
DesignCenter Data
1002
{
1070
     1
1070
     4
1002
}
  0
BLOCK_RECORD
  5
29D
330
1
100
AcDbSymbolTableRecord
100
AcDbBlockTableRecord
  2
3
340
0
310
2800000020000000200000000100080000000000000400000000000000000000000000000000000000000000000080000080000000808000800000008000800080800000C0C0C000C0DCC000F0CAA6000020400000206000002080000020A0000020C0000020E00000400000004020000040400000406000004080000040A0
310
000040C0000040E00000600000006020000060400000606000006080000060A0000060C0000060E00000800000008020000080400000806000008080000080A0000080C0000080E00000A0000000A0200000A0400000A0600000A0800000A0A00000A0C00000A0E00000C0000000C0200000C0400000C0600000C0800000C0
310
A00000C0C00000C0E00000E0000000E0200000E0400000E0600000E0800000E0A00000E0C00000E0E00040000000400020004000400040006000400080004000A0004000C0004000E00040200000402020004020400040206000402080004020A0004020C0004020E000404000004040200040404000404060004040800040
310
40A0004040C0004040E00040600000406020004060400040606000406080004060A0004060C0004060E00040800000408020004080400040806000408080004080A0004080C0004080E00040A0000040A0200040A0400040A0600040A0800040A0A00040A0C00040A0E00040C0000040C0200040C0400040C0600040C08000
310
40C0A00040C0C00040C0E00040E0000040E0200040E0400040E0600040E0800040E0A00040E0C00040E0E00080000000800020008000400080006000800080008000A0008000C0008000E00080200000802020008020400080206000802080008020A0008020C0008020E00080400000804020008040400080406000804080
310
008040A0008040C0008040E00080600000806020008060400080606000806080008060A0008060C0008060E00080800000808020008080400080806000808080008080A0008080C0008080E00080A0000080A0200080A0400080A0600080A0800080A0A00080A0C00080A0E00080C0000080C0200080C0400080C0600080C0
310
800080C0A00080C0C00080C0E00080E0000080E0200080E0400080E0600080E0800080E0A00080E0C00080E0E000C0000000C0002000C0004000C0006000C0008000C000A000C000C000C000E000C0200000C0202000C0204000C0206000C0208000C020A000C020C000C020E000C0400000C0402000C0404000C0406000C0
310
408000C040A000C040C000C040E000C0600000C0602000C0604000C0606000C0608000C060A000C060C000C060E000C0800000C0802000C0804000C0806000C0808000C080A000C080C000C080E000C0A00000C0A02000C0A04000C0A06000C0A08000C0A0A000C0A0C000C0A0E000C0C00000C0C02000C0C04000C0C06000
310
C0C08000C0C0A000F0FBFF00A4A0A000808080000000FF0000FF000000FFFF00FF000000FF00FF00FFFF0000FFFFFF0000000000000000000000000000000000000000000000000000000000000000000000000000000000000000000000000000000000000000000000000000000000000000000000000000000000000000
310
00000000000000000000000000000000000000000000000000000000000000000000000000000000000000000000000000000000000000000000000000000000000000000000000000000000000000000000000000000000000000000000000000000000000000000000000000000000000000000000000000000000000000
310
00000000000000000000000000000000000000000000000000000000000000000000000000000000000000000000000000000000000000000000000000000000000000000000000000000000000000000000000000000000000000000000000000000000000000000000000000000000000000000000000000000000000000
310
00000000000000000000000000000000000000000000000000000000000000000000000000000000000000000000000000000000000000000000000000000000000000000000000000000000000000000000000000000000000000000000000000000000000000000000000000000000000000000000FF000000FF0000FF00
310
0000FF0000FF000000FF0000FF000000FF00000000FFFFFFFFFFFFFFFFFFFFFFFFFFFFFFFFFFFFFFFFFFFFFFFFFFFFFFFFFFFF0000FFFFFFFFFFFFFFFFFFFFFFFFFFFFFFFFFFFFFFFFFFFFFFFFFFFFFFFFFFFF00000000FF000000FF0000FF000000FF0000FF000000FF0000FF000000FF0000000000000000000000000000
310
00000000000000000000000000000000000000000000000000000000000000000000000000000000000000000000000000000000000000000000000000000000000000000000000000000000000000000000000000000000000000000000000000000000000000000000000000000000000000000000000000000000000000
310
00000000000000000000000000000000000000000000000000000000000000000000000000000000000000000000000000000000000000000000000000000000000000000000000000000000000000000000000000000000000000000000000000000000000000000000000000000000000000000000000000000000000000
310
00000000000000000000000000000000000000000000000000000000000000000000000000000000000000000000000000000000000000000000000000000000000000000000000000000000000000000000000000000000000000000000000000000000000000000000000000000000000000000000000000000000000000
310
0000000000000000000000000000000000000000000000000000000000000000000000000000000000000000000000000000000000000000
102
{BLKREFS
331
429
102
}
1001
ACAD
1000
DesignCenter Data
1002
{
1070
     1
1070
     4
1002
}
  0
BLOCK_RECORD
  5
34C
330
1
100
AcDbSymbolTableRecord
100
AcDbBlockTableRecord
  2
4
340
0
310
2800000020000000200000000100080000000000000400000000000000000000000000000000000000000000000080000080000000808000800000008000800080800000C0C0C000C0DCC000F0CAA6000020400000206000002080000020A0000020C0000020E00000400000004020000040400000406000004080000040A0
310
000040C0000040E00000600000006020000060400000606000006080000060A0000060C0000060E00000800000008020000080400000806000008080000080A0000080C0000080E00000A0000000A0200000A0400000A0600000A0800000A0A00000A0C00000A0E00000C0000000C0200000C0400000C0600000C0800000C0
310
A00000C0C00000C0E00000E0000000E0200000E0400000E0600000E0800000E0A00000E0C00000E0E00040000000400020004000400040006000400080004000A0004000C0004000E00040200000402020004020400040206000402080004020A0004020C0004020E000404000004040200040404000404060004040800040
310
40A0004040C0004040E00040600000406020004060400040606000406080004060A0004060C0004060E00040800000408020004080400040806000408080004080A0004080C0004080E00040A0000040A0200040A0400040A0600040A0800040A0A00040A0C00040A0E00040C0000040C0200040C0400040C0600040C08000
310
40C0A00040C0C00040C0E00040E0000040E0200040E0400040E0600040E0800040E0A00040E0C00040E0E00080000000800020008000400080006000800080008000A0008000C0008000E00080200000802020008020400080206000802080008020A0008020C0008020E00080400000804020008040400080406000804080
310
008040A0008040C0008040E00080600000806020008060400080606000806080008060A0008060C0008060E00080800000808020008080400080806000808080008080A0008080C0008080E00080A0000080A0200080A0400080A0600080A0800080A0A00080A0C00080A0E00080C0000080C0200080C0400080C0600080C0
310
800080C0A00080C0C00080C0E00080E0000080E0200080E0400080E0600080E0800080E0A00080E0C00080E0E000C0000000C0002000C0004000C0006000C0008000C000A000C000C000C000E000C0200000C0202000C0204000C0206000C0208000C020A000C020C000C020E000C0400000C0402000C0404000C0406000C0
310
408000C040A000C040C000C040E000C0600000C0602000C0604000C0606000C0608000C060A000C060C000C060E000C0800000C0802000C0804000C0806000C0808000C080A000C080C000C080E000C0A00000C0A02000C0A04000C0A06000C0A08000C0A0A000C0A0C000C0A0E000C0C00000C0C02000C0C04000C0C06000
310
C0C08000C0C0A000F0FBFF00A4A0A000808080000000FF0000FF000000FFFF00FF000000FF00FF00FFFF0000FFFFFF0000000000000000000000000000000000000000000000000000000000000000000000000000000000000000000000000000000000000000000000000000000000000000000000000000000000000000
310
00000000000000000000000000000000000000000000000000000000000000000000000000000000000000000000000000000000000000000000000000000000000000000000000000000000000000000000000000000000000000000000000000000000000000000000000000000000000000000000000000000000000000
310
000000000000000000000000FFFFFF0000000000000000000000000000000000000000000000000000FFFF00FF00FF0000000000000000000000000000000000000000000000000000FFFFFFFF00FF00000000000000000000000000000000000000000000FFFFFFFFFF00FFFFFFFF00000000000000000000000000000000
310
000000000000FF0000FFFF00FFFFFFFFFFFF0000000000000000000000000000000000FFFFFFFF0000FFFFFFFFFFFFFFFFFF0000000000000000000000000000FFFFFFFF00FFFFFFFFFFFFFF00FF00FF00000000000000000000000000000000FF00FFFF00FFFF00FFFFFFFFFFFFFFFF000000000000000000000000FFFFFF
310
FFFF00FFFFFFFFFFFFFFFF0000FFFFFFFF000000000000000000FFFFFFFF0000FFFFFFFFFFFFFFFFFF00FFFFFFFF000000000000000000000000FF00FFFF0000FFFFFFFFFFFFFFFFFFFFFFFFFFFF000000000000000000FFFFFFFF00FFFF00FFFFFFFFFFFF0000FFFFFFFF000000000000000000000000FF00FFFF00FFFFFF
310
FFFFFFFFFFFFFFFFFF000000000000000000000000000000FF00FFFFFFFFFFFFFFFFFFFFFFFFFFFF00000000000000000000000000000000FFFFFFFFFFFFFF0000FFFFFFFF0000000000000000000000000000000000FFFFFFFFFFFFFFFFFFFFFFFF00FF000000000000000000000000000000000000FFFFFFFFFFFFFFFFFF
310
FFFFFF0000000000000000000000000000000000000000FFFFFF00FFFFFFFFFF00000000000000000000000000000000000000000000000000FFFFFFFFFFFF0000000000000000000000000000000000000000000000000000FFFFFF0000000000000000000000000000000000000000000000000000000000000000000000
310
00000000000000000000000000000000000000000000000000000000000000000000000000000000000000000000000000000000000000000000000000000000000000000000000000000000000000000000000000000000000000000000000000000000000000000000000000000000000000000000000000000000000000
310
0000000000000000000000000000000000000000000000000000000000000000000000000000000000000000000000000000000000000000
102
{BLKREFS
331
42A
102
}
1001
ACAD
1000
DesignCenter Data
1002
{
1070
     1
1070
     4
1002
}
  0
ENDTAB
  0
ENDSEC
  0
SECTION
  2
BLOCKS
  0
BLOCK
  5
20
330
1F
100
AcDbEntity
  8
0
100
AcDbBlockBegin
  2
*Model_Space
 70
     0
 10
0.0
 20
0.0
 30
0.0
  3
*Model_Space
  1

  0
ENDBLK
  5
21
330
1F
100
AcDbEntity
  8
0
100
AcDbBlockEnd
  0
BLOCK
  5
D4
330
D2
100
AcDbEntity
 67
     1
  8
0
100
AcDbBlockBegin
  2
*Paper_Space
 70
     0
 10
0.0
 20
0.0
 30
0.0
  3
*Paper_Space
  1

  0
ENDBLK
  5
D5
330
D2
100
AcDbEntity
 67
     1
  8
0
100
AcDbBlockEnd
  0
BLOCK
  5
D8
330
D6
100
AcDbEntity
 67
     1
  8
0
100
AcDbBlockBegin
  2
*Paper_Space0
 70
     0
 10
0.0
 20
0.0
 30
0.0
  3
*Paper_Space0
  1

  0
ENDBLK
  5
D9
330
D6
100
AcDbEntity
 67
     1
  8
0
100
AcDbBlockEnd
  0
BLOCK
  5
1AE
330
1AD
100
AcDbEntity
  8
0
100
AcDbBlockBegin
  2
1
 70
     0
 10
0.0
 20
0.0
 30
0.0
  3
1
  1

  0
ARC
  5
1AF
330
1AD
100
AcDbEntity
  8
0
  6
Continuous
 62
     7
370
    15
100
AcDbCircle
 10
197.5332857142861
 20
148.4138139535242
 30
0.0
 40
0.200000000000017
100
AcDbArc
 50
180.0
 51
270.0000000000008
  0
ARC
  5
1B0
330
1AD
100
AcDbEntity
  8
0
  6
Continuous
 62
     7
370
    15
100
AcDbCircle
 10
203.9832857142861
 20
148.4138139535242
 30
0.0
 40
0.1999999999999886
100
AcDbArc
 50
270.0000000000008
 51
0.0
  0
ARC
  5
1B1
330
1AD
100
AcDbEntity
  8
0
  6
Continuous
 62
     7
370
    15
100
AcDbCircle
 10
113.5332857142861
 20
148.4138139535242
 30
0.0
 40
0.2000000000000028
100
AcDbArc
 50
180.0
 51
270.0000000000008
  0
ARC
  5
1B2
330
1AD
100
AcDbEntity
  8
0
  6
Continuous
 62
     7
370
    15
100
AcDbCircle
 10
119.9832857142861
 20
148.4138139535242
 30
0.0
 40
0.2000000000000028
100
AcDbArc
 50
270.0000000000008
 51
0.0
  0
ARC
  5
1B3
330
1AD
100
AcDbEntity
  8
0
  6
Continuous
 62
     7
370
    15
100
AcDbCircle
 10
125.5332857142861
 20
148.4138139535242
 30
0.0
 40
0.2000000000000028
100
AcDbArc
 50
180.0
 51
270.0000000000008
  0
ARC
  5
1B4
330
1AD
100
AcDbEntity
  8
0
  6
Continuous
 62
     7
370
    15
100
AcDbCircle
 10
131.9832857142861
 20
148.4138139535242
 30
0.0
 40
0.200000000000017
100
AcDbArc
 50
270.0000000000008
 51
0.0
  0
ARC
  5
1B5
330
1AD
100
AcDbEntity
  8
0
  6
Continuous
 62
     7
370
    15
100
AcDbCircle
 10
137.5332857142861
 20
148.4138139535242
 30
0.0
 40
0.200000000000017
100
AcDbArc
 50
180.0
 51
270.0000000000008
  0
ARC
  5
1B6
330
1AD
100
AcDbEntity
  8
0
  6
Continuous
 62
     7
370
    15
100
AcDbCircle
 10
143.9832857142861
 20
148.4138139535242
 30
0.0
 40
0.1999999999999886
100
AcDbArc
 50
270.0000000000008
 51
0.0
  0
ARC
  5
1B7
330
1AD
100
AcDbEntity
  8
0
  6
Continuous
 62
     7
370
    15
100
AcDbCircle
 10
149.5332857142861
 20
148.4138139535242
 30
0.0
 40
0.1999999999999886
100
AcDbArc
 50
180.0
 51
270.0000000000008
  0
ARC
  5
1B8
330
1AD
100
AcDbEntity
  8
0
  6
Continuous
 62
     7
370
    15
100
AcDbCircle
 10
155.9832857142861
 20
148.4138139535242
 30
0.0
 40
0.1999999999999886
100
AcDbArc
 50
270.0000000000008
 51
0.0
  0
ARC
  5
1B9
330
1AD
100
AcDbEntity
  8
0
  6
Continuous
 62
     7
370
    15
100
AcDbCircle
 10
161.5332857142861
 20
148.4138139535242
 30
0.0
 40
0.200000000000017
100
AcDbArc
 50
180.0
 51
270.0000000000008
  0
ARC
  5
1BA
330
1AD
100
AcDbEntity
  8
0
  6
Continuous
 62
     7
370
    15
100
AcDbCircle
 10
167.9832857142861
 20
148.4138139535242
 30
0.0
 40
0.1999999999999886
100
AcDbArc
 50
270.0000000000008
 51
0.0
  0
ARC
  5
1BB
330
1AD
100
AcDbEntity
  8
0
  6
Continuous
 62
     7
370
    15
100
AcDbCircle
 10
173.5332857142861
 20
148.4138139535242
 30
0.0
 40
0.1999999999999886
100
AcDbArc
 50
180.0
 51
270.0000000000008
  0
ARC
  5
1BC
330
1AD
100
AcDbEntity
  8
0
  6
Continuous
 62
     7
370
    15
100
AcDbCircle
 10
179.9832857142861
 20
148.4138139535242
 30
0.0
 40
0.200000000000017
100
AcDbArc
 50
270.0000000000008
 51
0.0
  0
ARC
  5
1BD
330
1AD
100
AcDbEntity
  8
0
  6
Continuous
 62
     7
370
    15
100
AcDbCircle
 10
185.5332857142861
 20
148.4138139535242
 30
0.0
 40
0.1999999999999886
100
AcDbArc
 50
180.0
 51
270.0000000000008
  0
ARC
  5
1BE
330
1AD
100
AcDbEntity
  8
0
  6
Continuous
 62
     7
370
    15
100
AcDbCircle
 10
191.9832857142861
 20
148.4138139535242
 30
0.0
 40
0.200000000000017
100
AcDbArc
 50
270.0000000000008
 51
0.0
  0
LINE
  5
1BF
330
1AD
100
AcDbEntity
  8
0
  6
Continuous
 62
     7
370
    15
100
AcDbLine
 10
120.1832857142861
 20
148.4138139535242
 30
0.0
 11
120.1832857142861
 21
153.6138139535242
 31
0.0
  0
LINE
  5
1C0
330
1AD
100
AcDbEntity
  8
0
  6
Continuous
 62
     7
370
    15
100
AcDbLine
 10
113.3332857142861
 20
153.6138139535242
 30
0.0
 11
113.3332857142861
 21
148.4138139535242
 31
0.0
  0
LINE
  5
1C1
330
1AD
100
AcDbEntity
  8
0
  6
Continuous
 62
     7
370
    15
100
AcDbLine
 10
132.1832857142861
 20
148.4138139535242
 30
0.0
 11
132.1832857142861
 21
153.6138139535242
 31
0.0
  0
LINE
  5
1C2
330
1AD
100
AcDbEntity
  8
0
  6
Continuous
 62
     7
370
    15
100
AcDbLine
 10
125.3332857142861
 20
153.6138139535242
 30
0.0
 11
125.3332857142861
 21
148.4138139535242
 31
0.0
  0
LINE
  5
1C3
330
1AD
100
AcDbEntity
  8
0
  6
Continuous
 62
     7
370
    15
100
AcDbLine
 10
144.1832857142861
 20
148.4138139535242
 30
0.0
 11
144.1832857142861
 21
153.6138139535242
 31
0.0
  0
LINE
  5
1C4
330
1AD
100
AcDbEntity
  8
0
  6
Continuous
 62
     7
370
    15
100
AcDbLine
 10
137.3332857142861
 20
153.6138139535242
 30
0.0
 11
137.3332857142861
 21
148.4138139535242
 31
0.0
  0
LINE
  5
1C5
330
1AD
100
AcDbEntity
  8
0
  6
Continuous
 62
     7
370
    15
100
AcDbLine
 10
156.1832857142861
 20
148.4138139535242
 30
0.0
 11
156.1832857142861
 21
153.6138139535242
 31
0.0
  0
LINE
  5
1C6
330
1AD
100
AcDbEntity
  8
0
  6
Continuous
 62
     7
370
    15
100
AcDbLine
 10
149.3332857142861
 20
153.6138139535242
 30
0.0
 11
149.3332857142861
 21
148.4138139535242
 31
0.0
  0
LINE
  5
1C7
330
1AD
100
AcDbEntity
  8
0
  6
Continuous
 62
     7
370
    15
100
AcDbLine
 10
168.1832857142861
 20
148.4138139535242
 30
0.0
 11
168.1832857142861
 21
153.6138139535242
 31
0.0
  0
LINE
  5
1C8
330
1AD
100
AcDbEntity
  8
0
  6
Continuous
 62
     7
370
    15
100
AcDbLine
 10
161.3332857142861
 20
153.6138139535242
 30
0.0
 11
161.3332857142861
 21
148.4138139535242
 31
0.0
  0
LINE
  5
1C9
330
1AD
100
AcDbEntity
  8
0
  6
Continuous
 62
     7
370
    15
100
AcDbLine
 10
180.1832857142861
 20
148.4138139535242
 30
0.0
 11
180.1832857142861
 21
153.6138139535242
 31
0.0
  0
LINE
  5
1CA
330
1AD
100
AcDbEntity
  8
0
  6
Continuous
 62
     7
370
    15
100
AcDbLine
 10
173.3332857142861
 20
153.6138139535242
 30
0.0
 11
173.3332857142861
 21
148.4138139535242
 31
0.0
  0
LINE
  5
1CB
330
1AD
100
AcDbEntity
  8
0
  6
Continuous
 62
     7
370
    15
100
AcDbLine
 10
204.1832857142861
 20
148.4138139535242
 30
0.0
 11
204.1832857142861
 21
153.6138139535242
 31
0.0
  0
LINE
  5
1CC
330
1AD
100
AcDbEntity
  8
0
  6
Continuous
 62
     7
370
    15
100
AcDbLine
 10
197.3332857142861
 20
153.6138139535242
 30
0.0
 11
197.3332857142861
 21
148.4138139535242
 31
0.0
  0
LINE
  5
1CD
330
1AD
100
AcDbEntity
  8
0
  6
Continuous
 62
     7
370
    15
100
AcDbLine
 10
192.1832857142861
 20
148.4138139535242
 30
0.0
 11
192.1832857142861
 21
153.6138139535242
 31
0.0
  0
LINE
  5
1CE
330
1AD
100
AcDbEntity
  8
0
  6
Continuous
 62
     7
370
    15
100
AcDbLine
 10
185.3332857142861
 20
153.6138139535242
 30
0.0
 11
185.3332857142861
 21
148.4138139535242
 31
0.0
  0
LINE
  5
1CF
330
1AD
100
AcDbEntity
  8
0
  6
Continuous
 62
     7
370
    15
100
AcDbLine
 10
113.6966081077853
 20
132.6138139534437
 30
0.0
 11
113.8966081076608
 21
132.4138139535681
 31
0.0
  0
LINE
  5
1D0
330
1AD
100
AcDbEntity
  8
0
  6
Continuous
 62
     7
370
    15
100
AcDbLine
 10
119.496608107733
 20
132.4138139535681
 30
0.0
 11
119.6966081076086
 21
132.6138139534437
 31
0.0
  0
LINE
  5
1D1
330
1AD
100
AcDbEntity
  8
0
  6
Continuous
 62
     7
370
    15
100
AcDbLine
 10
119.7582857142861
 20
147.3138139535242
 30
0.0
 11
119.7582857142861
 21
148.2138139535242
 31
0.0
  0
LINE
  5
1D2
330
1AD
100
AcDbEntity
  8
0
  6
Continuous
 62
     7
370
    15
100
AcDbLine
 10
113.7582857142861
 20
148.2138139535242
 30
0.0
 11
113.7582857142861
 21
147.3138139535242
 31
0.0
  0
LINE
  5
1D3
330
1AD
100
AcDbEntity
  8
0
  6
Continuous
 62
     7
370
    15
100
AcDbLine
 10
119.6966081076969
 20
132.6138139534437
 30
0.0
 11
119.6966081076969
 21
143.3138139534468
 31
0.0
  0
LINE
  5
1D4
330
1AD
100
AcDbEntity
  8
0
  6
Continuous
 62
     7
370
    15
100
AcDbLine
 10
113.6966081076969
 20
143.3138139534468
 30
0.0
 11
113.6966081076969
 21
132.6138139534437
 31
0.0
  0
LINE
  5
1D5
330
1AD
100
AcDbEntity
  8
0
  6
Continuous
 62
     7
370
    15
100
AcDbLine
 10
131.7582857142861
 20
147.3138139535242
 30
0.0
 11
131.7582857142861
 21
148.2138139535242
 31
0.0
  0
LINE
  5
1D6
330
1AD
100
AcDbEntity
  8
0
  6
Continuous
 62
     7
370
    15
100
AcDbLine
 10
125.7582857142861
 20
148.2138139535242
 30
0.0
 11
125.7582857142861
 21
147.3138139535242
 31
0.0
  0
LINE
  5
1D7
330
1AD
100
AcDbEntity
  8
0
  6
Continuous
 62
     7
370
    15
100
AcDbLine
 10
131.6966081076969
 20
132.6138139534437
 30
0.0
 11
131.6966081076969
 21
143.3138139534468
 31
0.0
  0
LINE
  5
1D8
330
1AD
100
AcDbEntity
  8
0
  6
Continuous
 62
     7
370
    15
100
AcDbLine
 10
125.696608107697
 20
143.3138139534468
 30
0.0
 11
125.696608107697
 21
132.6138139534437
 31
0.0
  0
LINE
  5
1D9
330
1AD
100
AcDbEntity
  8
0
  6
Continuous
 62
     7
370
    15
100
AcDbLine
 10
125.6966081077853
 20
132.6138139534437
 30
0.0
 11
125.8966081076609
 21
132.4138139535681
 31
0.0
  0
LINE
  5
1DA
330
1AD
100
AcDbEntity
  8
0
  6
Continuous
 62
     7
370
    15
100
AcDbLine
 10
131.4966081077331
 20
132.4138139535681
 30
0.0
 11
131.6966081076086
 21
132.6138139534437
 31
0.0
  0
LINE
  5
1DB
330
1AD
100
AcDbEntity
  8
0
  6
Continuous
 62
     7
370
    15
100
AcDbLine
 10
143.6966081076969
 20
132.6138139534437
 30
0.0
 11
143.6966081076969
 21
143.3138139534468
 31
0.0
  0
LINE
  5
1DC
330
1AD
100
AcDbEntity
  8
0
  6
Continuous
 62
     7
370
    15
100
AcDbLine
 10
137.6966081076969
 20
143.3138139534468
 30
0.0
 11
137.6966081076969
 21
132.6138139534437
 31
0.0
  0
LINE
  5
1DD
330
1AD
100
AcDbEntity
  8
0
  6
Continuous
 62
     7
370
    15
100
AcDbLine
 10
137.6966081077853
 20
132.6138139534437
 30
0.0
 11
137.8966081076608
 21
132.4138139535681
 31
0.0
  0
LINE
  5
1DE
330
1AD
100
AcDbEntity
  8
0
  6
Continuous
 62
     7
370
    15
100
AcDbLine
 10
143.496608107733
 20
132.4138139535681
 30
0.0
 11
143.6966081076086
 21
132.6138139534437
 31
0.0
  0
LINE
  5
1DF
330
1AD
100
AcDbEntity
  8
0
  6
Continuous
 62
     7
370
    15
100
AcDbLine
 10
143.7582857142861
 20
147.3138139535242
 30
0.0
 11
143.7582857142861
 21
148.2138139535242
 31
0.0
  0
LINE
  5
1E0
330
1AD
100
AcDbEntity
  8
0
  6
Continuous
 62
     7
370
    15
100
AcDbLine
 10
137.7582857142861
 20
148.2138139535242
 30
0.0
 11
137.7582857142861
 21
147.3138139535242
 31
0.0
  0
LINE
  5
1E1
330
1AD
100
AcDbEntity
  8
0
  6
Continuous
 62
     7
370
    15
100
AcDbLine
 10
155.696608107697
 20
132.6138139534437
 30
0.0
 11
155.696608107697
 21
143.3138139534468
 31
0.0
  0
LINE
  5
1E2
330
1AD
100
AcDbEntity
  8
0
  6
Continuous
 62
     7
370
    15
100
AcDbLine
 10
149.6966081076969
 20
143.3138139534468
 30
0.0
 11
149.6966081076969
 21
132.6138139534437
 31
0.0
  0
LINE
  5
1E3
330
1AD
100
AcDbEntity
  8
0
  6
Continuous
 62
     7
370
    15
100
AcDbLine
 10
149.6966081077853
 20
132.6138139534437
 30
0.0
 11
149.8966081076608
 21
132.4138139535681
 31
0.0
  0
LINE
  5
1E4
330
1AD
100
AcDbEntity
  8
0
  6
Continuous
 62
     7
370
    15
100
AcDbLine
 10
155.496608107733
 20
132.4138139535681
 30
0.0
 11
155.6966081076086
 21
132.6138139534437
 31
0.0
  0
LINE
  5
1E5
330
1AD
100
AcDbEntity
  8
0
  6
Continuous
 62
     7
370
    15
100
AcDbLine
 10
155.7582857142861
 20
147.3138139535242
 30
0.0
 11
155.7582857142861
 21
148.2138139535242
 31
0.0
  0
LINE
  5
1E6
330
1AD
100
AcDbEntity
  8
0
  6
Continuous
 62
     7
370
    15
100
AcDbLine
 10
149.7582857142861
 20
148.2138139535242
 30
0.0
 11
149.7582857142861
 21
147.3138139535242
 31
0.0
  0
LINE
  5
1E7
330
1AD
100
AcDbEntity
  8
0
  6
Continuous
 62
     7
370
    15
100
AcDbLine
 10
161.6966081077853
 20
132.6138139534437
 30
0.0
 11
161.8966081076609
 21
132.4138139535681
 31
0.0
  0
LINE
  5
1E8
330
1AD
100
AcDbEntity
  8
0
  6
Continuous
 62
     7
370
    15
100
AcDbLine
 10
167.4966081077331
 20
132.4138139535681
 30
0.0
 11
167.6966081076087
 21
132.6138139534437
 31
0.0
  0
LINE
  5
1E9
330
1AD
100
AcDbEntity
  8
0
  6
Continuous
 62
     7
370
    15
100
AcDbLine
 10
167.7582857142861
 20
147.3138139535242
 30
0.0
 11
167.7582857142861
 21
148.2138139535242
 31
0.0
  0
LINE
  5
1EA
330
1AD
100
AcDbEntity
  8
0
  6
Continuous
 62
     7
370
    15
100
AcDbLine
 10
161.7582857142861
 20
148.2138139535242
 30
0.0
 11
161.7582857142861
 21
147.3138139535242
 31
0.0
  0
LINE
  5
1EB
330
1AD
100
AcDbEntity
  8
0
  6
Continuous
 62
     7
370
    15
100
AcDbLine
 10
167.696608107697
 20
132.6138139534437
 30
0.0
 11
167.696608107697
 21
143.3138139534468
 31
0.0
  0
LINE
  5
1EC
330
1AD
100
AcDbEntity
  8
0
  6
Continuous
 62
     7
370
    15
100
AcDbLine
 10
161.696608107697
 20
143.3138139534468
 30
0.0
 11
161.696608107697
 21
132.6138139534437
 31
0.0
  0
LINE
  5
1ED
330
1AD
100
AcDbEntity
  8
0
  6
Continuous
 62
     7
370
    15
100
AcDbLine
 10
179.6966081076969
 20
132.6138139534437
 30
0.0
 11
179.6966081076969
 21
143.3138139534468
 31
0.0
  0
LINE
  5
1EE
330
1AD
100
AcDbEntity
  8
0
  6
Continuous
 62
     7
370
    15
100
AcDbLine
 10
173.6966081076969
 20
143.3138139534468
 30
0.0
 11
173.6966081076969
 21
132.6138139534437
 31
0.0
  0
LINE
  5
1EF
330
1AD
100
AcDbEntity
  8
0
  6
Continuous
 62
     7
370
    15
100
AcDbLine
 10
173.6966081077853
 20
132.6138139534437
 30
0.0
 11
173.8966081076608
 21
132.4138139535681
 31
0.0
  0
LINE
  5
1F0
330
1AD
100
AcDbEntity
  8
0
  6
Continuous
 62
     7
370
    15
100
AcDbLine
 10
179.496608107733
 20
132.4138139535681
 30
0.0
 11
179.6966081076086
 21
132.6138139534437
 31
0.0
  0
LINE
  5
1F1
330
1AD
100
AcDbEntity
  8
0
  6
Continuous
 62
     7
370
    15
100
AcDbLine
 10
179.7582857142861
 20
147.3138139535242
 30
0.0
 11
179.7582857142861
 21
148.2138139535242
 31
0.0
  0
LINE
  5
1F2
330
1AD
100
AcDbEntity
  8
0
  6
Continuous
 62
     7
370
    15
100
AcDbLine
 10
173.7582857142861
 20
148.2138139535242
 30
0.0
 11
173.7582857142861
 21
147.3138139535242
 31
0.0
  0
LINE
  5
1F3
330
1AD
100
AcDbEntity
  8
0
  6
Continuous
 62
     7
370
    15
100
AcDbLine
 10
191.7582857142861
 20
147.3138139535242
 30
0.0
 11
191.7582857142861
 21
148.2138139535242
 31
0.0
  0
LINE
  5
1F4
330
1AD
100
AcDbEntity
  8
0
  6
Continuous
 62
     7
370
    15
100
AcDbLine
 10
185.7582857142861
 20
148.2138139535242
 30
0.0
 11
185.7582857142861
 21
147.3138139535242
 31
0.0
  0
LINE
  5
1F5
330
1AD
100
AcDbEntity
  8
0
  6
Continuous
 62
     7
370
    15
100
AcDbLine
 10
191.696608107697
 20
132.6138139534437
 30
0.0
 11
191.696608107697
 21
143.3138139534468
 31
0.0
  0
LINE
  5
1F6
330
1AD
100
AcDbEntity
  8
0
  6
Continuous
 62
     7
370
    15
100
AcDbLine
 10
185.696608107697
 20
143.3138139534468
 30
0.0
 11
185.696608107697
 21
132.6138139534437
 31
0.0
  0
LINE
  5
1F7
330
1AD
100
AcDbEntity
  8
0
  6
Continuous
 62
     7
370
    15
100
AcDbLine
 10
185.6966081077853
 20
132.6138139534437
 30
0.0
 11
185.8966081076609
 21
132.4138139535681
 31
0.0
  0
LINE
  5
1F8
330
1AD
100
AcDbEntity
  8
0
  6
Continuous
 62
     7
370
    15
100
AcDbLine
 10
191.4966081077331
 20
132.4138139535681
 30
0.0
 11
191.6966081076086
 21
132.6138139534437
 31
0.0
  0
LINE
  5
1F9
330
1AD
100
AcDbEntity
  8
0
  6
Continuous
 62
     7
370
    15
100
AcDbLine
 10
203.7582857142861
 20
147.3138139535242
 30
0.0
 11
203.7582857142861
 21
148.2138139535242
 31
0.0
  0
LINE
  5
1FA
330
1AD
100
AcDbEntity
  8
0
  6
Continuous
 62
     7
370
    15
100
AcDbLine
 10
197.7582857142861
 20
148.2138139535242
 30
0.0
 11
197.7582857142861
 21
147.3138139535242
 31
0.0
  0
LINE
  5
1FB
330
1AD
100
AcDbEntity
  8
0
  6
Continuous
 62
     7
370
    15
100
AcDbLine
 10
197.6966081077852
 20
132.6138139534437
 30
0.0
 11
197.8966081076608
 21
132.4138139535681
 31
0.0
  0
LINE
  5
1FC
330
1AD
100
AcDbEntity
  8
0
  6
Continuous
 62
     7
370
    15
100
AcDbLine
 10
203.4966081077331
 20
132.4138139535681
 30
0.0
 11
203.6966081076087
 21
132.6138139534437
 31
0.0
  0
LINE
  5
1FD
330
1AD
100
AcDbEntity
  8
0
  6
Continuous
 62
     7
370
    15
100
AcDbLine
 10
203.696608107697
 20
132.6138139534437
 30
0.0
 11
203.696608107697
 21
143.3138139534468
 31
0.0
  0
LINE
  5
1FE
330
1AD
100
AcDbEntity
  8
0
  6
Continuous
 62
     7
370
    15
100
AcDbLine
 10
197.696608107697
 20
143.3138139534468
 30
0.0
 11
197.696608107697
 21
132.6138139534437
 31
0.0
  0
LINE
  5
1FF
330
1AD
100
AcDbEntity
  8
0
  6
Continuous
 62
     7
370
    15
100
AcDbLine
 10
119.6966081076891
 20
143.3138139534468
 30
0.0
 11
119.5966081076005
 21
143.4138139535354
 31
0.0
  0
LINE
  5
200
330
1AD
100
AcDbEntity
  8
0
  6
Continuous
 62
     7
370
    15
100
AcDbLine
 10
113.7966081077934
 20
143.4138139535354
 30
0.0
 11
113.6966081077048
 21
143.3138139534468
 31
0.0
  0
LINE
  5
201
330
1AD
100
AcDbEntity
  8
0
  6
Continuous
 62
     7
370
    15
100
AcDbLine
 10
131.6966081076891
 20
143.3138139534468
 30
0.0
 11
131.5966081076005
 21
143.4138139535354
 31
0.0
  0
LINE
  5
202
330
1AD
100
AcDbEntity
  8
0
  6
Continuous
 62
     7
370
    15
100
AcDbLine
 10
125.7966081077934
 20
143.4138139535354
 30
0.0
 11
125.6966081077048
 21
143.3138139534468
 31
0.0
  0
LINE
  5
203
330
1AD
100
AcDbEntity
  8
0
  6
Continuous
 62
     7
370
    15
100
AcDbLine
 10
143.6966081076891
 20
143.3138139534468
 30
0.0
 11
143.5966081076005
 21
143.4138139535354
 31
0.0
  0
LINE
  5
204
330
1AD
100
AcDbEntity
  8
0
  6
Continuous
 62
     7
370
    15
100
AcDbLine
 10
137.7966081077934
 20
143.4138139535354
 30
0.0
 11
137.6966081077048
 21
143.3138139534468
 31
0.0
  0
LINE
  5
205
330
1AD
100
AcDbEntity
  8
0
  6
Continuous
 62
     7
370
    15
100
AcDbLine
 10
155.6966081076891
 20
143.3138139534468
 30
0.0
 11
155.5966081076005
 21
143.4138139535354
 31
0.0
  0
LINE
  5
206
330
1AD
100
AcDbEntity
  8
0
  6
Continuous
 62
     7
370
    15
100
AcDbLine
 10
149.7966081077934
 20
143.4138139535354
 30
0.0
 11
149.6966081077048
 21
143.3138139534468
 31
0.0
  0
LINE
  5
207
330
1AD
100
AcDbEntity
  8
0
  6
Continuous
 62
     7
370
    15
100
AcDbLine
 10
167.6966081076891
 20
143.3138139534468
 30
0.0
 11
167.5966081076005
 21
143.4138139535354
 31
0.0
  0
LINE
  5
208
330
1AD
100
AcDbEntity
  8
0
  6
Continuous
 62
     7
370
    15
100
AcDbLine
 10
161.7966081077934
 20
143.4138139535354
 30
0.0
 11
161.6966081077048
 21
143.3138139534468
 31
0.0
  0
LINE
  5
209
330
1AD
100
AcDbEntity
  8
0
  6
Continuous
 62
     7
370
    15
100
AcDbLine
 10
179.6966081076891
 20
143.3138139534468
 30
0.0
 11
179.5966081076005
 21
143.4138139535354
 31
0.0
  0
LINE
  5
20A
330
1AD
100
AcDbEntity
  8
0
  6
Continuous
 62
     7
370
    15
100
AcDbLine
 10
173.7966081077934
 20
143.4138139535354
 30
0.0
 11
173.6966081077048
 21
143.3138139534468
 31
0.0
  0
LINE
  5
20B
330
1AD
100
AcDbEntity
  8
0
  6
Continuous
 62
     7
370
    15
100
AcDbLine
 10
191.6966081076891
 20
143.3138139534468
 30
0.0
 11
191.5966081076117
 21
143.4138139535242
 31
0.0
  0
LINE
  5
20C
330
1AD
100
AcDbEntity
  8
0
  6
Continuous
 62
     7
370
    15
100
AcDbLine
 10
185.7966081077822
 20
143.4138139535242
 30
0.0
 11
185.6966081077048
 21
143.3138139534468
 31
0.0
  0
LINE
  5
20D
330
1AD
100
AcDbEntity
  8
0
  6
Continuous
 62
     7
370
    15
100
AcDbLine
 10
203.6966081076887
 20
143.3138139534468
 30
0.0
 11
203.5966081076001
 21
143.4138139535354
 31
0.0
  0
LINE
  5
20E
330
1AD
100
AcDbEntity
  8
0
  6
Continuous
 62
     7
370
    15
100
AcDbLine
 10
197.7966081077939
 20
143.4138139535354
 30
0.0
 11
197.6966081077053
 21
143.3138139534468
 31
0.0
  0
LINE
  5
20F
330
1AD
100
AcDbEntity
  8
0
  6
Continuous
 62
     7
370
    15
100
AcDbLine
 10
113.3111854836564
 20
147.3138139535242
 30
0.0
 11
113.3111854836564
 21
143.4138139535242
 31
0.0
  0
LINE
  5
210
330
1AD
100
AcDbEntity
  8
0
  6
Continuous
 62
     7
370
    15
100
AcDbLine
 10
120.2053859449158
 20
143.4138139535242
 30
0.0
 11
120.2053859449158
 21
147.3138139535242
 31
0.0
  0
LINE
  5
211
330
1AD
100
AcDbEntity
  8
0
  6
Continuous
 62
     7
370
    15
100
AcDbLine
 10
120.2053859449158
 20
147.3138139535242
 30
0.0
 11
113.3111854836564
 21
147.3138139535242
 31
0.0
  0
LINE
  5
212
330
1AD
100
AcDbEntity
  8
0
  6
Continuous
 62
     7
370
    15
100
AcDbLine
 10
120.2053859449158
 20
143.4138139535242
 30
0.0
 11
113.3111854836564
 21
143.4138139535242
 31
0.0
  0
LINE
  5
213
330
1AD
100
AcDbEntity
  8
0
  6
Continuous
 62
     7
370
    15
100
AcDbLine
 10
125.3111854836564
 20
147.3138139535242
 30
0.0
 11
125.3111854836564
 21
143.4138139535242
 31
0.0
  0
LINE
  5
214
330
1AD
100
AcDbEntity
  8
0
  6
Continuous
 62
     7
370
    15
100
AcDbLine
 10
132.2053859449158
 20
143.4138139535242
 30
0.0
 11
132.2053859449158
 21
147.3138139535242
 31
0.0
  0
LINE
  5
215
330
1AD
100
AcDbEntity
  8
0
  6
Continuous
 62
     7
370
    15
100
AcDbLine
 10
132.2053859449158
 20
147.3138139535242
 30
0.0
 11
125.3111854836564
 21
147.3138139535242
 31
0.0
  0
LINE
  5
216
330
1AD
100
AcDbEntity
  8
0
  6
Continuous
 62
     7
370
    15
100
AcDbLine
 10
132.2053859449158
 20
143.4138139535242
 30
0.0
 11
125.3111854836564
 21
143.4138139535242
 31
0.0
  0
LINE
  5
217
330
1AD
100
AcDbEntity
  8
0
  6
Continuous
 62
     7
370
    15
100
AcDbLine
 10
137.3111854836564
 20
147.3138139535242
 30
0.0
 11
137.3111854836564
 21
143.4138139535242
 31
0.0
  0
LINE
  5
218
330
1AD
100
AcDbEntity
  8
0
  6
Continuous
 62
     7
370
    15
100
AcDbLine
 10
144.2053859449158
 20
143.4138139535242
 30
0.0
 11
144.2053859449158
 21
147.3138139535242
 31
0.0
  0
LINE
  5
219
330
1AD
100
AcDbEntity
  8
0
  6
Continuous
 62
     7
370
    15
100
AcDbLine
 10
144.2053859449158
 20
147.3138139535242
 30
0.0
 11
137.3111854836564
 21
147.3138139535242
 31
0.0
  0
LINE
  5
21A
330
1AD
100
AcDbEntity
  8
0
  6
Continuous
 62
     7
370
    15
100
AcDbLine
 10
144.2053859449158
 20
143.4138139535242
 30
0.0
 11
137.3111854836564
 21
143.4138139535242
 31
0.0
  0
LINE
  5
21B
330
1AD
100
AcDbEntity
  8
0
  6
Continuous
 62
     7
370
    15
100
AcDbLine
 10
149.3111854836564
 20
147.3138139535242
 30
0.0
 11
149.3111854836564
 21
143.4138139535242
 31
0.0
  0
LINE
  5
21C
330
1AD
100
AcDbEntity
  8
0
  6
Continuous
 62
     7
370
    15
100
AcDbLine
 10
156.2053859449157
 20
143.4138139535242
 30
0.0
 11
156.2053859449158
 21
147.3138139535242
 31
0.0
  0
LINE
  5
21D
330
1AD
100
AcDbEntity
  8
0
  6
Continuous
 62
     7
370
    15
100
AcDbLine
 10
156.2053859449158
 20
147.3138139535242
 30
0.0
 11
149.3111854836564
 21
147.3138139535242
 31
0.0
  0
LINE
  5
21E
330
1AD
100
AcDbEntity
  8
0
  6
Continuous
 62
     7
370
    15
100
AcDbLine
 10
156.2053859449157
 20
143.4138139535242
 30
0.0
 11
149.3111854836564
 21
143.4138139535242
 31
0.0
  0
LINE
  5
21F
330
1AD
100
AcDbEntity
  8
0
  6
Continuous
 62
     7
370
    15
100
AcDbLine
 10
161.3111854836564
 20
147.3138139535242
 30
0.0
 11
161.3111854836564
 21
143.4138139535242
 31
0.0
  0
LINE
  5
220
330
1AD
100
AcDbEntity
  8
0
  6
Continuous
 62
     7
370
    15
100
AcDbLine
 10
168.2053859449158
 20
143.4138139535242
 30
0.0
 11
168.2053859449158
 21
147.3138139535242
 31
0.0
  0
LINE
  5
221
330
1AD
100
AcDbEntity
  8
0
  6
Continuous
 62
     7
370
    15
100
AcDbLine
 10
168.2053859449158
 20
147.3138139535242
 30
0.0
 11
161.3111854836564
 21
147.3138139535242
 31
0.0
  0
LINE
  5
222
330
1AD
100
AcDbEntity
  8
0
  6
Continuous
 62
     7
370
    15
100
AcDbLine
 10
168.2053859449158
 20
143.4138139535242
 30
0.0
 11
161.3111854836564
 21
143.4138139535242
 31
0.0
  0
LINE
  5
223
330
1AD
100
AcDbEntity
  8
0
  6
Continuous
 62
     7
370
    15
100
AcDbLine
 10
173.3111854836564
 20
147.3138139535242
 30
0.0
 11
173.3111854836564
 21
143.4138139535242
 31
0.0
  0
LINE
  5
224
330
1AD
100
AcDbEntity
  8
0
  6
Continuous
 62
     7
370
    15
100
AcDbLine
 10
180.2053859449158
 20
143.4138139535242
 30
0.0
 11
180.2053859449158
 21
147.3138139535242
 31
0.0
  0
LINE
  5
225
330
1AD
100
AcDbEntity
  8
0
  6
Continuous
 62
     7
370
    15
100
AcDbLine
 10
180.2053859449158
 20
147.3138139535242
 30
0.0
 11
173.3111854836564
 21
147.3138139535242
 31
0.0
  0
LINE
  5
226
330
1AD
100
AcDbEntity
  8
0
  6
Continuous
 62
     7
370
    15
100
AcDbLine
 10
180.2053859449158
 20
143.4138139535242
 30
0.0
 11
173.3111854836564
 21
143.4138139535242
 31
0.0
  0
LINE
  5
227
330
1AD
100
AcDbEntity
  8
0
  6
Continuous
 62
     7
370
    15
100
AcDbLine
 10
185.3111854836564
 20
147.3138139535242
 30
0.0
 11
185.3111854836564
 21
143.4138139535242
 31
0.0
  0
LINE
  5
228
330
1AD
100
AcDbEntity
  8
0
  6
Continuous
 62
     7
370
    15
100
AcDbLine
 10
192.2053859449158
 20
143.4138139535242
 30
0.0
 11
192.2053859449158
 21
147.3138139535242
 31
0.0
  0
LINE
  5
229
330
1AD
100
AcDbEntity
  8
0
  6
Continuous
 62
     7
370
    15
100
AcDbLine
 10
192.2053859449158
 20
147.3138139535242
 30
0.0
 11
185.3111854836564
 21
147.3138139535242
 31
0.0
  0
LINE
  5
22A
330
1AD
100
AcDbEntity
  8
0
  6
Continuous
 62
     7
370
    15
100
AcDbLine
 10
192.2053859449158
 20
143.4138139535242
 30
0.0
 11
185.3111854836564
 21
143.4138139535242
 31
0.0
  0
LINE
  5
22B
330
1AD
100
AcDbEntity
  8
0
  6
Continuous
 62
     7
370
    15
100
AcDbLine
 10
197.3111854836564
 20
147.3138139535242
 30
0.0
 11
197.3111854836564
 21
143.4138139535242
 31
0.0
  0
LINE
  5
22C
330
1AD
100
AcDbEntity
  8
0
  6
Continuous
 62
     7
370
    15
100
AcDbLine
 10
204.2053859449158
 20
143.4138139535242
 30
0.0
 11
204.2053859449158
 21
147.3138139535242
 31
0.0
  0
LINE
  5
22D
330
1AD
100
AcDbEntity
  8
0
  6
Continuous
 62
     7
370
    15
100
AcDbLine
 10
204.2053859449158
 20
147.3138139535242
 30
0.0
 11
197.3111854836564
 21
147.3138139535242
 31
0.0
  0
LINE
  5
22E
330
1AD
100
AcDbEntity
  8
0
  6
Continuous
 62
     7
370
    15
100
AcDbLine
 10
204.2053859449158
 20
143.4138139535242
 30
0.0
 11
197.3111854836564
 21
143.4138139535242
 31
0.0
  0
SPLINE
  5
22F
330
1AD
100
AcDbEntity
  8
0
  6
Continuous
 62
     7
370
    15
100
AcDbSpline
210
0.0
220
0.0
230
1.0
 70
    24
 71
     3
 72
    10
 73
     6
 74
     0
 42
0.0000000001
 43
0.0000000001
 40
0.0
 40
0.0
 40
0.0
 40
0.0
 40
0.5
 40
0.5
 40
1.0
 40
1.0
 40
1.0
 40
1.0
 10
197.5332857142861
 20
148.2138139535242
 30
0.0
 10
197.5332857142861
 20
148.2138139535242
 30
0.0
 10
198.9783598072841
 20
148.2138139535242
 30
0.0
 10
202.5382116212881
 20
148.2138139535242
 30
0.0
 10
203.9832857142861
 20
148.2138139535242
 30
0.0
 10
203.9832857142861
 20
148.2138139535242
 30
0.0
  0
SPLINE
  5
230
330
1AD
100
AcDbEntity
  8
0
  6
Continuous
 62
     7
370
    15
100
AcDbSpline
210
0.0
220
0.0
230
1.0
 70
    24
 71
     3
 72
    10
 73
     6
 74
     0
 42
0.0000000001
 43
0.0000000001
 40
0.0
 40
0.0
 40
0.0
 40
0.0
 40
0.5
 40
0.5
 40
1.0
 40
1.0
 40
1.0
 40
1.0
 10
113.5332857142861
 20
148.2138139535242
 30
0.0
 10
113.5332857142861
 20
148.2138139535242
 30
0.0
 10
114.9783598072841
 20
148.2138139535242
 30
0.0
 10
118.5382116212881
 20
148.2138139535242
 30
0.0
 10
119.9832857142861
 20
148.2138139535242
 30
0.0
 10
119.9832857142861
 20
148.2138139535242
 30
0.0
  0
SPLINE
  5
231
330
1AD
100
AcDbEntity
  8
0
  6
Continuous
 62
     7
370
    15
100
AcDbSpline
210
0.0
220
0.0
230
1.0
 70
    24
 71
     3
 72
    10
 73
     6
 74
     0
 42
0.0000000001
 43
0.0000000001
 40
0.0
 40
0.0
 40
0.0
 40
0.0
 40
0.5
 40
0.5
 40
1.0
 40
1.0
 40
1.0
 40
1.0
 10
125.5332857142861
 20
148.2138139535242
 30
0.0
 10
125.5332857142861
 20
148.2138139535242
 30
0.0
 10
126.9783598072841
 20
148.2138139535242
 30
0.0
 10
130.5382116212881
 20
148.2138139535242
 30
0.0
 10
131.9832857142861
 20
148.2138139535242
 30
0.0
 10
131.9832857142861
 20
148.2138139535242
 30
0.0
  0
SPLINE
  5
232
330
1AD
100
AcDbEntity
  8
0
  6
Continuous
 62
     7
370
    15
100
AcDbSpline
210
0.0
220
0.0
230
1.0
 70
    24
 71
     3
 72
    10
 73
     6
 74
     0
 42
0.0000000001
 43
0.0000000001
 40
0.0
 40
0.0
 40
0.0
 40
0.0
 40
0.5
 40
0.5
 40
1.0
 40
1.0
 40
1.0
 40
1.0
 10
137.5332857142861
 20
148.2138139535242
 30
0.0
 10
137.5332857142861
 20
148.2138139535242
 30
0.0
 10
138.9783598072841
 20
148.2138139535242
 30
0.0
 10
142.5382116212881
 20
148.2138139535242
 30
0.0
 10
143.9832857142861
 20
148.2138139535242
 30
0.0
 10
143.9832857142861
 20
148.2138139535242
 30
0.0
  0
SPLINE
  5
233
330
1AD
100
AcDbEntity
  8
0
  6
Continuous
 62
     7
370
    15
100
AcDbSpline
210
0.0
220
0.0
230
1.0
 70
    24
 71
     3
 72
    10
 73
     6
 74
     0
 42
0.0000000001
 43
0.0000000001
 40
0.0
 40
0.0
 40
0.0
 40
0.0
 40
0.5
 40
0.5
 40
1.0
 40
1.0
 40
1.0
 40
1.0
 10
149.5332857142861
 20
148.2138139535242
 30
0.0
 10
149.5332857142861
 20
148.2138139535242
 30
0.0
 10
150.9783598072841
 20
148.2138139535242
 30
0.0
 10
154.5382116212881
 20
148.2138139535242
 30
0.0
 10
155.9832857142861
 20
148.2138139535242
 30
0.0
 10
155.9832857142861
 20
148.2138139535242
 30
0.0
  0
SPLINE
  5
234
330
1AD
100
AcDbEntity
  8
0
  6
Continuous
 62
     7
370
    15
100
AcDbSpline
210
0.0
220
0.0
230
1.0
 70
    24
 71
     3
 72
    10
 73
     6
 74
     0
 42
0.0000000001
 43
0.0000000001
 40
0.0
 40
0.0
 40
0.0
 40
0.0
 40
0.5
 40
0.5
 40
1.0
 40
1.0
 40
1.0
 40
1.0
 10
161.5332857142861
 20
148.2138139535242
 30
0.0
 10
161.5332857142861
 20
148.2138139535242
 30
0.0
 10
162.9783598072841
 20
148.2138139535242
 30
0.0
 10
166.5382116212881
 20
148.2138139535242
 30
0.0
 10
167.9832857142861
 20
148.2138139535242
 30
0.0
 10
167.9832857142861
 20
148.2138139535242
 30
0.0
  0
SPLINE
  5
235
330
1AD
100
AcDbEntity
  8
0
  6
Continuous
 62
     7
370
    15
100
AcDbSpline
210
0.0
220
0.0
230
1.0
 70
    24
 71
     3
 72
    10
 73
     6
 74
     0
 42
0.0000000001
 43
0.0000000001
 40
0.0
 40
0.0
 40
0.0
 40
0.0
 40
0.5
 40
0.5
 40
1.0
 40
1.0
 40
1.0
 40
1.0
 10
173.5332857142861
 20
148.2138139535242
 30
0.0
 10
173.5332857142861
 20
148.2138139535242
 30
0.0
 10
174.9783598072841
 20
148.2138139535242
 30
0.0
 10
178.5382116212881
 20
148.2138139535242
 30
0.0
 10
179.9832857142861
 20
148.2138139535242
 30
0.0
 10
179.9832857142861
 20
148.2138139535242
 30
0.0
  0
SPLINE
  5
236
330
1AD
100
AcDbEntity
  8
0
  6
Continuous
 62
     7
370
    15
100
AcDbSpline
210
0.0
220
0.0
230
1.0
 70
    24
 71
     3
 72
    10
 73
     6
 74
     0
 42
0.0000000001
 43
0.0000000001
 40
0.0
 40
0.0
 40
0.0
 40
0.0
 40
0.5
 40
0.5
 40
1.0
 40
1.0
 40
1.0
 40
1.0
 10
185.5332857142861
 20
148.2138139535242
 30
0.0
 10
185.5332857142861
 20
148.2138139535242
 30
0.0
 10
186.9783598072841
 20
148.2138139535242
 30
0.0
 10
190.5382116212881
 20
148.2138139535242
 30
0.0
 10
191.9832857142861
 20
148.2138139535242
 30
0.0
 10
191.9832857142861
 20
148.2138139535242
 30
0.0
  0
LINE
  5
237
330
1AD
100
AcDbEntity
  8
0
  6
Continuous
 62
     7
370
    15
100
AcDbLine
 10
120.1832857142861
 20
153.6138139535242
 30
0.0
 11
113.3332857142861
 21
153.6138139535242
 31
0.0
  0
LINE
  5
238
330
1AD
100
AcDbEntity
  8
0
  6
Continuous
 62
     7
370
    15
100
AcDbLine
 10
132.1832857142861
 20
153.6138139535242
 30
0.0
 11
125.3332857142861
 21
153.6138139535242
 31
0.0
  0
LINE
  5
239
330
1AD
100
AcDbEntity
  8
0
  6
Continuous
 62
     7
370
    15
100
AcDbLine
 10
144.1832857142861
 20
153.6138139535242
 30
0.0
 11
137.3332857142861
 21
153.6138139535242
 31
0.0
  0
LINE
  5
23A
330
1AD
100
AcDbEntity
  8
0
  6
Continuous
 62
     7
370
    15
100
AcDbLine
 10
156.1832857142861
 20
153.6138139535242
 30
0.0
 11
149.3332857142861
 21
153.6138139535242
 31
0.0
  0
LINE
  5
23B
330
1AD
100
AcDbEntity
  8
0
  6
Continuous
 62
     7
370
    15
100
AcDbLine
 10
168.1832857142861
 20
153.6138139535242
 30
0.0
 11
161.3332857142861
 21
153.6138139535242
 31
0.0
  0
LINE
  5
23C
330
1AD
100
AcDbEntity
  8
0
  6
Continuous
 62
     7
370
    15
100
AcDbLine
 10
180.1832857142861
 20
153.6138139535242
 30
0.0
 11
173.3332857142861
 21
153.6138139535242
 31
0.0
  0
LINE
  5
23D
330
1AD
100
AcDbEntity
  8
0
  6
Continuous
 62
     7
370
    15
100
AcDbLine
 10
204.1832857142861
 20
153.6138139535242
 30
0.0
 11
197.3332857142861
 21
153.6138139535242
 31
0.0
  0
LINE
  5
23E
330
1AD
100
AcDbEntity
  8
0
  6
Continuous
 62
     7
370
    15
100
AcDbLine
 10
192.1832857142861
 20
153.6138139535242
 30
0.0
 11
185.3332857142861
 21
153.6138139535242
 31
0.0
  0
LINE
  5
23F
330
1AD
100
AcDbEntity
  8
0
  6
Continuous
 62
     7
370
    15
100
AcDbLine
 10
111.0582857142861
 20
147.3138139535242
 30
0.0
 11
111.0582857142861
 21
143.4138139535242
 31
0.0
  0
LINE
  5
240
330
1AD
100
AcDbEntity
  8
0
  6
Continuous
 62
     7
370
    15
100
AcDbLine
 10
111.0582857142861
 20
147.3138139535242
 30
0.0
 11
113.3111854836564
 21
147.3138139535242
 31
0.0
  0
LINE
  5
241
330
1AD
100
AcDbEntity
  8
0
  6
Continuous
 62
     7
370
    15
100
AcDbLine
 10
113.3111854836564
 20
143.4138139535242
 30
0.0
 11
111.0582857142861
 21
143.4138139535242
 31
0.0
  0
LINE
  5
242
330
1AD
100
AcDbEntity
  8
0
  6
Continuous
 62
     7
370
    15
100
AcDbLine
 10
120.2053859449158
 20
147.3138139535242
 30
0.0
 11
125.3111854836564
 21
147.3138139535242
 31
0.0
  0
LINE
  5
243
330
1AD
100
AcDbEntity
  8
0
  6
Continuous
 62
     7
370
    15
100
AcDbLine
 10
125.3111854836564
 20
143.4138139535242
 30
0.0
 11
120.2053859449158
 21
143.4138139535242
 31
0.0
  0
LINE
  5
244
330
1AD
100
AcDbEntity
  8
0
  6
Continuous
 62
     7
370
    15
100
AcDbLine
 10
132.2053859449158
 20
147.3138139535242
 30
0.0
 11
137.3111854836564
 21
147.3138139535242
 31
0.0
  0
LINE
  5
245
330
1AD
100
AcDbEntity
  8
0
  6
Continuous
 62
     7
370
    15
100
AcDbLine
 10
137.3111854836564
 20
143.4138139535242
 30
0.0
 11
132.2053859449158
 21
143.4138139535242
 31
0.0
  0
LINE
  5
246
330
1AD
100
AcDbEntity
  8
0
  6
Continuous
 62
     7
370
    15
100
AcDbLine
 10
144.2053859449158
 20
147.3138139535242
 30
0.0
 11
149.3111854836564
 21
147.3138139535242
 31
0.0
  0
LINE
  5
247
330
1AD
100
AcDbEntity
  8
0
  6
Continuous
 62
     7
370
    15
100
AcDbLine
 10
149.3111854836564
 20
143.4138139535242
 30
0.0
 11
144.2053859449158
 21
143.4138139535242
 31
0.0
  0
LINE
  5
248
330
1AD
100
AcDbEntity
  8
0
  6
Continuous
 62
     7
370
    15
100
AcDbLine
 10
156.2053859449158
 20
147.3138139535242
 30
0.0
 11
161.3111854836564
 21
147.3138139535242
 31
0.0
  0
LINE
  5
249
330
1AD
100
AcDbEntity
  8
0
  6
Continuous
 62
     7
370
    15
100
AcDbLine
 10
161.3111854836564
 20
143.4138139535242
 30
0.0
 11
156.2053859449157
 21
143.4138139535242
 31
0.0
  0
LINE
  5
24A
330
1AD
100
AcDbEntity
  8
0
  6
Continuous
 62
     7
370
    15
100
AcDbLine
 10
168.2053859449158
 20
147.3138139535242
 30
0.0
 11
173.3111854836564
 21
147.3138139535242
 31
0.0
  0
LINE
  5
24B
330
1AD
100
AcDbEntity
  8
0
  6
Continuous
 62
     7
370
    15
100
AcDbLine
 10
173.3111854836564
 20
143.4138139535242
 30
0.0
 11
168.2053859449158
 21
143.4138139535242
 31
0.0
  0
LINE
  5
24C
330
1AD
100
AcDbEntity
  8
0
  6
Continuous
 62
     7
370
    15
100
AcDbLine
 10
180.2053859449158
 20
147.3138139535242
 30
0.0
 11
185.3111854836564
 21
147.3138139535242
 31
0.0
  0
LINE
  5
24D
330
1AD
100
AcDbEntity
  8
0
  6
Continuous
 62
     7
370
    15
100
AcDbLine
 10
185.3111854836564
 20
143.4138139535242
 30
0.0
 11
180.2053859449158
 21
143.4138139535242
 31
0.0
  0
LINE
  5
24E
330
1AD
100
AcDbEntity
  8
0
  6
Continuous
 62
     7
370
    15
100
AcDbLine
 10
192.2053859449158
 20
147.3138139535242
 30
0.0
 11
197.3111854836564
 21
147.3138139535242
 31
0.0
  0
LINE
  5
24F
330
1AD
100
AcDbEntity
  8
0
  6
Continuous
 62
     7
370
    15
100
AcDbLine
 10
197.3111854836564
 20
143.4138139535242
 30
0.0
 11
192.2053859449158
 21
143.4138139535242
 31
0.0
  0
LINE
  5
250
330
1AD
100
AcDbEntity
  8
0
  6
Continuous
 62
     7
370
    15
100
AcDbLine
 10
206.4582857142853
 20
147.3138139535242
 30
0.0
 11
206.4582857142853
 21
143.4138139535242
 31
0.0
  0
LINE
  5
251
330
1AD
100
AcDbEntity
  8
0
  6
Continuous
 62
     7
370
    15
100
AcDbLine
 10
204.2053859449158
 20
147.3138139535242
 30
0.0
 11
206.4582857142853
 21
147.3138139535242
 31
0.0
  0
LINE
  5
252
330
1AD
100
AcDbEntity
  8
0
  6
Continuous
 62
     7
370
    15
100
AcDbLine
 10
206.4582857142853
 20
143.4138139535242
 30
0.0
 11
204.2053859449158
 21
143.4138139535242
 31
0.0
  0
LINE
  5
253
330
1AD
100
AcDbEntity
  8
0
  6
Continuous
 62
     7
370
    15
100
AcDbLine
 10
113.6966081076969
 20
132.6138139534437
 30
0.0
 11
119.6966081076969
 21
132.6138139534437
 31
0.0
  0
LINE
  5
254
330
1AD
100
AcDbEntity
  8
0
  6
Continuous
 62
     7
370
    15
100
AcDbLine
 10
116.6966081076969
 20
132.4138139535681
 30
0.0
 11
119.496608107733
 21
132.4138139535681
 31
0.0
  0
LINE
  5
255
330
1AD
100
AcDbEntity
  8
0
  6
Continuous
 62
     7
370
    15
100
AcDbLine
 10
113.8966081076608
 20
132.4138139535681
 30
0.0
 11
116.6966081076969
 21
132.4138139535681
 31
0.0
  0
LINE
  5
256
330
1AD
100
AcDbEntity
  8
0
  6
Continuous
 62
     7
370
    15
100
AcDbLine
 10
113.6966081077048
 20
143.3138139534468
 30
0.0
 11
119.6966081076891
 21
143.3138139534468
 31
0.0
  0
LINE
  5
257
330
1AD
100
AcDbEntity
  8
0
  6
Continuous
 62
     7
370
    15
100
AcDbLine
 10
125.6966081077048
 20
143.3138139534468
 30
0.0
 11
131.6966081076891
 21
143.3138139534468
 31
0.0
  0
LINE
  5
258
330
1AD
100
AcDbEntity
  8
0
  6
Continuous
 62
     7
370
    15
100
AcDbLine
 10
125.696608107697
 20
132.6138139534437
 30
0.0
 11
131.6966081076969
 21
132.6138139534437
 31
0.0
  0
LINE
  5
259
330
1AD
100
AcDbEntity
  8
0
  6
Continuous
 62
     7
370
    15
100
AcDbLine
 10
128.696608107697
 20
132.4138139535681
 30
0.0
 11
131.4966081077331
 21
132.4138139535681
 31
0.0
  0
LINE
  5
25A
330
1AD
100
AcDbEntity
  8
0
  6
Continuous
 62
     7
370
    15
100
AcDbLine
 10
125.8966081076609
 20
132.4138139535681
 30
0.0
 11
128.696608107697
 21
132.4138139535681
 31
0.0
  0
LINE
  5
25B
330
1AD
100
AcDbEntity
  8
0
  6
Continuous
 62
     7
370
    15
100
AcDbLine
 10
137.6966081077048
 20
143.3138139534468
 30
0.0
 11
143.6966081076891
 21
143.3138139534468
 31
0.0
  0
LINE
  5
25C
330
1AD
100
AcDbEntity
  8
0
  6
Continuous
 62
     7
370
    15
100
AcDbLine
 10
137.6966081076969
 20
132.6138139534437
 30
0.0
 11
143.6966081076969
 21
132.6138139534437
 31
0.0
  0
LINE
  5
25D
330
1AD
100
AcDbEntity
  8
0
  6
Continuous
 62
     7
370
    15
100
AcDbLine
 10
140.6966081076969
 20
132.4138139535681
 30
0.0
 11
143.496608107733
 21
132.4138139535681
 31
0.0
  0
LINE
  5
25E
330
1AD
100
AcDbEntity
  8
0
  6
Continuous
 62
     7
370
    15
100
AcDbLine
 10
137.8966081076608
 20
132.4138139535681
 30
0.0
 11
140.6966081076969
 21
132.4138139535681
 31
0.0
  0
LINE
  5
25F
330
1AD
100
AcDbEntity
  8
0
  6
Continuous
 62
     7
370
    15
100
AcDbLine
 10
149.6966081077048
 20
143.3138139534468
 30
0.0
 11
155.6966081076891
 21
143.3138139534468
 31
0.0
  0
LINE
  5
260
330
1AD
100
AcDbEntity
  8
0
  6
Continuous
 62
     7
370
    15
100
AcDbLine
 10
149.6966081076969
 20
132.6138139534437
 30
0.0
 11
155.696608107697
 21
132.6138139534437
 31
0.0
  0
LINE
  5
261
330
1AD
100
AcDbEntity
  8
0
  6
Continuous
 62
     7
370
    15
100
AcDbLine
 10
152.6966081076969
 20
132.4138139535681
 30
0.0
 11
155.496608107733
 21
132.4138139535681
 31
0.0
  0
LINE
  5
262
330
1AD
100
AcDbEntity
  8
0
  6
Continuous
 62
     7
370
    15
100
AcDbLine
 10
149.8966081076608
 20
132.4138139535681
 30
0.0
 11
152.6966081076969
 21
132.4138139535681
 31
0.0
  0
LINE
  5
263
330
1AD
100
AcDbEntity
  8
0
  6
Continuous
 62
     7
370
    15
100
AcDbLine
 10
161.696608107697
 20
132.6138139534437
 30
0.0
 11
167.696608107697
 21
132.6138139534437
 31
0.0
  0
LINE
  5
264
330
1AD
100
AcDbEntity
  8
0
  6
Continuous
 62
     7
370
    15
100
AcDbLine
 10
164.696608107697
 20
132.4138139535681
 30
0.0
 11
167.4966081077331
 21
132.4138139535681
 31
0.0
  0
LINE
  5
265
330
1AD
100
AcDbEntity
  8
0
  6
Continuous
 62
     7
370
    15
100
AcDbLine
 10
161.8966081076609
 20
132.4138139535681
 30
0.0
 11
164.696608107697
 21
132.4138139535681
 31
0.0
  0
LINE
  5
266
330
1AD
100
AcDbEntity
  8
0
  6
Continuous
 62
     7
370
    15
100
AcDbLine
 10
161.6966081077048
 20
143.3138139534468
 30
0.0
 11
167.6966081076891
 21
143.3138139534468
 31
0.0
  0
LINE
  5
267
330
1AD
100
AcDbEntity
  8
0
  6
Continuous
 62
     7
370
    15
100
AcDbLine
 10
173.6966081077048
 20
143.3138139534468
 30
0.0
 11
179.6966081076891
 21
143.3138139534468
 31
0.0
  0
LINE
  5
268
330
1AD
100
AcDbEntity
  8
0
  6
Continuous
 62
     7
370
    15
100
AcDbLine
 10
173.6966081076969
 20
132.6138139534437
 30
0.0
 11
179.6966081076969
 21
132.6138139534437
 31
0.0
  0
LINE
  5
269
330
1AD
100
AcDbEntity
  8
0
  6
Continuous
 62
     7
370
    15
100
AcDbLine
 10
176.6966081076969
 20
132.4138139535681
 30
0.0
 11
179.496608107733
 21
132.4138139535681
 31
0.0
  0
LINE
  5
26A
330
1AD
100
AcDbEntity
  8
0
  6
Continuous
 62
     7
370
    15
100
AcDbLine
 10
173.8966081076608
 20
132.4138139535681
 30
0.0
 11
176.6966081076969
 21
132.4138139535681
 31
0.0
  0
LINE
  5
26B
330
1AD
100
AcDbEntity
  8
0
  6
Continuous
 62
     7
370
    15
100
AcDbLine
 10
185.6966081077048
 20
143.3138139534468
 30
0.0
 11
191.6966081076891
 21
143.3138139534468
 31
0.0
  0
LINE
  5
26C
330
1AD
100
AcDbEntity
  8
0
  6
Continuous
 62
     7
370
    15
100
AcDbLine
 10
185.696608107697
 20
132.6138139534437
 30
0.0
 11
191.696608107697
 21
132.6138139534437
 31
0.0
  0
LINE
  5
26D
330
1AD
100
AcDbEntity
  8
0
  6
Continuous
 62
     7
370
    15
100
AcDbLine
 10
188.696608107697
 20
132.4138139535681
 30
0.0
 11
191.4966081077331
 21
132.4138139535681
 31
0.0
  0
LINE
  5
26E
330
1AD
100
AcDbEntity
  8
0
  6
Continuous
 62
     7
370
    15
100
AcDbLine
 10
185.8966081076609
 20
132.4138139535681
 30
0.0
 11
188.696608107697
 21
132.4138139535681
 31
0.0
  0
LINE
  5
26F
330
1AD
100
AcDbEntity
  8
0
  6
Continuous
 62
     7
370
    15
100
AcDbLine
 10
197.696608107697
 20
132.6138139534437
 30
0.0
 11
203.696608107697
 21
132.6138139534437
 31
0.0
  0
LINE
  5
270
330
1AD
100
AcDbEntity
  8
0
  6
Continuous
 62
     7
370
    15
100
AcDbLine
 10
200.696608107697
 20
132.4138139535681
 30
0.0
 11
203.4966081077331
 21
132.4138139535681
 31
0.0
  0
LINE
  5
271
330
1AD
100
AcDbEntity
  8
0
  6
Continuous
 62
     7
370
    15
100
AcDbLine
 10
197.8966081076608
 20
132.4138139535681
 30
0.0
 11
200.696608107697
 21
132.4138139535681
 31
0.0
  0
LINE
  5
272
330
1AD
100
AcDbEntity
  8
0
  6
Continuous
 62
     7
370
    15
100
AcDbLine
 10
197.6966081077053
 20
143.3138139534468
 30
0.0
 11
203.6966081076887
 21
143.3138139534468
 31
0.0
  0
LINE
  5
273
330
1AD
100
AcDbEntity
  8
0
  6
Continuous
 62
     8
370
    15
100
AcDbLine
 10
204.1832857142861
 20
148.4138139535242
 30
0.0
 11
197.3332857142861
 21
148.4138139535242
 31
0.0
  0
LINE
  5
274
330
1AD
100
AcDbEntity
  8
0
  6
Continuous
 62
     8
370
    15
100
AcDbLine
 10
120.1832857142861
 20
148.4138139535242
 30
0.0
 11
113.3332857142861
 21
148.4138139535242
 31
0.0
  0
LINE
  5
275
330
1AD
100
AcDbEntity
  8
0
  6
Continuous
 62
     8
370
    15
100
AcDbLine
 10
132.1832857142861
 20
148.4138139535242
 30
0.0
 11
125.3332857142861
 21
148.4138139535242
 31
0.0
  0
LINE
  5
276
330
1AD
100
AcDbEntity
  8
0
  6
Continuous
 62
     8
370
    15
100
AcDbLine
 10
144.1832857142861
 20
148.4138139535242
 30
0.0
 11
137.3332857142861
 21
148.4138139535242
 31
0.0
  0
LINE
  5
277
330
1AD
100
AcDbEntity
  8
0
  6
Continuous
 62
     8
370
    15
100
AcDbLine
 10
156.1832857142861
 20
148.4138139535242
 30
0.0
 11
149.3332857142861
 21
148.4138139535242
 31
0.0
  0
LINE
  5
278
330
1AD
100
AcDbEntity
  8
0
  6
Continuous
 62
     8
370
    15
100
AcDbLine
 10
168.1832857142861
 20
148.4138139535242
 30
0.0
 11
161.3332857142861
 21
148.4138139535242
 31
0.0
  0
LINE
  5
279
330
1AD
100
AcDbEntity
  8
0
  6
Continuous
 62
     8
370
    15
100
AcDbLine
 10
180.1832857142861
 20
148.4138139535242
 30
0.0
 11
173.3332857142861
 21
148.4138139535242
 31
0.0
  0
LINE
  5
27A
330
1AD
100
AcDbEntity
  8
0
  6
Continuous
 62
     8
370
    15
100
AcDbLine
 10
192.1832857142861
 20
148.4138139535242
 30
0.0
 11
185.3332857142861
 21
148.4138139535242
 31
0.0
  0
ENDBLK
  5
27B
330
1AD
100
AcDbEntity
  8
0
100
AcDbBlockEnd
  0
BLOCK
  5
27D
330
27C
100
AcDbEntity
  8
0
100
AcDbBlockBegin
  2
2
 70
     0
 10
0.0
 20
0.0
 30
0.0
  3
2
  1

  0
LINE
  5
27E
330
27C
100
AcDbEntity
  8
0
  6
Continuous
 62
     7
370
    15
100
AcDbLine
 10
95.9281688685915
 20
147.3138139535242
 30
0.0
 11
95.9281688685915
 21
143.4138139535242
 31
0.0
  0
LINE
  5
27F
330
27C
100
AcDbEntity
  8
0
  6
Continuous
 62
     7
370
    15
100
AcDbLine
 10
103.3281688685915
 20
143.4138139535242
 30
0.0
 11
103.3281688685915
 21
147.3138139535242
 31
0.0
  0
ARC
  5
280
330
27C
100
AcDbEntity
  8
0
  6
Continuous
 62
     7
370
    15
100
AcDbCircle
 10
96.40316886859162
 20
148.4138139535242
 30
0.0
 40
0.2000000000000028
100
AcDbArc
 50
180.0
 51
270.0000000000008
  0
ARC
  5
281
330
27C
100
AcDbEntity
  8
0
  6
Continuous
 62
     7
370
    15
100
AcDbCircle
 10
102.8531688685916
 20
148.4138139535242
 30
0.0
 40
0.2000000000000028
100
AcDbArc
 50
270.0000000000008
 51
0.0
  0
LINE
  5
282
330
27C
100
AcDbEntity
  8
0
  6
Continuous
 62
     7
370
    15
100
AcDbLine
 10
103.0531688685916
 20
148.4138139535242
 30
0.0
 11
103.0531688685916
 21
153.6138139535242
 31
0.0
  0
LINE
  5
283
330
27C
100
AcDbEntity
  8
0
  6
Continuous
 62
     7
370
    15
100
AcDbLine
 10
96.20316886859162
 20
153.6138139535242
 30
0.0
 11
96.20316886859162
 21
148.4138139535242
 31
0.0
  0
LINE
  5
284
330
27C
100
AcDbEntity
  8
0
  6
Continuous
 62
     7
370
    15
100
AcDbLine
 10
102.6281688685916
 20
147.3138139535242
 30
0.0
 11
102.6281688685916
 21
148.2138139535242
 31
0.0
  0
LINE
  5
285
330
27C
100
AcDbEntity
  8
0
  6
Continuous
 62
     7
370
    15
100
AcDbLine
 10
96.62816886859163
 20
148.2138139535242
 30
0.0
 11
96.62816886859163
 21
147.3138139535242
 31
0.0
  0
LINE
  5
286
330
27C
100
AcDbEntity
  8
0
  6
Continuous
 62
     7
370
    15
100
AcDbLine
 10
102.6281688685916
 20
132.6138139534437
 30
0.0
 11
102.6281688685916
 21
143.3138139534468
 31
0.0
  0
LINE
  5
287
330
27C
100
AcDbEntity
  8
0
  6
Continuous
 62
     7
370
    15
100
AcDbLine
 10
96.62816886859163
 20
143.3138139534468
 30
0.0
 11
96.62816886859163
 21
132.6138139534437
 31
0.0
  0
LINE
  5
288
330
27C
100
AcDbEntity
  8
0
  6
Continuous
 62
     7
370
    15
100
AcDbLine
 10
96.62816886867993
 20
132.6138139534437
 30
0.0
 11
96.82816886855551
 21
132.4138139535681
 31
0.0
  0
LINE
  5
289
330
27C
100
AcDbEntity
  8
0
  6
Continuous
 62
     7
370
    15
100
AcDbLine
 10
102.4281688686277
 20
132.4138139535681
 30
0.0
 11
102.6281688685033
 21
132.6138139534437
 31
0.0
  0
LINE
  5
28A
330
27C
100
AcDbEntity
  8
0
  6
Continuous
 62
     7
370
    15
100
AcDbLine
 10
102.6281688685833
 20
143.3138139534468
 30
0.0
 11
102.5281688684947
 21
143.4138139535354
 31
0.0
  0
LINE
  5
28B
330
27C
100
AcDbEntity
  8
0
  6
Continuous
 62
     7
370
    15
100
AcDbLine
 10
96.72816886868853
 20
143.4138139535354
 30
0.0
 11
96.62816886859994
 21
143.3138139534468
 31
0.0
  0
LINE
  5
28C
330
27C
100
AcDbEntity
  8
0
  6
Continuous
 62
     7
370
    15
100
AcDbLine
 10
96.27816886859172
 20
147.3138139535242
 30
0.0
 11
96.27816886859172
 21
143.4138139535242
 31
0.0
  0
LINE
  5
28D
330
27C
100
AcDbEntity
  8
0
  6
Continuous
 62
     7
370
    15
100
AcDbLine
 10
102.9781688685917
 20
147.3138139535242
 30
0.0
 11
102.9781688685917
 21
143.4138139535242
 31
0.0
  0
LINE
  5
28E
330
27C
100
AcDbEntity
  8
0
  6
Continuous
 62
     7
370
    15
100
AcDbLine
 10
102.9781688685917
 20
143.4138139535242
 30
0.0
 11
96.27816886859172
 21
143.4138139535242
 31
0.0
  0
LINE
  5
28F
330
27C
100
AcDbEntity
  8
0
  6
Continuous
 62
     7
370
    15
100
AcDbLine
 10
96.27816886859172
 20
147.3138139535242
 30
0.0
 11
102.9781688685917
 21
147.3138139535242
 31
0.0
  0
LINE
  5
290
330
27C
100
AcDbEntity
  8
0
  6
Continuous
 62
     7
370
    15
100
AcDbLine
 10
96.27816886859172
 20
143.4138139535242
 30
0.0
 11
95.92816886859148
 21
143.4138139535242
 31
0.0
  0
LINE
  5
291
330
27C
100
AcDbEntity
  8
0
  6
Continuous
 62
     7
370
    15
100
AcDbLine
 10
96.27816886859172
 20
147.3138139535242
 30
0.0
 11
95.92816886859148
 21
147.3138139535242
 31
0.0
  0
LINE
  5
292
330
27C
100
AcDbEntity
  8
0
  6
Continuous
 62
     7
370
    15
100
AcDbLine
 10
103.3281688685915
 20
143.4138139535242
 30
0.0
 11
102.9781688685917
 21
143.4138139535242
 31
0.0
  0
LINE
  5
293
330
27C
100
AcDbEntity
  8
0
  6
Continuous
 62
     7
370
    15
100
AcDbLine
 10
103.3281688685915
 20
147.3138139535242
 30
0.0
 11
102.9781688685917
 21
147.3138139535242
 31
0.0
  0
SPLINE
  5
294
330
27C
100
AcDbEntity
  8
0
  6
Continuous
 62
     7
370
    15
100
AcDbSpline
210
0.0
220
0.0
230
1.0
 70
    24
 71
     3
 72
    10
 73
     6
 74
     0
 42
0.0000000001
 43
0.0000000001
 40
0.0
 40
0.0
 40
0.0
 40
0.0
 40
0.5
 40
0.5
 40
1.0
 40
1.0
 40
1.0
 40
1.0
 10
96.40316886859162
 20
148.2138139535242
 30
0.0
 10
96.40316886859164
 20
148.2138139535242
 30
0.0
 10
96.74296179523199
 20
148.2138139535242
 30
0.0
 10
97.95253720329808
 20
148.2138139535242
 30
0.0
 10
98.77286989519163
 20
148.2138139535242
 30
0.0
 10
99.62816886859164
 20
148.2138139535242
 30
0.0
  0
SPLINE
  5
295
330
27C
100
AcDbEntity
  8
0
  6
Continuous
 62
     7
370
    15
100
AcDbSpline
210
0.0
220
0.0
230
1.0
 70
    24
 71
     3
 72
     8
 73
     4
 74
     0
 42
0.0000000001
 43
0.0000000001
 40
0.0
 40
0.0
 40
0.0
 40
0.0
 40
1.0
 40
1.0
 40
1.0
 40
1.0
 10
99.62816886859162
 20
148.2138139535242
 30
0.0
 10
101.4080947755936
 20
148.2138139535242
 30
0.0
 10
102.8531688685916
 20
148.2138139535242
 30
0.0
 10
102.8531688685916
 20
148.2138139535242
 30
0.0
  0
LINE
  5
296
330
27C
100
AcDbEntity
  8
0
  6
Continuous
 62
     7
370
    15
100
AcDbLine
 10
103.0531688685916
 20
153.6138139535242
 30
0.0
 11
96.20316886859162
 21
153.6138139535242
 31
0.0
  0
LINE
  5
297
330
27C
100
AcDbEntity
  8
0
  6
Continuous
 62
     7
370
    15
100
AcDbLine
 10
96.62816886859163
 20
143.3138139534468
 30
0.0
 11
102.6281688685916
 21
143.3138139534468
 31
0.0
  0
LINE
  5
298
330
27C
100
AcDbEntity
  8
0
  6
Continuous
 62
     7
370
    15
100
AcDbLine
 10
96.62816886859163
 20
132.6138139534437
 30
0.0
 11
102.6281688685916
 21
132.6138139534437
 31
0.0
  0
LINE
  5
299
330
27C
100
AcDbEntity
  8
0
  6
Continuous
 62
     7
370
    15
100
AcDbLine
 10
96.82816886855551
 20
132.4138139535681
 30
0.0
 11
102.4281688686277
 21
132.4138139535681
 31
0.0
  0
LINE
  5
29A
330
27C
100
AcDbEntity
  8
0
  6
Continuous
 62
     8
370
    15
100
AcDbLine
 10
99.62816886859162
 20
148.4138139535242
 30
0.0
 11
96.20316886859162
 21
148.4138139535242
 31
0.0
  0
LINE
  5
29B
330
27C
100
AcDbEntity
  8
0
  6
Continuous
 62
     8
370
    15
100
AcDbLine
 10
103.0531688685916
 20
148.4138139535242
 30
0.0
 11
99.62816886859162
 21
148.4138139535242
 31
0.0
  0
ENDBLK
  5
29C
330
27C
100
AcDbEntity
  8
0
100
AcDbBlockEnd
  0
BLOCK
  5
29E
330
29D
100
AcDbEntity
  8
0
100
AcDbBlockBegin
  2
3
 70
     0
 10
0.0
 20
0.0
 30
0.0
  3
3
  1

  0
CIRCLE
  5
29F
330
29D
100
AcDbEntity
  8
0
  6
Continuous
 62
     7
370
    15
100
AcDbCircle
 10
116.7582857142861
 20
113.1321533639086
 30
0.0
 40
2.475000000010325
  0
ARC
  5
2A0
330
29D
100
AcDbEntity
  8
0
  6
Continuous
 62
     7
370
    15
100
AcDbCircle
 10
116.7582857142861
 20
113.1321533639086
 30
0.0
 40
2.197439522057315
100
AcDbArc
 50
13.15214010487611
 51
166.8478598951401
  0
ARC
  5
2A1
330
29D
100
AcDbEntity
  8
0
  6
Continuous
 62
     7
370
    15
100
AcDbCircle
 10
116.7582857142861
 20
113.1321533639086
 30
0.0
 40
2.145679479873088
100
AcDbArc
 50
166.5246847195753
 51
193.4753152804251
  0
ARC
  5
2A2
330
29D
100
AcDbEntity
  8
0
  6
Continuous
 62
     7
370
    15
100
AcDbCircle
 10
116.7582857142861
 20
113.1321533639086
 30
0.0
 40
2.197439522057315
100
AcDbArc
 50
193.1521401048771
 51
346.8478598951409
  0
ARC
  5
2A3
330
29D
100
AcDbEntity
  8
0
  6
Continuous
 62
     7
370
    15
100
AcDbCircle
 10
116.7582857142861
 20
113.1321533639086
 30
0.0
 40
2.145679479873088
100
AcDbArc
 50
346.5246847195762
 51
13.47531528042434
  0
CIRCLE
  5
2A4
330
29D
100
AcDbEntity
  8
0
  6
Continuous
 62
     7
370
    15
100
AcDbCircle
 10
128.7582857142861
 20
113.1321533639086
 30
0.0
 40
2.475000000010339
  0
CIRCLE
  5
2A5
330
29D
100
AcDbEntity
  8
0
  6
Continuous
 62
     7
370
    15
100
AcDbCircle
 10
128.7582857142861
 20
113.1321533639086
 30
0.0
 40
3.425000000000011
  0
CIRCLE
  5
2A6
330
29D
100
AcDbEntity
  8
0
  6
Continuous
 62
     7
370
    15
100
AcDbCircle
 10
116.7582857142861
 20
113.1321533639086
 30
0.0
 40
3.424999999999997
  0
ARC
  5
2A7
330
29D
100
AcDbEntity
  8
0
  6
Continuous
 62
     7
370
    15
100
AcDbCircle
 10
128.7582857142861
 20
113.1321533639086
 30
0.0
 40
2.197439522057315
100
AcDbArc
 50
13.15214010487639
 51
166.8478598951401
  0
ARC
  5
2A8
330
29D
100
AcDbEntity
  8
0
  6
Continuous
 62
     7
370
    15
100
AcDbCircle
 10
128.7582857142861
 20
113.1321533639086
 30
0.0
 40
2.145679479873085
100
AcDbArc
 50
166.5246847195753
 51
193.4753152804248
  0
ARC
  5
2A9
330
29D
100
AcDbEntity
  8
0
  6
Continuous
 62
     7
370
    15
100
AcDbCircle
 10
128.7582857142861
 20
113.1321533639086
 30
0.0
 40
2.197439522057298
100
AcDbArc
 50
193.1521401048767
 51
346.8478598951412
  0
ARC
  5
2AA
330
29D
100
AcDbEntity
  8
0
  6
Continuous
 62
     7
370
    15
100
AcDbCircle
 10
128.7582857142861
 20
113.1321533639086
 30
0.0
 40
2.145679479873075
100
AcDbArc
 50
346.5246847195764
 51
13.47531528042443
  0
CIRCLE
  5
2AB
330
29D
100
AcDbEntity
  8
0
  6
Continuous
 62
     7
370
    15
100
AcDbCircle
 10
188.7582857142861
 20
113.1321533639086
 30
0.0
 40
2.475000000010339
  0
ARC
  5
2AC
330
29D
100
AcDbEntity
  8
0
  6
Continuous
 62
     7
370
    15
100
AcDbCircle
 10
188.7582857142861
 20
113.1321533639086
 30
0.0
 40
2.197439522057301
100
AcDbArc
 50
13.15214010487603
 51
166.84785989514
  0
ARC
  5
2AD
330
29D
100
AcDbEntity
  8
0
  6
Continuous
 62
     7
370
    15
100
AcDbCircle
 10
188.7582857142861
 20
113.1321533639086
 30
0.0
 40
2.145679479873075
100
AcDbArc
 50
166.5246847195754
 51
193.4753152804252
  0
ARC
  5
2AE
330
29D
100
AcDbEntity
  8
0
  6
Continuous
 62
     7
370
    15
100
AcDbCircle
 10
188.7582857142861
 20
113.1321533639086
 30
0.0
 40
2.197439522057301
100
AcDbArc
 50
193.152140104877
 51
346.8478598951408
  0
ARC
  5
2AF
330
29D
100
AcDbEntity
  8
0
  6
Continuous
 62
     7
370
    15
100
AcDbCircle
 10
188.7582857142861
 20
113.1321533639086
 30
0.0
 40
2.145679479873075
100
AcDbArc
 50
346.5246847195761
 51
13.47531528042443
  0
CIRCLE
  5
2B0
330
29D
100
AcDbEntity
  8
0
  6
Continuous
 62
     7
370
    15
100
AcDbCircle
 10
152.7582857142861
 20
113.1321533639086
 30
0.0
 40
2.475000000010282
  0
ARC
  5
2B1
330
29D
100
AcDbEntity
  8
0
  6
Continuous
 62
     7
370
    15
100
AcDbCircle
 10
152.7582857142861
 20
113.1321533639086
 30
0.0
 40
2.197439522057329
100
AcDbArc
 50
13.15214010487637
 51
166.8478598951401
  0
ARC
  5
2B2
330
29D
100
AcDbEntity
  8
0
  6
Continuous
 62
     7
370
    15
100
AcDbCircle
 10
152.7582857142861
 20
113.1321533639086
 30
0.0
 40
2.145679479873102
100
AcDbArc
 50
166.5246847195754
 51
193.475315280425
  0
ARC
  5
2B3
330
29D
100
AcDbEntity
  8
0
  6
Continuous
 62
     7
370
    15
100
AcDbCircle
 10
152.7582857142861
 20
113.1321533639086
 30
0.0
 40
2.197439522057301
100
AcDbArc
 50
193.152140104877
 51
346.8478598951408
  0
ARC
  5
2B4
330
29D
100
AcDbEntity
  8
0
  6
Continuous
 62
     7
370
    15
100
AcDbCircle
 10
152.7582857142861
 20
113.1321533639086
 30
0.0
 40
2.145679479873102
100
AcDbArc
 50
346.5246847195762
 51
13.47531528042425
  0
CIRCLE
  5
2B5
330
29D
100
AcDbEntity
  8
0
  6
Continuous
 62
     7
370
    15
100
AcDbCircle
 10
140.7582857142861
 20
113.1321533639086
 30
0.0
 40
2.475000000010311
  0
ARC
  5
2B6
330
29D
100
AcDbEntity
  8
0
  6
Continuous
 62
     7
370
    15
100
AcDbCircle
 10
140.7582857142861
 20
113.1321533639086
 30
0.0
 40
2.197439522057301
100
AcDbArc
 50
13.1521401048762
 51
166.84785989514
  0
ARC
  5
2B7
330
29D
100
AcDbEntity
  8
0
  6
Continuous
 62
     7
370
    15
100
AcDbCircle
 10
140.7582857142861
 20
113.1321533639086
 30
0.0
 40
2.145679479873075
100
AcDbArc
 50
166.5246847195752
 51
193.4753152804252
  0
ARC
  5
2B8
330
29D
100
AcDbEntity
  8
0
  6
Continuous
 62
     7
370
    15
100
AcDbCircle
 10
140.7582857142861
 20
113.1321533639086
 30
0.0
 40
2.197439522057329
100
AcDbArc
 50
193.152140104877
 51
346.847859895141
  0
ARC
  5
2B9
330
29D
100
AcDbEntity
  8
0
  6
Continuous
 62
     7
370
    15
100
AcDbCircle
 10
140.7582857142861
 20
113.1321533639086
 30
0.0
 40
2.145679479873102
100
AcDbArc
 50
346.5246847195762
 51
13.47531528042425
  0
CIRCLE
  5
2BA
330
29D
100
AcDbEntity
  8
0
  6
Continuous
 62
     7
370
    15
100
AcDbCircle
 10
176.7582857142861
 20
113.1321533639086
 30
0.0
 40
2.475000000010311
  0
CIRCLE
  5
2BB
330
29D
100
AcDbEntity
  8
0
  6
Continuous
 62
     7
370
    15
100
AcDbCircle
 10
176.7582857142861
 20
113.1321533639086
 30
0.0
 40
3.424999999999982
  0
CIRCLE
  5
2BC
330
29D
100
AcDbEntity
  8
0
  6
Continuous
 62
     7
370
    15
100
AcDbCircle
 10
140.7582857142861
 20
113.1321533639086
 30
0.0
 40
3.425000000000011
  0
CIRCLE
  5
2BD
330
29D
100
AcDbEntity
  8
0
  6
Continuous
 62
     7
370
    15
100
AcDbCircle
 10
200.7582857142861
 20
113.1321533639086
 30
0.0
 40
2.475000000010794
  0
ARC
  5
2BE
330
29D
100
AcDbEntity
  8
0
  6
Continuous
 62
     7
370
    15
100
AcDbCircle
 10
200.7582857142861
 20
113.1321533639086
 30
0.0
 40
2.197439522057772
100
AcDbArc
 50
13.15214010487468
 51
166.8478598951428
  0
ARC
  5
2BF
330
29D
100
AcDbEntity
  8
0
  6
Continuous
 62
     7
370
    15
100
AcDbCircle
 10
200.7582857142861
 20
113.1321533639086
 30
0.0
 40
2.145679479873544
100
AcDbArc
 50
166.5246847195782
 51
193.4753152804222
  0
ARC
  5
2C0
330
29D
100
AcDbEntity
  8
0
  6
Continuous
 62
     7
370
    15
100
AcDbCircle
 10
200.7582857142861
 20
113.1321533639086
 30
0.0
 40
2.197439522057744
100
AcDbArc
 50
193.1521401048756
 51
346.8478598951435
  0
ARC
  5
2C1
330
29D
100
AcDbEntity
  8
0
  6
Continuous
 62
     7
370
    15
100
AcDbCircle
 10
200.7582857142861
 20
113.1321533639086
 30
0.0
 40
2.145679479873544
100
AcDbArc
 50
346.524684719579
 51
13.47531528042142
  0
CIRCLE
  5
2C2
330
29D
100
AcDbEntity
  8
0
  6
Continuous
 62
     7
370
    15
100
AcDbCircle
 10
188.7582857142861
 20
113.1321533639086
 30
0.0
 40
3.424999999999982
  0
CIRCLE
  5
2C3
330
29D
100
AcDbEntity
  8
0
  6
Continuous
 62
     7
370
    15
100
AcDbCircle
 10
164.7582857142861
 20
113.1321533639086
 30
0.0
 40
2.475000000010311
  0
CIRCLE
  5
2C4
330
29D
100
AcDbEntity
  8
0
  6
Continuous
 62
     7
370
    15
100
AcDbCircle
 10
164.7582857142861
 20
113.1321533639086
 30
0.0
 40
3.425000000000011
  0
CIRCLE
  5
2C5
330
29D
100
AcDbEntity
  8
0
  6
Continuous
 62
     7
370
    15
100
AcDbCircle
 10
152.7582857142861
 20
113.1321533639086
 30
0.0
 40
3.424999999999982
  0
ARC
  5
2C6
330
29D
100
AcDbEntity
  8
0
  6
Continuous
 62
     7
370
    15
100
AcDbCircle
 10
176.7582857142861
 20
113.1321533639086
 30
0.0
 40
2.197439522057301
100
AcDbArc
 50
13.1521401048762
 51
166.84785989514
  0
ARC
  5
2C7
330
29D
100
AcDbEntity
  8
0
  6
Continuous
 62
     7
370
    15
100
AcDbCircle
 10
176.7582857142861
 20
113.1321533639086
 30
0.0
 40
2.145679479873102
100
AcDbArc
 50
166.5246847195754
 51
193.475315280425
  0
ARC
  5
2C8
330
29D
100
AcDbEntity
  8
0
  6
Continuous
 62
     7
370
    15
100
AcDbCircle
 10
176.7582857142861
 20
113.1321533639086
 30
0.0
 40
2.197439522057301
100
AcDbArc
 50
193.152140104877
 51
346.8478598951408
  0
ARC
  5
2C9
330
29D
100
AcDbEntity
  8
0
  6
Continuous
 62
     7
370
    15
100
AcDbCircle
 10
176.7582857142861
 20
113.1321533639086
 30
0.0
 40
2.145679479873102
100
AcDbArc
 50
346.5246847195762
 51
13.47531528042425
  0
CIRCLE
  5
2CA
330
29D
100
AcDbEntity
  8
0
  6
Continuous
 62
     7
370
    15
100
AcDbCircle
 10
200.7582857142861
 20
113.1321533639086
 30
0.0
 40
3.425000000000011
  0
ARC
  5
2CB
330
29D
100
AcDbEntity
  8
0
  6
Continuous
 62
     7
370
    15
100
AcDbCircle
 10
164.7582857142861
 20
113.1321533639086
 30
0.0
 40
2.197439522057301
100
AcDbArc
 50
13.1521401048762
 51
166.84785989514
  0
ARC
  5
2CC
330
29D
100
AcDbEntity
  8
0
  6
Continuous
 62
     7
370
    15
100
AcDbCircle
 10
164.7582857142861
 20
113.1321533639086
 30
0.0
 40
2.145679479873075
100
AcDbArc
 50
166.5246847195752
 51
193.4753152804252
  0
ARC
  5
2CD
330
29D
100
AcDbEntity
  8
0
  6
Continuous
 62
     7
370
    15
100
AcDbCircle
 10
164.7582857142861
 20
113.1321533639086
 30
0.0
 40
2.197439522057329
100
AcDbArc
 50
193.152140104877
 51
346.847859895141
  0
ARC
  5
2CE
330
29D
100
AcDbEntity
  8
0
  6
Continuous
 62
     7
370
    15
100
AcDbCircle
 10
164.7582857142861
 20
113.1321533639086
 30
0.0
 40
2.145679479873102
100
AcDbArc
 50
346.5246847195762
 51
13.47531528042425
  0
SPLINE
  5
2CF
330
29D
100
AcDbEntity
  8
0
  6
Continuous
 62
     7
370
    15
100
AcDbSpline
210
0.0
220
0.0
230
1.0
 70
     8
 71
     3
 72
    14
 73
    10
 74
     0
 42
0.0000000001
 43
0.0000000001
 40
0.0
 40
0.0
 40
0.0
 40
0.0
 40
0.25
 40
0.25
 40
0.5
 40
0.5
 40
0.75
 40
0.75
 40
0.9999999999999998
 40
0.9999999999999998
 40
0.9999999999999998
 40
0.9999999999999998
 10
198.8333288191426
 20
113.6321533639086
 30
0.0
 10
198.9440480645278
 20
114.0584129135671
 30
0.0
 10
199.1931534416604
 20
114.4359079314249
 30
0.0
 10
199.8898846490551
 20
114.9747858809992
 30
0.0
 10
200.3178814057538
 20
115.1209869537698
 30
0.0
 10
201.1986900228184
 20
115.1209869537698
 30
0.0
 10
201.626686779517
 20
114.9747858809992
 30
0.0
 10
202.3234179869118
 20
114.4359079314249
 30
0.0
 10
202.5725233640444
 20
114.0584129135671
 30
0.0
 10
202.6832426094296
 20
113.6321533639086
 30
0.0
  0
LINE
  5
2D0
330
29D
100
AcDbEntity
  8
0
  6
Continuous
 62
     7
370
    15
100
AcDbLine
 10
198.8333288191426
 20
113.6321533639086
 30
0.0
 11
202.6832426094296
 21
113.6321533639086
 31
0.0
  0
SPLINE
  5
2D1
330
29D
100
AcDbEntity
  8
0
  6
Continuous
 62
     7
370
    15
100
AcDbSpline
210
0.0
220
0.0
230
1.0
 70
     8
 71
     3
 72
    14
 73
    10
 74
     0
 42
0.0000000001
 43
0.0000000001
 40
0.0
 40
0.0
 40
0.0
 40
0.0
 40
0.25
 40
0.25
 40
0.5
 40
0.5
 40
0.75
 40
0.75
 40
0.9999999999999998
 40
0.9999999999999998
 40
0.9999999999999998
 40
0.9999999999999998
 10
174.8333288191426
 20
113.6321533639086
 30
0.0
 10
174.9440480645278
 20
114.0584129135671
 30
0.0
 10
175.1931534416604
 20
114.4359079314249
 30
0.0
 10
175.8898846490551
 20
114.9747858809992
 30
0.0
 10
176.3178814057538
 20
115.1209869537698
 30
0.0
 10
177.1986900228183
 20
115.1209869537698
 30
0.0
 10
177.626686779517
 20
114.9747858809992
 30
0.0
 10
178.3234179869117
 20
114.4359079314249
 30
0.0
 10
178.5725233640444
 20
114.0584129135671
 30
0.0
 10
178.6832426094295
 20
113.6321533639086
 30
0.0
  0
LINE
  5
2D2
330
29D
100
AcDbEntity
  8
0
  6
Continuous
 62
     7
370
    15
100
AcDbLine
 10
174.8333288191426
 20
113.6321533639086
 30
0.0
 11
178.6832426094295
 21
113.6321533639086
 31
0.0
  0
SPLINE
  5
2D3
330
29D
100
AcDbEntity
  8
0
  6
Continuous
 62
     7
370
    15
100
AcDbSpline
210
0.0
220
0.0
230
1.0
 70
     8
 71
     3
 72
    14
 73
    10
 74
     0
 42
0.0000000001
 43
0.0000000001
 40
0.0
 40
0.0
 40
0.0
 40
0.0
 40
0.25
 40
0.25
 40
0.5
 40
0.5
 40
0.75
 40
0.75
 40
0.9999999999999998
 40
0.9999999999999998
 40
0.9999999999999998
 40
0.9999999999999998
 10
186.8333288191426
 20
113.6321533639086
 30
0.0
 10
186.9440480645278
 20
114.0584129135671
 30
0.0
 10
187.1931534416604
 20
114.4359079314249
 30
0.0
 10
187.8898846490552
 20
114.9747858809992
 30
0.0
 10
188.3178814057538
 20
115.1209869537698
 30
0.0
 10
189.1986900228184
 20
115.1209869537698
 30
0.0
 10
189.626686779517
 20
114.9747858809992
 30
0.0
 10
190.3234179869118
 20
114.4359079314249
 30
0.0
 10
190.5725233640444
 20
114.0584129135671
 30
0.0
 10
190.6832426094295
 20
113.6321533639086
 30
0.0
  0
LINE
  5
2D4
330
29D
100
AcDbEntity
  8
0
  6
Continuous
 62
     7
370
    15
100
AcDbLine
 10
186.8333288191426
 20
113.6321533639086
 30
0.0
 11
190.6832426094295
 21
113.6321533639086
 31
0.0
  0
SPLINE
  5
2D5
330
29D
100
AcDbEntity
  8
0
  6
Continuous
 62
     7
370
    15
100
AcDbSpline
210
0.0
220
0.0
230
1.0
 70
     8
 71
     3
 72
    14
 73
    10
 74
     0
 42
0.0000000001
 43
0.0000000001
 40
0.0
 40
0.0
 40
0.0
 40
0.0
 40
0.25
 40
0.25
 40
0.5000000000000001
 40
0.5000000000000001
 40
0.7500000000000002
 40
0.7500000000000002
 40
1.0
 40
1.0
 40
1.0
 40
1.0
 10
114.8333288191426
 20
113.6321533639085
 30
0.0
 10
114.9440480645278
 20
114.0584129135671
 30
0.0
 10
115.1931534416604
 20
114.4359079314249
 30
0.0
 10
115.8898846490552
 20
114.9747858809992
 30
0.0
 10
116.3178814057538
 20
115.1209869537698
 30
0.0
 10
117.1986900228183
 20
115.1209869537698
 30
0.0
 10
117.626686779517
 20
114.9747858809992
 30
0.0
 10
118.3234179869117
 20
114.4359079314249
 30
0.0
 10
118.5725233640443
 20
114.0584129135671
 30
0.0
 10
118.6832426094295
 20
113.6321533639085
 30
0.0
  0
LINE
  5
2D6
330
29D
100
AcDbEntity
  8
0
  6
Continuous
 62
     7
370
    15
100
AcDbLine
 10
114.8333288191426
 20
113.6321533639085
 30
0.0
 11
118.6832426094295
 21
113.6321533639085
 31
0.0
  0
SPLINE
  5
2D7
330
29D
100
AcDbEntity
  8
0
  6
Continuous
 62
     7
370
    15
100
AcDbSpline
210
0.0
220
0.0
230
1.0
 70
     8
 71
     3
 72
    14
 73
    10
 74
     0
 42
0.0000000001
 43
0.0000000001
 40
0.0
 40
0.0
 40
0.0
 40
0.0
 40
0.2499999999999999
 40
0.2499999999999999
 40
0.4999999999999999
 40
0.4999999999999999
 40
0.7499999999999999
 40
0.7499999999999999
 40
1.0
 40
1.0
 40
1.0
 40
1.0
 10
150.8333288191426
 20
113.6321533639086
 30
0.0
 10
150.9440480645278
 20
114.0584129135671
 30
0.0
 10
151.1931534416604
 20
114.4359079314249
 30
0.0
 10
151.8898846490551
 20
114.9747858809992
 30
0.0
 10
152.3178814057538
 20
115.1209869537698
 30
0.0
 10
153.1986900228184
 20
115.1209869537698
 30
0.0
 10
153.626686779517
 20
114.9747858809992
 30
0.0
 10
154.3234179869117
 20
114.4359079314249
 30
0.0
 10
154.5725233640443
 20
114.0584129135671
 30
0.0
 10
154.6832426094295
 20
113.6321533639086
 30
0.0
  0
LINE
  5
2D8
330
29D
100
AcDbEntity
  8
0
  6
Continuous
 62
     7
370
    15
100
AcDbLine
 10
150.8333288191426
 20
113.6321533639086
 30
0.0
 11
154.6832426094295
 21
113.6321533639086
 31
0.0
  0
SPLINE
  5
2D9
330
29D
100
AcDbEntity
  8
0
  6
Continuous
 62
     7
370
    15
100
AcDbSpline
210
0.0
220
0.0
230
1.0
 70
     8
 71
     3
 72
    14
 73
    10
 74
     0
 42
0.0000000001
 43
0.0000000001
 40
0.0
 40
0.0
 40
0.0
 40
0.0
 40
0.25
 40
0.25
 40
0.5
 40
0.5
 40
0.75
 40
0.75
 40
0.9999999999999998
 40
0.9999999999999998
 40
0.9999999999999998
 40
0.9999999999999998
 10
162.8333288191426
 20
113.6321533639086
 30
0.0
 10
162.9440480645278
 20
114.0584129135671
 30
0.0
 10
163.1931534416604
 20
114.4359079314249
 30
0.0
 10
163.8898846490552
 20
114.9747858809992
 30
0.0
 10
164.3178814057538
 20
115.1209869537698
 30
0.0
 10
165.1986900228183
 20
115.1209869537698
 30
0.0
 10
165.626686779517
 20
114.9747858809992
 30
0.0
 10
166.3234179869118
 20
114.4359079314249
 30
0.0
 10
166.5725233640444
 20
114.0584129135671
 30
0.0
 10
166.6832426094296
 20
113.6321533639086
 30
0.0
  0
LINE
  5
2DA
330
29D
100
AcDbEntity
  8
0
  6
Continuous
 62
     7
370
    15
100
AcDbLine
 10
162.8333288191426
 20
113.6321533639086
 30
0.0
 11
166.6832426094295
 21
113.6321533639086
 31
0.0
  0
SPLINE
  5
2DB
330
29D
100
AcDbEntity
  8
0
  6
Continuous
 62
     7
370
    15
100
AcDbSpline
210
0.0
220
0.0
230
1.0
 70
     8
 71
     3
 72
    14
 73
    10
 74
     0
 42
0.0000000001
 43
0.0000000001
 40
0.0
 40
0.0
 40
0.0
 40
0.0
 40
0.2499999999999999
 40
0.2499999999999999
 40
0.4999999999999999
 40
0.4999999999999999
 40
0.7499999999999999
 40
0.7499999999999999
 40
1.0
 40
1.0
 40
1.0
 40
1.0
 10
138.8333288191426
 20
113.6321533639086
 30
0.0
 10
138.9440480645278
 20
114.0584129135671
 30
0.0
 10
139.1931534416604
 20
114.4359079314249
 30
0.0
 10
139.8898846490552
 20
114.9747858809992
 30
0.0
 10
140.3178814057538
 20
115.1209869537698
 30
0.0
 10
141.1986900228184
 20
115.1209869537698
 30
0.0
 10
141.626686779517
 20
114.9747858809992
 30
0.0
 10
142.3234179869117
 20
114.4359079314249
 30
0.0
 10
142.5725233640443
 20
114.0584129135671
 30
0.0
 10
142.6832426094295
 20
113.6321533639086
 30
0.0
  0
LINE
  5
2DC
330
29D
100
AcDbEntity
  8
0
  6
Continuous
 62
     7
370
    15
100
AcDbLine
 10
138.8333288191426
 20
113.6321533639086
 30
0.0
 11
142.6832426094295
 21
113.6321533639086
 31
0.0
  0
SPLINE
  5
2DD
330
29D
100
AcDbEntity
  8
0
  6
Continuous
 62
     7
370
    15
100
AcDbSpline
210
0.0
220
0.0
230
1.0
 70
     8
 71
     3
 72
    14
 73
    10
 74
     0
 42
0.0000000001
 43
0.0000000001
 40
0.0
 40
0.0
 40
0.0
 40
0.0
 40
0.2499999999999999
 40
0.2499999999999999
 40
0.4999999999999999
 40
0.4999999999999999
 40
0.7499999999999999
 40
0.7499999999999999
 40
1.0
 40
1.0
 40
1.0
 40
1.0
 10
126.8333288191426
 20
113.6321533639086
 30
0.0
 10
126.9440480645278
 20
114.0584129135671
 30
0.0
 10
127.1931534416604
 20
114.4359079314249
 30
0.0
 10
127.8898846490551
 20
114.9747858809992
 30
0.0
 10
128.3178814057538
 20
115.1209869537698
 30
0.0
 10
129.1986900228183
 20
115.1209869537698
 30
0.0
 10
129.626686779517
 20
114.9747858809992
 30
0.0
 10
130.3234179869118
 20
114.4359079314249
 30
0.0
 10
130.5725233640443
 20
114.0584129135671
 30
0.0
 10
130.6832426094295
 20
113.6321533639086
 30
0.0
  0
LINE
  5
2DE
330
29D
100
AcDbEntity
  8
0
  6
Continuous
 62
     7
370
    15
100
AcDbLine
 10
126.8333288191426
 20
113.6321533639085
 30
0.0
 11
130.6832426094295
 21
113.6321533639085
 31
0.0
  0
SPLINE
  5
2DF
330
29D
100
AcDbEntity
  8
0
  6
Continuous
 62
     7
370
    15
100
AcDbSpline
210
0.0
220
0.0
230
1.0
 70
     8
 71
     3
 72
    10
 73
     6
 74
     0
 42
0.0000000001
 43
0.0000000001
 40
0.0
 40
0.0
 40
0.0
 40
0.0
 40
0.5
 40
0.5
 40
1.0
 40
1.0
 40
1.0
 40
1.0
 10
166.6832426094295
 20
112.6321533639086
 30
0.0
 10
166.5725233640444
 20
112.20589381425
 30
0.0
 10
166.3234179869117
 20
111.8283987963922
 30
0.0
 10
165.626686779517
 20
111.2895208468179
 30
0.0
 10
165.1986900228184
 20
111.1433197740473
 30
0.0
 10
164.7582857142861
 20
111.1433197740473
 30
0.0
  0
SPLINE
  5
2E0
330
29D
100
AcDbEntity
  8
0
  6
Continuous
 62
     7
370
    15
100
AcDbSpline
210
0.0
220
0.0
230
1.0
 70
     8
 71
     3
 72
    10
 73
     6
 74
     0
 42
0.0000000001
 43
0.0000000001
 40
0.0
 40
0.0
 40
0.0
 40
0.0
 40
0.5
 40
0.5
 40
1.0
 40
1.0
 40
1.0
 40
1.0
 10
164.7582857142861
 20
111.1433197740473
 30
0.0
 10
164.3178814057538
 20
111.1433197740473
 30
0.0
 10
163.8898846490552
 20
111.2895208468179
 30
0.0
 10
163.1931534416604
 20
111.8283987963922
 30
0.0
 10
162.9440480645278
 20
112.20589381425
 30
0.0
 10
162.8333288191426
 20
112.6321533639086
 30
0.0
  0
LINE
  5
2E1
330
29D
100
AcDbEntity
  8
0
  6
Continuous
 62
     7
370
    15
100
AcDbLine
 10
166.6832426094295
 20
112.6321533639086
 30
0.0
 11
162.8333288191426
 21
112.6321533639086
 31
0.0
  0
SPLINE
  5
2E2
330
29D
100
AcDbEntity
  8
0
  6
Continuous
 62
     7
370
    15
100
AcDbSpline
210
0.0
220
0.0
230
1.0
 70
     8
 71
     3
 72
    10
 73
     6
 74
     0
 42
0.0000000001
 43
0.0000000001
 40
0.0
 40
0.0
 40
0.0
 40
0.0
 40
0.5000000000000004
 40
0.5000000000000004
 40
1.0
 40
1.0
 40
1.0
 40
1.0
 10
118.6832426094295
 20
112.6321533639085
 30
0.0
 10
118.5725233640443
 20
112.20589381425
 30
0.0
 10
118.3234179869117
 20
111.8283987963922
 30
0.0
 10
117.626686779517
 20
111.2895208468179
 30
0.0
 10
117.1986900228183
 20
111.1433197740473
 30
0.0
 10
116.7582857142861
 20
111.1433197740473
 30
0.0
  0
SPLINE
  5
2E3
330
29D
100
AcDbEntity
  8
0
  6
Continuous
 62
     7
370
    15
100
AcDbSpline
210
0.0
220
0.0
230
1.0
 70
     8
 71
     3
 72
    10
 73
     6
 74
     0
 42
0.0000000001
 43
0.0000000001
 40
0.0
 40
0.0
 40
0.0
 40
0.0
 40
0.5
 40
0.5
 40
1.0
 40
1.0
 40
1.0
 40
1.0
 10
116.7582857142861
 20
111.1433197740473
 30
0.0
 10
116.3178814057538
 20
111.1433197740473
 30
0.0
 10
115.8898846490552
 20
111.2895208468179
 30
0.0
 10
115.1931534416604
 20
111.8283987963922
 30
0.0
 10
114.9440480645278
 20
112.20589381425
 30
0.0
 10
114.8333288191426
 20
112.6321533639085
 30
0.0
  0
LINE
  5
2E4
330
29D
100
AcDbEntity
  8
0
  6
Continuous
 62
     7
370
    15
100
AcDbLine
 10
118.6832426094295
 20
112.6321533639085
 30
0.0
 11
114.8333288191426
 21
112.6321533639085
 31
0.0
  0
SPLINE
  5
2E5
330
29D
100
AcDbEntity
  8
0
  6
Continuous
 62
     7
370
    15
100
AcDbSpline
210
0.0
220
0.0
230
1.0
 70
     8
 71
     3
 72
    10
 73
     6
 74
     0
 42
0.0000000001
 43
0.0000000001
 40
0.0
 40
0.0
 40
0.0
 40
0.0
 40
0.5
 40
0.5
 40
1.0
 40
1.0
 40
1.0
 40
1.0
 10
130.6832426094295
 20
112.6321533639086
 30
0.0
 10
130.5725233640443
 20
112.20589381425
 30
0.0
 10
130.3234179869118
 20
111.8283987963922
 30
0.0
 10
129.626686779517
 20
111.2895208468179
 30
0.0
 10
129.1986900228183
 20
111.1433197740473
 30
0.0
 10
128.7582857142861
 20
111.1433197740473
 30
0.0
  0
SPLINE
  5
2E6
330
29D
100
AcDbEntity
  8
0
  6
Continuous
 62
     7
370
    15
100
AcDbSpline
210
0.0
220
0.0
230
1.0
 70
     8
 71
     3
 72
    10
 73
     6
 74
     0
 42
0.0000000001
 43
0.0000000001
 40
0.0
 40
0.0
 40
0.0
 40
0.0
 40
0.5
 40
0.5
 40
0.9999999999999998
 40
0.9999999999999998
 40
0.9999999999999998
 40
0.9999999999999998
 10
128.7582857142861
 20
111.1433197740473
 30
0.0
 10
128.3178814057538
 20
111.1433197740473
 30
0.0
 10
127.8898846490552
 20
111.2895208468179
 30
0.0
 10
127.1931534416604
 20
111.8283987963922
 30
0.0
 10
126.9440480645278
 20
112.20589381425
 30
0.0
 10
126.8333288191426
 20
112.6321533639086
 30
0.0
  0
LINE
  5
2E7
330
29D
100
AcDbEntity
  8
0
  6
Continuous
 62
     7
370
    15
100
AcDbLine
 10
130.6832426094295
 20
112.6321533639086
 30
0.0
 11
126.8333288191426
 21
112.6321533639086
 31
0.0
  0
SPLINE
  5
2E8
330
29D
100
AcDbEntity
  8
0
  6
Continuous
 62
     7
370
    15
100
AcDbSpline
210
0.0
220
0.0
230
1.0
 70
     8
 71
     3
 72
    10
 73
     6
 74
     0
 42
0.0000000001
 43
0.0000000001
 40
0.0
 40
0.0
 40
0.0
 40
0.0
 40
0.5
 40
0.5
 40
1.0
 40
1.0
 40
1.0
 40
1.0
 10
154.6832426094295
 20
112.6321533639086
 30
0.0
 10
154.5725233640443
 20
112.20589381425
 30
0.0
 10
154.3234179869117
 20
111.8283987963922
 30
0.0
 10
153.626686779517
 20
111.2895208468179
 30
0.0
 10
153.1986900228184
 20
111.1433197740473
 30
0.0
 10
152.7582857142861
 20
111.1433197740473
 30
0.0
  0
SPLINE
  5
2E9
330
29D
100
AcDbEntity
  8
0
  6
Continuous
 62
     7
370
    15
100
AcDbSpline
210
0.0
220
0.0
230
1.0
 70
     8
 71
     3
 72
    10
 73
     6
 74
     0
 42
0.0000000001
 43
0.0000000001
 40
0.0
 40
0.0
 40
0.0
 40
0.0
 40
0.5
 40
0.5
 40
0.9999999999999998
 40
0.9999999999999998
 40
0.9999999999999998
 40
0.9999999999999998
 10
152.7582857142861
 20
111.1433197740473
 30
0.0
 10
152.3178814057538
 20
111.1433197740473
 30
0.0
 10
151.8898846490551
 20
111.2895208468179
 30
0.0
 10
151.1931534416604
 20
111.8283987963922
 30
0.0
 10
150.9440480645278
 20
112.20589381425
 30
0.0
 10
150.8333288191426
 20
112.6321533639086
 30
0.0
  0
LINE
  5
2EA
330
29D
100
AcDbEntity
  8
0
  6
Continuous
 62
     7
370
    15
100
AcDbLine
 10
154.6832426094295
 20
112.6321533639086
 30
0.0
 11
150.8333288191426
 21
112.6321533639086
 31
0.0
  0
SPLINE
  5
2EB
330
29D
100
AcDbEntity
  8
0
  6
Continuous
 62
     7
370
    15
100
AcDbSpline
210
0.0
220
0.0
230
1.0
 70
     8
 71
     3
 72
    10
 73
     6
 74
     0
 42
0.0000000001
 43
0.0000000001
 40
0.0
 40
0.0
 40
0.0
 40
0.0
 40
0.5
 40
0.5
 40
1.0
 40
1.0
 40
1.0
 40
1.0
 10
142.6832426094295
 20
112.6321533639086
 30
0.0
 10
142.5725233640443
 20
112.20589381425
 30
0.0
 10
142.3234179869117
 20
111.8283987963922
 30
0.0
 10
141.626686779517
 20
111.2895208468179
 30
0.0
 10
141.1986900228184
 20
111.1433197740473
 30
0.0
 10
140.7582857142861
 20
111.1433197740473
 30
0.0
  0
SPLINE
  5
2EC
330
29D
100
AcDbEntity
  8
0
  6
Continuous
 62
     7
370
    15
100
AcDbSpline
210
0.0
220
0.0
230
1.0
 70
     8
 71
     3
 72
    10
 73
     6
 74
     0
 42
0.0000000001
 43
0.0000000001
 40
0.0
 40
0.0
 40
0.0
 40
0.0
 40
0.5
 40
0.5
 40
0.9999999999999998
 40
0.9999999999999998
 40
0.9999999999999998
 40
0.9999999999999998
 10
140.7582857142861
 20
111.1433197740473
 30
0.0
 10
140.3178814057538
 20
111.1433197740473
 30
0.0
 10
139.8898846490552
 20
111.2895208468179
 30
0.0
 10
139.1931534416604
 20
111.8283987963922
 30
0.0
 10
138.9440480645278
 20
112.20589381425
 30
0.0
 10
138.8333288191426
 20
112.6321533639086
 30
0.0
  0
LINE
  5
2ED
330
29D
100
AcDbEntity
  8
0
  6
Continuous
 62
     7
370
    15
100
AcDbLine
 10
142.6832426094295
 20
112.6321533639086
 30
0.0
 11
138.8333288191426
 21
112.6321533639086
 31
0.0
  0
SPLINE
  5
2EE
330
29D
100
AcDbEntity
  8
0
  6
Continuous
 62
     7
370
    15
100
AcDbSpline
210
0.0
220
0.0
230
1.0
 70
     8
 71
     3
 72
    10
 73
     6
 74
     0
 42
0.0000000001
 43
0.0000000001
 40
0.0
 40
0.0
 40
0.0
 40
0.0
 40
0.5
 40
0.5
 40
1.0
 40
1.0
 40
1.0
 40
1.0
 10
190.6832426094295
 20
112.6321533639086
 30
0.0
 10
190.5725233640444
 20
112.20589381425
 30
0.0
 10
190.3234179869118
 20
111.8283987963922
 30
0.0
 10
189.626686779517
 20
111.2895208468179
 30
0.0
 10
189.1986900228184
 20
111.1433197740473
 30
0.0
 10
188.7582857142861
 20
111.1433197740473
 30
0.0
  0
SPLINE
  5
2EF
330
29D
100
AcDbEntity
  8
0
  6
Continuous
 62
     7
370
    15
100
AcDbSpline
210
0.0
220
0.0
230
1.0
 70
     8
 71
     3
 72
    10
 73
     6
 74
     0
 42
0.0000000001
 43
0.0000000001
 40
0.0
 40
0.0
 40
0.0
 40
0.0
 40
0.5
 40
0.5
 40
1.0
 40
1.0
 40
1.0
 40
1.0
 10
188.7582857142861
 20
111.1433197740473
 30
0.0
 10
188.3178814057538
 20
111.1433197740473
 30
0.0
 10
187.8898846490552
 20
111.2895208468179
 30
0.0
 10
187.1931534416604
 20
111.8283987963922
 30
0.0
 10
186.9440480645278
 20
112.20589381425
 30
0.0
 10
186.8333288191426
 20
112.6321533639086
 30
0.0
  0
LINE
  5
2F0
330
29D
100
AcDbEntity
  8
0
  6
Continuous
 62
     7
370
    15
100
AcDbLine
 10
190.6832426094295
 20
112.6321533639086
 30
0.0
 11
186.8333288191426
 21
112.6321533639086
 31
0.0
  0
SPLINE
  5
2F1
330
29D
100
AcDbEntity
  8
0
  6
Continuous
 62
     7
370
    15
100
AcDbSpline
210
0.0
220
0.0
230
1.0
 70
     8
 71
     3
 72
    10
 73
     6
 74
     0
 42
0.0000000001
 43
0.0000000001
 40
0.0
 40
0.0
 40
0.0
 40
0.0
 40
0.5
 40
0.5
 40
1.0
 40
1.0
 40
1.0
 40
1.0
 10
178.6832426094295
 20
112.6321533639086
 30
0.0
 10
178.5725233640443
 20
112.20589381425
 30
0.0
 10
178.3234179869117
 20
111.8283987963922
 30
0.0
 10
177.626686779517
 20
111.2895208468179
 30
0.0
 10
177.1986900228183
 20
111.1433197740473
 30
0.0
 10
176.7582857142861
 20
111.1433197740473
 30
0.0
  0
SPLINE
  5
2F2
330
29D
100
AcDbEntity
  8
0
  6
Continuous
 62
     7
370
    15
100
AcDbSpline
210
0.0
220
0.0
230
1.0
 70
     8
 71
     3
 72
    10
 73
     6
 74
     0
 42
0.0000000001
 43
0.0000000001
 40
0.0
 40
0.0
 40
0.0
 40
0.0
 40
0.5
 40
0.5
 40
1.0
 40
1.0
 40
1.0
 40
1.0
 10
176.7582857142861
 20
111.1433197740473
 30
0.0
 10
176.3178814057538
 20
111.1433197740473
 30
0.0
 10
175.8898846490552
 20
111.2895208468179
 30
0.0
 10
175.1931534416604
 20
111.8283987963922
 30
0.0
 10
174.9440480645278
 20
112.20589381425
 30
0.0
 10
174.8333288191426
 20
112.6321533639086
 30
0.0
  0
LINE
  5
2F3
330
29D
100
AcDbEntity
  8
0
  6
Continuous
 62
     7
370
    15
100
AcDbLine
 10
178.6832426094295
 20
112.6321533639086
 30
0.0
 11
174.8333288191426
 21
112.6321533639086
 31
0.0
  0
SPLINE
  5
2F4
330
29D
100
AcDbEntity
  8
0
  6
Continuous
 62
     7
370
    15
100
AcDbSpline
210
0.0
220
0.0
230
1.0
 70
     8
 71
     3
 72
    10
 73
     6
 74
     0
 42
0.0000000001
 43
0.0000000001
 40
0.0
 40
0.0
 40
0.0
 40
0.0
 40
0.5
 40
0.5
 40
1.0
 40
1.0
 40
1.0
 40
1.0
 10
202.6832426094296
 20
112.6321533639086
 30
0.0
 10
202.5725233640443
 20
112.20589381425
 30
0.0
 10
202.3234179869117
 20
111.8283987963922
 30
0.0
 10
201.626686779517
 20
111.2895208468179
 30
0.0
 10
201.1986900228184
 20
111.1433197740473
 30
0.0
 10
200.7582857142861
 20
111.1433197740473
 30
0.0
  0
SPLINE
  5
2F5
330
29D
100
AcDbEntity
  8
0
  6
Continuous
 62
     7
370
    15
100
AcDbSpline
210
0.0
220
0.0
230
1.0
 70
     8
 71
     3
 72
    10
 73
     6
 74
     0
 42
0.0000000001
 43
0.0000000001
 40
0.0
 40
0.0
 40
0.0
 40
0.0
 40
0.5
 40
0.5
 40
1.0
 40
1.0
 40
1.0
 40
1.0
 10
200.7582857142861
 20
111.1433197740473
 30
0.0
 10
200.3178814057538
 20
111.1433197740473
 30
0.0
 10
199.8898846490551
 20
111.2895208468179
 30
0.0
 10
199.1931534416604
 20
111.8283987963922
 30
0.0
 10
198.9440480645278
 20
112.20589381425
 30
0.0
 10
198.8333288191427
 20
112.6321533639086
 30
0.0
  0
LINE
  5
2F6
330
29D
100
AcDbEntity
  8
0
  6
Continuous
 62
     7
370
    15
100
AcDbLine
 10
202.6832426094296
 20
112.6321533639086
 30
0.0
 11
198.8333288191427
 21
112.6321533639086
 31
0.0
  0
ARC
  5
2F7
330
29D
100
AcDbEntity
  8
0
  6
Continuous
 62
     7
370
    15
100
AcDbCircle
 10
200.7582857142861
 20
113.1321533639086
 30
0.0
 40
2.188421798070006
100
AcDbArc
 50
13.20731410365175
 51
166.7926858963484
  0
SPLINE
  5
2F8
330
29D
100
AcDbEntity
  8
0
  6
Continuous
 62
     7
370
    15
100
AcDbSpline
210
0.0
220
0.0
230
1.0
 70
    24
 71
     3
 72
    10
 73
     6
 74
     0
 42
0.0000000001
 43
0.0000000001
 40
0.0
 40
0.0
 40
0.0
 40
0.0
 40
0.5
 40
0.5
 40
1.0
 40
1.0
 40
1.0
 40
1.0
 10
202.6832426094296
 20
113.6321533639086
 30
0.0
 10
202.7347091930218
 20
113.6321533639086
 30
0.0
 10
202.785108434989
 20
113.6321533639086
 30
0.0
 10
202.8611584332817
 20
113.6321533639086
 30
0.0
 10
202.8854298799193
 20
113.6321533639086
 30
0.0
 10
202.8888231972391
 20
113.6321533639086
 30
0.0
  0
SPLINE
  5
2F9
330
29D
100
AcDbEntity
  8
0
  6
Continuous
 62
     7
370
    15
100
AcDbSpline
210
0.0
220
0.0
230
1.0
 70
    24
 71
     3
 72
    10
 73
     6
 74
     0
 42
0.0000000001
 43
0.0000000001
 40
0.0
 40
0.0
 40
0.0
 40
0.0
 40
0.5
 40
0.5
 40
1.0
 40
1.0
 40
1.0
 40
1.0
 10
198.627748231333
 20
113.6321533639086
 30
0.0
 10
198.6311389696188
 20
113.6321533639086
 30
0.0
 10
198.6555150053937
 20
113.6321533639086
 30
0.0
 10
198.731177583048
 20
113.6321533639086
 30
0.0
 10
198.7818965922208
 20
113.6321533639086
 30
0.0
 10
198.8333288191426
 20
113.6321533639086
 30
0.0
  0
ARC
  5
2FA
330
29D
100
AcDbEntity
  8
0
  6
Continuous
 62
     7
370
    15
100
AcDbCircle
 10
140.7582857142861
 20
113.1321533639086
 30
0.0
 40
2.188421798069978
100
AcDbArc
 50
193.2073141036525
 51
346.7926858963491
  0
SPLINE
  5
2FB
330
29D
100
AcDbEntity
  8
0
  6
Continuous
 62
     7
370
    15
100
AcDbSpline
210
0.0
220
0.0
230
1.0
 70
    24
 71
     3
 72
    10
 73
     6
 74
     0
 42
0.0000000001
 43
0.0000000001
 40
0.0
 40
0.0
 40
0.0
 40
0.0
 40
0.5
 40
0.5
 40
1.0
 40
1.0
 40
1.0
 40
1.0
 10
142.8888231972391
 20
112.6321533639086
 30
0.0
 10
142.8854324589533
 20
112.6321533639086
 30
0.0
 10
142.8610564231784
 20
112.6321533639086
 30
0.0
 10
142.7853938455241
 20
112.6321533639086
 30
0.0
 10
142.7346748363513
 20
112.6321533639086
 30
0.0
 10
142.6832426094295
 20
112.6321533639086
 30
0.0
  0
SPLINE
  5
2FC
330
29D
100
AcDbEntity
  8
0
  6
Continuous
 62
     7
370
    15
100
AcDbSpline
210
0.0
220
0.0
230
1.0
 70
    24
 71
     3
 72
    10
 73
     6
 74
     0
 42
0.0000000001
 43
0.0000000001
 40
0.0
 40
0.0
 40
0.0
 40
0.0
 40
0.5
 40
0.5
 40
1.0
 40
1.0
 40
1.0
 40
1.0
 10
138.8333288191426
 20
112.6321533639086
 30
0.0
 10
138.7818622355504
 20
112.6321533639086
 30
0.0
 10
138.7314629935832
 20
112.6321533639086
 30
0.0
 10
138.6554129952905
 20
112.6321533639086
 30
0.0
 10
138.6311415486529
 20
112.6321533639086
 30
0.0
 10
138.6277482313331
 20
112.6321533639086
 30
0.0
  0
ARC
  5
2FD
330
29D
100
AcDbEntity
  8
0
  6
Continuous
 62
     7
370
    15
100
AcDbCircle
 10
152.7582857142861
 20
113.1321533639086
 30
0.0
 40
2.188421798070006
100
AcDbArc
 50
193.2073141036524
 51
346.7926858963489
  0
SPLINE
  5
2FE
330
29D
100
AcDbEntity
  8
0
  6
Continuous
 62
     7
370
    15
100
AcDbSpline
210
0.0
220
0.0
230
1.0
 70
    24
 71
     3
 72
    10
 73
     6
 74
     0
 42
0.0000000001
 43
0.0000000001
 40
0.0
 40
0.0
 40
0.0
 40
0.0
 40
0.5
 40
0.5
 40
1.0
 40
1.0
 40
1.0
 40
1.0
 10
154.8888231972391
 20
112.6321533639086
 30
0.0
 10
154.8854324589533
 20
112.6321533639086
 30
0.0
 10
154.8610564231784
 20
112.6321533639086
 30
0.0
 10
154.7853938455241
 20
112.6321533639086
 30
0.0
 10
154.7346748363513
 20
112.6321533639086
 30
0.0
 10
154.6832426094295
 20
112.6321533639086
 30
0.0
  0
SPLINE
  5
2FF
330
29D
100
AcDbEntity
  8
0
  6
Continuous
 62
     7
370
    15
100
AcDbSpline
210
0.0
220
0.0
230
1.0
 70
    24
 71
     3
 72
    10
 73
     6
 74
     0
 42
0.0000000001
 43
0.0000000001
 40
0.0
 40
0.0
 40
0.0
 40
0.0
 40
0.5
 40
0.5
 40
1.0
 40
1.0
 40
1.0
 40
1.0
 10
150.8333288191426
 20
112.6321533639086
 30
0.0
 10
150.7818622355504
 20
112.6321533639086
 30
0.0
 10
150.7314629935832
 20
112.6321533639086
 30
0.0
 10
150.6554129952905
 20
112.6321533639086
 30
0.0
 10
150.6311415486528
 20
112.6321533639086
 30
0.0
 10
150.627748231333
 20
112.6321533639086
 30
0.0
  0
ARC
  5
300
330
29D
100
AcDbEntity
  8
0
  6
Continuous
 62
     7
370
    15
100
AcDbCircle
 10
128.7582857142861
 20
113.1321533639086
 30
0.0
 40
2.188421798070002
100
AcDbArc
 50
193.2073141036525
 51
346.7926858963496
  0
SPLINE
  5
301
330
29D
100
AcDbEntity
  8
0
  6
Continuous
 62
     7
370
    15
100
AcDbSpline
210
0.0
220
0.0
230
1.0
 70
    24
 71
     3
 72
    10
 73
     6
 74
     0
 42
0.0000000001
 43
0.0000000001
 40
0.0
 40
0.0
 40
0.0
 40
0.0
 40
0.5
 40
0.5
 40
1.0
 40
1.0
 40
1.0
 40
1.0
 10
130.8888231972391
 20
112.6321533639086
 30
0.0
 10
130.8854324589533
 20
112.6321533639086
 30
0.0
 10
130.8610564231784
 20
112.6321533639086
 30
0.0
 10
130.7853938455241
 20
112.6321533639086
 30
0.0
 10
130.7346748363513
 20
112.6321533639085
 30
0.0
 10
130.6832426094295
 20
112.6321533639085
 30
0.0
  0
SPLINE
  5
302
330
29D
100
AcDbEntity
  8
0
  6
Continuous
 62
     7
370
    15
100
AcDbSpline
210
0.0
220
0.0
230
1.0
 70
    24
 71
     3
 72
    10
 73
     6
 74
     0
 42
0.0000000001
 43
0.0000000001
 40
0.0
 40
0.0
 40
0.0
 40
0.0
 40
0.5
 40
0.5
 40
1.0
 40
1.0
 40
1.0
 40
1.0
 10
126.8333288191426
 20
112.6321533639086
 30
0.0
 10
126.7818622355504
 20
112.6321533639086
 30
0.0
 10
126.7314629935832
 20
112.6321533639085
 30
0.0
 10
126.6554129952905
 20
112.6321533639085
 30
0.0
 10
126.6311415486529
 20
112.6321533639085
 30
0.0
 10
126.627748231333
 20
112.6321533639085
 30
0.0
  0
ARC
  5
303
330
29D
100
AcDbEntity
  8
0
  6
Continuous
 62
     7
370
    15
100
AcDbCircle
 10
188.7582857142861
 20
113.1321533639086
 30
0.0
 40
2.188421798069978
100
AcDbArc
 50
193.2073141036525
 51
346.7926858963491
  0
SPLINE
  5
304
330
29D
100
AcDbEntity
  8
0
  6
Continuous
 62
     7
370
    15
100
AcDbSpline
210
0.0
220
0.0
230
1.0
 70
    24
 71
     3
 72
    10
 73
     6
 74
     0
 42
0.0000000001
 43
0.0000000001
 40
0.0
 40
0.0
 40
0.0
 40
0.0
 40
0.5
 40
0.5
 40
1.0
 40
1.0
 40
1.0
 40
1.0
 10
190.8888231972391
 20
112.6321533639086
 30
0.0
 10
190.8854324589533
 20
112.6321533639086
 30
0.0
 10
190.8610564231784
 20
112.6321533639086
 30
0.0
 10
190.7853938455241
 20
112.6321533639086
 30
0.0
 10
190.7346748363513
 20
112.6321533639086
 30
0.0
 10
190.6832426094295
 20
112.6321533639086
 30
0.0
  0
SPLINE
  5
305
330
29D
100
AcDbEntity
  8
0
  6
Continuous
 62
     7
370
    15
100
AcDbSpline
210
0.0
220
0.0
230
1.0
 70
    24
 71
     3
 72
    10
 73
     6
 74
     0
 42
0.0000000001
 43
0.0000000001
 40
0.0
 40
0.0
 40
0.0
 40
0.0
 40
0.5
 40
0.5
 40
1.0
 40
1.0
 40
1.0
 40
1.0
 10
186.8333288191426
 20
112.6321533639086
 30
0.0
 10
186.7818622355504
 20
112.6321533639086
 30
0.0
 10
186.7314629935832
 20
112.6321533639086
 30
0.0
 10
186.6554129952905
 20
112.6321533639086
 30
0.0
 10
186.6311415486529
 20
112.6321533639086
 30
0.0
 10
186.627748231333
 20
112.6321533639086
 30
0.0
  0
ARC
  5
306
330
29D
100
AcDbEntity
  8
0
  6
Continuous
 62
     7
370
    15
100
AcDbCircle
 10
176.7582857142861
 20
113.1321533639086
 30
0.0
 40
2.188421798069978
100
AcDbArc
 50
193.2073141036525
 51
346.7926858963489
  0
SPLINE
  5
307
330
29D
100
AcDbEntity
  8
0
  6
Continuous
 62
     7
370
    15
100
AcDbSpline
210
0.0
220
0.0
230
1.0
 70
    24
 71
     3
 72
    10
 73
     6
 74
     0
 42
0.0000000001
 43
0.0000000001
 40
0.0
 40
0.0
 40
0.0
 40
0.0
 40
0.5
 40
0.5
 40
1.0
 40
1.0
 40
1.0
 40
1.0
 10
178.8888231972391
 20
112.6321533639086
 30
0.0
 10
178.8854324589533
 20
112.6321533639086
 30
0.0
 10
178.8610564231784
 20
112.6321533639086
 30
0.0
 10
178.7853938455241
 20
112.6321533639086
 30
0.0
 10
178.7346748363513
 20
112.6321533639086
 30
0.0
 10
178.6832426094295
 20
112.6321533639086
 30
0.0
  0
SPLINE
  5
308
330
29D
100
AcDbEntity
  8
0
  6
Continuous
 62
     7
370
    15
100
AcDbSpline
210
0.0
220
0.0
230
1.0
 70
    24
 71
     3
 72
    10
 73
     6
 74
     0
 42
0.0000000001
 43
0.0000000001
 40
0.0
 40
0.0
 40
0.0
 40
0.0
 40
0.5
 40
0.5
 40
1.0
 40
1.0
 40
1.0
 40
1.0
 10
174.8333288191426
 20
112.6321533639086
 30
0.0
 10
174.7818622355504
 20
112.6321533639086
 30
0.0
 10
174.7314629935832
 20
112.6321533639086
 30
0.0
 10
174.6554129952905
 20
112.6321533639086
 30
0.0
 10
174.6311415486529
 20
112.6321533639086
 30
0.0
 10
174.627748231333
 20
112.6321533639086
 30
0.0
  0
ARC
  5
309
330
29D
100
AcDbEntity
  8
0
  6
Continuous
 62
     7
370
    15
100
AcDbCircle
 10
116.7582857142861
 20
113.1321533639086
 30
0.0
 40
2.188421798069978
100
AcDbArc
 50
193.2073141036525
 51
346.792685896349
  0
SPLINE
  5
30A
330
29D
100
AcDbEntity
  8
0
  6
Continuous
 62
     7
370
    15
100
AcDbSpline
210
0.0
220
0.0
230
1.0
 70
    24
 71
     3
 72
    10
 73
     6
 74
     0
 42
0.0000000001
 43
0.0000000001
 40
0.0
 40
0.0
 40
0.0
 40
0.0
 40
0.5
 40
0.5
 40
1.0
 40
1.0
 40
1.0
 40
1.0
 10
118.8888231972391
 20
112.6321533639085
 30
0.0
 10
118.8854324589533
 20
112.6321533639085
 30
0.0
 10
118.8610564231784
 20
112.6321533639085
 30
0.0
 10
118.7853938455241
 20
112.6321533639085
 30
0.0
 10
118.7346748363513
 20
112.6321533639085
 30
0.0
 10
118.6832426094295
 20
112.6321533639085
 30
0.0
  0
SPLINE
  5
30B
330
29D
100
AcDbEntity
  8
0
  6
Continuous
 62
     7
370
    15
100
AcDbSpline
210
0.0
220
0.0
230
1.0
 70
    24
 71
     3
 72
    10
 73
     6
 74
     0
 42
0.0000000001
 43
0.0000000001
 40
0.0
 40
0.0
 40
0.0
 40
0.0
 40
0.5
 40
0.5
 40
1.0
 40
1.0
 40
1.0
 40
1.0
 10
114.8333288191426
 20
112.6321533639085
 30
0.0
 10
114.7818622355504
 20
112.6321533639085
 30
0.0
 10
114.7314629935832
 20
112.6321533639085
 30
0.0
 10
114.6554129952905
 20
112.6321533639085
 30
0.0
 10
114.6311415486529
 20
112.6321533639085
 30
0.0
 10
114.6277482313331
 20
112.6321533639085
 30
0.0
  0
ARC
  5
30C
330
29D
100
AcDbEntity
  8
0
  6
Continuous
 62
     7
370
    15
100
AcDbCircle
 10
164.7582857142861
 20
113.1321533639086
 30
0.0
 40
2.188421798069978
100
AcDbArc
 50
193.2073141036525
 51
346.7926858963491
  0
SPLINE
  5
30D
330
29D
100
AcDbEntity
  8
0
  6
Continuous
 62
     7
370
    15
100
AcDbSpline
210
0.0
220
0.0
230
1.0
 70
    24
 71
     3
 72
    10
 73
     6
 74
     0
 42
0.0000000001
 43
0.0000000001
 40
0.0
 40
0.0
 40
0.0
 40
0.0
 40
0.5
 40
0.5
 40
1.0
 40
1.0
 40
1.0
 40
1.0
 10
166.8888231972391
 20
112.6321533639086
 30
0.0
 10
166.8854324589533
 20
112.6321533639086
 30
0.0
 10
166.8610564231784
 20
112.6321533639086
 30
0.0
 10
166.7853938455241
 20
112.6321533639086
 30
0.0
 10
166.7346748363513
 20
112.6321533639086
 30
0.0
 10
166.6832426094295
 20
112.6321533639086
 30
0.0
  0
SPLINE
  5
30E
330
29D
100
AcDbEntity
  8
0
  6
Continuous
 62
     7
370
    15
100
AcDbSpline
210
0.0
220
0.0
230
1.0
 70
    24
 71
     3
 72
    10
 73
     6
 74
     0
 42
0.0000000001
 43
0.0000000001
 40
0.0
 40
0.0
 40
0.0
 40
0.0
 40
0.5
 40
0.5
 40
1.0
 40
1.0
 40
1.0
 40
1.0
 10
162.8333288191426
 20
112.6321533639086
 30
0.0
 10
162.7818622355504
 20
112.6321533639086
 30
0.0
 10
162.7314629935832
 20
112.6321533639086
 30
0.0
 10
162.6554129952905
 20
112.6321533639086
 30
0.0
 10
162.6311415486529
 20
112.6321533639086
 30
0.0
 10
162.6277482313331
 20
112.6321533639086
 30
0.0
  0
ARC
  5
30F
330
29D
100
AcDbEntity
  8
0
  6
Continuous
 62
     7
370
    15
100
AcDbCircle
 10
128.7582857142861
 20
113.1321533639086
 30
0.0
 40
2.188421798070002
100
AcDbArc
 50
13.20731410365122
 51
166.7926858963486
  0
SPLINE
  5
310
330
29D
100
AcDbEntity
  8
0
  6
Continuous
 62
     7
370
    15
100
AcDbSpline
210
0.0
220
0.0
230
1.0
 70
    24
 71
     3
 72
    10
 73
     6
 74
     0
 42
0.0000000001
 43
0.0000000001
 40
0.0
 40
0.0
 40
0.0
 40
0.0
 40
0.5
 40
0.5
 40
1.0
 40
1.0
 40
1.0
 40
1.0
 10
130.6832426094295
 20
113.6321533639085
 30
0.0
 10
130.7347091930218
 20
113.6321533639085
 30
0.0
 10
130.7851084349889
 20
113.6321533639085
 30
0.0
 10
130.8611584332817
 20
113.6321533639085
 30
0.0
 10
130.8854298799193
 20
113.6321533639085
 30
0.0
 10
130.8888231972391
 20
113.6321533639085
 30
0.0
  0
SPLINE
  5
311
330
29D
100
AcDbEntity
  8
0
  6
Continuous
 62
     7
370
    15
100
AcDbSpline
210
0.0
220
0.0
230
1.0
 70
    24
 71
     3
 72
    10
 73
     6
 74
     0
 42
0.0000000001
 43
0.0000000001
 40
0.0
 40
0.0
 40
0.0
 40
0.0
 40
0.5
 40
0.5
 40
1.0
 40
1.0
 40
1.0
 40
1.0
 10
126.627748231333
 20
113.6321533639085
 30
0.0
 10
126.6311389696188
 20
113.6321533639085
 30
0.0
 10
126.6555150053937
 20
113.6321533639085
 30
0.0
 10
126.731177583048
 20
113.6321533639085
 30
0.0
 10
126.7818965922208
 20
113.6321533639086
 30
0.0
 10
126.8333288191426
 20
113.6321533639086
 30
0.0
  0
ARC
  5
312
330
29D
100
AcDbEntity
  8
0
  6
Continuous
 62
     7
370
    15
100
AcDbCircle
 10
152.7582857142861
 20
113.1321533639086
 30
0.0
 40
2.188421798069978
100
AcDbArc
 50
13.20731410365175
 51
166.7926858963482
  0
SPLINE
  5
313
330
29D
100
AcDbEntity
  8
0
  6
Continuous
 62
     7
370
    15
100
AcDbSpline
210
0.0
220
0.0
230
1.0
 70
    24
 71
     3
 72
    10
 73
     6
 74
     0
 42
0.0000000001
 43
0.0000000001
 40
0.0
 40
0.0
 40
0.0
 40
0.0
 40
0.5
 40
0.5
 40
1.0
 40
1.0
 40
1.0
 40
1.0
 10
154.6832426094295
 20
113.6321533639086
 30
0.0
 10
154.7347091930218
 20
113.6321533639086
 30
0.0
 10
154.7851084349889
 20
113.6321533639086
 30
0.0
 10
154.8611584332816
 20
113.6321533639086
 30
0.0
 10
154.8854298799193
 20
113.6321533639086
 30
0.0
 10
154.8888231972391
 20
113.6321533639086
 30
0.0
  0
SPLINE
  5
314
330
29D
100
AcDbEntity
  8
0
  6
Continuous
 62
     7
370
    15
100
AcDbSpline
210
0.0
220
0.0
230
1.0
 70
    24
 71
     3
 72
    10
 73
     6
 74
     0
 42
0.0000000001
 43
0.0000000001
 40
0.0
 40
0.0
 40
0.0
 40
0.0
 40
0.5
 40
0.5
 40
1.0
 40
1.0
 40
1.0
 40
1.0
 10
150.627748231333
 20
113.6321533639086
 30
0.0
 10
150.6311389696188
 20
113.6321533639086
 30
0.0
 10
150.6555150053937
 20
113.6321533639086
 30
0.0
 10
150.731177583048
 20
113.6321533639086
 30
0.0
 10
150.7818965922208
 20
113.6321533639086
 30
0.0
 10
150.8333288191426
 20
113.6321533639086
 30
0.0
  0
ARC
  5
315
330
29D
100
AcDbEntity
  8
0
  6
Continuous
 62
     7
370
    15
100
AcDbCircle
 10
188.7582857142861
 20
113.1321533639086
 30
0.0
 40
2.188421798069978
100
AcDbArc
 50
13.20731410365175
 51
166.7926858963482
  0
SPLINE
  5
316
330
29D
100
AcDbEntity
  8
0
  6
Continuous
 62
     7
370
    15
100
AcDbSpline
210
0.0
220
0.0
230
1.0
 70
    24
 71
     3
 72
    10
 73
     6
 74
     0
 42
0.0000000001
 43
0.0000000001
 40
0.0
 40
0.0
 40
0.0
 40
0.0
 40
0.5
 40
0.5
 40
1.0
 40
1.0
 40
1.0
 40
1.0
 10
190.6832426094295
 20
113.6321533639086
 30
0.0
 10
190.7347091930217
 20
113.6321533639086
 30
0.0
 10
190.7851084349889
 20
113.6321533639086
 30
0.0
 10
190.8611584332817
 20
113.6321533639086
 30
0.0
 10
190.8854298799193
 20
113.6321533639086
 30
0.0
 10
190.8888231972391
 20
113.6321533639086
 30
0.0
  0
SPLINE
  5
317
330
29D
100
AcDbEntity
  8
0
  6
Continuous
 62
     7
370
    15
100
AcDbSpline
210
0.0
220
0.0
230
1.0
 70
    24
 71
     3
 72
    10
 73
     6
 74
     0
 42
0.0000000001
 43
0.0000000001
 40
0.0
 40
0.0
 40
0.0
 40
0.0
 40
0.5
 40
0.5
 40
1.0
 40
1.0
 40
1.0
 40
1.0
 10
186.627748231333
 20
113.6321533639086
 30
0.0
 10
186.6311389696188
 20
113.6321533639086
 30
0.0
 10
186.6555150053937
 20
113.6321533639086
 30
0.0
 10
186.731177583048
 20
113.6321533639086
 30
0.0
 10
186.7818965922208
 20
113.6321533639086
 30
0.0
 10
186.8333288191426
 20
113.6321533639086
 30
0.0
  0
ARC
  5
318
330
29D
100
AcDbEntity
  8
0
  6
Continuous
 62
     7
370
    15
100
AcDbCircle
 10
116.7582857142861
 20
113.1321533639086
 30
0.0
 40
2.188421798069978
100
AcDbArc
 50
13.20731410365175
 51
166.7926858963482
  0
SPLINE
  5
319
330
29D
100
AcDbEntity
  8
0
  6
Continuous
 62
     7
370
    15
100
AcDbSpline
210
0.0
220
0.0
230
1.0
 70
    24
 71
     3
 72
    10
 73
     6
 74
     0
 42
0.0000000001
 43
0.0000000001
 40
0.0
 40
0.0
 40
0.0
 40
0.0
 40
0.5
 40
0.5
 40
1.0
 40
1.0
 40
1.0
 40
1.0
 10
118.6832426094295
 20
113.6321533639085
 30
0.0
 10
118.7347091930218
 20
113.6321533639085
 30
0.0
 10
118.7851084349889
 20
113.6321533639085
 30
0.0
 10
118.8611584332817
 20
113.6321533639085
 30
0.0
 10
118.8854298799193
 20
113.6321533639085
 30
0.0
 10
118.8888231972391
 20
113.6321533639085
 30
0.0
  0
SPLINE
  5
31A
330
29D
100
AcDbEntity
  8
0
  6
Continuous
 62
     7
370
    15
100
AcDbSpline
210
0.0
220
0.0
230
1.0
 70
    24
 71
     3
 72
    10
 73
     6
 74
     0
 42
0.0000000001
 43
0.0000000001
 40
0.0
 40
0.0
 40
0.0
 40
0.0
 40
0.5
 40
0.5
 40
1.0
 40
1.0
 40
1.0
 40
1.0
 10
114.627748231333
 20
113.6321533639085
 30
0.0
 10
114.6311389696188
 20
113.6321533639085
 30
0.0
 10
114.6555150053937
 20
113.6321533639085
 30
0.0
 10
114.731177583048
 20
113.6321533639085
 30
0.0
 10
114.7818965922208
 20
113.6321533639085
 30
0.0
 10
114.8333288191426
 20
113.6321533639085
 30
0.0
  0
ARC
  5
31B
330
29D
100
AcDbEntity
  8
0
  6
Continuous
 62
     7
370
    15
100
AcDbCircle
 10
140.7582857142861
 20
113.1321533639086
 30
0.0
 40
2.188421798069978
100
AcDbArc
 50
13.20731410365175
 51
166.7926858963482
  0
SPLINE
  5
31C
330
29D
100
AcDbEntity
  8
0
  6
Continuous
 62
     7
370
    15
100
AcDbSpline
210
0.0
220
0.0
230
1.0
 70
    24
 71
     3
 72
    10
 73
     6
 74
     0
 42
0.0000000001
 43
0.0000000001
 40
0.0
 40
0.0
 40
0.0
 40
0.0
 40
0.5
 40
0.5
 40
1.0
 40
1.0
 40
1.0
 40
1.0
 10
142.6832426094295
 20
113.6321533639086
 30
0.0
 10
142.7347091930218
 20
113.6321533639086
 30
0.0
 10
142.7851084349889
 20
113.6321533639086
 30
0.0
 10
142.8611584332817
 20
113.6321533639086
 30
0.0
 10
142.8854298799193
 20
113.6321533639086
 30
0.0
 10
142.8888231972391
 20
113.6321533639086
 30
0.0
  0
SPLINE
  5
31D
330
29D
100
AcDbEntity
  8
0
  6
Continuous
 62
     7
370
    15
100
AcDbSpline
210
0.0
220
0.0
230
1.0
 70
    24
 71
     3
 72
    10
 73
     6
 74
     0
 42
0.0000000001
 43
0.0000000001
 40
0.0
 40
0.0
 40
0.0
 40
0.0
 40
0.5
 40
0.5
 40
1.0
 40
1.0
 40
1.0
 40
1.0
 10
138.6277482313331
 20
113.6321533639086
 30
0.0
 10
138.6311389696188
 20
113.6321533639086
 30
0.0
 10
138.6555150053937
 20
113.6321533639086
 30
0.0
 10
138.731177583048
 20
113.6321533639086
 30
0.0
 10
138.7818965922208
 20
113.6321533639086
 30
0.0
 10
138.8333288191426
 20
113.6321533639086
 30
0.0
  0
ARC
  5
31E
330
29D
100
AcDbEntity
  8
0
  6
Continuous
 62
     7
370
    15
100
AcDbCircle
 10
176.7582857142861
 20
113.1321533639086
 30
0.0
 40
2.188421798069978
100
AcDbArc
 50
13.20731410365175
 51
166.7926858963482
  0
SPLINE
  5
31F
330
29D
100
AcDbEntity
  8
0
  6
Continuous
 62
     7
370
    15
100
AcDbSpline
210
0.0
220
0.0
230
1.0
 70
    24
 71
     3
 72
    10
 73
     6
 74
     0
 42
0.0000000001
 43
0.0000000001
 40
0.0
 40
0.0
 40
0.0
 40
0.0
 40
0.5
 40
0.5
 40
1.0
 40
1.0
 40
1.0
 40
1.0
 10
178.6832426094295
 20
113.6321533639086
 30
0.0
 10
178.7347091930218
 20
113.6321533639086
 30
0.0
 10
178.7851084349889
 20
113.6321533639086
 30
0.0
 10
178.8611584332817
 20
113.6321533639086
 30
0.0
 10
178.8854298799193
 20
113.6321533639086
 30
0.0
 10
178.8888231972391
 20
113.6321533639086
 30
0.0
  0
SPLINE
  5
320
330
29D
100
AcDbEntity
  8
0
  6
Continuous
 62
     7
370
    15
100
AcDbSpline
210
0.0
220
0.0
230
1.0
 70
    24
 71
     3
 72
    10
 73
     6
 74
     0
 42
0.0000000001
 43
0.0000000001
 40
0.0
 40
0.0
 40
0.0
 40
0.0
 40
0.5
 40
0.5
 40
1.0
 40
1.0
 40
1.0
 40
1.0
 10
174.627748231333
 20
113.6321533639086
 30
0.0
 10
174.6311389696189
 20
113.6321533639086
 30
0.0
 10
174.6555150053937
 20
113.6321533639086
 30
0.0
 10
174.731177583048
 20
113.6321533639086
 30
0.0
 10
174.7818965922208
 20
113.6321533639086
 30
0.0
 10
174.8333288191426
 20
113.6321533639086
 30
0.0
  0
ARC
  5
321
330
29D
100
AcDbEntity
  8
0
  6
Continuous
 62
     7
370
    15
100
AcDbCircle
 10
164.7582857142861
 20
113.1321533639086
 30
0.0
 40
2.188421798069978
100
AcDbArc
 50
13.20731410365175
 51
166.7926858963482
  0
SPLINE
  5
322
330
29D
100
AcDbEntity
  8
0
  6
Continuous
 62
     7
370
    15
100
AcDbSpline
210
0.0
220
0.0
230
1.0
 70
    24
 71
     3
 72
    10
 73
     6
 74
     0
 42
0.0000000001
 43
0.0000000001
 40
0.0
 40
0.0
 40
0.0
 40
0.0
 40
0.5
 40
0.5
 40
1.0
 40
1.0
 40
1.0
 40
1.0
 10
166.6832426094295
 20
113.6321533639086
 30
0.0
 10
166.7347091930218
 20
113.6321533639086
 30
0.0
 10
166.7851084349889
 20
113.6321533639086
 30
0.0
 10
166.8611584332817
 20
113.6321533639086
 30
0.0
 10
166.8854298799193
 20
113.6321533639086
 30
0.0
 10
166.8888231972391
 20
113.6321533639086
 30
0.0
  0
SPLINE
  5
323
330
29D
100
AcDbEntity
  8
0
  6
Continuous
 62
     7
370
    15
100
AcDbSpline
210
0.0
220
0.0
230
1.0
 70
    24
 71
     3
 72
    10
 73
     6
 74
     0
 42
0.0000000001
 43
0.0000000001
 40
0.0
 40
0.0
 40
0.0
 40
0.0
 40
0.5
 40
0.5
 40
1.0
 40
1.0
 40
1.0
 40
1.0
 10
162.627748231333
 20
113.6321533639086
 30
0.0
 10
162.6311389696188
 20
113.6321533639086
 30
0.0
 10
162.6555150053937
 20
113.6321533639086
 30
0.0
 10
162.731177583048
 20
113.6321533639086
 30
0.0
 10
162.7818965922208
 20
113.6321533639086
 30
0.0
 10
162.8333288191426
 20
113.6321533639086
 30
0.0
  0
ARC
  5
324
330
29D
100
AcDbEntity
  8
0
  6
Continuous
 62
     7
370
    15
100
AcDbCircle
 10
200.7582857142861
 20
113.1321533639086
 30
0.0
 40
2.188421798069978
100
AcDbArc
 50
193.2073141036525
 51
346.7926858963491
  0
SPLINE
  5
325
330
29D
100
AcDbEntity
  8
0
  6
Continuous
 62
     7
370
    15
100
AcDbSpline
210
0.0
220
0.0
230
1.0
 70
    24
 71
     3
 72
    10
 73
     6
 74
     0
 42
0.0000000001
 43
0.0000000001
 40
0.0
 40
0.0
 40
0.0
 40
0.0
 40
0.5
 40
0.5
 40
1.0
 40
1.0
 40
1.0
 40
1.0
 10
202.8888231972391
 20
112.6321533639086
 30
0.0
 10
202.8854324589533
 20
112.6321533639086
 30
0.0
 10
202.8610564231784
 20
112.6321533639086
 30
0.0
 10
202.7853938455241
 20
112.6321533639086
 30
0.0
 10
202.7346748363513
 20
112.6321533639086
 30
0.0
 10
202.6832426094296
 20
112.6321533639086
 30
0.0
  0
SPLINE
  5
326
330
29D
100
AcDbEntity
  8
0
  6
Continuous
 62
     7
370
    15
100
AcDbSpline
210
0.0
220
0.0
230
1.0
 70
    24
 71
     3
 72
    10
 73
     6
 74
     0
 42
0.0000000001
 43
0.0000000001
 40
0.0
 40
0.0
 40
0.0
 40
0.0
 40
0.5
 40
0.5
 40
1.0
 40
1.0
 40
1.0
 40
1.0
 10
198.8333288191427
 20
112.6321533639086
 30
0.0
 10
198.7818622355504
 20
112.6321533639086
 30
0.0
 10
198.7314629935832
 20
112.6321533639086
 30
0.0
 10
198.6554129952905
 20
112.6321533639086
 30
0.0
 10
198.6311415486529
 20
112.6321533639086
 30
0.0
 10
198.627748231333
 20
112.6321533639086
 30
0.0
  0
ARC
  5
327
330
29D
100
AcDbEntity
  8
0
  6
Continuous
 62
     7
370
    15
100
AcDbCircle
 10
140.7582857142861
 20
99.88215336390824
 30
0.0
 40
16.95000000000019
100
AcDbArc
 50
78.33628343584791
 51
101.663716564152
  0
ARC
  5
328
330
29D
100
AcDbEntity
  8
0
  6
Continuous
 62
     7
370
    15
100
AcDbCircle
 10
116.7582857142861
 20
99.88215336390823
 30
0.0
 40
16.95000000000021
100
AcDbArc
 50
78.33628343584798
 51
101.663716564152
  0
LINE
  5
329
330
29D
100
AcDbEntity
  8
0
  6
Continuous
 62
     7
370
    15
100
AcDbLine
 10
125.331552576151
 20
116.4821533639086
 30
0.0
 11
120.1850188524211
 21
116.4821533639086
 31
0.0
  0
LINE
  5
32A
330
29D
100
AcDbEntity
  8
0
  6
Continuous
 62
     7
370
    15
100
AcDbLine
 10
137.331552576151
 20
116.4821533639086
 30
0.0
 11
132.1850188524211
 21
116.4821533639086
 31
0.0
  0
LINE
  5
32B
330
29D
100
AcDbEntity
  8
0
  6
Continuous
 62
     7
370
    15
100
AcDbLine
 10
156.2053859449158
 20
109.7821533639086
 30
0.0
 11
161.3111854836564
 21
109.7821533639086
 31
0.0
  0
ARC
  5
32C
330
29D
100
AcDbEntity
  8
0
  6
Continuous
 62
     7
370
    15
100
AcDbCircle
 10
200.7582857142861
 20
99.88215336390824
 30
0.0
 40
16.95000000000021
100
AcDbArc
 50
78.33628343584793
 51
101.663716564152
  0
ARC
  5
32D
330
29D
100
AcDbEntity
  8
0
  6
Continuous
 62
     7
370
    15
100
AcDbCircle
 10
140.7582857142861
 20
126.5821533639086
 30
0.0
 40
17.15000000000022
100
AcDbArc
 50
258.404727340936
 51
281.5952726590656
  0
ARC
  5
32E
330
29D
100
AcDbEntity
  8
0
  6
Continuous
 62
     7
370
    15
100
AcDbCircle
 10
128.7582857142861
 20
99.88215336390824
 30
0.0
 40
16.95000000000019
100
AcDbArc
 50
78.33628343584802
 51
101.663716564152
  0
LINE
  5
32F
330
29D
100
AcDbEntity
  8
0
  6
Continuous
 62
     7
370
    15
100
AcDbLine
 10
168.2053859449158
 20
109.7821533639086
 30
0.0
 11
173.3111854836564
 21
109.7821533639087
 31
0.0
  0
LINE
  5
330
330
29D
100
AcDbEntity
  8
0
  6
Continuous
 62
     7
370
    15
100
AcDbLine
 10
173.331552576151
 20
116.4821533639086
 30
0.0
 11
168.1850188524212
 21
116.4821533639086
 31
0.0
  0
ARC
  5
331
330
29D
100
AcDbEntity
  8
0
  6
Continuous
 62
     7
370
    15
100
AcDbCircle
 10
176.7582857142861
 20
99.88215336390824
 30
0.0
 40
16.95000000000021
100
AcDbArc
 50
78.33628343584802
 51
101.6637165641521
  0
LINE
  5
332
330
29D
100
AcDbEntity
  8
0
  6
Continuous
 62
     7
370
    15
100
AcDbLine
 10
132.2053859449158
 20
109.7821533639086
 30
0.0
 11
137.3111854836564
 21
109.7821533639086
 31
0.0
  0
LINE
  5
333
330
29D
100
AcDbEntity
  8
0
  6
Continuous
 62
     7
370
    15
100
AcDbLine
 10
120.2053859449158
 20
109.7821533639086
 30
0.0
 11
125.3111854836564
 21
109.7821533639086
 31
0.0
  0
ARC
  5
334
330
29D
100
AcDbEntity
  8
0
  6
Continuous
 62
     7
370
    15
100
AcDbCircle
 10
128.7582857142861
 20
126.5821533639086
 30
0.0
 40
17.15000000000022
100
AcDbArc
 50
258.404727340936
 51
281.5952726590656
  0
LINE
  5
335
330
29D
100
AcDbEntity
  8
0
  6
Continuous
 62
     7
370
    15
100
AcDbLine
 10
113.331552576151
 20
116.4821533639086
 30
0.0
 11
111.0582857142861
 21
116.4821533639086
 31
0.0
  0
LINE
  5
336
330
29D
100
AcDbEntity
  8
0
  6
Continuous
 62
     7
370
    15
100
AcDbLine
 10
206.4582857142853
 20
116.4821533639086
 30
0.0
 11
204.1850188524212
 21
116.4821533639086
 31
0.0
  0
LINE
  5
337
330
29D
100
AcDbEntity
  8
0
  6
Continuous
 62
     7
370
    15
100
AcDbLine
 10
206.4582857142853
 20
109.7821533639087
 30
0.0
 11
206.4582857142853
 21
116.4821533639086
 31
0.0
  0
LINE
  5
338
330
29D
100
AcDbEntity
  8
0
  6
Continuous
 62
     7
370
    15
100
AcDbLine
 10
149.331552576151
 20
116.4821533639086
 30
0.0
 11
144.1850188524212
 21
116.4821533639086
 31
0.0
  0
ARC
  5
339
330
29D
100
AcDbEntity
  8
0
  6
Continuous
 62
     7
370
    15
100
AcDbCircle
 10
164.7582857142861
 20
99.88215336390824
 30
0.0
 40
16.95000000000021
100
AcDbArc
 50
78.33628343584793
 51
101.663716564152
  0
LINE
  5
33A
330
29D
100
AcDbEntity
  8
0
  6
Continuous
 62
     7
370
    15
100
AcDbLine
 10
111.0582857142861
 20
116.4821533639086
 30
0.0
 11
111.0582857142861
 21
109.7821533639086
 31
0.0
  0
LINE
  5
33B
330
29D
100
AcDbEntity
  8
0
  6
Continuous
 62
     7
370
    15
100
AcDbLine
 10
185.331552576151
 20
116.4821533639086
 30
0.0
 11
180.1850188524212
 21
116.4821533639086
 31
0.0
  0
LINE
  5
33C
330
29D
100
AcDbEntity
  8
0
  6
Continuous
 62
     7
370
    15
100
AcDbLine
 10
192.2053859449158
 20
109.7821533639087
 30
0.0
 11
197.3111854836564
 21
109.7821533639087
 31
0.0
  0
ARC
  5
33D
330
29D
100
AcDbEntity
  8
0
  6
Continuous
 62
     7
370
    15
100
AcDbCircle
 10
164.7582857142861
 20
126.5821533639086
 30
0.0
 40
17.15000000000022
100
AcDbArc
 50
258.404727340936
 51
281.5952726590656
  0
LINE
  5
33E
330
29D
100
AcDbEntity
  8
0
  6
Continuous
 62
     7
370
    15
100
AcDbLine
 10
144.2053859449158
 20
109.7821533639086
 30
0.0
 11
149.3111854836564
 21
109.7821533639086
 31
0.0
  0
LINE
  5
33F
330
29D
100
AcDbEntity
  8
0
  6
Continuous
 62
     7
370
    15
100
AcDbLine
 10
161.331552576151
 20
116.4821533639086
 30
0.0
 11
156.1850188524212
 21
116.4821533639086
 31
0.0
  0
LINE
  5
340
330
29D
100
AcDbEntity
  8
0
  6
Continuous
 62
     7
370
    15
100
AcDbLine
 10
111.0582857142861
 20
109.7821533639086
 30
0.0
 11
113.3111854836564
 21
109.7821533639086
 31
0.0
  0
ARC
  5
341
330
29D
100
AcDbEntity
  8
0
  6
Continuous
 62
     7
370
    15
100
AcDbCircle
 10
116.7582857142861
 20
126.5821533639086
 30
0.0
 40
17.15000000000021
100
AcDbArc
 50
258.404727340936
 51
281.5952726590656
  0
ARC
  5
342
330
29D
100
AcDbEntity
  8
0
  6
Continuous
 62
     7
370
    15
100
AcDbCircle
 10
152.7582857142861
 20
99.88215336390824
 30
0.0
 40
16.95000000000021
100
AcDbArc
 50
78.33628343584793
 51
101.663716564152
  0
ARC
  5
343
330
29D
100
AcDbEntity
  8
0
  6
Continuous
 62
     7
370
    15
100
AcDbCircle
 10
200.7582857142861
 20
126.5821533639087
 30
0.0
 40
17.15000000000023
100
AcDbArc
 50
258.404727340936
 51
281.5952726590656
  0
ARC
  5
344
330
29D
100
AcDbEntity
  8
0
  6
Continuous
 62
     7
370
    15
100
AcDbCircle
 10
188.7582857142861
 20
126.5821533639087
 30
0.0
 40
17.15000000000023
100
AcDbArc
 50
258.404727340936
 51
281.5952726590656
  0
ARC
  5
345
330
29D
100
AcDbEntity
  8
0
  6
Continuous
 62
     7
370
    15
100
AcDbCircle
 10
152.7582857142861
 20
126.5821533639086
 30
0.0
 40
17.15000000000021
100
AcDbArc
 50
258.404727340936
 51
281.5952726590655
  0
LINE
  5
346
330
29D
100
AcDbEntity
  8
0
  6
Continuous
 62
     7
370
    15
100
AcDbLine
 10
180.2053859449158
 20
109.7821533639087
 30
0.0
 11
185.3111854836564
 21
109.7821533639087
 31
0.0
  0
ARC
  5
347
330
29D
100
AcDbEntity
  8
0
  6
Continuous
 62
     7
370
    15
100
AcDbCircle
 10
188.7582857142861
 20
99.88215336390824
 30
0.0
 40
16.9500000000002
100
AcDbArc
 50
78.33628343584802
 51
101.663716564152
  0
LINE
  5
348
330
29D
100
AcDbEntity
  8
0
  6
Continuous
 62
     7
370
    15
100
AcDbLine
 10
197.331552576151
 20
116.4821533639086
 30
0.0
 11
192.1850188524211
 21
116.4821533639086
 31
0.0
  0
LINE
  5
349
330
29D
100
AcDbEntity
  8
0
  6
Continuous
 62
     7
370
    15
100
AcDbLine
 10
204.2053859449158
 20
109.7821533639087
 30
0.0
 11
206.4582857142853
 21
109.7821533639087
 31
0.0
  0
ARC
  5
34A
330
29D
100
AcDbEntity
  8
0
  6
Continuous
 62
     7
370
    15
100
AcDbCircle
 10
176.7582857142861
 20
126.5821533639086
 30
0.0
 40
17.1500000000002
100
AcDbArc
 50
258.404727340936
 51
281.5952726590655
  0
ENDBLK
  5
34B
330
29D
100
AcDbEntity
  8
0
100
AcDbBlockEnd
  0
BLOCK
  5
34D
330
34C
100
AcDbEntity
  8
0
100
AcDbBlockBegin
  2
4
 70
     0
 10
0.0
 20
0.0
 30
0.0
  3
4
  1

  0
LINE
  5
34E
330
34C
100
AcDbEntity
  8
0
  6
Continuous
 62
     7
370
    15
100
AcDbLine
 10
299.7162152298433
 20
128.3044064458468
 30
0.0
 11
299.7890503772893
 21
132.9013122910185
 31
0.0
  0
LINE
  5
34F
330
34C
100
AcDbEntity
  8
0
  6
Continuous
 62
     7
370
    15
100
AcDbLine
 10
292.9399100430014
 20
133.0098327095191
 30
0.0
 11
292.8670748955554
 21
128.4129268643474
 31
0.0
  0
SPLINE
  5
350
330
34C
100
AcDbEntity
  8
0
  6
Continuous
 62
     7
370
    15
100
AcDbSpline
210
0.0
220
0.0
230
1.0
 70
     8
 71
     3
 72
    27
 73
    23
 74
     0
 42
0.0000000001
 43
0.0000000001
 40
0.0
 40
0.0
 40
0.0
 40
0.0
 40
0.0127241479466757
 40
0.0604792597769303
 40
0.1030489307200318
 40
0.1404607297692058
 40
0.2000128051276166
 40
0.2485803788321212
 40
0.3007701070045063
 40
0.3567925127745819
 40
0.4166588030162315
 40
0.4779162259106351
 40
0.5370067128699353
 40
0.5939203627325977
 40
0.6486744406726256
 40
0.7021100389175845
 40
0.7648557743494281
 40
0.8403877365516409
 40
0.8831193658815386
 40
0.9291522716522944
 40
0.9784794478318437
 40
1.0
 40
1.0
 40
1.0
 40
1.0
 10
292.8976149813765
 20
128.198248964701
 30
0.0
 10
292.9002042342533
 20
128.1755201577184
 30
0.0
 10
292.9125112349282
 20
128.0674876648806
 30
0.0
 10
293.0067255455694
 20
127.8901357250701
 30
0.0
 10
293.1584113477334
 20
127.6808638364796
 30
0.0
 10
293.3797376555229
 20
127.4681214972885
 30
0.0
 10
293.6656547215885
 20
127.2693359070473
 30
0.0
 10
294.0347602231714
 20
127.0838395263221
 30
0.0
 10
294.4479063415016
 20
126.9280238804272
 30
0.0
 10
294.9379242956338
 20
126.7963286304173
 30
0.0
 10
295.4943733367908
 20
126.7003621201315
 30
0.0
 10
296.0853796114036
 20
126.651334988449
 30
0.0
 10
296.6726658879427
 20
126.6520493200865
 30
0.0
 10
297.2272853300854
 20
126.6981325321447
 30
0.0
 10
297.7390067499519
 20
126.7839674908996
 30
0.0
 10
298.2297488265018
 20
126.9113944385623
 30
0.0
 10
298.7266477498532
 20
127.1020269502902
 30
0.0
 10
299.1150904984436
 20
127.3314693542429
 30
0.0
 10
299.389144219179
 20
127.5703404989441
 30
0.0
 10
299.5610475818755
 20
127.7880956355292
 30
0.0
 10
299.667341323867
 20
127.9826759167856
 30
0.0
 10
299.6835509580322
 20
128.1057496706777
 30
0.0
 10
299.6884747613187
 20
128.1431342869941
 30
0.0
  0
LINE
  5
351
330
34C
100
AcDbEntity
  8
0
  6
Continuous
 62
     7
370
    15
100
AcDbLine
 10
299.2758611317304
 20
127.3387170741882
 30
0.0
 11
299.2781527108254
 21
127.4833474306292
 31
0.0
  0
LINE
  5
352
330
34C
100
AcDbEntity
  8
0
  6
Continuous
 62
     7
370
    15
100
AcDbLine
 10
293.2788221861601
 20
127.5731307628842
 30
0.0
 11
293.2766141235951
 21
127.4337714553566
 31
0.0
  0
LINE
  5
353
330
34C
100
AcDbEntity
  8
0
  6
Continuous
 62
     7
370
    15
100
AcDbLine
 10
299.0262670375882
 20
114.3644980757278
 30
0.0
 11
299.1392784869013
 21
121.4970846103275
 31
0.0
  0
LINE
  5
354
330
34C
100
AcDbEntity
  8
0
  6
Continuous
 62
     7
370
    15
100
AcDbLine
 10
293.1618386403764
 20
122.9684727010951
 30
0.0
 11
293.0270200294529
 21
114.4595524568962
 31
0.0
  0
LINE
  5
355
330
34C
100
AcDbEntity
  8
0
  6
Continuous
 62
     7
370
    15
100
AcDbLine
 10
291.2149641408934
 20
132.3668632609877
 30
0.0
 11
291.2877992883394
 21
136.9637691061594
 31
0.0
  0
LINE
  5
356
330
34C
100
AcDbEntity
  8
0
  6
Continuous
 62
     7
370
    15
100
AcDbLine
 10
284.4386589540515
 20
137.07228952466
 30
0.0
 11
284.3658238066056
 21
132.4753836794883
 31
0.0
  0
SPLINE
  5
357
330
34C
100
AcDbEntity
  8
0
  6
Continuous
 62
     7
370
    15
100
AcDbSpline
210
0.0
220
0.0
230
1.0
 70
     8
 71
     3
 72
    27
 73
    23
 74
     0
 42
0.0000000001
 43
0.0000000001
 40
0.0
 40
0.0
 40
0.0
 40
0.0
 40
0.0127241479466758
 40
0.0604792597769303
 40
0.1030489307200318
 40
0.1404607297692057
 40
0.2000128051276167
 40
0.2485803788321214
 40
0.3007701070045063
 40
0.3567925127745815
 40
0.4166588030162315
 40
0.4779162259106351
 40
0.5370067128699353
 40
0.5939203627325977
 40
0.6486744406726253
 40
0.7021100389175845
 40
0.7648557743494285
 40
0.8403877365516406
 40
0.8831193658815383
 40
0.9291522716522944
 40
0.9784794478318435
 40
1.0
 40
1.0
 40
1.0
 40
1.0
 10
284.3963638924266
 20
132.2607057798419
 30
0.0
 10
284.3989531453035
 20
132.2379769728593
 30
0.0
 10
284.4112601459784
 20
132.1299444800215
 30
0.0
 10
284.5054744566195
 20
131.952592540211
 30
0.0
 10
284.6571602587835
 20
131.7433206516206
 30
0.0
 10
284.878486566573
 20
131.5305783124294
 30
0.0
 10
285.1644036326386
 20
131.3317927221882
 30
0.0
 10
285.5335091342216
 20
131.146296341463
 30
0.0
 10
285.9466552525518
 20
130.9904806955681
 30
0.0
 10
286.4366732066839
 20
130.8587854455582
 30
0.0
 10
286.9931222478409
 20
130.7628189352724
 30
0.0
 10
287.5841285224537
 20
130.7137918035899
 30
0.0
 10
288.1714147989928
 20
130.7145061352274
 30
0.0
 10
288.7260342411355
 20
130.7605893472856
 30
0.0
 10
289.237755661002
 20
130.8464243060405
 30
0.0
 10
289.7284977375519
 20
130.9738512537032
 30
0.0
 10
290.2253966609032
 20
131.1644837654311
 30
0.0
 10
290.6138394094938
 20
131.3939261693838
 30
0.0
 10
290.8878931302291
 20
131.632797314085
 30
0.0
 10
291.0597964929256
 20
131.8505524506701
 30
0.0
 10
291.1660902349171
 20
132.0451327319265
 30
0.0
 10
291.1822998690823
 20
132.1682064858186
 30
0.0
 10
291.1872236723688
 20
132.205591102135
 30
0.0
  0
LINE
  5
358
330
34C
100
AcDbEntity
  8
0
  6
Continuous
 62
     7
370
    15
100
AcDbLine
 10
293.4683751509002
 20
113.7116992881163
 30
0.0
 11
293.6361250244841
 21
113.5815836157769
 31
0.0
  0
LINE
  5
359
330
34C
100
AcDbEntity
  8
0
  6
Continuous
 62
     7
370
    15
100
AcDbLine
 10
298.3896530203024
 20
113.5062668866279
 30
0.0
 11
298.5614408604901
 21
113.631002792603
 31
0.0
  0
LINE
  5
35A
330
34C
100
AcDbEntity
  8
0
  6
Continuous
 62
     7
370
    15
100
AcDbLine
 10
290.7746100427805
 20
131.4011738893291
 30
0.0
 11
290.7769016218755
 21
131.5458042457701
 31
0.0
  0
LINE
  5
35B
330
34C
100
AcDbEntity
  8
0
  6
Continuous
 62
     7
370
    15
100
AcDbLine
 10
284.7775710972102
 20
131.6355875780251
 30
0.0
 11
284.7753630346452
 21
131.4962282704975
 31
0.0
  0
LINE
  5
35C
330
34C
100
AcDbEntity
  8
0
  6
Continuous
 62
     7
370
    15
100
AcDbLine
 10
290.5250159486383
 20
118.4269548908687
 30
0.0
 11
290.6197512552818
 21
124.406063880486
 31
0.0
  0
LINE
  5
35D
330
34C
100
AcDbEntity
  8
0
  6
Continuous
 62
     7
370
    15
100
AcDbLine
 10
284.6605875514265
 20
127.030929516236
 30
0.0
 11
284.5257689405029
 21
118.5220092720371
 31
0.0
  0
LINE
  5
35E
330
34C
100
AcDbEntity
  8
0
  6
Continuous
 62
     7
370
    15
100
AcDbLine
 10
282.7137130519435
 20
136.4293200761286
 30
0.0
 11
282.7865481993895
 21
141.0262259213003
 31
0.0
  0
LINE
  5
35F
330
34C
100
AcDbEntity
  8
0
  6
Continuous
 62
     7
370
    15
100
AcDbLine
 10
275.9374078651017
 20
141.1347463398009
 30
0.0
 11
275.8645727176556
 21
136.5378404946293
 31
0.0
  0
SPLINE
  5
360
330
34C
100
AcDbEntity
  8
0
  6
Continuous
 62
     7
370
    15
100
AcDbSpline
210
0.0
220
0.0
230
1.0
 70
     8
 71
     3
 72
    27
 73
    23
 74
     0
 42
0.0000000001
 43
0.0000000001
 40
0.0
 40
0.0
 40
0.0
 40
0.0
 40
0.0127241479466766
 40
0.060479259776931
 40
0.1030489307200324
 40
0.1404607297692063
 40
0.200012805127617
 40
0.2485803788321215
 40
0.3007701070045065
 40
0.3567925127745819
 40
0.4166588030162314
 40
0.4779162259106349
 40
0.5370067128699347
 40
0.5939203627325972
 40
0.6486744406726249
 40
0.7021100389175837
 40
0.7648557743494272
 40
0.8403877365516397
 40
0.8831193658815374
 40
0.9291522716522932
 40
0.9784794478318424
 40
1.0
 40
1.0
 40
1.0
 40
1.0
 10
275.8951128034767
 20
136.3231625949828
 30
0.0
 10
275.8977020563536
 20
136.3004337880002
 30
0.0
 10
275.9100090570284
 20
136.1924012951624
 30
0.0
 10
276.0042233676696
 20
136.0150493553519
 30
0.0
 10
276.1559091698336
 20
135.8057774667615
 30
0.0
 10
276.377235477623
 20
135.5930351275703
 30
0.0
 10
276.6631525436888
 20
135.3942495373292
 30
0.0
 10
277.0322580452716
 20
135.2087531566039
 30
0.0
 10
277.4454041636019
 20
135.052937510709
 30
0.0
 10
277.935422117734
 20
134.9212422606991
 30
0.0
 10
278.491871158891
 20
134.8252757504133
 30
0.0
 10
279.0828774335038
 20
134.7762486187308
 30
0.0
 10
279.6701637100429
 20
134.7769629503683
 30
0.0
 10
280.2247831521857
 20
134.8230461624265
 30
0.0
 10
280.7365045720521
 20
134.9088811211814
 30
0.0
 10
281.227246648602
 20
135.0363080688441
 30
0.0
 10
281.7241455719533
 20
135.226940580572
 30
0.0
 10
282.1125883205439
 20
135.4563829845247
 30
0.0
 10
282.3866420412792
 20
135.6952541292259
 30
0.0
 10
282.5585454039758
 20
135.913009265811
 30
0.0
 10
282.6648391459672
 20
136.1075895470674
 30
0.0
 10
282.6810487801324
 20
136.2306633009595
 30
0.0
 10
282.6859725834189
 20
136.2680479172759
 30
0.0
  0
LINE
  5
361
330
34C
100
AcDbEntity
  8
0
  6
Continuous
 62
     7
370
    15
100
AcDbLine
 10
284.9671240619503
 20
117.7741561032572
 30
0.0
 11
285.1348739355342
 21
117.6440404309178
 31
0.0
  0
LINE
  5
362
330
34C
100
AcDbEntity
  8
0
  6
Continuous
 62
     7
370
    15
100
AcDbLine
 10
289.8884019313526
 20
117.5687237017688
 30
0.0
 11
290.0601897715402
 21
117.6934596077439
 31
0.0
  0
LINE
  5
363
330
34C
100
AcDbEntity
  8
0
  6
Continuous
 62
     7
370
    15
100
AcDbLine
 10
282.2733589538306
 20
135.46363070447
 30
0.0
 11
282.2756505329256
 21
135.608261060911
 31
0.0
  0
LINE
  5
364
330
34C
100
AcDbEntity
  8
0
  6
Continuous
 62
     7
370
    15
100
AcDbLine
 10
276.2763200082603
 20
135.698044393166
 30
0.0
 11
276.2741119456952
 21
135.5586850856384
 31
0.0
  0
LINE
  5
365
330
34C
100
AcDbEntity
  8
0
  6
Continuous
 62
     7
370
    15
100
AcDbLine
 10
282.0237648596884
 20
122.4894117060096
 30
0.0
 11
282.118500166332
 21
128.4685206956269
 31
0.0
  0
LINE
  5
366
330
34C
100
AcDbEntity
  8
0
  6
Continuous
 62
     7
370
    15
100
AcDbLine
 10
276.1593364624765
 20
131.0933863313769
 30
0.0
 11
276.024517851553
 21
122.584466087178
 31
0.0
  0
LINE
  5
367
330
34C
100
AcDbEntity
  8
0
  6
Continuous
 62
     7
370
    15
100
AcDbLine
 10
274.2124619629936
 20
140.4917768912695
 30
0.0
 11
274.2852971104396
 21
145.0886827364412
 31
0.0
  0
LINE
  5
368
330
34C
100
AcDbEntity
  8
0
  6
Continuous
 62
     7
370
    15
100
AcDbLine
 10
267.4361567761518
 20
145.1972031549418
 30
0.0
 11
267.3633216287058
 21
140.6002973097702
 31
0.0
  0
SPLINE
  5
369
330
34C
100
AcDbEntity
  8
0
  6
Continuous
 62
     7
370
    15
100
AcDbSpline
210
0.0
220
0.0
230
1.0
 70
     8
 71
     3
 72
    27
 73
    23
 74
     0
 42
0.0000000001
 43
0.0000000001
 40
0.0
 40
0.0
 40
0.0
 40
0.0
 40
0.0127241479466761
 40
0.0604792597769307
 40
0.1030489307200321
 40
0.1404607297692061
 40
0.2000128051276173
 40
0.2485803788321219
 40
0.3007701070045067
 40
0.3567925127745823
 40
0.4166588030162319
 40
0.4779162259106359
 40
0.5370067128699359
 40
0.593920362732598
 40
0.6486744406726261
 40
0.7021100389175851
 40
0.7648557743494287
 40
0.8403877365516411
 40
0.883119365881539
 40
0.9291522716522949
 40
0.978479447831844
 40
1.0
 40
1.0
 40
1.0
 40
1.0
 10
267.3938617145268
 20
140.3856194101237
 30
0.0
 10
267.3964509674036
 20
140.3628906031411
 30
0.0
 10
267.4087579680785
 20
140.2548581103033
 30
0.0
 10
267.5029722787197
 20
140.0775061704928
 30
0.0
 10
267.6546580808837
 20
139.8682342819024
 30
0.0
 10
267.8759843886731
 20
139.6554919427112
 30
0.0
 10
268.1619014547388
 20
139.4567063524701
 30
0.0
 10
268.5310069563217
 20
139.2712099717448
 30
0.0
 10
268.944153074652
 20
139.1153943258499
 30
0.0
 10
269.4341710287841
 20
138.98369907584
 30
0.0
 10
269.9906200699412
 20
138.8877325655542
 30
0.0
 10
270.5816263445539
 20
138.8387054338717
 30
0.0
 10
271.1689126210931
 20
138.8394197655092
 30
0.0
 10
271.7235320632357
 20
138.8855029775674
 30
0.0
 10
272.2352534831022
 20
138.9713379363223
 30
0.0
 10
272.7259955596521
 20
139.098764883985
 30
0.0
 10
273.2228944830035
 20
139.2893973957129
 30
0.0
 10
273.6113372315939
 20
139.5188397996656
 30
0.0
 10
273.8853909523292
 20
139.7577109443668
 30
0.0
 10
274.0572943150258
 20
139.9754660809519
 30
0.0
 10
274.1635880570173
 20
140.1700463622083
 30
0.0
 10
274.1797976911824
 20
140.2931201161004
 30
0.0
 10
274.1847214944689
 20
140.3305047324168
 30
0.0
  0
LINE
  5
36A
330
34C
100
AcDbEntity
  8
0
  6
Continuous
 62
     7
370
    15
100
AcDbLine
 10
276.4658729730004
 20
121.8366129183982
 30
0.0
 11
276.6336228465842
 21
121.7064972460587
 31
0.0
  0
LINE
  5
36B
330
34C
100
AcDbEntity
  8
0
  6
Continuous
 62
     7
370
    15
100
AcDbLine
 10
281.3871508424026
 20
121.6311805169097
 30
0.0
 11
281.5589386825902
 21
121.7559164228848
 31
0.0
  0
LINE
  5
36C
330
34C
100
AcDbEntity
  8
0
  6
Continuous
 62
     7
370
    15
100
AcDbLine
 10
273.7721078648807
 20
139.5260875196109
 30
0.0
 11
273.7743994439757
 21
139.6707178760519
 31
0.0
  0
LINE
  5
36D
330
34C
100
AcDbEntity
  8
0
  6
Continuous
 62
     7
370
    15
100
AcDbLine
 10
267.7750689193104
 20
139.7605012083069
 30
0.0
 11
267.7728608567453
 21
139.6211419007793
 31
0.0
  0
LINE
  5
36E
330
34C
100
AcDbEntity
  8
0
  6
Continuous
 62
     7
370
    15
100
AcDbLine
 10
273.5225137707384
 20
126.5518685211505
 30
0.0
 11
273.6172490773821
 21
132.5309775107678
 31
0.0
  0
LINE
  5
36F
330
34C
100
AcDbEntity
  8
0
  6
Continuous
 62
     7
370
    15
100
AcDbLine
 10
267.6580853735266
 20
135.1558431465178
 30
0.0
 11
267.5232667626032
 21
126.6469229023189
 31
0.0
  0
LINE
  5
370
330
34C
100
AcDbEntity
  8
0
  6
Continuous
 62
     7
370
    15
100
AcDbLine
 10
265.7112108740437
 20
144.5542337064104
 30
0.0
 11
265.7840460214897
 21
149.1511395515821
 31
0.0
  0
LINE
  5
371
330
34C
100
AcDbEntity
  8
0
  6
Continuous
 62
     7
370
    15
100
AcDbLine
 10
258.9349056872018
 20
149.2596599700827
 30
0.0
 11
258.8620705397559
 21
144.6627541249111
 31
0.0
  0
SPLINE
  5
372
330
34C
100
AcDbEntity
  8
0
  6
Continuous
 62
     7
370
    15
100
AcDbSpline
210
0.0
220
0.0
230
1.0
 70
     8
 71
     3
 72
    27
 73
    23
 74
     0
 42
0.0000000001
 43
0.0000000001
 40
0.0
 40
0.0
 40
0.0
 40
0.0
 40
0.0127241479466764
 40
0.0604792597769303
 40
0.1030489307200317
 40
0.1404607297692057
 40
0.200012805127616
 40
0.2485803788321212
 40
0.3007701070045062
 40
0.3567925127745812
 40
0.4166588030162308
 40
0.4779162259106343
 40
0.5370067128699346
 40
0.5939203627325966
 40
0.6486744406726243
 40
0.702110038917583
 40
0.7648557743494261
 40
0.8403877365516388
 40
0.8831193658815363
 40
0.9291522716522923
 40
0.9784794478318412
 40
1.0
 40
1.0
 40
1.0
 40
1.0
 10
258.8926106255769
 20
144.4480762252646
 30
0.0
 10
258.8951998784537
 20
144.425347418282
 30
0.0
 10
258.9075068791286
 20
144.3173149254442
 30
0.0
 10
259.0017211897698
 20
144.1399629856337
 30
0.0
 10
259.1534069919337
 20
143.9306910970433
 30
0.0
 10
259.3747332997233
 20
143.7179487578521
 30
0.0
 10
259.6606503657889
 20
143.519163167611
 30
0.0
 10
260.0297558673718
 20
143.3336667868857
 30
0.0
 10
260.4429019857021
 20
143.1778511409908
 30
0.0
 10
260.9329199398342
 20
143.0461558909809
 30
0.0
 10
261.4893689809912
 20
142.9501893806952
 30
0.0
 10
262.080375255604
 20
142.9011622490126
 30
0.0
 10
262.6676615321431
 20
142.9018765806501
 30
0.0
 10
263.2222809742858
 20
142.9479597927084
 30
0.0
 10
263.7340023941523
 20
143.0337947514632
 30
0.0
 10
264.2247444707022
 20
143.1612216991259
 30
0.0
 10
264.7216433940536
 20
143.3518542108538
 30
0.0
 10
265.110086142644
 20
143.5812966148066
 30
0.0
 10
265.3841398633794
 20
143.8201677595077
 30
0.0
 10
265.5560432260759
 20
144.0379228960928
 30
0.0
 10
265.6623369680674
 20
144.2325031773492
 30
0.0
 10
265.6785466022325
 20
144.3555769312413
 30
0.0
 10
265.683470405519
 20
144.3929615475577
 30
0.0
  0
LINE
  5
373
330
34C
100
AcDbEntity
  8
0
  6
Continuous
 62
     7
370
    15
100
AcDbLine
 10
267.9646218840505
 20
125.899069733539
 30
0.0
 11
268.1323717576343
 21
125.7689540611996
 31
0.0
  0
LINE
  5
374
330
34C
100
AcDbEntity
  8
0
  6
Continuous
 62
     7
370
    15
100
AcDbLine
 10
272.8858997534528
 20
125.6936373320507
 30
0.0
 11
273.0576875936403
 21
125.8183732380258
 31
0.0
  0
LINE
  5
375
330
34C
100
AcDbEntity
  8
0
  6
Continuous
 62
     7
370
    15
100
AcDbLine
 10
265.2708567759308
 20
143.5885443347518
 30
0.0
 11
265.2731483550258
 21
143.7331746911928
 31
0.0
  0
LINE
  5
376
330
34C
100
AcDbEntity
  8
0
  6
Continuous
 62
     7
370
    15
100
AcDbLine
 10
259.2738178303605
 20
143.8229580234478
 30
0.0
 11
259.2716097677954
 21
143.6835987159202
 31
0.0
  0
LINE
  5
377
330
34C
100
AcDbEntity
  8
0
  6
Continuous
 62
     7
370
    15
100
AcDbLine
 10
265.0212626817885
 20
130.6143253362914
 30
0.0
 11
265.1159979884322
 21
136.5934343259088
 31
0.0
  0
LINE
  5
378
330
34C
100
AcDbEntity
  8
0
  6
Continuous
 62
     7
370
    15
100
AcDbLine
 10
259.1568342845767
 20
139.2182999616587
 30
0.0
 11
259.0220156736533
 21
130.7093797174599
 31
0.0
  0
LINE
  5
379
330
34C
100
AcDbEntity
  8
0
  6
Continuous
 62
     7
370
    15
100
AcDbLine
 10
257.2099597850938
 20
148.6166905215513
 30
0.0
 11
257.2827949325397
 21
153.213596366723
 31
0.0
  0
LINE
  5
37A
330
34C
100
AcDbEntity
  8
0
  6
Continuous
 62
     7
370
    15
100
AcDbLine
 10
250.4336545982519
 20
153.3221167852236
 30
0.0
 11
250.360819450806
 21
148.725210940052
 31
0.0
  0
SPLINE
  5
37B
330
34C
100
AcDbEntity
  8
0
  6
Continuous
 62
     7
370
    15
100
AcDbSpline
210
0.0
220
0.0
230
1.0
 70
     8
 71
     3
 72
    27
 73
    23
 74
     0
 42
0.0000000001
 43
0.0000000001
 40
0.0
 40
0.0
 40
0.0
 40
0.0
 40
0.0127241479466762
 40
0.0604792597769301
 40
0.1030489307200315
 40
0.1404607297692055
 40
0.2000128051276159
 40
0.2485803788321211
 40
0.3007701070045061
 40
0.3567925127745811
 40
0.4166588030162308
 40
0.4779162259106343
 40
0.5370067128699345
 40
0.5939203627325966
 40
0.6486744406726243
 40
0.702110038917583
 40
0.7648557743494261
 40
0.8403877365516388
 40
0.8831193658815363
 40
0.9291522716522925
 40
0.9784794478318413
 40
1.0
 40
1.0
 40
1.0
 40
1.0
 10
250.391359536627
 20
148.5105330404055
 30
0.0
 10
250.3939487895039
 20
148.4878042334229
 30
0.0
 10
250.4062557901787
 20
148.3797717405851
 30
0.0
 10
250.5004701008199
 20
148.2024198007746
 30
0.0
 10
250.6521559029839
 20
147.9931479121842
 30
0.0
 10
250.8734822107734
 20
147.780405572993
 30
0.0
 10
251.1593992768391
 20
147.5816199827518
 30
0.0
 10
251.5285047784219
 20
147.3961236020266
 30
0.0
 10
251.9416508967521
 20
147.2403079561317
 30
0.0
 10
252.4316688508843
 20
147.1086127061218
 30
0.0
 10
252.9881178920414
 20
147.012646195836
 30
0.0
 10
253.5791241666541
 20
146.9636190641535
 30
0.0
 10
254.1664104431933
 20
146.964333395791
 30
0.0
 10
254.721029885336
 20
147.0104166078493
 30
0.0
 10
255.2327513052024
 20
147.0962515666041
 30
0.0
 10
255.7234933817523
 20
147.2236785142668
 30
0.0
 10
256.2203923051036
 20
147.4143110259947
 30
0.0
 10
256.6088350536941
 20
147.6437534299474
 30
0.0
 10
256.8828887744295
 20
147.8826245746486
 30
0.0
 10
257.054792137126
 20
148.1003797112337
 30
0.0
 10
257.1610858791175
 20
148.2949599924901
 30
0.0
 10
257.1772955132827
 20
148.4180337463822
 30
0.0
 10
257.1822193165691
 20
148.4554183626986
 30
0.0
  0
LINE
  5
37C
330
34C
100
AcDbEntity
  8
0
  6
Continuous
 62
     7
370
    15
100
AcDbLine
 10
259.4633707951006
 20
129.96152654868
 30
0.0
 11
259.6311206686845
 21
129.8314108763405
 31
0.0
  0
LINE
  5
37D
330
34C
100
AcDbEntity
  8
0
  6
Continuous
 62
     7
370
    15
100
AcDbLine
 10
264.3846486645028
 20
129.7560941471916
 30
0.0
 11
264.5564365046904
 21
129.8808300531667
 31
0.0
  0
LINE
  5
37E
330
34C
100
AcDbEntity
  8
0
  6
Continuous
 62
     7
370
    15
100
AcDbLine
 10
256.7696056869809
 20
147.6510011498927
 30
0.0
 11
256.7718972660759
 21
147.7956315063337
 31
0.0
  0
LINE
  5
37F
330
34C
100
AcDbEntity
  8
0
  6
Continuous
 62
     7
370
    15
100
AcDbLine
 10
250.7725667414106
 20
147.8854148385887
 30
0.0
 11
250.7703586788455
 21
147.7460555310611
 31
0.0
  0
LINE
  5
380
330
34C
100
AcDbEntity
  8
0
  6
Continuous
 62
     7
370
    15
100
AcDbLine
 10
256.5200115928387
 20
134.6767821514323
 30
0.0
 11
256.6147468994823
 21
140.6558911410496
 31
0.0
  0
LINE
  5
381
330
34C
100
AcDbEntity
  8
0
  6
Continuous
 62
     7
370
    15
100
AcDbLine
 10
250.6555831956269
 20
143.2807567767996
 30
0.0
 11
250.5207645847034
 21
134.7718365326008
 31
0.0
  0
LINE
  5
382
330
34C
100
AcDbEntity
  8
0
  6
Continuous
 62
     7
370
    15
100
AcDbLine
 10
248.7087086961439
 20
152.6791473366922
 30
0.0
 11
248.7815438435899
 21
157.2760531818639
 31
0.0
  0
LINE
  5
383
330
34C
100
AcDbEntity
  8
0
  6
Continuous
 62
     7
370
    15
100
AcDbLine
 10
241.932403509302
 20
157.3845736003645
 30
0.0
 11
241.8595683618561
 21
152.7876677551929
 31
0.0
  0
SPLINE
  5
384
330
34C
100
AcDbEntity
  8
0
  6
Continuous
 62
     7
370
    15
100
AcDbSpline
210
0.0
220
0.0
230
1.0
 70
     8
 71
     3
 72
    27
 73
    23
 74
     0
 42
0.0000000001
 43
0.0000000001
 40
0.0
 40
0.0
 40
0.0
 40
0.0
 40
0.0127241479466764
 40
0.0604792597769303
 40
0.1030489307200317
 40
0.1404607297692057
 40
0.2000128051276161
 40
0.2485803788321213
 40
0.3007701070045063
 40
0.3567925127745812
 40
0.4166588030162309
 40
0.4779162259106352
 40
0.5370067128699344
 40
0.5939203627325967
 40
0.6486744406726246
 40
0.7021100389175836
 40
0.7648557743494269
 40
0.840387736551639
 40
0.8831193658815365
 40
0.9291522716522925
 40
0.9784794478318412
 40
1.0
 40
1.0
 40
1.0
 40
1.0
 10
241.8901084476771
 20
152.5729898555464
 30
0.0
 10
241.8926977005539
 20
152.5502610485639
 30
0.0
 10
241.9050047012288
 20
152.4422285557261
 30
0.0
 10
241.99921901187
 20
152.2648766159155
 30
0.0
 10
242.150904814034
 20
152.0556047273251
 30
0.0
 10
242.3722311218235
 20
151.8428623881339
 30
0.0
 10
242.6581481878891
 20
151.6440767978928
 30
0.0
 10
243.0272536894721
 20
151.4585804171675
 30
0.0
 10
243.4403998078022
 20
151.3027647712727
 30
0.0
 10
243.9304177619344
 20
151.1710695212627
 30
0.0
 10
244.4868668030914
 20
151.075103010977
 30
0.0
 10
245.0778730777042
 20
151.0260758792944
 30
0.0
 10
245.6651593542433
 20
151.0267902109319
 30
0.0
 10
246.2197787963861
 20
151.0728734229902
 30
0.0
 10
246.7315002162525
 20
151.158708381745
 30
0.0
 10
247.2222422928024
 20
151.2861353294077
 30
0.0
 10
247.7191412161537
 20
151.4767678411357
 30
0.0
 10
248.1075839647442
 20
151.7062102450884
 30
0.0
 10
248.3816376854796
 20
151.9450813897895
 30
0.0
 10
248.5535410481761
 20
152.1628365263746
 30
0.0
 10
248.6598347901676
 20
152.357416807631
 30
0.0
 10
248.6760444243328
 20
152.4804905615232
 30
0.0
 10
248.6809682276192
 20
152.5178751778395
 30
0.0
  0
LINE
  5
385
330
34C
100
AcDbEntity
  8
0
  6
Continuous
 62
     7
370
    15
100
AcDbLine
 10
250.9621197061507
 20
134.0239833638209
 30
0.0
 11
251.1298695797345
 21
133.8938676914814
 31
0.0
  0
LINE
  5
386
330
34C
100
AcDbEntity
  8
0
  6
Continuous
 62
     7
370
    15
100
AcDbLine
 10
255.883397575553
 20
133.8185509623325
 30
0.0
 11
256.0551854157406
 21
133.9432868683076
 31
0.0
  0
LINE
  5
387
330
34C
100
AcDbEntity
  8
0
  6
Continuous
 62
     7
370
    15
100
AcDbLine
 10
248.268354598031
 20
151.7134579650336
 30
0.0
 11
248.270646177126
 21
151.8580883214746
 31
0.0
  0
LINE
  5
388
330
34C
100
AcDbEntity
  8
0
  6
Continuous
 62
     7
370
    15
100
AcDbLine
 10
242.2713156524607
 20
151.9478716537296
 30
0.0
 11
242.2691075898957
 21
151.808512346202
 31
0.0
  0
LINE
  5
389
330
34C
100
AcDbEntity
  8
0
  6
Continuous
 62
     7
370
    15
100
AcDbLine
 10
248.0187605038888
 20
138.7392389665732
 30
0.0
 11
248.1134958105324
 21
144.7183479561906
 31
0.0
  0
LINE
  5
38A
330
34C
100
AcDbEntity
  8
0
  6
Continuous
 62
     7
370
    15
100
AcDbLine
 10
242.154332106677
 20
147.3432135919405
 30
0.0
 11
242.0195134957535
 21
138.8342933477416
 31
0.0
  0
LINE
  5
38B
330
34C
100
AcDbEntity
  8
0
  6
Continuous
 62
     7
370
    15
100
AcDbLine
 10
240.207457607194
 20
156.7416041518332
 30
0.0
 11
240.28029275464
 21
161.3385099970048
 31
0.0
  0
LINE
  5
38C
330
34C
100
AcDbEntity
  8
0
  6
Continuous
 62
     7
370
    15
100
AcDbLine
 10
233.4311524203521
 20
161.4470304155054
 30
0.0
 11
233.3583172729062
 21
156.8501245703338
 31
0.0
  0
SPLINE
  5
38D
330
34C
100
AcDbEntity
  8
0
  6
Continuous
 62
     7
370
    15
100
AcDbSpline
210
0.0
220
0.0
230
1.0
 70
     8
 71
     3
 72
    27
 73
    23
 74
     0
 42
0.0000000001
 43
0.0000000001
 40
0.0
 40
0.0
 40
0.0
 40
0.0
 40
0.0127241479466741
 40
0.0604792597769285
 40
0.10304893072003
 40
0.1404607297692041
 40
0.2000128051276148
 40
0.2485803788321203
 40
0.3007701070045048
 40
0.3567925127745792
 40
0.4166588030162289
 40
0.4779162259106331
 40
0.5370067128699337
 40
0.5939203627325959
 40
0.6486744406726248
 40
0.7021100389175833
 40
0.764855774349427
 40
0.8403877365516404
 40
0.8831193658815376
 40
0.9291522716522942
 40
0.9784794478318429
 40
1.0
 40
1.0
 40
1.0
 40
1.0
 10
233.3888573587272
 20
156.6354466706873
 30
0.0
 10
233.3914466116041
 20
156.6127178637048
 30
0.0
 10
233.4037536122789
 20
156.504685370867
 30
0.0
 10
233.4979679229201
 20
156.3273334310564
 30
0.0
 10
233.6496537250841
 20
156.118061542466
 30
0.0
 10
233.8709800328736
 20
155.9053192032749
 30
0.0
 10
234.1568970989392
 20
155.7065336130337
 30
0.0
 10
234.5260026005221
 20
155.5210372323085
 30
0.0
 10
234.9391487188523
 20
155.3652215864136
 30
0.0
 10
235.4291666729845
 20
155.2335263364036
 30
0.0
 10
235.9856157141415
 20
155.1375598261178
 30
0.0
 10
236.5766219887543
 20
155.0885326944353
 30
0.0
 10
237.1639082652934
 20
155.0892470260729
 30
0.0
 10
237.7185277074361
 20
155.1353302381311
 30
0.0
 10
238.2302491273026
 20
155.221165196886
 30
0.0
 10
238.7209912038525
 20
155.3485921445486
 30
0.0
 10
239.2178901272039
 20
155.5392246562765
 30
0.0
 10
239.6063328757943
 20
155.7686670602293
 30
0.0
 10
239.8803865965297
 20
156.0075382049304
 30
0.0
 10
240.0522899592262
 20
156.2252933415155
 30
0.0
 10
240.1585837012177
 20
156.4198736227719
 30
0.0
 10
240.1747933353828
 20
156.542947376664
 30
0.0
 10
240.1797171386693
 20
156.5803319929804
 30
0.0
  0
LINE
  5
38E
330
34C
100
AcDbEntity
  8
0
  6
Continuous
 62
     7
370
    15
100
AcDbLine
 10
242.4608686172008
 20
138.0864401789618
 30
0.0
 11
242.6286184907846
 21
137.9563245066223
 31
0.0
  0
LINE
  5
38F
330
34C
100
AcDbEntity
  8
0
  6
Continuous
 62
     7
370
    15
100
AcDbLine
 10
247.3821464866031
 20
137.8810077774734
 30
0.0
 11
247.5539343267906
 21
138.0057436834485
 31
0.0
  0
LINE
  5
390
330
34C
100
AcDbEntity
  8
0
  6
Continuous
 62
     7
370
    15
100
AcDbLine
 10
239.7671035090811
 20
155.7759147801745
 30
0.0
 11
239.7693950881761
 21
155.9205451366155
 31
0.0
  0
LINE
  5
391
330
34C
100
AcDbEntity
  8
0
  6
Continuous
 62
     7
370
    15
100
AcDbLine
 10
233.7700645635108
 20
156.0103284688706
 30
0.0
 11
233.7678565009458
 21
155.8709691613429
 31
0.0
  0
LINE
  5
392
330
34C
100
AcDbEntity
  8
0
  6
Continuous
 62
     7
370
    15
100
AcDbLine
 10
239.5175094149388
 20
142.8016957817141
 30
0.0
 11
239.6122447215825
 21
148.7808047713315
 31
0.0
  0
LINE
  5
393
330
34C
100
AcDbEntity
  8
0
  6
Continuous
 62
     7
370
    15
100
AcDbLine
 10
233.6530810177271
 20
151.4056704070814
 30
0.0
 11
233.5182624068035
 21
142.8967501628826
 31
0.0
  0
LINE
  5
394
330
34C
100
AcDbEntity
  8
0
  6
Continuous
 62
     7
370
    15
100
AcDbLine
 10
233.9596175282509
 20
142.1488969941027
 30
0.0
 11
234.1273674018347
 21
142.0187813217632
 31
0.0
  0
LINE
  5
395
330
34C
100
AcDbEntity
  8
0
  6
Continuous
 62
     7
370
    15
100
AcDbLine
 10
238.8808953976532
 20
141.9434645926143
 30
0.0
 11
239.0526832378407
 21
142.0682004985894
 31
0.0
  0
LWPOLYLINE
  5
396
330
34C
100
AcDbEntity
  8
0
  6
Continuous
 62
     7
370
    15
100
AcDbPolyline
 90
       39
 70
   128
 43
0.0
 10
298.117863247249
 20
132.11769078215
 10
297.8064939413995
 20
131.9978081821767
 10
297.4557902600105
 20
131.904050896096
 10
297.0753184852942
 20
131.838976378265
 10
296.675456895449
 20
131.8043596918936
 10
296.2671126722844
 20
131.8011450899472
 10
295.8614243817344
 20
131.8294202583868
 10
295.4694581428149
 20
131.8884139243254
 10
295.1019057727436
 20
131.9765168943411
 10
294.7687931420388
 20
132.0913259490793
 10
294.4792066949062
 20
132.2297093968116
 10
294.241045594728
 20
132.3878924978224
 10
294.0608062554776
 20
132.5615604294689
 10
293.9434051364806
 20
132.7459759832942
 10
293.8920446342216
 20
132.9361087837255
 10
293.9081257293153
 20
133.1267725036061
 10
293.9912097714077
 20
133.312766333681
 10
294.1390304444146
 20
133.4890168471155
 10
294.3475555857162
 20
133.6507163893538
 10
294.611097173042
 20
133.793454218403
 10
294.9224664788915
 20
133.9133368183763
 10
295.2731701602804
 20
134.0070941044571
 10
295.6536419349967
 20
134.072168622288
 10
296.053503524842
 20
134.1067853086594
 10
296.4618477480065
 20
134.1099999106059
 10
296.8675360385565
 20
134.0817247421662
 10
297.2595022774761
 20
134.0227310762276
 10
297.6270546475474
 20
133.9346281062119
 10
297.9601672782521
 20
133.8198190514737
 10
298.2497537253848
 20
133.6814356037415
 10
298.4879148255629
 20
133.5232525027306
 10
298.6681541648134
 20
133.3495845710841
 10
298.7855552838103
 20
133.1651690172588
 10
298.8369157860694
 20
132.9750362168275
 10
298.8208346909757
 20
132.7843724969469
 10
298.7377506488833
 20
132.598378666872
 10
298.5899299758763
 20
132.4221281534375
 10
298.3814048345749
 20
132.2604286111992
 10
298.117863247249
 20
132.11769078215
  0
LWPOLYLINE
  5
397
330
34C
100
AcDbEntity
  8
0
  6
Continuous
 62
     7
370
    15
100
AcDbPolyline
 90
       45
 70
   128
 43
0.0
 10
293.9380814618409
 20
134.1150653829236
 10
294.3067249225128
 20
134.2603787283619
 10
294.7172583467648
 20
134.3791299817467
 10
295.1613244579596
 20
134.4689017100094
 10
295.6298833506543
 20
134.5278664196428
 10
296.1133965170057
 20
134.554823759199
 10
296.6020210232839
 20
134.5492249549832
 10
297.0858098836177
 20
134.5111839825036
 10
297.5549145519426
 20
134.4414752462587
 10
297.9997854099977
 20
134.3415178150952
 10
298.4113661700146
 20
134.213346534058
 10
298.7812782346202
 20
134.0595706008138
 10
299.1019912609175
 20
133.88332044991
 10
299.366976456551
 20
133.6881840261557
 10
299.570839487092
 20
133.4781337444115
 10
299.7094302891308
 20
133.2574456226787
 10
299.779927553601
 20
133.0306122347039
 10
299.7808961594953
 20
132.8022512541327
 10
299.7123163887908
 20
132.5770114519909
 10
299.5755843278514
 20
132.3594780611121
 10
299.3734834471352
 20
132.1540794340201
 10
299.1101279377625
 20
131.9649968944418
 10
298.7908789584498
 20
131.796079617614
 10
298.4222354977778
 20
131.6507662721756
 10
298.0117020735258
 20
131.5320150187909
 10
297.5676359623311
 20
131.4422432905282
 10
297.0990770696364
 20
131.3832785808948
 10
296.615563903285
 20
131.3563212413385
 10
296.1269393970068
 20
131.3619200455544
 10
295.643150536673
 20
131.399961018034
 10
295.1740458683481
 20
131.4696697542788
 10
294.7291750102929
 20
131.5696271854424
 10
294.317594250276
 20
131.6977984664795
 10
293.9476821856705
 20
131.8515743997238
 10
293.6269691593731
 20
132.0278245506276
 10
293.3619839637397
 20
132.2229609743819
 10
293.1581209331987
 20
132.4330112561261
 10
293.0195301311599
 20
132.6536993778589
 10
292.9490328666897
 20
132.8805327658337
 10
292.9480642607954
 20
133.1088937464048
 10
293.0166440314999
 20
133.3341335485467
 10
293.1533760924393
 20
133.5516669394255
 10
293.3554769731556
 20
133.7570655665175
 10
293.6188324825283
 20
133.9461481060958
 10
293.9380814618409
 20
134.1150653829236
  0
LWPOLYLINE
  5
398
330
34C
100
AcDbEntity
  8
0
  6
Continuous
 62
     7
370
    15
100
AcDbPolyline
 90
       18
 70
   128
 43
0.0
 10
298.7180438110038
 20
127.1991737724423
 10
298.3494003503318
 20
127.053860427004
 10
297.9388669260799
 20
126.9351091736192
 10
297.4948008148851
 20
126.8453374453565
 10
297.0262419221905
 20
126.7863727357231
 10
296.5427287558391
 20
126.7594153961669
 10
296.0541042495608
 20
126.7650142003827
 10
295.570315389227
 20
126.8030551728623
 10
295.1012107209021
 20
126.8727639091072
 10
294.656339862847
 20
126.9727213402707
 10
294.2447591028301
 20
127.1008926213078
 10
293.8748470382245
 20
127.2546685545521
 10
293.5541340119272
 20
127.4309187054559
 10
293.2891488162936
 20
127.6260551292103
 10
293.0852857857528
 20
127.8361054109544
 10
292.9466949837139
 20
128.0567935326872
 10
292.8761977192437
 20
128.283626920662
 10
292.8670748955554
 20
128.4129268643474
  0
ARC
  5
399
330
34C
100
AcDbEntity
  8
0
  6
Continuous
 62
     7
370
    15
100
AcDbCircle
 10
298.3306959470499
 20
128.5523569752288
 30
0.0
 40
1.407530869293161
100
AcDbArc
 50
285.9737371126031
 51
349.8538344867197
  0
LWPOLYLINE
  5
39A
330
34C
100
AcDbEntity
  8
0
  6
Continuous
 62
     7
370
    15
100
AcDbPolyline
 90
       23
 70
   128
 43
0.0
 10
233.7678565009458
 20
155.8709691613429
 10
233.7873074586383
 20
155.7006316198729
 10
233.8715315152351
 20
155.4937976266936
 10
234.0204462756829
 20
155.2943273434398
 10
234.2307252303072
 20
155.1066766066247
 10
234.4976710947374
 20
154.9350372236252
 10
234.8153207394769
 20
154.7832433346321
 10
235.1765783963624
 20
154.6546857642935
 10
235.5733741662993
 20
154.5522362762959
 10
235.9968442874726
 20
154.4781834229084
 10
236.4375291371387
 20
154.434181422507
 10
236.8855845439655
 20
154.4212132070696
 10
237.3310016905542
 20
154.4395684650998
 10
237.7638306938794
 20
154.4888371704642
 10
238.1744028692352
 20
154.5679187416992
 10
238.5535467126745
 20
154.6750466271817
 10
238.8927927772509
 20
154.8078277669735
 10
239.1845628664692
 20
154.9632960498259
 10
239.4223393186718
 20
155.1379785712036
 10
239.6008106008302
 20
155.3279732122332
 10
239.7159899594159
 20
155.5290358065908
 10
239.7653044778863
 20
155.7366749481644
 10
239.7671035090811
 20
155.7759147801745
  0
LWPOLYLINE
  5
39B
330
34C
100
AcDbEntity
  8
0
  6
Continuous
 62
     7
370
    15
100
AcDbPolyline
 90
       23
 70
   128
 43
0.0
 10
242.2691075898957
 20
151.808512346202
 10
242.2885585475882
 20
151.638174804732
 10
242.3727826041851
 20
151.4313408115527
 10
242.5216973646328
 20
151.2318705282989
 10
242.7319763192572
 20
151.0442197914838
 10
242.9989221836873
 20
150.8725804084843
 10
243.3165718284268
 20
150.7207865194912
 10
243.6778294853123
 20
150.5922289491526
 10
244.0746252552493
 20
150.489779461155
 10
244.4980953764225
 20
150.4157266077674
 10
244.9387802260886
 20
150.371724607366
 10
245.3868356329155
 20
150.3587563919287
 10
245.8322527795041
 20
150.3771116499588
 10
246.2650817828293
 20
150.4263803553233
 10
246.6756539581852
 20
150.5054619265582
 10
247.0547978016244
 20
150.6125898120408
 10
247.3940438662008
 20
150.7453709518326
 10
247.6858139554191
 20
150.900839234685
 10
247.9235904076217
 20
151.0755217560627
 10
248.1020616897801
 20
151.2655163970923
 10
248.2172410483658
 20
151.4665789914499
 10
248.2665555668362
 20
151.6742181330235
 10
248.268354598031
 20
151.7134579650336
  0
LWPOLYLINE
  5
39C
330
34C
100
AcDbEntity
  8
0
  6
Continuous
 62
     7
370
    15
100
AcDbPolyline
 90
       23
 70
   128
 43
0.0
 10
250.7703586788455
 20
147.7460555310611
 10
250.7898096365381
 20
147.5757179895911
 10
250.874033693135
 20
147.3688839964118
 10
251.0229484535826
 20
147.169413713158
 10
251.233227408207
 20
146.9817629763429
 10
251.5001732726372
 20
146.8101235933434
 10
251.8178229173767
 20
146.6583297043503
 10
252.1790805742622
 20
146.5297721340117
 10
252.5758763441991
 20
146.4273226460141
 10
252.9993464653724
 20
146.3532697926265
 10
253.4400313150384
 20
146.3092677922252
 10
253.8880867218654
 20
146.2962995767878
 10
254.333503868454
 20
146.314654834818
 10
254.7663328717792
 20
146.3639235401824
 10
255.1769050471351
 20
146.4430051114174
 10
255.5560488905743
 20
146.5501329968998
 10
255.8952949551507
 20
146.6829141366917
 10
256.187065044369
 20
146.8383824195441
 10
256.4248414965716
 20
147.0130649409218
 10
256.60331277873
 20
147.2030595819514
 10
256.7184921373157
 20
147.404122176309
 10
256.7678066557862
 20
147.6117613178825
 10
256.7696056869809
 20
147.6510011498927
  0
LWPOLYLINE
  5
39D
330
34C
100
AcDbEntity
  8
0
  6
Continuous
 62
     7
370
    15
100
AcDbPolyline
 90
       23
 70
   128
 43
0.0
 10
259.2716097677954
 20
143.6835987159202
 10
259.2910607254879
 20
143.5132611744502
 10
259.3752847820848
 20
143.3064271812709
 10
259.5241995425326
 20
143.1069568980171
 10
259.734478497157
 20
142.919306161202
 10
260.0014243615871
 20
142.7476667782025
 10
260.3190740063266
 20
142.5958728892094
 10
260.6803316632121
 20
142.4673153188708
 10
261.077127433149
 20
142.3648658308731
 10
261.5005975543224
 20
142.2908129774856
 10
261.9412824039883
 20
142.2468109770843
 10
262.3893378108153
 20
142.2338427616469
 10
262.8347549574039
 20
142.252198019677
 10
263.2675839607291
 20
142.3014667250415
 10
263.678156136085
 20
142.3805482962765
 10
264.0572999795241
 20
142.487676181759
 10
264.3965460441006
 20
142.6204573215508
 10
264.6883161333189
 20
142.7759256044032
 10
264.9260925855215
 20
142.9506081257809
 10
265.1045638676799
 20
143.1406027668105
 10
265.2197432262656
 20
143.3416653611681
 10
265.269057744736
 20
143.5493045027417
 10
265.2708567759308
 20
143.5885443347518
  0
LWPOLYLINE
  5
39E
330
34C
100
AcDbEntity
  8
0
  6
Continuous
 62
     7
370
    15
100
AcDbPolyline
 90
       23
 70
   128
 43
0.0
 10
267.7728608567453
 20
139.6211419007793
 10
267.7923118144379
 20
139.4508043593093
 10
267.8765358710348
 20
139.24397036613
 10
268.0254506314825
 20
139.0445000828762
 10
268.2357295861068
 20
138.8568493460611
 10
268.502675450537
 20
138.6852099630616
 10
268.8203250952765
 20
138.5334160740685
 10
269.181582752162
 20
138.4048585037299
 10
269.578378522099
 20
138.3024090157322
 10
270.0018486432723
 20
138.2283561623447
 10
270.4425334929382
 20
138.1843541619434
 10
270.8905888997652
 20
138.171385946506
 10
271.3360060463537
 20
138.1897412045361
 10
271.768835049679
 20
138.2390099099006
 10
272.1794072250349
 20
138.3180914811356
 10
272.5585510684741
 20
138.425219366618
 10
272.8977971330505
 20
138.5580005064099
 10
273.1895672222689
 20
138.7134687892623
 10
273.4273436744713
 20
138.88815131064
 10
273.6058149566298
 20
139.0781459516696
 10
273.7209943152155
 20
139.2792085460272
 10
273.7703088336859
 20
139.4868476876007
 10
273.7721078648807
 20
139.5260875196109
  0
LWPOLYLINE
  5
39F
330
34C
100
AcDbEntity
  8
0
  6
Continuous
 62
     7
370
    15
100
AcDbPolyline
 90
       23
 70
   128
 43
0.0
 10
276.2741119456952
 20
135.5586850856384
 10
276.2935629033878
 20
135.3883475441684
 10
276.3777869599847
 20
135.1815135509891
 10
276.5267017204323
 20
134.9820432677352
 10
276.7369806750567
 20
134.7943925309202
 10
277.0039265394869
 20
134.6227531479207
 10
277.3215761842264
 20
134.4709592589276
 10
277.6828338411119
 20
134.342401688589
 10
278.0796296110488
 20
134.2399522005913
 10
278.5030997322222
 20
134.1658993472038
 10
278.9437845818881
 20
134.1218973468025
 10
279.3918399887151
 20
134.1089291313651
 10
279.8372571353037
 20
134.1272843893952
 10
280.2700861386289
 20
134.1765530947597
 10
280.6806583139847
 20
134.2556346659946
 10
281.059802157424
 20
134.3627625514772
 10
281.3990482220004
 20
134.4955436912689
 10
281.6908183112187
 20
134.6510119741214
 10
281.9285947634213
 20
134.8256944954991
 10
282.1070660455796
 20
135.0156891365287
 10
282.2222454041654
 20
135.2167517308863
 10
282.2715599226358
 20
135.4243908724598
 10
282.2733589538306
 20
135.46363070447
  0
LWPOLYLINE
  5
3A0
330
34C
100
AcDbEntity
  8
0
  6
Continuous
 62
     7
370
    15
100
AcDbPolyline
 90
       23
 70
   128
 43
0.0
 10
293.2766141235951
 20
127.4337714553566
 10
293.2960650812876
 20
127.2634339138866
 10
293.3802891378844
 20
127.0565999207073
 10
293.5292038983321
 20
126.8571296374535
 10
293.7394828529566
 20
126.6694789006383
 10
294.0064287173868
 20
126.4978395176389
 10
294.3240783621262
 20
126.3460456286458
 10
294.6853360190116
 20
126.2174880583072
 10
295.0821317889486
 20
126.1150385703095
 10
295.5056019101219
 20
126.040985716922
 10
295.946286759788
 20
125.9969837165207
 10
296.3943421666149
 20
125.9840155010833
 10
296.8397593132035
 20
126.0023707591134
 10
297.2725883165287
 20
126.0516394644779
 10
297.6831604918845
 20
126.1307210357129
 10
298.0623043353237
 20
126.2378489211953
 10
298.4015503999002
 20
126.3706300609871
 10
298.6933204891185
 20
126.5260983438396
 10
298.9310969413211
 20
126.7007808652173
 10
299.1095682234795
 20
126.8907755062469
 10
299.2247475820652
 20
127.0918381006044
 10
299.2740621005355
 20
127.299477242178
 10
299.2758611317304
 20
127.3387170741882
  0
ARC
  5
3A1
330
34C
100
AcDbEntity
  8
0
  6
Continuous
 62
     7
370
    15
100
AcDbCircle
 10
250.8218987912673
 20
136.7843823966615
 30
0.0
 40
13.31444100448238
100
AcDbArc
 50
54.458494642356
 51
61.37998402904877
  0
LINE
  5
3A2
330
34C
100
AcDbEntity
  8
0
  6
Continuous
 62
     7
370
    15
100
AcDbLine
 10
258.9062882187767
 20
147.4535016455555
 30
0.0
 11
258.5614841914199
 21
147.6182716842435
 31
0.0
  0
ARC
  5
3A3
330
34C
100
AcDbEntity
  8
0
  6
Continuous
 62
     7
370
    15
100
AcDbCircle
 10
259.3231498802161
 20
132.72192558152
 30
0.0
 40
13.31444100448346
100
AcDbArc
 50
54.45849464235354
 51
61.37998402904583
  0
LINE
  5
3A4
330
34C
100
AcDbEntity
  8
0
  6
Continuous
 62
     7
370
    15
100
AcDbLine
 10
267.4075393077266
 20
143.3910448304145
 30
0.0
 11
267.0627352803698
 21
143.5558148691026
 31
0.0
  0
ARC
  5
3A5
330
34C
100
AcDbEntity
  8
0
  6
Continuous
 62
     7
370
    15
100
AcDbCircle
 10
267.8244009691811
 20
128.6594687664015
 30
0.0
 40
13.31444100445646
100
AcDbArc
 50
54.45849464235031
 51
61.37998402905661
  0
LINE
  5
3A6
330
34C
100
AcDbEntity
  8
0
  6
Continuous
 62
     7
370
    15
100
AcDbLine
 10
275.9087903966764
 20
139.3285880152737
 30
0.0
 11
275.5639863693196
 21
139.4933580539617
 31
0.0
  0
ARC
  5
3A7
330
34C
100
AcDbEntity
  8
0
  6
Continuous
 62
     7
370
    15
100
AcDbCircle
 10
276.3256520581201
 20
124.5970119512441
 30
0.0
 40
13.31444100447618
100
AcDbArc
 50
54.4584946423534
 51
61.37998402904969
  0
LINE
  5
3A8
330
34C
100
AcDbEntity
  8
0
  6
Continuous
 62
     7
370
    15
100
AcDbLine
 10
284.4100414856264
 20
135.2661312001327
 30
0.0
 11
284.0652374582696
 21
135.4309012388208
 31
0.0
  0
ARC
  5
3A9
330
34C
100
AcDbEntity
  8
0
  6
Continuous
 62
     7
370
    15
100
AcDbCircle
 10
284.8269031470696
 20
120.5345551361026
 30
0.0
 40
13.31444100447689
100
AcDbArc
 50
54.45849464235378
 51
61.37998402904941
  0
LINE
  5
3AA
330
34C
100
AcDbEntity
  8
0
  6
Continuous
 62
     7
370
    15
100
AcDbLine
 10
292.9112925745762
 20
131.2036743849918
 30
0.0
 11
292.5664885472195
 21
131.3684444236799
 31
0.0
  0
ARC
  5
3AB
330
34C
100
AcDbEntity
  8
0
  6
Continuous
 62
     7
370
    15
100
AcDbCircle
 10
293.3281542360202
 20
116.4720983209635
 30
0.0
 40
13.31444100447497
100
AcDbArc
 50
54.45849464235147
 51
61.37998402904818
  0
LINE
  5
3AC
330
34C
100
AcDbEntity
  8
0
  6
Continuous
 62
     7
370
    15
100
AcDbLine
 10
302.6782073349107
 20
126.5364002372379
 30
0.0
 11
301.0677396361694
 21
127.305987608539
 31
0.0
  0
LINE
  5
3AD
330
34C
100
AcDbEntity
  8
0
  6
Continuous
 62
     7
370
    15
100
AcDbLine
 10
297.9504564549161
 20
124.3767543179236
 30
0.0
 11
302.6782073349107
 21
126.5364002372379
 31
0.0
  0
LINE
  5
3AE
330
34C
100
AcDbEntity
  8
0
  6
Continuous
 62
     7
370
    15
100
AcDbLine
 10
296.3544175701122
 20
125.1394466530823
 30
0.0
 11
297.9504564549161
 21
124.3767543179236
 31
0.0
  0
ARC
  5
3AF
330
34C
100
AcDbEntity
  8
0
  6
Continuous
 62
     7
370
    15
100
AcDbCircle
 10
301.418130678366
 20
142.0132768997785
 30
0.0
 40
17.61724546111059
100
AcDbArc
 50
235.621039523107
 51
253.2958836498216
  0
LINE
  5
3B0
330
34C
100
AcDbEntity
  8
0
  6
Continuous
 62
     7
370
    15
100
AcDbLine
 10
287.8531664811622
 20
129.2019034682232
 30
0.0
 11
291.4703068052188
 21
127.4733959571482
 31
0.0
  0
ARC
  5
3B1
330
34C
100
AcDbEntity
  8
0
  6
Continuous
 62
     7
370
    15
100
AcDbCircle
 10
292.9168795894169
 20
146.0757337149207
 30
0.0
 40
17.61724546111204
100
AcDbArc
 50
235.6210395231074
 51
253.2958836498204
  0
LINE
  5
3B2
330
34C
100
AcDbEntity
  8
0
  6
Continuous
 62
     7
370
    15
100
AcDbLine
 10
279.3519153922124
 20
133.2643602833641
 30
0.0
 11
282.9690557162689
 21
131.5358527722891
 31
0.0
  0
ARC
  5
3B3
330
34C
100
AcDbEntity
  8
0
  6
Continuous
 62
     7
370
    15
100
AcDbCircle
 10
284.4156285004673
 20
150.1381905300629
 30
0.0
 40
17.61724546111339
100
AcDbArc
 50
235.621039523109
 51
253.2958836498208
  0
LINE
  5
3B4
330
34C
100
AcDbEntity
  8
0
  6
Continuous
 62
     7
370
    15
100
AcDbLine
 10
270.8506643032624
 20
137.326817098505
 30
0.0
 11
274.467804627319
 21
135.59830958743
 31
0.0
  0
ARC
  5
3B5
330
34C
100
AcDbEntity
  8
0
  6
Continuous
 62
     7
370
    15
100
AcDbCircle
 10
275.9143774115174
 20
154.2006473452035
 30
0.0
 40
17.61724546111307
100
AcDbArc
 50
235.6210395231083
 51
253.2958836498203
  0
LINE
  5
3B6
330
34C
100
AcDbEntity
  8
0
  6
Continuous
 62
     7
370
    15
100
AcDbLine
 10
262.3494132143126
 20
141.3892739136459
 30
0.0
 11
265.9665535383691
 21
139.6607664025709
 31
0.0
  0
ARC
  5
3B7
330
34C
100
AcDbEntity
  8
0
  6
Continuous
 62
     7
370
    15
100
AcDbCircle
 10
267.4131263225672
 20
158.2631041603438
 30
0.0
 40
17.61724546111245
100
AcDbArc
 50
235.6210395231082
 51
253.2958836498206
  0
LINE
  5
3B8
330
34C
100
AcDbEntity
  8
0
  6
Continuous
 62
     7
370
    15
100
AcDbLine
 10
253.8481621253627
 20
145.4517307287868
 30
0.0
 11
257.4653024494192
 21
143.7232232177118
 31
0.0
  0
ARC
  5
3B9
330
34C
100
AcDbEntity
  8
0
  6
Continuous
 62
     7
370
    15
100
AcDbCircle
 10
258.911875233616
 20
162.3255609754819
 30
0.0
 40
17.61724546110938
100
AcDbArc
 50
235.6210395231064
 51
253.2958836498221
  0
LINE
  5
3BA
330
34C
100
AcDbEntity
  8
0
  6
Continuous
 62
     7
370
    15
100
AcDbLine
 10
245.3469110364128
 20
149.5141875439277
 30
0.0
 11
248.9640513604693
 21
147.7856800328527
 31
0.0
  0
ARC
  5
3BB
330
34C
100
AcDbEntity
  8
0
  6
Continuous
 62
     7
370
    15
100
AcDbCircle
 10
250.4106241446672
 20
166.3880177906252
 30
0.0
 40
17.61724546111195
100
AcDbArc
 50
235.6210395231078
 51
253.295883649821
  0
LINE
  5
3BC
330
34C
100
AcDbEntity
  8
0
  6
Continuous
 62
     7
370
    15
100
AcDbLine
 10
236.8456599474629
 20
153.5766443590686
 30
0.0
 11
240.4628002715194
 21
151.8481368479936
 31
0.0
  0
ARC
  5
3BD
330
34C
100
AcDbEntity
  8
0
  6
Continuous
 62
     7
370
    15
100
AcDbCircle
 10
241.9093730557166
 20
170.4504746057645
 30
0.0
 40
17.61724546111025
100
AcDbArc
 50
235.6210395231067
 51
253.2958836498217
  0
LINE
  5
3BE
330
34C
100
AcDbEntity
  8
0
  6
Continuous
 62
     7
370
    15
100
AcDbLine
 10
230.365510297765
 20
156.6732859982935
 30
0.0
 11
231.9615491825695
 21
155.9105936631345
 31
0.0
  0
LINE
  5
3BF
330
34C
100
AcDbEntity
  8
0
  6
Continuous
 62
     7
370
    15
100
AcDbLine
 10
233.3773140462781
 20
158.0490838862015
 30
0.0
 11
230.365510297765
 21
156.6732859982935
 31
0.0
  0
ARC
  5
3C0
330
34C
100
AcDbEntity
  8
0
  6
Continuous
 62
     7
370
    15
100
AcDbCircle
 10
233.8193966133655
 20
144.909296026941
 30
0.0
 40
13.31444100448533
100
AcDbArc
 50
54.45849464235491
 51
61.37998402904623
  0
LINE
  5
3C1
330
34C
100
AcDbEntity
  8
0
  6
Continuous
 62
     7
370
    15
100
AcDbLine
 10
241.9037860408769
 20
155.5784152758373
 30
0.0
 11
241.5589820135201
 21
155.7431853145254
 31
0.0
  0
ARC
  5
3C2
330
34C
100
AcDbEntity
  8
0
  6
Continuous
 62
     7
370
    15
100
AcDbCircle
 10
242.320647702319
 20
140.8468392118057
 30
0.0
 40
13.31444100447872
100
AcDbArc
 50
54.45849464235324
 51
61.379984029048
  0
LINE
  5
3C3
330
34C
100
AcDbEntity
  8
0
  6
Continuous
 62
     7
370
    15
100
AcDbLine
 10
250.4050371298268
 20
151.5159584606963
 30
0.0
 11
250.06023310247
 21
151.6807284993844
 31
0.0
  0
LWPOLYLINE
  5
3C4
330
34C
100
AcDbEntity
  8
0
  6
Continuous
 62
     7
370
    15
100
AcDbPolyline
 90
       23
 70
   128
 43
0.0
 10
284.7753630346452
 20
131.4962282704975
 10
284.7948139923377
 20
131.3258907290275
 10
284.8790380489345
 20
131.1190567358482
 10
285.0279528093823
 20
130.9195864525944
 10
285.2382317640066
 20
130.7319357157793
 10
285.5051776284369
 20
130.5602963327798
 10
285.8228272731763
 20
130.4085024437867
 10
286.1840849300618
 20
130.2799448734481
 10
286.5808806999987
 20
130.1774953854504
 10
287.004350821172
 20
130.1034425320629
 10
287.4450356708381
 20
130.0594405316616
 10
287.893091077665
 20
130.0464723162242
 10
288.3385082242536
 20
130.0648275742543
 10
288.7713372275788
 20
130.1140962796188
 10
289.1819094029346
 20
130.1931778508538
 10
289.5610532463739
 20
130.3003057363362
 10
289.9002993109503
 20
130.433086876128
 10
290.1920694001686
 20
130.5885551589805
 10
290.4298458523712
 20
130.7632376803582
 10
290.6083171345295
 20
130.9532323213878
 10
290.7234964931153
 20
131.1542949157454
 10
290.7728110115857
 20
131.3619340573189
 10
290.7746100427805
 20
131.4011738893291
  0
LINE
  5
3C5
330
34C
100
AcDbEntity
  8
0
  6
Continuous
 62
     7
370
    15
100
AcDbLine
 10
297.8958300943316
 20
120.9290749340448
 30
0.0
 11
296.2997912095277
 21
121.6917672692035
 31
0.0
  0
LINE
  5
3C6
330
34C
100
AcDbEntity
  8
0
  6
Continuous
 62
     7
370
    15
100
AcDbLine
 10
296.2997912095277
 20
121.6917672692035
 30
0.0
 11
296.3544175701122
 21
125.1394466530823
 31
0.0
  0
LINE
  5
3C7
330
34C
100
AcDbEntity
  8
0
  6
Continuous
 62
     7
370
    15
100
AcDbLine
 10
297.9504564549161
 20
124.3767543179236
 30
0.0
 11
297.8958300943316
 21
120.9290749340448
 31
0.0
  0
LINE
  5
3C8
330
34C
100
AcDbEntity
  8
0
  6
Continuous
 62
     7
370
    15
100
AcDbLine
 10
302.6782073349107
 20
126.5364002372379
 30
0.0
 11
302.6235809743263
 21
123.0887208533591
 31
0.0
  0
LINE
  5
3C9
330
34C
100
AcDbEntity
  8
0
  6
Continuous
 62
     7
370
    15
100
AcDbLine
 10
302.6235809743263
 20
123.0887208533591
 30
0.0
 11
297.8958300943316
 21
120.9290749340448
 31
0.0
  0
ARC
  5
3CA
330
34C
100
AcDbEntity
  8
0
  6
Continuous
 62
     7
370
    15
100
AcDbCircle
 10
301.3635043177818
 20
138.5655975159007
 30
0.0
 40
17.61724546111155
100
AcDbArc
 50
235.6210395231078
 51
253.2958836498216
  0
LINE
  5
3CB
330
34C
100
AcDbEntity
  8
0
  6
Continuous
 62
     7
370
    15
100
AcDbLine
 10
291.4703068052188
 20
127.4733959571482
 30
0.0
 11
291.4156804446343
 21
124.0257165732695
 31
0.0
  0
LWPOLYLINE
  5
3CC
330
34C
100
AcDbEntity
  8
0
  6
Continuous
 62
     7
370
    15
100
AcDbPolyline
 90
       23
 70
   128
 43
0.0
 10
293.0270200294529
 20
114.4595524568962
 10
293.0464709871454
 20
114.2892149154262
 10
293.1306950437422
 20
114.0823809222469
 10
293.2796098041899
 20
113.8829106389931
 10
293.4898887588143
 20
113.695259902178
 10
293.7568346232445
 20
113.5236205191786
 10
294.074484267984
 20
113.3718266301854
 10
294.4357419248694
 20
113.2432690598468
 10
294.8325376948064
 20
113.1408195718492
 10
295.2560078159797
 20
113.0667667184617
 10
295.6966926656457
 20
113.0227647180603
 10
296.1447480724727
 20
113.0097965026229
 10
296.5901652190613
 20
113.0281517606531
 10
297.0229942223865
 20
113.0774204660175
 10
297.4335663977423
 20
113.1565020372525
 10
297.8127102411816
 20
113.263629922735
 10
298.151956305758
 20
113.3964110625268
 10
298.4437263949763
 20
113.5518793453792
 10
298.6815028471789
 20
113.7265618667569
 10
298.8599741293372
 20
113.9165565077865
 10
298.975153487923
 20
114.1176191021441
 10
299.0244680063934
 20
114.3252582437177
 10
299.0262670375882
 20
114.3644980757278
  0
LINE
  5
3CD
330
34C
100
AcDbEntity
  8
0
  6
Continuous
 62
     7
370
    15
100
AcDbLine
 10
287.7985401205777
 20
125.7542240843444
 30
0.0
 11
287.8531664811622
 21
129.2019034682232
 31
0.0
  0
LINE
  5
3CE
330
34C
100
AcDbEntity
  8
0
  6
Continuous
 62
     7
370
    15
100
AcDbLine
 10
291.4156804446343
 20
124.0257165732695
 30
0.0
 11
287.7985401205777
 21
125.7542240843444
 31
0.0
  0
LWPOLYLINE
  5
3CF
330
34C
100
AcDbEntity
  8
0
  6
Continuous
 62
     7
370
    15
100
AcDbPolyline
 90
       39
 70
   128
 43
0.0
 10
289.6166121582989
 20
136.1801475972911
 10
289.3052428524493
 20
136.0602649973178
 10
288.9545391710604
 20
135.9665077112371
 10
288.5740673963442
 20
135.9014331934061
 10
288.1742058064991
 20
135.8668165070348
 10
287.7658615833345
 20
135.8636019050883
 10
287.3601732927846
 20
135.8918770735279
 10
286.9682070538651
 20
135.9508707394665
 10
286.6006546837939
 20
136.0389737094822
 10
286.2675420530892
 20
136.1537827642204
 10
285.9779556059566
 20
136.2921662119526
 10
285.7397945057785
 20
136.4503493129634
 10
285.5595551665281
 20
136.6240172446099
 10
285.4421540475312
 20
136.8084327984351
 10
285.3907935452721
 20
136.9985655988664
 10
285.4068746403658
 20
137.189229318747
 10
285.4899586824582
 20
137.3752231488219
 10
285.6377793554651
 20
137.5514736622563
 10
285.8463044967665
 20
137.7131732044946
 10
286.1098460840923
 20
137.8559110335437
 10
286.4212153899418
 20
137.975793633517
 10
286.7719190713307
 20
138.0695509195978
 10
287.152390846047
 20
138.1346254374288
 10
287.5522524358921
 20
138.1692421238001
 10
287.9605966590566
 20
138.1724567257466
 10
288.3662849496066
 20
138.1441815573069
 10
288.7582511885261
 20
138.0851878913684
 10
289.1258035585972
 20
137.9970849213526
 10
289.458916189302
 20
137.8822758666144
 10
289.7485026364345
 20
137.7438924188822
 10
289.9866637366126
 20
137.5857093178714
 10
290.166903075863
 20
137.4120413862249
 10
290.2843041948599
 20
137.2276258323996
 10
290.335664697119
 20
137.0374930319684
 10
290.3195836020254
 20
136.8468293120878
 10
290.2364995599329
 20
136.660835482013
 10
290.088678886926
 20
136.4845849685785
 10
289.8801537456245
 20
136.3228854263402
 10
289.6166121582989
 20
136.1801475972911
  0
LWPOLYLINE
  5
3D0
330
34C
100
AcDbEntity
  8
0
  6
Continuous
 62
     7
370
    15
100
AcDbPolyline
 90
       45
 70
   128
 43
0.0
 10
285.436830372891
 20
138.1775221980645
 10
285.805473833563
 20
138.3228355435028
 10
286.2160072578149
 20
138.4415867968876
 10
286.6600733690098
 20
138.5313585251503
 10
287.1286322617043
 20
138.5903232347837
 10
287.6121454280558
 20
138.61728057434
 10
288.100769934334
 20
138.6116817701241
 10
288.5845587946678
 20
138.5736407976445
 10
289.0536634629927
 20
138.5039320613997
 10
289.4985343210478
 20
138.4039746302361
 10
289.9101150810647
 20
138.275803349199
 10
290.2800271456703
 20
138.1220274159547
 10
290.6007401719676
 20
137.9457772650509
 10
290.8657253676011
 20
137.7506408412966
 10
291.069588398142
 20
137.5405905595524
 10
291.2081792001809
 20
137.3199024378196
 10
291.2786764646511
 20
137.0930690498448
 10
291.2796450705453
 20
136.8647080692736
 10
291.2110652998409
 20
136.6394682671318
 10
291.0743332389015
 20
136.421934876253
 10
290.8722323581852
 20
136.216536249161
 10
290.6088768488126
 20
136.0274537095827
 10
290.2896278694998
 20
135.8585364327549
 10
289.9209844088279
 20
135.7132230873165
 10
289.5104509845759
 20
135.5944718339318
 10
289.0663848733812
 20
135.5047001056691
 10
288.5978259806865
 20
135.4457353960357
 10
288.1143128143351
 20
135.4187780564795
 10
287.6256883080569
 20
135.4243768606953
 10
287.1418994477231
 20
135.4624178331749
 10
286.6727947793981
 20
135.5321265694197
 10
286.2279239213431
 20
135.6320840005832
 10
285.8163431613261
 20
135.7602552816204
 10
285.4464310967206
 20
135.9140312148647
 10
285.1257180704233
 20
136.0902813657685
 10
284.8607328747897
 20
136.2854177895228
 10
284.6568698442489
 20
136.495468071267
 10
284.51827904221
 20
136.7161561929998
 10
284.4477817777398
 20
136.9429895809746
 10
284.4468131718455
 20
137.1713505615458
 10
284.51539294255
 20
137.3965903636876
 10
284.6521250034894
 20
137.6141237545664
 10
284.8542258842057
 20
137.8195223816584
 10
285.1175813935784
 20
138.0086049212367
 10
285.436830372891
 20
138.1775221980645
  0
LWPOLYLINE
  5
3D1
330
34C
100
AcDbEntity
  8
0
  6
Continuous
 62
     7
370
    15
100
AcDbPolyline
 90
       18
 70
   128
 43
0.0
 10
290.2167927220539
 20
131.2616305875832
 10
289.8481492613819
 20
131.1163172421449
 10
289.4376158371299
 20
130.9975659887601
 10
288.9935497259352
 20
130.9077942604974
 10
288.5249908332406
 20
130.848829550864
 10
288.0414776668891
 20
130.8218722113078
 10
287.552853160611
 20
130.8274710155236
 10
287.0690643002772
 20
130.8655119880032
 10
286.5999596319522
 20
130.9352207242481
 10
286.1550887738971
 20
131.0351781554116
 10
285.7435080138802
 20
131.1633494364488
 10
285.3735959492746
 20
131.3171253696931
 10
285.0528829229773
 20
131.4933755205968
 10
284.7878977273438
 20
131.6885119443512
 10
284.5840346968028
 20
131.8985622260953
 10
284.445443894764
 20
132.1192503478281
 10
284.3749466302938
 20
132.3460837358029
 10
284.3658238066056
 20
132.4753836794883
  0
ARC
  5
3D2
330
34C
100
AcDbEntity
  8
0
  6
Continuous
 62
     7
370
    15
100
AcDbCircle
 10
289.8294448581
 20
132.6148137903697
 30
0.0
 40
1.407530869293163
100
AcDbArc
 50
285.9737371126054
 51
349.8538344867209
  0
LINE
  5
3D3
330
34C
100
AcDbEntity
  8
0
  6
Continuous
 62
     7
370
    15
100
AcDbLine
 10
282.9690557162689
 20
131.5358527722891
 30
0.0
 11
282.9144293556844
 21
128.0881733884104
 31
0.0
  0
ARC
  5
3D4
330
34C
100
AcDbEntity
  8
0
  6
Continuous
 62
     7
370
    15
100
AcDbCircle
 10
292.8622532288325
 20
142.6280543310425
 30
0.0
 40
17.61724546111256
100
AcDbArc
 50
235.621039523108
 51
253.2958836498206
  0
ARC
  5
3D5
330
34C
100
AcDbEntity
  8
0
  6
Continuous
 62
     7
370
    15
100
AcDbCircle
 10
296.0453409421362
 20
117.759414592282
 30
0.0
 40
4.856445667970209
100
AcDbArc
 50
245.7158158951392
 51
298.8633168992792
  0
LWPOLYLINE
  5
3D6
330
34C
100
AcDbEntity
  8
0
  6
Continuous
 62
     7
370
    15
100
AcDbPolyline
 90
        3
 70
   128
 43
0.0
 10
293.6361250244841
 20
113.5815836157769
 10
293.7620834262128
 20
113.4920796104025
 10
294.04806569451
 20
113.3326826022959
  0
LWPOLYLINE
  5
3D7
330
34C
100
AcDbEntity
  8
0
  6
Continuous
 62
     7
370
    15
100
AcDbPolyline
 90
       23
 70
   128
 43
0.0
 10
284.5257689405029
 20
118.5220092720371
 10
284.5452198981955
 20
118.3516717305671
 10
284.6294439547924
 20
118.1448377373878
 10
284.77835871524
 20
117.945367454134
 10
284.9886376698644
 20
117.7577167173189
 10
285.2555835342946
 20
117.5860773343195
 10
285.5732331790341
 20
117.4342834453263
 10
285.9344908359195
 20
117.3057258749877
 10
286.3312866058565
 20
117.2032763869901
 10
286.7547567270298
 20
117.1292235336026
 10
287.1954415766958
 20
117.0852215332012
 10
287.6434969835228
 20
117.0722533177638
 10
288.0889141301114
 20
117.090608575794
 10
288.5217431334366
 20
117.1398772811584
 10
288.9323153087925
 20
117.2189588523934
 10
289.3114591522317
 20
117.3260867378759
 10
289.6507052168081
 20
117.4588678776677
 10
289.9424753060264
 20
117.6143361605201
 10
290.1802517582289
 20
117.7890186818978
 10
290.3587230403874
 20
117.9790133229274
 10
290.4739023989731
 20
118.180075917285
 10
290.5232169174435
 20
118.3877150588586
 10
290.5250159486383
 20
118.4269548908687
  0
LINE
  5
3D8
330
34C
100
AcDbEntity
  8
0
  6
Continuous
 62
     7
370
    15
100
AcDbLine
 10
279.2972890316279
 20
129.8166808994854
 30
0.0
 11
279.3519153922124
 21
133.2643602833641
 31
0.0
  0
LINE
  5
3D9
330
34C
100
AcDbEntity
  8
0
  6
Continuous
 62
     7
370
    15
100
AcDbLine
 10
282.9144293556844
 20
128.0881733884104
 30
0.0
 11
279.2972890316279
 21
129.8166808994854
 31
0.0
  0
LWPOLYLINE
  5
3DA
330
34C
100
AcDbEntity
  8
0
  6
Continuous
 62
     7
370
    15
100
AcDbPolyline
 90
       39
 70
   128
 43
0.0
 10
281.1153610693489
 20
140.242604412432
 10
280.8039917634994
 20
140.1227218124587
 10
280.4532880821105
 20
140.0289645263779
 10
280.0728163073944
 20
139.963890008547
 10
279.6729547175492
 20
139.9292733221757
 10
279.2646104943846
 20
139.9260587202292
 10
278.8589222038347
 20
139.9543338886688
 10
278.4669559649151
 20
140.0133275546074
 10
278.099403594844
 20
140.1014305246231
 10
277.7662909641393
 20
140.2162395793613
 10
277.4767045170067
 20
140.3546230270935
 10
277.2385434168286
 20
140.5128061281043
 10
277.0583040775782
 20
140.6864740597508
 10
276.9409029585812
 20
140.8708896135761
 10
276.8895424563222
 20
141.0610224140073
 10
276.9056235514159
 20
141.2516861338879
 10
276.9887075935084
 20
141.4376799639628
 10
277.1365282665152
 20
141.6139304773972
 10
277.3450534078167
 20
141.7756300196355
 10
277.6085949951425
 20
141.9183678486846
 10
277.919964300992
 20
142.0382504486579
 10
278.2706679823808
 20
142.1320077347387
 10
278.651139757097
 20
142.1970822525696
 10
279.0510013469422
 20
142.231698938941
 10
279.4593455701067
 20
142.2349135408875
 10
279.8650338606567
 20
142.2066383724478
 10
280.2570000995761
 20
142.1476447065093
 10
280.6245524696473
 20
142.0595417364935
 10
280.9576651003521
 20
141.9447326817554
 10
281.2472515474847
 20
141.8063492340231
 10
281.4854126476627
 20
141.6481661330123
 10
281.6656519869131
 20
141.4744982013658
 10
281.7830531059101
 20
141.2900826475406
 10
281.8344136081691
 20
141.0999498471093
 10
281.8183325130754
 20
140.9092861272287
 10
281.7352484709831
 20
140.7232922971538
 10
281.5874277979761
 20
140.5470417837194
 10
281.3789026566746
 20
140.3853422414812
 10
281.1153610693489
 20
140.242604412432
  0
LWPOLYLINE
  5
3DB
330
34C
100
AcDbEntity
  8
0
  6
Continuous
 62
     7
370
    15
100
AcDbPolyline
 90
       45
 70
   128
 43
0.0
 10
276.9355792839411
 20
142.2399790132054
 10
277.3042227446131
 20
142.3852923586437
 10
277.714756168865
 20
142.5040436120285
 10
278.1588222800599
 20
142.5938153402912
 10
278.6273811727544
 20
142.6527800499246
 10
279.1108943391059
 20
142.6797373894808
 10
279.599518845384
 20
142.674138585265
 10
280.0833077057179
 20
142.6360976127854
 10
280.5524123740428
 20
142.5663888765406
 10
280.9972832320979
 20
142.4664314453771
 10
281.4088639921148
 20
142.3382601643399
 10
281.7787760567204
 20
142.1844842310956
 10
282.0994890830176
 20
142.0082340801918
 10
282.3644742786513
 20
141.8130976564375
 10
282.5683373091921
 20
141.6030473746933
 10
282.706928111231
 20
141.3823592529605
 10
282.7774253757013
 20
141.1555258649857
 10
282.7783939815955
 20
140.9271648844145
 10
282.7098142108909
 20
140.7019250822727
 10
282.5730821499515
 20
140.4843916913939
 10
282.3709812692353
 20
140.2789930643019
 10
282.1076257598626
 20
140.0899105247236
 10
281.78837678055
 20
139.9209932478958
 10
281.4197333198779
 20
139.7756799024575
 10
281.009199895626
 20
139.6569286490727
 10
280.5651337844313
 20
139.56715692081
 10
280.0965748917366
 20
139.5081922111766
 10
279.6130617253852
 20
139.4812348716203
 10
279.124437219107
 20
139.4868336758362
 10
278.6406483587732
 20
139.5248746483158
 10
278.1715436904482
 20
139.5945833845606
 10
277.7266728323931
 20
139.6945408157242
 10
277.3150920723763
 20
139.8227120967613
 10
276.9451800077706
 20
139.9764880300056
 10
276.6244669814733
 20
140.1527381809094
 10
276.3594817858399
 20
140.3478746046637
 10
276.1556187552989
 20
140.5579248864079
 10
276.01702795326
 20
140.7786130081407
 10
275.9465306887899
 20
141.0054463961155
 10
275.9455620828956
 20
141.2338073766867
 10
276.0141418536001
 20
141.4590471788285
 10
276.1508739145396
 20
141.6765805697073
 10
276.3529747952558
 20
141.8819791967993
 10
276.6163303046284
 20
142.0710617363776
 10
276.9355792839411
 20
142.2399790132054
  0
LWPOLYLINE
  5
3DC
330
34C
100
AcDbEntity
  8
0
  6
Continuous
 62
     7
370
    15
100
AcDbPolyline
 90
       18
 70
   128
 43
0.0
 10
281.715541633104
 20
135.3240874027241
 10
281.346898172432
 20
135.1787740572858
 10
280.93636474818
 20
135.060022803901
 10
280.4922986369852
 20
134.9702510756384
 10
280.0237397442907
 20
134.9112863660049
 10
279.5402265779393
 20
134.8843290264487
 10
279.051602071661
 20
134.8899278306645
 10
278.5678132113272
 20
134.9279688031441
 10
278.0987085430023
 20
134.997677539389
 10
277.6538376849472
 20
135.0976349705525
 10
277.2422569249303
 20
135.2258062515896
 10
276.8723448603247
 20
135.379582184834
 10
276.5516318340274
 20
135.5558323357377
 10
276.2866466383938
 20
135.7509687594921
 10
276.082783607853
 20
135.9610190412363
 10
275.9441928058141
 20
136.181707162969
 10
275.8736955413439
 20
136.4085405509438
 10
275.8645727176556
 20
136.5378404946293
  0
ARC
  5
3DD
330
34C
100
AcDbEntity
  8
0
  6
Continuous
 62
     7
370
    15
100
AcDbCircle
 10
281.32819376915
 20
136.6772706055108
 30
0.0
 40
1.407530869293315
100
AcDbArc
 50
285.9737371126061
 51
349.853834486716
  0
LINE
  5
3DE
330
34C
100
AcDbEntity
  8
0
  6
Continuous
 62
     7
370
    15
100
AcDbLine
 10
274.467804627319
 20
135.59830958743
 30
0.0
 11
274.4131782667345
 21
132.1506302035513
 31
0.0
  0
ARC
  5
3DF
330
34C
100
AcDbEntity
  8
0
  6
Continuous
 62
     7
370
    15
100
AcDbCircle
 10
284.3610021398816
 20
146.6905111461813
 30
0.0
 40
17.61724546111032
100
AcDbArc
 50
235.6210395231071
 51
253.2958836498219
  0
ARC
  5
3E0
330
34C
100
AcDbEntity
  8
0
  6
Continuous
 62
     7
370
    15
100
AcDbCircle
 10
287.5440898531863
 20
121.8218714074232
 30
0.0
 40
4.856445667970473
100
AcDbArc
 50
245.7158158951399
 51
298.8633168992782
  0
LWPOLYLINE
  5
3E1
330
34C
100
AcDbEntity
  8
0
  6
Continuous
 62
     7
370
    15
100
AcDbPolyline
 90
        3
 70
   128
 43
0.0
 10
285.1348739355342
 20
117.6440404309178
 10
285.2608323372629
 20
117.5545364255434
 10
285.5468146055601
 20
117.3951394174368
  0
LWPOLYLINE
  5
3E2
330
34C
100
AcDbEntity
  8
0
  6
Continuous
 62
     7
370
    15
100
AcDbPolyline
 90
       23
 70
   128
 43
0.0
 10
276.024517851553
 20
122.584466087178
 10
276.0439688092456
 20
122.4141285457081
 10
276.1281928658424
 20
122.2072945525287
 10
276.2771076262902
 20
122.0078242692749
 10
276.4873865809144
 20
121.8201735324598
 10
276.7543324453447
 20
121.6485341494604
 10
277.0719820900841
 20
121.4967402604672
 10
277.4332397469696
 20
121.3681826901286
 10
277.8300355169066
 20
121.265733202131
 10
278.25350563808
 20
121.1916803487435
 10
278.6941904877459
 20
121.1476783483421
 10
279.1422458945728
 20
121.1347101329047
 10
279.5876630411615
 20
121.1530653909349
 10
280.0204920444867
 20
121.2023340962993
 10
280.4310642198426
 20
121.2814156675343
 10
280.8102080632817
 20
121.3885435530168
 10
281.1494541278582
 20
121.5213246928086
 10
281.4412242170765
 20
121.676792975661
 10
281.679000669279
 20
121.8514754970387
 10
281.8574719514375
 20
122.0414701380683
 10
281.9726513100232
 20
122.2425327324259
 10
282.0219658284936
 20
122.4501718739995
 10
282.0237648596884
 20
122.4894117060096
  0
LINE
  5
3E3
330
34C
100
AcDbEntity
  8
0
  6
Continuous
 62
     7
370
    15
100
AcDbLine
 10
270.796037942678
 20
133.8791377146263
 30
0.0
 11
270.8506643032624
 21
137.326817098505
 31
0.0
  0
LINE
  5
3E4
330
34C
100
AcDbEntity
  8
0
  6
Continuous
 62
     7
370
    15
100
AcDbLine
 10
274.4131782667345
 20
132.1506302035513
 30
0.0
 11
270.796037942678
 21
133.8791377146263
 31
0.0
  0
LWPOLYLINE
  5
3E5
330
34C
100
AcDbEntity
  8
0
  6
Continuous
 62
     7
370
    15
100
AcDbPolyline
 90
       39
 70
   128
 43
0.0
 10
272.614109980399
 20
144.3050612275729
 10
272.3027406745495
 20
144.1851786275996
 10
271.9520369931606
 20
144.0914213415189
 10
271.5715652184444
 20
144.0263468236879
 10
271.1717036285993
 20
143.9917301373166
 10
270.7633594054347
 20
143.9885155353701
 10
270.3576711148849
 20
144.0167907038097
 10
269.9657048759653
 20
144.0757843697483
 10
269.5981525058941
 20
144.163887339764
 10
269.2650398751894
 20
144.2786963945022
 10
268.9754534280568
 20
144.4170798422344
 10
268.7372923278787
 20
144.5752629432452
 10
268.5570529886283
 20
144.7489308748917
 10
268.4396518696313
 20
144.9333464287169
 10
268.3882913673723
 20
145.1234792291482
 10
268.404372462466
 20
145.3141429490288
 10
268.4874565045584
 20
145.5001367791037
 10
268.6352771775653
 20
145.6763872925381
 10
268.8438023188668
 20
145.8380868347764
 10
269.1073439061926
 20
145.9808246638255
 10
269.4187132120421
 20
146.1007072637988
 10
269.7694168934309
 20
146.1944645498796
 10
270.1498886681471
 20
146.2595390677105
 10
270.5497502579923
 20
146.2941557540819
 10
270.9580944811568
 20
146.2973703560284
 10
271.3637827717067
 20
146.2690951875887
 10
271.7557490106263
 20
146.2101015216502
 10
272.1233013806974
 20
146.1219985516344
 10
272.4564140114022
 20
146.0071894968963
 10
272.7460004585347
 20
145.868806049164
 10
272.9841615587128
 20
145.7106229481532
 10
273.1644008979632
 20
145.5369550165067
 10
273.2818020169602
 20
145.3525394626814
 10
273.3331625192192
 20
145.1624066622503
 10
273.3170814241256
 20
144.9717429423697
 10
273.2339973820331
 20
144.7857491122948
 10
273.0861767090262
 20
144.6094985988603
 10
272.8776515677247
 20
144.4477990566221
 10
272.614109980399
 20
144.3050612275729
  0
LWPOLYLINE
  5
3E6
330
34C
100
AcDbEntity
  8
0
  6
Continuous
 62
     7
370
    15
100
AcDbPolyline
 90
       45
 70
   128
 43
0.0
 10
268.4343281949912
 20
146.3024358283463
 10
268.8029716556632
 20
146.4477491737846
 10
269.2135050799151
 20
146.5665004271694
 10
269.6575711911099
 20
146.6562721554321
 10
270.1261300838045
 20
146.7152368650655
 10
270.6096432501559
 20
146.7421942046218
 10
271.0982677564342
 20
146.7365954004059
 10
271.582056616768
 20
146.6985544279263
 10
272.0511612850929
 20
146.6288456916815
 10
272.4960321431481
 20
146.5288882605179
 10
272.9076129031649
 20
146.4007169794808
 10
273.2775249677705
 20
146.2469410462365
 10
273.5982379940678
 20
146.0706908953327
 10
273.8632231897013
 20
145.8755544715784
 10
274.0670862202422
 20
145.6655041898342
 10
274.2056770222811
 20
145.4448160681014
 10
274.2761742867513
 20
145.2179826801266
 10
274.2771428926455
 20
144.9896216995554
 10
274.2085631219411
 20
144.7643818974136
 10
274.0718310610017
 20
144.5468485065348
 10
273.8697301802854
 20
144.3414498794428
 10
273.6063746709127
 20
144.1523673398645
 10
273.2871256916001
 20
143.9834500630367
 10
272.9184822309281
 20
143.8381367175984
 10
272.5079488066761
 20
143.7193854642136
 10
272.0638826954813
 20
143.6296137359509
 10
271.5953238027867
 20
143.5706490263175
 10
271.1118106364353
 20
143.5436916867613
 10
270.6231861301571
 20
143.5492904909771
 10
270.1393972698233
 20
143.5873314634567
 10
269.6702926014983
 20
143.6570401997015
 10
269.2254217434432
 20
143.756997630865
 10
268.8138409834264
 20
143.8851689119022
 10
268.4439289188207
 20
144.0389448451465
 10
268.1232158925235
 20
144.2151949960503
 10
267.8582306968899
 20
144.4103314198046
 10
267.6543676663491
 20
144.6203817015488
 10
267.5157768643102
 20
144.8410698232816
 10
267.44527959984
 20
145.0679032112564
 10
267.4443109939458
 20
145.2962641918276
 10
267.5128907646502
 20
145.5215039939694
 10
267.6496228255896
 20
145.7390373848482
 10
267.851723706306
 20
145.9444360119402
 10
268.1150792156786
 20
146.1335185515185
 10
268.4343281949912
 20
146.3024358283463
  0
LWPOLYLINE
  5
3E7
330
34C
100
AcDbEntity
  8
0
  6
Continuous
 62
     7
370
    15
100
AcDbPolyline
 90
       18
 70
   128
 43
0.0
 10
273.2142905441541
 20
139.386544217865
 10
272.8456470834822
 20
139.2412308724267
 10
272.4351136592302
 20
139.1224796190419
 10
271.9910475480354
 20
139.0327078907792
 10
271.5224886553408
 20
138.9737431811458
 10
271.0389754889893
 20
138.9467858415896
 10
270.5503509827111
 20
138.9523846458054
 10
270.0665621223773
 20
138.990425618285
 10
269.5974574540524
 20
139.0601343545299
 10
269.1525865959973
 20
139.1600917856934
 10
268.7410058359804
 20
139.2882630667306
 10
268.3710937713748
 20
139.4420389999749
 10
268.0503807450774
 20
139.6182891508786
 10
267.785395549444
 20
139.813425574633
 10
267.5815325189031
 20
140.0234758563771
 10
267.4429417168642
 20
140.2441639781099
 10
267.372444452394
 20
140.4709973660847
 10
267.3633216287058
 20
140.6002973097702
  0
ARC
  5
3E8
330
34C
100
AcDbEntity
  8
0
  6
Continuous
 62
     7
370
    15
100
AcDbCircle
 10
272.8269426801999
 20
140.7397274206517
 30
0.0
 40
1.407530869293453
100
AcDbArc
 50
285.9737371126144
 51
349.8538344867149
  0
LINE
  5
3E9
330
34C
100
AcDbEntity
  8
0
  6
Continuous
 62
     7
370
    15
100
AcDbLine
 10
265.9665535383691
 20
139.6607664025709
 30
0.0
 11
265.9119271777846
 21
136.2130870186922
 31
0.0
  0
ARC
  5
3EA
330
34C
100
AcDbEntity
  8
0
  6
Continuous
 62
     7
370
    15
100
AcDbCircle
 10
275.859751050931
 20
150.7529679613209
 30
0.0
 40
17.61724546110885
100
AcDbArc
 50
235.6210395231063
 51
253.2958836498226
  0
ARC
  5
3EB
330
34C
100
AcDbEntity
  8
0
  6
Continuous
 62
     7
370
    15
100
AcDbCircle
 10
279.0428387642364
 20
125.8843282225638
 30
0.0
 40
4.856445667970158
100
AcDbArc
 50
245.7158158951377
 51
298.8633168992789
  0
LWPOLYLINE
  5
3EC
330
34C
100
AcDbEntity
  8
0
  6
Continuous
 62
     7
370
    15
100
AcDbPolyline
 90
        3
 70
   128
 43
0.0
 10
276.6336228465842
 20
121.7064972460587
 10
276.759581248313
 20
121.6169932406843
 10
277.0455635166102
 20
121.4575962325777
  0
LWPOLYLINE
  5
3ED
330
34C
100
AcDbEntity
  8
0
  6
Continuous
 62
     7
370
    15
100
AcDbPolyline
 90
       23
 70
   128
 43
0.0
 10
267.5232667626032
 20
126.6469229023189
 10
267.5427177202956
 20
126.4765853608489
 10
267.6269417768926
 20
126.2697513676696
 10
267.7758565373403
 20
126.0702810844158
 10
267.9861354919646
 20
125.8826303476007
 10
268.2530813563948
 20
125.7109909646012
 10
268.5707310011343
 20
125.5591970756081
 10
268.9319886580197
 20
125.4306395052695
 10
269.3287844279567
 20
125.3281900172719
 10
269.75225454913
 20
125.2541371638844
 10
270.192939398796
 20
125.210135163483
 10
270.640994805623
 20
125.1971669480456
 10
271.0864119522116
 20
125.2155222060758
 10
271.5192409555367
 20
125.2647909114402
 10
271.9298131308926
 20
125.3438724826752
 10
272.3089569743318
 20
125.4510003681577
 10
272.6482030389083
 20
125.5837815079495
 10
272.9399731281266
 20
125.7392497908019
 10
273.1777495803291
 20
125.9139323121797
 10
273.3562208624876
 20
126.1039269532092
 10
273.4714002210733
 20
126.3049895475668
 10
273.5207147395437
 20
126.5126286891404
 10
273.5225137707384
 20
126.5518685211505
  0
LINE
  5
3EE
330
34C
100
AcDbEntity
  8
0
  6
Continuous
 62
     7
370
    15
100
AcDbLine
 10
262.2947868537281
 20
137.9415945297672
 30
0.0
 11
262.3494132143126
 21
141.3892739136459
 31
0.0
  0
LINE
  5
3EF
330
34C
100
AcDbEntity
  8
0
  6
Continuous
 62
     7
370
    15
100
AcDbLine
 10
265.9119271777846
 20
136.2130870186922
 30
0.0
 11
262.2947868537281
 21
137.9415945297672
 31
0.0
  0
LWPOLYLINE
  5
3F0
330
34C
100
AcDbEntity
  8
0
  6
Continuous
 62
     7
370
    15
100
AcDbPolyline
 90
       39
 70
   128
 43
0.0
 10
264.1128588914491
 20
148.3675180427138
 10
263.8014895855996
 20
148.2476354427405
 10
263.4507859042107
 20
148.1538781566598
 10
263.0703141294945
 20
148.0888036388288
 10
262.6704525396494
 20
148.0541869524575
 10
262.2621083164848
 20
148.050972350511
 10
261.8564200259349
 20
148.0792475189506
 10
261.4644537870154
 20
148.1382411848892
 10
261.0969014169443
 20
148.2263441549049
 10
260.7637887862395
 20
148.3411532096431
 10
260.474202339107
 20
148.4795366573753
 10
260.2360412389288
 20
148.6377197583862
 10
260.0558018996784
 20
148.8113876900326
 10
259.9384007806815
 20
148.9958032438579
 10
259.8870402784225
 20
149.1859360442891
 10
259.9031213735161
 20
149.3765997641697
 10
259.9862054156085
 20
149.5625935942446
 10
260.1340260886154
 20
149.738844107679
 10
260.3425512299169
 20
149.9005436499173
 10
260.6060928172427
 20
150.0432814789664
 10
260.9174621230922
 20
150.1631640789397
 10
261.268165804481
 20
150.2569213650205
 10
261.6486375791972
 20
150.3219958828514
 10
262.0484991690424
 20
150.3566125692228
 10
262.4568433922069
 20
150.3598271711693
 10
262.8625316827569
 20
150.3315520027297
 10
263.2544979216764
 20
150.2725583367911
 10
263.6220502917475
 20
150.1844553667753
 10
263.9551629224523
 20
150.0696463120372
 10
264.2447493695848
 20
149.931262864305
 10
264.4829104697629
 20
149.7730797632941
 10
264.6631498090134
 20
149.5994118316476
 10
264.7805509280102
 20
149.4149962778224
 10
264.8319114302693
 20
149.2248634773912
 10
264.8158303351756
 20
149.0341997575105
 10
264.7327462930832
 20
148.8482059274357
 10
264.5849256200763
 20
148.6719554140012
 10
264.3764004787749
 20
148.510255871763
 10
264.1128588914491
 20
148.3675180427138
  0
LWPOLYLINE
  5
3F1
330
34C
100
AcDbEntity
  8
0
  6
Continuous
 62
     7
370
    15
100
AcDbPolyline
 90
       45
 70
   128
 43
0.0
 10
259.9330771060413
 20
150.3648926434872
 10
260.3017205667133
 20
150.5102059889255
 10
260.7122539909653
 20
150.6289572423103
 10
261.15632010216
 20
150.718728970573
 10
261.6248789948547
 20
150.7776936802064
 10
262.1083921612061
 20
150.8046510197627
 10
262.5970166674842
 20
150.7990522155469
 10
263.0808055278181
 20
150.7610112430672
 10
263.5499101961431
 20
150.6913025068224
 10
263.9947810541981
 20
150.5913450756589
 10
264.406361814215
 20
150.4631737946217
 10
264.7762738788206
 20
150.3093978613774
 10
265.0969869051179
 20
150.1331477104736
 10
265.3619721007515
 20
149.9380112867193
 10
265.5658351312923
 20
149.7279610049751
 10
265.7044259333312
 20
149.5072728832423
 10
265.7749231978014
 20
149.2804394952675
 10
265.7758918036956
 20
149.0520785146963
 10
265.7073120329912
 20
148.8268387125545
 10
265.5705799720518
 20
148.6093053216757
 10
265.3684790913355
 20
148.4039066945837
 10
265.1051235819628
 20
148.2148241550054
 10
264.7858746026502
 20
148.0459068781776
 10
264.4172311419782
 20
147.9005935327393
 10
264.0066977177262
 20
147.7818422793545
 10
263.5626316065315
 20
147.6920705510918
 10
263.0940727138368
 20
147.6331058414584
 10
262.6105595474854
 20
147.6061485019021
 10
262.1219350412072
 20
147.611747306118
 10
261.6381461808734
 20
147.6497882785976
 10
261.1690415125484
 20
147.7194970148424
 10
260.7241706544933
 20
147.819454446006
 10
260.3125898944765
 20
147.9476257270431
 10
259.9426778298708
 20
148.1014016602874
 10
259.6219648035736
 20
148.2776518111912
 10
259.3569796079401
 20
148.4727882349455
 10
259.1531165773992
 20
148.6828385166897
 10
259.0145257753603
 20
148.9035266384225
 10
258.9440285108901
 20
149.1303600263973
 10
258.9430599049958
 20
149.3587210069685
 10
259.0116396757003
 20
149.5839608091103
 10
259.1483717366397
 20
149.8014941999891
 10
259.350472617356
 20
150.0068928270811
 10
259.6138281267286
 20
150.1959753666594
 10
259.9330771060413
 20
150.3648926434872
  0
LWPOLYLINE
  5
3F2
330
34C
100
AcDbEntity
  8
0
  6
Continuous
 62
     7
370
    15
100
AcDbPolyline
 90
       18
 70
   128
 43
0.0
 10
264.7130394552042
 20
143.4490010330059
 10
264.3443959945322
 20
143.3036876875676
 10
263.9338625702803
 20
143.1849364341828
 10
263.4897964590855
 20
143.0951647059202
 10
263.0212375663909
 20
143.0361999962867
 10
262.5377244000394
 20
143.0092426567305
 10
262.0490998937612
 20
143.0148414609463
 10
261.5653110334274
 20
143.052882433426
 10
261.0962063651025
 20
143.1225911696708
 10
260.6513355070474
 20
143.2225486008343
 10
260.2397547470305
 20
143.3507198818714
 10
259.8698426824249
 20
143.5044958151158
 10
259.5491296561276
 20
143.6807459660196
 10
259.2841444604941
 20
143.8758823897739
 10
259.0802814299532
 20
144.0859326715181
 10
258.9416906279143
 20
144.3066207932508
 10
258.8711933634441
 20
144.5334541812257
 10
258.8620705397559
 20
144.6627541249111
  0
ARC
  5
3F3
330
34C
100
AcDbEntity
  8
0
  6
Continuous
 62
     7
370
    15
100
AcDbCircle
 10
264.3256915912501
 20
144.8021842357927
 30
0.0
 40
1.407530869293458
100
AcDbArc
 50
285.9737371126096
 51
349.8538344867138
  0
LINE
  5
3F4
330
34C
100
AcDbEntity
  8
0
  6
Continuous
 62
     7
370
    15
100
AcDbLine
 10
257.4653024494192
 20
143.7232232177118
 30
0.0
 11
257.4106760888347
 21
140.2755438338331
 31
0.0
  0
ARC
  5
3F5
330
34C
100
AcDbEntity
  8
0
  6
Continuous
 62
     7
370
    15
100
AcDbCircle
 10
267.3584999619814
 20
154.8154247764624
 30
0.0
 40
17.6172454611095
100
AcDbArc
 50
235.621039523107
 51
253.2958836498224
  0
ARC
  5
3F6
330
34C
100
AcDbEntity
  8
0
  6
Continuous
 62
     7
370
    15
100
AcDbCircle
 10
270.5415876752865
 20
129.9467850377047
 30
0.0
 40
4.856445667970159
100
AcDbArc
 50
245.7158158951383
 51
298.8633168992795
  0
LWPOLYLINE
  5
3F7
330
34C
100
AcDbEntity
  8
0
  6
Continuous
 62
     7
370
    15
100
AcDbPolyline
 90
        3
 70
   128
 43
0.0
 10
268.1323717576343
 20
125.7689540611996
 10
268.2583301593631
 20
125.6794500558252
 10
268.5443124276603
 20
125.5200530477186
  0
LWPOLYLINE
  5
3F8
330
34C
100
AcDbEntity
  8
0
  6
Continuous
 62
     7
370
    15
100
AcDbPolyline
 90
       23
 70
   128
 43
0.0
 10
259.0220156736533
 20
130.7093797174599
 10
259.0414666313458
 20
130.5390421759899
 10
259.1256906879427
 20
130.3322081828105
 10
259.2746054483904
 20
130.1327378995567
 10
259.4848844030147
 20
129.9450871627416
 10
259.7518302674449
 20
129.7734477797422
 10
260.0694799121844
 20
129.621653890749
 10
260.4307375690699
 20
129.4930963204105
 10
260.8275333390068
 20
129.3906468324128
 10
261.2510034601801
 20
129.3165939790253
 10
261.6916883098461
 20
129.2725919786239
 10
262.139743716673
 20
129.2596237631865
 10
262.5851608632617
 20
129.2779790212167
 10
263.0179898665868
 20
129.3272477265811
 10
263.4285620419428
 20
129.4063292978161
 10
263.807705885382
 20
129.5134571832986
 10
264.1469519499584
 20
129.6462383230904
 10
264.4387220391767
 20
129.8017066059428
 10
264.6764984913793
 20
129.9763891273205
 10
264.8549697735377
 20
130.1663837683502
 10
264.9701491321234
 20
130.3674463627077
 10
265.0194636505938
 20
130.5750855042813
 10
265.0212626817885
 20
130.6143253362914
  0
LINE
  5
3F9
330
34C
100
AcDbEntity
  8
0
  6
Continuous
 62
     7
370
    15
100
AcDbLine
 10
253.7935357647782
 20
142.0040513449081
 30
0.0
 11
253.8481621253627
 21
145.4517307287868
 31
0.0
  0
LINE
  5
3FA
330
34C
100
AcDbEntity
  8
0
  6
Continuous
 62
     7
370
    15
100
AcDbLine
 10
257.4106760888347
 20
140.2755438338331
 30
0.0
 11
253.7935357647782
 21
142.0040513449081
 31
0.0
  0
LWPOLYLINE
  5
3FB
330
34C
100
AcDbEntity
  8
0
  6
Continuous
 62
     7
370
    15
100
AcDbPolyline
 90
       39
 70
   128
 43
0.0
 10
255.6116078024992
 20
152.4299748578547
 10
255.3002384966497
 20
152.3100922578815
 10
254.9495348152608
 20
152.2163349718007
 10
254.5690630405446
 20
152.1512604539697
 10
254.1692014506995
 20
152.1166437675984
 10
253.7608572275349
 20
152.1134291656519
 10
253.355168936985
 20
152.1417043340915
 10
252.9632026980655
 20
152.2006980000301
 10
252.5956503279943
 20
152.2888009700458
 10
252.2625376972896
 20
152.403610024784
 10
251.972951250157
 20
152.5419934725162
 10
251.7347901499789
 20
152.7001765735271
 10
251.5545508107285
 20
152.8738445051735
 10
251.4371496917316
 20
153.0582600589988
 10
251.3857891894726
 20
153.24839285943
 10
251.4018702845662
 20
153.4390565793106
 10
251.4849543266586
 20
153.6250504093855
 10
251.6327749996655
 20
153.8013009228199
 10
251.8413001409669
 20
153.9630004650582
 10
252.1048417282927
 20
154.1057382941073
 10
252.4162110341422
 20
154.2256208940806
 10
252.7669147155311
 20
154.3193781801614
 10
253.1473864902473
 20
154.3844526979924
 10
253.5472480800925
 20
154.4190693843637
 10
253.955592303257
 20
154.4222839863102
 10
254.3612805938069
 20
154.3940088178706
 10
254.7532468327265
 20
154.335015151932
 10
255.1207992027976
 20
154.2469121819162
 10
255.4539118335024
 20
154.132103127178
 10
255.7434982806349
 20
153.9937196794458
 10
255.981659380813
 20
153.835536578435
 10
256.1618987200635
 20
153.6618686467886
 10
256.2792998390603
 20
153.4774530929633
 10
256.3306603413194
 20
153.2873202925321
 10
256.3145792462258
 20
153.0966565726514
 10
256.2314952041333
 20
152.9106627425766
 10
256.0836745311264
 20
152.7344122291421
 10
255.875149389825
 20
152.5727126869038
 10
255.6116078024992
 20
152.4299748578547
  0
LWPOLYLINE
  5
3FC
330
34C
100
AcDbEntity
  8
0
  6
Continuous
 62
     7
370
    15
100
AcDbPolyline
 90
       45
 70
   128
 43
0.0
 10
251.4318260170914
 20
154.4273494586281
 10
251.8004694777634
 20
154.5726628040664
 10
252.2110029020154
 20
154.6914140574512
 10
252.6550690132101
 20
154.7811857857139
 10
253.1236279059048
 20
154.8401504953474
 10
253.6071410722562
 20
154.8671078349036
 10
254.0957655785343
 20
154.8615090306877
 10
254.5795544388682
 20
154.8234680582081
 10
255.0486591071932
 20
154.7537593219633
 10
255.4935299652482
 20
154.6538018907997
 10
255.9051107252651
 20
154.5256306097626
 10
256.2750227898707
 20
154.3718546765183
 10
256.595735816168
 20
154.1956045256145
 10
256.8607210118015
 20
154.0004681018602
 10
257.0645840423424
 20
153.790417820116
 10
257.2031748443813
 20
153.5697296983832
 10
257.2736721088515
 20
153.3428963104084
 10
257.2746407147458
 20
153.1145353298372
 10
257.2060609440413
 20
152.8892955276954
 10
257.0693288831018
 20
152.6717621368166
 10
256.8672280023856
 20
152.4663635097246
 10
256.603872493013
 20
152.2772809701463
 10
256.2846235137003
 20
152.1083636933185
 10
255.9159800530283
 20
151.9630503478802
 10
255.5054466287763
 20
151.8442990944954
 10
255.0613805175816
 20
151.7545273662327
 10
254.5928216248869
 20
151.6955626565993
 10
254.1093084585355
 20
151.6686053170431
 10
253.6206839522573
 20
151.6742041212589
 10
253.1368950919235
 20
151.7122450937385
 10
252.6677904235985
 20
151.7819538299834
 10
252.2229195655434
 20
151.8819112611469
 10
251.8113388055266
 20
152.0100825421841
 10
251.4414267409209
 20
152.1638584754283
 10
251.1207137146237
 20
152.3401086263321
 10
250.8557285189901
 20
152.5352450500865
 10
250.6518654884493
 20
152.7452953318306
 10
250.5132746864104
 20
152.9659834535634
 10
250.4427774219402
 20
153.1928168415382
 10
250.441808816046
 20
153.4211778221094
 10
250.5103885867504
 20
153.6464176242512
 10
250.6471206476899
 20
153.86395101513
 10
250.8492215284061
 20
154.069349642222
 10
251.1125770377787
 20
154.2584321818003
 10
251.4318260170914
 20
154.4273494586281
  0
LWPOLYLINE
  5
3FD
330
34C
100
AcDbEntity
  8
0
  6
Continuous
 62
     7
370
    15
100
AcDbPolyline
 90
       18
 70
   128
 43
0.0
 10
256.2117883662543
 20
147.5114578481468
 10
255.8431449055824
 20
147.3661445027085
 10
255.4326114813304
 20
147.2473932493237
 10
254.9885453701356
 20
147.157621521061
 10
254.519986477441
 20
147.0986568114276
 10
254.0364733110895
 20
147.0716994718714
 10
253.5478488048113
 20
147.0772982760872
 10
253.0640599444775
 20
147.1153392485668
 10
252.5949552761526
 20
147.1850479848117
 10
252.1500844180975
 20
147.2850054159752
 10
251.7385036580806
 20
147.4131766970124
 10
251.368591593475
 20
147.5669526302567
 10
251.0478785671777
 20
147.7432027811605
 10
250.7828933715442
 20
147.9383392049148
 10
250.5790303410033
 20
148.148389486659
 10
250.4404395389644
 20
148.3690776083917
 10
250.3699422744942
 20
148.5959109963665
 10
250.360819450806
 20
148.725210940052
  0
ARC
  5
3FE
330
34C
100
AcDbEntity
  8
0
  6
Continuous
 62
     7
370
    15
100
AcDbCircle
 10
255.8244405023003
 20
148.8646410509335
 30
0.0
 40
1.407530869293323
100
AcDbArc
 50
285.9737371126072
 51
349.8538344867157
  0
LINE
  5
3FF
330
34C
100
AcDbEntity
  8
0
  6
Continuous
 62
     7
370
    15
100
AcDbLine
 10
248.9640513604693
 20
147.7856800328527
 30
0.0
 11
248.9094249998848
 21
144.338000648974
 31
0.0
  0
ARC
  5
400
330
34C
100
AcDbEntity
  8
0
  6
Continuous
 62
     7
370
    15
100
AcDbCircle
 10
258.8572488730321
 20
158.8778815916043
 30
0.0
 40
17.61724546111069
100
AcDbArc
 50
235.6210395231069
 51
253.2958836498213
  0
ARC
  5
401
330
34C
100
AcDbEntity
  8
0
  6
Continuous
 62
     7
370
    15
100
AcDbCircle
 10
262.0403365863365
 20
134.0092418528458
 30
0.0
 40
4.856445667970361
100
AcDbArc
 50
245.7158158951391
 51
298.8633168992791
  0
LWPOLYLINE
  5
402
330
34C
100
AcDbEntity
  8
0
  6
Continuous
 62
     7
370
    15
100
AcDbPolyline
 90
        3
 70
   128
 43
0.0
 10
259.6311206686845
 20
129.8314108763405
 10
259.7570790704132
 20
129.7419068709662
 10
260.0430613387104
 20
129.5825098628596
  0
LWPOLYLINE
  5
403
330
34C
100
AcDbEntity
  8
0
  6
Continuous
 62
     7
370
    15
100
AcDbPolyline
 90
       23
 70
   128
 43
0.0
 10
250.5207645847034
 20
134.7718365326008
 10
250.5402155423959
 20
134.6014989911307
 10
250.6244395989927
 20
134.3946649979514
 10
250.7733543594405
 20
134.1951947146976
 10
250.9836333140648
 20
134.0075439778825
 10
251.250579178495
 20
133.8359045948831
 10
251.5682288232345
 20
133.6841107058899
 10
251.9294864801199
 20
133.5555531355514
 10
252.3262822500569
 20
133.4531036475537
 10
252.7497523712302
 20
133.3790507941662
 10
253.1904372208962
 20
133.3350487937648
 10
253.6384926277231
 20
133.3220805783275
 10
254.0839097743118
 20
133.3404358363576
 10
254.516738777637
 20
133.389704541722
 10
254.9273109529928
 20
133.468786112957
 10
255.3064547964321
 20
133.5759139984395
 10
255.6457008610085
 20
133.7086951382313
 10
255.9374709502268
 20
133.8641634210837
 10
256.1752474024294
 20
134.0388459424614
 10
256.3537186845878
 20
134.228840583491
 10
256.4688980431735
 20
134.4299031778486
 10
256.5182125616439
 20
134.6375423194222
 10
256.5200115928387
 20
134.6767821514323
  0
LINE
  5
404
330
34C
100
AcDbEntity
  8
0
  6
Continuous
 62
     7
370
    15
100
AcDbLine
 10
245.2922846758283
 20
146.066508160049
 30
0.0
 11
245.3469110364128
 21
149.5141875439277
 31
0.0
  0
LINE
  5
405
330
34C
100
AcDbEntity
  8
0
  6
Continuous
 62
     7
370
    15
100
AcDbLine
 10
248.9094249998848
 20
144.338000648974
 30
0.0
 11
245.2922846758283
 21
146.066508160049
 31
0.0
  0
LWPOLYLINE
  5
406
330
34C
100
AcDbEntity
  8
0
  6
Continuous
 62
     7
370
    15
100
AcDbPolyline
 90
       39
 70
   128
 43
0.0
 10
247.1103567135493
 20
156.4924316729956
 10
246.7989874076998
 20
156.3725490730223
 10
246.4482837263109
 20
156.2787917869416
 10
246.0678119515947
 20
156.2137172691106
 10
245.6679503617495
 20
156.1791005827393
 10
245.259606138585
 20
156.1758859807928
 10
244.8539178480351
 20
156.2041611492324
 10
244.4619516091156
 20
156.263154815171
 10
244.0943992390444
 20
156.3512577851867
 10
243.7612866083397
 20
156.4660668399249
 10
243.4717001612071
 20
156.6044502876571
 10
243.233539061029
 20
156.762633388668
 10
243.0532997217786
 20
156.9363013203144
 10
242.9358986027817
 20
157.1207168741397
 10
242.8845381005227
 20
157.3108496745709
 10
242.9006191956163
 20
157.5015133944515
 10
242.9837032377087
 20
157.6875072245264
 10
243.1315239107156
 20
157.8637577379608
 10
243.340049052017
 20
158.0254572801991
 10
243.6035906393429
 20
158.1681951092482
 10
243.9149599451924
 20
158.2880777092215
 10
244.2656636265812
 20
158.3818349953023
 10
244.6461354012974
 20
158.4469095131332
 10
245.0459969911426
 20
158.4815261995046
 10
245.4543412143071
 20
158.4847408014511
 10
245.8600295048571
 20
158.4564656330115
 10
246.2519957437766
 20
158.3974719670728
 10
246.6195481138477
 20
158.3093689970571
 10
246.9526607445525
 20
158.194559942319
 10
247.242247191685
 20
158.0561764945868
 10
247.4804082918631
 20
157.8979933935759
 10
247.6606476311135
 20
157.7243254619294
 10
247.7780487501104
 20
157.5399099081042
 10
247.8294092523695
 20
157.349777107673
 10
247.8133281572759
 20
157.1591133877923
 10
247.7302441151834
 20
156.9731195577175
 10
247.5824234421765
 20
156.7968690442831
 10
247.373898300875
 20
156.6351695020448
 10
247.1103567135493
 20
156.4924316729956
  0
LWPOLYLINE
  5
407
330
34C
100
AcDbEntity
  8
0
  6
Continuous
 62
     7
370
    15
100
AcDbPolyline
 90
       45
 70
   128
 43
0.0
 10
242.9305749281415
 20
158.489806273769
 10
243.2992183888135
 20
158.6351196192073
 10
243.7097518130654
 20
158.7538708725921
 10
244.1538179242602
 20
158.8436426008548
 10
244.6223768169549
 20
158.9026073104882
 10
245.1058899833063
 20
158.9295646500445
 10
245.5945144895845
 20
158.9239658458287
 10
246.0783033499183
 20
158.885924873349
 10
246.5474080182432
 20
158.8162161371042
 10
246.9922788762983
 20
158.7162587059407
 10
247.4038596363152
 20
158.5880874249035
 10
247.7737717009208
 20
158.4343114916592
 10
248.0944847272181
 20
158.2580613407554
 10
248.3594699228516
 20
158.0629249170011
 10
248.5633329533925
 20
157.8528746352569
 10
248.7019237554314
 20
157.6321865135241
 10
248.7724210199016
 20
157.4053531255493
 10
248.7733896257958
 20
157.1769921449781
 10
248.7048098550914
 20
156.9517523428363
 10
248.568077794152
 20
156.7342189519575
 10
248.3659769134357
 20
156.5288203248655
 10
248.1026214040631
 20
156.3397377852872
 10
247.7833724247504
 20
156.1708205084594
 10
247.4147289640784
 20
156.0255071630211
 10
247.0041955398265
 20
155.9067559096363
 10
246.5601294286317
 20
155.8169841813736
 10
246.091570535937
 20
155.7580194717402
 10
245.6080573695856
 20
155.7310621321839
 10
245.1194328633074
 20
155.7366609363998
 10
244.6356440029736
 20
155.7747019088794
 10
244.1665393346486
 20
155.8444106451242
 10
243.7216684765935
 20
155.9443680762878
 10
243.3100877165767
 20
156.0725393573249
 10
242.9401756519711
 20
156.2263152905692
 10
242.6194626256738
 20
156.402565441473
 10
242.3544774300403
 20
156.5977018652274
 10
242.1506143994994
 20
156.8077521469716
 10
242.0120235974605
 20
157.0284402687043
 10
241.9415263329903
 20
157.2552736566791
 10
241.9405577270961
 20
157.4836346372503
 10
242.0091374978005
 20
157.7088744393921
 10
242.1458695587399
 20
157.9264078302709
 10
242.3479704394562
 20
158.1318064573629
 10
242.6113259488289
 20
158.3208889969412
 10
242.9305749281415
 20
158.489806273769
  0
LWPOLYLINE
  5
408
330
34C
100
AcDbEntity
  8
0
  6
Continuous
 62
     7
370
    15
100
AcDbPolyline
 90
       18
 70
   128
 43
0.0
 10
247.7105372773044
 20
151.5739146632878
 10
247.3418938166325
 20
151.4286013178494
 10
246.9313603923805
 20
151.3098500644647
 10
246.4872942811857
 20
151.220078336202
 10
246.0187353884911
 20
151.1611136265685
 10
245.5352222221396
 20
151.1341562870123
 10
245.0465977158614
 20
151.1397550912281
 10
244.5628088555276
 20
151.1777960637077
 10
244.0937041872027
 20
151.2475047999526
 10
243.6488333291476
 20
151.3474622311161
 10
243.2372525691307
 20
151.4756335121532
 10
242.8673405045251
 20
151.6294094453976
 10
242.5466274782278
 20
151.8056595963014
 10
242.2816422825943
 20
152.0007960200557
 10
242.0777792520534
 20
152.2108463017999
 10
241.9391884500145
 20
152.4315344235326
 10
241.8686911855443
 20
152.6583678115074
 10
241.8595683618561
 20
152.7876677551929
  0
ARC
  5
409
330
34C
100
AcDbEntity
  8
0
  6
Continuous
 62
     7
370
    15
100
AcDbCircle
 10
247.3231894133503
 20
152.9270978660744
 30
0.0
 40
1.407530869293392
100
AcDbArc
 50
285.9737371126103
 51
349.8538344867156
  0
LINE
  5
40A
330
34C
100
AcDbEntity
  8
0
  6
Continuous
 62
     7
370
    15
100
AcDbLine
 10
240.4628002715194
 20
151.8481368479936
 30
0.0
 11
240.4081739109349
 21
148.4004574641149
 31
0.0
  0
ARC
  5
40B
330
34C
100
AcDbEntity
  8
0
  6
Continuous
 62
     7
370
    15
100
AcDbCircle
 10
250.3559977840826
 20
162.9403384067461
 30
0.0
 40
17.61724546111162
100
AcDbArc
 50
235.6210395231076
 51
253.295883649821
  0
ARC
  5
40C
330
34C
100
AcDbEntity
  8
0
  6
Continuous
 62
     7
370
    15
100
AcDbCircle
 10
253.5390854973867
 20
138.0716986679866
 30
0.0
 40
4.856445667970273
100
AcDbArc
 50
245.7158158951379
 51
298.8633168992786
  0
LWPOLYLINE
  5
40D
330
34C
100
AcDbEntity
  8
0
  6
Continuous
 62
     7
370
    15
100
AcDbPolyline
 90
        3
 70
   128
 43
0.0
 10
251.1298695797345
 20
133.8938676914814
 10
251.2558279814633
 20
133.8043636861071
 10
251.5418102497605
 20
133.6449666780005
  0
LWPOLYLINE
  5
40E
330
34C
100
AcDbEntity
  8
0
  6
Continuous
 62
     7
370
    15
100
AcDbPolyline
 90
       23
 70
   128
 43
0.0
 10
242.0195134957535
 20
138.8342933477416
 10
242.038964453446
 20
138.6639558062717
 10
242.1231885100429
 20
138.4571218130923
 10
242.2721032704906
 20
138.2576515298385
 10
242.4823822251149
 20
138.0700007930234
 10
242.7493280895451
 20
137.898361410024
 10
243.0669777342846
 20
137.7465675210308
 10
243.4282353911701
 20
137.6180099506923
 10
243.825031161107
 20
137.5155604626946
 10
244.2485012822804
 20
137.4415076093071
 10
244.6891861319464
 20
137.3975056089057
 10
245.1372415387733
 20
137.3845373934684
 10
245.5826586853619
 20
137.4028926514985
 10
246.0154876886871
 20
137.452161356863
 10
246.4260598640429
 20
137.5312429280979
 10
246.8052037074822
 20
137.6383708135804
 10
247.1444497720586
 20
137.7711519533722
 10
247.4362198612769
 20
137.9266202362246
 10
247.6739963134795
 20
138.1013027576024
 10
247.8524675956379
 20
138.2912973986319
 10
247.9676469542236
 20
138.4923599929895
 10
248.016961472694
 20
138.6999991345631
 10
248.0187605038888
 20
138.7392389665732
  0
LINE
  5
40F
330
34C
100
AcDbEntity
  8
0
  6
Continuous
 62
     7
370
    15
100
AcDbLine
 10
236.7910335868784
 20
150.1289649751899
 30
0.0
 11
236.8456599474629
 21
153.5766443590686
 31
0.0
  0
LINE
  5
410
330
34C
100
AcDbEntity
  8
0
  6
Continuous
 62
     7
370
    15
100
AcDbLine
 10
240.4081739109349
 20
148.4004574641149
 30
0.0
 11
236.7910335868784
 21
150.1289649751899
 31
0.0
  0
LWPOLYLINE
  5
411
330
34C
100
AcDbEntity
  8
0
  6
Continuous
 62
     7
370
    15
100
AcDbPolyline
 90
       39
 70
   128
 43
0.0
 10
238.6091056245994
 20
160.5548884881365
 10
238.2977363187499
 20
160.4350058881633
 10
237.947032637361
 20
160.3412486020825
 10
237.5665608626448
 20
160.2761740842515
 10
237.1666992727996
 20
160.2415573978802
 10
236.7583550496351
 20
160.2383427959337
 10
236.3526667590852
 20
160.2666179643733
 10
235.9607005201657
 20
160.3256116303119
 10
235.5931481500945
 20
160.4137146003276
 10
235.2600355193898
 20
160.5285236550658
 10
234.9704490722572
 20
160.666907102798
 10
234.7322879720791
 20
160.8250902038089
 10
234.5520486328287
 20
160.9987581354553
 10
234.4346475138318
 20
161.1831736892806
 10
234.3832870115727
 20
161.3733064897118
 10
234.3993681066664
 20
161.5639702095925
 10
234.4824521487588
 20
161.7499640396673
 10
234.6302728217657
 20
161.9262145531017
 10
234.8387979630672
 20
162.08791409534
 10
235.1023395503929
 20
162.2306519243892
 10
235.4137088562425
 20
162.3505345243624
 10
235.7644125376313
 20
162.4442918104432
 10
236.1448843123475
 20
162.5093663282742
 10
236.5447459021927
 20
162.5439830146455
 10
236.9530901253572
 20
162.547197616592
 10
237.3587784159071
 20
162.5189224481523
 10
237.7507446548267
 20
162.4599287822138
 10
238.1182970248978
 20
162.371825812198
 10
238.4514096556026
 20
162.2570167574599
 10
238.7409961027351
 20
162.1186333097276
 10
238.9791572029132
 20
161.9604502087168
 10
239.1593965421637
 20
161.7867822770704
 10
239.2767976611605
 20
161.6023667232451
 10
239.3281581634196
 20
161.4122339228139
 10
239.312077068326
 20
161.2215702029333
 10
239.2289930262335
 20
161.0355763728584
 10
239.0811723532266
 20
160.859325859424
 10
238.8726472119251
 20
160.6976263171857
 10
238.6091056245994
 20
160.5548884881365
  0
LWPOLYLINE
  5
412
330
34C
100
AcDbEntity
  8
0
  6
Continuous
 62
     7
370
    15
100
AcDbPolyline
 90
       45
 70
   128
 43
0.0
 10
234.4293238391916
 20
162.55226308891
 10
234.7979672998636
 20
162.6975764343483
 10
235.2085007241155
 20
162.816327687733
 10
235.6525668353103
 20
162.9060994159957
 10
236.121125728005
 20
162.9650641256291
 10
236.6046388943564
 20
162.9920214651854
 10
237.0932634006346
 20
162.9864226609695
 10
237.5770522609684
 20
162.9483816884899
 10
238.0461569292934
 20
162.8786729522451
 10
238.4910277873484
 20
162.7787155210816
 10
238.9026085473653
 20
162.6505442400444
 10
239.2725206119709
 20
162.4967683068001
 10
239.5932336382682
 20
162.3205181558963
 10
239.8582188339017
 20
162.125381732142
 10
240.0620818644426
 20
161.9153314503978
 10
240.2006726664815
 20
161.694643328665
 10
240.2711699309517
 20
161.4678099406902
 10
240.272138536846
 20
161.239448960119
 10
240.2035587661415
 20
161.0142091579772
 10
240.066826705202
 20
160.7966757670984
 10
239.8647258244858
 20
160.5912771400064
 10
239.6013703151132
 20
160.4021946004281
 10
239.2821213358005
 20
160.2332773236003
 10
238.9134778751285
 20
160.087963978162
 10
238.5029444508765
 20
159.9692127247772
 10
238.0588783396818
 20
159.8794409965145
 10
237.5903194469871
 20
159.8204762868811
 10
237.1068062806357
 20
159.7935189473249
 10
236.6181817743575
 20
159.7991177515407
 10
236.1343929140236
 20
159.8371587240203
 10
235.6652882456987
 20
159.9068674602652
 10
235.2204173876437
 20
160.0068248914287
 10
234.8088366276268
 20
160.1349961724659
 10
234.4389245630211
 20
160.2887721057102
 10
234.1182115367239
 20
160.4650222566139
 10
233.8532263410904
 20
160.6601586803683
 10
233.6493633105494
 20
160.8702089621124
 10
233.5107725085106
 20
161.0908970838452
 10
233.4402752440404
 20
161.31773047182
 10
233.4393066381461
 20
161.5460914523912
 10
233.5078864088506
 20
161.771331254533
 10
233.64461846979
 20
161.9888646454118
 10
233.8467193505064
 20
162.1942632725038
 10
234.110074859879
 20
162.3833458120821
 10
234.4293238391916
 20
162.55226308891
  0
LWPOLYLINE
  5
413
330
34C
100
AcDbEntity
  8
0
  6
Continuous
 62
     7
370
    15
100
AcDbPolyline
 90
       18
 70
   128
 43
0.0
 10
239.2092861883545
 20
155.6363714784287
 10
238.8406427276825
 20
155.4910581329903
 10
238.4301093034306
 20
155.3723068796055
 10
237.9860431922358
 20
155.2825351513428
 10
237.5174842995412
 20
155.2235704417095
 10
237.0339711331897
 20
155.1966131021532
 10
236.5453466269115
 20
155.202211906369
 10
236.0615577665777
 20
155.2402528788487
 10
235.5924530982528
 20
155.3099616150935
 10
235.1475822401976
 20
155.409919046257
 10
234.7360014801808
 20
155.5380903272942
 10
234.3660894155752
 20
155.6918662605385
 10
234.0453763892779
 20
155.8681164114423
 10
233.7803911936444
 20
156.0632528351966
 10
233.5765281631035
 20
156.2733031169408
 10
233.4379373610646
 20
156.4939912386735
 10
233.3674400965944
 20
156.7208246266484
 10
233.3583172729062
 20
156.8501245703338
  0
ARC
  5
414
330
34C
100
AcDbEntity
  8
0
  6
Continuous
 62
     7
370
    15
100
AcDbCircle
 10
238.8219383244004
 20
156.9895546812153
 30
0.0
 40
1.407530869293401
100
AcDbArc
 50
285.9737371126099
 51
349.8538344867156
  0
LINE
  5
415
330
34C
100
AcDbEntity
  8
0
  6
Continuous
 62
     7
370
    15
100
AcDbLine
 10
231.9615491825695
 20
155.9105936631345
 30
0.0
 11
231.906922821985
 21
152.4629142792558
 31
0.0
  0
ARC
  5
416
330
34C
100
AcDbEntity
  8
0
  6
Continuous
 62
     7
370
    15
100
AcDbCircle
 10
241.8547466951321
 20
167.0027952218858
 30
0.0
 40
17.61724546111028
100
AcDbArc
 50
235.6210395231071
 51
253.2958836498217
  0
ARC
  5
417
330
34C
100
AcDbEntity
  8
0
  6
Continuous
 62
     7
370
    15
100
AcDbCircle
 10
245.0378344084369
 20
142.1341554831277
 30
0.0
 40
4.856445667970454
100
AcDbArc
 50
245.7158158951389
 51
298.8633168992773
  0
LWPOLYLINE
  5
418
330
34C
100
AcDbEntity
  8
0
  6
Continuous
 62
     7
370
    15
100
AcDbPolyline
 90
        3
 70
   128
 43
0.0
 10
242.6286184907846
 20
137.9563245066223
 10
242.7545768925134
 20
137.866820501248
 10
243.0405591608106
 20
137.7074234931414
  0
LWPOLYLINE
  5
419
330
34C
100
AcDbEntity
  8
0
  6
Continuous
 62
     7
370
    15
100
AcDbPolyline
 90
       23
 70
   128
 43
0.0
 10
233.5182624068035
 20
142.8967501628826
 10
233.5377133644961
 20
142.7264126214126
 10
233.621937421093
 20
142.5195786282333
 10
233.7708521815407
 20
142.3201083449795
 10
233.981131136165
 20
142.1324576081643
 10
234.2480770005952
 20
141.9608182251649
 10
234.5657266453347
 20
141.8090243361717
 10
234.9269843022201
 20
141.6804667658332
 10
235.3237800721571
 20
141.5780172778355
 10
235.7472501933304
 20
141.503964424448
 10
236.1879350429964
 20
141.4599624240466
 10
236.6359904498234
 20
141.4469942086093
 10
237.081407596412
 20
141.4653494666394
 10
237.5142365997371
 20
141.5146181720039
 10
237.924808775093
 20
141.5936997432388
 10
238.3039526185322
 20
141.7008276287213
 10
238.6431986831087
 20
141.8336087685131
 10
238.934968772327
 20
141.9890770513655
 10
239.1727452245296
 20
142.1637595727433
 10
239.351216506688
 20
142.3537542137728
 10
239.4663958652737
 20
142.5548168081305
 10
239.5157103837441
 20
142.762455949704
 10
239.5175094149388
 20
142.8016957817141
  0
LINE
  5
41A
330
34C
100
AcDbEntity
  8
0
  6
Continuous
 62
     7
370
    15
100
AcDbLine
 10
230.365510297765
 20
156.6732859982935
 30
0.0
 11
230.3108839371805
 21
153.2256066144148
 31
0.0
  0
LINE
  5
41B
330
34C
100
AcDbEntity
  8
0
  6
Continuous
 62
     7
370
    15
100
AcDbLine
 10
231.906922821985
 20
152.4629142792558
 30
0.0
 11
230.3108839371805
 21
153.2256066144148
 31
0.0
  0
ARC
  5
41C
330
34C
100
AcDbEntity
  8
0
  6
Continuous
 62
     7
370
    15
100
AcDbCircle
 10
236.5365833194869
 20
146.1966122982683
 30
0.0
 40
4.856445667970209
100
AcDbArc
 50
245.715815895138
 51
298.8633168992789
  0
LWPOLYLINE
  5
41D
330
34C
100
AcDbEntity
  8
0
  6
Continuous
 62
     7
370
    15
100
AcDbPolyline
 90
        3
 70
   128
 43
0.0
 10
234.1273674018347
 20
142.0187813217632
 10
234.2533258035635
 20
141.9292773163889
 10
234.5393080718607
 20
141.7698803082823
  0
ENDBLK
  5
41E
330
34C
100
AcDbEntity
  8
0
100
AcDbBlockEnd
  0
ENDSEC
  0
SECTION
  2
ENTITIES
  0
INSERT
  5
427
330
1F
100
AcDbEntity
  8
0
100
AcDbBlockReference
  2
1
 10
2083.08666221999
 20
792.9252475630765
 30
0.0
  0
INSERT
  5
428
330
1F
100
AcDbEntity
  8
0
100
AcDbBlockReference
  2
2
 10
2083.08666221999
 20
792.9252475630765
 30
0.0
  0
INSERT
  5
429
330
1F
100
AcDbEntity
  8
0
100
AcDbBlockReference
  2
3
 10
2083.08666221999
 20
792.9252475630765
 30
0.0
  0
INSERT
  5
42A
330
1F
100
AcDbEntity
  8
0
100
AcDbBlockReference
  2
4
 10
2083.08666221999
 20
792.9252475630765
 30
0.0
  0
ENDSEC
  0
SECTION
  2
OBJECTS
  0
DICTIONARY
  5
C
330
0
100
AcDbDictionary
281
     1
  3
ACAD_COLOR
350
6B
  3
ACAD_GROUP
350
D
  3
ACAD_LAYOUT
350
1A
  3
ACAD_MATERIAL
350
6A
  3
ACAD_MLEADERSTYLE
350
12D
  3
ACAD_MLINESTYLE
350
17
  3
ACAD_PLOTSETTINGS
350
19
  3
ACAD_PLOTSTYLENAME
350
E
  3
ACAD_SCALELIST
350
10C
  3
ACAD_TABLESTYLE
350
7E
  3
ACAD_VISUALSTYLE
350
EF
  3
ACDB_RECOMPOSE_DATA
350
15D
  3
AcDbVariableDictionary
350
5E
  3
DWGPROPS
350
438
  0
DICTIONARY
  5
13C
330
10
100
AcDbDictionary
280
     1
281
     1
  3
ADSK_XREC_LAYER_RECONCILED
360
42B
  0
DICTIONARY
  5
6B
102
{ACAD_REACTORS
330
C
102
}
330
C
100
AcDbDictionary
281
     1
  0
DICTIONARY
  5
D
102
{ACAD_REACTORS
330
C
102
}
330
C
100
AcDbDictionary
281
     1
  0
DICTIONARY
  5
1A
102
{ACAD_REACTORS
330
C
102
}
330
C
100
AcDbDictionary
281
     1
  3
Layout1
350
D3
  3
Layout2
350
D7
  3
Model
350
22
  0
DICTIONARY
  5
6A
102
{ACAD_REACTORS
330
C
102
}
330
C
100
AcDbDictionary
281
     1
  3
ByBlock
350
ED
  3
ByLayer
350
EC
  3
Global
350
EE
  0
DICTIONARY
  5
12D
102
{ACAD_REACTORS
330
C
102
}
330
C
100
AcDbDictionary
281
     1
  3
Annotative
350
13B
  3
Standard
350
12E
  0
DICTIONARY
  5
17
102
{ACAD_REACTORS
330
C
102
}
330
C
100
AcDbDictionary
281
     1
  3
Standard
350
18
  0
DICTIONARY
  5
19
102
{ACAD_REACTORS
330
C
102
}
330
C
100
AcDbDictionary
281
     1
  0
ACDBDICTIONARYWDFLT
  5
E
102
{ACAD_REACTORS
330
C
102
}
330
C
100
AcDbDictionary
281
     1
  3
Normal
350
F
100
AcDbDictionaryWithDefault
340
F
  0
DICTIONARY
  5
10C
102
{ACAD_REACTORS
330
C
102
}
330
C
100
AcDbDictionary
281
     1
  3
A0
350
10D
  3
A1
350
188
  3
A2
350
189
  3
A3
350
18A
  3
A4
350
18B
  3
A5
350
18C
  3
A6
350
18D
  3
A7
350
18E
  3
A8
350
18F
  3
A9
350
190
  3
B0
350
191
  3
B1
350
192
  3
B2
350
193
  3
B3
350
194
  3
B4
350
195
  3
B5
350
196
  3
B6
350
197
  3
B7
350
198
  3
B8
350
199
  3
B9
350
19A
  3
C0
350
19B
  3
C1
350
19C
  3
C2
350
19D
  3
C3
350
19E
  3
C4
350
19F
  3
C5
350
1A0
  3
C6
350
1A1
  3
C7
350
1A2
  3
C8
350
1A3
  3
C9
350
1A4
  3
D0
350
1A5
  3
D1
350
1A6
  3
D2
350
1A7
  0
DICTIONARY
  5
7E
102
{ACAD_REACTORS
330
C
102
}
330
C
100
AcDbDictionary
281
     1
  3
Standard
350
7F
  0
DICTIONARY
  5
EF
102
{ACAD_REACTORS
330
C
102
}
330
C
100
AcDbDictionary
281
     1
  3
2dWireframe
350
F5
  3
3D Hidden
350
F7
  3
3dWireframe
350
F6
  3
Basic
350
F4
  3
Brighten
350
FB
  3
ColorChange
350
FF
  3
Conceptual
350
F8
  3
Dim
350
FA
  3
Facepattern
350
FE
  3
Flat
350
F0
  3
FlatWithEdges
350
F1
  3
Gouraud
350
F2
  3
GouraudWithEdges
350
F3
  3
Linepattern
350
FD
  3
Realistic
350
F9
  3
Thicken
350
FC
  0
XRECORD
  5
15D
102
{ACAD_REACTORS
330
C
102
}
330
C
100
AcDbXrecord
280
     1
 90
        1
330
7F
  0
DICTIONARY
  5
5E
102
{ACAD_REACTORS
330
C
102
}
330
C
100
AcDbDictionary
281
     1
  3
CANNOSCALE
350
146
  3
CMLEADERSTYLE
350
145
  3
CTABLESTYLE
350
84
  3
DIMASSOC
350
5F
  3
HIDETEXT
350
63
  3
INDEXCTL
350
434
  3
LIGHTINGUNITS
350
432
  3
MSLTSCALE
350
431
  3
PSOLHEIGHT
350
436
  3
PSOLWIDTH
350
435
  3
SORTENTS
350
433
  0
XRECORD
  5
438
102
{ACAD_REACTORS
330
C
102
}
330
C
100
AcDbXrecord
280
     1
  1
DWGPROPS COOKIE
  2

  3

  4

  6

  7

  8
orhan kara
  9

300
=
301
=
302
=
303
=
304
=
305
=
306
=
307
=
308
=
309
=
 40
0.0001494212962963
 41
2458935.44271897
 42
2458956.460672639
  1

 90
        0
  0
XRECORD
  5
42B
102
{ACAD_REACTORS
330
13C
102
}
330
13C
100
AcDbXrecord
280
     1
290
     1
  0
LAYOUT
  5
D3
102
{ACAD_XDICTIONARY
360
43C
102
}
102
{ACAD_REACTORS
330
1A
102
}
330
1A
100
AcDbPlotSettings
  1

  2
C:\Documents and Settings\basas\Application Data\Autodesk\AutoCAD 2005\R16.1\enu\plotters\Default Windows System Printer.pc3
  4

  6

 40
0.0
 41
0.0
 42
0.0
 43
0.0
 44
0.0
 45
0.0
 46
0.0
 47
0.0
 48
0.0
 49
0.0
140
0.0
141
0.0
142
1.0
143
1.0
 70
   688
 72
     0
 73
     0
 74
     5
  7

 75
    16
147
1.0
148
0.0
149
0.0
100
AcDbLayout
  1
Layout1
 70
     1
 71
     1
 10
0.0
 20
0.0
 11
12.0
 21
9.0
 12
0.0
 22
0.0
 32
0.0
 14
0.0
 24
0.0
 34
0.0
 15
0.0
 25
0.0
 35
0.0
146
0.0
 13
0.0
 23
0.0
 33
0.0
 16
1.0
 26
0.0
 36
0.0
 17
0.0
 27
1.0
 37
0.0
 76
     0
330
D2
  0
LAYOUT
  5
D7
102
{ACAD_XDICTIONARY
360
43E
102
}
102
{ACAD_REACTORS
330
1A
102
}
330
1A
100
AcDbPlotSettings
  1

  2
C:\Documents and Settings\basas\Application Data\Autodesk\AutoCAD 2005\R16.1\enu\plotters\Default Windows System Printer.pc3
  4

  6

 40
0.0
 41
0.0
 42
0.0
 43
0.0
 44
0.0
 45
0.0
 46
0.0
 47
0.0
 48
0.0
 49
0.0
140
0.0
141
0.0
142
1.0
143
1.0
 70
   688
 72
     0
 73
     0
 74
     5
  7

 75
    16
147
1.0
148
0.0
149
0.0
100
AcDbLayout
  1
Layout2
 70
     1
 71
     2
 10
0.0
 20
0.0
 11
12.0
 21
9.0
 12
0.0
 22
0.0
 32
0.0
 14
0.0
 24
0.0
 34
0.0
 15
0.0
 25
0.0
 35
0.0
146
0.0
 13
0.0
 23
0.0
 33
0.0
 16
1.0
 26
0.0
 36
0.0
 17
0.0
 27
1.0
 37
0.0
 76
     0
330
D6
  0
LAYOUT
  5
22
102
{ACAD_XDICTIONARY
360
439
102
}
102
{ACAD_REACTORS
330
1A
102
}
330
1A
100
AcDbPlotSettings
  1

  2
none_device
  4
ISO_A4_(210.00_x_297.00_MM)
  6

 40
7.5
 41
20.0
 42
7.5
 43
20.0
 44
210.0
 45
297.0
 46
11.54999923706054
 47
-13.65000009536743
 48
0.0
 49
0.0
140
0.0
141
0.0
142
1.0
143
8.704084754739808
 70
 11952
 72
     1
 73
     0
 74
     0
  7

 75
     0
147
0.1148885871608098
148
0.0
149
0.0
100
AcDbLayout
  1
Model
 70
     1
 71
     0
 10
0.0
 20
0.0
 11
12.0
 21
9.0
 12
0.0
 22
0.0
 32
0.0
 14
0.0
 24
0.0
 34
0.0
 15
0.0
 25
0.0
 35
0.0
146
0.0
 13
0.0
 23
0.0
 33
0.0
 16
1.0
 26
0.0
 36
0.0
 17
0.0
 27
1.0
 37
0.0
 76
     0
330
1F
331
EA
1001
ACAD_PSEXT
1000
None
1000
None
1000
Not applicable
1000
The layout will not be plotted unless a new plotter configuration name is selected.
1070
     0
  0
MATERIAL
  5
ED
102
{ACAD_XDICTIONARY
360
442
102
}
102
{ACAD_REACTORS
330
6A
102
}
330
6A
100
AcDbMaterial
  1
ByBlock
  0
MATERIAL
  5
EC
102
{ACAD_XDICTIONARY
360
440
102
}
102
{ACAD_REACTORS
330
6A
102
}
330
6A
100
AcDbMaterial
  1
ByLayer
  0
MATERIAL
  5
EE
102
{ACAD_XDICTIONARY
360
173
102
}
102
{ACAD_REACTORS
330
6A
102
}
330
6A
100
AcDbMaterial
  1
Global
 43
0.0007999999797903
 43
0.0
 43
0.0
 43
0.0
 43
0.0
 43
0.0007999999797903
 43
0.0
 43
0.0
 43
0.0
 43
0.0
 43
1.0
 43
0.0
 43
0.0
 43
0.0
 43
0.0
 43
1.0
 49
0.0007999999797903
 49
0.0
 49
0.0
 49
0.0
 49
0.0
 49
0.0007999999797903
 49
0.0
 49
0.0
 49
0.0
 49
0.0
 49
1.0
 49
0.0
 49
0.0
 49
0.0
 49
0.0
 49
1.0
142
0.0007999999797903
142
0.0
142
0.0
142
0.0
142
0.0
142
0.0007999999797903
142
0.0
142
0.0
142
0.0
142
0.0
142
1.0
142
0.0
142
0.0
142
0.0
142
0.0
142
1.0
144
0.0007999999797903
144
0.0
144
0.0
144
0.0
144
0.0
144
0.0007999999797903
144
0.0
144
0.0
144
0.0
144
0.0
144
1.0
144
0.0
144
0.0
144
0.0
144
0.0
144
1.0
1001
ACAD
1070
    -1
1070
     3
1070
     0
1000

1071
        0
1070
     0
  0
MLEADERSTYLE
  5
13B
102
{ACAD_REACTORS
330
12D
102
}
330
12D
100
AcDbMLeaderStyle
170
     2
171
     1
172
     0
 90
        2
 40
0.0
 41
0.0
173
     1
 91
-1056964608
340
14
 92
       -2
290
     1
 42
2.0
291
     1
 43
8.0
  3
Standard
 44
4.0
300

342
11
174
     1
178
     1
175
     1
176
     0
 93
-1056964608
 45
4.0
292
     0
297
     0
 46
4.0
 94
-1056964608
 47
1.0
 49
1.0
140
1.0
293
     1
141
0.0
294
     1
177
     0
142
1.0
295
     0
296
     1
143
3.75
1001
ACAD_MLEADERVER
1070
     2
  0
MLEADERSTYLE
  5
12E
102
{ACAD_REACTORS
330
12D
102
}
330
12D
100
AcDbMLeaderStyle
170
     2
171
     1
172
     0
 90
        2
 40
0.0
 41
0.0
173
     1
 91
-1056964608
340
14
 92
       -2
290
     1
 42
2.0
291
     1
 43
8.0
  3
Standard
 44
4.0
300

342
11
174
     1
178
     1
175
     1
176
     0
 93
-1056964608
 45
4.0
292
     0
297
     0
 46
4.0
 94
-1056964608
 47
1.0
 49
1.0
140
1.0
293
     1
141
0.0
294
     1
177
     0
142
1.0
295
     0
296
     0
143
3.75
1001
ACAD_MLEADERVER
1070
     2
  0
MLINESTYLE
  5
18
102
{ACAD_REACTORS
330
17
102
}
330
17
100
AcDbMlineStyle
  2
STANDARD
 70
     0
  3

 62
   256
 51
90.0
 52
90.0
 71
     2
 49
0.5
 62
   256
  6
BYLAYER
 49
-0.5
 62
   256
  6
BYLAYER
  0
ACDBPLACEHOLDER
  5
F
102
{ACAD_REACTORS
330
E
102
}
330
E
  0
SCALE
  5
10D
102
{ACAD_REACTORS
330
10C
102
}
330
10C
100
AcDbScale
 70
     0
300
1:1
140
1.0
141
1.0
290
     1
  0
SCALE
  5
188
102
{ACAD_REACTORS
330
10C
102
}
330
10C
100
AcDbScale
 70
     0
300
1:2
140
1.0
141
2.0
290
     0
  0
SCALE
  5
189
102
{ACAD_REACTORS
330
10C
102
}
330
10C
100
AcDbScale
 70
     0
300
1:4
140
1.0
141
4.0
290
     0
  0
SCALE
  5
18A
102
{ACAD_REACTORS
330
10C
102
}
330
10C
100
AcDbScale
 70
     0
300
1:5
140
1.0
141
5.0
290
     0
  0
SCALE
  5
18B
102
{ACAD_REACTORS
330
10C
102
}
330
10C
100
AcDbScale
 70
     0
300
1:8
140
1.0
141
8.0
290
     0
  0
SCALE
  5
18C
102
{ACAD_REACTORS
330
10C
102
}
330
10C
100
AcDbScale
 70
     0
300
1:10
140
1.0
141
10.0
290
     0
  0
SCALE
  5
18D
102
{ACAD_REACTORS
330
10C
102
}
330
10C
100
AcDbScale
 70
     0
300
1:16
140
1.0
141
16.0
290
     0
  0
SCALE
  5
18E
102
{ACAD_REACTORS
330
10C
102
}
330
10C
100
AcDbScale
 70
     0
300
1:20
140
1.0
141
20.0
290
     0
  0
SCALE
  5
18F
102
{ACAD_REACTORS
330
10C
102
}
330
10C
100
AcDbScale
 70
     0
300
1:30
140
1.0
141
30.0
290
     0
  0
SCALE
  5
190
102
{ACAD_REACTORS
330
10C
102
}
330
10C
100
AcDbScale
 70
     0
300
1:40
140
1.0
141
40.0
290
     0
  0
SCALE
  5
191
102
{ACAD_REACTORS
330
10C
102
}
330
10C
100
AcDbScale
 70
     0
300
1:50
140
1.0
141
50.0
290
     0
  0
SCALE
  5
192
102
{ACAD_REACTORS
330
10C
102
}
330
10C
100
AcDbScale
 70
     0
300
1:100
140
1.0
141
100.0
290
     0
  0
SCALE
  5
193
102
{ACAD_REACTORS
330
10C
102
}
330
10C
100
AcDbScale
 70
     0
300
2:1
140
2.0
141
1.0
290
     0
  0
SCALE
  5
194
102
{ACAD_REACTORS
330
10C
102
}
330
10C
100
AcDbScale
 70
     0
300
4:1
140
4.0
141
1.0
290
     0
  0
SCALE
  5
195
102
{ACAD_REACTORS
330
10C
102
}
330
10C
100
AcDbScale
 70
     0
300
8:1
140
8.0
141
1.0
290
     0
  0
SCALE
  5
196
102
{ACAD_REACTORS
330
10C
102
}
330
10C
100
AcDbScale
 70
     0
300
10:1
140
10.0
141
1.0
290
     0
  0
SCALE
  5
197
102
{ACAD_REACTORS
330
10C
102
}
330
10C
100
AcDbScale
 70
     0
300
100:1
140
100.0
141
1.0
290
     0
  0
SCALE
  5
198
102
{ACAD_REACTORS
330
10C
102
}
330
10C
100
AcDbScale
 70
     0
300
1/128" = 1'-0"
140
0.0078125
141
12.0
290
     0
  0
SCALE
  5
199
102
{ACAD_REACTORS
330
10C
102
}
330
10C
100
AcDbScale
 70
     0
300
1/64" = 1'-0"
140
0.015625
141
12.0
290
     0
  0
SCALE
  5
19A
102
{ACAD_REACTORS
330
10C
102
}
330
10C
100
AcDbScale
 70
     0
300
1/32" = 1'-0"
140
0.03125
141
12.0
290
     0
  0
SCALE
  5
19B
102
{ACAD_REACTORS
330
10C
102
}
330
10C
100
AcDbScale
 70
     0
300
1/16" = 1'-0"
140
0.0625
141
12.0
290
     0
  0
SCALE
  5
19C
102
{ACAD_REACTORS
330
10C
102
}
330
10C
100
AcDbScale
 70
     0
300
3/32" = 1'-0"
140
0.09375
141
12.0
290
     0
  0
SCALE
  5
19D
102
{ACAD_REACTORS
330
10C
102
}
330
10C
100
AcDbScale
 70
     0
300
1/8" = 1'-0"
140
0.125
141
12.0
290
     0
  0
SCALE
  5
19E
102
{ACAD_REACTORS
330
10C
102
}
330
10C
100
AcDbScale
 70
     0
300
3/16" = 1'-0"
140
0.1875
141
12.0
290
     0
  0
SCALE
  5
19F
102
{ACAD_REACTORS
330
10C
102
}
330
10C
100
AcDbScale
 70
     0
300
1/4" = 1'-0"
140
0.25
141
12.0
290
     0
  0
SCALE
  5
1A0
102
{ACAD_REACTORS
330
10C
102
}
330
10C
100
AcDbScale
 70
     0
300
3/8" = 1'-0"
140
0.375
141
12.0
290
     0
  0
SCALE
  5
1A1
102
{ACAD_REACTORS
330
10C
102
}
330
10C
100
AcDbScale
 70
     0
300
1/2" = 1'-0"
140
0.5
141
12.0
290
     0
  0
SCALE
  5
1A2
102
{ACAD_REACTORS
330
10C
102
}
330
10C
100
AcDbScale
 70
     0
300
3/4" = 1'-0"
140
0.75
141
12.0
290
     0
  0
SCALE
  5
1A3
102
{ACAD_REACTORS
330
10C
102
}
330
10C
100
AcDbScale
 70
     0
300
1" = 1'-0"
140
1.0
141
12.0
290
     0
  0
SCALE
  5
1A4
102
{ACAD_REACTORS
330
10C
102
}
330
10C
100
AcDbScale
 70
     0
300
1-1/2" = 1'-0"
140
1.5
141
12.0
290
     0
  0
SCALE
  5
1A5
102
{ACAD_REACTORS
330
10C
102
}
330
10C
100
AcDbScale
 70
     0
300
3" = 1'-0"
140
3.0
141
12.0
290
     0
  0
SCALE
  5
1A6
102
{ACAD_REACTORS
330
10C
102
}
330
10C
100
AcDbScale
 70
     0
300
6" = 1'-0"
140
6.0
141
12.0
290
     0
  0
SCALE
  5
1A7
102
{ACAD_REACTORS
330
10C
102
}
330
10C
100
AcDbScale
 70
     0
300
1'-0" = 1'-0"
140
12.0
141
12.0
290
     0
  0
TABLESTYLE
  5
7F
102
{ACAD_XDICTIONARY
360
162
102
}
102
{ACAD_REACTORS
330
7E
102
}
330
7E
100
AcDbTableStyle
  3
Standard
 70
     0
 71
     0
 40
1.5
 41
1.5
280
     0
281
     0
  7
Standard
140
4.5
170
     2
 62
     0
 63
     7
283
     0
274
    -2
284
     1
 64
     0
275
    -2
285
     1
 65
     0
276
    -2
286
     1
 66
     0
277
    -2
287
     1
 67
     0
278
    -2
288
     1
 68
     0
279
    -2
289
     1
 69
     0
  7
Standard
140
6.0
170
     5
 62
     0
 63
     7
283
     0
274
    -2
284
     1
 64
     0
275
    -2
285
     1
 65
     0
276
    -2
286
     1
 66
     0
277
    -2
287
     1
 67
     0
278
    -2
288
     1
 68
     0
279
    -2
289
     1
 69
     0
  7
Standard
140
4.5
170
     5
 62
     0
 63
     7
283
     0
274
    -2
284
     1
 64
     0
275
    -2
285
     1
 65
     0
276
    -2
286
     1
 66
     0
277
    -2
287
     1
 67
     0
278
    -2
288
     1
 68
     0
279
    -2
289
     1
 69
     0
  0
VISUALSTYLE
  5
F5
102
{ACAD_REACTORS
330
EF
102
}
330
EF
100
AcDbVisualStyle
  2
2dWireframe
 70
     4
 71
     0
 72
     2
 73
     1
 90
        0
 40
-0.6
 41
-30.0
 62
     5
 63
     7
 74
     1
 91
        4
 64
     7
 65
   257
 75
     1
175
     1
 42
1.0
 92
        0
 66
   257
 43
1.0
 76
     1
 77
     6
 78
     2
 67
     7
 79
     5
170
     0
171
     0
290
     0
174
     0
 93
        1
 44
0.0
173
     0
291
     0
 45
0.0
1001
ACAD
1000
AcDbSavedByObjectVersion
1070
     0
  0
VISUALSTYLE
  5
F7
102
{ACAD_REACTORS
330
EF
102
}
330
EF
100
AcDbVisualStyle
  2
3D Hidden
 70
     6
 71
     1
 72
     2
 73
     2
 90
        0
 40
-0.6
 41
-30.0
 62
     5
 63
     7
 74
     2
 91
        2
 64
     7
 65
   257
 75
     2
175
     1
 42
40.0
 92
        0
 66
   257
 43
1.0
 76
     1
 77
     6
 78
     2
 67
     7
 79
     3
170
     0
171
     0
290
     0
174
     0
 93
        1
 44
0.0
173
     0
291
     0
 45
0.0
1001
ACAD
1000
AcDbSavedByObjectVersion
1070
     0
  0
VISUALSTYLE
  5
F6
102
{ACAD_REACTORS
330
EF
102
}
330
EF
100
AcDbVisualStyle
  2
3dWireframe
 70
     5
 71
     0
 72
     2
 73
     1
 90
        0
 40
-0.6
 41
-30.0
 62
     5
 63
     7
 74
     1
 91
        4
 64
     7
 65
   257
 75
     1
175
     1
 42
1.0
 92
        0
 66
   257
 43
1.0
 76
     1
 77
     6
 78
     2
 67
     7
 79
     5
170
     0
171
     0
290
     0
174
     0
 93
        1
 44
0.0
173
     0
291
     0
 45
0.0
1001
ACAD
1000
AcDbSavedByObjectVersion
1070
     0
  0
VISUALSTYLE
  5
F4
102
{ACAD_REACTORS
330
EF
102
}
330
EF
100
AcDbVisualStyle
  2
Basic
 70
     7
 71
     1
 72
     0
 73
     1
 90
        0
 40
-0.6
 41
-30.0
 62
     5
 63
     7
 74
     0
 91
        4
 64
     7
 65
   257
 75
     1
175
     1
 42
1.0
 92
        8
 66
     7
 43
1.0
 76
     1
 77
     6
 78
     2
 67
     7
 79
     5
170
     0
171
     0
290
     0
174
     0
 93
        1
 44
0.0
173
     0
291
     1
 45
0.0
1001
ACAD
1000
AcDbSavedByObjectVersion
1070
     0
  0
VISUALSTYLE
  5
FB
102
{ACAD_REACTORS
330
EF
102
}
330
EF
100
AcDbVisualStyle
  2
Brighten
 70
    12
 71
     2
 72
     2
 73
     1
 90
        0
 40
-0.6
 41
-30.0
 62
     5
 63
     7
 74
     1
 91
        4
 64
     7
 65
   257
 75
     1
175
     1
 42
1.0
 92
        8
 66
     7
 43
1.0
 76
     1
 77
     6
 78
     2
 67
     7
 79
     5
170
     0
171
     0
290
     0
174
     0
 93
        1
 44
50.0
173
     0
291
     1
 45
0.0
1001
ACAD
1000
AcDbSavedByObjectVersion
1070
     0
  0
VISUALSTYLE
  5
FF
102
{ACAD_REACTORS
330
EF
102
}
330
EF
100
AcDbVisualStyle
  2
ColorChange
 70
    16
 71
     2
 72
     2
 73
     3
 90
        0
 40
-0.6
 41
-30.0
 62
     5
 63
     8
 74
     1
 91
        4
 64
     7
 65
   257
 75
     1
175
     1
 42
1.0
 92
        8
 66
     8
 43
1.0
 76
     1
 77
     6
 78
     2
 67
     7
 79
     5
170
     0
171
     0
290
     0
174
     0
 93
        1
 44
0.0
173
     0
291
     1
 45
0.0
1001
ACAD
1000
AcDbSavedByObjectVersion
1070
     0
  0
VISUALSTYLE
  5
F8
102
{ACAD_REACTORS
330
EF
102
}
330
EF
100
AcDbVisualStyle
  2
Conceptual
 70
     9
 71
     3
 72
     2
 73
     1
 90
        0
 40
-0.6
 41
-30.0
 62
     5
 63
     7
 74
     2
 91
        2
 64
     7
 65
   257
 75
     1
175
     1
 42
40.0
 92
        8
 66
     7
 43
1.0
 76
     1
 77
     6
 78
     2
 67
     7
 79
     3
170
     0
171
     0
290
     0
174
     0
 93
        1
 44
0.0
173
     0
291
     0
 45
0.0
1001
ACAD
1000
AcDbSavedByObjectVersion
1070
     0
  0
VISUALSTYLE
  5
FA
102
{ACAD_REACTORS
330
EF
102
}
330
EF
100
AcDbVisualStyle
  2
Dim
 70
    11
 71
     2
 72
     2
 73
     1
 90
        0
 40
-0.6
 41
-30.0
 62
     5
 63
     7
 74
     1
 91
        4
 64
     7
 65
   257
 75
     1
175
     1
 42
1.0
 92
        8
 66
     7
 43
1.0
 76
     1
 77
     6
 78
     2
 67
     7
 79
     5
170
     0
171
     0
290
     0
174
     0
 93
        1
 44
-50.0
173
     0
291
     1
 45
0.0
1001
ACAD
1000
AcDbSavedByObjectVersion
1070
     0
  0
VISUALSTYLE
  5
FE
102
{ACAD_REACTORS
330
EF
102
}
330
EF
100
AcDbVisualStyle
  2
Facepattern
 70
    15
 71
     2
 72
     2
 73
     1
 90
        0
 40
-0.6
 41
-30.0
 62
     5
 63
     7
 74
     1
 91
        4
 64
     7
 65
   257
 75
     1
175
     1
 42
1.0
 92
        8
 66
     7
 43
1.0
 76
     1
 77
     6
 78
     2
 67
     7
 79
     5
170
     0
171
     0
290
     0
174
     0
 93
        1
 44
0.0
173
     0
291
     1
 45
0.0
1001
ACAD
1000
AcDbSavedByObjectVersion
1070
     0
  0
VISUALSTYLE
  5
F0
102
{ACAD_REACTORS
330
EF
102
}
330
EF
100
AcDbVisualStyle
  2
Flat
 70
     0
 71
     2
 72
     1
 73
     1
 90
        2
 40
-0.6
 41
30.0
 62
     5
 63
     7
 74
     0
 91
        4
 64
     7
 65
   257
 75
     1
175
     1
 42
1.0
 92
        8
 66
     7
 43
1.0
 76
     1
 77
     6
 78
     2
 67
     7
 79
     5
170
     0
171
     0
290
     0
174
     0
 93
        1
 44
0.0
173
     0
291
     1
 45
0.0
1001
ACAD
1000
AcDbSavedByObjectVersion
1070
     0
  0
VISUALSTYLE
  5
F1
102
{ACAD_REACTORS
330
EF
102
}
330
EF
100
AcDbVisualStyle
  2
FlatWithEdges
 70
     1
 71
     2
 72
     1
 73
     1
 90
        2
 40
-0.6
 41
30.0
 62
     5
 63
     7
 74
     1
 91
        4
 64
     7
 65
   257
 75
     1
175
     1
 42
1.0
 92
        0
 66
   257
 43
1.0
 76
     1
 77
     6
 78
     2
 67
     7
 79
     5
170
     0
171
     0
290
     0
174
     0
 93
        1
 44
0.0
173
     0
291
     1
 45
0.0
1001
ACAD
1000
AcDbSavedByObjectVersion
1070
     0
  0
VISUALSTYLE
  5
F2
102
{ACAD_REACTORS
330
EF
102
}
330
EF
100
AcDbVisualStyle
  2
Gouraud
 70
     2
 71
     2
 72
     2
 73
     1
 90
        2
 40
-0.6
 41
30.0
 62
     5
 63
     7
 74
     0
 91
        4
 64
     7
 65
   257
 75
     1
175
     1
 42
1.0
 92
        0
 66
     7
 43
1.0
 76
     1
 77
     6
 78
     2
 67
     7
 79
     5
170
     0
171
     0
290
     0
174
     0
 93
        1
 44
0.0
173
     0
291
     1
 45
0.0
1001
ACAD
1000
AcDbSavedByObjectVersion
1070
     0
  0
VISUALSTYLE
  5
F3
102
{ACAD_REACTORS
330
EF
102
}
330
EF
100
AcDbVisualStyle
  2
GouraudWithEdges
 70
     3
 71
     2
 72
     2
 73
     1
 90
        2
 40
-0.6
 41
30.0
 62
     5
 63
     7
 74
     1
 91
        4
 64
     7
 65
   257
 75
     1
175
     1
 42
1.0
 92
        0
 66
   257
 43
1.0
 76
     1
 77
     6
 78
     2
 67
     7
 79
     5
170
     0
171
     0
290
     0
174
     0
 93
        1
 44
0.0
173
     0
291
     1
 45
0.0
1001
ACAD
1000
AcDbSavedByObjectVersion
1070
     0
  0
VISUALSTYLE
  5
FD
102
{ACAD_REACTORS
330
EF
102
}
330
EF
100
AcDbVisualStyle
  2
Linepattern
 70
    14
 71
     2
 72
     2
 73
     1
 90
        0
 40
-0.6
 41
-30.0
 62
     5
 63
     7
 74
     1
 91
        4
 64
     7
 65
   257
 75
     7
175
     7
 42
1.0
 92
        8
 66
     7
 43
1.0
 76
     1
 77
     6
 78
     2
 67
     7
 79
     5
170
     0
171
     0
290
     0
174
     0
 93
        1
 44
0.0
173
     0
291
     1
 45
0.0
1001
ACAD
1000
AcDbSavedByObjectVersion
1070
     0
  0
VISUALSTYLE
  5
F9
102
{ACAD_REACTORS
330
EF
102
}
330
EF
100
AcDbVisualStyle
  2
Realistic
 70
     8
 71
     2
 72
     2
 73
     1
 90
        0
 40
-0.6
 41
-30.0
 62
     5
 63
     7
 74
     1
 91
        0
 64
     7
 65
   257
 75
     1
175
     1
 42
1.0
 92
        8
 66
     8
 43
1.0
 76
     1
 77
     6
 78
     2
 67
     7
 79
     5
170
     0
171
     0
290
     0
174
     0
 93
       13
 44
0.0
173
     0
291
     0
 45
0.0
1001
ACAD
1000
AcDbSavedByObjectVersion
1070
     0
  0
VISUALSTYLE
  5
FC
102
{ACAD_REACTORS
330
EF
102
}
330
EF
100
AcDbVisualStyle
  2
Thicken
 70
    13
 71
     2
 72
     2
 73
     1
 90
        0
 40
-0.6
 41
-30.0
 62
     5
 63
     7
 74
     1
 91
        4
 64
     7
 65
   257
 75
     1
175
     1
 42
1.0
 92
       12
 66
     7
 43
1.0
 76
     1
 77
     6
 78
     2
 67
     7
 79
     5
170
     0
171
     0
290
     0
174
     0
 93
        1
 44
0.0
173
     0
291
     1
 45
0.0
1001
ACAD
1000
AcDbSavedByObjectVersion
1070
     0
  0
DICTIONARYVAR
  5
146
102
{ACAD_REACTORS
330
5E
102
}
330
5E
100
DictionaryVariables
280
     0
  1
1:1
  0
DICTIONARYVAR
  5
145
102
{ACAD_REACTORS
330
5E
102
}
330
5E
100
DictionaryVariables
280
     0
  1
STANDARD
  0
DICTIONARYVAR
  5
84
102
{ACAD_REACTORS
330
5E
102
}
330
5E
100
DictionaryVariables
280
     0
  1
STANDARD
  0
DICTIONARYVAR
  5
5F
102
{ACAD_REACTORS
330
5E
102
}
330
5E
100
DictionaryVariables
280
     0
  1
2
  0
DICTIONARYVAR
  5
63
102
{ACAD_REACTORS
330
5E
102
}
330
5E
100
DictionaryVariables
280
     0
  1
1
  0
DICTIONARYVAR
  5
434
102
{ACAD_REACTORS
330
5E
102
}
330
5E
100
DictionaryVariables
280
     0
  1
0
  0
DICTIONARYVAR
  5
432
102
{ACAD_REACTORS
330
5E
102
}
330
5E
100
DictionaryVariables
280
     0
  1
2
  0
DICTIONARYVAR
  5
431
102
{ACAD_REACTORS
330
5E
102
}
330
5E
100
DictionaryVariables
280
     0
  1
1
  0
DICTIONARYVAR
  5
436
102
{ACAD_REACTORS
330
5E
102
}
330
5E
100
DictionaryVariables
280
     0
  1
80.000000
  0
DICTIONARYVAR
  5
435
102
{ACAD_REACTORS
330
5E
102
}
330
5E
100
DictionaryVariables
280
     0
  1
5.000000
  0
DICTIONARYVAR
  5
433
102
{ACAD_REACTORS
330
5E
102
}
330
5E
100
DictionaryVariables
280
     0
  1
127
  0
DICTIONARY
  5
43C
330
D3
100
AcDbDictionary
280
     1
281
     1
  3
ACAD_XREC_ROUNDTRIP
360
43D
  0
DICTIONARY
  5
43E
330
D7
100
AcDbDictionary
280
     1
281
     1
  3
ACAD_XREC_ROUNDTRIP
360
43F
  0
DICTIONARY
  5
439
330
22
100
AcDbDictionary
280
     1
281
     1
  3
ACAD_XREC_ROUNDTRIP
360
43A
  0
DICTIONARY
  5
442
330
ED
100
AcDbDictionary
280
     1
281
     1
  3
ACAD_XREC_ROUNDTRIP
360
443
  0
DICTIONARY
  5
440
330
EC
100
AcDbDictionary
280
     1
281
     1
  3
ACAD_XREC_ROUNDTRIP
360
441
  0
DICTIONARY
  5
173
330
EE
100
AcDbDictionary
280
     1
281
     1
  3
ACAD_XREC_ROUNDTRIP
360
444
  3
BUMPTILE
360
175
  3
DIFFUSETILE
360
174
  3
OPACITYTILE
360
176
  3
REFLECTIONTILE
360
177
  0
DICTIONARY
  5
162
330
7F
100
AcDbDictionary
280
     1
281
     1
  3
ACAD_ROUNDTRIP_2008_TABLESTYLE_CELLSTYLEMAP
360
437
  3
ACAD_XREC_ROUNDTRIP
360
43B
  0
XRECORD
  5
43D
102
{ACAD_REACTORS
330
43C
102
}
330
43C
100
AcDbXrecord
280
     1
102
SHADEPLOT
 70
     0
102
SHADEPLOTRESLEVEL
 70
     2
102
SHADEPLOTCUSTOMDPI
 70
   300
  0
XRECORD
  5
43F
102
{ACAD_REACTORS
330
43E
102
}
330
43E
100
AcDbXrecord
280
     1
102
SHADEPLOT
 70
     0
102
SHADEPLOTRESLEVEL
 70
     2
102
SHADEPLOTCUSTOMDPI
 70
   300
  0
XRECORD
  5
43A
102
{ACAD_REACTORS
330
439
102
}
330
439
100
AcDbXrecord
280
     1
102
SHADEPLOT
 70
     0
102
SHADEPLOTRESLEVEL
 70
     2
102
SHADEPLOTCUSTOMDPI
 70
   300
  0
XRECORD
  5
443
102
{ACAD_REACTORS
330
442
102
}
330
442
100
AcDbXrecord
280
     1
102
MATERIAL
148
0.0
149
0.0
149
0.0
 93
        0
 94
       63
282
     0
 72
     1
 77
     1
171
     1
175
     1
179
     1
273
     0
  0
XRECORD
  5
441
102
{ACAD_REACTORS
330
440
102
}
330
440
100
AcDbXrecord
280
     1
102
MATERIAL
148
0.0
149
0.0
149
0.0
 93
        0
 94
       63
282
     0
 72
     1
 77
     1
171
     1
175
     1
179
     1
273
     0
  0
XRECORD
  5
444
102
{ACAD_REACTORS
330
173
102
}
330
173
100
AcDbXrecord
280
     1
102
MATERIAL
148
0.0
149
0.0
149
0.0
 93
        0
 94
       63
282
     0
 72
     1
 77
     1
171
     1
175
     1
179
     1
273
     0
  0
XRECORD
  5
175
102
{ACAD_REACTORS
330
173
102
}
330
173
100
AcDbXrecord
280
     1
270
     1
271
     1
  0
XRECORD
  5
174
102
{ACAD_REACTORS
330
173
102
}
330
173
100
AcDbXrecord
280
     1
270
     1
271
     1
  0
XRECORD
  5
176
102
{ACAD_REACTORS
330
173
102
}
330
173
100
AcDbXrecord
280
     1
270
     1
271
     1
  0
XRECORD
  5
177
102
{ACAD_REACTORS
330
173
102
}
330
173
100
AcDbXrecord
280
     1
270
     1
271
     1
  0
CELLSTYLEMAP
  5
437
102
{ACAD_REACTORS
330
162
102
}
330
162
100
AcDbCellStyleMap
 90
        3
300
CELLSTYLE
  1
TABLEFORMAT_BEGIN
 90
        5
170
     1
 91
        0
 92
    32768
 62
   257
 93
        1
300
CONTENTFORMAT
  1
CONTENTFORMAT_BEGIN
 90
        0
 91
        0
 92
      512
 93
        0
300

 40
0.0
140
1.0
 94
        5
 62
     0
340
11
144
6.0
309
CONTENTFORMAT_END
171
     1
301
MARGIN
  1
CELLMARGIN_BEGIN
 40
1.5
 40
1.5
 40
1.5
 40
1.5
 40
4.5
 40
4.5
309
CELLMARGIN_END
 94
        6
 95
        1
302
GRIDFORMAT
  1
GRIDFORMAT_BEGIN
 90
        0
 91
        1
 62
     0
 92
       -2
340
14
 93
        0
 40
1.125
309
GRIDFORMAT_END
 95
        2
302
GRIDFORMAT
  1
GRIDFORMAT_BEGIN
 90
        0
 91
        1
 62
     0
 92
       -2
340
14
 93
        0
 40
1.125
309
GRIDFORMAT_END
 95
        4
302
GRIDFORMAT
  1
GRIDFORMAT_BEGIN
 90
        0
 91
        1
 62
     0
 92
       -2
340
14
 93
        0
 40
1.125
309
GRIDFORMAT_END
 95
        8
302
GRIDFORMAT
  1
GRIDFORMAT_BEGIN
 90
        0
 91
        1
 62
     0
 92
       -2
340
14
 93
        0
 40
1.125
309
GRIDFORMAT_END
 95
       16
302
GRIDFORMAT
  1
GRIDFORMAT_BEGIN
 90
        0
 91
        1
 62
     0
 92
       -2
340
14
 93
        0
 40
1.125
309
GRIDFORMAT_END
 95
       32
302
GRIDFORMAT
  1
GRIDFORMAT_BEGIN
 90
        0
 91
        1
 62
     0
 92
       -2
340
14
 93
        0
 40
1.125
309
GRIDFORMAT_END
309
TABLEFORMAT_END
  1
CELLSTYLE_BEGIN
 90
        1
 91
        1
300
_TITLE
309
CELLSTYLE_END
300
CELLSTYLE
  1
TABLEFORMAT_BEGIN
 90
        5
170
     1
 91
        0
 92
        0
 62
   257
 93
        1
300
CONTENTFORMAT
  1
CONTENTFORMAT_BEGIN
 90
        0
 91
        0
 92
      512
 93
        0
300

 40
0.0
140
1.0
 94
        5
 62
     0
340
11
144
4.5
309
CONTENTFORMAT_END
171
     1
301
MARGIN
  1
CELLMARGIN_BEGIN
 40
1.5
 40
1.5
 40
1.5
 40
1.5
 40
4.5
 40
4.5
309
CELLMARGIN_END
 94
        6
 95
        1
302
GRIDFORMAT
  1
GRIDFORMAT_BEGIN
 90
        0
 91
        1
 62
     0
 92
       -2
340
14
 93
        0
 40
1.125
309
GRIDFORMAT_END
 95
        2
302
GRIDFORMAT
  1
GRIDFORMAT_BEGIN
 90
        0
 91
        1
 62
     0
 92
       -2
340
14
 93
        0
 40
1.125
309
GRIDFORMAT_END
 95
        4
302
GRIDFORMAT
  1
GRIDFORMAT_BEGIN
 90
        0
 91
        1
 62
     0
 92
       -2
340
14
 93
        0
 40
1.125
309
GRIDFORMAT_END
 95
        8
302
GRIDFORMAT
  1
GRIDFORMAT_BEGIN
 90
        0
 91
        1
 62
     0
 92
       -2
340
14
 93
        0
 40
1.125
309
GRIDFORMAT_END
 95
       16
302
GRIDFORMAT
  1
GRIDFORMAT_BEGIN
 90
        0
 91
        1
 62
     0
 92
       -2
340
14
 93
        0
 40
1.125
309
GRIDFORMAT_END
 95
       32
302
GRIDFORMAT
  1
GRIDFORMAT_BEGIN
 90
        0
 91
        1
 62
     0
 92
       -2
340
14
 93
        0
 40
1.125
309
GRIDFORMAT_END
309
TABLEFORMAT_END
  1
CELLSTYLE_BEGIN
 90
        2
 91
        1
300
_HEADER
309
CELLSTYLE_END
300
CELLSTYLE
  1
TABLEFORMAT_BEGIN
 90
        5
170
     1
 91
        0
 92
        0
 62
   257
 93
        1
300
CONTENTFORMAT
  1
CONTENTFORMAT_BEGIN
 90
        0
 91
        0
 92
      512
 93
        0
300

 40
0.0
140
1.0
 94
        2
 62
     0
340
11
144
4.5
309
CONTENTFORMAT_END
171
     1
301
MARGIN
  1
CELLMARGIN_BEGIN
 40
1.5
 40
1.5
 40
1.5
 40
1.5
 40
4.5
 40
4.5
309
CELLMARGIN_END
 94
        6
 95
        1
302
GRIDFORMAT
  1
GRIDFORMAT_BEGIN
 90
        0
 91
        1
 62
     0
 92
       -2
340
14
 93
        0
 40
1.125
309
GRIDFORMAT_END
 95
        2
302
GRIDFORMAT
  1
GRIDFORMAT_BEGIN
 90
        0
 91
        1
 62
     0
 92
       -2
340
14
 93
        0
 40
1.125
309
GRIDFORMAT_END
 95
        4
302
GRIDFORMAT
  1
GRIDFORMAT_BEGIN
 90
        0
 91
        1
 62
     0
 92
       -2
340
14
 93
        0
 40
1.125
309
GRIDFORMAT_END
 95
        8
302
GRIDFORMAT
  1
GRIDFORMAT_BEGIN
 90
        0
 91
        1
 62
     0
 92
       -2
340
14
 93
        0
 40
1.125
309
GRIDFORMAT_END
 95
       16
302
GRIDFORMAT
  1
GRIDFORMAT_BEGIN
 90
        0
 91
        1
 62
     0
 92
       -2
340
14
 93
        0
 40
1.125
309
GRIDFORMAT_END
 95
       32
302
GRIDFORMAT
  1
GRIDFORMAT_BEGIN
 90
        0
 91
        1
 62
     0
 92
       -2
340
14
 93
        0
 40
1.125
309
GRIDFORMAT_END
309
TABLEFORMAT_END
  1
CELLSTYLE_BEGIN
 90
        3
 91
        2
300
_DATA
309
CELLSTYLE_END
  0
XRECORD
  5
43B
102
{ACAD_REACTORS
330
162
102
}
330
162
100
AcDbXrecord
280
     1
102
ACAD_ROUNDTRIP_PRE2007_TABLESTYLE
 90
      512
 91
        0
  1

 92
      512
 93
        0
  2

 94
      512
 95
        0
  3

  0
ENDSEC
  0
EOF
