  0
SECTION
  2
HEADER
  9
$ACADVER
  1
AC1015
  9
$ACADMAINTVER
 70
    20
  9
$DWGCODEPAGE
  3
ANSI_1254
  9
$INSBASE
 10
0.0
 20
0.0
 30
0.0
  9
$EXTMIN
 10
1760.623197069979
 20
1328.218159541356
 30
0.0
  9
$EXTMAX
 10
1948.278938208028
 20
1383.556578816683
 30
0.0
  9
$LIMMIN
 10
0.0
 20
0.0
  9
$LIMMAX
 10
420.0
 20
297.0
  9
$ORTHOMODE
 70
     0
  9
$REGENMODE
 70
     1
  9
$FILLMODE
 70
     1
  9
$QTEXTMODE
 70
     0
  9
$MIRRTEXT
 70
     0
  9
$LTSCALE
 40
1.0
  9
$ATTMODE
 70
     1
  9
$TEXTSIZE
 40
2.5
  9
$TRACEWID
 40
1.0
  9
$TEXTSTYLE
  7
Standard
  9
$CLAYER
  8
0
  9
$CELTYPE
  6
ByLayer
  9
$CECOLOR
 62
   256
  9
$CELTSCALE
 40
1.0
  9
$DISPSILH
 70
     0
  9
$DIMSCALE
 40
1.0
  9
$DIMASZ
 40
2.5
  9
$DIMEXO
 40
0.625
  9
$DIMDLI
 40
3.75
  9
$DIMRND
 40
0.0
  9
$DIMDLE
 40
0.0
  9
$DIMEXE
 40
1.25
  9
$DIMTP
 40
0.0
  9
$DIMTM
 40
0.0
  9
$DIMTXT
 40
2.5
  9
$DIMCEN
 40
2.5
  9
$DIMTSZ
 40
0.0
  9
$DIMTOL
 70
     0
  9
$DIMLIM
 70
     0
  9
$DIMTIH
 70
     0
  9
$DIMTOH
 70
     0
  9
$DIMSE1
 70
     0
  9
$DIMSE2
 70
     0
  9
$DIMTAD
 70
     1
  9
$DIMZIN
 70
     8
  9
$DIMBLK
  1

  9
$DIMASO
 70
     1
  9
$DIMSHO
 70
     1
  9
$DIMPOST
  1

  9
$DIMAPOST
  1

  9
$DIMALT
 70
     0
  9
$DIMALTD
 70
     3
  9
$DIMALTF
 40
0.03937007874016
  9
$DIMLFAC
 40
1.0
  9
$DIMTOFL
 70
     1
  9
$DIMTVP
 40
0.0
  9
$DIMTIX
 70
     0
  9
$DIMSOXD
 70
     0
  9
$DIMSAH
 70
     0
  9
$DIMBLK1
  1

  9
$DIMBLK2
  1

  9
$DIMSTYLE
  2
ISO-25
  9
$DIMCLRD
 70
     0
  9
$DIMCLRE
 70
     0
  9
$DIMCLRT
 70
     0
  9
$DIMTFAC
 40
1.0
  9
$DIMGAP
 40
0.625
  9
$DIMJUST
 70
     0
  9
$DIMSD1
 70
     0
  9
$DIMSD2
 70
     0
  9
$DIMTOLJ
 70
     0
  9
$DIMTZIN
 70
     8
  9
$DIMALTZ
 70
     0
  9
$DIMALTTZ
 70
     0
  9
$DIMUPT
 70
     0
  9
$DIMDEC
 70
     2
  9
$DIMTDEC
 70
     2
  9
$DIMALTU
 70
     2
  9
$DIMALTTD
 70
     3
  9
$DIMTXSTY
  7
Standard
  9
$DIMAUNIT
 70
     0
  9
$DIMADEC
 70
     0
  9
$DIMALTRND
 40
0.0
  9
$DIMAZIN
 70
     0
  9
$DIMDSEP
 70
    44
  9
$DIMATFIT
 70
     3
  9
$DIMFRAC
 70
     0
  9
$DIMLDRBLK
  1

  9
$DIMLUNIT
 70
     2
  9
$DIMLWD
 70
    -2
  9
$DIMLWE
 70
    -2
  9
$DIMTMOVE
 70
     0
  9
$LUNITS
 70
     2
  9
$LUPREC
 70
     4
  9
$SKETCHINC
 40
1.0
  9
$FILLETRAD
 40
0.0
  9
$AUNITS
 70
     0
  9
$AUPREC
 70
     0
  9
$MENU
  1
.
  9
$ELEVATION
 40
0.0
  9
$PELEVATION
 40
0.0
  9
$THICKNESS
 40
0.0
  9
$LIMCHECK
 70
     0
  9
$CHAMFERA
 40
0.0
  9
$CHAMFERB
 40
0.0
  9
$CHAMFERC
 40
0.0
  9
$CHAMFERD
 40
0.0
  9
$SKPOLY
 70
     0
  9
$TDCREATE
 40
2458935.413692454
  9
$TDUCREATE
 40
2458935.288692454
  9
$TDUPDATE
 40
2458956.460451400
  9
$TDUUPDATE
 40
2458956.335451401
  9
$TDINDWG
 40
0.0021086111
  9
$TDUSRTIMER
 40
0.0021086111
  9
$USRTIMER
 70
     1
  9
$ANGBASE
 50
0.0
  9
$ANGDIR
 70
     0
  9
$PDMODE
 70
     0
  9
$PDSIZE
 40
0.0
  9
$PLINEWID
 40
0.0
  9
$SPLFRAME
 70
     0
  9
$SPLINETYPE
 70
     6
  9
$SPLINESEGS
 70
     8
  9
$HANDSEED
  5
838
  9
$SURFTAB1
 70
     6
  9
$SURFTAB2
 70
     6
  9
$SURFTYPE
 70
     6
  9
$SURFU
 70
     6
  9
$SURFV
 70
     6
  9
$UCSBASE
  2

  9
$UCSNAME
  2

  9
$UCSORG
 10
0.0
 20
0.0
 30
0.0
  9
$UCSXDIR
 10
1.0
 20
0.0
 30
0.0
  9
$UCSYDIR
 10
0.0
 20
1.0
 30
0.0
  9
$UCSORTHOREF
  2

  9
$UCSORTHOVIEW
 70
     0
  9
$UCSORGTOP
 10
0.0
 20
0.0
 30
0.0
  9
$UCSORGBOTTOM
 10
0.0
 20
0.0
 30
0.0
  9
$UCSORGLEFT
 10
0.0
 20
0.0
 30
0.0
  9
$UCSORGRIGHT
 10
0.0
 20
0.0
 30
0.0
  9
$UCSORGFRONT
 10
0.0
 20
0.0
 30
0.0
  9
$UCSORGBACK
 10
0.0
 20
0.0
 30
0.0
  9
$PUCSBASE
  2

  9
$PUCSNAME
  2

  9
$PUCSORG
 10
0.0
 20
0.0
 30
0.0
  9
$PUCSXDIR
 10
1.0
 20
0.0
 30
0.0
  9
$PUCSYDIR
 10
0.0
 20
1.0
 30
0.0
  9
$PUCSORTHOREF
  2

  9
$PUCSORTHOVIEW
 70
     0
  9
$PUCSORGTOP
 10
0.0
 20
0.0
 30
0.0
  9
$PUCSORGBOTTOM
 10
0.0
 20
0.0
 30
0.0
  9
$PUCSORGLEFT
 10
0.0
 20
0.0
 30
0.0
  9
$PUCSORGRIGHT
 10
0.0
 20
0.0
 30
0.0
  9
$PUCSORGFRONT
 10
0.0
 20
0.0
 30
0.0
  9
$PUCSORGBACK
 10
0.0
 20
0.0
 30
0.0
  9
$USERI1
 70
     0
  9
$USERI2
 70
     0
  9
$USERI3
 70
     0
  9
$USERI4
 70
     0
  9
$USERI5
 70
     0
  9
$USERR1
 40
0.0
  9
$USERR2
 40
0.0
  9
$USERR3
 40
0.0
  9
$USERR4
 40
0.0
  9
$USERR5
 40
0.0
  9
$WORLDVIEW
 70
     1
  9
$SHADEDGE
 70
     3
  9
$SHADEDIF
 70
    70
  9
$TILEMODE
 70
     1
  9
$MAXACTVP
 70
    64
  9
$PINSBASE
 10
0.0
 20
0.0
 30
0.0
  9
$PLIMCHECK
 70
     0
  9
$PEXTMIN
 10
0.0
 20
0.0
 30
0.0
  9
$PEXTMAX
 10
0.0
 20
0.0
 30
0.0
  9
$PLIMMIN
 10
0.0
 20
0.0
  9
$PLIMMAX
 10
12.0
 20
9.0
  9
$UNITMODE
 70
     0
  9
$VISRETAIN
 70
     1
  9
$PLINEGEN
 70
     0
  9
$PSLTSCALE
 70
     1
  9
$TREEDEPTH
 70
  3020
  9
$CMLSTYLE
  2
Standard
  9
$CMLJUST
 70
     0
  9
$CMLSCALE
 40
20.0
  9
$PROXYGRAPHICS
 70
     1
  9
$MEASUREMENT
 70
     1
  9
$CELWEIGHT
370
    -1
  9
$ENDCAPS
280
     0
  9
$JOINSTYLE
280
     0
  9
$LWDISPLAY
290
     0
  9
$INSUNITS
 70
     4
  9
$HYPERLINKBASE
  1

  9
$STYLESHEET
  1

  9
$XEDIT
290
     1
  9
$CEPSNTYPE
380
     0
  9
$PSTYLEMODE
290
     1
  9
$FINGERPRINTGUID
  2
{58EB91D1-DEBF-47A6-ADD8-4359576EBF5B}
  9
$VERSIONGUID
  2
{7A52D1C4-C585-4C96-8D0B-4CD98834EA82}
  9
$EXTNAMES
290
     1
  9
$PSVPSCALE
 40
0.0
  9
$OLESTARTUP
290
     0
  0
ENDSEC
  0
SECTION
  2
CLASSES
  0
CLASS
  1
ACDBDICTIONARYWDFLT
  2
AcDbDictionaryWithDefault
  3
ObjectDBX Classes
 90
        0
280
     0
281
     0
  0
CLASS
  1
ACDBPLACEHOLDER
  2
AcDbPlaceHolder
  3
ObjectDBX Classes
 90
        0
280
     0
281
     0
  0
CLASS
  1
LAYOUT
  2
AcDbLayout
  3
ObjectDBX Classes
 90
        0
280
     0
281
     0
  0
CLASS
  1
DICTIONARYVAR
  2
AcDbDictionaryVar
  3
ObjectDBX Classes
 90
        0
280
     0
281
     0
  0
CLASS
  1
TABLESTYLE
  2
AcDbTableStyle
  3
ObjectDBX Classes
 90
     4095
280
     0
281
     0
  0
CLASS
  1
MATERIAL
  2
AcDbMaterial
  3
ObjectDBX Classes
 90
     1153
280
     0
281
     0
  0
CLASS
  1
VISUALSTYLE
  2
AcDbVisualStyle
  3
ObjectDBX Classes
 90
     4095
280
     0
281
     0
  0
CLASS
  1
SCALE
  2
AcDbScale
  3
ObjectDBX Classes
 90
     1153
280
     0
281
     0
  0
CLASS
  1
MLEADERSTYLE
  2
AcDbMLeaderStyle
  3
ACDB_MLEADERSTYLE_CLASS
 90
     4095
280
     0
281
     0
  0
CLASS
  1
CELLSTYLEMAP
  2
AcDbCellStyleMap
  3
ObjectDBX Classes
 90
     1152
280
     0
281
     0
  0
ENDSEC
  0
SECTION
  2
TABLES
  0
TABLE
  2
VPORT
  5
8
330
0
100
AcDbSymbolTable
 70
     1
  0
VPORT
  5
EA
330
8
100
AcDbSymbolTableRecord
100
AcDbViewportTableRecord
  2
*Active
 70
     0
 10
0.0
 20
0.0
 11
1.0
 21
1.0
 12
1854.471049031581
 22
1360.320232060249
 13
0.0
 23
0.0
 14
10.0
 24
10.0
 15
10.0
 25
10.0
 16
0.0
 26
0.0
 36
1.0
 17
0.0
 27
0.0
 37
0.0
 40
86.95190087132827
 41
1.903110047846889
 42
50.0
 43
0.0
 44
0.0
 50
0.0
 51
0.0
 71
     0
 72
  1000
 73
     1
 74
     3
 75
     0
 76
     0
 77
     0
 78
     0
281
     0
 65
     1
110
0.0
120
0.0
130
0.0
111
1.0
121
0.0
131
0.0
112
0.0
122
1.0
132
0.0
 79
     0
146
0.0
  0
ENDTAB
  0
TABLE
  2
LTYPE
  5
5
330
0
100
AcDbSymbolTable
 70
     1
  0
LTYPE
  5
14
330
5
100
AcDbSymbolTableRecord
100
AcDbLinetypeTableRecord
  2
ByBlock
 70
     0
  3

 72
    65
 73
     0
 40
0.0
  0
LTYPE
  5
15
330
5
100
AcDbSymbolTableRecord
100
AcDbLinetypeTableRecord
  2
ByLayer
 70
     0
  3

 72
    65
 73
     0
 40
0.0
  0
LTYPE
  5
16
330
5
100
AcDbSymbolTableRecord
100
AcDbLinetypeTableRecord
  2
Continuous
 70
     0
  3
Solid line
 72
    65
 73
     0
 40
0.0
  0
ENDTAB
  0
TABLE
  2
LAYER
  5
2
330
0
100
AcDbSymbolTable
 70
     1
  0
LAYER
  5
10
102
{ACAD_XDICTIONARY
360
13C
102
}
330
2
100
AcDbSymbolTableRecord
100
AcDbLayerTableRecord
  2
0
 70
     0
 62
     7
  6
Continuous
370
    -3
390
F
  0
ENDTAB
  0
TABLE
  2
STYLE
  5
3
330
0
100
AcDbSymbolTable
 70
     2
  0
STYLE
  5
11
330
3
100
AcDbSymbolTableRecord
100
AcDbTextStyleTableRecord
  2
Standard
 70
     0
 40
0.0
 41
1.0
 50
0.0
 71
     0
 42
2.5
  3
txt
  4

  0
STYLE
  5
132
330
3
100
AcDbSymbolTableRecord
100
AcDbTextStyleTableRecord
  2
Annotative
 70
     0
 40
0.0
 41
1.0
 50
0.0
 71
     0
 42
2.5
  3
txt.shx
  4

1001
AcadAnnotative
1000
AnnotativeData
1002
{
1070
     1
1070
     1
1002
}
  0
ENDTAB
  0
TABLE
  2
VIEW
  5
6
330
0
100
AcDbSymbolTable
 70
     0
  0
ENDTAB
  0
TABLE
  2
UCS
  5
7
330
0
100
AcDbSymbolTable
 70
     0
  0
ENDTAB
  0
TABLE
  2
APPID
  5
9
330
0
100
AcDbSymbolTable
 70
     7
  0
APPID
  5
12
330
9
100
AcDbSymbolTableRecord
100
AcDbRegAppTableRecord
  2
ACAD
 70
     0
  0
APPID
  5
9E
330
9
100
AcDbSymbolTableRecord
100
AcDbRegAppTableRecord
  2
ACAD_PSEXT
 70
     0
  0
APPID
  5
133
330
9
100
AcDbSymbolTableRecord
100
AcDbRegAppTableRecord
  2
AcadAnnoPO
 70
     0
  0
APPID
  5
134
330
9
100
AcDbSymbolTableRecord
100
AcDbRegAppTableRecord
  2
AcadAnnotative
 70
     0
  0
APPID
  5
135
330
9
100
AcDbSymbolTableRecord
100
AcDbRegAppTableRecord
  2
ACAD_DSTYLE_DIMJAG
 70
     0
  0
APPID
  5
136
330
9
100
AcDbSymbolTableRecord
100
AcDbRegAppTableRecord
  2
ACAD_DSTYLE_DIMTALN
 70
     0
  0
APPID
  5
165
330
9
100
AcDbSymbolTableRecord
100
AcDbRegAppTableRecord
  2
ACAD_MLEADERVER
 70
     0
  0
ENDTAB
  0
TABLE
  2
DIMSTYLE
  5
A
330
0
100
AcDbSymbolTable
 70
     2
100
AcDbDimStyleTable
 71
     2
340
27
340
137
  0
DIMSTYLE
105
27
330
A
100
AcDbSymbolTableRecord
100
AcDbDimStyleTableRecord
  2
ISO-25
 70
     0
 41
2.5
 42
0.625
 43
3.75
 44
1.25
 73
     0
 74
     0
 77
     1
 78
     8
140
2.5
141
2.5
143
0.03937007874016
147
0.625
171
     3
172
     1
271
     2
272
     2
274
     3
278
    44
283
     0
284
     8
340
11
  0
DIMSTYLE
105
137
330
A
100
AcDbSymbolTableRecord
100
AcDbDimStyleTableRecord
  2
Annotative
 70
     0
 40
0.0
 41
2.5
 42
0.625
 43
3.75
 44
1.25
 73
     0
 74
     0
 77
     1
 78
     8
140
2.5
141
2.5
143
0.03937007874016
147
0.625
171
     3
172
     1
271
     2
272
     2
274
     3
278
    44
283
     0
284
     8
340
11
1001
AcadAnnotative
1000
AnnotativeData
1002
{
1070
     1
1070
     1
1002
}
1001
ACAD_DSTYLE_DIMJAG
1070
   388
1040
1.5
1001
ACAD_DSTYLE_DIMTALN
1070
   392
1070
     0
  0
ENDTAB
  0
TABLE
  2
BLOCK_RECORD
  5
1
330
0
100
AcDbSymbolTable
 70
     5
  0
BLOCK_RECORD
  5
1F
330
1
100
AcDbSymbolTableRecord
100
AcDbBlockTableRecord
  2
*Model_Space
340
22
  0
BLOCK_RECORD
  5
D2
330
1
100
AcDbSymbolTableRecord
100
AcDbBlockTableRecord
  2
*Paper_Space
340
D3
  0
BLOCK_RECORD
  5
D6
330
1
100
AcDbSymbolTableRecord
100
AcDbBlockTableRecord
  2
*Paper_Space0
340
D7
  0
BLOCK_RECORD
  5
5EF
330
1
100
AcDbSymbolTableRecord
100
AcDbBlockTableRecord
  2
1
340
0
310
2800000020000000200000000100080000000000000400000000000000000000000000000000000000000000000080000080000000808000800000008000800080800000C0C0C000C0DCC000F0CAA6000020400000206000002080000020A0000020C0000020E00000400000004020000040400000406000004080000040A0
310
000040C0000040E00000600000006020000060400000606000006080000060A0000060C0000060E00000800000008020000080400000806000008080000080A0000080C0000080E00000A0000000A0200000A0400000A0600000A0800000A0A00000A0C00000A0E00000C0000000C0200000C0400000C0600000C0800000C0
310
A00000C0C00000C0E00000E0000000E0200000E0400000E0600000E0800000E0A00000E0C00000E0E00040000000400020004000400040006000400080004000A0004000C0004000E00040200000402020004020400040206000402080004020A0004020C0004020E000404000004040200040404000404060004040800040
310
40A0004040C0004040E00040600000406020004060400040606000406080004060A0004060C0004060E00040800000408020004080400040806000408080004080A0004080C0004080E00040A0000040A0200040A0400040A0600040A0800040A0A00040A0C00040A0E00040C0000040C0200040C0400040C0600040C08000
310
40C0A00040C0C00040C0E00040E0000040E0200040E0400040E0600040E0800040E0A00040E0C00040E0E00080000000800020008000400080006000800080008000A0008000C0008000E00080200000802020008020400080206000802080008020A0008020C0008020E00080400000804020008040400080406000804080
310
008040A0008040C0008040E00080600000806020008060400080606000806080008060A0008060C0008060E00080800000808020008080400080806000808080008080A0008080C0008080E00080A0000080A0200080A0400080A0600080A0800080A0A00080A0C00080A0E00080C0000080C0200080C0400080C0600080C0
310
800080C0A00080C0C00080C0E00080E0000080E0200080E0400080E0600080E0800080E0A00080E0C00080E0E000C0000000C0002000C0004000C0006000C0008000C000A000C000C000C000E000C0200000C0202000C0204000C0206000C0208000C020A000C020C000C020E000C0400000C0402000C0404000C0406000C0
310
408000C040A000C040C000C040E000C0600000C0602000C0604000C0606000C0608000C060A000C060C000C060E000C0800000C0802000C0804000C0806000C0808000C080A000C080C000C080E000C0A00000C0A02000C0A04000C0A06000C0A08000C0A0A000C0A0C000C0A0E000C0C00000C0C02000C0C04000C0C06000
310
C0C08000C0C0A000F0FBFF00A4A0A000808080000000FF0000FF000000FFFF00FF000000FF00FF00FFFF0000FFFFFF0000000000000000000000000000000000000000000000000000000000000000000000000000000000000000000000000000000000000000000000000000000000000000000000000000000000000000
310
00000000000000000000000000000000000000000000000000000000000000000000000000000000000000000000000000000000000000000000000000000000000000000000000000000000000000000000000000000000000000000000000000000000000000000000000000000000000000000000000000000000000000
310
00000000000000000000000000000000000000000000000000000000000000000000000000000000000000000000000000000000000000000000000000000000000000000000000000000000000000000000000000000000000000000000000000000000000000000000000000000000000000000000000000000000000000
310
0000000000000000000000000000000000000000000000000000000000000000000000000000000000000000000000000000000000FFFFFF00FFFFFF00FFFFFF00FFFFFF0000FFFFFF00FFFFFF00FFFFFF00000000FF00FF00FF00FF00FF00FF00FF00FF0000FF00FF00FF00FF00FF00FF00000000FF00FF00FF00FF00FF00
310
FF00FF00FF0000FF00FF00FF00FF00FF00FF00000000FF00FF00FF00FF00FF00FF00FF00FF0000FF00FF00FF00FF00FF00FF000000FFFFFFFFFFFFFFFFFFFFFFFFFFFFFFFFFFFFFFFFFFFFFFFFFFFFFFFFFFFF0000FFFFFFFFFFFFFFFFFFFFFFFFFFFFFFFFFFFFFFFFFFFFFFFFFFFFFFFFFFFF000000FF00FF00FF0000FFFF
310
0000FFFF0000FFFF0000FFFF0000FF00FF00FF00000000FFFFFF00FFFFFFFFFFFFFFFFFFFFFFFFFFFFFFFFFFFFFFFF00FFFFFF00000000000000000000000000000000000000000000000000000000000000000000000000000000000000000000000000000000000000000000000000000000000000000000000000000000
310
00000000000000000000000000000000000000000000000000000000000000000000000000000000000000000000000000000000000000000000000000000000000000000000000000000000000000000000000000000000000000000000000000000000000000000000000000000000000000000000000000000000000000
310
00000000000000000000000000000000000000000000000000000000000000000000000000000000000000000000000000000000000000000000000000000000000000000000000000000000000000000000000000000000000000000000000000000000000000000000000000000000000000000000000000000000000000
310
0000000000000000000000000000000000000000000000000000000000000000000000000000000000000000000000000000000000000000
102
{BLKREFS
331
6A5
102
}
1001
ACAD
1000
DesignCenter Data
1002
{
1070
     1
1070
     4
1002
}
  0
BLOCK_RECORD
  5
6A6
330
1
100
AcDbSymbolTableRecord
100
AcDbBlockTableRecord
  2
2
340
0
310
2800000020000000200000000100080000000000000400000000000000000000000000000000000000000000000080000080000000808000800000008000800080800000C0C0C000C0DCC000F0CAA6000020400000206000002080000020A0000020C0000020E00000400000004020000040400000406000004080000040A0
310
000040C0000040E00000600000006020000060400000606000006080000060A0000060C0000060E00000800000008020000080400000806000008080000080A0000080C0000080E00000A0000000A0200000A0400000A0600000A0800000A0A00000A0C00000A0E00000C0000000C0200000C0400000C0600000C0800000C0
310
A00000C0C00000C0E00000E0000000E0200000E0400000E0600000E0800000E0A00000E0C00000E0E00040000000400020004000400040006000400080004000A0004000C0004000E00040200000402020004020400040206000402080004020A0004020C0004020E000404000004040200040404000404060004040800040
310
40A0004040C0004040E00040600000406020004060400040606000406080004060A0004060C0004060E00040800000408020004080400040806000408080004080A0004080C0004080E00040A0000040A0200040A0400040A0600040A0800040A0A00040A0C00040A0E00040C0000040C0200040C0400040C0600040C08000
310
40C0A00040C0C00040C0E00040E0000040E0200040E0400040E0600040E0800040E0A00040E0C00040E0E00080000000800020008000400080006000800080008000A0008000C0008000E00080200000802020008020400080206000802080008020A0008020C0008020E00080400000804020008040400080406000804080
310
008040A0008040C0008040E00080600000806020008060400080606000806080008060A0008060C0008060E00080800000808020008080400080806000808080008080A0008080C0008080E00080A0000080A0200080A0400080A0600080A0800080A0A00080A0C00080A0E00080C0000080C0200080C0400080C0600080C0
310
800080C0A00080C0C00080C0E00080E0000080E0200080E0400080E0600080E0800080E0A00080E0C00080E0E000C0000000C0002000C0004000C0006000C0008000C000A000C000C000C000E000C0200000C0202000C0204000C0206000C0208000C020A000C020C000C020E000C0400000C0402000C0404000C0406000C0
310
408000C040A000C040C000C040E000C0600000C0602000C0604000C0606000C0608000C060A000C060C000C060E000C0800000C0802000C0804000C0806000C0808000C080A000C080C000C080E000C0A00000C0A02000C0A04000C0A06000C0A08000C0A0A000C0A0C000C0A0E000C0C00000C0C02000C0C04000C0C06000
310
C0C08000C0C0A000F0FBFF00A4A0A000808080000000FF0000FF000000FFFF00FF000000FF00FF00FFFF0000FFFFFF000000000000000000000000000000000000000000000000000000000000000000000000000000000000000000FFFFFFFFFFFFFFFF000000000000000000000000000000000000000000000000FFFFFF
310
FFFFFFFFFF000000000000000000000000000000000000000000000000FF000000000000FF000000000000000000000000000000000000000000000000FF000000000000FF000000000000000000000000000000000000000000000000FF000000000000FF000000000000000000000000000000000000000000000000FF00
310
0000000000FF000000000000000000000000000000000000000000000000FF000000000000FF000000000000000000000000000000000000000000000000FF000000000000FF000000000000000000000000000000000000000000000000FF000000000000FF000000000000000000000000000000000000000000000000FF
310
000000000000FF000000000000000000000000000000000000000000000000FF000000000000FF000000000000000000000000000000000000000000000000FF000000000000FF000000000000000000000000000000000000000000000000FF000000000000FF000000000000000000000000000000000000000000000000
310
FF000000000000FF000000000000000000000000000000000000000000000000FF000000000000FF0000000000000000000000000000000000000000000000FFFFFFFFFFFFFFFFFFFF00000000000000000000000000000000000000000000FF0000000000000000FF00000000000000000000000000000000000000000000
310
FF0000000000000000FF00000000000000000000000000000000000000000000FF0000000000000000FF00000000000000000000000000000000000000000000FF0000000000000000FF00000000000000000000000000000000000000000000FFFFFFFFFFFFFFFFFFFF000000000000000000000000000000000000000000
310
00FFFFFFFFFFFFFFFFFFFF00000000000000000000000000000000000000000000FFA4A4A4A4A4A4A4A4FF00000000000000000000000000000000000000000000FF0000000000000000FF00000000000000000000000000000000000000000000FF0000000000000000FF0000000000000000000000000000000000000000
310
0000FF0000000000000000FF00000000000000000000000000000000000000000000FF0000000000000000FF00000000000000000000000000000000000000000000FF0000000000000000FF00000000000000000000000000000000000000000000FF0000000000000000FF00000000000000000000000000000000000000
310
000000FFFFFFFFFFFFFFFFFFFF00000000000000000000000000000000000000000000000000000000000000000000000000000000000000
102
{BLKREFS
331
6C7
102
}
1001
ACAD
1000
DesignCenter Data
1002
{
1070
     1
1070
     4
1002
}
  0
BLOCK_RECORD
  5
6C8
330
1
100
AcDbSymbolTableRecord
100
AcDbBlockTableRecord
  2
3
340
0
310
2800000020000000200000000100080000000000000400000000000000000000000000000000000000000000000080000080000000808000800000008000800080800000C0C0C000C0DCC000F0CAA6000020400000206000002080000020A0000020C0000020E00000400000004020000040400000406000004080000040A0
310
000040C0000040E00000600000006020000060400000606000006080000060A0000060C0000060E00000800000008020000080400000806000008080000080A0000080C0000080E00000A0000000A0200000A0400000A0600000A0800000A0A00000A0C00000A0E00000C0000000C0200000C0400000C0600000C0800000C0
310
A00000C0C00000C0E00000E0000000E0200000E0400000E0600000E0800000E0A00000E0C00000E0E00040000000400020004000400040006000400080004000A0004000C0004000E00040200000402020004020400040206000402080004020A0004020C0004020E000404000004040200040404000404060004040800040
310
40A0004040C0004040E00040600000406020004060400040606000406080004060A0004060C0004060E00040800000408020004080400040806000408080004080A0004080C0004080E00040A0000040A0200040A0400040A0600040A0800040A0A00040A0C00040A0E00040C0000040C0200040C0400040C0600040C08000
310
40C0A00040C0C00040C0E00040E0000040E0200040E0400040E0600040E0800040E0A00040E0C00040E0E00080000000800020008000400080006000800080008000A0008000C0008000E00080200000802020008020400080206000802080008020A0008020C0008020E00080400000804020008040400080406000804080
310
008040A0008040C0008040E00080600000806020008060400080606000806080008060A0008060C0008060E00080800000808020008080400080806000808080008080A0008080C0008080E00080A0000080A0200080A0400080A0600080A0800080A0A00080A0C00080A0E00080C0000080C0200080C0400080C0600080C0
310
800080C0A00080C0C00080C0E00080E0000080E0200080E0400080E0600080E0800080E0A00080E0C00080E0E000C0000000C0002000C0004000C0006000C0008000C000A000C000C000C000E000C0200000C0202000C0204000C0206000C0208000C020A000C020C000C020E000C0400000C0402000C0404000C0406000C0
310
408000C040A000C040C000C040E000C0600000C0602000C0604000C0606000C0608000C060A000C060C000C060E000C0800000C0802000C0804000C0806000C0808000C080A000C080C000C080E000C0A00000C0A02000C0A04000C0A06000C0A08000C0A0A000C0A0C000C0A0E000C0C00000C0C02000C0C04000C0C06000
310
C0C08000C0C0A000F0FBFF00A4A0A000808080000000FF0000FF000000FFFF00FF000000FF00FF00FFFF0000FFFFFF0000000000000000000000000000000000000000000000000000000000000000000000000000000000000000000000000000000000000000000000000000000000000000000000000000000000000000
310
00000000000000000000000000000000000000000000000000000000000000000000000000000000000000000000000000000000000000000000000000000000000000000000000000000000000000000000000000000000000000000000000000000000000000000000000000000000000000000000000000000000000000
310
00000000000000000000000000000000000000000000000000000000000000000000000000000000000000000000000000000000000000000000000000000000000000000000000000000000000000000000000000000000000000000000000000000000000000000000000000000000000000000000000000000000000000
310
0000000000000000000000000000000000000000000000000000000000000000000000000000000000000000000000000000000000000000000000000000000000000000000000000000000000000000000000000000000000000000000000000000000000000000000000000000000000000000FFFFFFFFFFFFFFFFFFFFFF
310
FFFFFFFFFFFFFFFFFFFFFFFFFFFFFFFFFFFFFF0000FF00FFFF0000FFFF0000FFFF0000FFFFFF00FFFFFF00FFFFFF00FFFFFFFF0000FFFFFFFF00FFFFFFFFFFFFFFFFFFFFFFFFFFFFFFFFFFFFFFFF00FFFFFFFF0000FFFFFFFFFFFFFFFFFFFFFFFFFFFFFFFFFFFFFFFFFFFFFFFFFFFFFFFFFFFF000000000000000000000000
310
00000000000000000000000000000000000000000000000000000000000000000000000000000000000000000000000000000000000000000000000000000000000000000000000000000000000000000000000000000000000000000000000000000000000000000000000000000000000000000000000000000000000000
310
00000000000000000000000000000000000000000000000000000000000000000000000000000000000000000000000000000000000000000000000000000000000000000000000000000000000000000000000000000000000000000000000000000000000000000000000000000000000000000000000000000000000000
310
00000000000000000000000000000000000000000000000000000000000000000000000000000000000000000000000000000000000000000000000000000000000000000000000000000000000000000000000000000000000000000000000000000000000000000000000000000000000000000000000000000000000000
310
0000000000000000000000000000000000000000000000000000000000000000000000000000000000000000000000000000000000000000
102
{BLKREFS
331
762
102
}
1001
ACAD
1000
DesignCenter Data
1002
{
1070
     1
1070
     4
1002
}
  0
BLOCK_RECORD
  5
763
330
1
100
AcDbSymbolTableRecord
100
AcDbBlockTableRecord
  2
4
340
0
310
2800000020000000200000000100080000000000000400000000000000000000000000000000000000000000000080000080000000808000800000008000800080800000C0C0C000C0DCC000F0CAA6000020400000206000002080000020A0000020C0000020E00000400000004020000040400000406000004080000040A0
310
000040C0000040E00000600000006020000060400000606000006080000060A0000060C0000060E00000800000008020000080400000806000008080000080A0000080C0000080E00000A0000000A0200000A0400000A0600000A0800000A0A00000A0C00000A0E00000C0000000C0200000C0400000C0600000C0800000C0
310
A00000C0C00000C0E00000E0000000E0200000E0400000E0600000E0800000E0A00000E0C00000E0E00040000000400020004000400040006000400080004000A0004000C0004000E00040200000402020004020400040206000402080004020A0004020C0004020E000404000004040200040404000404060004040800040
310
40A0004040C0004040E00040600000406020004060400040606000406080004060A0004060C0004060E00040800000408020004080400040806000408080004080A0004080C0004080E00040A0000040A0200040A0400040A0600040A0800040A0A00040A0C00040A0E00040C0000040C0200040C0400040C0600040C08000
310
40C0A00040C0C00040C0E00040E0000040E0200040E0400040E0600040E0800040E0A00040E0C00040E0E00080000000800020008000400080006000800080008000A0008000C0008000E00080200000802020008020400080206000802080008020A0008020C0008020E00080400000804020008040400080406000804080
310
008040A0008040C0008040E00080600000806020008060400080606000806080008060A0008060C0008060E00080800000808020008080400080806000808080008080A0008080C0008080E00080A0000080A0200080A0400080A0600080A0800080A0A00080A0C00080A0E00080C0000080C0200080C0400080C0600080C0
310
800080C0A00080C0C00080C0E00080E0000080E0200080E0400080E0600080E0800080E0A00080E0C00080E0E000C0000000C0002000C0004000C0006000C0008000C000A000C000C000C000E000C0200000C0202000C0204000C0206000C0208000C020A000C020C000C020E000C0400000C0402000C0404000C0406000C0
310
408000C040A000C040C000C040E000C0600000C0602000C0604000C0606000C0608000C060A000C060C000C060E000C0800000C0802000C0804000C0806000C0808000C080A000C080C000C080E000C0A00000C0A02000C0A04000C0A06000C0A08000C0A0A000C0A0C000C0A0E000C0C00000C0C02000C0C04000C0C06000
310
C0C08000C0C0A000F0FBFF00A4A0A000808080000000FF0000FF000000FFFF00FF000000FF00FF00FFFF0000FFFFFF0000000000000000000000000000000000000000000000000000000000000000000000000000000000000000000000000000000000000000000000000000000000000000000000000000000000000000
310
0000000000000000000000000000000000000000000000000000000000000000000000000000000000000000000000000000000000000000000000000000000000000000000000000000000000000000000000000000000000000000000000000000000000000000000000FFFF000000000000000000000000000000000000
310
0000000000000000000000FFFFFFFF00000000000000000000000000000000000000000000000000FFFFFFFF0000FF00000000000000000000000000000000000000000000000000FF00FFFF0000FF000000000000000000000000000000000000000000FFFFFF00FF00FFFF00FFFF00000000000000000000000000000000
310
0000000000FF00FF00FF00FFFFFFFFFFFFFF000000000000000000000000000000FFFFFFFFFF0000FFFFFFFFFFFFFFFFFFFF000000000000000000000000000000FF0000FFFF0000FFFFFF00FFFFA4FFFF000000000000000000000000FFFFFFFFFF0000FFFFFFFFFFFFFFFFFF00FFFF00000000000000000000FFFFFFFF00
310
00FFFF0000FFFFFFFFFFFF00FFFFFFFFFF00000000000000000000FFFFFFFF0000FFFFFFFFFFFFFFFFFFFFFFFFFFFFFFFF000000000000FFFFFF00FF00FFFF00FFFFFFFFFF00FF0000FFFFFFFFFF000000000000000000FF00FF00FF00FFFFFFFFFFFFFFFFFFFFFFFFFFFFFFFF00000000000000000000FF0000FFFFFFFFFF
310
FFFFFFFF0000FFFFFFFFFF00000000000000000000000000FF0000FFFFFF00FFFFFFFFFFFFFFFF0000000000000000000000000000000000FFFFFFFFFFFFFFFF0000FFFFFFFFFF000000000000000000000000000000FFFFFFFF00FFFF00FFFFFFFFFF00000000000000000000000000000000000000FFFFFFFFFFFFFFFFFF
310
FFFFFFFF00000000000000000000000000000000000000FFFFFF0000FFFFFFFFFF000000000000000000000000000000000000000000000000FFFFFFFFFFFFFF00000000000000000000000000000000000000000000000000FFFFFFFF00000000000000000000000000000000000000000000000000000000FFFFFF000000
310
00000000000000000000000000000000000000000000000000000000000000000000000000000000000000000000000000000000000000000000000000000000000000000000000000000000000000000000000000000000000000000000000000000000000000000000000000000000000000000000000000000000000000
310
0000000000000000000000000000000000000000000000000000000000000000000000000000000000000000000000000000000000000000
102
{BLKREFS
331
81D
102
}
1001
ACAD
1000
DesignCenter Data
1002
{
1070
     1
1070
     4
1002
}
  0
ENDTAB
  0
ENDSEC
  0
SECTION
  2
BLOCKS
  0
BLOCK
  5
20
330
1F
100
AcDbEntity
  8
0
100
AcDbBlockBegin
  2
*Model_Space
 70
     0
 10
0.0
 20
0.0
 30
0.0
  3
*Model_Space
  1

  0
ENDBLK
  5
21
330
1F
100
AcDbEntity
  8
0
100
AcDbBlockEnd
  0
BLOCK
  5
D4
330
D2
100
AcDbEntity
 67
     1
  8
0
100
AcDbBlockBegin
  2
*Paper_Space
 70
     0
 10
0.0
 20
0.0
 30
0.0
  3
*Paper_Space
  1

  0
ENDBLK
  5
D5
330
D2
100
AcDbEntity
 67
     1
  8
0
100
AcDbBlockEnd
  0
BLOCK
  5
D8
330
D6
100
AcDbEntity
 67
     1
  8
0
100
AcDbBlockBegin
  2
*Paper_Space0
 70
     0
 10
0.0
 20
0.0
 30
0.0
  3
*Paper_Space0
  1

  0
ENDBLK
  5
D9
330
D6
100
AcDbEntity
 67
     1
  8
0
100
AcDbBlockEnd
  0
BLOCK
  5
5F0
330
5EF
100
AcDbEntity
  8
0
100
AcDbBlockBegin
  2
1
 70
     0
 10
0.0
 20
0.0
 30
0.0
  3
1
  1

  0
ARC
  5
5F2
330
5EF
100
AcDbEntity
  8
0
  6
Continuous
 62
     7
370
    15
100
AcDbCircle
 10
1862.228313915673
 20
1367.199820130971
 30
0.0
 40
0.200000000000017
100
AcDbArc
 50
180.0
 51
270.0
  0
ARC
  5
5F3
330
5EF
100
AcDbEntity
  8
0
  6
Continuous
 62
     7
370
    15
100
AcDbCircle
 10
1868.678313915673
 20
1367.199820130971
 30
0.0
 40
0.1999999999999886
100
AcDbArc
 50
270.0
 51
0.0
  0
ARC
  5
5F4
330
5EF
100
AcDbEntity
  8
0
  6
Continuous
 62
     7
370
    15
100
AcDbCircle
 10
1790.228313915673
 20
1367.199820130971
 30
0.0
 40
0.2000000000000028
100
AcDbArc
 50
180.0
 51
270.0
  0
ARC
  5
5F5
330
5EF
100
AcDbEntity
  8
0
  6
Continuous
 62
     7
370
    15
100
AcDbCircle
 10
1796.678313915673
 20
1367.199820130971
 30
0.0
 40
0.200000000000017
100
AcDbArc
 50
270.0
 51
0.0
  0
ARC
  5
5F6
330
5EF
100
AcDbEntity
  8
0
  6
Continuous
 62
     7
370
    15
100
AcDbCircle
 10
1802.228313915673
 20
1367.199820130971
 30
0.0
 40
0.200000000000017
100
AcDbArc
 50
180.0
 51
270.0
  0
ARC
  5
5F7
330
5EF
100
AcDbEntity
  8
0
  6
Continuous
 62
     7
370
    15
100
AcDbCircle
 10
1808.678313915673
 20
1367.199820130971
 30
0.0
 40
0.1999999999999886
100
AcDbArc
 50
270.0
 51
0.0
  0
ARC
  5
5F8
330
5EF
100
AcDbEntity
  8
0
  6
Continuous
 62
     7
370
    15
100
AcDbCircle
 10
1814.228313915673
 20
1367.199820130971
 30
0.0
 40
0.1999999999999886
100
AcDbArc
 50
180.0
 51
270.0
  0
ARC
  5
5F9
330
5EF
100
AcDbEntity
  8
0
  6
Continuous
 62
     7
370
    15
100
AcDbCircle
 10
1820.678313915673
 20
1367.199820130971
 30
0.0
 40
0.1999999999999886
100
AcDbArc
 50
270.0
 51
0.0
  0
ARC
  5
5FA
330
5EF
100
AcDbEntity
  8
0
  6
Continuous
 62
     7
370
    15
100
AcDbCircle
 10
1826.228313915673
 20
1367.199820130971
 30
0.0
 40
0.200000000000017
100
AcDbArc
 50
180.0
 51
270.0
  0
ARC
  5
5FB
330
5EF
100
AcDbEntity
  8
0
  6
Continuous
 62
     7
370
    15
100
AcDbCircle
 10
1832.678313915673
 20
1367.199820130971
 30
0.0
 40
0.1999999999999886
100
AcDbArc
 50
270.0
 51
0.0
  0
ARC
  5
5FC
330
5EF
100
AcDbEntity
  8
0
  6
Continuous
 62
     7
370
    15
100
AcDbCircle
 10
1838.228313915673
 20
1367.199820130971
 30
0.0
 40
0.1999999999999886
100
AcDbArc
 50
180.0
 51
270.0
  0
ARC
  5
5FD
330
5EF
100
AcDbEntity
  8
0
  6
Continuous
 62
     7
370
    15
100
AcDbCircle
 10
1844.678313915673
 20
1367.199820130971
 30
0.0
 40
0.200000000000017
100
AcDbArc
 50
270.0
 51
0.0
  0
ARC
  5
5FE
330
5EF
100
AcDbEntity
  8
0
  6
Continuous
 62
     7
370
    15
100
AcDbCircle
 10
1850.228313915673
 20
1367.199820130971
 30
0.0
 40
0.1999999999999886
100
AcDbArc
 50
180.0
 51
270.0
  0
ARC
  5
5FF
330
5EF
100
AcDbEntity
  8
0
  6
Continuous
 62
     7
370
    15
100
AcDbCircle
 10
1856.678313915673
 20
1367.199820130971
 30
0.0
 40
0.200000000000017
100
AcDbArc
 50
270.0
 51
0.0
  0
LINE
  5
600
330
5EF
100
AcDbEntity
  8
0
  6
Continuous
 62
     7
370
    15
100
AcDbLine
 10
1796.878313915673
 20
1367.199820130971
 30
0.0
 11
1796.878313915673
 21
1372.399820130971
 31
0.0
  0
LINE
  5
601
330
5EF
100
AcDbEntity
  8
0
  6
Continuous
 62
     7
370
    15
100
AcDbLine
 10
1790.028313915673
 20
1372.399820130971
 30
0.0
 11
1790.028313915673
 21
1367.199820130971
 31
0.0
  0
LINE
  5
602
330
5EF
100
AcDbEntity
  8
0
  6
Continuous
 62
     7
370
    15
100
AcDbLine
 10
1808.878313915673
 20
1367.199820130971
 30
0.0
 11
1808.878313915673
 21
1372.399820130971
 31
0.0
  0
LINE
  5
603
330
5EF
100
AcDbEntity
  8
0
  6
Continuous
 62
     7
370
    15
100
AcDbLine
 10
1802.028313915673
 20
1372.399820130971
 30
0.0
 11
1802.028313915673
 21
1367.199820130971
 31
0.0
  0
LINE
  5
604
330
5EF
100
AcDbEntity
  8
0
  6
Continuous
 62
     7
370
    15
100
AcDbLine
 10
1820.878313915673
 20
1367.199820130971
 30
0.0
 11
1820.878313915673
 21
1372.399820130971
 31
0.0
  0
LINE
  5
605
330
5EF
100
AcDbEntity
  8
0
  6
Continuous
 62
     7
370
    15
100
AcDbLine
 10
1814.028313915673
 20
1372.399820130971
 30
0.0
 11
1814.028313915673
 21
1367.199820130971
 31
0.0
  0
LINE
  5
606
330
5EF
100
AcDbEntity
  8
0
  6
Continuous
 62
     7
370
    15
100
AcDbLine
 10
1832.878313915673
 20
1367.199820130971
 30
0.0
 11
1832.878313915673
 21
1372.399820130971
 31
0.0
  0
LINE
  5
607
330
5EF
100
AcDbEntity
  8
0
  6
Continuous
 62
     7
370
    15
100
AcDbLine
 10
1826.028313915673
 20
1372.399820130971
 30
0.0
 11
1826.028313915673
 21
1367.199820130971
 31
0.0
  0
LINE
  5
608
330
5EF
100
AcDbEntity
  8
0
  6
Continuous
 62
     7
370
    15
100
AcDbLine
 10
1844.878313915673
 20
1367.199820130971
 30
0.0
 11
1844.878313915673
 21
1372.399820130971
 31
0.0
  0
LINE
  5
609
330
5EF
100
AcDbEntity
  8
0
  6
Continuous
 62
     7
370
    15
100
AcDbLine
 10
1838.028313915673
 20
1372.399820130971
 30
0.0
 11
1838.028313915673
 21
1367.199820130971
 31
0.0
  0
LINE
  5
60A
330
5EF
100
AcDbEntity
  8
0
  6
Continuous
 62
     7
370
    15
100
AcDbLine
 10
1856.878313915673
 20
1367.199820130971
 30
0.0
 11
1856.878313915673
 21
1372.399820130971
 31
0.0
  0
LINE
  5
60B
330
5EF
100
AcDbEntity
  8
0
  6
Continuous
 62
     7
370
    15
100
AcDbLine
 10
1850.028313915673
 20
1372.399820130971
 30
0.0
 11
1850.028313915673
 21
1367.199820130971
 31
0.0
  0
LINE
  5
60C
330
5EF
100
AcDbEntity
  8
0
  6
Continuous
 62
     7
370
    15
100
AcDbLine
 10
1868.878313915673
 20
1367.199820130971
 30
0.0
 11
1868.878313915673
 21
1372.399820130971
 31
0.0
  0
LINE
  5
60D
330
5EF
100
AcDbEntity
  8
0
  6
Continuous
 62
     7
370
    15
100
AcDbLine
 10
1862.028313915673
 20
1372.399820130971
 30
0.0
 11
1862.028313915673
 21
1367.199820130971
 31
0.0
  0
LINE
  5
60E
330
5EF
100
AcDbEntity
  8
0
  6
Continuous
 62
     7
370
    15
100
AcDbLine
 10
1796.453313915673
 20
1366.099820130971
 30
0.0
 11
1796.453313915673
 21
1366.999820130971
 31
0.0
  0
LINE
  5
60F
330
5EF
100
AcDbEntity
  8
0
  6
Continuous
 62
     7
370
    15
100
AcDbLine
 10
1790.453313915673
 20
1366.999820130971
 30
0.0
 11
1790.453313915673
 21
1366.099820130971
 31
0.0
  0
LINE
  5
610
330
5EF
100
AcDbEntity
  8
0
  6
Continuous
 62
     7
370
    15
100
AcDbLine
 10
1790.391636309172
 20
1351.399820130891
 30
0.0
 11
1790.591636309048
 21
1351.199820131015
 31
0.0
  0
LINE
  5
611
330
5EF
100
AcDbEntity
  8
0
  6
Continuous
 62
     7
370
    15
100
AcDbLine
 10
1796.19163630912
 20
1351.199820131015
 30
0.0
 11
1796.391636308996
 21
1351.399820130891
 31
0.0
  0
LINE
  5
612
330
5EF
100
AcDbEntity
  8
0
  6
Continuous
 62
     7
370
    15
100
AcDbLine
 10
1796.391636309084
 20
1351.399820130891
 30
0.0
 11
1796.391636309084
 21
1362.099820130894
 31
0.0
  0
LINE
  5
613
330
5EF
100
AcDbEntity
  8
0
  6
Continuous
 62
     7
370
    15
100
AcDbLine
 10
1790.391636309084
 20
1362.099820130894
 30
0.0
 11
1790.391636309084
 21
1351.399820130891
 31
0.0
  0
LINE
  5
614
330
5EF
100
AcDbEntity
  8
0
  6
Continuous
 62
     7
370
    15
100
AcDbLine
 10
1808.453313915673
 20
1366.099820130971
 30
0.0
 11
1808.453313915673
 21
1366.999820130971
 31
0.0
  0
LINE
  5
615
330
5EF
100
AcDbEntity
  8
0
  6
Continuous
 62
     7
370
    15
100
AcDbLine
 10
1802.453313915673
 20
1366.999820130971
 30
0.0
 11
1802.453313915673
 21
1366.099820130971
 31
0.0
  0
LINE
  5
616
330
5EF
100
AcDbEntity
  8
0
  6
Continuous
 62
     7
370
    15
100
AcDbLine
 10
1802.391636309172
 20
1351.399820130891
 30
0.0
 11
1802.591636309048
 21
1351.199820131015
 31
0.0
  0
LINE
  5
617
330
5EF
100
AcDbEntity
  8
0
  6
Continuous
 62
     7
370
    15
100
AcDbLine
 10
1808.19163630912
 20
1351.199820131015
 30
0.0
 11
1808.391636308996
 21
1351.399820130891
 31
0.0
  0
LINE
  5
618
330
5EF
100
AcDbEntity
  8
0
  6
Continuous
 62
     7
370
    15
100
AcDbLine
 10
1808.391636309084
 20
1351.399820130891
 30
0.0
 11
1808.391636309084
 21
1362.099820130894
 31
0.0
  0
LINE
  5
619
330
5EF
100
AcDbEntity
  8
0
  6
Continuous
 62
     7
370
    15
100
AcDbLine
 10
1802.391636309084
 20
1362.099820130894
 30
0.0
 11
1802.391636309084
 21
1351.399820130891
 31
0.0
  0
LINE
  5
61A
330
5EF
100
AcDbEntity
  8
0
  6
Continuous
 62
     7
370
    15
100
AcDbLine
 10
1814.391636309172
 20
1351.399820130891
 30
0.0
 11
1814.591636309048
 21
1351.199820131015
 31
0.0
  0
LINE
  5
61B
330
5EF
100
AcDbEntity
  8
0
  6
Continuous
 62
     7
370
    15
100
AcDbLine
 10
1820.19163630912
 20
1351.199820131015
 30
0.0
 11
1820.391636308996
 21
1351.399820130891
 31
0.0
  0
LINE
  5
61C
330
5EF
100
AcDbEntity
  8
0
  6
Continuous
 62
     7
370
    15
100
AcDbLine
 10
1820.453313915673
 20
1366.099820130971
 30
0.0
 11
1820.453313915673
 21
1366.999820130971
 31
0.0
  0
LINE
  5
61D
330
5EF
100
AcDbEntity
  8
0
  6
Continuous
 62
     7
370
    15
100
AcDbLine
 10
1814.453313915673
 20
1366.999820130971
 30
0.0
 11
1814.453313915673
 21
1366.099820130971
 31
0.0
  0
LINE
  5
61E
330
5EF
100
AcDbEntity
  8
0
  6
Continuous
 62
     7
370
    15
100
AcDbLine
 10
1820.391636309084
 20
1351.399820130891
 30
0.0
 11
1820.391636309084
 21
1362.099820130894
 31
0.0
  0
LINE
  5
61F
330
5EF
100
AcDbEntity
  8
0
  6
Continuous
 62
     7
370
    15
100
AcDbLine
 10
1814.391636309084
 20
1362.099820130894
 30
0.0
 11
1814.391636309084
 21
1351.399820130891
 31
0.0
  0
LINE
  5
620
330
5EF
100
AcDbEntity
  8
0
  6
Continuous
 62
     7
370
    15
100
AcDbLine
 10
1832.453313915673
 20
1366.099820130971
 30
0.0
 11
1832.453313915673
 21
1366.999820130971
 31
0.0
  0
LINE
  5
621
330
5EF
100
AcDbEntity
  8
0
  6
Continuous
 62
     7
370
    15
100
AcDbLine
 10
1826.453313915673
 20
1366.999820130971
 30
0.0
 11
1826.453313915673
 21
1366.099820130971
 31
0.0
  0
LINE
  5
622
330
5EF
100
AcDbEntity
  8
0
  6
Continuous
 62
     7
370
    15
100
AcDbLine
 10
1832.391636309084
 20
1351.399820130891
 30
0.0
 11
1832.391636309084
 21
1362.099820130894
 31
0.0
  0
LINE
  5
623
330
5EF
100
AcDbEntity
  8
0
  6
Continuous
 62
     7
370
    15
100
AcDbLine
 10
1826.391636309084
 20
1362.099820130894
 30
0.0
 11
1826.391636309084
 21
1351.399820130891
 31
0.0
  0
LINE
  5
624
330
5EF
100
AcDbEntity
  8
0
  6
Continuous
 62
     7
370
    15
100
AcDbLine
 10
1826.391636309173
 20
1351.399820130891
 30
0.0
 11
1826.591636309048
 21
1351.199820131015
 31
0.0
  0
LINE
  5
625
330
5EF
100
AcDbEntity
  8
0
  6
Continuous
 62
     7
370
    15
100
AcDbLine
 10
1832.19163630912
 20
1351.199820131015
 30
0.0
 11
1832.391636308996
 21
1351.399820130891
 31
0.0
  0
LINE
  5
626
330
5EF
100
AcDbEntity
  8
0
  6
Continuous
 62
     7
370
    15
100
AcDbLine
 10
1844.391636309084
 20
1351.399820130891
 30
0.0
 11
1844.391636309084
 21
1362.099820130894
 31
0.0
  0
LINE
  5
627
330
5EF
100
AcDbEntity
  8
0
  6
Continuous
 62
     7
370
    15
100
AcDbLine
 10
1838.391636309084
 20
1362.099820130894
 30
0.0
 11
1838.391636309084
 21
1351.399820130891
 31
0.0
  0
LINE
  5
628
330
5EF
100
AcDbEntity
  8
0
  6
Continuous
 62
     7
370
    15
100
AcDbLine
 10
1838.391636309172
 20
1351.399820130891
 30
0.0
 11
1838.591636309048
 21
1351.199820131015
 31
0.0
  0
LINE
  5
629
330
5EF
100
AcDbEntity
  8
0
  6
Continuous
 62
     7
370
    15
100
AcDbLine
 10
1844.19163630912
 20
1351.199820131015
 30
0.0
 11
1844.391636308996
 21
1351.399820130891
 31
0.0
  0
LINE
  5
62A
330
5EF
100
AcDbEntity
  8
0
  6
Continuous
 62
     7
370
    15
100
AcDbLine
 10
1844.453313915673
 20
1366.099820130971
 30
0.0
 11
1844.453313915673
 21
1366.999820130971
 31
0.0
  0
LINE
  5
62B
330
5EF
100
AcDbEntity
  8
0
  6
Continuous
 62
     7
370
    15
100
AcDbLine
 10
1838.453313915673
 20
1366.999820130971
 30
0.0
 11
1838.453313915673
 21
1366.099820130971
 31
0.0
  0
LINE
  5
62C
330
5EF
100
AcDbEntity
  8
0
  6
Continuous
 62
     7
370
    15
100
AcDbLine
 10
1856.453313915673
 20
1366.099820130971
 30
0.0
 11
1856.453313915673
 21
1366.999820130971
 31
0.0
  0
LINE
  5
62D
330
5EF
100
AcDbEntity
  8
0
  6
Continuous
 62
     7
370
    15
100
AcDbLine
 10
1850.453313915673
 20
1366.999820130971
 30
0.0
 11
1850.453313915673
 21
1366.099820130971
 31
0.0
  0
LINE
  5
62E
330
5EF
100
AcDbEntity
  8
0
  6
Continuous
 62
     7
370
    15
100
AcDbLine
 10
1856.391636309084
 20
1351.399820130891
 30
0.0
 11
1856.391636309084
 21
1362.099820130894
 31
0.0
  0
LINE
  5
62F
330
5EF
100
AcDbEntity
  8
0
  6
Continuous
 62
     7
370
    15
100
AcDbLine
 10
1850.391636309084
 20
1362.099820130894
 30
0.0
 11
1850.391636309084
 21
1351.399820130891
 31
0.0
  0
LINE
  5
630
330
5EF
100
AcDbEntity
  8
0
  6
Continuous
 62
     7
370
    15
100
AcDbLine
 10
1850.391636309172
 20
1351.399820130891
 30
0.0
 11
1850.591636309048
 21
1351.199820131015
 31
0.0
  0
LINE
  5
631
330
5EF
100
AcDbEntity
  8
0
  6
Continuous
 62
     7
370
    15
100
AcDbLine
 10
1856.19163630912
 20
1351.199820131015
 30
0.0
 11
1856.391636308996
 21
1351.399820130891
 31
0.0
  0
LINE
  5
632
330
5EF
100
AcDbEntity
  8
0
  6
Continuous
 62
     7
370
    15
100
AcDbLine
 10
1868.391636309084
 20
1351.399820130891
 30
0.0
 11
1868.391636309084
 21
1362.099820130894
 31
0.0
  0
LINE
  5
633
330
5EF
100
AcDbEntity
  8
0
  6
Continuous
 62
     7
370
    15
100
AcDbLine
 10
1862.391636309084
 20
1362.099820130894
 30
0.0
 11
1862.391636309084
 21
1351.399820130891
 31
0.0
  0
LINE
  5
634
330
5EF
100
AcDbEntity
  8
0
  6
Continuous
 62
     7
370
    15
100
AcDbLine
 10
1862.391636309173
 20
1351.399820130891
 30
0.0
 11
1862.591636309048
 21
1351.199820131015
 31
0.0
  0
LINE
  5
635
330
5EF
100
AcDbEntity
  8
0
  6
Continuous
 62
     7
370
    15
100
AcDbLine
 10
1868.19163630912
 20
1351.199820131015
 30
0.0
 11
1868.391636308996
 21
1351.399820130891
 31
0.0
  0
LINE
  5
636
330
5EF
100
AcDbEntity
  8
0
  6
Continuous
 62
     7
370
    15
100
AcDbLine
 10
1868.453313915673
 20
1366.099820130971
 30
0.0
 11
1868.453313915673
 21
1366.999820130971
 31
0.0
  0
LINE
  5
637
330
5EF
100
AcDbEntity
  8
0
  6
Continuous
 62
     7
370
    15
100
AcDbLine
 10
1862.453313915673
 20
1366.999820130971
 30
0.0
 11
1862.453313915673
 21
1366.099820130971
 31
0.0
  0
LINE
  5
638
330
5EF
100
AcDbEntity
  8
0
  6
Continuous
 62
     7
370
    15
100
AcDbLine
 10
1796.391636309076
 20
1362.099820130894
 30
0.0
 11
1796.291636308987
 21
1362.199820130983
 31
0.0
  0
LINE
  5
639
330
5EF
100
AcDbEntity
  8
0
  6
Continuous
 62
     7
370
    15
100
AcDbLine
 10
1790.49163630918
 20
1362.199820130983
 30
0.0
 11
1790.391636309092
 21
1362.099820130894
 31
0.0
  0
LINE
  5
63A
330
5EF
100
AcDbEntity
  8
0
  6
Continuous
 62
     7
370
    15
100
AcDbLine
 10
1808.391636309076
 20
1362.099820130894
 30
0.0
 11
1808.291636308988
 21
1362.199820130983
 31
0.0
  0
LINE
  5
63B
330
5EF
100
AcDbEntity
  8
0
  6
Continuous
 62
     7
370
    15
100
AcDbLine
 10
1802.491636309181
 20
1362.199820130983
 30
0.0
 11
1802.391636309092
 21
1362.099820130894
 31
0.0
  0
LINE
  5
63C
330
5EF
100
AcDbEntity
  8
0
  6
Continuous
 62
     7
370
    15
100
AcDbLine
 10
1820.391636309076
 20
1362.099820130894
 30
0.0
 11
1820.291636308988
 21
1362.199820130983
 31
0.0
  0
LINE
  5
63D
330
5EF
100
AcDbEntity
  8
0
  6
Continuous
 62
     7
370
    15
100
AcDbLine
 10
1814.49163630918
 20
1362.199820130983
 30
0.0
 11
1814.391636309092
 21
1362.099820130894
 31
0.0
  0
LINE
  5
63E
330
5EF
100
AcDbEntity
  8
0
  6
Continuous
 62
     7
370
    15
100
AcDbLine
 10
1832.391636309076
 20
1362.099820130894
 30
0.0
 11
1832.291636308988
 21
1362.199820130983
 31
0.0
  0
LINE
  5
63F
330
5EF
100
AcDbEntity
  8
0
  6
Continuous
 62
     7
370
    15
100
AcDbLine
 10
1826.491636309181
 20
1362.199820130983
 30
0.0
 11
1826.391636309092
 21
1362.099820130894
 31
0.0
  0
LINE
  5
640
330
5EF
100
AcDbEntity
  8
0
  6
Continuous
 62
     7
370
    15
100
AcDbLine
 10
1844.391636309076
 20
1362.099820130894
 30
0.0
 11
1844.291636308988
 21
1362.199820130983
 31
0.0
  0
LINE
  5
641
330
5EF
100
AcDbEntity
  8
0
  6
Continuous
 62
     7
370
    15
100
AcDbLine
 10
1838.49163630918
 20
1362.199820130983
 30
0.0
 11
1838.391636309092
 21
1362.099820130894
 31
0.0
  0
LINE
  5
642
330
5EF
100
AcDbEntity
  8
0
  6
Continuous
 62
     7
370
    15
100
AcDbLine
 10
1856.391636309076
 20
1362.099820130894
 30
0.0
 11
1856.291636308999
 21
1362.199820130971
 31
0.0
  0
LINE
  5
643
330
5EF
100
AcDbEntity
  8
0
  6
Continuous
 62
     7
370
    15
100
AcDbLine
 10
1850.491636309169
 20
1362.199820130971
 30
0.0
 11
1850.391636309092
 21
1362.099820130894
 31
0.0
  0
LINE
  5
644
330
5EF
100
AcDbEntity
  8
0
  6
Continuous
 62
     7
370
    15
100
AcDbLine
 10
1868.391636309076
 20
1362.099820130894
 30
0.0
 11
1868.291636308987
 21
1362.199820130983
 31
0.0
  0
LINE
  5
645
330
5EF
100
AcDbEntity
  8
0
  6
Continuous
 62
     7
370
    15
100
AcDbLine
 10
1862.491636309181
 20
1362.199820130983
 30
0.0
 11
1862.391636309092
 21
1362.099820130894
 31
0.0
  0
LINE
  5
646
330
5EF
100
AcDbEntity
  8
0
  6
Continuous
 62
     7
370
    15
100
AcDbLine
 10
1796.900414146303
 20
1362.199820130971
 30
0.0
 11
1790.006213685044
 21
1362.199820130971
 31
0.0
  0
LINE
  5
647
330
5EF
100
AcDbEntity
  8
0
  6
Continuous
 62
     7
370
    15
100
AcDbLine
 10
1790.006213685044
 20
1366.099820130971
 30
0.0
 11
1790.006213685044
 21
1362.199820130971
 31
0.0
  0
LINE
  5
648
330
5EF
100
AcDbEntity
  8
0
  6
Continuous
 62
     7
370
    15
100
AcDbLine
 10
1796.900414146303
 20
1366.099820130971
 30
0.0
 11
1790.006213685044
 21
1366.099820130971
 31
0.0
  0
LINE
  5
649
330
5EF
100
AcDbEntity
  8
0
  6
Continuous
 62
     7
370
    15
100
AcDbLine
 10
1796.900414146303
 20
1362.199820130971
 30
0.0
 11
1796.900414146303
 21
1366.099820130971
 31
0.0
  0
LINE
  5
64A
330
5EF
100
AcDbEntity
  8
0
  6
Continuous
 62
     7
370
    15
100
AcDbLine
 10
1802.006213685044
 20
1366.099820130971
 30
0.0
 11
1802.006213685044
 21
1362.199820130971
 31
0.0
  0
LINE
  5
64B
330
5EF
100
AcDbEntity
  8
0
  6
Continuous
 62
     7
370
    15
100
AcDbLine
 10
1808.900414146303
 20
1362.199820130971
 30
0.0
 11
1808.900414146303
 21
1366.099820130971
 31
0.0
  0
LINE
  5
64C
330
5EF
100
AcDbEntity
  8
0
  6
Continuous
 62
     7
370
    15
100
AcDbLine
 10
1808.900414146303
 20
1366.099820130971
 30
0.0
 11
1802.006213685044
 21
1366.099820130971
 31
0.0
  0
LINE
  5
64D
330
5EF
100
AcDbEntity
  8
0
  6
Continuous
 62
     7
370
    15
100
AcDbLine
 10
1808.900414146303
 20
1362.199820130971
 30
0.0
 11
1802.006213685044
 21
1362.199820130971
 31
0.0
  0
LINE
  5
64E
330
5EF
100
AcDbEntity
  8
0
  6
Continuous
 62
     7
370
    15
100
AcDbLine
 10
1814.006213685043
 20
1366.099820130971
 30
0.0
 11
1814.006213685043
 21
1362.199820130971
 31
0.0
  0
LINE
  5
64F
330
5EF
100
AcDbEntity
  8
0
  6
Continuous
 62
     7
370
    15
100
AcDbLine
 10
1820.900414146303
 20
1362.199820130971
 30
0.0
 11
1820.900414146303
 21
1366.099820130971
 31
0.0
  0
LINE
  5
650
330
5EF
100
AcDbEntity
  8
0
  6
Continuous
 62
     7
370
    15
100
AcDbLine
 10
1820.900414146303
 20
1366.099820130971
 30
0.0
 11
1814.006213685043
 21
1366.099820130971
 31
0.0
  0
LINE
  5
651
330
5EF
100
AcDbEntity
  8
0
  6
Continuous
 62
     7
370
    15
100
AcDbLine
 10
1820.900414146303
 20
1362.199820130971
 30
0.0
 11
1814.006213685043
 21
1362.199820130971
 31
0.0
  0
LINE
  5
652
330
5EF
100
AcDbEntity
  8
0
  6
Continuous
 62
     7
370
    15
100
AcDbLine
 10
1826.006213685043
 20
1366.099820130971
 30
0.0
 11
1826.006213685043
 21
1362.199820130971
 31
0.0
  0
LINE
  5
653
330
5EF
100
AcDbEntity
  8
0
  6
Continuous
 62
     7
370
    15
100
AcDbLine
 10
1832.900414146303
 20
1362.199820130971
 30
0.0
 11
1832.900414146303
 21
1366.099820130971
 31
0.0
  0
LINE
  5
654
330
5EF
100
AcDbEntity
  8
0
  6
Continuous
 62
     7
370
    15
100
AcDbLine
 10
1832.900414146303
 20
1366.099820130971
 30
0.0
 11
1826.006213685043
 21
1366.099820130971
 31
0.0
  0
LINE
  5
655
330
5EF
100
AcDbEntity
  8
0
  6
Continuous
 62
     7
370
    15
100
AcDbLine
 10
1832.900414146303
 20
1362.199820130971
 30
0.0
 11
1826.006213685043
 21
1362.199820130971
 31
0.0
  0
LINE
  5
656
330
5EF
100
AcDbEntity
  8
0
  6
Continuous
 62
     7
370
    15
100
AcDbLine
 10
1838.006213685044
 20
1366.099820130971
 30
0.0
 11
1838.006213685044
 21
1362.199820130971
 31
0.0
  0
LINE
  5
657
330
5EF
100
AcDbEntity
  8
0
  6
Continuous
 62
     7
370
    15
100
AcDbLine
 10
1844.900414146303
 20
1362.199820130971
 30
0.0
 11
1844.900414146303
 21
1366.099820130971
 31
0.0
  0
LINE
  5
658
330
5EF
100
AcDbEntity
  8
0
  6
Continuous
 62
     7
370
    15
100
AcDbLine
 10
1844.900414146303
 20
1366.099820130971
 30
0.0
 11
1838.006213685044
 21
1366.099820130971
 31
0.0
  0
LINE
  5
659
330
5EF
100
AcDbEntity
  8
0
  6
Continuous
 62
     7
370
    15
100
AcDbLine
 10
1844.900414146303
 20
1362.199820130971
 30
0.0
 11
1838.006213685044
 21
1362.199820130971
 31
0.0
  0
LINE
  5
65A
330
5EF
100
AcDbEntity
  8
0
  6
Continuous
 62
     7
370
    15
100
AcDbLine
 10
1850.006213685043
 20
1366.099820130971
 30
0.0
 11
1850.006213685043
 21
1362.199820130971
 31
0.0
  0
LINE
  5
65B
330
5EF
100
AcDbEntity
  8
0
  6
Continuous
 62
     7
370
    15
100
AcDbLine
 10
1856.900414146303
 20
1362.199820130971
 30
0.0
 11
1856.900414146303
 21
1366.099820130971
 31
0.0
  0
LINE
  5
65C
330
5EF
100
AcDbEntity
  8
0
  6
Continuous
 62
     7
370
    15
100
AcDbLine
 10
1856.900414146303
 20
1366.099820130971
 30
0.0
 11
1850.006213685043
 21
1366.099820130971
 31
0.0
  0
LINE
  5
65D
330
5EF
100
AcDbEntity
  8
0
  6
Continuous
 62
     7
370
    15
100
AcDbLine
 10
1856.900414146303
 20
1362.199820130971
 30
0.0
 11
1850.006213685043
 21
1362.199820130971
 31
0.0
  0
LINE
  5
65E
330
5EF
100
AcDbEntity
  8
0
  6
Continuous
 62
     7
370
    15
100
AcDbLine
 10
1862.006213685043
 20
1366.099820130971
 30
0.0
 11
1862.006213685043
 21
1362.199820130971
 31
0.0
  0
LINE
  5
65F
330
5EF
100
AcDbEntity
  8
0
  6
Continuous
 62
     7
370
    15
100
AcDbLine
 10
1868.900414146303
 20
1362.199820130971
 30
0.0
 11
1868.900414146303
 21
1366.099820130971
 31
0.0
  0
LINE
  5
660
330
5EF
100
AcDbEntity
  8
0
  6
Continuous
 62
     7
370
    15
100
AcDbLine
 10
1868.900414146303
 20
1366.099820130971
 30
0.0
 11
1862.006213685043
 21
1366.099820130971
 31
0.0
  0
LINE
  5
661
330
5EF
100
AcDbEntity
  8
0
  6
Continuous
 62
     7
370
    15
100
AcDbLine
 10
1868.900414146303
 20
1362.199820130971
 30
0.0
 11
1862.006213685043
 21
1362.199820130971
 31
0.0
  0
SPLINE
  5
662
330
5EF
100
AcDbEntity
  8
0
  6
Continuous
 62
     7
370
    15
100
AcDbSpline
210
0.0
220
0.0
230
1.0
 70
    24
 71
     3
 72
    10
 73
     6
 74
     0
 42
0.0000000001
 43
0.0000000001
 40
0.0
 40
0.0
 40
0.0
 40
0.0
 40
0.5
 40
0.5
 40
1.0
 40
1.0
 40
1.0
 40
1.0
 10
1862.228313915673
 20
1366.999820130971
 30
0.0
 10
1862.228313915673
 20
1366.999820130971
 30
0.0
 10
1863.673388008671
 20
1366.999820130971
 30
0.0
 10
1867.233239822675
 20
1366.999820130971
 30
0.0
 10
1868.678313915673
 20
1366.999820130971
 30
0.0
 10
1868.678313915673
 20
1366.999820130971
 30
0.0
  0
SPLINE
  5
663
330
5EF
100
AcDbEntity
  8
0
  6
Continuous
 62
     7
370
    15
100
AcDbSpline
210
0.0
220
0.0
230
1.0
 70
    24
 71
     3
 72
    10
 73
     6
 74
     0
 42
0.0000000001
 43
0.0000000001
 40
0.0
 40
0.0
 40
0.0
 40
0.0
 40
0.5
 40
0.5
 40
1.0
 40
1.0
 40
1.0
 40
1.0
 10
1790.228313915673
 20
1366.999820130971
 30
0.0
 10
1790.228313915673
 20
1366.999820130971
 30
0.0
 10
1791.673388008671
 20
1366.999820130971
 30
0.0
 10
1795.233239822675
 20
1366.999820130971
 30
0.0
 10
1796.678313915673
 20
1366.999820130971
 30
0.0
 10
1796.678313915673
 20
1366.999820130971
 30
0.0
  0
SPLINE
  5
664
330
5EF
100
AcDbEntity
  8
0
  6
Continuous
 62
     7
370
    15
100
AcDbSpline
210
0.0
220
0.0
230
1.0
 70
    24
 71
     3
 72
    10
 73
     6
 74
     0
 42
0.0000000001
 43
0.0000000001
 40
0.0
 40
0.0
 40
0.0
 40
0.0
 40
0.5
 40
0.5
 40
1.0
 40
1.0
 40
1.0
 40
1.0
 10
1802.228313915673
 20
1366.999820130971
 30
0.0
 10
1802.228313915673
 20
1366.999820130971
 30
0.0
 10
1803.673388008671
 20
1366.999820130971
 30
0.0
 10
1807.233239822675
 20
1366.999820130971
 30
0.0
 10
1808.678313915673
 20
1366.999820130971
 30
0.0
 10
1808.678313915673
 20
1366.999820130971
 30
0.0
  0
SPLINE
  5
665
330
5EF
100
AcDbEntity
  8
0
  6
Continuous
 62
     7
370
    15
100
AcDbSpline
210
0.0
220
0.0
230
1.0
 70
    24
 71
     3
 72
    10
 73
     6
 74
     0
 42
0.0000000001
 43
0.0000000001
 40
0.0
 40
0.0
 40
0.0
 40
0.0
 40
0.5
 40
0.5
 40
1.0
 40
1.0
 40
1.0
 40
1.0
 10
1814.228313915673
 20
1366.999820130971
 30
0.0
 10
1814.228313915673
 20
1366.999820130971
 30
0.0
 10
1815.673388008671
 20
1366.999820130971
 30
0.0
 10
1819.233239822675
 20
1366.999820130971
 30
0.0
 10
1820.678313915673
 20
1366.999820130971
 30
0.0
 10
1820.678313915673
 20
1366.999820130971
 30
0.0
  0
SPLINE
  5
666
330
5EF
100
AcDbEntity
  8
0
  6
Continuous
 62
     7
370
    15
100
AcDbSpline
210
0.0
220
0.0
230
1.0
 70
    24
 71
     3
 72
    10
 73
     6
 74
     0
 42
0.0000000001
 43
0.0000000001
 40
0.0
 40
0.0
 40
0.0
 40
0.0
 40
0.5
 40
0.5
 40
1.0
 40
1.0
 40
1.0
 40
1.0
 10
1826.228313915673
 20
1366.999820130971
 30
0.0
 10
1826.228313915673
 20
1366.999820130971
 30
0.0
 10
1827.673388008671
 20
1366.999820130971
 30
0.0
 10
1831.233239822675
 20
1366.999820130971
 30
0.0
 10
1832.678313915673
 20
1366.999820130971
 30
0.0
 10
1832.678313915673
 20
1366.999820130971
 30
0.0
  0
SPLINE
  5
667
330
5EF
100
AcDbEntity
  8
0
  6
Continuous
 62
     7
370
    15
100
AcDbSpline
210
0.0
220
0.0
230
1.0
 70
    24
 71
     3
 72
    10
 73
     6
 74
     0
 42
0.0000000001
 43
0.0000000001
 40
0.0
 40
0.0
 40
0.0
 40
0.0
 40
0.5
 40
0.5
 40
1.0
 40
1.0
 40
1.0
 40
1.0
 10
1838.228313915673
 20
1366.999820130971
 30
0.0
 10
1838.228313915673
 20
1366.999820130971
 30
0.0
 10
1839.673388008671
 20
1366.999820130971
 30
0.0
 10
1843.233239822675
 20
1366.999820130971
 30
0.0
 10
1844.678313915673
 20
1366.999820130971
 30
0.0
 10
1844.678313915673
 20
1366.999820130971
 30
0.0
  0
SPLINE
  5
668
330
5EF
100
AcDbEntity
  8
0
  6
Continuous
 62
     7
370
    15
100
AcDbSpline
210
0.0
220
0.0
230
1.0
 70
    24
 71
     3
 72
    10
 73
     6
 74
     0
 42
0.0000000001
 43
0.0000000001
 40
0.0
 40
0.0
 40
0.0
 40
0.0
 40
0.5
 40
0.5
 40
1.0
 40
1.0
 40
1.0
 40
1.0
 10
1850.228313915673
 20
1366.999820130971
 30
0.0
 10
1850.228313915673
 20
1366.999820130971
 30
0.0
 10
1851.673388008671
 20
1366.999820130971
 30
0.0
 10
1855.233239822675
 20
1366.999820130971
 30
0.0
 10
1856.678313915673
 20
1366.999820130971
 30
0.0
 10
1856.678313915673
 20
1366.999820130971
 30
0.0
  0
LINE
  5
669
330
5EF
100
AcDbEntity
  8
0
  6
Continuous
 62
     7
370
    15
100
AcDbLine
 10
1796.878313915673
 20
1372.399820130971
 30
0.0
 11
1790.028313915673
 21
1372.399820130971
 31
0.0
  0
LINE
  5
66A
330
5EF
100
AcDbEntity
  8
0
  6
Continuous
 62
     7
370
    15
100
AcDbLine
 10
1808.878313915673
 20
1372.399820130971
 30
0.0
 11
1802.028313915673
 21
1372.399820130971
 31
0.0
  0
LINE
  5
66B
330
5EF
100
AcDbEntity
  8
0
  6
Continuous
 62
     7
370
    15
100
AcDbLine
 10
1820.878313915673
 20
1372.399820130971
 30
0.0
 11
1814.028313915673
 21
1372.399820130971
 31
0.0
  0
LINE
  5
66C
330
5EF
100
AcDbEntity
  8
0
  6
Continuous
 62
     7
370
    15
100
AcDbLine
 10
1832.878313915673
 20
1372.399820130971
 30
0.0
 11
1826.028313915673
 21
1372.399820130971
 31
0.0
  0
LINE
  5
66D
330
5EF
100
AcDbEntity
  8
0
  6
Continuous
 62
     7
370
    15
100
AcDbLine
 10
1844.878313915673
 20
1372.399820130971
 30
0.0
 11
1838.028313915673
 21
1372.399820130971
 31
0.0
  0
LINE
  5
66E
330
5EF
100
AcDbEntity
  8
0
  6
Continuous
 62
     7
370
    15
100
AcDbLine
 10
1856.878313915673
 20
1372.399820130971
 30
0.0
 11
1850.028313915673
 21
1372.399820130971
 31
0.0
  0
LINE
  5
66F
330
5EF
100
AcDbEntity
  8
0
  6
Continuous
 62
     7
370
    15
100
AcDbLine
 10
1868.878313915673
 20
1372.399820130971
 30
0.0
 11
1862.028313915673
 21
1372.399820130971
 31
0.0
  0
LINE
  5
670
330
5EF
100
AcDbEntity
  8
0
  6
Continuous
 62
     7
370
    15
100
AcDbLine
 10
1787.753313915673
 20
1366.099820130971
 30
0.0
 11
1787.753313915673
 21
1362.199820130971
 31
0.0
  0
LINE
  5
671
330
5EF
100
AcDbEntity
  8
0
  6
Continuous
 62
     7
370
    15
100
AcDbLine
 10
1787.753313915673
 20
1366.099820130971
 30
0.0
 11
1790.006213685044
 21
1366.099820130971
 31
0.0
  0
LINE
  5
672
330
5EF
100
AcDbEntity
  8
0
  6
Continuous
 62
     7
370
    15
100
AcDbLine
 10
1790.006213685044
 20
1362.199820130971
 30
0.0
 11
1787.753313915673
 21
1362.199820130971
 31
0.0
  0
LINE
  5
673
330
5EF
100
AcDbEntity
  8
0
  6
Continuous
 62
     7
370
    15
100
AcDbLine
 10
1796.900414146303
 20
1366.099820130971
 30
0.0
 11
1802.006213685044
 21
1366.099820130971
 31
0.0
  0
LINE
  5
674
330
5EF
100
AcDbEntity
  8
0
  6
Continuous
 62
     7
370
    15
100
AcDbLine
 10
1802.006213685044
 20
1362.199820130971
 30
0.0
 11
1796.900414146303
 21
1362.199820130971
 31
0.0
  0
LINE
  5
675
330
5EF
100
AcDbEntity
  8
0
  6
Continuous
 62
     7
370
    15
100
AcDbLine
 10
1808.900414146303
 20
1366.099820130971
 30
0.0
 11
1814.006213685043
 21
1366.099820130971
 31
0.0
  0
LINE
  5
676
330
5EF
100
AcDbEntity
  8
0
  6
Continuous
 62
     7
370
    15
100
AcDbLine
 10
1814.006213685043
 20
1362.199820130971
 30
0.0
 11
1808.900414146303
 21
1362.199820130971
 31
0.0
  0
LINE
  5
677
330
5EF
100
AcDbEntity
  8
0
  6
Continuous
 62
     7
370
    15
100
AcDbLine
 10
1820.900414146303
 20
1366.099820130971
 30
0.0
 11
1826.006213685043
 21
1366.099820130971
 31
0.0
  0
LINE
  5
678
330
5EF
100
AcDbEntity
  8
0
  6
Continuous
 62
     7
370
    15
100
AcDbLine
 10
1826.006213685043
 20
1362.199820130971
 30
0.0
 11
1820.900414146303
 21
1362.199820130971
 31
0.0
  0
LINE
  5
679
330
5EF
100
AcDbEntity
  8
0
  6
Continuous
 62
     7
370
    15
100
AcDbLine
 10
1832.900414146303
 20
1366.099820130971
 30
0.0
 11
1838.006213685044
 21
1366.099820130971
 31
0.0
  0
LINE
  5
67A
330
5EF
100
AcDbEntity
  8
0
  6
Continuous
 62
     7
370
    15
100
AcDbLine
 10
1838.006213685044
 20
1362.199820130971
 30
0.0
 11
1832.900414146303
 21
1362.199820130971
 31
0.0
  0
LINE
  5
67B
330
5EF
100
AcDbEntity
  8
0
  6
Continuous
 62
     7
370
    15
100
AcDbLine
 10
1856.900414146303
 20
1366.099820130971
 30
0.0
 11
1862.006213685043
 21
1366.099820130971
 31
0.0
  0
LINE
  5
67C
330
5EF
100
AcDbEntity
  8
0
  6
Continuous
 62
     7
370
    15
100
AcDbLine
 10
1862.006213685043
 20
1362.199820130971
 30
0.0
 11
1856.900414146303
 21
1362.199820130971
 31
0.0
  0
LINE
  5
67D
330
5EF
100
AcDbEntity
  8
0
  6
Continuous
 62
     7
370
    15
100
AcDbLine
 10
1844.900414146303
 20
1366.099820130971
 30
0.0
 11
1850.006213685043
 21
1366.099820130971
 31
0.0
  0
LINE
  5
67E
330
5EF
100
AcDbEntity
  8
0
  6
Continuous
 62
     7
370
    15
100
AcDbLine
 10
1850.006213685043
 20
1362.199820130971
 30
0.0
 11
1844.900414146303
 21
1362.199820130971
 31
0.0
  0
LINE
  5
67F
330
5EF
100
AcDbEntity
  8
0
  6
Continuous
 62
     7
370
    15
100
AcDbLine
 10
1871.153313915672
 20
1366.099820130971
 30
0.0
 11
1871.153313915672
 21
1362.199820130971
 31
0.0
  0
LINE
  5
680
330
5EF
100
AcDbEntity
  8
0
  6
Continuous
 62
     7
370
    15
100
AcDbLine
 10
1868.900414146303
 20
1366.099820130971
 30
0.0
 11
1871.153313915672
 21
1366.099820130971
 31
0.0
  0
LINE
  5
681
330
5EF
100
AcDbEntity
  8
0
  6
Continuous
 62
     7
370
    15
100
AcDbLine
 10
1871.153313915672
 20
1362.199820130971
 30
0.0
 11
1868.900414146303
 21
1362.199820130971
 31
0.0
  0
LINE
  5
682
330
5EF
100
AcDbEntity
  8
0
  6
Continuous
 62
     7
370
    15
100
AcDbLine
 10
1790.391636309084
 20
1351.399820130891
 30
0.0
 11
1796.391636309084
 21
1351.399820130891
 31
0.0
  0
LINE
  5
683
330
5EF
100
AcDbEntity
  8
0
  6
Continuous
 62
     7
370
    15
100
AcDbLine
 10
1793.391636309084
 20
1351.199820131015
 30
0.0
 11
1796.19163630912
 21
1351.199820131015
 31
0.0
  0
LINE
  5
684
330
5EF
100
AcDbEntity
  8
0
  6
Continuous
 62
     7
370
    15
100
AcDbLine
 10
1790.591636309048
 20
1351.199820131015
 30
0.0
 11
1793.391636309084
 21
1351.199820131015
 31
0.0
  0
LINE
  5
685
330
5EF
100
AcDbEntity
  8
0
  6
Continuous
 62
     7
370
    15
100
AcDbLine
 10
1790.391636309092
 20
1362.099820130894
 30
0.0
 11
1796.391636309076
 21
1362.099820130894
 31
0.0
  0
LINE
  5
686
330
5EF
100
AcDbEntity
  8
0
  6
Continuous
 62
     7
370
    15
100
AcDbLine
 10
1802.391636309084
 20
1351.399820130891
 30
0.0
 11
1808.391636309084
 21
1351.399820130891
 31
0.0
  0
LINE
  5
687
330
5EF
100
AcDbEntity
  8
0
  6
Continuous
 62
     7
370
    15
100
AcDbLine
 10
1805.391636309084
 20
1351.199820131015
 30
0.0
 11
1808.19163630912
 21
1351.199820131015
 31
0.0
  0
LINE
  5
688
330
5EF
100
AcDbEntity
  8
0
  6
Continuous
 62
     7
370
    15
100
AcDbLine
 10
1802.591636309048
 20
1351.199820131015
 30
0.0
 11
1805.391636309084
 21
1351.199820131015
 31
0.0
  0
LINE
  5
689
330
5EF
100
AcDbEntity
  8
0
  6
Continuous
 62
     7
370
    15
100
AcDbLine
 10
1802.391636309092
 20
1362.099820130894
 30
0.0
 11
1808.391636309076
 21
1362.099820130894
 31
0.0
  0
LINE
  5
68A
330
5EF
100
AcDbEntity
  8
0
  6
Continuous
 62
     7
370
    15
100
AcDbLine
 10
1814.391636309084
 20
1351.399820130891
 30
0.0
 11
1820.391636309084
 21
1351.399820130891
 31
0.0
  0
LINE
  5
68B
330
5EF
100
AcDbEntity
  8
0
  6
Continuous
 62
     7
370
    15
100
AcDbLine
 10
1817.391636309084
 20
1351.199820131015
 30
0.0
 11
1820.19163630912
 21
1351.199820131015
 31
0.0
  0
LINE
  5
68C
330
5EF
100
AcDbEntity
  8
0
  6
Continuous
 62
     7
370
    15
100
AcDbLine
 10
1814.591636309048
 20
1351.199820131015
 30
0.0
 11
1817.391636309084
 21
1351.199820131015
 31
0.0
  0
LINE
  5
68D
330
5EF
100
AcDbEntity
  8
0
  6
Continuous
 62
     7
370
    15
100
AcDbLine
 10
1814.391636309092
 20
1362.099820130894
 30
0.0
 11
1820.391636309076
 21
1362.099820130894
 31
0.0
  0
LINE
  5
68E
330
5EF
100
AcDbEntity
  8
0
  6
Continuous
 62
     7
370
    15
100
AcDbLine
 10
1826.391636309092
 20
1362.099820130894
 30
0.0
 11
1832.391636309076
 21
1362.099820130894
 31
0.0
  0
LINE
  5
68F
330
5EF
100
AcDbEntity
  8
0
  6
Continuous
 62
     7
370
    15
100
AcDbLine
 10
1826.391636309084
 20
1351.399820130891
 30
0.0
 11
1832.391636309084
 21
1351.399820130891
 31
0.0
  0
LINE
  5
690
330
5EF
100
AcDbEntity
  8
0
  6
Continuous
 62
     7
370
    15
100
AcDbLine
 10
1829.391636309084
 20
1351.199820131015
 30
0.0
 11
1832.19163630912
 21
1351.199820131015
 31
0.0
  0
LINE
  5
691
330
5EF
100
AcDbEntity
  8
0
  6
Continuous
 62
     7
370
    15
100
AcDbLine
 10
1826.591636309048
 20
1351.199820131015
 30
0.0
 11
1829.391636309084
 21
1351.199820131015
 31
0.0
  0
LINE
  5
692
330
5EF
100
AcDbEntity
  8
0
  6
Continuous
 62
     7
370
    15
100
AcDbLine
 10
1838.391636309092
 20
1362.099820130894
 30
0.0
 11
1844.391636309076
 21
1362.099820130894
 31
0.0
  0
LINE
  5
693
330
5EF
100
AcDbEntity
  8
0
  6
Continuous
 62
     7
370
    15
100
AcDbLine
 10
1838.391636309084
 20
1351.399820130891
 30
0.0
 11
1844.391636309084
 21
1351.399820130891
 31
0.0
  0
LINE
  5
694
330
5EF
100
AcDbEntity
  8
0
  6
Continuous
 62
     7
370
    15
100
AcDbLine
 10
1841.391636309084
 20
1351.199820131015
 30
0.0
 11
1844.19163630912
 21
1351.199820131015
 31
0.0
  0
LINE
  5
695
330
5EF
100
AcDbEntity
  8
0
  6
Continuous
 62
     7
370
    15
100
AcDbLine
 10
1838.591636309048
 20
1351.199820131015
 30
0.0
 11
1841.391636309084
 21
1351.199820131015
 31
0.0
  0
LINE
  5
696
330
5EF
100
AcDbEntity
  8
0
  6
Continuous
 62
     7
370
    15
100
AcDbLine
 10
1850.391636309092
 20
1362.099820130894
 30
0.0
 11
1856.391636309076
 21
1362.099820130894
 31
0.0
  0
LINE
  5
697
330
5EF
100
AcDbEntity
  8
0
  6
Continuous
 62
     7
370
    15
100
AcDbLine
 10
1850.391636309084
 20
1351.399820130891
 30
0.0
 11
1856.391636309084
 21
1351.399820130891
 31
0.0
  0
LINE
  5
698
330
5EF
100
AcDbEntity
  8
0
  6
Continuous
 62
     7
370
    15
100
AcDbLine
 10
1853.391636309084
 20
1351.199820131015
 30
0.0
 11
1856.19163630912
 21
1351.199820131015
 31
0.0
  0
LINE
  5
699
330
5EF
100
AcDbEntity
  8
0
  6
Continuous
 62
     7
370
    15
100
AcDbLine
 10
1850.591636309048
 20
1351.199820131015
 30
0.0
 11
1853.391636309084
 21
1351.199820131015
 31
0.0
  0
LINE
  5
69A
330
5EF
100
AcDbEntity
  8
0
  6
Continuous
 62
     7
370
    15
100
AcDbLine
 10
1862.391636309092
 20
1362.099820130894
 30
0.0
 11
1868.391636309076
 21
1362.099820130894
 31
0.0
  0
LINE
  5
69B
330
5EF
100
AcDbEntity
  8
0
  6
Continuous
 62
     7
370
    15
100
AcDbLine
 10
1862.391636309084
 20
1351.399820130891
 30
0.0
 11
1868.391636309084
 21
1351.399820130891
 31
0.0
  0
LINE
  5
69C
330
5EF
100
AcDbEntity
  8
0
  6
Continuous
 62
     7
370
    15
100
AcDbLine
 10
1865.391636309084
 20
1351.199820131015
 30
0.0
 11
1868.19163630912
 21
1351.199820131015
 31
0.0
  0
LINE
  5
69D
330
5EF
100
AcDbEntity
  8
0
  6
Continuous
 62
     7
370
    15
100
AcDbLine
 10
1862.591636309048
 20
1351.199820131015
 30
0.0
 11
1865.391636309084
 21
1351.199820131015
 31
0.0
  0
LINE
  5
69E
330
5EF
100
AcDbEntity
  8
0
  6
Continuous
 62
     8
370
    15
100
AcDbLine
 10
1868.878313915673
 20
1367.199820130971
 30
0.0
 11
1862.028313915673
 21
1367.199820130971
 31
0.0
  0
LINE
  5
69F
330
5EF
100
AcDbEntity
  8
0
  6
Continuous
 62
     8
370
    15
100
AcDbLine
 10
1796.878313915673
 20
1367.199820130971
 30
0.0
 11
1790.028313915673
 21
1367.199820130971
 31
0.0
  0
LINE
  5
6A0
330
5EF
100
AcDbEntity
  8
0
  6
Continuous
 62
     8
370
    15
100
AcDbLine
 10
1808.878313915673
 20
1367.199820130971
 30
0.0
 11
1802.028313915673
 21
1367.199820130971
 31
0.0
  0
LINE
  5
6A1
330
5EF
100
AcDbEntity
  8
0
  6
Continuous
 62
     8
370
    15
100
AcDbLine
 10
1820.878313915673
 20
1367.199820130971
 30
0.0
 11
1814.028313915673
 21
1367.199820130971
 31
0.0
  0
LINE
  5
6A2
330
5EF
100
AcDbEntity
  8
0
  6
Continuous
 62
     8
370
    15
100
AcDbLine
 10
1832.878313915673
 20
1367.199820130971
 30
0.0
 11
1826.028313915673
 21
1367.199820130971
 31
0.0
  0
LINE
  5
6A3
330
5EF
100
AcDbEntity
  8
0
  6
Continuous
 62
     8
370
    15
100
AcDbLine
 10
1844.878313915673
 20
1367.199820130971
 30
0.0
 11
1838.028313915673
 21
1367.199820130971
 31
0.0
  0
LINE
  5
6A4
330
5EF
100
AcDbEntity
  8
0
  6
Continuous
 62
     8
370
    15
100
AcDbLine
 10
1856.878313915673
 20
1367.199820130971
 30
0.0
 11
1850.028313915673
 21
1367.199820130971
 31
0.0
  0
ENDBLK
  5
5F1
330
5EF
100
AcDbEntity
  8
0
100
AcDbBlockEnd
  0
BLOCK
  5
6A7
330
6A6
100
AcDbEntity
  8
0
100
AcDbBlockBegin
  2
2
 70
     0
 10
0.0
 20
0.0
 30
0.0
  3
2
  1

  0
LINE
  5
6A9
330
6A6
100
AcDbEntity
  8
0
  6
Continuous
 62
     7
370
    15
100
AcDbLine
 10
1760.623197069979
 20
1366.099820130971
 30
0.0
 11
1760.623197069979
 21
1362.199820130971
 31
0.0
  0
LINE
  5
6AA
330
6A6
100
AcDbEntity
  8
0
  6
Continuous
 62
     7
370
    15
100
AcDbLine
 10
1768.023197069979
 20
1362.199820130971
 30
0.0
 11
1768.023197069979
 21
1366.099820130971
 31
0.0
  0
ARC
  5
6AB
330
6A6
100
AcDbEntity
  8
0
  6
Continuous
 62
     7
370
    15
100
AcDbCircle
 10
1761.098197069979
 20
1367.199820130971
 30
0.0
 40
0.2000000000000028
100
AcDbArc
 50
180.0
 51
270.0
  0
ARC
  5
6AC
330
6A6
100
AcDbEntity
  8
0
  6
Continuous
 62
     7
370
    15
100
AcDbCircle
 10
1767.548197069979
 20
1367.199820130971
 30
0.0
 40
0.2000000000000028
100
AcDbArc
 50
270.0
 51
0.0
  0
LINE
  5
6AD
330
6A6
100
AcDbEntity
  8
0
  6
Continuous
 62
     7
370
    15
100
AcDbLine
 10
1767.748197069979
 20
1367.199820130971
 30
0.0
 11
1767.748197069979
 21
1372.399820130971
 31
0.0
  0
LINE
  5
6AE
330
6A6
100
AcDbEntity
  8
0
  6
Continuous
 62
     7
370
    15
100
AcDbLine
 10
1760.898197069979
 20
1372.399820130971
 30
0.0
 11
1760.898197069979
 21
1367.199820130971
 31
0.0
  0
LINE
  5
6AF
330
6A6
100
AcDbEntity
  8
0
  6
Continuous
 62
     7
370
    15
100
AcDbLine
 10
1767.323197069979
 20
1366.099820130971
 30
0.0
 11
1767.323197069979
 21
1366.999820130971
 31
0.0
  0
LINE
  5
6B0
330
6A6
100
AcDbEntity
  8
0
  6
Continuous
 62
     7
370
    15
100
AcDbLine
 10
1761.323197069979
 20
1366.999820130971
 30
0.0
 11
1761.323197069979
 21
1366.099820130971
 31
0.0
  0
LINE
  5
6B1
330
6A6
100
AcDbEntity
  8
0
  6
Continuous
 62
     7
370
    15
100
AcDbLine
 10
1767.323197069979
 20
1351.399820130891
 30
0.0
 11
1767.323197069979
 21
1362.099820130894
 31
0.0
  0
LINE
  5
6B2
330
6A6
100
AcDbEntity
  8
0
  6
Continuous
 62
     7
370
    15
100
AcDbLine
 10
1761.323197069979
 20
1362.099820130894
 30
0.0
 11
1761.323197069979
 21
1351.399820130891
 31
0.0
  0
LINE
  5
6B3
330
6A6
100
AcDbEntity
  8
0
  6
Continuous
 62
     7
370
    15
100
AcDbLine
 10
1761.323197070067
 20
1351.399820130891
 30
0.0
 11
1761.523197069943
 21
1351.199820131015
 31
0.0
  0
LINE
  5
6B4
330
6A6
100
AcDbEntity
  8
0
  6
Continuous
 62
     7
370
    15
100
AcDbLine
 10
1767.123197070015
 20
1351.199820131015
 30
0.0
 11
1767.32319706989
 21
1351.399820130891
 31
0.0
  0
LINE
  5
6B5
330
6A6
100
AcDbEntity
  8
0
  6
Continuous
 62
     7
370
    15
100
AcDbLine
 10
1767.323197069971
 20
1362.099820130894
 30
0.0
 11
1767.223197069882
 21
1362.199820130983
 31
0.0
  0
LINE
  5
6B6
330
6A6
100
AcDbEntity
  8
0
  6
Continuous
 62
     7
370
    15
100
AcDbLine
 10
1761.423197070075
 20
1362.199820130983
 30
0.0
 11
1761.323197069987
 21
1362.099820130894
 31
0.0
  0
LINE
  5
6B7
330
6A6
100
AcDbEntity
  8
0
  6
Continuous
 62
     7
370
    15
100
AcDbLine
 10
1760.973197069979
 20
1366.099820130971
 30
0.0
 11
1760.973197069979
 21
1362.199820130971
 31
0.0
  0
LINE
  5
6B8
330
6A6
100
AcDbEntity
  8
0
  6
Continuous
 62
     7
370
    15
100
AcDbLine
 10
1767.673197069979
 20
1366.099820130971
 30
0.0
 11
1767.673197069979
 21
1362.199820130971
 31
0.0
  0
LINE
  5
6B9
330
6A6
100
AcDbEntity
  8
0
  6
Continuous
 62
     7
370
    15
100
AcDbLine
 10
1767.673197069979
 20
1362.199820130971
 30
0.0
 11
1760.973197069979
 21
1362.199820130971
 31
0.0
  0
LINE
  5
6BA
330
6A6
100
AcDbEntity
  8
0
  6
Continuous
 62
     7
370
    15
100
AcDbLine
 10
1760.973197069979
 20
1366.099820130971
 30
0.0
 11
1767.673197069979
 21
1366.099820130971
 31
0.0
  0
LINE
  5
6BB
330
6A6
100
AcDbEntity
  8
0
  6
Continuous
 62
     7
370
    15
100
AcDbLine
 10
1760.973197069979
 20
1362.199820130971
 30
0.0
 11
1760.623197069979
 21
1362.199820130971
 31
0.0
  0
LINE
  5
6BC
330
6A6
100
AcDbEntity
  8
0
  6
Continuous
 62
     7
370
    15
100
AcDbLine
 10
1760.973197069979
 20
1366.099820130971
 30
0.0
 11
1760.623197069979
 21
1366.099820130971
 31
0.0
  0
LINE
  5
6BD
330
6A6
100
AcDbEntity
  8
0
  6
Continuous
 62
     7
370
    15
100
AcDbLine
 10
1768.023197069979
 20
1362.199820130971
 30
0.0
 11
1767.673197069979
 21
1362.199820130971
 31
0.0
  0
LINE
  5
6BE
330
6A6
100
AcDbEntity
  8
0
  6
Continuous
 62
     7
370
    15
100
AcDbLine
 10
1768.023197069979
 20
1366.099820130971
 30
0.0
 11
1767.673197069979
 21
1366.099820130971
 31
0.0
  0
SPLINE
  5
6BF
330
6A6
100
AcDbEntity
  8
0
  6
Continuous
 62
     7
370
    15
100
AcDbSpline
210
0.0
220
0.0
230
1.0
 70
    24
 71
     3
 72
    10
 73
     6
 74
     0
 42
0.0000000001
 43
0.0000000001
 40
0.0
 40
0.0
 40
0.0
 40
0.0
 40
0.5
 40
0.5
 40
1.0
 40
1.0
 40
1.0
 40
1.0
 10
1761.098197069979
 20
1366.999820130971
 30
0.0
 10
1761.098197069979
 20
1366.999820130971
 30
0.0
 10
1761.437989996619
 20
1366.999820130971
 30
0.0
 10
1762.647565404685
 20
1366.999820130971
 30
0.0
 10
1763.467898096578
 20
1366.999820130971
 30
0.0
 10
1764.323197069979
 20
1366.999820130971
 30
0.0
  0
SPLINE
  5
6C0
330
6A6
100
AcDbEntity
  8
0
  6
Continuous
 62
     7
370
    15
100
AcDbSpline
210
0.0
220
0.0
230
1.0
 70
    24
 71
     3
 72
     8
 73
     4
 74
     0
 42
0.0000000001
 43
0.0000000001
 40
0.0
 40
0.0
 40
0.0
 40
0.0
 40
1.0
 40
1.0
 40
1.0
 40
1.0
 10
1764.323197069979
 20
1366.999820130971
 30
0.0
 10
1766.10312297698
 20
1366.999820130971
 30
0.0
 10
1767.548197069979
 20
1366.999820130971
 30
0.0
 10
1767.548197069979
 20
1366.999820130971
 30
0.0
  0
LINE
  5
6C1
330
6A6
100
AcDbEntity
  8
0
  6
Continuous
 62
     7
370
    15
100
AcDbLine
 10
1767.748197069979
 20
1372.399820130971
 30
0.0
 11
1760.898197069979
 21
1372.399820130971
 31
0.0
  0
LINE
  5
6C2
330
6A6
100
AcDbEntity
  8
0
  6
Continuous
 62
     7
370
    15
100
AcDbLine
 10
1761.323197069987
 20
1362.099820130894
 30
0.0
 11
1767.323197069971
 21
1362.099820130894
 31
0.0
  0
LINE
  5
6C3
330
6A6
100
AcDbEntity
  8
0
  6
Continuous
 62
     7
370
    15
100
AcDbLine
 10
1761.323197069979
 20
1351.399820130891
 30
0.0
 11
1767.323197069979
 21
1351.399820130891
 31
0.0
  0
LINE
  5
6C4
330
6A6
100
AcDbEntity
  8
0
  6
Continuous
 62
     7
370
    15
100
AcDbLine
 10
1761.523197069943
 20
1351.199820131015
 30
0.0
 11
1767.123197070015
 21
1351.199820131015
 31
0.0
  0
LINE
  5
6C5
330
6A6
100
AcDbEntity
  8
0
  6
Continuous
 62
     8
370
    15
100
AcDbLine
 10
1764.323197069979
 20
1367.199820130971
 30
0.0
 11
1760.898197069979
 21
1367.199820130971
 31
0.0
  0
LINE
  5
6C6
330
6A6
100
AcDbEntity
  8
0
  6
Continuous
 62
     8
370
    15
100
AcDbLine
 10
1767.748197069979
 20
1367.199820130971
 30
0.0
 11
1764.323197069979
 21
1367.199820130971
 31
0.0
  0
ENDBLK
  5
6A8
330
6A6
100
AcDbEntity
  8
0
100
AcDbBlockEnd
  0
BLOCK
  5
6C9
330
6C8
100
AcDbEntity
  8
0
100
AcDbBlockBegin
  2
3
 70
     0
 10
0.0
 20
0.0
 30
0.0
  3
3
  1

  0
CIRCLE
  5
6CB
330
6C8
100
AcDbEntity
  8
0
  6
Continuous
 62
     7
370
    15
100
AcDbCircle
 10
1793.453313915673
 20
1331.918159541356
 30
0.0
 40
2.475000000010339
  0
CIRCLE
  5
6CC
330
6C8
100
AcDbEntity
  8
0
  6
Continuous
 62
     7
370
    15
100
AcDbCircle
 10
1793.453313915673
 20
1331.918159541356
 30
0.0
 40
3.425000000000011
  0
CIRCLE
  5
6CD
330
6C8
100
AcDbEntity
  8
0
  6
Continuous
 62
     7
370
    15
100
AcDbCircle
 10
1805.453313915673
 20
1331.918159541356
 30
0.0
 40
2.475000000010311
  0
ARC
  5
6CE
330
6C8
100
AcDbEntity
  8
0
  6
Continuous
 62
     7
370
    15
100
AcDbCircle
 10
1805.453313915673
 20
1331.918159541356
 30
0.0
 40
2.197439522057301
100
AcDbArc
 50
13.1521401048725
 51
166.8478598951401
  0
ARC
  5
6CF
330
6C8
100
AcDbEntity
  8
0
  6
Continuous
 62
     7
370
    15
100
AcDbCircle
 10
1805.453313915673
 20
1331.918159541356
 30
0.0
 40
2.145679479873075
100
AcDbArc
 50
166.5246847195705
 51
193.4753152804295
  0
ARC
  5
6D0
330
6C8
100
AcDbEntity
  8
0
  6
Continuous
 62
     7
370
    15
100
AcDbCircle
 10
1805.453313915673
 20
1331.918159541356
 30
0.0
 40
2.197439522057329
100
AcDbArc
 50
193.1521401048725
 51
346.8478598951402
  0
ARC
  5
6D1
330
6C8
100
AcDbEntity
  8
0
  6
Continuous
 62
     7
370
    15
100
AcDbCircle
 10
1805.453313915673
 20
1331.918159541356
 30
0.0
 40
2.145679479873102
100
AcDbArc
 50
346.5246847195832
 51
13.4753152804295
  0
CIRCLE
  5
6D2
330
6C8
100
AcDbEntity
  8
0
  6
Continuous
 62
     7
370
    15
100
AcDbCircle
 10
1829.453313915673
 20
1331.918159541356
 30
0.0
 40
2.475000000010311
  0
CIRCLE
  5
6D3
330
6C8
100
AcDbEntity
  8
0
  6
Continuous
 62
     7
370
    15
100
AcDbCircle
 10
1829.453313915673
 20
1331.918159541356
 30
0.0
 40
3.425000000000011
  0
CIRCLE
  5
6D4
330
6C8
100
AcDbEntity
  8
0
  6
Continuous
 62
     7
370
    15
100
AcDbCircle
 10
1805.453313915673
 20
1331.918159541356
 30
0.0
 40
3.425000000000011
  0
CIRCLE
  5
6D5
330
6C8
100
AcDbEntity
  8
0
  6
Continuous
 62
     7
370
    15
100
AcDbCircle
 10
1817.453313915673
 20
1331.918159541356
 30
0.0
 40
2.475000000010282
  0
ARC
  5
6D6
330
6C8
100
AcDbEntity
  8
0
  6
Continuous
 62
     7
370
    15
100
AcDbCircle
 10
1817.453313915673
 20
1331.918159541356
 30
0.0
 40
2.197439522057329
100
AcDbArc
 50
13.1521401048725
 51
166.8478598951401
  0
ARC
  5
6D7
330
6C8
100
AcDbEntity
  8
0
  6
Continuous
 62
     7
370
    15
100
AcDbCircle
 10
1817.453313915673
 20
1331.918159541356
 30
0.0
 40
2.145679479873102
100
AcDbArc
 50
166.5246847195705
 51
193.4753152804295
  0
ARC
  5
6D8
330
6C8
100
AcDbEntity
  8
0
  6
Continuous
 62
     7
370
    15
100
AcDbCircle
 10
1817.453313915673
 20
1331.918159541356
 30
0.0
 40
2.197439522057301
100
AcDbArc
 50
193.1521401048725
 51
346.8478598951402
  0
ARC
  5
6D9
330
6C8
100
AcDbEntity
  8
0
  6
Continuous
 62
     7
370
    15
100
AcDbCircle
 10
1817.453313915673
 20
1331.918159541356
 30
0.0
 40
2.145679479873102
100
AcDbArc
 50
346.5246847195832
 51
13.4753152804295
  0
CIRCLE
  5
6DA
330
6C8
100
AcDbEntity
  8
0
  6
Continuous
 62
     7
370
    15
100
AcDbCircle
 10
1853.453313915673
 20
1331.918159541356
 30
0.0
 40
2.475000000010339
  0
ARC
  5
6DB
330
6C8
100
AcDbEntity
  8
0
  6
Continuous
 62
     7
370
    15
100
AcDbCircle
 10
1853.453313915673
 20
1331.918159541356
 30
0.0
 40
2.197439522057301
100
AcDbArc
 50
13.1521401048725
 51
166.8478598951401
  0
ARC
  5
6DC
330
6C8
100
AcDbEntity
  8
0
  6
Continuous
 62
     7
370
    15
100
AcDbCircle
 10
1853.453313915673
 20
1331.918159541356
 30
0.0
 40
2.145679479873075
100
AcDbArc
 50
166.5246847195705
 51
193.4753152804295
  0
ARC
  5
6DD
330
6C8
100
AcDbEntity
  8
0
  6
Continuous
 62
     7
370
    15
100
AcDbCircle
 10
1853.453313915673
 20
1331.918159541356
 30
0.0
 40
2.197439522057301
100
AcDbArc
 50
193.1521401048725
 51
346.8478598951402
  0
ARC
  5
6DE
330
6C8
100
AcDbEntity
  8
0
  6
Continuous
 62
     7
370
    15
100
AcDbCircle
 10
1853.453313915673
 20
1331.918159541356
 30
0.0
 40
2.145679479873075
100
AcDbArc
 50
346.5246847195832
 51
13.4753152804295
  0
CIRCLE
  5
6DF
330
6C8
100
AcDbEntity
  8
0
  6
Continuous
 62
     7
370
    15
100
AcDbCircle
 10
1817.453313915673
 20
1331.918159541356
 30
0.0
 40
3.424999999999982
  0
ARC
  5
6E0
330
6C8
100
AcDbEntity
  8
0
  6
Continuous
 62
     7
370
    15
100
AcDbCircle
 10
1829.453313915673
 20
1331.918159541356
 30
0.0
 40
2.197439522057301
100
AcDbArc
 50
13.1521401048725
 51
166.8478598951401
  0
ARC
  5
6E1
330
6C8
100
AcDbEntity
  8
0
  6
Continuous
 62
     7
370
    15
100
AcDbCircle
 10
1829.453313915673
 20
1331.918159541356
 30
0.0
 40
2.145679479873075
100
AcDbArc
 50
166.5246847195705
 51
193.4753152804295
  0
ARC
  5
6E2
330
6C8
100
AcDbEntity
  8
0
  6
Continuous
 62
     7
370
    15
100
AcDbCircle
 10
1829.453313915673
 20
1331.918159541356
 30
0.0
 40
2.197439522057329
100
AcDbArc
 50
193.1521401048725
 51
346.8478598951402
  0
ARC
  5
6E3
330
6C8
100
AcDbEntity
  8
0
  6
Continuous
 62
     7
370
    15
100
AcDbCircle
 10
1829.453313915673
 20
1331.918159541356
 30
0.0
 40
2.145679479873102
100
AcDbArc
 50
346.5246847195832
 51
13.4753152804295
  0
CIRCLE
  5
6E4
330
6C8
100
AcDbEntity
  8
0
  6
Continuous
 62
     7
370
    15
100
AcDbCircle
 10
1841.453313915673
 20
1331.918159541356
 30
0.0
 40
2.475000000010311
  0
CIRCLE
  5
6E5
330
6C8
100
AcDbEntity
  8
0
  6
Continuous
 62
     7
370
    15
100
AcDbCircle
 10
1841.453313915673
 20
1331.918159541356
 30
0.0
 40
3.424999999999982
  0
ARC
  5
6E6
330
6C8
100
AcDbEntity
  8
0
  6
Continuous
 62
     7
370
    15
100
AcDbCircle
 10
1793.453313915673
 20
1331.918159541356
 30
0.0
 40
2.197439522057315
100
AcDbArc
 50
13.1521401048725
 51
166.8478598951401
  0
ARC
  5
6E7
330
6C8
100
AcDbEntity
  8
0
  6
Continuous
 62
     7
370
    15
100
AcDbCircle
 10
1793.453313915673
 20
1331.918159541356
 30
0.0
 40
2.145679479873085
100
AcDbArc
 50
166.5246847195705
 51
193.4753152804295
  0
ARC
  5
6E8
330
6C8
100
AcDbEntity
  8
0
  6
Continuous
 62
     7
370
    15
100
AcDbCircle
 10
1793.453313915673
 20
1331.918159541356
 30
0.0
 40
2.197439522057298
100
AcDbArc
 50
193.1521401048725
 51
346.8478598951402
  0
ARC
  5
6E9
330
6C8
100
AcDbEntity
  8
0
  6
Continuous
 62
     7
370
    15
100
AcDbCircle
 10
1793.453313915673
 20
1331.918159541356
 30
0.0
 40
2.145679479873075
100
AcDbArc
 50
346.5246847195832
 51
13.4753152804295
  0
ARC
  5
6EA
330
6C8
100
AcDbEntity
  8
0
  6
Continuous
 62
     7
370
    15
100
AcDbCircle
 10
1841.453313915673
 20
1331.918159541356
 30
0.0
 40
2.197439522057301
100
AcDbArc
 50
13.1521401048725
 51
166.8478598951401
  0
ARC
  5
6EB
330
6C8
100
AcDbEntity
  8
0
  6
Continuous
 62
     7
370
    15
100
AcDbCircle
 10
1841.453313915673
 20
1331.918159541356
 30
0.0
 40
2.145679479873102
100
AcDbArc
 50
166.5246847195705
 51
193.4753152804295
  0
ARC
  5
6EC
330
6C8
100
AcDbEntity
  8
0
  6
Continuous
 62
     7
370
    15
100
AcDbCircle
 10
1841.453313915673
 20
1331.918159541356
 30
0.0
 40
2.197439522057301
100
AcDbArc
 50
193.1521401048725
 51
346.8478598951402
  0
ARC
  5
6ED
330
6C8
100
AcDbEntity
  8
0
  6
Continuous
 62
     7
370
    15
100
AcDbCircle
 10
1841.453313915673
 20
1331.918159541356
 30
0.0
 40
2.145679479873102
100
AcDbArc
 50
346.5246847195832
 51
13.4753152804295
  0
CIRCLE
  5
6EE
330
6C8
100
AcDbEntity
  8
0
  6
Continuous
 62
     7
370
    15
100
AcDbCircle
 10
1865.453313915673
 20
1331.918159541356
 30
0.0
 40
2.475000000010794
  0
CIRCLE
  5
6EF
330
6C8
100
AcDbEntity
  8
0
  6
Continuous
 62
     7
370
    15
100
AcDbCircle
 10
1865.453313915673
 20
1331.918159541356
 30
0.0
 40
3.425000000000011
  0
CIRCLE
  5
6F0
330
6C8
100
AcDbEntity
  8
0
  6
Continuous
 62
     7
370
    15
100
AcDbCircle
 10
1853.453313915673
 20
1331.918159541356
 30
0.0
 40
3.424999999999982
  0
ARC
  5
6F1
330
6C8
100
AcDbEntity
  8
0
  6
Continuous
 62
     7
370
    15
100
AcDbCircle
 10
1865.453313915673
 20
1331.918159541356
 30
0.0
 40
2.197439522057772
100
AcDbArc
 50
13.1521401048725
 51
166.8478598951401
  0
ARC
  5
6F2
330
6C8
100
AcDbEntity
  8
0
  6
Continuous
 62
     7
370
    15
100
AcDbCircle
 10
1865.453313915673
 20
1331.918159541356
 30
0.0
 40
2.145679479873544
100
AcDbArc
 50
166.5246847195831
 51
193.4753152804168
  0
ARC
  5
6F3
330
6C8
100
AcDbEntity
  8
0
  6
Continuous
 62
     7
370
    15
100
AcDbCircle
 10
1865.453313915673
 20
1331.918159541356
 30
0.0
 40
2.197439522057744
100
AcDbArc
 50
193.1521401048725
 51
346.8478598951402
  0
ARC
  5
6F4
330
6C8
100
AcDbEntity
  8
0
  6
Continuous
 62
     7
370
    15
100
AcDbCircle
 10
1865.453313915673
 20
1331.918159541356
 30
0.0
 40
2.145679479873544
100
AcDbArc
 50
346.5246847195832
 51
13.47531528041683
  0
SPLINE
  5
6F5
330
6C8
100
AcDbEntity
  8
0
  6
Continuous
 62
     7
370
    15
100
AcDbSpline
210
0.0
220
0.0
230
1.0
 70
     8
 71
     3
 72
    14
 73
    10
 74
     0
 42
0.0000000001
 43
0.0000000001
 40
0.0
 40
0.0
 40
0.0
 40
0.0
 40
0.25
 40
0.25
 40
0.5
 40
0.5
 40
0.75
 40
0.75
 40
0.9999999999999998
 40
0.9999999999999998
 40
0.9999999999999998
 40
0.9999999999999998
 10
1863.52835702053
 20
1332.418159541356
 30
0.0
 10
1863.639076265915
 20
1332.844419091014
 30
0.0
 10
1863.888181643048
 20
1333.221914108872
 30
0.0
 10
1864.584912850442
 20
1333.760792058447
 30
0.0
 10
1865.012909607141
 20
1333.906993131217
 30
0.0
 10
1865.893718224205
 20
1333.906993131217
 30
0.0
 10
1866.321714980904
 20
1333.760792058447
 30
0.0
 10
1867.018446188299
 20
1333.221914108872
 30
0.0
 10
1867.267551565431
 20
1332.844419091014
 30
0.0
 10
1867.378270810817
 20
1332.418159541356
 30
0.0
  0
LINE
  5
6F6
330
6C8
100
AcDbEntity
  8
0
  6
Continuous
 62
     7
370
    15
100
AcDbLine
 10
1863.52835702053
 20
1332.418159541356
 30
0.0
 11
1867.378270810817
 21
1332.418159541356
 31
0.0
  0
SPLINE
  5
6F7
330
6C8
100
AcDbEntity
  8
0
  6
Continuous
 62
     7
370
    15
100
AcDbSpline
210
0.0
220
0.0
230
1.0
 70
     8
 71
     3
 72
    14
 73
    10
 74
     0
 42
0.0000000001
 43
0.0000000001
 40
0.0
 40
0.0
 40
0.0
 40
0.0
 40
0.25
 40
0.25
 40
0.5
 40
0.5
 40
0.75
 40
0.75
 40
0.9999999999999998
 40
0.9999999999999998
 40
0.9999999999999998
 40
0.9999999999999998
 10
1827.52835702053
 20
1332.418159541356
 30
0.0
 10
1827.639076265915
 20
1332.844419091014
 30
0.0
 10
1827.888181643048
 20
1333.221914108872
 30
0.0
 10
1828.584912850442
 20
1333.760792058447
 30
0.0
 10
1829.012909607141
 20
1333.906993131217
 30
0.0
 10
1829.893718224205
 20
1333.906993131217
 30
0.0
 10
1830.321714980904
 20
1333.760792058447
 30
0.0
 10
1831.018446188299
 20
1333.221914108872
 30
0.0
 10
1831.267551565431
 20
1332.844419091014
 30
0.0
 10
1831.378270810817
 20
1332.418159541356
 30
0.0
  0
LINE
  5
6F8
330
6C8
100
AcDbEntity
  8
0
  6
Continuous
 62
     7
370
    15
100
AcDbLine
 10
1827.52835702053
 20
1332.418159541356
 30
0.0
 11
1831.378270810817
 21
1332.418159541356
 31
0.0
  0
SPLINE
  5
6F9
330
6C8
100
AcDbEntity
  8
0
  6
Continuous
 62
     7
370
    15
100
AcDbSpline
210
0.0
220
0.0
230
1.0
 70
     8
 71
     3
 72
    14
 73
    10
 74
     0
 42
0.0000000001
 43
0.0000000001
 40
0.0
 40
0.0
 40
0.0
 40
0.0
 40
0.2499999999999999
 40
0.2499999999999999
 40
0.4999999999999999
 40
0.4999999999999999
 40
0.7499999999999999
 40
0.7499999999999999
 40
1.0
 40
1.0
 40
1.0
 40
1.0
 10
1803.52835702053
 20
1332.418159541356
 30
0.0
 10
1803.639076265915
 20
1332.844419091014
 30
0.0
 10
1803.888181643047
 20
1333.221914108872
 30
0.0
 10
1804.584912850442
 20
1333.760792058447
 30
0.0
 10
1805.012909607141
 20
1333.906993131217
 30
0.0
 10
1805.893718224206
 20
1333.906993131217
 30
0.0
 10
1806.321714980904
 20
1333.760792058447
 30
0.0
 10
1807.018446188299
 20
1333.221914108872
 30
0.0
 10
1807.267551565432
 20
1332.844419091014
 30
0.0
 10
1807.378270810817
 20
1332.418159541356
 30
0.0
  0
LINE
  5
6FA
330
6C8
100
AcDbEntity
  8
0
  6
Continuous
 62
     7
370
    15
100
AcDbLine
 10
1803.52835702053
 20
1332.418159541356
 30
0.0
 11
1807.378270810817
 21
1332.418159541356
 31
0.0
  0
SPLINE
  5
6FB
330
6C8
100
AcDbEntity
  8
0
  6
Continuous
 62
     7
370
    15
100
AcDbSpline
210
0.0
220
0.0
230
1.0
 70
     8
 71
     3
 72
    14
 73
    10
 74
     0
 42
0.0000000001
 43
0.0000000001
 40
0.0
 40
0.0
 40
0.0
 40
0.0
 40
0.2499999999999999
 40
0.2499999999999999
 40
0.4999999999999999
 40
0.4999999999999999
 40
0.7499999999999999
 40
0.7499999999999999
 40
1.0
 40
1.0
 40
1.0
 40
1.0
 10
1815.52835702053
 20
1332.418159541356
 30
0.0
 10
1815.639076265915
 20
1332.844419091014
 30
0.0
 10
1815.888181643047
 20
1333.221914108872
 30
0.0
 10
1816.584912850442
 20
1333.760792058447
 30
0.0
 10
1817.012909607141
 20
1333.906993131217
 30
0.0
 10
1817.893718224206
 20
1333.906993131217
 30
0.0
 10
1818.321714980904
 20
1333.760792058447
 30
0.0
 10
1819.018446188299
 20
1333.221914108872
 30
0.0
 10
1819.267551565431
 20
1332.844419091014
 30
0.0
 10
1819.378270810816
 20
1332.418159541356
 30
0.0
  0
LINE
  5
6FC
330
6C8
100
AcDbEntity
  8
0
  6
Continuous
 62
     7
370
    15
100
AcDbLine
 10
1815.52835702053
 20
1332.418159541356
 30
0.0
 11
1819.378270810816
 21
1332.418159541356
 31
0.0
  0
SPLINE
  5
6FD
330
6C8
100
AcDbEntity
  8
0
  6
Continuous
 62
     7
370
    15
100
AcDbSpline
210
0.0
220
0.0
230
1.0
 70
     8
 71
     3
 72
    14
 73
    10
 74
     0
 42
0.0000000001
 43
0.0000000001
 40
0.0
 40
0.0
 40
0.0
 40
0.0
 40
0.25
 40
0.25
 40
0.5
 40
0.5
 40
0.75
 40
0.75
 40
0.9999999999999998
 40
0.9999999999999998
 40
0.9999999999999998
 40
0.9999999999999998
 10
1851.52835702053
 20
1332.418159541356
 30
0.0
 10
1851.639076265915
 20
1332.844419091014
 30
0.0
 10
1851.888181643047
 20
1333.221914108872
 30
0.0
 10
1852.584912850442
 20
1333.760792058447
 30
0.0
 10
1853.012909607141
 20
1333.906993131217
 30
0.0
 10
1853.893718224206
 20
1333.906993131217
 30
0.0
 10
1854.321714980904
 20
1333.760792058447
 30
0.0
 10
1855.018446188299
 20
1333.221914108872
 30
0.0
 10
1855.267551565432
 20
1332.844419091014
 30
0.0
 10
1855.378270810817
 20
1332.418159541356
 30
0.0
  0
LINE
  5
6FE
330
6C8
100
AcDbEntity
  8
0
  6
Continuous
 62
     7
370
    15
100
AcDbLine
 10
1851.52835702053
 20
1332.418159541356
 30
0.0
 11
1855.378270810817
 21
1332.418159541356
 31
0.0
  0
SPLINE
  5
6FF
330
6C8
100
AcDbEntity
  8
0
  6
Continuous
 62
     7
370
    15
100
AcDbSpline
210
0.0
220
0.0
230
1.0
 70
     8
 71
     3
 72
    14
 73
    10
 74
     0
 42
0.0000000001
 43
0.0000000001
 40
0.0
 40
0.0
 40
0.0
 40
0.0
 40
0.25
 40
0.25
 40
0.5
 40
0.5
 40
0.75
 40
0.75
 40
0.9999999999999998
 40
0.9999999999999998
 40
0.9999999999999998
 40
0.9999999999999998
 10
1839.52835702053
 20
1332.418159541356
 30
0.0
 10
1839.639076265915
 20
1332.844419091014
 30
0.0
 10
1839.888181643047
 20
1333.221914108872
 30
0.0
 10
1840.584912850442
 20
1333.760792058447
 30
0.0
 10
1841.012909607141
 20
1333.906993131217
 30
0.0
 10
1841.893718224206
 20
1333.906993131217
 30
0.0
 10
1842.321714980904
 20
1333.760792058447
 30
0.0
 10
1843.018446188299
 20
1333.221914108872
 30
0.0
 10
1843.267551565432
 20
1332.844419091014
 30
0.0
 10
1843.378270810817
 20
1332.418159541356
 30
0.0
  0
LINE
  5
700
330
6C8
100
AcDbEntity
  8
0
  6
Continuous
 62
     7
370
    15
100
AcDbLine
 10
1839.52835702053
 20
1332.418159541356
 30
0.0
 11
1843.378270810817
 21
1332.418159541356
 31
0.0
  0
SPLINE
  5
701
330
6C8
100
AcDbEntity
  8
0
  6
Continuous
 62
     7
370
    15
100
AcDbSpline
210
0.0
220
0.0
230
1.0
 70
     8
 71
     3
 72
    14
 73
    10
 74
     0
 42
0.0000000001
 43
0.0000000001
 40
0.0
 40
0.0
 40
0.0
 40
0.0
 40
0.2499999999999999
 40
0.2499999999999999
 40
0.4999999999999999
 40
0.4999999999999999
 40
0.7499999999999999
 40
0.7499999999999999
 40
1.0
 40
1.0
 40
1.0
 40
1.0
 10
1791.52835702053
 20
1332.418159541356
 30
0.0
 10
1791.639076265915
 20
1332.844419091014
 30
0.0
 10
1791.888181643048
 20
1333.221914108872
 30
0.0
 10
1792.584912850442
 20
1333.760792058447
 30
0.0
 10
1793.012909607141
 20
1333.906993131217
 30
0.0
 10
1793.893718224206
 20
1333.906993131217
 30
0.0
 10
1794.321714980904
 20
1333.760792058447
 30
0.0
 10
1795.018446188299
 20
1333.221914108872
 30
0.0
 10
1795.267551565431
 20
1332.844419091014
 30
0.0
 10
1795.378270810816
 20
1332.418159541356
 30
0.0
  0
LINE
  5
702
330
6C8
100
AcDbEntity
  8
0
  6
Continuous
 62
     7
370
    15
100
AcDbLine
 10
1791.52835702053
 20
1332.418159541356
 30
0.0
 11
1795.378270810816
 21
1332.418159541356
 31
0.0
  0
SPLINE
  5
703
330
6C8
100
AcDbEntity
  8
0
  6
Continuous
 62
     7
370
    15
100
AcDbSpline
210
0.0
220
0.0
230
1.0
 70
     8
 71
     3
 72
    10
 73
     6
 74
     0
 42
0.0000000001
 43
0.0000000001
 40
0.0
 40
0.0
 40
0.0
 40
0.0
 40
0.5
 40
0.5
 40
1.0
 40
1.0
 40
1.0
 40
1.0
 10
1807.378270810817
 20
1331.418159541356
 30
0.0
 10
1807.267551565432
 20
1330.991899991697
 30
0.0
 10
1807.018446188299
 20
1330.614404973839
 30
0.0
 10
1806.321714980904
 20
1330.075527024265
 30
0.0
 10
1805.893718224206
 20
1329.929325951495
 30
0.0
 10
1805.453313915673
 20
1329.929325951495
 30
0.0
  0
SPLINE
  5
704
330
6C8
100
AcDbEntity
  8
0
  6
Continuous
 62
     7
370
    15
100
AcDbSpline
210
0.0
220
0.0
230
1.0
 70
     8
 71
     3
 72
    10
 73
     6
 74
     0
 42
0.0000000001
 43
0.0000000001
 40
0.0
 40
0.0
 40
0.0
 40
0.0
 40
0.5
 40
0.5
 40
0.9999999999999998
 40
0.9999999999999998
 40
0.9999999999999998
 40
0.9999999999999998
 10
1805.453313915673
 20
1329.929325951495
 30
0.0
 10
1805.012909607141
 20
1329.929325951495
 30
0.0
 10
1804.584912850442
 20
1330.075527024265
 30
0.0
 10
1803.888181643047
 20
1330.614404973839
 30
0.0
 10
1803.639076265915
 20
1330.991899991697
 30
0.0
 10
1803.52835702053
 20
1331.418159541356
 30
0.0
  0
LINE
  5
705
330
6C8
100
AcDbEntity
  8
0
  6
Continuous
 62
     7
370
    15
100
AcDbLine
 10
1807.378270810817
 20
1331.418159541356
 30
0.0
 11
1803.52835702053
 21
1331.418159541356
 31
0.0
  0
SPLINE
  5
706
330
6C8
100
AcDbEntity
  8
0
  6
Continuous
 62
     7
370
    15
100
AcDbSpline
210
0.0
220
0.0
230
1.0
 70
     8
 71
     3
 72
    10
 73
     6
 74
     0
 42
0.0000000001
 43
0.0000000001
 40
0.0
 40
0.0
 40
0.0
 40
0.0
 40
0.5
 40
0.5
 40
1.0
 40
1.0
 40
1.0
 40
1.0
 10
1819.378270810816
 20
1331.418159541356
 30
0.0
 10
1819.267551565431
 20
1330.991899991697
 30
0.0
 10
1819.018446188299
 20
1330.614404973839
 30
0.0
 10
1818.321714980904
 20
1330.075527024265
 30
0.0
 10
1817.893718224206
 20
1329.929325951495
 30
0.0
 10
1817.453313915673
 20
1329.929325951495
 30
0.0
  0
SPLINE
  5
707
330
6C8
100
AcDbEntity
  8
0
  6
Continuous
 62
     7
370
    15
100
AcDbSpline
210
0.0
220
0.0
230
1.0
 70
     8
 71
     3
 72
    10
 73
     6
 74
     0
 42
0.0000000001
 43
0.0000000001
 40
0.0
 40
0.0
 40
0.0
 40
0.0
 40
0.5
 40
0.5
 40
0.9999999999999998
 40
0.9999999999999998
 40
0.9999999999999998
 40
0.9999999999999998
 10
1817.453313915673
 20
1329.929325951495
 30
0.0
 10
1817.012909607141
 20
1329.929325951495
 30
0.0
 10
1816.584912850442
 20
1330.075527024265
 30
0.0
 10
1815.888181643047
 20
1330.614404973839
 30
0.0
 10
1815.639076265915
 20
1330.991899991697
 30
0.0
 10
1815.52835702053
 20
1331.418159541356
 30
0.0
  0
LINE
  5
708
330
6C8
100
AcDbEntity
  8
0
  6
Continuous
 62
     7
370
    15
100
AcDbLine
 10
1819.378270810816
 20
1331.418159541356
 30
0.0
 11
1815.52835702053
 21
1331.418159541356
 31
0.0
  0
SPLINE
  5
709
330
6C8
100
AcDbEntity
  8
0
  6
Continuous
 62
     7
370
    15
100
AcDbSpline
210
0.0
220
0.0
230
1.0
 70
     8
 71
     3
 72
    10
 73
     6
 74
     0
 42
0.0000000001
 43
0.0000000001
 40
0.0
 40
0.0
 40
0.0
 40
0.0
 40
0.5
 40
0.5
 40
1.0
 40
1.0
 40
1.0
 40
1.0
 10
1855.378270810817
 20
1331.418159541356
 30
0.0
 10
1855.267551565432
 20
1330.991899991697
 30
0.0
 10
1855.018446188299
 20
1330.614404973839
 30
0.0
 10
1854.321714980904
 20
1330.075527024265
 30
0.0
 10
1853.893718224206
 20
1329.929325951495
 30
0.0
 10
1853.453313915673
 20
1329.929325951495
 30
0.0
  0
SPLINE
  5
70A
330
6C8
100
AcDbEntity
  8
0
  6
Continuous
 62
     7
370
    15
100
AcDbSpline
210
0.0
220
0.0
230
1.0
 70
     8
 71
     3
 72
    10
 73
     6
 74
     0
 42
0.0000000001
 43
0.0000000001
 40
0.0
 40
0.0
 40
0.0
 40
0.0
 40
0.5
 40
0.5
 40
1.0
 40
1.0
 40
1.0
 40
1.0
 10
1853.453313915673
 20
1329.929325951495
 30
0.0
 10
1853.012909607141
 20
1329.929325951495
 30
0.0
 10
1852.584912850442
 20
1330.075527024265
 30
0.0
 10
1851.888181643047
 20
1330.614404973839
 30
0.0
 10
1851.639076265915
 20
1330.991899991697
 30
0.0
 10
1851.52835702053
 20
1331.418159541356
 30
0.0
  0
LINE
  5
70B
330
6C8
100
AcDbEntity
  8
0
  6
Continuous
 62
     7
370
    15
100
AcDbLine
 10
1855.378270810817
 20
1331.418159541356
 30
0.0
 11
1851.52835702053
 21
1331.418159541356
 31
0.0
  0
SPLINE
  5
70C
330
6C8
100
AcDbEntity
  8
0
  6
Continuous
 62
     7
370
    15
100
AcDbSpline
210
0.0
220
0.0
230
1.0
 70
     8
 71
     3
 72
    10
 73
     6
 74
     0
 42
0.0000000001
 43
0.0000000001
 40
0.0
 40
0.0
 40
0.0
 40
0.0
 40
0.5
 40
0.5
 40
1.0
 40
1.0
 40
1.0
 40
1.0
 10
1831.378270810817
 20
1331.418159541356
 30
0.0
 10
1831.267551565431
 20
1330.991899991697
 30
0.0
 10
1831.018446188299
 20
1330.614404973839
 30
0.0
 10
1830.321714980904
 20
1330.075527024265
 30
0.0
 10
1829.893718224205
 20
1329.929325951495
 30
0.0
 10
1829.453313915673
 20
1329.929325951495
 30
0.0
  0
SPLINE
  5
70D
330
6C8
100
AcDbEntity
  8
0
  6
Continuous
 62
     7
370
    15
100
AcDbSpline
210
0.0
220
0.0
230
1.0
 70
     8
 71
     3
 72
    10
 73
     6
 74
     0
 42
0.0000000001
 43
0.0000000001
 40
0.0
 40
0.0
 40
0.0
 40
0.0
 40
0.5
 40
0.5
 40
1.0
 40
1.0
 40
1.0
 40
1.0
 10
1829.453313915673
 20
1329.929325951495
 30
0.0
 10
1829.012909607141
 20
1329.929325951495
 30
0.0
 10
1828.584912850442
 20
1330.075527024265
 30
0.0
 10
1827.888181643048
 20
1330.614404973839
 30
0.0
 10
1827.639076265915
 20
1330.991899991697
 30
0.0
 10
1827.52835702053
 20
1331.418159541356
 30
0.0
  0
LINE
  5
70E
330
6C8
100
AcDbEntity
  8
0
  6
Continuous
 62
     7
370
    15
100
AcDbLine
 10
1831.378270810817
 20
1331.418159541356
 30
0.0
 11
1827.52835702053
 21
1331.418159541356
 31
0.0
  0
SPLINE
  5
70F
330
6C8
100
AcDbEntity
  8
0
  6
Continuous
 62
     7
370
    15
100
AcDbSpline
210
0.0
220
0.0
230
1.0
 70
     8
 71
     3
 72
    10
 73
     6
 74
     0
 42
0.0000000001
 43
0.0000000001
 40
0.0
 40
0.0
 40
0.0
 40
0.0
 40
0.5
 40
0.5
 40
1.0
 40
1.0
 40
1.0
 40
1.0
 10
1795.378270810816
 20
1331.418159541356
 30
0.0
 10
1795.267551565431
 20
1330.991899991697
 30
0.0
 10
1795.018446188299
 20
1330.614404973839
 30
0.0
 10
1794.321714980904
 20
1330.075527024265
 30
0.0
 10
1793.893718224206
 20
1329.929325951495
 30
0.0
 10
1793.453313915673
 20
1329.929325951495
 30
0.0
  0
SPLINE
  5
710
330
6C8
100
AcDbEntity
  8
0
  6
Continuous
 62
     7
370
    15
100
AcDbSpline
210
0.0
220
0.0
230
1.0
 70
     8
 71
     3
 72
    10
 73
     6
 74
     0
 42
0.0000000001
 43
0.0000000001
 40
0.0
 40
0.0
 40
0.0
 40
0.0
 40
0.5
 40
0.5
 40
0.9999999999999998
 40
0.9999999999999998
 40
0.9999999999999998
 40
0.9999999999999998
 10
1793.453313915673
 20
1329.929325951495
 30
0.0
 10
1793.012909607141
 20
1329.929325951495
 30
0.0
 10
1792.584912850442
 20
1330.075527024265
 30
0.0
 10
1791.888181643048
 20
1330.614404973839
 30
0.0
 10
1791.639076265915
 20
1330.991899991697
 30
0.0
 10
1791.52835702053
 20
1331.418159541356
 30
0.0
  0
LINE
  5
711
330
6C8
100
AcDbEntity
  8
0
  6
Continuous
 62
     7
370
    15
100
AcDbLine
 10
1795.378270810816
 20
1331.418159541356
 30
0.0
 11
1791.52835702053
 21
1331.418159541356
 31
0.0
  0
SPLINE
  5
712
330
6C8
100
AcDbEntity
  8
0
  6
Continuous
 62
     7
370
    15
100
AcDbSpline
210
0.0
220
0.0
230
1.0
 70
     8
 71
     3
 72
    10
 73
     6
 74
     0
 42
0.0000000001
 43
0.0000000001
 40
0.0
 40
0.0
 40
0.0
 40
0.0
 40
0.5
 40
0.5
 40
1.0
 40
1.0
 40
1.0
 40
1.0
 10
1843.378270810817
 20
1331.418159541356
 30
0.0
 10
1843.267551565432
 20
1330.991899991697
 30
0.0
 10
1843.018446188299
 20
1330.614404973839
 30
0.0
 10
1842.321714980904
 20
1330.075527024265
 30
0.0
 10
1841.893718224206
 20
1329.929325951495
 30
0.0
 10
1841.453313915673
 20
1329.929325951495
 30
0.0
  0
SPLINE
  5
713
330
6C8
100
AcDbEntity
  8
0
  6
Continuous
 62
     7
370
    15
100
AcDbSpline
210
0.0
220
0.0
230
1.0
 70
     8
 71
     3
 72
    10
 73
     6
 74
     0
 42
0.0000000001
 43
0.0000000001
 40
0.0
 40
0.0
 40
0.0
 40
0.0
 40
0.5
 40
0.5
 40
1.0
 40
1.0
 40
1.0
 40
1.0
 10
1841.453313915673
 20
1329.929325951495
 30
0.0
 10
1841.012909607141
 20
1329.929325951495
 30
0.0
 10
1840.584912850442
 20
1330.075527024265
 30
0.0
 10
1839.888181643047
 20
1330.614404973839
 30
0.0
 10
1839.639076265915
 20
1330.991899991697
 30
0.0
 10
1839.52835702053
 20
1331.418159541356
 30
0.0
  0
LINE
  5
714
330
6C8
100
AcDbEntity
  8
0
  6
Continuous
 62
     7
370
    15
100
AcDbLine
 10
1843.378270810817
 20
1331.418159541356
 30
0.0
 11
1839.52835702053
 21
1331.418159541356
 31
0.0
  0
SPLINE
  5
715
330
6C8
100
AcDbEntity
  8
0
  6
Continuous
 62
     7
370
    15
100
AcDbSpline
210
0.0
220
0.0
230
1.0
 70
     8
 71
     3
 72
    10
 73
     6
 74
     0
 42
0.0000000001
 43
0.0000000001
 40
0.0
 40
0.0
 40
0.0
 40
0.0
 40
0.5
 40
0.5
 40
1.0
 40
1.0
 40
1.0
 40
1.0
 10
1867.378270810817
 20
1331.418159541356
 30
0.0
 10
1867.267551565431
 20
1330.991899991697
 30
0.0
 10
1867.018446188299
 20
1330.614404973839
 30
0.0
 10
1866.321714980904
 20
1330.075527024265
 30
0.0
 10
1865.893718224205
 20
1329.929325951495
 30
0.0
 10
1865.453313915673
 20
1329.929325951495
 30
0.0
  0
SPLINE
  5
716
330
6C8
100
AcDbEntity
  8
0
  6
Continuous
 62
     7
370
    15
100
AcDbSpline
210
0.0
220
0.0
230
1.0
 70
     8
 71
     3
 72
    10
 73
     6
 74
     0
 42
0.0000000001
 43
0.0000000001
 40
0.0
 40
0.0
 40
0.0
 40
0.0
 40
0.5
 40
0.5
 40
1.0
 40
1.0
 40
1.0
 40
1.0
 10
1865.453313915673
 20
1329.929325951495
 30
0.0
 10
1865.012909607141
 20
1329.929325951495
 30
0.0
 10
1864.584912850442
 20
1330.075527024265
 30
0.0
 10
1863.888181643048
 20
1330.614404973839
 30
0.0
 10
1863.639076265915
 20
1330.991899991697
 30
0.0
 10
1863.52835702053
 20
1331.418159541356
 30
0.0
  0
LINE
  5
717
330
6C8
100
AcDbEntity
  8
0
  6
Continuous
 62
     7
370
    15
100
AcDbLine
 10
1867.378270810817
 20
1331.418159541356
 30
0.0
 11
1863.52835702053
 21
1331.418159541356
 31
0.0
  0
ARC
  5
718
330
6C8
100
AcDbEntity
  8
0
  6
Continuous
 62
     7
370
    15
100
AcDbCircle
 10
1865.453313915673
 20
1331.918159541356
 30
0.0
 40
2.188421798070006
100
AcDbArc
 50
13.20731410365529
 51
166.7926858963447
  0
SPLINE
  5
719
330
6C8
100
AcDbEntity
  8
0
  6
Continuous
 62
     7
370
    15
100
AcDbSpline
210
0.0
220
0.0
230
1.0
 70
    24
 71
     3
 72
    10
 73
     6
 74
     0
 42
0.0000000001
 43
0.0000000001
 40
0.0
 40
0.0
 40
0.0
 40
0.0
 40
0.5
 40
0.5
 40
1.0
 40
1.0
 40
1.0
 40
1.0
 10
1867.378270810817
 20
1332.418159541356
 30
0.0
 10
1867.429737394409
 20
1332.418159541356
 30
0.0
 10
1867.480136636376
 20
1332.418159541356
 30
0.0
 10
1867.556186634669
 20
1332.418159541356
 30
0.0
 10
1867.580458081306
 20
1332.418159541356
 30
0.0
 10
1867.583851398626
 20
1332.418159541356
 30
0.0
  0
SPLINE
  5
71A
330
6C8
100
AcDbEntity
  8
0
  6
Continuous
 62
     7
370
    15
100
AcDbSpline
210
0.0
220
0.0
230
1.0
 70
    24
 71
     3
 72
    10
 73
     6
 74
     0
 42
0.0000000001
 43
0.0000000001
 40
0.0
 40
0.0
 40
0.0
 40
0.0
 40
0.5
 40
0.5
 40
1.0
 40
1.0
 40
1.0
 40
1.0
 10
1863.32277643272
 20
1332.418159541356
 30
0.0
 10
1863.326167171006
 20
1332.418159541356
 30
0.0
 10
1863.350543206781
 20
1332.418159541356
 30
0.0
 10
1863.426205784435
 20
1332.418159541356
 30
0.0
 10
1863.476924793608
 20
1332.418159541356
 30
0.0
 10
1863.52835702053
 20
1332.418159541356
 30
0.0
  0
ARC
  5
71B
330
6C8
100
AcDbEntity
  8
0
  6
Continuous
 62
     7
370
    15
100
AcDbCircle
 10
1853.453313915673
 20
1331.918159541356
 30
0.0
 40
2.188421798069978
100
AcDbArc
 50
193.2073141036553
 51
346.7926858963447
  0
SPLINE
  5
71C
330
6C8
100
AcDbEntity
  8
0
  6
Continuous
 62
     7
370
    15
100
AcDbSpline
210
0.0
220
0.0
230
1.0
 70
    24
 71
     3
 72
    10
 73
     6
 74
     0
 42
0.0000000001
 43
0.0000000001
 40
0.0
 40
0.0
 40
0.0
 40
0.0
 40
0.5
 40
0.5
 40
1.0
 40
1.0
 40
1.0
 40
1.0
 10
1855.583851398626
 20
1331.418159541356
 30
0.0
 10
1855.58046066034
 20
1331.418159541356
 30
0.0
 10
1855.556084624566
 20
1331.418159541356
 30
0.0
 10
1855.480422046911
 20
1331.418159541356
 30
0.0
 10
1855.429703037739
 20
1331.418159541356
 30
0.0
 10
1855.378270810817
 20
1331.418159541356
 30
0.0
  0
SPLINE
  5
71D
330
6C8
100
AcDbEntity
  8
0
  6
Continuous
 62
     7
370
    15
100
AcDbSpline
210
0.0
220
0.0
230
1.0
 70
    24
 71
     3
 72
    10
 73
     6
 74
     0
 42
0.0000000001
 43
0.0000000001
 40
0.0
 40
0.0
 40
0.0
 40
0.0
 40
0.5
 40
0.5
 40
1.0
 40
1.0
 40
1.0
 40
1.0
 10
1851.52835702053
 20
1331.418159541356
 30
0.0
 10
1851.476890436937
 20
1331.418159541356
 30
0.0
 10
1851.42649119497
 20
1331.418159541356
 30
0.0
 10
1851.350441196678
 20
1331.418159541356
 30
0.0
 10
1851.32616975004
 20
1331.418159541356
 30
0.0
 10
1851.32277643272
 20
1331.418159541356
 30
0.0
  0
ARC
  5
71E
330
6C8
100
AcDbEntity
  8
0
  6
Continuous
 62
     7
370
    15
100
AcDbCircle
 10
1793.453313915673
 20
1331.918159541356
 30
0.0
 40
2.188421798070002
100
AcDbArc
 50
193.2073141036553
 51
346.7926858963447
  0
SPLINE
  5
71F
330
6C8
100
AcDbEntity
  8
0
  6
Continuous
 62
     7
370
    15
100
AcDbSpline
210
0.0
220
0.0
230
1.0
 70
    24
 71
     3
 72
    10
 73
     6
 74
     0
 42
0.0000000001
 43
0.0000000001
 40
0.0
 40
0.0
 40
0.0
 40
0.0
 40
0.5
 40
0.5
 40
1.0
 40
1.0
 40
1.0
 40
1.0
 10
1795.583851398626
 20
1331.418159541356
 30
0.0
 10
1795.58046066034
 20
1331.418159541356
 30
0.0
 10
1795.556084624565
 20
1331.418159541356
 30
0.0
 10
1795.480422046911
 20
1331.418159541356
 30
0.0
 10
1795.429703037738
 20
1331.418159541356
 30
0.0
 10
1795.378270810816
 20
1331.418159541356
 30
0.0
  0
SPLINE
  5
720
330
6C8
100
AcDbEntity
  8
0
  6
Continuous
 62
     7
370
    15
100
AcDbSpline
210
0.0
220
0.0
230
1.0
 70
    24
 71
     3
 72
    10
 73
     6
 74
     0
 42
0.0000000001
 43
0.0000000001
 40
0.0
 40
0.0
 40
0.0
 40
0.0
 40
0.5
 40
0.5
 40
1.0
 40
1.0
 40
1.0
 40
1.0
 10
1791.52835702053
 20
1331.418159541356
 30
0.0
 10
1791.476890436937
 20
1331.418159541356
 30
0.0
 10
1791.42649119497
 20
1331.418159541356
 30
0.0
 10
1791.350441196678
 20
1331.418159541356
 30
0.0
 10
1791.32616975004
 20
1331.418159541356
 30
0.0
 10
1791.32277643272
 20
1331.418159541356
 30
0.0
  0
ARC
  5
721
330
6C8
100
AcDbEntity
  8
0
  6
Continuous
 62
     7
370
    15
100
AcDbCircle
 10
1829.453313915673
 20
1331.918159541356
 30
0.0
 40
2.188421798069978
100
AcDbArc
 50
193.2073141036553
 51
346.7926858963447
  0
SPLINE
  5
722
330
6C8
100
AcDbEntity
  8
0
  6
Continuous
 62
     7
370
    15
100
AcDbSpline
210
0.0
220
0.0
230
1.0
 70
    24
 71
     3
 72
    10
 73
     6
 74
     0
 42
0.0000000001
 43
0.0000000001
 40
0.0
 40
0.0
 40
0.0
 40
0.0
 40
0.5
 40
0.5
 40
1.0
 40
1.0
 40
1.0
 40
1.0
 10
1831.583851398626
 20
1331.418159541356
 30
0.0
 10
1831.58046066034
 20
1331.418159541356
 30
0.0
 10
1831.556084624565
 20
1331.418159541356
 30
0.0
 10
1831.480422046911
 20
1331.418159541356
 30
0.0
 10
1831.429703037738
 20
1331.418159541356
 30
0.0
 10
1831.378270810817
 20
1331.418159541356
 30
0.0
  0
SPLINE
  5
723
330
6C8
100
AcDbEntity
  8
0
  6
Continuous
 62
     7
370
    15
100
AcDbSpline
210
0.0
220
0.0
230
1.0
 70
    24
 71
     3
 72
    10
 73
     6
 74
     0
 42
0.0000000001
 43
0.0000000001
 40
0.0
 40
0.0
 40
0.0
 40
0.0
 40
0.5
 40
0.5
 40
1.0
 40
1.0
 40
1.0
 40
1.0
 10
1827.52835702053
 20
1331.418159541356
 30
0.0
 10
1827.476890436938
 20
1331.418159541356
 30
0.0
 10
1827.42649119497
 20
1331.418159541356
 30
0.0
 10
1827.350441196678
 20
1331.418159541356
 30
0.0
 10
1827.32616975004
 20
1331.418159541356
 30
0.0
 10
1827.32277643272
 20
1331.418159541356
 30
0.0
  0
ARC
  5
724
330
6C8
100
AcDbEntity
  8
0
  6
Continuous
 62
     7
370
    15
100
AcDbCircle
 10
1841.453313915673
 20
1331.918159541356
 30
0.0
 40
2.188421798069978
100
AcDbArc
 50
193.2073141036553
 51
346.7926858963447
  0
SPLINE
  5
725
330
6C8
100
AcDbEntity
  8
0
  6
Continuous
 62
     7
370
    15
100
AcDbSpline
210
0.0
220
0.0
230
1.0
 70
    24
 71
     3
 72
    10
 73
     6
 74
     0
 42
0.0000000001
 43
0.0000000001
 40
0.0
 40
0.0
 40
0.0
 40
0.0
 40
0.5
 40
0.5
 40
1.0
 40
1.0
 40
1.0
 40
1.0
 10
1843.583851398626
 20
1331.418159541356
 30
0.0
 10
1843.58046066034
 20
1331.418159541356
 30
0.0
 10
1843.556084624566
 20
1331.418159541356
 30
0.0
 10
1843.480422046911
 20
1331.418159541356
 30
0.0
 10
1843.429703037738
 20
1331.418159541356
 30
0.0
 10
1843.378270810817
 20
1331.418159541356
 30
0.0
  0
SPLINE
  5
726
330
6C8
100
AcDbEntity
  8
0
  6
Continuous
 62
     7
370
    15
100
AcDbSpline
210
0.0
220
0.0
230
1.0
 70
    24
 71
     3
 72
    10
 73
     6
 74
     0
 42
0.0000000001
 43
0.0000000001
 40
0.0
 40
0.0
 40
0.0
 40
0.0
 40
0.5
 40
0.5
 40
1.0
 40
1.0
 40
1.0
 40
1.0
 10
1839.52835702053
 20
1331.418159541356
 30
0.0
 10
1839.476890436937
 20
1331.418159541356
 30
0.0
 10
1839.42649119497
 20
1331.418159541356
 30
0.0
 10
1839.350441196678
 20
1331.418159541356
 30
0.0
 10
1839.32616975004
 20
1331.418159541356
 30
0.0
 10
1839.32277643272
 20
1331.418159541356
 30
0.0
  0
ARC
  5
727
330
6C8
100
AcDbEntity
  8
0
  6
Continuous
 62
     7
370
    15
100
AcDbCircle
 10
1805.453313915673
 20
1331.918159541356
 30
0.0
 40
2.188421798069978
100
AcDbArc
 50
193.2073141036553
 51
346.7926858963447
  0
SPLINE
  5
728
330
6C8
100
AcDbEntity
  8
0
  6
Continuous
 62
     7
370
    15
100
AcDbSpline
210
0.0
220
0.0
230
1.0
 70
    24
 71
     3
 72
    10
 73
     6
 74
     0
 42
0.0000000001
 43
0.0000000001
 40
0.0
 40
0.0
 40
0.0
 40
0.0
 40
0.5
 40
0.5
 40
1.0
 40
1.0
 40
1.0
 40
1.0
 10
1807.583851398626
 20
1331.418159541356
 30
0.0
 10
1807.58046066034
 20
1331.418159541356
 30
0.0
 10
1807.556084624566
 20
1331.418159541356
 30
0.0
 10
1807.480422046911
 20
1331.418159541356
 30
0.0
 10
1807.429703037739
 20
1331.418159541356
 30
0.0
 10
1807.378270810817
 20
1331.418159541356
 30
0.0
  0
SPLINE
  5
729
330
6C8
100
AcDbEntity
  8
0
  6
Continuous
 62
     7
370
    15
100
AcDbSpline
210
0.0
220
0.0
230
1.0
 70
    24
 71
     3
 72
    10
 73
     6
 74
     0
 42
0.0000000001
 43
0.0000000001
 40
0.0
 40
0.0
 40
0.0
 40
0.0
 40
0.5
 40
0.5
 40
1.0
 40
1.0
 40
1.0
 40
1.0
 10
1803.52835702053
 20
1331.418159541356
 30
0.0
 10
1803.476890436937
 20
1331.418159541356
 30
0.0
 10
1803.42649119497
 20
1331.418159541356
 30
0.0
 10
1803.350441196678
 20
1331.418159541356
 30
0.0
 10
1803.32616975004
 20
1331.418159541356
 30
0.0
 10
1803.32277643272
 20
1331.418159541356
 30
0.0
  0
ARC
  5
72A
330
6C8
100
AcDbEntity
  8
0
  6
Continuous
 62
     7
370
    15
100
AcDbCircle
 10
1817.453313915673
 20
1331.918159541356
 30
0.0
 40
2.188421798070006
100
AcDbArc
 50
193.2073141036553
 51
346.7926858963447
  0
SPLINE
  5
72B
330
6C8
100
AcDbEntity
  8
0
  6
Continuous
 62
     7
370
    15
100
AcDbSpline
210
0.0
220
0.0
230
1.0
 70
    24
 71
     3
 72
    10
 73
     6
 74
     0
 42
0.0000000001
 43
0.0000000001
 40
0.0
 40
0.0
 40
0.0
 40
0.0
 40
0.5
 40
0.5
 40
1.0
 40
1.0
 40
1.0
 40
1.0
 10
1819.583851398626
 20
1331.418159541356
 30
0.0
 10
1819.580460660341
 20
1331.418159541356
 30
0.0
 10
1819.556084624566
 20
1331.418159541356
 30
0.0
 10
1819.480422046911
 20
1331.418159541356
 30
0.0
 10
1819.429703037738
 20
1331.418159541356
 30
0.0
 10
1819.378270810816
 20
1331.418159541356
 30
0.0
  0
SPLINE
  5
72C
330
6C8
100
AcDbEntity
  8
0
  6
Continuous
 62
     7
370
    15
100
AcDbSpline
210
0.0
220
0.0
230
1.0
 70
    24
 71
     3
 72
    10
 73
     6
 74
     0
 42
0.0000000001
 43
0.0000000001
 40
0.0
 40
0.0
 40
0.0
 40
0.0
 40
0.5
 40
0.5
 40
1.0
 40
1.0
 40
1.0
 40
1.0
 10
1815.52835702053
 20
1331.418159541356
 30
0.0
 10
1815.476890436938
 20
1331.418159541356
 30
0.0
 10
1815.42649119497
 20
1331.418159541356
 30
0.0
 10
1815.350441196678
 20
1331.418159541356
 30
0.0
 10
1815.32616975004
 20
1331.418159541356
 30
0.0
 10
1815.32277643272
 20
1331.418159541356
 30
0.0
  0
ARC
  5
72D
330
6C8
100
AcDbEntity
  8
0
  6
Continuous
 62
     7
370
    15
100
AcDbCircle
 10
1841.453313915673
 20
1331.918159541356
 30
0.0
 40
2.188421798069978
100
AcDbArc
 50
13.20731410365529
 51
166.7926858963447
  0
SPLINE
  5
72E
330
6C8
100
AcDbEntity
  8
0
  6
Continuous
 62
     7
370
    15
100
AcDbSpline
210
0.0
220
0.0
230
1.0
 70
    24
 71
     3
 72
    10
 73
     6
 74
     0
 42
0.0000000001
 43
0.0000000001
 40
0.0
 40
0.0
 40
0.0
 40
0.0
 40
0.5
 40
0.5
 40
1.0
 40
1.0
 40
1.0
 40
1.0
 10
1843.378270810817
 20
1332.418159541356
 30
0.0
 10
1843.429737394409
 20
1332.418159541356
 30
0.0
 10
1843.480136636376
 20
1332.418159541356
 30
0.0
 10
1843.556186634669
 20
1332.418159541356
 30
0.0
 10
1843.580458081306
 20
1332.418159541356
 30
0.0
 10
1843.583851398626
 20
1332.418159541356
 30
0.0
  0
SPLINE
  5
72F
330
6C8
100
AcDbEntity
  8
0
  6
Continuous
 62
     7
370
    15
100
AcDbSpline
210
0.0
220
0.0
230
1.0
 70
    24
 71
     3
 72
    10
 73
     6
 74
     0
 42
0.0000000001
 43
0.0000000001
 40
0.0
 40
0.0
 40
0.0
 40
0.0
 40
0.5
 40
0.5
 40
1.0
 40
1.0
 40
1.0
 40
1.0
 10
1839.32277643272
 20
1332.418159541356
 30
0.0
 10
1839.326167171006
 20
1332.418159541356
 30
0.0
 10
1839.350543206781
 20
1332.418159541356
 30
0.0
 10
1839.426205784435
 20
1332.418159541356
 30
0.0
 10
1839.476924793608
 20
1332.418159541356
 30
0.0
 10
1839.52835702053
 20
1332.418159541356
 30
0.0
  0
ARC
  5
730
330
6C8
100
AcDbEntity
  8
0
  6
Continuous
 62
     7
370
    15
100
AcDbCircle
 10
1793.453313915673
 20
1331.918159541356
 30
0.0
 40
2.188421798070002
100
AcDbArc
 50
13.20731410365529
 51
166.7926858963447
  0
SPLINE
  5
731
330
6C8
100
AcDbEntity
  8
0
  6
Continuous
 62
     7
370
    15
100
AcDbSpline
210
0.0
220
0.0
230
1.0
 70
    24
 71
     3
 72
    10
 73
     6
 74
     0
 42
0.0000000001
 43
0.0000000001
 40
0.0
 40
0.0
 40
0.0
 40
0.0
 40
0.5
 40
0.5
 40
1.0
 40
1.0
 40
1.0
 40
1.0
 10
1795.378270810816
 20
1332.418159541356
 30
0.0
 10
1795.429737394409
 20
1332.418159541356
 30
0.0
 10
1795.480136636376
 20
1332.418159541356
 30
0.0
 10
1795.556186634669
 20
1332.418159541356
 30
0.0
 10
1795.580458081306
 20
1332.418159541356
 30
0.0
 10
1795.583851398626
 20
1332.418159541356
 30
0.0
  0
SPLINE
  5
732
330
6C8
100
AcDbEntity
  8
0
  6
Continuous
 62
     7
370
    15
100
AcDbSpline
210
0.0
220
0.0
230
1.0
 70
    24
 71
     3
 72
    10
 73
     6
 74
     0
 42
0.0000000001
 43
0.0000000001
 40
0.0
 40
0.0
 40
0.0
 40
0.0
 40
0.5
 40
0.5
 40
1.0
 40
1.0
 40
1.0
 40
1.0
 10
1791.32277643272
 20
1332.418159541356
 30
0.0
 10
1791.326167171006
 20
1332.418159541356
 30
0.0
 10
1791.350543206781
 20
1332.418159541356
 30
0.0
 10
1791.426205784435
 20
1332.418159541356
 30
0.0
 10
1791.476924793608
 20
1332.418159541356
 30
0.0
 10
1791.52835702053
 20
1332.418159541356
 30
0.0
  0
ARC
  5
733
330
6C8
100
AcDbEntity
  8
0
  6
Continuous
 62
     7
370
    15
100
AcDbCircle
 10
1829.453313915673
 20
1331.918159541356
 30
0.0
 40
2.188421798069978
100
AcDbArc
 50
13.20731410365529
 51
166.7926858963447
  0
SPLINE
  5
734
330
6C8
100
AcDbEntity
  8
0
  6
Continuous
 62
     7
370
    15
100
AcDbSpline
210
0.0
220
0.0
230
1.0
 70
    24
 71
     3
 72
    10
 73
     6
 74
     0
 42
0.0000000001
 43
0.0000000001
 40
0.0
 40
0.0
 40
0.0
 40
0.0
 40
0.5
 40
0.5
 40
1.0
 40
1.0
 40
1.0
 40
1.0
 10
1831.378270810817
 20
1332.418159541356
 30
0.0
 10
1831.429737394409
 20
1332.418159541356
 30
0.0
 10
1831.480136636376
 20
1332.418159541356
 30
0.0
 10
1831.556186634669
 20
1332.418159541356
 30
0.0
 10
1831.580458081306
 20
1332.418159541356
 30
0.0
 10
1831.583851398626
 20
1332.418159541356
 30
0.0
  0
SPLINE
  5
735
330
6C8
100
AcDbEntity
  8
0
  6
Continuous
 62
     7
370
    15
100
AcDbSpline
210
0.0
220
0.0
230
1.0
 70
    24
 71
     3
 72
    10
 73
     6
 74
     0
 42
0.0000000001
 43
0.0000000001
 40
0.0
 40
0.0
 40
0.0
 40
0.0
 40
0.5
 40
0.5
 40
1.0
 40
1.0
 40
1.0
 40
1.0
 10
1827.32277643272
 20
1332.418159541356
 30
0.0
 10
1827.326167171006
 20
1332.418159541356
 30
0.0
 10
1827.350543206781
 20
1332.418159541356
 30
0.0
 10
1827.426205784435
 20
1332.418159541356
 30
0.0
 10
1827.476924793608
 20
1332.418159541356
 30
0.0
 10
1827.52835702053
 20
1332.418159541356
 30
0.0
  0
ARC
  5
736
330
6C8
100
AcDbEntity
  8
0
  6
Continuous
 62
     7
370
    15
100
AcDbCircle
 10
1805.453313915673
 20
1331.918159541356
 30
0.0
 40
2.188421798069978
100
AcDbArc
 50
13.20731410365529
 51
166.7926858963447
  0
SPLINE
  5
737
330
6C8
100
AcDbEntity
  8
0
  6
Continuous
 62
     7
370
    15
100
AcDbSpline
210
0.0
220
0.0
230
1.0
 70
    24
 71
     3
 72
    10
 73
     6
 74
     0
 42
0.0000000001
 43
0.0000000001
 40
0.0
 40
0.0
 40
0.0
 40
0.0
 40
0.5
 40
0.5
 40
1.0
 40
1.0
 40
1.0
 40
1.0
 10
1807.378270810817
 20
1332.418159541356
 30
0.0
 10
1807.429737394409
 20
1332.418159541356
 30
0.0
 10
1807.480136636376
 20
1332.418159541356
 30
0.0
 10
1807.556186634669
 20
1332.418159541356
 30
0.0
 10
1807.580458081307
 20
1332.418159541356
 30
0.0
 10
1807.583851398626
 20
1332.418159541356
 30
0.0
  0
SPLINE
  5
738
330
6C8
100
AcDbEntity
  8
0
  6
Continuous
 62
     7
370
    15
100
AcDbSpline
210
0.0
220
0.0
230
1.0
 70
    24
 71
     3
 72
    10
 73
     6
 74
     0
 42
0.0000000001
 43
0.0000000001
 40
0.0
 40
0.0
 40
0.0
 40
0.0
 40
0.5
 40
0.5
 40
1.0
 40
1.0
 40
1.0
 40
1.0
 10
1803.32277643272
 20
1332.418159541356
 30
0.0
 10
1803.326167171006
 20
1332.418159541356
 30
0.0
 10
1803.350543206781
 20
1332.418159541356
 30
0.0
 10
1803.426205784435
 20
1332.418159541356
 30
0.0
 10
1803.476924793608
 20
1332.418159541356
 30
0.0
 10
1803.52835702053
 20
1332.418159541356
 30
0.0
  0
ARC
  5
739
330
6C8
100
AcDbEntity
  8
0
  6
Continuous
 62
     7
370
    15
100
AcDbCircle
 10
1817.453313915673
 20
1331.918159541356
 30
0.0
 40
2.188421798069978
100
AcDbArc
 50
13.20731410365529
 51
166.7926858963447
  0
SPLINE
  5
73A
330
6C8
100
AcDbEntity
  8
0
  6
Continuous
 62
     7
370
    15
100
AcDbSpline
210
0.0
220
0.0
230
1.0
 70
    24
 71
     3
 72
    10
 73
     6
 74
     0
 42
0.0000000001
 43
0.0000000001
 40
0.0
 40
0.0
 40
0.0
 40
0.0
 40
0.5
 40
0.5
 40
1.0
 40
1.0
 40
1.0
 40
1.0
 10
1819.378270810816
 20
1332.418159541356
 30
0.0
 10
1819.429737394409
 20
1332.418159541356
 30
0.0
 10
1819.480136636376
 20
1332.418159541356
 30
0.0
 10
1819.556186634669
 20
1332.418159541356
 30
0.0
 10
1819.580458081306
 20
1332.418159541356
 30
0.0
 10
1819.583851398626
 20
1332.418159541356
 30
0.0
  0
SPLINE
  5
73B
330
6C8
100
AcDbEntity
  8
0
  6
Continuous
 62
     7
370
    15
100
AcDbSpline
210
0.0
220
0.0
230
1.0
 70
    24
 71
     3
 72
    10
 73
     6
 74
     0
 42
0.0000000001
 43
0.0000000001
 40
0.0
 40
0.0
 40
0.0
 40
0.0
 40
0.5
 40
0.5
 40
1.0
 40
1.0
 40
1.0
 40
1.0
 10
1815.32277643272
 20
1332.418159541356
 30
0.0
 10
1815.326167171006
 20
1332.418159541356
 30
0.0
 10
1815.350543206781
 20
1332.418159541356
 30
0.0
 10
1815.426205784435
 20
1332.418159541356
 30
0.0
 10
1815.476924793608
 20
1332.418159541356
 30
0.0
 10
1815.52835702053
 20
1332.418159541356
 30
0.0
  0
ARC
  5
73C
330
6C8
100
AcDbEntity
  8
0
  6
Continuous
 62
     7
370
    15
100
AcDbCircle
 10
1853.453313915673
 20
1331.918159541356
 30
0.0
 40
2.188421798069978
100
AcDbArc
 50
13.20731410365529
 51
166.7926858963447
  0
SPLINE
  5
73D
330
6C8
100
AcDbEntity
  8
0
  6
Continuous
 62
     7
370
    15
100
AcDbSpline
210
0.0
220
0.0
230
1.0
 70
    24
 71
     3
 72
    10
 73
     6
 74
     0
 42
0.0000000001
 43
0.0000000001
 40
0.0
 40
0.0
 40
0.0
 40
0.0
 40
0.5
 40
0.5
 40
1.0
 40
1.0
 40
1.0
 40
1.0
 10
1855.378270810817
 20
1332.418159541356
 30
0.0
 10
1855.429737394409
 20
1332.418159541356
 30
0.0
 10
1855.480136636376
 20
1332.418159541356
 30
0.0
 10
1855.556186634669
 20
1332.418159541356
 30
0.0
 10
1855.580458081306
 20
1332.418159541356
 30
0.0
 10
1855.583851398626
 20
1332.418159541356
 30
0.0
  0
SPLINE
  5
73E
330
6C8
100
AcDbEntity
  8
0
  6
Continuous
 62
     7
370
    15
100
AcDbSpline
210
0.0
220
0.0
230
1.0
 70
    24
 71
     3
 72
    10
 73
     6
 74
     0
 42
0.0000000001
 43
0.0000000001
 40
0.0
 40
0.0
 40
0.0
 40
0.0
 40
0.5
 40
0.5
 40
1.0
 40
1.0
 40
1.0
 40
1.0
 10
1851.32277643272
 20
1332.418159541356
 30
0.0
 10
1851.326167171006
 20
1332.418159541356
 30
0.0
 10
1851.350543206781
 20
1332.418159541356
 30
0.0
 10
1851.426205784435
 20
1332.418159541356
 30
0.0
 10
1851.476924793608
 20
1332.418159541356
 30
0.0
 10
1851.52835702053
 20
1332.418159541356
 30
0.0
  0
ARC
  5
73F
330
6C8
100
AcDbEntity
  8
0
  6
Continuous
 62
     7
370
    15
100
AcDbCircle
 10
1865.453313915673
 20
1331.918159541356
 30
0.0
 40
2.188421798069978
100
AcDbArc
 50
193.2073141036553
 51
346.7926858963447
  0
SPLINE
  5
740
330
6C8
100
AcDbEntity
  8
0
  6
Continuous
 62
     7
370
    15
100
AcDbSpline
210
0.0
220
0.0
230
1.0
 70
    24
 71
     3
 72
    10
 73
     6
 74
     0
 42
0.0000000001
 43
0.0000000001
 40
0.0
 40
0.0
 40
0.0
 40
0.0
 40
0.5
 40
0.5
 40
1.0
 40
1.0
 40
1.0
 40
1.0
 10
1867.583851398626
 20
1331.418159541356
 30
0.0
 10
1867.580460660341
 20
1331.418159541356
 30
0.0
 10
1867.556084624566
 20
1331.418159541356
 30
0.0
 10
1867.480422046911
 20
1331.418159541356
 30
0.0
 10
1867.429703037738
 20
1331.418159541356
 30
0.0
 10
1867.378270810817
 20
1331.418159541356
 30
0.0
  0
SPLINE
  5
741
330
6C8
100
AcDbEntity
  8
0
  6
Continuous
 62
     7
370
    15
100
AcDbSpline
210
0.0
220
0.0
230
1.0
 70
    24
 71
     3
 72
    10
 73
     6
 74
     0
 42
0.0000000001
 43
0.0000000001
 40
0.0
 40
0.0
 40
0.0
 40
0.0
 40
0.5
 40
0.5
 40
1.0
 40
1.0
 40
1.0
 40
1.0
 10
1863.52835702053
 20
1331.418159541356
 30
0.0
 10
1863.476890436938
 20
1331.418159541356
 30
0.0
 10
1863.42649119497
 20
1331.418159541356
 30
0.0
 10
1863.350441196678
 20
1331.418159541356
 30
0.0
 10
1863.32616975004
 20
1331.418159541356
 30
0.0
 10
1863.32277643272
 20
1331.418159541356
 30
0.0
  0
ARC
  5
742
330
6C8
100
AcDbEntity
  8
0
  6
Continuous
 62
     7
370
    15
100
AcDbCircle
 10
1817.453313915673
 20
1318.668159541356
 30
0.0
 40
16.95000000000021
100
AcDbArc
 50
78.33628343585077
 51
101.6637165641492
  0
LINE
  5
743
330
6C8
100
AcDbEntity
  8
0
  6
Continuous
 62
     7
370
    15
100
AcDbLine
 10
1838.026580777538
 20
1335.268159541356
 30
0.0
 11
1832.880047053808
 21
1335.268159541356
 31
0.0
  0
ARC
  5
744
330
6C8
100
AcDbEntity
  8
0
  6
Continuous
 62
     7
370
    15
100
AcDbCircle
 10
1841.453313915673
 20
1318.668159541356
 30
0.0
 40
16.95000000000021
100
AcDbArc
 50
78.33628343585077
 51
101.6637165641492
  0
LINE
  5
745
330
6C8
100
AcDbEntity
  8
0
  6
Continuous
 62
     7
370
    15
100
AcDbLine
 10
1844.900414146303
 20
1328.568159541356
 30
0.0
 11
1850.006213685043
 21
1328.568159541356
 31
0.0
  0
ARC
  5
746
330
6C8
100
AcDbEntity
  8
0
  6
Continuous
 62
     7
370
    15
100
AcDbCircle
 10
1841.453313915673
 20
1345.368159541356
 30
0.0
 40
17.1500000000002
100
AcDbArc
 50
258.404727340934
 51
281.595272659066
  0
LINE
  5
747
330
6C8
100
AcDbEntity
  8
0
  6
Continuous
 62
     7
370
    15
100
AcDbLine
 10
1787.753313915673
 20
1335.268159541356
 30
0.0
 11
1787.753313915673
 21
1328.568159541356
 31
0.0
  0
LINE
  5
748
330
6C8
100
AcDbEntity
  8
0
  6
Continuous
 62
     7
370
    15
100
AcDbLine
 10
1790.026580777538
 20
1335.268159541356
 30
0.0
 11
1787.753313915673
 21
1335.268159541356
 31
0.0
  0
ARC
  5
749
330
6C8
100
AcDbEntity
  8
0
  6
Continuous
 62
     7
370
    15
100
AcDbCircle
 10
1793.453313915673
 20
1318.668159541356
 30
0.0
 40
16.95000000000019
100
AcDbArc
 50
78.33628343585077
 51
101.6637165641492
  0
ARC
  5
74A
330
6C8
100
AcDbEntity
  8
0
  6
Continuous
 62
     7
370
    15
100
AcDbCircle
 10
1793.453313915673
 20
1345.368159541356
 30
0.0
 40
17.15000000000022
100
AcDbArc
 50
258.404727340934
 51
281.595272659066
  0
LINE
  5
74B
330
6C8
100
AcDbEntity
  8
0
  6
Continuous
 62
     7
370
    15
100
AcDbLine
 10
1832.900414146303
 20
1328.568159541356
 30
0.0
 11
1838.006213685044
 21
1328.568159541356
 31
0.0
  0
LINE
  5
74C
330
6C8
100
AcDbEntity
  8
0
  6
Continuous
 62
     7
370
    15
100
AcDbLine
 10
1826.026580777538
 20
1335.268159541356
 30
0.0
 11
1820.880047053808
 21
1335.268159541356
 31
0.0
  0
ARC
  5
74D
330
6C8
100
AcDbEntity
  8
0
  6
Continuous
 62
     7
370
    15
100
AcDbCircle
 10
1853.453313915673
 20
1345.368159541356
 30
0.0
 40
17.15000000000023
100
AcDbArc
 50
258.404727340934
 51
281.595272659066
  0
LINE
  5
74E
330
6C8
100
AcDbEntity
  8
0
  6
Continuous
 62
     7
370
    15
100
AcDbLine
 10
1808.900414146303
 20
1328.568159541356
 30
0.0
 11
1814.006213685043
 21
1328.568159541356
 31
0.0
  0
ARC
  5
74F
330
6C8
100
AcDbEntity
  8
0
  6
Continuous
 62
     7
370
    15
100
AcDbCircle
 10
1853.453313915673
 20
1318.668159541356
 30
0.0
 40
16.9500000000002
100
AcDbArc
 50
78.33628343585077
 51
101.6637165641492
  0
LINE
  5
750
330
6C8
100
AcDbEntity
  8
0
  6
Continuous
 62
     7
370
    15
100
AcDbLine
 10
1802.026580777538
 20
1335.268159541356
 30
0.0
 11
1796.880047053808
 21
1335.268159541356
 31
0.0
  0
LINE
  5
751
330
6C8
100
AcDbEntity
  8
0
  6
Continuous
 62
     7
370
    15
100
AcDbLine
 10
1856.900414146303
 20
1328.568159541356
 30
0.0
 11
1862.006213685043
 21
1328.568159541356
 31
0.0
  0
LINE
  5
752
330
6C8
100
AcDbEntity
  8
0
  6
Continuous
 62
     7
370
    15
100
AcDbLine
 10
1820.900414146303
 20
1328.568159541356
 30
0.0
 11
1826.006213685043
 21
1328.568159541356
 31
0.0
  0
ARC
  5
753
330
6C8
100
AcDbEntity
  8
0
  6
Continuous
 62
     7
370
    15
100
AcDbCircle
 10
1805.453313915673
 20
1318.668159541356
 30
0.0
 40
16.95000000000019
100
AcDbArc
 50
78.33628343585077
 51
101.6637165641492
  0
LINE
  5
754
330
6C8
100
AcDbEntity
  8
0
  6
Continuous
 62
     7
370
    15
100
AcDbLine
 10
1868.900414146303
 20
1328.568159541356
 30
0.0
 11
1871.153313915672
 21
1328.568159541356
 31
0.0
  0
ARC
  5
755
330
6C8
100
AcDbEntity
  8
0
  6
Continuous
 62
     7
370
    15
100
AcDbCircle
 10
1829.453313915673
 20
1318.668159541356
 30
0.0
 40
16.95000000000021
100
AcDbArc
 50
78.33628343585077
 51
101.6637165641492
  0
ARC
  5
756
330
6C8
100
AcDbEntity
  8
0
  6
Continuous
 62
     7
370
    15
100
AcDbCircle
 10
1817.453313915673
 20
1345.368159541356
 30
0.0
 40
17.15000000000021
100
AcDbArc
 50
258.404727340934
 51
281.595272659066
  0
ARC
  5
757
330
6C8
100
AcDbEntity
  8
0
  6
Continuous
 62
     7
370
    15
100
AcDbCircle
 10
1805.453313915673
 20
1345.368159541356
 30
0.0
 40
17.15000000000022
100
AcDbArc
 50
258.404727340934
 51
281.595272659066
  0
ARC
  5
758
330
6C8
100
AcDbEntity
  8
0
  6
Continuous
 62
     7
370
    15
100
AcDbCircle
 10
1865.453313915673
 20
1318.668159541356
 30
0.0
 40
16.95000000000021
100
AcDbArc
 50
78.33628343585077
 51
101.6637165641492
  0
LINE
  5
759
330
6C8
100
AcDbEntity
  8
0
  6
Continuous
 62
     7
370
    15
100
AcDbLine
 10
1796.900414146303
 20
1328.568159541356
 30
0.0
 11
1802.006213685044
 21
1328.568159541356
 31
0.0
  0
LINE
  5
75A
330
6C8
100
AcDbEntity
  8
0
  6
Continuous
 62
     7
370
    15
100
AcDbLine
 10
1871.153313915672
 20
1328.568159541356
 30
0.0
 11
1871.153313915672
 21
1335.268159541356
 31
0.0
  0
LINE
  5
75B
330
6C8
100
AcDbEntity
  8
0
  6
Continuous
 62
     7
370
    15
100
AcDbLine
 10
1787.753313915673
 20
1328.568159541356
 30
0.0
 11
1790.006213685044
 21
1328.568159541356
 31
0.0
  0
ARC
  5
75C
330
6C8
100
AcDbEntity
  8
0
  6
Continuous
 62
     7
370
    15
100
AcDbCircle
 10
1865.453313915673
 20
1345.368159541356
 30
0.0
 40
17.15000000000023
100
AcDbArc
 50
258.404727340934
 51
281.595272659066
  0
LINE
  5
75D
330
6C8
100
AcDbEntity
  8
0
  6
Continuous
 62
     7
370
    15
100
AcDbLine
 10
1850.026580777538
 20
1335.268159541356
 30
0.0
 11
1844.880047053808
 21
1335.268159541356
 31
0.0
  0
LINE
  5
75E
330
6C8
100
AcDbEntity
  8
0
  6
Continuous
 62
     7
370
    15
100
AcDbLine
 10
1814.026580777538
 20
1335.268159541356
 30
0.0
 11
1808.880047053808
 21
1335.268159541356
 31
0.0
  0
ARC
  5
75F
330
6C8
100
AcDbEntity
  8
0
  6
Continuous
 62
     7
370
    15
100
AcDbCircle
 10
1829.453313915673
 20
1345.368159541356
 30
0.0
 40
17.15000000000022
100
AcDbArc
 50
258.404727340934
 51
281.595272659066
  0
LINE
  5
760
330
6C8
100
AcDbEntity
  8
0
  6
Continuous
 62
     7
370
    15
100
AcDbLine
 10
1871.153313915672
 20
1335.268159541356
 30
0.0
 11
1868.880047053808
 21
1335.268159541356
 31
0.0
  0
LINE
  5
761
330
6C8
100
AcDbEntity
  8
0
  6
Continuous
 62
     7
370
    15
100
AcDbLine
 10
1862.026580777538
 20
1335.268159541356
 30
0.0
 11
1856.880047053808
 21
1335.268159541356
 31
0.0
  0
ENDBLK
  5
6CA
330
6C8
100
AcDbEntity
  8
0
100
AcDbBlockEnd
  0
BLOCK
  5
764
330
763
100
AcDbEntity
  8
0
100
AcDbBlockBegin
  2
4
 70
     0
 10
0.0
 20
0.0
 30
0.0
  3
4
  1

  0
LINE
  5
766
330
763
100
AcDbEntity
  8
0
  6
Continuous
 62
     7
370
    15
100
AcDbLine
 10
1945.316946102962
 20
1352.931021217824
 30
0.0
 11
1945.389781250407
 21
1357.527927062995
 31
0.0
  0
LINE
  5
767
330
763
100
AcDbEntity
  8
0
  6
Continuous
 62
     7
370
    15
100
AcDbLine
 10
1938.540640916119
 20
1357.636447481496
 30
0.0
 11
1938.467805768674
 21
1353.039541636324
 31
0.0
  0
SPLINE
  5
768
330
763
100
AcDbEntity
  8
0
  6
Continuous
 62
     7
370
    15
100
AcDbSpline
210
0.0
220
0.0
230
1.0
 70
     8
 71
     3
 72
    28
 73
    24
 74
     0
 42
0.0000000001
 43
0.0000000001
 40
0.0
 40
0.0
 40
0.0
 40
0.0
 40
0.0524273456834522
 40
0.098139337229529
 40
0.1371178881259943
 40
0.1694256902375195
 40
0.2208428181165571
 40
0.2626573130504497
 40
0.3068578799017125
 40
0.3611262156585781
 40
0.4254355998107999
 40
0.4914846127973926
 40
0.5505187058047515
 40
0.6025743240968252
 40
0.6476760399069139
 40
0.6922350137895491
 40
0.7251260541554771
 40
0.7605886489681568
 40
0.8004987725034357
 40
0.8386521477586223
 40
0.884584059553139
 40
0.9383758320086483
 40
1.0
 40
1.0
 40
1.0
 40
1.0
 10
1938.467807307103
 20
1353.039638337725
 30
0.0
 10
1938.476020769849
 20
1352.938246122111
 30
0.0
 10
1938.491395643013
 20
1352.748448894903
 30
0.0
 10
1938.617701905345
 20
1352.494097640429
 30
0.0
 10
1938.775403414596
 20
1352.290220551213
 30
0.0
 10
1938.985159636862
 20
1352.092092872988
 30
0.0
 10
1939.246425901393
 20
1351.909150048714
 30
0.0
 10
1939.584140263918
 20
1351.733424090094
 30
0.0
 10
1939.970245875119
 20
1351.579374773807
 30
0.0
 10
1940.46852718913
 20
1351.435003534308
 30
0.0
 10
1941.085315982461
 20
1351.323073677811
 30
0.0
 10
1941.750713940571
 20
1351.271130362895
 30
0.0
 10
1942.376604787793
 20
1351.280864612813
 30
0.0
 10
1942.913900438339
 20
1351.334751520224
 30
0.0
 10
1943.378164409987
 20
1351.418436295689
 30
0.0
 10
1943.754577677873
 20
1351.517677104648
 30
0.0
 10
1944.07543526285
 20
1351.629334566201
 30
0.0
 10
1944.357723721703
 20
1351.752595608127
 30
0.0
 10
1944.620682151136
 20
1351.899186747123
 30
0.0
 10
1944.870729334837
 20
1352.081240949483
 30
0.0
 10
1945.091961416766
 20
1352.30601843051
 30
0.0
 10
1945.273309654528
 20
1352.593788819364
 30
0.0
 10
1945.301756113462
 20
1352.813574233401
 30
0.0
 10
1945.316944564532
 20
1352.930924516423
 30
0.0
  0
LINE
  5
769
330
763
100
AcDbEntity
  8
0
  6
Continuous
 62
     7
370
    15
100
AcDbLine
 10
1944.876592004849
 20
1351.965331846165
 30
0.0
 11
1944.878786863825
 21
1352.103857824514
 31
0.0
  0
LINE
  5
76A
330
763
100
AcDbEntity
  8
0
  6
Continuous
 62
     7
370
    15
100
AcDbLine
 10
1938.879532604534
 20
1352.198454557383
 30
0.0
 11
1938.877344996713
 21
1352.060386227333
 31
0.0
  0
LINE
  5
76B
330
763
100
AcDbEntity
  8
0
  6
Continuous
 62
     7
370
    15
100
AcDbLine
 10
1944.626997910706
 20
1338.991112847705
 30
0.0
 11
1944.740009360019
 21
1346.123699382304
 31
0.0
  0
LINE
  5
76C
330
763
100
AcDbEntity
  8
0
  6
Continuous
 62
     7
370
    15
100
AcDbLine
 10
1938.762569513494
 20
1347.595087473071
 30
0.0
 11
1938.627750902571
 21
1339.086167228873
 31
0.0
  0
LINE
  5
76D
330
763
100
AcDbEntity
  8
0
  6
Continuous
 62
     7
370
    15
100
AcDbLine
 10
1936.815695014011
 20
1356.993478032964
 30
0.0
 11
1936.888530161457
 21
1361.590383878136
 31
0.0
  0
LINE
  5
76E
330
763
100
AcDbEntity
  8
0
  6
Continuous
 62
     7
370
    15
100
AcDbLine
 10
1930.03938982717
 20
1361.698904296637
 30
0.0
 11
1929.966554679723
 21
1357.101998451465
 31
0.0
  0
SPLINE
  5
76F
330
763
100
AcDbEntity
  8
0
  6
Continuous
 62
     7
370
    15
100
AcDbSpline
210
0.0
220
0.0
230
1.0
 70
     8
 71
     3
 72
    28
 73
    24
 74
     0
 42
0.0000000001
 43
0.0000000001
 40
0.0
 40
0.0
 40
0.0
 40
0.0
 40
0.0524273456834528
 40
0.0981393372295292
 40
0.1371178881259948
 40
0.1694256902375199
 40
0.2208428181165575
 40
0.2626573130504504
 40
0.3068578799017128
 40
0.3611262156585782
 40
0.4254355998108003
 40
0.4914846127973929
 40
0.5505187058047522
 40
0.6025743240968261
 40
0.6476760399069149
 40
0.6922350137895512
 40
0.7251260541554786
 40
0.7605886489681581
 40
0.8004987725034368
 40
0.8386521477586226
 40
0.884584059553139
 40
0.9383758320086483
 40
1.0
 40
1.0
 40
1.0
 40
1.0
 10
1929.966556218153
 20
1357.102095152866
 30
0.0
 10
1929.974769680899
 20
1357.000702937252
 30
0.0
 10
1929.990144554064
 20
1356.810905710045
 30
0.0
 10
1930.116450816395
 20
1356.55655445557
 30
0.0
 10
1930.274152325646
 20
1356.352677366354
 30
0.0
 10
1930.483908547912
 20
1356.154549688129
 30
0.0
 10
1930.745174812443
 20
1355.971606863854
 30
0.0
 10
1931.082889174968
 20
1355.795880905235
 30
0.0
 10
1931.468994786169
 20
1355.641831588948
 30
0.0
 10
1931.96727610018
 20
1355.497460349449
 30
0.0
 10
1932.584064893512
 20
1355.385530492952
 30
0.0
 10
1933.249462851621
 20
1355.333587178036
 30
0.0
 10
1933.875353698843
 20
1355.343321427954
 30
0.0
 10
1934.412649349388
 20
1355.397208335366
 30
0.0
 10
1934.876913321037
 20
1355.48089311083
 30
0.0
 10
1935.253326588923
 20
1355.580133919789
 30
0.0
 10
1935.5741841739
 20
1355.691791381343
 30
0.0
 10
1935.856472632752
 20
1355.815052423268
 30
0.0
 10
1936.119431062186
 20
1355.961643562264
 30
0.0
 10
1936.369478245887
 20
1356.143697764624
 30
0.0
 10
1936.590710327816
 20
1356.368475245651
 30
0.0
 10
1936.772058565578
 20
1356.656245634505
 30
0.0
 10
1936.800505024512
 20
1356.876031048542
 30
0.0
 10
1936.815693475582
 20
1356.993381331563
 30
0.0
  0
LINE
  5
770
330
763
100
AcDbEntity
  8
0
  6
Continuous
 62
     7
370
    15
100
AcDbLine
 10
1939.069106024018
 20
1338.338314060093
 30
0.0
 11
1939.236855897602
 21
1338.208198387754
 31
0.0
  0
LINE
  5
771
330
763
100
AcDbEntity
  8
0
  6
Continuous
 62
     7
370
    15
100
AcDbLine
 10
1943.990383893421
 20
1338.132881658604
 30
0.0
 11
1944.162171733608
 21
1338.257617564579
 31
0.0
  0
LINE
  5
772
330
763
100
AcDbEntity
  8
0
  6
Continuous
 62
     7
370
    15
100
AcDbLine
 10
1936.375340915899
 20
1356.027788661306
 30
0.0
 11
1936.377535774875
 21
1356.166314639655
 31
0.0
  0
LINE
  5
773
330
763
100
AcDbEntity
  8
0
  6
Continuous
 62
     7
370
    15
100
AcDbLine
 10
1930.378281515584
 20
1356.260911372525
 30
0.0
 11
1930.376093907763
 21
1356.122843042474
 31
0.0
  0
LINE
  5
774
330
763
100
AcDbEntity
  8
0
  6
Continuous
 62
     7
370
    15
100
AcDbLine
 10
1936.125746821756
 20
1343.053569662845
 30
0.0
 11
1936.2204821284
 21
1349.032678652463
 31
0.0
  0
LINE
  5
775
330
763
100
AcDbEntity
  8
0
  6
Continuous
 62
     7
370
    15
100
AcDbLine
 10
1930.261318424545
 20
1351.657544288213
 30
0.0
 11
1930.126499813621
 21
1343.148624044014
 31
0.0
  0
LINE
  5
776
330
763
100
AcDbEntity
  8
0
  6
Continuous
 62
     7
370
    15
100
AcDbLine
 10
1928.314443925061
 20
1361.055934848105
 30
0.0
 11
1928.387279072508
 21
1365.652840693277
 31
0.0
  0
LINE
  5
777
330
763
100
AcDbEntity
  8
0
  6
Continuous
 62
     7
370
    15
100
AcDbLine
 10
1921.53813873822
 20
1365.761361111778
 30
0.0
 11
1921.465303590774
 21
1361.164455266606
 31
0.0
  0
SPLINE
  5
778
330
763
100
AcDbEntity
  8
0
  6
Continuous
 62
     7
370
    15
100
AcDbSpline
210
0.0
220
0.0
230
1.0
 70
     8
 71
     3
 72
    28
 73
    24
 74
     0
 42
0.0000000001
 43
0.0000000001
 40
0.0
 40
0.0
 40
0.0
 40
0.0
 40
0.0524273456834522
 40
0.0981393372295288
 40
0.1371178881259941
 40
0.1694256902375191
 40
0.2208428181165572
 40
0.2626573130504498
 40
0.3068578799017127
 40
0.3611262156585782
 40
0.4254355998108001
 40
0.4914846127973929
 40
0.5505187058047524
 40
0.6025743240968265
 40
0.6476760399069156
 40
0.6922350137895514
 40
0.7251260541554793
 40
0.7605886489681587
 40
0.8004987725034368
 40
0.838652147758623
 40
0.884584059553139
 40
0.9383758320086485
 40
1.0
 40
1.0
 40
1.0
 40
1.0
 10
1921.465305129203
 20
1361.164551968007
 30
0.0
 10
1921.473518591949
 20
1361.063159752393
 30
0.0
 10
1921.488893465114
 20
1360.873362525185
 30
0.0
 10
1921.615199727445
 20
1360.619011270711
 30
0.0
 10
1921.772901236696
 20
1360.415134181495
 30
0.0
 10
1921.982657458962
 20
1360.21700650327
 30
0.0
 10
1922.243923723493
 20
1360.034063678996
 30
0.0
 10
1922.581638086018
 20
1359.858337720377
 30
0.0
 10
1922.967743697219
 20
1359.704288404089
 30
0.0
 10
1923.46602501123
 20
1359.55991716459
 30
0.0
 10
1924.082813804561
 20
1359.447987308093
 30
0.0
 10
1924.748211762671
 20
1359.396043993177
 30
0.0
 10
1925.374102609893
 20
1359.405778243095
 30
0.0
 10
1925.911398260439
 20
1359.459665150506
 30
0.0
 10
1926.375662232087
 20
1359.543349925971
 30
0.0
 10
1926.752075499973
 20
1359.642590734929
 30
0.0
 10
1927.07293308495
 20
1359.754248196483
 30
0.0
 10
1927.355221543803
 20
1359.877509238409
 30
0.0
 10
1927.618179973237
 20
1360.024100377405
 30
0.0
 10
1927.868227156938
 20
1360.206154579765
 30
0.0
 10
1928.089459238866
 20
1360.430932060792
 30
0.0
 10
1928.270807476628
 20
1360.718702449645
 30
0.0
 10
1928.299253935562
 20
1360.938487863683
 30
0.0
 10
1928.314442386632
 20
1361.055838146705
 30
0.0
  0
LINE
  5
779
330
763
100
AcDbEntity
  8
0
  6
Continuous
 62
     7
370
    15
100
AcDbLine
 10
1930.567854935068
 20
1342.400770875234
 30
0.0
 11
1930.735604808652
 21
1342.270655202894
 31
0.0
  0
LINE
  5
77A
330
763
100
AcDbEntity
  8
0
  6
Continuous
 62
     7
370
    15
100
AcDbLine
 10
1935.489132804471
 20
1342.195338473745
 30
0.0
 11
1935.660920644658
 21
1342.320074379721
 31
0.0
  0
LINE
  5
77B
330
763
100
AcDbEntity
  8
0
  6
Continuous
 62
     7
370
    15
100
AcDbLine
 10
1927.874089826949
 20
1360.090245476447
 30
0.0
 11
1927.876284685925
 21
1360.228771454796
 31
0.0
  0
LINE
  5
77C
330
763
100
AcDbEntity
  8
0
  6
Continuous
 62
     7
370
    15
100
AcDbLine
 10
1921.877030426634
 20
1360.323368187665
 30
0.0
 11
1921.874842818813
 21
1360.185299857615
 31
0.0
  0
LINE
  5
77D
330
763
100
AcDbEntity
  8
0
  6
Continuous
 62
     7
370
    15
100
AcDbLine
 10
1927.624495732806
 20
1347.116026477986
 30
0.0
 11
1927.71923103945
 21
1353.095135467604
 31
0.0
  0
LINE
  5
77E
330
763
100
AcDbEntity
  8
0
  6
Continuous
 62
     7
370
    15
100
AcDbLine
 10
1921.760067335594
 20
1355.720001103354
 30
0.0
 11
1921.625248724671
 21
1347.211080859155
 31
0.0
  0
LINE
  5
77F
330
763
100
AcDbEntity
  8
0
  6
Continuous
 62
     7
370
    15
100
AcDbLine
 10
1919.813192836112
 20
1365.118391663246
 30
0.0
 11
1919.886027983558
 21
1369.715297508418
 31
0.0
  0
LINE
  5
780
330
763
100
AcDbEntity
  8
0
  6
Continuous
 62
     7
370
    15
100
AcDbLine
 10
1913.03688764927
 20
1369.823817926918
 30
0.0
 11
1912.964052501824
 21
1365.226912081747
 31
0.0
  0
SPLINE
  5
781
330
763
100
AcDbEntity
  8
0
  6
Continuous
 62
     7
370
    15
100
AcDbSpline
210
0.0
220
0.0
230
1.0
 70
     8
 71
     3
 72
    28
 73
    24
 74
     0
 42
0.0000000001
 43
0.0000000001
 40
0.0
 40
0.0
 40
0.0
 40
0.0
 40
0.0524273456834522
 40
0.098139337229529
 40
0.1371178881259943
 40
0.1694256902375198
 40
0.2208428181165573
 40
0.2626573130504501
 40
0.3068578799017126
 40
0.3611262156585782
 40
0.4254355998108002
 40
0.4914846127973926
 40
0.5505187058047526
 40
0.6025743240968261
 40
0.6476760399069153
 40
0.6922350137895514
 40
0.7251260541554786
 40
0.7605886489681581
 40
0.8004987725034368
 40
0.838652147758623
 40
0.884584059553139
 40
0.9383758320086487
 40
1.0
 40
1.0
 40
1.0
 40
1.0
 10
1912.964054040253
 20
1365.227008783148
 30
0.0
 10
1912.972267502999
 20
1365.125616567534
 30
0.0
 10
1912.987642376164
 20
1364.935819340326
 30
0.0
 10
1913.113948638495
 20
1364.681468085852
 30
0.0
 10
1913.271650147746
 20
1364.477590996636
 30
0.0
 10
1913.481406370012
 20
1364.279463318411
 30
0.0
 10
1913.742672634543
 20
1364.096520494136
 30
0.0
 10
1914.080386997069
 20
1363.920794535517
 30
0.0
 10
1914.466492608269
 20
1363.766745219229
 30
0.0
 10
1914.96477392228
 20
1363.622373979731
 30
0.0
 10
1915.581562715612
 20
1363.510444123234
 30
0.0
 10
1916.246960673721
 20
1363.458500808318
 30
0.0
 10
1916.872851520943
 20
1363.468235058236
 30
0.0
 10
1917.410147171489
 20
1363.522121965647
 30
0.0
 10
1917.874411143137
 20
1363.605806741112
 30
0.0
 10
1918.250824411023
 20
1363.70504755007
 30
0.0
 10
1918.571681996001
 20
1363.816705011624
 30
0.0
 10
1918.853970454853
 20
1363.93996605355
 30
0.0
 10
1919.116928884287
 20
1364.086557192546
 30
0.0
 10
1919.366976067988
 20
1364.268611394906
 30
0.0
 10
1919.588208149916
 20
1364.493388875933
 30
0.0
 10
1919.769556387678
 20
1364.781159264786
 30
0.0
 10
1919.798002846613
 20
1365.000944678824
 30
0.0
 10
1919.813191297682
 20
1365.118294961845
 30
0.0
  0
LINE
  5
782
330
763
100
AcDbEntity
  8
0
  6
Continuous
 62
     7
370
    15
100
AcDbLine
 10
1922.066603846118
 20
1346.463227690375
 30
0.0
 11
1922.234353719702
 21
1346.333112018035
 31
0.0
  0
LINE
  5
783
330
763
100
AcDbEntity
  8
0
  6
Continuous
 62
     7
370
    15
100
AcDbLine
 10
1926.987881715521
 20
1346.257795288886
 30
0.0
 11
1927.159669555708
 21
1346.382531194862
 31
0.0
  0
LINE
  5
784
330
763
100
AcDbEntity
  8
0
  6
Continuous
 62
     7
370
    15
100
AcDbLine
 10
1919.372838737999
 20
1364.152702291588
 30
0.0
 11
1919.375033596975
 21
1364.291228269937
 31
0.0
  0
LINE
  5
785
330
763
100
AcDbEntity
  8
0
  6
Continuous
 62
     7
370
    15
100
AcDbLine
 10
1913.375779337684
 20
1364.385825002806
 30
0.0
 11
1913.373591729864
 21
1364.247756672756
 31
0.0
  0
LINE
  5
786
330
763
100
AcDbEntity
  8
0
  6
Continuous
 62
     7
370
    15
100
AcDbLine
 10
1919.123244643856
 20
1351.178483293127
 30
0.0
 11
1919.2179799505
 21
1357.157592282745
 31
0.0
  0
LINE
  5
787
330
763
100
AcDbEntity
  8
0
  6
Continuous
 62
     7
370
    15
100
AcDbLine
 10
1913.258816246645
 20
1359.782457918494
 30
0.0
 11
1913.123997635721
 21
1351.273537674296
 31
0.0
  0
LINE
  5
788
330
763
100
AcDbEntity
  8
0
  6
Continuous
 62
     7
370
    15
100
AcDbLine
 10
1911.311941747162
 20
1369.180848478387
 30
0.0
 11
1911.384776894607
 21
1373.777754323559
 31
0.0
  0
LINE
  5
789
330
763
100
AcDbEntity
  8
0
  6
Continuous
 62
     7
370
    15
100
AcDbLine
 10
1904.53563656032
 20
1373.886274742059
 30
0.0
 11
1904.462801412874
 21
1369.289368896888
 31
0.0
  0
SPLINE
  5
78A
330
763
100
AcDbEntity
  8
0
  6
Continuous
 62
     7
370
    15
100
AcDbSpline
210
0.0
220
0.0
230
1.0
 70
     8
 71
     3
 72
    28
 73
    24
 74
     0
 42
0.0000000001
 43
0.0000000001
 40
0.0
 40
0.0
 40
0.0
 40
0.0
 40
0.0524273456834529
 40
0.0981393372295298
 40
0.137117888125995
 40
0.1694256902375196
 40
0.2208428181165575
 40
0.2626573130504503
 40
0.3068578799017132
 40
0.3611262156585783
 40
0.4254355998108003
 40
0.491484612797393
 40
0.5505187058047523
 40
0.6025743240968266
 40
0.6476760399069152
 40
0.6922350137895517
 40
0.7251260541554787
 40
0.7605886489681583
 40
0.8004987725034368
 40
0.8386521477586233
 40
0.884584059553139
 40
0.9383758320086487
 40
1.0
 40
1.0
 40
1.0
 40
1.0
 10
1904.462802951304
 20
1369.289465598289
 30
0.0
 10
1904.471016414049
 20
1369.188073382675
 30
0.0
 10
1904.486391287214
 20
1368.998276155467
 30
0.0
 10
1904.612697549545
 20
1368.743924900993
 30
0.0
 10
1904.770399058796
 20
1368.540047811777
 30
0.0
 10
1904.980155281062
 20
1368.341920133552
 30
0.0
 10
1905.241421545593
 20
1368.158977309277
 30
0.0
 10
1905.579135908119
 20
1367.983251350658
 30
0.0
 10
1905.96524151932
 20
1367.82920203437
 30
0.0
 10
1906.46352283333
 20
1367.684830794872
 30
0.0
 10
1907.080311626662
 20
1367.572900938375
 30
0.0
 10
1907.745709584771
 20
1367.520957623459
 30
0.0
 10
1908.371600431993
 20
1367.530691873377
 30
0.0
 10
1908.908896082539
 20
1367.584578780788
 30
0.0
 10
1909.373160054187
 20
1367.668263556253
 30
0.0
 10
1909.749573322073
 20
1367.767504365211
 30
0.0
 10
1910.070430907051
 20
1367.879161826765
 30
0.0
 10
1910.352719365903
 20
1368.002422868691
 30
0.0
 10
1910.615677795337
 20
1368.149014007687
 30
0.0
 10
1910.865724979038
 20
1368.331068210047
 30
0.0
 10
1911.086957060966
 20
1368.555845691074
 30
0.0
 10
1911.268305298728
 20
1368.843616079927
 30
0.0
 10
1911.296751757663
 20
1369.063401493965
 30
0.0
 10
1911.311940208732
 20
1369.180751776986
 30
0.0
  0
LINE
  5
78B
330
763
100
AcDbEntity
  8
0
  6
Continuous
 62
     7
370
    15
100
AcDbLine
 10
1913.565352757169
 20
1350.525684505516
 30
0.0
 11
1913.733102630752
 21
1350.395568833176
 31
0.0
  0
LINE
  5
78C
330
763
100
AcDbEntity
  8
0
  6
Continuous
 62
     7
370
    15
100
AcDbLine
 10
1918.486630626571
 20
1350.320252104027
 30
0.0
 11
1918.658418466758
 21
1350.444988010002
 31
0.0
  0
LINE
  5
78D
330
763
100
AcDbEntity
  8
0
  6
Continuous
 62
     7
370
    15
100
AcDbLine
 10
1910.871587649049
 20
1368.215159106729
 30
0.0
 11
1910.873782508025
 21
1368.353685085078
 31
0.0
  0
LINE
  5
78E
330
763
100
AcDbEntity
  8
0
  6
Continuous
 62
     7
370
    15
100
AcDbLine
 10
1904.874528248734
 20
1368.448281817947
 30
0.0
 11
1904.872340640913
 21
1368.310213487897
 31
0.0
  0
LINE
  5
78F
330
763
100
AcDbEntity
  8
0
  6
Continuous
 62
     7
370
    15
100
AcDbLine
 10
1910.621993554906
 20
1355.240940108268
 30
0.0
 11
1910.71672886155
 21
1361.220049097885
 31
0.0
  0
LINE
  5
790
330
763
100
AcDbEntity
  8
0
  6
Continuous
 62
     7
370
    15
100
AcDbLine
 10
1904.757565157695
 20
1363.844914733636
 30
0.0
 11
1904.622746546771
 21
1355.335994489436
 31
0.0
  0
LINE
  5
791
330
763
100
AcDbEntity
  8
0
  6
Continuous
 62
     7
370
    15
100
AcDbLine
 10
1902.810690658212
 20
1373.243305293528
 30
0.0
 11
1902.883525805657
 21
1377.8402111387
 31
0.0
  0
LINE
  5
792
330
763
100
AcDbEntity
  8
0
  6
Continuous
 62
     7
370
    15
100
AcDbLine
 10
1896.03438547137
 20
1377.9487315572
 30
0.0
 11
1895.961550323924
 21
1373.351825712029
 31
0.0
  0
SPLINE
  5
793
330
763
100
AcDbEntity
  8
0
  6
Continuous
 62
     7
370
    15
100
AcDbSpline
210
0.0
220
0.0
230
1.0
 70
     8
 71
     3
 72
    28
 73
    24
 74
     0
 42
0.0000000001
 43
0.0000000001
 40
0.0
 40
0.0
 40
0.0
 40
0.0
 40
0.0524273456834529
 40
0.0981393372295298
 40
0.137117888125995
 40
0.1694256902375196
 40
0.2208428181165575
 40
0.2626573130504503
 40
0.3068578799017132
 40
0.3611262156585783
 40
0.4254355998108003
 40
0.491484612797393
 40
0.5505187058047523
 40
0.6025743240968266
 40
0.6476760399069152
 40
0.6922350137895517
 40
0.7251260541554787
 40
0.7605886489681583
 40
0.8004987725034368
 40
0.8386521477586233
 40
0.884584059553139
 40
0.9383758320086487
 40
1.0
 40
1.0
 40
1.0
 40
1.0
 10
1895.961551862354
 20
1373.351922413429
 30
0.0
 10
1895.969765325099
 20
1373.250530197816
 30
0.0
 10
1895.985140198264
 20
1373.060732970608
 30
0.0
 10
1896.111446460595
 20
1372.806381716134
 30
0.0
 10
1896.269147969846
 20
1372.602504626918
 30
0.0
 10
1896.478904192112
 20
1372.404376948693
 30
0.0
 10
1896.740170456643
 20
1372.221434124418
 30
0.0
 10
1897.077884819169
 20
1372.045708165799
 30
0.0
 10
1897.46399043037
 20
1371.891658849511
 30
0.0
 10
1897.96227174438
 20
1371.747287610013
 30
0.0
 10
1898.579060537712
 20
1371.635357753515
 30
0.0
 10
1899.244458495821
 20
1371.5834144386
 30
0.0
 10
1899.870349343044
 20
1371.593148688518
 30
0.0
 10
1900.407644993589
 20
1371.647035595929
 30
0.0
 10
1900.871908965237
 20
1371.730720371394
 30
0.0
 10
1901.248322233123
 20
1371.829961180352
 30
0.0
 10
1901.569179818101
 20
1371.941618641906
 30
0.0
 10
1901.851468276953
 20
1372.064879683832
 30
0.0
 10
1902.114426706387
 20
1372.211470822828
 30
0.0
 10
1902.364473890088
 20
1372.393525025187
 30
0.0
 10
1902.585705972017
 20
1372.618302506215
 30
0.0
 10
1902.767054209778
 20
1372.906072895068
 30
0.0
 10
1902.795500668713
 20
1373.125858309105
 30
0.0
 10
1902.810689119782
 20
1373.243208592127
 30
0.0
  0
LINE
  5
794
330
763
100
AcDbEntity
  8
0
  6
Continuous
 62
     7
370
    15
100
AcDbLine
 10
1905.064101668219
 20
1354.588141320657
 30
0.0
 11
1905.231851541802
 21
1354.458025648317
 31
0.0
  0
LINE
  5
795
330
763
100
AcDbEntity
  8
0
  6
Continuous
 62
     7
370
    15
100
AcDbLine
 10
1909.985379537621
 20
1354.382708919168
 30
0.0
 11
1910.157167377808
 21
1354.507444825143
 31
0.0
  0
LINE
  5
796
330
763
100
AcDbEntity
  8
0
  6
Continuous
 62
     7
370
    15
100
AcDbLine
 10
1902.370336560099
 20
1372.277615921869
 30
0.0
 11
1902.372531419075
 21
1372.416141900218
 31
0.0
  0
LINE
  5
797
330
763
100
AcDbEntity
  8
0
  6
Continuous
 62
     7
370
    15
100
AcDbLine
 10
1896.373277159784
 20
1372.510738633088
 30
0.0
 11
1896.371089551963
 21
1372.372670303038
 31
0.0
  0
LINE
  5
798
330
763
100
AcDbEntity
  8
0
  6
Continuous
 62
     7
370
    15
100
AcDbLine
 10
1902.120742465957
 20
1359.303396923409
 30
0.0
 11
1902.2154777726
 21
1365.282505913026
 31
0.0
  0
LINE
  5
799
330
763
100
AcDbEntity
  8
0
  6
Continuous
 62
     7
370
    15
100
AcDbLine
 10
1896.256314068745
 20
1367.907371548776
 30
0.0
 11
1896.121495457822
 21
1359.398451304577
 31
0.0
  0
LINE
  5
79A
330
763
100
AcDbEntity
  8
0
  6
Continuous
 62
     7
370
    15
100
AcDbLine
 10
1894.309439569262
 20
1377.305762108669
 30
0.0
 11
1894.382274716708
 21
1381.902667953841
 31
0.0
  0
LINE
  5
79B
330
763
100
AcDbEntity
  8
0
  6
Continuous
 62
     7
370
    15
100
AcDbLine
 10
1887.53313438242
 20
1382.011188372341
 30
0.0
 11
1887.460299234974
 21
1377.41428252717
 31
0.0
  0
SPLINE
  5
79C
330
763
100
AcDbEntity
  8
0
  6
Continuous
 62
     7
370
    15
100
AcDbSpline
210
0.0
220
0.0
230
1.0
 70
     8
 71
     3
 72
    28
 73
    24
 74
     0
 42
0.0000000001
 43
0.0000000001
 40
0.0
 40
0.0
 40
0.0
 40
0.0
 40
0.0524273456834529
 40
0.0981393372295298
 40
0.137117888125995
 40
0.1694256902375197
 40
0.2208428181165576
 40
0.2626573130504503
 40
0.3068578799017132
 40
0.3611262156585784
 40
0.4254355998108003
 40
0.4914846127973931
 40
0.5505187058047524
 40
0.6025743240968266
 40
0.6476760399069153
 40
0.6922350137895517
 40
0.7251260541554787
 40
0.7605886489681582
 40
0.8004987725034368
 40
0.8386521477586233
 40
0.8845840595531388
 40
0.9383758320086487
 40
1.0
 40
1.0
 40
1.0
 40
1.0
 10
1887.460300773404
 20
1377.41437922857
 30
0.0
 10
1887.468514236149
 20
1377.312987012957
 30
0.0
 10
1887.483889109314
 20
1377.123189785749
 30
0.0
 10
1887.610195371646
 20
1376.868838531275
 30
0.0
 10
1887.767896880896
 20
1376.664961442058
 30
0.0
 10
1887.977653103163
 20
1376.466833763833
 30
0.0
 10
1888.238919367693
 20
1376.283890939559
 30
0.0
 10
1888.576633730219
 20
1376.10816498094
 30
0.0
 10
1888.96273934142
 20
1375.954115664652
 30
0.0
 10
1889.46102065543
 20
1375.809744425154
 30
0.0
 10
1890.077809448762
 20
1375.697814568656
 30
0.0
 10
1890.743207406871
 20
1375.645871253741
 30
0.0
 10
1891.369098254093
 20
1375.655605503659
 30
0.0
 10
1891.906393904639
 20
1375.70949241107
 30
0.0
 10
1892.370657876287
 20
1375.793177186534
 30
0.0
 10
1892.747071144173
 20
1375.892417995493
 30
0.0
 10
1893.067928729151
 20
1376.004075457047
 30
0.0
 10
1893.350217188003
 20
1376.127336498973
 30
0.0
 10
1893.613175617437
 20
1376.273927637969
 30
0.0
 10
1893.863222801138
 20
1376.455981840329
 30
0.0
 10
1894.084454883067
 20
1376.680759321355
 30
0.0
 10
1894.265803120828
 20
1376.968529710209
 30
0.0
 10
1894.294249579763
 20
1377.188315124246
 30
0.0
 10
1894.309438030832
 20
1377.305665407268
 30
0.0
  0
LINE
  5
79D
330
763
100
AcDbEntity
  8
0
  6
Continuous
 62
     7
370
    15
100
AcDbLine
 10
1896.562850579269
 20
1358.650598135797
 30
0.0
 11
1896.730600452853
 21
1358.520482463458
 31
0.0
  0
LINE
  5
79E
330
763
100
AcDbEntity
  8
0
  6
Continuous
 62
     7
370
    15
100
AcDbLine
 10
1901.484128448671
 20
1358.445165734309
 30
0.0
 11
1901.655916288859
 21
1358.569901640284
 31
0.0
  0
LINE
  5
79F
330
763
100
AcDbEntity
  8
0
  6
Continuous
 62
     7
370
    15
100
AcDbLine
 10
1893.869085471149
 20
1376.34007273701
 30
0.0
 11
1893.871280330125
 21
1376.478598715359
 31
0.0
  0
LINE
  5
7A0
330
763
100
AcDbEntity
  8
0
  6
Continuous
 62
     7
370
    15
100
AcDbLine
 10
1887.872026070834
 20
1376.573195448229
 30
0.0
 11
1887.869838463014
 21
1376.435127118179
 31
0.0
  0
LINE
  5
7A1
330
763
100
AcDbEntity
  8
0
  6
Continuous
 62
     7
370
    15
100
AcDbLine
 10
1893.619491377007
 20
1363.36585373855
 30
0.0
 11
1893.71422668365
 21
1369.344962728167
 31
0.0
  0
LINE
  5
7A2
330
763
100
AcDbEntity
  8
0
  6
Continuous
 62
     7
370
    15
100
AcDbLine
 10
1887.755062979795
 20
1371.969828363917
 30
0.0
 11
1887.620244368872
 21
1363.460908119718
 31
0.0
  0
LINE
  5
7A3
330
763
100
AcDbEntity
  8
0
  6
Continuous
 62
     7
370
    15
100
AcDbLine
 10
1888.061599490319
 20
1362.713054950938
 30
0.0
 11
1888.229349363903
 21
1362.582939278599
 31
0.0
  0
LINE
  5
7A4
330
763
100
AcDbEntity
  8
0
  6
Continuous
 62
     7
370
    15
100
AcDbLine
 10
1892.982877359721
 20
1362.50762254945
 30
0.0
 11
1893.154665199909
 21
1362.632358455425
 31
0.0
  0
LWPOLYLINE
  5
7A5
330
763
100
AcDbEntity
  8
0
  6
Continuous
 62
     7
370
    15
100
AcDbPolyline
 90
       41
 70
   128
 43
0.0
 10
1943.718594120367
 20
1356.744305554127
 10
1943.423802831294
 20
1356.629821035803
 10
1943.093096172596
 20
1356.538786934943
 10
1942.734617239763
 20
1356.473444813235
 10
1942.357192973844
 20
1356.435403610574
 10
1941.970116812866
 20
1356.425600027619
 10
1941.582919856543
 20
1356.444275461121
 10
1941.205136178975
 20
1356.490970059925
 10
1940.846068068094
 20
1356.564534048039
 10
1940.514556972469
 20
1356.663156035931
 10
1940.218765795497
 20
1356.78440762295
 10
1939.965977897629
 20
1356.925303192615
 10
1939.762417755866
 20
1357.082373428394
 10
1939.613097696476
 20
1357.251750739795
 10
1939.521694474885
 20
1357.429264495281
 10
1939.490458741759
 20
1357.610543717058
 10
1939.520159624513
 20
1357.791124709055
 10
1939.610065788842
 20
1357.966560967933
 10
1939.757963446599
 20
1358.132532670761
 10
1939.960210866605
 20
1358.284953043386
 10
1940.21182804616
 20
1358.42006899038
 10
1940.506619335233
 20
1358.534553508703
 10
1940.83732599393
 20
1358.625587609563
 10
1941.195804926764
 20
1358.690929731271
 10
1941.573229192683
 20
1358.728970933932
 10
1941.960305353661
 20
1358.738774516887
 10
1942.347502309984
 20
1358.720099083385
 10
1942.725285987553
 20
1358.673404484581
 10
1943.084354098434
 20
1358.599840496467
 10
1943.415865194058
 20
1358.501218508575
 10
1943.71165637103
 20
1358.379966921555
 10
1943.964444268898
 20
1358.239071351891
 10
1944.168004410661
 20
1358.082001116113
 10
1944.317324470051
 20
1357.912623804711
 10
1944.408727691642
 20
1357.735110049225
 10
1944.439963424768
 20
1357.553830827448
 10
1944.410262542014
 20
1357.373249835452
 10
1944.320356377685
 20
1357.197813576573
 10
1944.172458719928
 20
1357.031841873745
 10
1943.970211299921
 20
1356.87942150112
 10
1943.718594120367
 20
1356.744305554127
  0
LWPOLYLINE
  5
7A6
330
763
100
AcDbEntity
  8
0
  6
Continuous
 62
     7
370
    15
100
AcDbPolyline
 90
       48
 70
   128
 43
0.0
 10
1939.538812334959
 20
1358.7416801549
 10
1939.882589556967
 20
1358.87848311148
 10
1940.263531209451
 20
1358.9921536381
 10
1940.674839379596
 20
1359.080663281517
 10
1941.109174263363
 20
1359.14243258505
 10
1941.558785144461
 20
1359.176359274013
 10
1942.015648706065
 20
1359.181837925838
 10
1942.471612207095
 20
1359.158770773852
 10
1942.918538968074
 20
1359.107569451931
 10
1943.348453570363
 20
1359.029147648877
 10
1943.753684177701
 20
1358.924904803622
 10
1944.126999440298
 20
1358.79670113221
 10
1944.461737538451
 20
1358.646824432195
 10
1944.751925062867
 20
1358.477949256839
 10
1944.992383610298
 20
1358.293089187646
 10
1945.17882219227
 20
1358.095543056932
 10
1945.307913807869
 20
1357.888836080079
 10
1945.377354814158
 20
1357.676656947984
 10
1945.385906034734
 20
1357.462792002289
 10
1945.333414872862
 20
1357.251057668014
 10
1945.220818034572
 20
1357.045232349372
 10
1945.050124813108
 20
1356.848989004048
 10
1944.824381233052
 20
1356.665829599191
 10
1944.547615693939
 20
1356.499022618718
 10
1944.22476708337
 20
1356.351544737148
 10
1943.861596642448
 20
1356.226027700771
 10
1943.464585156297
 20
1356.124711364075
 10
1943.040817304292
 20
1356.049403719489
 10
1942.597855233792
 20
1356.001448633714
 10
1942.143603613437
 20
1355.981701866392
 10
1941.686168574155
 20
1355.990515799054
 10
1941.233713055058
 20
1356.027733146862
 10
1940.794311135605
 20
1356.092689765363
 10
1940.375803953457
 20
1356.184226502162
 10
1939.985659779194
 20
1356.300709882021
 10
1939.630840744848
 20
1356.440061256267
 10
1939.317678604494
 20
1356.599793896326
 10
1939.051761743944
 20
1356.777057369451
 10
1938.837835455876
 20
1356.968688404766
 10
1938.679717259967
 20
1357.171267341905
 10
1938.58022877917
 20
1357.381179154936
 10
1938.541145387781
 20
1357.594677962582
 10
1938.563164529846
 20
1357.807953873563
 10
1938.645893273252
 20
1358.017200974195
 10
1938.787855321614
 20
1358.21868524501
 10
1938.986517358815
 20
1358.408811194422
 10
1939.238334256096
 20
1358.58418602036
 10
1939.538812334959
 20
1358.7416801549
  0
ARC
  5
7A7
330
763
100
AcDbEntity
  8
0
  6
Continuous
 62
     7
370
    15
100
AcDbCircle
 10
1943.917341033134
 20
1353.191693077625
 30
0.0
 40
1.423672774894917
100
AcDbArc
 50
286.3778425017386
 51
349.449729097587
  0
LWPOLYLINE
  5
7A8
330
763
100
AcDbEntity
  8
0
  6
Continuous
 62
     7
370
    15
100
AcDbPolyline
 90
       24
 70
   128
 43
0.0
 10
1887.869838463014
 20
1376.435127118179
 10
1887.877829257485
 20
1376.321871693052
 10
1887.939578686218
 20
1376.123185513805
 10
1888.060972089464
 20
1375.929882049513
 10
1888.239538247602
 20
1375.74589640127
 10
1888.471642068595
 20
1375.574973986303
 10
1888.752558587979
 20
1375.42059429208
 10
1889.076569155517
 20
1375.285900043983
 10
1889.437077850422
 20
1375.173633228476
 10
1889.826745755288
 20
1375.086079274173
 10
1890.237640355281
 20
1375.025020527097
 10
1890.661397021267
 20
1374.99169996726
 10
1891.08938928954
 20
1374.986795905174
 10
1891.512904471745
 20
1375.010408173398
 10
1891.923321020091
 20
1375.062056094245
 10
1892.312284037196
 20
1375.140688264986
 10
1892.671875357709
 20
1375.244703961381
 10
1892.994774739319
 20
1375.371985723809
 10
1893.274408881783
 20
1375.519942462636
 10
1893.505085240357
 20
1375.685562205333
 10
1893.682107909597
 20
1375.865473411545
 10
1893.80187321845
 20
1376.056013607935
 10
1893.8619430906
 20
1376.253303945577
 10
1893.869085471149
 20
1376.34007273701
  0
LWPOLYLINE
  5
7A9
330
763
100
AcDbEntity
  8
0
  6
Continuous
 62
     7
370
    15
100
AcDbPolyline
 90
       24
 70
   128
 43
0.0
 10
1896.371089551963
 20
1372.372670303038
 10
1896.379080346435
 20
1372.259414877912
 10
1896.440829775168
 20
1372.060728698664
 10
1896.562223178414
 20
1371.867425234372
 10
1896.740789336552
 20
1371.683439586129
 10
1896.972893157545
 20
1371.512517171162
 10
1897.253809676929
 20
1371.35813747694
 10
1897.577820244467
 20
1371.223443228842
 10
1897.938328939372
 20
1371.111176413335
 10
1898.327996844238
 20
1371.023622459032
 10
1898.738891444231
 20
1370.962563711956
 10
1899.162648110216
 20
1370.92924315212
 10
1899.590640378489
 20
1370.924339090033
 10
1900.014155560695
 20
1370.947951358257
 10
1900.424572109041
 20
1370.999599279104
 10
1900.813535126146
 20
1371.078231449845
 10
1901.173126446659
 20
1371.182247146241
 10
1901.496025828269
 20
1371.309528908668
 10
1901.775659970732
 20
1371.457485647496
 10
1902.006336329307
 20
1371.623105390192
 10
1902.183358998548
 20
1371.803016596404
 10
1902.303124307399
 20
1371.993556792794
 10
1902.36319417955
 20
1372.190847130436
 10
1902.370336560099
 20
1372.277615921869
  0
LWPOLYLINE
  5
7AA
330
763
100
AcDbEntity
  8
0
  6
Continuous
 62
     7
370
    15
100
AcDbPolyline
 90
       24
 70
   128
 43
0.0
 10
1904.872340640913
 20
1368.310213487897
 10
1904.880331435385
 20
1368.196958062771
 10
1904.942080864118
 20
1367.998271883523
 10
1905.063474267364
 20
1367.804968419231
 10
1905.242040425502
 20
1367.620982770988
 10
1905.474144246495
 20
1367.450060356021
 10
1905.755060765879
 20
1367.295680661799
 10
1906.079071333417
 20
1367.160986413702
 10
1906.439580028322
 20
1367.048719598195
 10
1906.829247933188
 20
1366.961165643891
 10
1907.240142533181
 20
1366.900106896815
 10
1907.663899199166
 20
1366.866786336979
 10
1908.091891467439
 20
1366.861882274892
 10
1908.515406649645
 20
1366.885494543116
 10
1908.925823197991
 20
1366.937142463963
 10
1909.314786215096
 20
1367.015774634704
 10
1909.674377535608
 20
1367.1197903311
 10
1909.997276917219
 20
1367.247072093527
 10
1910.276911059682
 20
1367.395028832355
 10
1910.507587418257
 20
1367.560648575051
 10
1910.684610087497
 20
1367.740559781263
 10
1910.804375396349
 20
1367.931099977653
 10
1910.864445268499
 20
1368.128390315296
 10
1910.871587649049
 20
1368.215159106729
  0
LWPOLYLINE
  5
7AB
330
763
100
AcDbEntity
  8
0
  6
Continuous
 62
     7
370
    15
100
AcDbPolyline
 90
       24
 70
   128
 43
0.0
 10
1913.373591729864
 20
1364.247756672756
 10
1913.381582524335
 20
1364.13450124763
 10
1913.443331953068
 20
1363.935815068382
 10
1913.564725356314
 20
1363.742511604091
 10
1913.743291514452
 20
1363.558525955847
 10
1913.975395335445
 20
1363.38760354088
 10
1914.256311854829
 20
1363.233223846658
 10
1914.580322422367
 20
1363.098529598561
 10
1914.940831117272
 20
1362.986262783054
 10
1915.330499022138
 20
1362.89870882875
 10
1915.741393622131
 20
1362.837650081674
 10
1916.165150288116
 20
1362.804329521838
 10
1916.593142556389
 20
1362.799425459751
 10
1917.016657738595
 20
1362.823037727975
 10
1917.427074286941
 20
1362.874685648822
 10
1917.816037304045
 20
1362.953317819563
 10
1918.175628624558
 20
1363.057333515959
 10
1918.498528006169
 20
1363.184615278387
 10
1918.778162148632
 20
1363.332572017214
 10
1919.008838507207
 20
1363.49819175991
 10
1919.185861176447
 20
1363.678102966122
 10
1919.305626485299
 20
1363.868643162512
 10
1919.365696357449
 20
1364.065933500155
 10
1919.372838737999
 20
1364.152702291588
  0
LWPOLYLINE
  5
7AC
330
763
100
AcDbEntity
  8
0
  6
Continuous
 62
     7
370
    15
100
AcDbPolyline
 90
       24
 70
   128
 43
0.0
 10
1921.874842818813
 20
1360.185299857615
 10
1921.882833613285
 20
1360.072044432489
 10
1921.944583042018
 20
1359.873358253241
 10
1922.065976445264
 20
1359.68005478895
 10
1922.244542603402
 20
1359.496069140706
 10
1922.476646424394
 20
1359.325146725739
 10
1922.757562943779
 20
1359.170767031517
 10
1923.081573511317
 20
1359.03607278342
 10
1923.442082206222
 20
1358.923805967913
 10
1923.831750111087
 20
1358.836252013609
 10
1924.24264471108
 20
1358.775193266533
 10
1924.666401377066
 20
1358.741872706697
 10
1925.094393645339
 20
1358.73696864461
 10
1925.517908827545
 20
1358.760580912835
 10
1925.92832537589
 20
1358.812228833681
 10
1926.317288392995
 20
1358.890861004422
 10
1926.676879713508
 20
1358.994876700818
 10
1926.999779095119
 20
1359.122158463246
 10
1927.279413237582
 20
1359.270115202073
 10
1927.510089596157
 20
1359.435734944769
 10
1927.687112265397
 20
1359.615646150981
 10
1927.806877574249
 20
1359.806186347371
 10
1927.866947446399
 20
1360.003476685014
 10
1927.874089826949
 20
1360.090245476447
  0
LWPOLYLINE
  5
7AD
330
763
100
AcDbEntity
  8
0
  6
Continuous
 62
     7
370
    15
100
AcDbPolyline
 90
       24
 70
   128
 43
0.0
 10
1938.877344996713
 20
1352.060386227333
 10
1938.885335791184
 20
1351.947130802207
 10
1938.947085219918
 20
1351.748444622959
 10
1939.068478623163
 20
1351.555141158668
 10
1939.247044781302
 20
1351.371155510425
 10
1939.479148602294
 20
1351.200233095458
 10
1939.760065121679
 20
1351.045853401235
 10
1940.084075689216
 20
1350.911159153138
 10
1940.444584384122
 20
1350.798892337631
 10
1940.834252288988
 20
1350.711338383327
 10
1941.24514688898
 20
1350.650279636251
 10
1941.668903554966
 20
1350.616959076415
 10
1942.096895823239
 20
1350.612055014328
 10
1942.520411005444
 20
1350.635667282553
 10
1942.93082755379
 20
1350.6873152034
 10
1943.319790570895
 20
1350.765947374141
 10
1943.679381891408
 20
1350.869963070536
 10
1944.002281273018
 20
1350.997244832964
 10
1944.281915415482
 20
1351.145201571791
 10
1944.512591774056
 20
1351.310821314487
 10
1944.689614443297
 20
1351.490732520699
 10
1944.809379752149
 20
1351.68127271709
 10
1944.869449624299
 20
1351.878563054732
 10
1944.876592004849
 20
1351.965331846165
  0
ARC
  5
7AE
330
763
100
AcDbEntity
  8
0
  6
Continuous
 62
     7
370
    15
100
AcDbCircle
 10
1904.922853173718
 20
1357.346993283654
 30
0.0
 40
13.31629717145079
100
AcDbArc
 50
54.45876641755299
 51
61.38977323450908
  0
LINE
  5
7AF
330
763
100
AcDbEntity
  8
0
  6
Continuous
 62
     7
370
    15
100
AcDbLine
 10
1913.008270180845
 20
1368.017659602391
 30
0.0
 11
1912.663466153488
 21
1368.182429641079
 31
0.0
  0
ARC
  5
7B0
330
763
100
AcDbEntity
  8
0
  6
Continuous
 62
     7
370
    15
100
AcDbCircle
 10
1913.42410426266
 20
1353.284536468501
 30
0.0
 40
13.31629717146579
100
AcDbArc
 50
54.45876641755299
 51
61.38977323450908
  0
LINE
  5
7B1
330
763
100
AcDbEntity
  8
0
  6
Continuous
 62
     7
370
    15
100
AcDbLine
 10
1921.509521269794
 20
1363.955202787251
 30
0.0
 11
1921.164717242438
 21
1364.119972825938
 31
0.0
  0
ARC
  5
7B2
330
763
100
AcDbEntity
  8
0
  6
Continuous
 62
     7
370
    15
100
AcDbCircle
 10
1921.925355351616
 20
1349.22207965337
 30
0.0
 40
13.31629717145329
100
AcDbArc
 50
54.45876641755299
 51
61.38977323450908
  0
LINE
  5
7B3
330
763
100
AcDbEntity
  8
0
  6
Continuous
 62
     7
370
    15
100
AcDbLine
 10
1930.010772358744
 20
1359.892745972109
 30
0.0
 11
1929.665968331388
 21
1360.057516010797
 31
0.0
  0
ARC
  5
7B4
330
763
100
AcDbEntity
  8
0
  6
Continuous
 62
     7
370
    15
100
AcDbCircle
 10
1930.426606440559
 20
1345.159622838217
 30
0.0
 40
13.31629717146794
100
AcDbArc
 50
54.45876641755299
 51
61.38977323450908
  0
LINE
  5
7B5
330
763
100
AcDbEntity
  8
0
  6
Continuous
 62
     7
370
    15
100
AcDbLine
 10
1938.512023447694
 20
1355.830289156968
 30
0.0
 11
1938.167219420338
 21
1355.995059195657
 31
0.0
  0
ARC
  5
7B6
330
763
100
AcDbEntity
  8
0
  6
Continuous
 62
     7
370
    15
100
AcDbCircle
 10
1938.927857529519
 20
1341.097166023093
 30
0.0
 40
13.31629717144845
100
AcDbArc
 50
54.45876641755299
 51
61.38977323450908
  0
LINE
  5
7B7
330
763
100
AcDbEntity
  8
0
  6
Continuous
 62
     7
370
    15
100
AcDbLine
 10
1948.278938208028
 20
1351.163015009215
 30
0.0
 11
1946.668470509288
 21
1351.932602380516
 31
0.0
  0
LINE
  5
7B8
330
763
100
AcDbEntity
  8
0
  6
Continuous
 62
     7
370
    15
100
AcDbLine
 10
1943.551187328034
 20
1349.0033690899
 30
0.0
 11
1948.278938208028
 21
1351.163015009215
 31
0.0
  0
LINE
  5
7B9
330
763
100
AcDbEntity
  8
0
  6
Continuous
 62
     7
370
    15
100
AcDbLine
 10
1941.95514844323
 20
1349.766061425059
 30
0.0
 11
1943.551187328034
 21
1349.0033690899
 31
0.0
  0
ARC
  5
7BA
330
763
100
AcDbEntity
  8
0
  6
Continuous
 62
     7
370
    15
100
AcDbCircle
 10
1947.018861551484
 20
1366.639891671756
 30
0.0
 40
17.61724546111099
100
AcDbArc
 50
235.6210395231084
 51
253.2958836498272
  0
LINE
  5
7BB
330
763
100
AcDbEntity
  8
0
  6
Continuous
 62
     7
370
    15
100
AcDbLine
 10
1933.45389735428
 20
1353.8285182402
 30
0.0
 11
1937.071037678337
 21
1352.100010729125
 31
0.0
  0
ARC
  5
7BC
330
763
100
AcDbEntity
  8
0
  6
Continuous
 62
     7
370
    15
100
AcDbCircle
 10
1938.517610462534
 20
1370.702348486895
 30
0.0
 40
17.61724546110956
100
AcDbArc
 50
235.6210395231084
 51
253.2958836498272
  0
LINE
  5
7BD
330
763
100
AcDbEntity
  8
0
  6
Continuous
 62
     7
370
    15
100
AcDbLine
 10
1924.95264626533
 20
1357.890975055341
 30
0.0
 11
1928.569786589387
 21
1356.162467544266
 31
0.0
  0
ARC
  5
7BE
330
763
100
AcDbEntity
  8
0
  6
Continuous
 62
     7
370
    15
100
AcDbCircle
 10
1930.016359373586
 20
1374.76480530204
 30
0.0
 40
17.61724546111374
100
AcDbArc
 50
235.6210395231084
 51
253.2958836498272
  0
LINE
  5
7BF
330
763
100
AcDbEntity
  8
0
  6
Continuous
 62
     7
370
    15
100
AcDbLine
 10
1916.45139517638
 20
1361.953431870482
 30
0.0
 11
1920.068535500437
 21
1360.224924359407
 31
0.0
  0
ARC
  5
7C0
330
763
100
AcDbEntity
  8
0
  6
Continuous
 62
     7
370
    15
100
AcDbCircle
 10
1921.515108284635
 20
1378.827262117179
 30
0.0
 40
17.61724546111166
100
AcDbArc
 50
235.6210395231084
 51
253.2958836498272
  0
LINE
  5
7C1
330
763
100
AcDbEntity
  8
0
  6
Continuous
 62
     7
370
    15
100
AcDbLine
 10
1907.95014408743
 20
1366.015888685623
 30
0.0
 11
1911.567284411487
 21
1364.287381174547
 31
0.0
  0
ARC
  5
7C2
330
763
100
AcDbEntity
  8
0
  6
Continuous
 62
     7
370
    15
100
AcDbCircle
 10
1913.013857195685
 20
1382.889718932319
 30
0.0
 40
17.61724546111116
100
AcDbArc
 50
235.6210395231084
 51
253.2958836498272
  0
LINE
  5
7C3
330
763
100
AcDbEntity
  8
0
  6
Continuous
 62
     7
370
    15
100
AcDbLine
 10
1899.448892998481
 20
1370.078345500763
 30
0.0
 11
1903.066033322537
 21
1368.349837989689
 31
0.0
  0
ARC
  5
7C4
330
763
100
AcDbEntity
  8
0
  6
Continuous
 62
     7
370
    15
100
AcDbCircle
 10
1904.512606106734
 20
1386.952175747459
 30
0.0
 40
17.61724546110956
100
AcDbArc
 50
235.6210395231084
 51
253.2958836498272
  0
LINE
  5
7C5
330
763
100
AcDbEntity
  8
0
  6
Continuous
 62
     7
370
    15
100
AcDbLine
 10
1890.947641909531
 20
1374.140802315904
 30
0.0
 11
1894.564782233587
 21
1372.412294804829
 31
0.0
  0
ARC
  5
7C6
330
763
100
AcDbEntity
  8
0
  6
Continuous
 62
     7
370
    15
100
AcDbCircle
 10
1896.011355017785
 20
1391.014632562602
 30
0.0
 40
17.61724546111177
100
AcDbArc
 50
235.6210395231084
 51
253.2958836498272
  0
LINE
  5
7C7
330
763
100
AcDbEntity
  8
0
  6
Continuous
 62
     7
370
    15
100
AcDbLine
 10
1884.467492259833
 20
1377.237443955129
 30
0.0
 11
1886.063531144637
 21
1376.47475161997
 31
0.0
  0
LINE
  5
7C8
330
763
100
AcDbEntity
  8
0
  6
Continuous
 62
     7
370
    15
100
AcDbLine
 10
1887.479296008346
 20
1378.613241843037
 30
0.0
 11
1884.467492259833
 21
1377.237443955129
 31
0.0
  0
ARC
  5
7C9
330
763
100
AcDbEntity
  8
0
  6
Continuous
 62
     7
370
    15
100
AcDbCircle
 10
1887.92035099582
 20
1365.47190691394
 30
0.0
 40
13.31629717144631
100
AcDbArc
 50
54.45876641755299
 51
61.38977323450908
  0
LINE
  5
7CA
330
763
100
AcDbEntity
  8
0
  6
Continuous
 62
     7
370
    15
100
AcDbLine
 10
1896.005768002945
 20
1376.142573232673
 30
0.0
 11
1895.660963975588
 21
1376.307343271361
 31
0.0
  0
ARC
  5
7CB
330
763
100
AcDbEntity
  8
0
  6
Continuous
 62
     7
370
    15
100
AcDbCircle
 10
1896.421602084774
 20
1361.409450098804
 30
0.0
 40
13.31629717143999
100
AcDbArc
 50
54.45876641754542
 51
61.38977323450908
  0
LINE
  5
7CC
330
763
100
AcDbEntity
  8
0
  6
Continuous
 62
     7
370
    15
100
AcDbLine
 10
1904.507019091895
 20
1372.080116417532
 30
0.0
 11
1904.162215064538
 21
1372.24488645622
 31
0.0
  0
LWPOLYLINE
  5
7CD
330
763
100
AcDbEntity
  8
0
  6
Continuous
 62
     7
370
    15
100
AcDbPolyline
 90
       24
 70
   128
 43
0.0
 10
1930.376093907763
 20
1356.122843042474
 10
1930.384084702234
 20
1356.009587617348
 10
1930.445834130968
 20
1355.8109014381
 10
1930.567227534213
 20
1355.617597973809
 10
1930.745793692351
 20
1355.433612325566
 10
1930.977897513344
 20
1355.262689910598
 10
1931.258814032729
 20
1355.108310216376
 10
1931.582824600267
 20
1354.973615968279
 10
1931.943333295172
 20
1354.861349152772
 10
1932.333001200038
 20
1354.773795198468
 10
1932.74389580003
 20
1354.712736451392
 10
1933.167652466016
 20
1354.679415891556
 10
1933.595644734289
 20
1354.674511829469
 10
1934.019159916495
 20
1354.698124097694
 10
1934.42957646484
 20
1354.74977201854
 10
1934.818539481945
 20
1354.828404189281
 10
1935.178130802458
 20
1354.932419885677
 10
1935.501030184068
 20
1355.059701648105
 10
1935.780664326532
 20
1355.207658386932
 10
1936.011340685107
 20
1355.373278129628
 10
1936.188363354347
 20
1355.55318933584
 10
1936.308128663199
 20
1355.74372953223
 10
1936.368198535349
 20
1355.941019869873
 10
1936.375340915899
 20
1356.027788661306
  0
LINE
  5
7CE
330
763
100
AcDbEntity
  8
0
  6
Continuous
 62
     7
370
    15
100
AcDbLine
 10
1943.49656096745
 20
1345.555689706022
 30
0.0
 11
1941.900522082646
 21
1346.31838204118
 31
0.0
  0
LINE
  5
7CF
330
763
100
AcDbEntity
  8
0
  6
Continuous
 62
     7
370
    15
100
AcDbLine
 10
1941.900522082646
 20
1346.31838204118
 30
0.0
 11
1941.95514844323
 21
1349.766061425059
 31
0.0
  0
LINE
  5
7D0
330
763
100
AcDbEntity
  8
0
  6
Continuous
 62
     7
370
    15
100
AcDbLine
 10
1943.551187328034
 20
1349.0033690899
 30
0.0
 11
1943.49656096745
 21
1345.555689706022
 31
0.0
  0
LINE
  5
7D1
330
763
100
AcDbEntity
  8
0
  6
Continuous
 62
     7
370
    15
100
AcDbLine
 10
1948.278938208028
 20
1351.163015009215
 30
0.0
 11
1948.224311847444
 21
1347.715335625336
 31
0.0
  0
LINE
  5
7D2
330
763
100
AcDbEntity
  8
0
  6
Continuous
 62
     7
370
    15
100
AcDbLine
 10
1948.224311847444
 20
1347.715335625336
 30
0.0
 11
1943.49656096745
 21
1345.555689706022
 31
0.0
  0
ARC
  5
7D3
330
763
100
AcDbEntity
  8
0
  6
Continuous
 62
     7
370
    15
100
AcDbCircle
 10
1946.9642351909
 20
1363.192212287878
 30
0.0
 40
17.61724546111228
100
AcDbArc
 50
235.6210395231084
 51
253.2958836498272
  0
LINE
  5
7D4
330
763
100
AcDbEntity
  8
0
  6
Continuous
 62
     7
370
    15
100
AcDbLine
 10
1937.071037678337
 20
1352.100010729125
 30
0.0
 11
1937.016411317753
 21
1348.652331345246
 31
0.0
  0
LWPOLYLINE
  5
7D5
330
763
100
AcDbEntity
  8
0
  6
Continuous
 62
     7
370
    15
100
AcDbPolyline
 90
       24
 70
   128
 43
0.0
 10
1938.627750902571
 20
1339.086167228873
 10
1938.635741697043
 20
1338.972911803747
 10
1938.697491125775
 20
1338.774225624499
 10
1938.818884529021
 20
1338.580922160207
 10
1938.997450687159
 20
1338.396936511964
 10
1939.229554508152
 20
1338.226014096997
 10
1939.510471027536
 20
1338.071634402775
 10
1939.834481595074
 20
1337.936940154678
 10
1940.194990289979
 20
1337.82467333917
 10
1940.584658194845
 20
1337.737119384867
 10
1940.995552794838
 20
1337.676060637791
 10
1941.419309460824
 20
1337.642740077955
 10
1941.847301729097
 20
1337.637836015868
 10
1942.270816911302
 20
1337.661448284092
 10
1942.681233459648
 20
1337.713096204939
 10
1943.070196476753
 20
1337.79172837568
 10
1943.429787797265
 20
1337.895744072076
 10
1943.752687178876
 20
1338.023025834504
 10
1944.03232132134
 20
1338.170982573331
 10
1944.262997679914
 20
1338.336602316027
 10
1944.440020349155
 20
1338.516513522239
 10
1944.559785658007
 20
1338.707053718629
 10
1944.619855530157
 20
1338.904344056272
 10
1944.626997910706
 20
1338.991112847705
  0
LINE
  5
7D6
330
763
100
AcDbEntity
  8
0
  6
Continuous
 62
     7
370
    15
100
AcDbLine
 10
1933.399270993696
 20
1350.380838856321
 30
0.0
 11
1933.45389735428
 21
1353.8285182402
 31
0.0
  0
LINE
  5
7D7
330
763
100
AcDbEntity
  8
0
  6
Continuous
 62
     7
370
    15
100
AcDbLine
 10
1937.016411317753
 20
1348.652331345246
 30
0.0
 11
1933.399270993696
 21
1350.380838856321
 31
0.0
  0
LWPOLYLINE
  5
7D8
330
763
100
AcDbEntity
  8
0
  6
Continuous
 62
     7
370
    15
100
AcDbPolyline
 90
       41
 70
   128
 43
0.0
 10
1935.217343031417
 20
1360.806762369268
 10
1934.922551742344
 20
1360.692277850944
 10
1934.591845083646
 20
1360.601243750085
 10
1934.233366150813
 20
1360.535901628377
 10
1933.855941884894
 20
1360.497860425715
 10
1933.468865723916
 20
1360.488056842761
 10
1933.081668767593
 20
1360.506732276262
 10
1932.703885090025
 20
1360.553426875066
 10
1932.344816979144
 20
1360.62699086318
 10
1932.013305883519
 20
1360.725612851072
 10
1931.717514706547
 20
1360.846864438092
 10
1931.46472680868
 20
1360.987760007756
 10
1931.261166666917
 20
1361.144830243534
 10
1931.111846607526
 20
1361.314207554936
 10
1931.020443385935
 20
1361.491721310422
 10
1930.989207652809
 20
1361.673000532199
 10
1931.018908535564
 20
1361.853581524195
 10
1931.108814699893
 20
1362.029017783074
 10
1931.256712357649
 20
1362.194989485902
 10
1931.458959777655
 20
1362.347409858527
 10
1931.71057695721
 20
1362.48252580552
 10
1932.005368246283
 20
1362.597010323844
 10
1932.336074904981
 20
1362.688044424704
 10
1932.694553837814
 20
1362.753386546412
 10
1933.071978103733
 20
1362.791427749073
 10
1933.459054264712
 20
1362.801231332028
 10
1933.846251221034
 20
1362.782555898526
 10
1934.224034898602
 20
1362.735861299722
 10
1934.583103009483
 20
1362.662297311608
 10
1934.914614105108
 20
1362.563675323716
 10
1935.21040528208
 20
1362.442423736696
 10
1935.463193179948
 20
1362.301528167032
 10
1935.666753321711
 20
1362.144457931254
 10
1935.816073381101
 20
1361.975080619852
 10
1935.907476602692
 20
1361.797566864366
 10
1935.938712335818
 20
1361.616287642589
 10
1935.909011453064
 20
1361.435706650593
 10
1935.819105288735
 20
1361.260270391714
 10
1935.671207630978
 20
1361.094298688886
 10
1935.468960210971
 20
1360.941878316262
 10
1935.217343031417
 20
1360.806762369268
  0
LWPOLYLINE
  5
7D9
330
763
100
AcDbEntity
  8
0
  6
Continuous
 62
     7
370
    15
100
AcDbPolyline
 90
       48
 70
   128
 43
0.0
 10
1931.037561246009
 20
1362.804136970041
 10
1931.381338468018
 20
1362.940939926621
 10
1931.762280120501
 20
1363.054610453241
 10
1932.173588290647
 20
1363.143120096658
 10
1932.607923174413
 20
1363.204889400191
 10
1933.057534055511
 20
1363.238816089154
 10
1933.514397617115
 20
1363.244294740978
 10
1933.970361118145
 20
1363.221227588994
 10
1934.417287879124
 20
1363.170026267072
 10
1934.847202481413
 20
1363.091604464018
 10
1935.252433088751
 20
1362.987361618763
 10
1935.625748351348
 20
1362.859157947351
 10
1935.9604864495
 20
1362.709281247336
 10
1936.250673973917
 20
1362.54040607198
 10
1936.491132521348
 20
1362.355546002787
 10
1936.677571103319
 20
1362.157999872073
 10
1936.806662718919
 20
1361.951292895219
 10
1936.876103725208
 20
1361.739113763126
 10
1936.884654945783
 20
1361.52524881743
 10
1936.832163783913
 20
1361.313514483155
 10
1936.719566945622
 20
1361.107689164513
 10
1936.548873724158
 20
1360.911445819189
 10
1936.323130144103
 20
1360.728286414332
 10
1936.046364604989
 20
1360.561479433859
 10
1935.72351599442
 20
1360.414001552289
 10
1935.360345553499
 20
1360.288484515912
 10
1934.963334067347
 20
1360.187168179217
 10
1934.539566215342
 20
1360.11186053463
 10
1934.096604144841
 20
1360.063905448855
 10
1933.642352524486
 20
1360.044158681533
 10
1933.184917485205
 20
1360.052972614195
 10
1932.732461966109
 20
1360.090189962003
 10
1932.293060046655
 20
1360.155146580505
 10
1931.874552864507
 20
1360.246683317303
 10
1931.484408690244
 20
1360.363166697162
 10
1931.129589655898
 20
1360.502518071408
 10
1930.816427515544
 20
1360.662250711467
 10
1930.550510654994
 20
1360.839514184592
 10
1930.336584366926
 20
1361.031145219907
 10
1930.178466171017
 20
1361.233724157046
 10
1930.07897769022
 20
1361.443635970077
 10
1930.039894298831
 20
1361.657134777723
 10
1930.061913440896
 20
1361.870410688704
 10
1930.144642184302
 20
1362.079657789336
 10
1930.286604232664
 20
1362.281142060151
 10
1930.485266269865
 20
1362.471268009563
 10
1930.737083167146
 20
1362.646642835501
 10
1931.037561246009
 20
1362.804136970041
  0
ARC
  5
7DA
330
763
100
AcDbEntity
  8
0
  6
Continuous
 62
     7
370
    15
100
AcDbCircle
 10
1935.416089944184
 20
1357.254149892766
 30
0.0
 40
1.423672774895365
100
AcDbArc
 50
286.3778425017386
 51
349.449729097587
  0
LINE
  5
7DB
330
763
100
AcDbEntity
  8
0
  6
Continuous
 62
     7
370
    15
100
AcDbLine
 10
1928.569786589387
 20
1356.162467544266
 30
0.0
 11
1928.515160228803
 21
1352.714788160387
 31
0.0
  0
ARC
  5
7DC
330
763
100
AcDbEntity
  8
0
  6
Continuous
 62
     7
370
    15
100
AcDbCircle
 10
1938.46298410195
 20
1367.254669103018
 30
0.0
 40
17.61724546111112
100
AcDbArc
 50
235.6210395231084
 51
253.2958836498272
  0
ARC
  5
7DD
330
763
100
AcDbEntity
  8
0
  6
Continuous
 62
     7
370
    15
100
AcDbCircle
 10
1941.648110192311
 20
1342.335046684411
 30
0.0
 40
4.810866553441297
100
AcDbArc
 50
245.4439734266291
 51
299.1351593677979
  0
LWPOLYLINE
  5
7DE
330
763
100
AcDbEntity
  8
0
  6
Continuous
 62
     7
370
    15
100
AcDbPolyline
 90
        3
 70
   128
 43
0.0
 10
1939.236855897602
 20
1338.208198387754
 10
1939.38103353707
 20
1338.106931702296
 10
1939.648796567628
 20
1337.959297374272
  0
LWPOLYLINE
  5
7DF
330
763
100
AcDbEntity
  8
0
  6
Continuous
 62
     7
370
    15
100
AcDbPolyline
 90
       24
 70
   128
 43
0.0
 10
1930.126499813621
 20
1343.148624044014
 10
1930.134490608093
 20
1343.035368618888
 10
1930.196240036826
 20
1342.83668243964
 10
1930.317633440071
 20
1342.643378975348
 10
1930.496199598209
 20
1342.459393327105
 10
1930.728303419202
 20
1342.288470912138
 10
1931.009219938587
 20
1342.134091217916
 10
1931.333230506124
 20
1341.999396969818
 10
1931.69373920103
 20
1341.887130154312
 10
1932.083407105895
 20
1341.799576200008
 10
1932.494301705888
 20
1341.738517452932
 10
1932.918058371874
 20
1341.705196893096
 10
1933.346050640147
 20
1341.700292831009
 10
1933.769565822352
 20
1341.723905099233
 10
1934.179982370698
 20
1341.77555302008
 10
1934.568945387803
 20
1341.854185190821
 10
1934.928536708316
 20
1341.958200887217
 10
1935.251436089926
 20
1342.085482649644
 10
1935.53107023239
 20
1342.233439388472
 10
1935.761746590964
 20
1342.399059131168
 10
1935.938769260205
 20
1342.57897033738
 10
1936.058534569057
 20
1342.76951053377
 10
1936.118604441207
 20
1342.966800871413
 10
1936.125746821756
 20
1343.053569662845
  0
LINE
  5
7E0
330
763
100
AcDbEntity
  8
0
  6
Continuous
 62
     7
370
    15
100
AcDbLine
 10
1924.898019904746
 20
1354.443295671462
 30
0.0
 11
1924.95264626533
 21
1357.890975055341
 31
0.0
  0
LINE
  5
7E1
330
763
100
AcDbEntity
  8
0
  6
Continuous
 62
     7
370
    15
100
AcDbLine
 10
1928.515160228803
 20
1352.714788160387
 30
0.0
 11
1924.898019904746
 21
1354.443295671462
 31
0.0
  0
LWPOLYLINE
  5
7E2
330
763
100
AcDbEntity
  8
0
  6
Continuous
 62
     7
370
    15
100
AcDbPolyline
 90
       41
 70
   128
 43
0.0
 10
1926.716091942467
 20
1364.869219184409
 10
1926.421300653394
 20
1364.754734666085
 10
1926.090593994696
 20
1364.663700565225
 10
1925.732115061863
 20
1364.598358443517
 10
1925.354690795944
 20
1364.560317240856
 10
1924.967614634966
 20
1364.550513657901
 10
1924.580417678643
 20
1364.569189091403
 10
1924.202634001075
 20
1364.615883690207
 10
1923.843565890194
 20
1364.689447678321
 10
1923.512054794569
 20
1364.788069666213
 10
1923.216263617597
 20
1364.909321253233
 10
1922.963475719729
 20
1365.050216822897
 10
1922.759915577967
 20
1365.207287058676
 10
1922.610595518576
 20
1365.376664370077
 10
1922.519192296985
 20
1365.554178125563
 10
1922.48795656386
 20
1365.73545734734
 10
1922.517657446614
 20
1365.916038339336
 10
1922.607563610943
 20
1366.091474598215
 10
1922.755461268699
 20
1366.257446301043
 10
1922.957708688706
 20
1366.409866673668
 10
1923.209325868261
 20
1366.544982620661
 10
1923.504117157333
 20
1366.659467138985
 10
1923.834823816031
 20
1366.750501239845
 10
1924.193302748864
 20
1366.815843361553
 10
1924.570727014783
 20
1366.853884564214
 10
1924.957803175762
 20
1366.863688147168
 10
1925.345000132084
 20
1366.845012713667
 10
1925.722783809652
 20
1366.798318114863
 10
1926.081851920533
 20
1366.724754126749
 10
1926.413363016158
 20
1366.626132138857
 10
1926.70915419313
 20
1366.504880551837
 10
1926.961942090998
 20
1366.363984982173
 10
1927.165502232761
 20
1366.206914746395
 10
1927.314822292151
 20
1366.037537434993
 10
1927.406225513742
 20
1365.860023679507
 10
1927.437461246868
 20
1365.67874445773
 10
1927.407760364114
 20
1365.498163465734
 10
1927.317854199785
 20
1365.322727206855
 10
1927.169956542028
 20
1365.156755504027
 10
1926.967709122022
 20
1365.004335131402
 10
1926.716091942467
 20
1364.869219184409
  0
LWPOLYLINE
  5
7E3
330
763
100
AcDbEntity
  8
0
  6
Continuous
 62
     7
370
    15
100
AcDbPolyline
 90
       48
 70
   128
 43
0.0
 10
1922.536310157059
 20
1366.866593785182
 10
1922.880087379068
 20
1367.003396741762
 10
1923.261029031552
 20
1367.117067268381
 10
1923.672337201697
 20
1367.205576911799
 10
1924.106672085463
 20
1367.267346215332
 10
1924.556282966561
 20
1367.301272904295
 10
1925.013146528165
 20
1367.306751556119
 10
1925.469110029195
 20
1367.283684404134
 10
1925.916036790174
 20
1367.232483082213
 10
1926.345951392464
 20
1367.154061279159
 10
1926.751181999801
 20
1367.049818433904
 10
1927.124497262398
 20
1366.921614762492
 10
1927.459235360551
 20
1366.771738062477
 10
1927.749422884967
 20
1366.60286288712
 10
1927.989881432398
 20
1366.418002817928
 10
1928.17632001437
 20
1366.220456687214
 10
1928.305411629969
 20
1366.01374971036
 10
1928.374852636258
 20
1365.801570578266
 10
1928.383403856834
 20
1365.587705632571
 10
1928.330912694962
 20
1365.375971298296
 10
1928.218315856672
 20
1365.170145979653
 10
1928.047622635208
 20
1364.97390263433
 10
1927.821879055153
 20
1364.790743229473
 10
1927.545113516039
 20
1364.623936249
 10
1927.22226490547
 20
1364.47645836743
 10
1926.859094464549
 20
1364.350941331053
 10
1926.462082978398
 20
1364.249624994357
 10
1926.038315126392
 20
1364.174317349771
 10
1925.595353055891
 20
1364.126362263996
 10
1925.141101435537
 20
1364.106615496674
 10
1924.683666396255
 20
1364.115429429336
 10
1924.231210877158
 20
1364.152646777144
 10
1923.791808957705
 20
1364.217603395645
 10
1923.373301775557
 20
1364.309140132444
 10
1922.983157601294
 20
1364.425623512303
 10
1922.628338566948
 20
1364.564974886549
 10
1922.315176426594
 20
1364.724707526608
 10
1922.049259566044
 20
1364.901970999733
 10
1921.835333277976
 20
1365.093602035048
 10
1921.677215082067
 20
1365.296180972187
 10
1921.57772660127
 20
1365.506092785217
 10
1921.538643209881
 20
1365.719591592864
 10
1921.560662351946
 20
1365.932867503845
 10
1921.643391095352
 20
1366.142114604477
 10
1921.785353143714
 20
1366.343598875292
 10
1921.984015180916
 20
1366.533724824704
 10
1922.235832078197
 20
1366.709099650642
 10
1922.536310157059
 20
1366.866593785182
  0
ARC
  5
7E4
330
763
100
AcDbEntity
  8
0
  6
Continuous
 62
     7
370
    15
100
AcDbCircle
 10
1926.914838855234
 20
1361.316606707907
 30
0.0
 40
1.423672774895171
100
AcDbArc
 50
286.3778425017386
 51
349.449729097587
  0
LINE
  5
7E5
330
763
100
AcDbEntity
  8
0
  6
Continuous
 62
     7
370
    15
100
AcDbLine
 10
1920.068535500437
 20
1360.224924359407
 30
0.0
 11
1920.013909139853
 21
1356.777244975528
 31
0.0
  0
ARC
  5
7E6
330
763
100
AcDbEntity
  8
0
  6
Continuous
 62
     7
370
    15
100
AcDbCircle
 10
1929.961733013
 20
1371.317125918158
 30
0.0
 40
17.61724546111047
100
AcDbArc
 50
235.6210395231084
 51
253.2958836498272
  0
ARC
  5
7E7
330
763
100
AcDbEntity
  8
0
  6
Continuous
 62
     7
370
    15
100
AcDbCircle
 10
1933.146859103361
 20
1346.397503499552
 30
0.0
 40
4.810866553440896
100
AcDbArc
 50
245.4439734266119
 51
299.1351593677979
  0
LWPOLYLINE
  5
7E8
330
763
100
AcDbEntity
  8
0
  6
Continuous
 62
     7
370
    15
100
AcDbPolyline
 90
        3
 70
   128
 43
0.0
 10
1930.735604808652
 20
1342.270655202894
 10
1930.879782448121
 20
1342.169388517437
 10
1931.147545478678
 20
1342.021754189414
  0
LWPOLYLINE
  5
7E9
330
763
100
AcDbEntity
  8
0
  6
Continuous
 62
     7
370
    15
100
AcDbPolyline
 90
       24
 70
   128
 43
0.0
 10
1921.625248724671
 20
1347.211080859155
 10
1921.633239519142
 20
1347.097825434029
 10
1921.694988947875
 20
1346.899139254781
 10
1921.816382351121
 20
1346.705835790489
 10
1921.994948509259
 20
1346.521850142246
 10
1922.227052330252
 20
1346.350927727279
 10
1922.507968849637
 20
1346.196548033057
 10
1922.831979417174
 20
1346.06185378496
 10
1923.19248811208
 20
1345.949586969452
 10
1923.582156016945
 20
1345.862033015148
 10
1923.993050616938
 20
1345.800974268073
 10
1924.416807282924
 20
1345.767653708237
 10
1924.844799551197
 20
1345.76274964615
 10
1925.268314733402
 20
1345.786361914374
 10
1925.678731281748
 20
1345.838009835221
 10
1926.067694298853
 20
1345.916642005962
 10
1926.427285619366
 20
1346.020657702358
 10
1926.750185000976
 20
1346.147939464785
 10
1927.02981914344
 20
1346.295896203613
 10
1927.260495502014
 20
1346.461515946309
 10
1927.437518171255
 20
1346.641427152521
 10
1927.557283480107
 20
1346.831967348911
 10
1927.617353352257
 20
1347.029257686553
 10
1927.624495732806
 20
1347.116026477986
  0
LINE
  5
7EA
330
763
100
AcDbEntity
  8
0
  6
Continuous
 62
     7
370
    15
100
AcDbLine
 10
1916.396768815796
 20
1358.505752486603
 30
0.0
 11
1916.45139517638
 21
1361.953431870482
 31
0.0
  0
LINE
  5
7EB
330
763
100
AcDbEntity
  8
0
  6
Continuous
 62
     7
370
    15
100
AcDbLine
 10
1920.013909139853
 20
1356.777244975528
 30
0.0
 11
1916.396768815796
 21
1358.505752486603
 31
0.0
  0
LWPOLYLINE
  5
7EC
330
763
100
AcDbEntity
  8
0
  6
Continuous
 62
     7
370
    15
100
AcDbPolyline
 90
       41
 70
   128
 43
0.0
 10
1918.214840853517
 20
1368.93167599955
 10
1917.920049564444
 20
1368.817191481226
 10
1917.589342905746
 20
1368.726157380366
 10
1917.230863972913
 20
1368.660815258659
 10
1916.853439706994
 20
1368.622774055997
 10
1916.466363546016
 20
1368.612970473042
 10
1916.079166589694
 20
1368.631645906544
 10
1915.701382912125
 20
1368.678340505348
 10
1915.342314801244
 20
1368.751904493462
 10
1915.010803705619
 20
1368.850526481354
 10
1914.715012528647
 20
1368.971778068374
 10
1914.46222463078
 20
1369.112673638038
 10
1914.258664489017
 20
1369.269743873816
 10
1914.109344429627
 20
1369.439121185218
 10
1914.017941208036
 20
1369.616634940704
 10
1913.98670547491
 20
1369.797914162481
 10
1914.016406357664
 20
1369.978495154477
 10
1914.106312521993
 20
1370.153931413356
 10
1914.254210179749
 20
1370.319903116184
 10
1914.456457599756
 20
1370.472323488808
 10
1914.70807477931
 20
1370.607439435802
 10
1915.002866068384
 20
1370.721923954126
 10
1915.333572727081
 20
1370.812958054985
 10
1915.692051659915
 20
1370.878300176693
 10
1916.069475925834
 20
1370.916341379355
 10
1916.456552086812
 20
1370.926144962309
 10
1916.843749043134
 20
1370.907469528808
 10
1917.221532720702
 20
1370.860774930004
 10
1917.580600831583
 20
1370.787210941889
 10
1917.912111927208
 20
1370.688588953998
 10
1918.20790310418
 20
1370.567337366978
 10
1918.460691002048
 20
1370.426441797314
 10
1918.664251143811
 20
1370.269371561535
 10
1918.813571203201
 20
1370.099994250134
 10
1918.904974424792
 20
1369.922480494648
 10
1918.936210157918
 20
1369.741201272871
 10
1918.906509275164
 20
1369.560620280874
 10
1918.816603110835
 20
1369.385184021996
 10
1918.668705453078
 20
1369.219212319168
 10
1918.466458033072
 20
1369.066791946543
 10
1918.214840853517
 20
1368.93167599955
  0
LWPOLYLINE
  5
7ED
330
763
100
AcDbEntity
  8
0
  6
Continuous
 62
     7
370
    15
100
AcDbPolyline
 90
       48
 70
   128
 43
0.0
 10
1914.035059068109
 20
1370.929050600323
 10
1914.378836290118
 20
1371.065853556903
 10
1914.759777942601
 20
1371.179524083522
 10
1915.171086112746
 20
1371.26803372694
 10
1915.605420996513
 20
1371.329803030473
 10
1916.055031877611
 20
1371.363729719436
 10
1916.511895439215
 20
1371.36920837126
 10
1916.967858940245
 20
1371.346141219275
 10
1917.414785701224
 20
1371.294939897354
 10
1917.844700303513
 20
1371.216518094299
 10
1918.249930910851
 20
1371.112275249044
 10
1918.623246173449
 20
1370.984071577633
 10
1918.957984271601
 20
1370.834194877618
 10
1919.248171796017
 20
1370.665319702262
 10
1919.488630343449
 20
1370.480459633069
 10
1919.67506892542
 20
1370.282913502355
 10
1919.804160541019
 20
1370.076206525501
 10
1919.873601547308
 20
1369.864027393407
 10
1919.882152767884
 20
1369.650162447712
 10
1919.829661606012
 20
1369.438428113437
 10
1919.717064767722
 20
1369.232602794794
 10
1919.546371546259
 20
1369.036359449471
 10
1919.320627966203
 20
1368.853200044614
 10
1919.043862427089
 20
1368.686393064141
 10
1918.72101381652
 20
1368.538915182571
 10
1918.357843375599
 20
1368.413398146194
 10
1917.960831889448
 20
1368.312081809498
 10
1917.537064037443
 20
1368.236774164912
 10
1917.094101966942
 20
1368.188819079137
 10
1916.639850346587
 20
1368.169072311815
 10
1916.182415307305
 20
1368.177886244477
 10
1915.729959788208
 20
1368.215103592285
 10
1915.290557868755
 20
1368.280060210786
 10
1914.872050686607
 20
1368.371596947585
 10
1914.481906512344
 20
1368.488080327443
 10
1914.127087477998
 20
1368.62743170169
 10
1913.813925337644
 20
1368.787164341749
 10
1913.548008477095
 20
1368.964427814874
 10
1913.334082189026
 20
1369.156058850189
 10
1913.175963993117
 20
1369.358637787328
 10
1913.07647551232
 20
1369.568549600358
 10
1913.037392120931
 20
1369.782048408004
 10
1913.059411262996
 20
1369.995324318985
 10
1913.142140006402
 20
1370.204571419618
 10
1913.284102054764
 20
1370.406055690433
 10
1913.482764091966
 20
1370.596181639845
 10
1913.734580989247
 20
1370.771556465783
 10
1914.035059068109
 20
1370.929050600323
  0
ARC
  5
7EE
330
763
100
AcDbEntity
  8
0
  6
Continuous
 62
     7
370
    15
100
AcDbCircle
 10
1918.413587766284
 20
1365.379063523048
 30
0.0
 40
1.423672774895505
100
AcDbArc
 50
286.377842501751
 51
349.4497290975742
  0
LINE
  5
7EF
330
763
100
AcDbEntity
  8
0
  6
Continuous
 62
     7
370
    15
100
AcDbLine
 10
1911.567284411487
 20
1364.287381174547
 30
0.0
 11
1911.512658050902
 21
1360.839701790669
 31
0.0
  0
ARC
  5
7F0
330
763
100
AcDbEntity
  8
0
  6
Continuous
 62
     7
370
    15
100
AcDbCircle
 10
1921.460481924051
 20
1375.379582733301
 30
0.0
 40
17.61724546111248
100
AcDbArc
 50
235.6210395231084
 51
253.2958836498272
  0
ARC
  5
7F1
330
763
100
AcDbEntity
  8
0
  6
Continuous
 62
     7
370
    15
100
AcDbCircle
 10
1924.645608014411
 20
1350.459960314693
 30
0.0
 40
4.810866553441038
100
AcDbArc
 50
245.4439734266237
 51
299.1351593677979
  0
LWPOLYLINE
  5
7F2
330
763
100
AcDbEntity
  8
0
  6
Continuous
 62
     7
370
    15
100
AcDbPolyline
 90
        3
 70
   128
 43
0.0
 10
1922.234353719702
 20
1346.333112018035
 10
1922.378531359171
 20
1346.231845332578
 10
1922.646294389728
 20
1346.084211004554
  0
LWPOLYLINE
  5
7F3
330
763
100
AcDbEntity
  8
0
  6
Continuous
 62
     7
370
    15
100
AcDbPolyline
 90
       24
 70
   128
 43
0.0
 10
1913.123997635721
 20
1351.273537674296
 10
1913.131988430192
 20
1351.16028224917
 10
1913.193737858925
 20
1350.961596069922
 10
1913.315131262171
 20
1350.76829260563
 10
1913.49369742031
 20
1350.584306957387
 10
1913.725801241302
 20
1350.41338454242
 10
1914.006717760687
 20
1350.259004848197
 10
1914.330728328225
 20
1350.1243106001
 10
1914.69123702313
 20
1350.012043784593
 10
1915.080904927996
 20
1349.92448983029
 10
1915.491799527988
 20
1349.863431083214
 10
1915.915556193974
 20
1349.830110523378
 10
1916.343548462247
 20
1349.825206461291
 10
1916.767063644453
 20
1349.848818729515
 10
1917.177480192798
 20
1349.900466650362
 10
1917.566443209903
 20
1349.979098821103
 10
1917.926034530416
 20
1350.083114517498
 10
1918.248933912026
 20
1350.210396279926
 10
1918.52856805449
 20
1350.358353018753
 10
1918.759244413065
 20
1350.52397276145
 10
1918.936267082305
 20
1350.703883967662
 10
1919.056032391157
 20
1350.894424164052
 10
1919.116102263307
 20
1351.091714501694
 10
1919.123244643856
 20
1351.178483293127
  0
LINE
  5
7F4
330
763
100
AcDbEntity
  8
0
  6
Continuous
 62
     7
370
    15
100
AcDbLine
 10
1907.895517726846
 20
1362.568209301744
 30
0.0
 11
1907.95014408743
 21
1366.015888685623
 31
0.0
  0
LINE
  5
7F5
330
763
100
AcDbEntity
  8
0
  6
Continuous
 62
     7
370
    15
100
AcDbLine
 10
1911.512658050902
 20
1360.839701790669
 30
0.0
 11
1907.895517726846
 21
1362.568209301744
 31
0.0
  0
LWPOLYLINE
  5
7F6
330
763
100
AcDbEntity
  8
0
  6
Continuous
 62
     7
370
    15
100
AcDbPolyline
 90
       41
 70
   128
 43
0.0
 10
1909.713589764567
 20
1372.994132814691
 10
1909.418798475494
 20
1372.879648296367
 10
1909.088091816796
 20
1372.788614195507
 10
1908.729612883963
 20
1372.723272073799
 10
1908.352188618044
 20
1372.685230871138
 10
1907.965112457066
 20
1372.675427288183
 10
1907.577915500744
 20
1372.694102721685
 10
1907.200131823175
 20
1372.740797320489
 10
1906.841063712294
 20
1372.814361308603
 10
1906.50955261667
 20
1372.912983296495
 10
1906.213761439697
 20
1373.034234883515
 10
1905.96097354183
 20
1373.175130453179
 10
1905.757413400067
 20
1373.332200688957
 10
1905.608093340677
 20
1373.501578000358
 10
1905.516690119086
 20
1373.679091755845
 10
1905.48545438596
 20
1373.860370977622
 10
1905.515155268714
 20
1374.040951969618
 10
1905.605061433043
 20
1374.216388228497
 10
1905.7529590908
 20
1374.382359931324
 10
1905.955206510806
 20
1374.534780303949
 10
1906.206823690361
 20
1374.669896250943
 10
1906.501614979434
 20
1374.784380769267
 10
1906.832321638131
 20
1374.875414870126
 10
1907.190800570965
 20
1374.940756991834
 10
1907.568224836884
 20
1374.978798194496
 10
1907.955300997862
 20
1374.98860177745
 10
1908.342497954184
 20
1374.969926343949
 10
1908.720281631752
 20
1374.923231745144
 10
1909.079349742633
 20
1374.84966775703
 10
1909.410860838258
 20
1374.751045769139
 10
1909.706652015231
 20
1374.629794182119
 10
1909.959439913098
 20
1374.488898612455
 10
1910.163000054861
 20
1374.331828376676
 10
1910.312320114251
 20
1374.162451065275
 10
1910.403723335842
 20
1373.984937309789
 10
1910.434959068968
 20
1373.803658088012
 10
1910.405258186214
 20
1373.623077096015
 10
1910.315352021885
 20
1373.447640837137
 10
1910.167454364128
 20
1373.281669134309
 10
1909.965206944122
 20
1373.129248761684
 10
1909.713589764567
 20
1372.994132814691
  0
LWPOLYLINE
  5
7F7
330
763
100
AcDbEntity
  8
0
  6
Continuous
 62
     7
370
    15
100
AcDbPolyline
 90
       48
 70
   128
 43
0.0
 10
1905.533807979159
 20
1374.991507415464
 10
1905.877585201168
 20
1375.128310372044
 10
1906.258526853651
 20
1375.241980898663
 10
1906.669835023796
 20
1375.330490542081
 10
1907.104169907563
 20
1375.392259845614
 10
1907.553780788661
 20
1375.426186534577
 10
1908.010644350265
 20
1375.431665186401
 10
1908.466607851296
 20
1375.408598034416
 10
1908.913534612274
 20
1375.357396712495
 10
1909.343449214564
 20
1375.27897490944
 10
1909.748679821901
 20
1375.174732064186
 10
1910.121995084499
 20
1375.046528392774
 10
1910.456733182651
 20
1374.896651692759
 10
1910.746920707067
 20
1374.727776517402
 10
1910.987379254498
 20
1374.54291644821
 10
1911.17381783647
 20
1374.345370317496
 10
1911.302909452069
 20
1374.138663340642
 10
1911.372350458358
 20
1373.926484208548
 10
1911.380901678934
 20
1373.712619262853
 10
1911.328410517063
 20
1373.500884928578
 10
1911.215813678772
 20
1373.295059609935
 10
1911.045120457309
 20
1373.098816264612
 10
1910.819376877253
 20
1372.915656859755
 10
1910.542611338139
 20
1372.748849879282
 10
1910.21976272757
 20
1372.601371997712
 10
1909.856592286649
 20
1372.475854961335
 10
1909.459580800498
 20
1372.374538624639
 10
1909.035812948493
 20
1372.299230980053
 10
1908.592850877992
 20
1372.251275894278
 10
1908.138599257637
 20
1372.231529126956
 10
1907.681164218355
 20
1372.240343059617
 10
1907.228708699259
 20
1372.277560407426
 10
1906.789306779806
 20
1372.342517025927
 10
1906.370799597657
 20
1372.434053762725
 10
1905.980655423394
 20
1372.550537142584
 10
1905.625836389048
 20
1372.689888516831
 10
1905.312674248694
 20
1372.84962115689
 10
1905.046757388145
 20
1373.026884630015
 10
1904.832831100076
 20
1373.21851566533
 10
1904.674712904167
 20
1373.421094602468
 10
1904.57522442337
 20
1373.631006415499
 10
1904.536141031982
 20
1373.844505223145
 10
1904.558160174046
 20
1374.057781134127
 10
1904.640888917452
 20
1374.267028234759
 10
1904.782850965814
 20
1374.468512505574
 10
1904.981513003016
 20
1374.658638454986
 10
1905.233329900297
 20
1374.834013280924
 10
1905.533807979159
 20
1374.991507415464
  0
ARC
  5
7F8
330
763
100
AcDbEntity
  8
0
  6
Continuous
 62
     7
370
    15
100
AcDbCircle
 10
1909.912336677335
 20
1369.441520338188
 30
0.0
 40
1.423672774895182
100
AcDbArc
 50
286.3778425017386
 51
349.449729097587
  0
LINE
  5
7F9
330
763
100
AcDbEntity
  8
0
  6
Continuous
 62
     7
370
    15
100
AcDbLine
 10
1903.066033322537
 20
1368.349837989689
 30
0.0
 11
1903.011406961953
 21
1364.90215860581
 31
0.0
  0
ARC
  5
7FA
330
763
100
AcDbEntity
  8
0
  6
Continuous
 62
     7
370
    15
100
AcDbCircle
 10
1912.959230835101
 20
1379.442039548441
 30
0.0
 40
17.61724546111185
100
AcDbArc
 50
235.6210395231084
 51
253.2958836498272
  0
ARC
  5
7FB
330
763
100
AcDbEntity
  8
0
  6
Continuous
 62
     7
370
    15
100
AcDbCircle
 10
1916.144356925461
 20
1354.522417129833
 30
0.0
 40
4.810866553440892
100
AcDbArc
 50
245.4439734266119
 51
299.1351593677979
  0
LWPOLYLINE
  5
7FC
330
763
100
AcDbEntity
  8
0
  6
Continuous
 62
     7
370
    15
100
AcDbPolyline
 90
        3
 70
   128
 43
0.0
 10
1913.733102630752
 20
1350.395568833176
 10
1913.87728027022
 20
1350.294302147719
 10
1914.145043300779
 20
1350.146667819695
  0
LWPOLYLINE
  5
7FD
330
763
100
AcDbEntity
  8
0
  6
Continuous
 62
     7
370
    15
100
AcDbPolyline
 90
       24
 70
   128
 43
0.0
 10
1904.622746546771
 20
1355.335994489436
 10
1904.630737341243
 20
1355.222739064311
 10
1904.692486769976
 20
1355.024052885063
 10
1904.813880173222
 20
1354.830749420771
 10
1904.99244633136
 20
1354.646763772528
 10
1905.224550152352
 20
1354.475841357561
 10
1905.505466671737
 20
1354.321461663338
 10
1905.829477239274
 20
1354.186767415241
 10
1906.18998593418
 20
1354.074500599734
 10
1906.579653839045
 20
1353.98694664543
 10
1906.990548439038
 20
1353.925887898355
 10
1907.414305105024
 20
1353.892567338518
 10
1907.842297373297
 20
1353.887663276432
 10
1908.265812555503
 20
1353.911275544656
 10
1908.676229103848
 20
1353.962923465503
 10
1909.065192120953
 20
1354.041555636244
 10
1909.424783441466
 20
1354.14557133264
 10
1909.747682823076
 20
1354.272853095067
 10
1910.02731696554
 20
1354.420809833894
 10
1910.257993324115
 20
1354.586429576591
 10
1910.435015993355
 20
1354.766340782803
 10
1910.554781302207
 20
1354.956880979193
 10
1910.614851174357
 20
1355.154171316835
 10
1910.621993554906
 20
1355.240940108268
  0
LINE
  5
7FE
330
763
100
AcDbEntity
  8
0
  6
Continuous
 62
     7
370
    15
100
AcDbLine
 10
1899.394266637896
 20
1366.630666116885
 30
0.0
 11
1899.448892998481
 21
1370.078345500763
 31
0.0
  0
LINE
  5
7FF
330
763
100
AcDbEntity
  8
0
  6
Continuous
 62
     7
370
    15
100
AcDbLine
 10
1903.011406961953
 20
1364.90215860581
 30
0.0
 11
1899.394266637896
 21
1366.630666116885
 31
0.0
  0
LWPOLYLINE
  5
800
330
763
100
AcDbEntity
  8
0
  6
Continuous
 62
     7
370
    15
100
AcDbPolyline
 90
       41
 70
   128
 43
0.0
 10
1901.212338675617
 20
1377.056589629831
 10
1900.917547386544
 20
1376.942105111508
 10
1900.586840727847
 20
1376.851071010648
 10
1900.228361795013
 20
1376.78572888894
 10
1899.850937529095
 20
1376.747687686278
 10
1899.463861368116
 20
1376.737884103324
 10
1899.076664411794
 20
1376.756559536826
 10
1898.698880734225
 20
1376.80325413563
 10
1898.339812623344
 20
1376.876818123744
 10
1898.008301527719
 20
1376.975440111636
 10
1897.712510350747
 20
1377.096691698655
 10
1897.45972245288
 20
1377.23758726832
 10
1897.256162311117
 20
1377.394657504098
 10
1897.106842251727
 20
1377.564034815499
 10
1897.015439030136
 20
1377.741548570986
 10
1896.98420329701
 20
1377.922827792763
 10
1897.013904179764
 20
1378.103408784759
 10
1897.103810344093
 20
1378.278845043638
 10
1897.25170800185
 20
1378.444816746466
 10
1897.453955421856
 20
1378.59723711909
 10
1897.705572601411
 20
1378.732353066084
 10
1898.000363890484
 20
1378.846837584408
 10
1898.331070549182
 20
1378.937871685267
 10
1898.689549482015
 20
1379.003213806975
 10
1899.066973747934
 20
1379.041255009637
 10
1899.454049908912
 20
1379.051058592591
 10
1899.841246865234
 20
1379.03238315909
 10
1900.219030542803
 20
1378.985688560285
 10
1900.578098653683
 20
1378.912124572171
 10
1900.909609749308
 20
1378.81350258428
 10
1901.205400926281
 20
1378.69225099726
 10
1901.458188824148
 20
1378.551355427595
 10
1901.661748965911
 20
1378.394285191817
 10
1901.811069025302
 20
1378.224907880416
 10
1901.902472246892
 20
1378.04739412493
 10
1901.933707980018
 20
1377.866114903153
 10
1901.904007097264
 20
1377.685533911156
 10
1901.814100932935
 20
1377.510097652278
 10
1901.666203275178
 20
1377.34412594945
 10
1901.463955855172
 20
1377.191705576825
 10
1901.212338675617
 20
1377.056589629831
  0
LWPOLYLINE
  5
801
330
763
100
AcDbEntity
  8
0
  6
Continuous
 62
     7
370
    15
100
AcDbPolyline
 90
       48
 70
   128
 43
0.0
 10
1897.032556890209
 20
1379.053964230605
 10
1897.376334112218
 20
1379.190767187185
 10
1897.757275764702
 20
1379.304437713804
 10
1898.168583934847
 20
1379.392947357222
 10
1898.602918818614
 20
1379.454716660755
 10
1899.052529699711
 20
1379.488643349717
 10
1899.509393261315
 20
1379.494122001542
 10
1899.965356762345
 20
1379.471054849557
 10
1900.412283523324
 20
1379.419853527636
 10
1900.842198125614
 20
1379.341431724581
 10
1901.247428732951
 20
1379.237188879326
 10
1901.620743995549
 20
1379.108985207915
 10
1901.955482093701
 20
1378.959108507899
 10
1902.245669618117
 20
1378.790233332543
 10
1902.486128165548
 20
1378.605373263351
 10
1902.67256674752
 20
1378.407827132637
 10
1902.801658363119
 20
1378.201120155783
 10
1902.871099369408
 20
1377.988941023689
 10
1902.879650589984
 20
1377.775076077993
 10
1902.827159428113
 20
1377.563341743719
 10
1902.714562589822
 20
1377.357516425076
 10
1902.543869368358
 20
1377.161273079753
 10
1902.318125788303
 20
1376.978113674895
 10
1902.041360249189
 20
1376.811306694423
 10
1901.71851163862
 20
1376.663828812853
 10
1901.355341197699
 20
1376.538311776476
 10
1900.958329711548
 20
1376.43699543978
 10
1900.534561859543
 20
1376.361687795194
 10
1900.091599789042
 20
1376.313732709419
 10
1899.637348168687
 20
1376.293985942097
 10
1899.179913129405
 20
1376.302799874759
 10
1898.727457610309
 20
1376.340017222567
 10
1898.288055690856
 20
1376.404973841068
 10
1897.869548508707
 20
1376.496510577866
 10
1897.479404334444
 20
1376.612993957725
 10
1897.124585300099
 20
1376.752345331972
 10
1896.811423159744
 20
1376.91207797203
 10
1896.545506299195
 20
1377.089341445156
 10
1896.331580011127
 20
1377.28097248047
 10
1896.173461815218
 20
1377.483551417609
 10
1896.07397333442
 20
1377.69346323064
 10
1896.034889943032
 20
1377.906962038286
 10
1896.056909085096
 20
1378.120237949267
 10
1896.139637828502
 20
1378.329485049899
 10
1896.281599876864
 20
1378.530969320715
 10
1896.480261914066
 20
1378.721095270127
 10
1896.732078811347
 20
1378.896470096065
 10
1897.032556890209
 20
1379.053964230605
  0
ARC
  5
802
330
763
100
AcDbEntity
  8
0
  6
Continuous
 62
     7
370
    15
100
AcDbCircle
 10
1901.411085588385
 20
1373.50397715333
 30
0.0
 40
1.423672774895364
100
AcDbArc
 50
286.3778425017386
 51
349.449729097587
  0
LINE
  5
803
330
763
100
AcDbEntity
  8
0
  6
Continuous
 62
     7
370
    15
100
AcDbLine
 10
1894.564782233587
 20
1372.412294804829
 30
0.0
 11
1894.510155873003
 21
1368.964615420951
 31
0.0
  0
ARC
  5
804
330
763
100
AcDbEntity
  8
0
  6
Continuous
 62
     7
370
    15
100
AcDbCircle
 10
1904.457979746151
 20
1383.504496363583
 30
0.0
 40
17.61724546111288
100
AcDbArc
 50
235.6210395231084
 51
253.2958836498272
  0
ARC
  5
805
330
763
100
AcDbEntity
  8
0
  6
Continuous
 62
     7
370
    15
100
AcDbCircle
 10
1907.643105836512
 20
1358.584873944974
 30
0.0
 40
4.810866553440869
100
AcDbArc
 50
245.4439734266119
 51
299.1351593677979
  0
LWPOLYLINE
  5
806
330
763
100
AcDbEntity
  8
0
  6
Continuous
 62
     7
370
    15
100
AcDbPolyline
 90
        3
 70
   128
 43
0.0
 10
1905.231851541802
 20
1354.458025648317
 10
1905.376029181271
 20
1354.35675896286
 10
1905.643792211828
 20
1354.209124634836
  0
LWPOLYLINE
  5
807
330
763
100
AcDbEntity
  8
0
  6
Continuous
 62
     7
370
    15
100
AcDbPolyline
 90
       24
 70
   128
 43
0.0
 10
1896.121495457822
 20
1359.398451304577
 10
1896.129486252293
 20
1359.285195879451
 10
1896.191235681026
 20
1359.086509700203
 10
1896.312629084272
 20
1358.893206235912
 10
1896.49119524241
 20
1358.709220587669
 10
1896.723299063403
 20
1358.538298172702
 10
1897.004215582787
 20
1358.383918478479
 10
1897.328226150325
 20
1358.249224230382
 10
1897.68873484523
 20
1358.136957414875
 10
1898.078402750096
 20
1358.049403460571
 10
1898.489297350089
 20
1357.988344713495
 10
1898.913054016074
 20
1357.955024153659
 10
1899.341046284347
 20
1357.950120091573
 10
1899.764561466553
 20
1357.973732359797
 10
1900.174978014898
 20
1358.025380280644
 10
1900.563941032003
 20
1358.104012451385
 10
1900.923532352516
 20
1358.20802814778
 10
1901.246431734126
 20
1358.335309910208
 10
1901.52606587659
 20
1358.483266649035
 10
1901.756742235165
 20
1358.648886391731
 10
1901.933764904405
 20
1358.828797597944
 10
1902.053530213257
 20
1359.019337794334
 10
1902.113600085407
 20
1359.216628131976
 10
1902.120742465957
 20
1359.303396923409
  0
LINE
  5
808
330
763
100
AcDbEntity
  8
0
  6
Continuous
 62
     7
370
    15
100
AcDbLine
 10
1890.893015548946
 20
1370.693122932026
 30
0.0
 11
1890.947641909531
 21
1374.140802315904
 31
0.0
  0
LINE
  5
809
330
763
100
AcDbEntity
  8
0
  6
Continuous
 62
     7
370
    15
100
AcDbLine
 10
1894.510155873003
 20
1368.964615420951
 30
0.0
 11
1890.893015548946
 21
1370.693122932026
 31
0.0
  0
LWPOLYLINE
  5
80A
330
763
100
AcDbEntity
  8
0
  6
Continuous
 62
     7
370
    15
100
AcDbPolyline
 90
       41
 70
   128
 43
0.0
 10
1892.711087586667
 20
1381.119046444972
 10
1892.416296297595
 20
1381.004561926649
 10
1892.085589638897
 20
1380.913527825789
 10
1891.727110706063
 20
1380.848185704081
 10
1891.349686440145
 20
1380.810144501419
 10
1890.962610279166
 20
1380.800340918465
 10
1890.575413322844
 20
1380.819016351966
 10
1890.197629645275
 20
1380.865710950771
 10
1889.838561534395
 20
1380.939274938885
 10
1889.507050438769
 20
1381.037896926777
 10
1889.211259261798
 20
1381.159148513796
 10
1888.95847136393
 20
1381.300044083461
 10
1888.754911222167
 20
1381.457114319239
 10
1888.605591162777
 20
1381.62649163064
 10
1888.514187941186
 20
1381.804005386127
 10
1888.48295220806
 20
1381.985284607904
 10
1888.512653090814
 20
1382.1658655999
 10
1888.602559255143
 20
1382.341301858779
 10
1888.7504569129
 20
1382.507273561606
 10
1888.952704332906
 20
1382.659693934231
 10
1889.204321512461
 20
1382.794809881225
 10
1889.499112801534
 20
1382.909294399548
 10
1889.829819460231
 20
1383.000328500408
 10
1890.188298393065
 20
1383.065670622116
 10
1890.565722658983
 20
1383.103711824778
 10
1890.952798819962
 20
1383.113515407732
 10
1891.339995776284
 20
1383.094839974231
 10
1891.717779453853
 20
1383.048145375426
 10
1892.076847564734
 20
1382.974581387312
 10
1892.408358660359
 20
1382.87595939942
 10
1892.704149837331
 20
1382.754707812401
 10
1892.956937735198
 20
1382.613812242736
 10
1893.160497876961
 20
1382.456742006958
 10
1893.309817936351
 20
1382.287364695557
 10
1893.401221157942
 20
1382.10985094007
 10
1893.432456891068
 20
1381.928571718293
 10
1893.402756008314
 20
1381.747990726297
 10
1893.312849843985
 20
1381.572554467419
 10
1893.164952186228
 20
1381.406582764591
 10
1892.962704766222
 20
1381.254162391966
 10
1892.711087586667
 20
1381.119046444972
  0
LWPOLYLINE
  5
80B
330
763
100
AcDbEntity
  8
0
  6
Continuous
 62
     7
370
    15
100
AcDbPolyline
 90
       48
 70
   128
 43
0.0
 10
1888.53130580126
 20
1383.116421045746
 10
1888.875083023268
 20
1383.253224002326
 10
1889.256024675752
 20
1383.366894528945
 10
1889.667332845897
 20
1383.455404172363
 10
1890.101667729664
 20
1383.517173475895
 10
1890.551278610761
 20
1383.551100164858
 10
1891.008142172365
 20
1383.556578816683
 10
1891.464105673396
 20
1383.533511664698
 10
1891.911032434374
 20
1383.482310342777
 10
1892.340947036664
 20
1383.403888539722
 10
1892.746177644001
 20
1383.299645694467
 10
1893.119492906599
 20
1383.171442023056
 10
1893.454231004751
 20
1383.02156532304
 10
1893.744418529167
 20
1382.852690147684
 10
1893.984877076599
 20
1382.667830078492
 10
1894.17131565857
 20
1382.470283947778
 10
1894.30040727417
 20
1382.263576970924
 10
1894.369848280458
 20
1382.05139783883
 10
1894.378399501034
 20
1381.837532893134
 10
1894.325908339163
 20
1381.62579855886
 10
1894.213311500872
 20
1381.419973240217
 10
1894.042618279408
 20
1381.223729894894
 10
1893.816874699353
 20
1381.040570490036
 10
1893.540109160239
 20
1380.873763509564
 10
1893.21726054967
 20
1380.726285627994
 10
1892.854090108749
 20
1380.600768591617
 10
1892.457078622598
 20
1380.499452254921
 10
1892.033310770593
 20
1380.424144610335
 10
1891.590348700092
 20
1380.37618952456
 10
1891.136097079737
 20
1380.356442757238
 10
1890.678662040455
 20
1380.365256689899
 10
1890.226206521359
 20
1380.402474037708
 10
1889.786804601905
 20
1380.467430656209
 10
1889.368297419757
 20
1380.558967393007
 10
1888.978153245494
 20
1380.675450772866
 10
1888.623334211149
 20
1380.814802147112
 10
1888.310172070794
 20
1380.974534787171
 10
1888.044255210245
 20
1381.151798260297
 10
1887.830328922177
 20
1381.343429295611
 10
1887.672210726268
 20
1381.54600823275
 10
1887.572722245471
 20
1381.755920045781
 10
1887.533638854082
 20
1381.969418853427
 10
1887.555657996146
 20
1382.182694764408
 10
1887.638386739552
 20
1382.39194186504
 10
1887.780348787914
 20
1382.593426135855
 10
1887.979010825116
 20
1382.783552085268
 10
1888.230827722397
 20
1382.958926911206
 10
1888.53130580126
 20
1383.116421045746
  0
ARC
  5
80C
330
763
100
AcDbEntity
  8
0
  6
Continuous
 62
     7
370
    15
100
AcDbCircle
 10
1892.909834499435
 20
1377.56643396847
 30
0.0
 40
1.423672774895161
100
AcDbArc
 50
286.3778425017386
 51
349.449729097587
  0
LINE
  5
80D
330
763
100
AcDbEntity
  8
0
  6
Continuous
 62
     7
370
    15
100
AcDbLine
 10
1886.063531144637
 20
1376.47475161997
 30
0.0
 11
1886.008904784053
 21
1373.027072236091
 31
0.0
  0
ARC
  5
80E
330
763
100
AcDbEntity
  8
0
  6
Continuous
 62
     7
370
    15
100
AcDbCircle
 10
1895.956728657202
 20
1387.566953178725
 30
0.0
 40
17.61724546111381
100
AcDbArc
 50
235.6210395231084
 51
253.2958836498272
  0
ARC
  5
80F
330
763
100
AcDbEntity
  8
0
  6
Continuous
 62
     7
370
    15
100
AcDbCircle
 10
1899.141854747561
 20
1362.647330760115
 30
0.0
 40
4.810866553440644
100
AcDbArc
 50
245.4439734266119
 51
299.1351593677979
  0
LWPOLYLINE
  5
810
330
763
100
AcDbEntity
  8
0
  6
Continuous
 62
     7
370
    15
100
AcDbPolyline
 90
        3
 70
   128
 43
0.0
 10
1896.730600452853
 20
1358.520482463458
 10
1896.874778092321
 20
1358.419215778001
 10
1897.142541122878
 20
1358.271581449977
  0
LWPOLYLINE
  5
811
330
763
100
AcDbEntity
  8
0
  6
Continuous
 62
     7
370
    15
100
AcDbPolyline
 90
       24
 70
   128
 43
0.0
 10
1887.620244368872
 20
1363.460908119718
 10
1887.628235163343
 20
1363.347652694592
 10
1887.689984592076
 20
1363.148966515344
 10
1887.811377995322
 20
1362.955663051053
 10
1887.98994415346
 20
1362.77167740281
 10
1888.222047974453
 20
1362.600754987842
 10
1888.502964493837
 20
1362.44637529362
 10
1888.826975061375
 20
1362.311681045523
 10
1889.18748375628
 20
1362.199414230016
 10
1889.577151661146
 20
1362.111860275712
 10
1889.988046261138
 20
1362.050801528637
 10
1890.411802927124
 20
1362.0174809688
 10
1890.839795195397
 20
1362.012576906713
 10
1891.263310377603
 20
1362.036189174938
 10
1891.673726925948
 20
1362.087837095785
 10
1892.062689943054
 20
1362.166469266526
 10
1892.422281263566
 20
1362.270484962921
 10
1892.745180645176
 20
1362.397766725349
 10
1893.02481478764
 20
1362.545723464176
 10
1893.255491146215
 20
1362.711343206872
 10
1893.432513815455
 20
1362.891254413084
 10
1893.552279124307
 20
1363.081794609475
 10
1893.612348996457
 20
1363.279084947117
 10
1893.619491377007
 20
1363.36585373855
  0
LINE
  5
812
330
763
100
AcDbEntity
  8
0
  6
Continuous
 62
     7
370
    15
100
AcDbLine
 10
1884.467492259833
 20
1377.237443955129
 30
0.0
 11
1884.412865899248
 21
1373.78976457125
 31
0.0
  0
LINE
  5
813
330
763
100
AcDbEntity
  8
0
  6
Continuous
 62
     7
370
    15
100
AcDbLine
 10
1886.008904784053
 20
1373.027072236091
 30
0.0
 11
1884.412865899248
 21
1373.78976457125
 31
0.0
  0
ARC
  5
814
330
763
100
AcDbEntity
  8
0
  6
Continuous
 62
     7
370
    15
100
AcDbCircle
 10
1890.640603658612
 20
1366.709787575256
 30
0.0
 40
4.810866553441068
100
AcDbArc
 50
245.4439734266237
 51
299.1351593677979
  0
LWPOLYLINE
  5
815
330
763
100
AcDbEntity
  8
0
  6
Continuous
 62
     7
370
    15
100
AcDbPolyline
 90
        3
 70
   128
 43
0.0
 10
1888.229349363903
 20
1362.582939278599
 10
1888.373527003371
 20
1362.481672593142
 10
1888.641290033929
 20
1362.334038265118
  0
LWPOLYLINE
  5
816
330
763
100
AcDbEntity
  8
0
  6
Continuous
 62
     8
370
    15
100
AcDbPolyline
 90
       19
 70
   128
 43
0.0
 10
1944.318774684122
 20
1351.825788544419
 10
1943.974997462113
 20
1351.688985587839
 10
1943.59405580963
 20
1351.57531506122
 10
1943.182747639484
 20
1351.486805417802
 10
1942.748412755718
 20
1351.425036114269
 10
1942.29880187462
 20
1351.391109425306
 10
1941.841938313016
 20
1351.385630773482
 10
1941.385974811986
 20
1351.408697925467
 10
1940.939048051007
 20
1351.459899247388
 10
1940.509133448718
 20
1351.538321050443
 10
1940.10390284138
 20
1351.642563895697
 10
1939.730587578782
 20
1351.770767567109
 10
1939.39584948063
 20
1351.920644267124
 10
1939.105661956214
 20
1352.08951944248
 10
1938.865203408782
 20
1352.274379511673
 10
1938.678764826811
 20
1352.471925642387
 10
1938.549673211212
 20
1352.678632619241
 10
1938.480232204923
 20
1352.890811751335
 10
1938.467805768674
 20
1353.039541636324
  0
LWPOLYLINE
  5
817
330
763
100
AcDbEntity
  8
0
  6
Continuous
 62
     8
370
    15
100
AcDbPolyline
 90
       19
 70
   128
 43
0.0
 10
1935.817523595172
 20
1355.88824535956
 10
1935.473746373163
 20
1355.75144240298
 10
1935.09280472068
 20
1355.637771876361
 10
1934.681496550534
 20
1355.549262232943
 10
1934.247161666768
 20
1355.48749292941
 10
1933.79755078567
 20
1355.453566240447
 10
1933.340687224066
 20
1355.448087588623
 10
1932.884723723036
 20
1355.471154740607
 10
1932.437796962057
 20
1355.522356062529
 10
1932.007882359768
 20
1355.600777865583
 10
1931.60265175243
 20
1355.705020710838
 10
1931.229336489833
 20
1355.83322438225
 10
1930.89459839168
 20
1355.983101082265
 10
1930.604410867264
 20
1356.151976257622
 10
1930.363952319833
 20
1356.336836326814
 10
1930.177513737861
 20
1356.534382457528
 10
1930.048422122262
 20
1356.741089434381
 10
1929.978981115974
 20
1356.953268566476
 10
1929.966554679723
 20
1357.101998451465
  0
LWPOLYLINE
  5
818
330
763
100
AcDbEntity
  8
0
  6
Continuous
 62
     8
370
    15
100
AcDbPolyline
 90
       19
 70
   128
 43
0.0
 10
1927.316272506222
 20
1359.950702174701
 10
1926.972495284213
 20
1359.813899218121
 10
1926.59155363173
 20
1359.700228691502
 10
1926.180245461585
 20
1359.611719048084
 10
1925.745910577818
 20
1359.549949744551
 10
1925.29629969672
 20
1359.516023055588
 10
1924.839436135116
 20
1359.510544403763
 10
1924.383472634086
 20
1359.533611555749
 10
1923.936545873107
 20
1359.58481287767
 10
1923.506631270818
 20
1359.663234680724
 10
1923.10140066348
 20
1359.767477525979
 10
1922.728085400883
 20
1359.895681197391
 10
1922.39334730273
 20
1360.045557897406
 10
1922.103159778314
 20
1360.214433072762
 10
1921.862701230883
 20
1360.399293141955
 10
1921.676262648911
 20
1360.596839272669
 10
1921.547171033312
 20
1360.803546249522
 10
1921.477730027023
 20
1361.015725381617
 10
1921.465303590774
 20
1361.164455266606
  0
LWPOLYLINE
  5
819
330
763
100
AcDbEntity
  8
0
  6
Continuous
 62
     8
370
    15
100
AcDbPolyline
 90
       19
 70
   128
 43
0.0
 10
1918.815021417272
 20
1364.013158989842
 10
1918.471244195264
 20
1363.876356033262
 10
1918.09030254278
 20
1363.762685506642
 10
1917.678994372635
 20
1363.674175863225
 10
1917.244659488868
 20
1363.612406559692
 10
1916.79504860777
 20
1363.578479870729
 10
1916.338185046166
 20
1363.573001218904
 10
1915.882221545136
 20
1363.596068370889
 10
1915.435294784158
 20
1363.647269692811
 10
1915.005380181868
 20
1363.725691495865
 10
1914.60014957453
 20
1363.82993434112
 10
1914.226834311933
 20
1363.958138012532
 10
1913.89209621378
 20
1364.108014712547
 10
1913.601908689365
 20
1364.276889887903
 10
1913.361450141933
 20
1364.461749957096
 10
1913.175011559961
 20
1364.65929608781
 10
1913.045919944362
 20
1364.866003064663
 10
1912.976478938073
 20
1365.078182196757
 10
1912.964052501824
 20
1365.226912081747
  0
LWPOLYLINE
  5
81A
330
763
100
AcDbEntity
  8
0
  6
Continuous
 62
     8
370
    15
100
AcDbPolyline
 90
       19
 70
   128
 43
0.0
 10
1910.313770328322
 20
1368.075615804983
 10
1909.969993106314
 20
1367.938812848402
 10
1909.58905145383
 20
1367.825142321783
 10
1909.177743283685
 20
1367.736632678365
 10
1908.743408399918
 20
1367.674863374833
 10
1908.29379751882
 20
1367.64093668587
 10
1907.836933957216
 20
1367.635458034045
 10
1907.380970456186
 20
1367.65852518603
 10
1906.934043695207
 20
1367.709726507952
 10
1906.504129092918
 20
1367.788148311006
 10
1906.098898485581
 20
1367.892391156261
 10
1905.725583222983
 20
1368.020594827673
 10
1905.39084512483
 20
1368.170471527688
 10
1905.100657600415
 20
1368.339346703044
 10
1904.860199052983
 20
1368.524206772236
 10
1904.673760471012
 20
1368.721752902951
 10
1904.544668855412
 20
1368.928459879804
 10
1904.475227849124
 20
1369.140639011898
 10
1904.462801412874
 20
1369.289368896888
  0
LWPOLYLINE
  5
81B
330
763
100
AcDbEntity
  8
0
  6
Continuous
 62
     8
370
    15
100
AcDbPolyline
 90
       19
 70
   128
 43
0.0
 10
1901.812519239372
 20
1372.138072620123
 10
1901.468742017364
 20
1372.001269663543
 10
1901.08780036488
 20
1371.887599136924
 10
1900.676492194735
 20
1371.799089493506
 10
1900.242157310968
 20
1371.737320189974
 10
1899.792546429871
 20
1371.703393501011
 10
1899.335682868266
 20
1371.697914849186
 10
1898.879719367236
 20
1371.720982001171
 10
1898.432792606257
 20
1371.772183323092
 10
1898.002878003968
 20
1371.850605126147
 10
1897.597647396631
 20
1371.954847971402
 10
1897.224332134033
 20
1372.083051642814
 10
1896.88959403588
 20
1372.232928342829
 10
1896.599406511464
 20
1372.401803518185
 10
1896.358947964033
 20
1372.586663587378
 10
1896.172509382062
 20
1372.784209718092
 10
1896.043417766462
 20
1372.990916694945
 10
1895.973976760174
 20
1373.203095827039
 10
1895.961550323924
 20
1373.351825712029
  0
LWPOLYLINE
  5
81C
330
763
100
AcDbEntity
  8
0
  6
Continuous
 62
     8
370
    15
100
AcDbPolyline
 90
       19
 70
   128
 43
0.0
 10
1893.311268150423
 20
1376.200529435264
 10
1892.967490928414
 20
1376.063726478684
 10
1892.58654927593
 20
1375.950055952065
 10
1892.175241105785
 20
1375.861546308647
 10
1891.740906222018
 20
1375.799777005115
 10
1891.291295340921
 20
1375.765850316152
 10
1890.834431779316
 20
1375.760371664327
 10
1890.378468278286
 20
1375.783438816312
 10
1889.931541517308
 20
1375.834640138233
 10
1889.501626915018
 20
1375.913061941288
 10
1889.096396307681
 20
1376.017304786543
 10
1888.723081045083
 20
1376.145508457955
 10
1888.388342946931
 20
1376.29538515797
 10
1888.098155422515
 20
1376.464260333326
 10
1887.857696875083
 20
1376.649120402518
 10
1887.671258293112
 20
1376.846666533232
 10
1887.542166677512
 20
1377.053373510086
 10
1887.472725671224
 20
1377.26555264218
 10
1887.460299234974
 20
1377.41428252717
  0
ENDBLK
  5
765
330
763
100
AcDbEntity
  8
0
100
AcDbBlockEnd
  0
ENDSEC
  0
SECTION
  2
ENTITIES
  0
INSERT
  5
6A5
330
1F
100
AcDbEntity
  8
0
100
AcDbBlockReference
  2
1
 10
0.0
 20
0.0
 30
0.0
  0
INSERT
  5
6C7
330
1F
100
AcDbEntity
  8
0
100
AcDbBlockReference
  2
2
 10
0.0
 20
0.0
 30
0.0
  0
INSERT
  5
762
330
1F
100
AcDbEntity
  8
0
100
AcDbBlockReference
  2
3
 10
0.0
 20
0.0
 30
0.0
  0
INSERT
  5
81D
330
1F
100
AcDbEntity
  8
0
100
AcDbBlockReference
  2
4
 10
0.0
 20
0.0
 30
0.0
  0
ENDSEC
  0
SECTION
  2
OBJECTS
  0
DICTIONARY
  5
C
330
0
100
AcDbDictionary
281
     1
  3
ACAD_COLOR
350
6B
  3
ACAD_GROUP
350
D
  3
ACAD_LAYOUT
350
1A
  3
ACAD_MATERIAL
350
6A
  3
ACAD_MLEADERSTYLE
350
12D
  3
ACAD_MLINESTYLE
350
17
  3
ACAD_PLOTSETTINGS
350
19
  3
ACAD_PLOTSTYLENAME
350
E
  3
ACAD_SCALELIST
350
10C
  3
ACAD_TABLESTYLE
350
7E
  3
ACAD_VISUALSTYLE
350
EF
  3
ACDB_RECOMPOSE_DATA
350
15D
  3
AcDbVariableDictionary
350
5E
  3
DWGPROPS
350
82B
  0
DICTIONARY
  5
13C
330
10
100
AcDbDictionary
280
     1
281
     1
  3
ADSK_XREC_LAYER_RECONCILED
360
81E
  0
DICTIONARY
  5
6B
102
{ACAD_REACTORS
330
C
102
}
330
C
100
AcDbDictionary
281
     1
  0
DICTIONARY
  5
D
102
{ACAD_REACTORS
330
C
102
}
330
C
100
AcDbDictionary
281
     1
  0
DICTIONARY
  5
1A
102
{ACAD_REACTORS
330
C
102
}
330
C
100
AcDbDictionary
281
     1
  3
Layout1
350
D3
  3
Layout2
350
D7
  3
Model
350
22
  0
DICTIONARY
  5
6A
102
{ACAD_REACTORS
330
C
102
}
330
C
100
AcDbDictionary
281
     1
  3
ByBlock
350
ED
  3
ByLayer
350
EC
  3
Global
350
EE
  0
DICTIONARY
  5
12D
102
{ACAD_REACTORS
330
C
102
}
330
C
100
AcDbDictionary
281
     1
  3
Annotative
350
13B
  3
Standard
350
12E
  0
DICTIONARY
  5
17
102
{ACAD_REACTORS
330
C
102
}
330
C
100
AcDbDictionary
281
     1
  3
Standard
350
18
  0
DICTIONARY
  5
19
102
{ACAD_REACTORS
330
C
102
}
330
C
100
AcDbDictionary
281
     1
  0
ACDBDICTIONARYWDFLT
  5
E
102
{ACAD_REACTORS
330
C
102
}
330
C
100
AcDbDictionary
281
     1
  3
Normal
350
F
100
AcDbDictionaryWithDefault
340
F
  0
DICTIONARY
  5
10C
102
{ACAD_REACTORS
330
C
102
}
330
C
100
AcDbDictionary
281
     1
  3
A0
350
10D
  3
A1
350
188
  3
A2
350
189
  3
A3
350
18A
  3
A4
350
18B
  3
A5
350
18C
  3
A6
350
18D
  3
A7
350
18E
  3
A8
350
18F
  3
A9
350
190
  3
B0
350
191
  3
B1
350
192
  3
B2
350
193
  3
B3
350
194
  3
B4
350
195
  3
B5
350
196
  3
B6
350
197
  3
B7
350
198
  3
B8
350
199
  3
B9
350
19A
  3
C0
350
19B
  3
C1
350
19C
  3
C2
350
19D
  3
C3
350
19E
  3
C4
350
19F
  3
C5
350
1A0
  3
C6
350
1A1
  3
C7
350
1A2
  3
C8
350
1A3
  3
C9
350
1A4
  3
D0
350
1A5
  3
D1
350
1A6
  3
D2
350
1A7
  0
DICTIONARY
  5
7E
102
{ACAD_REACTORS
330
C
102
}
330
C
100
AcDbDictionary
281
     1
  3
Standard
350
7F
  0
DICTIONARY
  5
EF
102
{ACAD_REACTORS
330
C
102
}
330
C
100
AcDbDictionary
281
     1
  3
2dWireframe
350
F5
  3
3D Hidden
350
F7
  3
3dWireframe
350
F6
  3
Basic
350
F4
  3
Brighten
350
FB
  3
ColorChange
350
FF
  3
Conceptual
350
F8
  3
Dim
350
FA
  3
Facepattern
350
FE
  3
Flat
350
F0
  3
FlatWithEdges
350
F1
  3
Gouraud
350
F2
  3
GouraudWithEdges
350
F3
  3
Linepattern
350
FD
  3
Realistic
350
F9
  3
Thicken
350
FC
  0
XRECORD
  5
15D
102
{ACAD_REACTORS
330
C
102
}
330
C
100
AcDbXrecord
280
     1
 90
        1
330
7F
  0
DICTIONARY
  5
5E
102
{ACAD_REACTORS
330
C
102
}
330
C
100
AcDbDictionary
281
     1
  3
CANNOSCALE
350
146
  3
CMLEADERSTYLE
350
145
  3
CTABLESTYLE
350
84
  3
DIMASSOC
350
5F
  3
HIDETEXT
350
63
  3
INDEXCTL
350
827
  3
LIGHTINGUNITS
350
825
  3
MSLTSCALE
350
824
  3
PSOLHEIGHT
350
829
  3
PSOLWIDTH
350
828
  3
SORTENTS
350
826
  0
XRECORD
  5
82B
102
{ACAD_REACTORS
330
C
102
}
330
C
100
AcDbXrecord
280
     1
  1
DWGPROPS COOKIE
  2

  3

  4

  6

  7

  8
orhan kara
  9

300
=
301
=
302
=
303
=
304
=
305
=
306
=
307
=
308
=
309
=
 40
0.0021086111111111
 41
2458935.413692454
 42
2458956.4604514
  1

 90
        0
  0
XRECORD
  5
81E
102
{ACAD_REACTORS
330
13C
102
}
330
13C
100
AcDbXrecord
280
     1
290
     1
  0
LAYOUT
  5
D3
102
{ACAD_XDICTIONARY
360
82F
102
}
102
{ACAD_REACTORS
330
1A
102
}
330
1A
100
AcDbPlotSettings
  1

  2
C:\Documents and Settings\basas\Application Data\Autodesk\AutoCAD 2005\R16.1\enu\plotters\Default Windows System Printer.pc3
  4

  6

 40
0.0
 41
0.0
 42
0.0
 43
0.0
 44
0.0
 45
0.0
 46
0.0
 47
0.0
 48
0.0
 49
0.0
140
0.0
141
0.0
142
1.0
143
1.0
 70
   688
 72
     0
 73
     0
 74
     5
  7

 75
    16
147
1.0
148
0.0
149
0.0
100
AcDbLayout
  1
Layout1
 70
     1
 71
     1
 10
0.0
 20
0.0
 11
12.0
 21
9.0
 12
0.0
 22
0.0
 32
0.0
 14
0.0
 24
0.0
 34
0.0
 15
0.0
 25
0.0
 35
0.0
146
0.0
 13
0.0
 23
0.0
 33
0.0
 16
1.0
 26
0.0
 36
0.0
 17
0.0
 27
1.0
 37
0.0
 76
     0
330
D2
  0
LAYOUT
  5
D7
102
{ACAD_XDICTIONARY
360
831
102
}
102
{ACAD_REACTORS
330
1A
102
}
330
1A
100
AcDbPlotSettings
  1

  2
C:\Documents and Settings\basas\Application Data\Autodesk\AutoCAD 2005\R16.1\enu\plotters\Default Windows System Printer.pc3
  4

  6

 40
0.0
 41
0.0
 42
0.0
 43
0.0
 44
0.0
 45
0.0
 46
0.0
 47
0.0
 48
0.0
 49
0.0
140
0.0
141
0.0
142
1.0
143
1.0
 70
   688
 72
     0
 73
     0
 74
     5
  7

 75
    16
147
1.0
148
0.0
149
0.0
100
AcDbLayout
  1
Layout2
 70
     1
 71
     2
 10
0.0
 20
0.0
 11
12.0
 21
9.0
 12
0.0
 22
0.0
 32
0.0
 14
0.0
 24
0.0
 34
0.0
 15
0.0
 25
0.0
 35
0.0
146
0.0
 13
0.0
 23
0.0
 33
0.0
 16
1.0
 26
0.0
 36
0.0
 17
0.0
 27
1.0
 37
0.0
 76
     0
330
D6
  0
LAYOUT
  5
22
102
{ACAD_XDICTIONARY
360
82C
102
}
102
{ACAD_REACTORS
330
1A
102
}
330
1A
100
AcDbPlotSettings
  1

  2
none_device
  4
ISO_A4_(210.00_x_297.00_MM)
  6

 40
7.5
 41
20.0
 42
7.5
 43
20.0
 44
210.0
 45
297.0
 46
11.54999923706054
 47
-13.65000009536743
 48
0.0
 49
0.0
140
0.0
141
0.0
142
1.0
143
8.704084754739808
 70
 11952
 72
     1
 73
     0
 74
     0
  7

 75
     0
147
0.1148885871608098
148
0.0
149
0.0
100
AcDbLayout
  1
Model
 70
     1
 71
     0
 10
0.0
 20
0.0
 11
12.0
 21
9.0
 12
0.0
 22
0.0
 32
0.0
 14
0.0
 24
0.0
 34
0.0
 15
0.0
 25
0.0
 35
0.0
146
0.0
 13
0.0
 23
0.0
 33
0.0
 16
1.0
 26
0.0
 36
0.0
 17
0.0
 27
1.0
 37
0.0
 76
     0
330
1F
331
EA
1001
ACAD_PSEXT
1000
None
1000
None
1000
Not applicable
1000
The layout will not be plotted unless a new plotter configuration name is selected.
1070
     0
  0
MATERIAL
  5
ED
102
{ACAD_XDICTIONARY
360
835
102
}
102
{ACAD_REACTORS
330
6A
102
}
330
6A
100
AcDbMaterial
  1
ByBlock
  0
MATERIAL
  5
EC
102
{ACAD_XDICTIONARY
360
833
102
}
102
{ACAD_REACTORS
330
6A
102
}
330
6A
100
AcDbMaterial
  1
ByLayer
  0
MATERIAL
  5
EE
102
{ACAD_XDICTIONARY
360
173
102
}
102
{ACAD_REACTORS
330
6A
102
}
330
6A
100
AcDbMaterial
  1
Global
 43
0.0007999999797903
 43
0.0
 43
0.0
 43
0.0
 43
0.0
 43
0.0007999999797903
 43
0.0
 43
0.0
 43
0.0
 43
0.0
 43
1.0
 43
0.0
 43
0.0
 43
0.0
 43
0.0
 43
1.0
 49
0.0007999999797903
 49
0.0
 49
0.0
 49
0.0
 49
0.0
 49
0.0007999999797903
 49
0.0
 49
0.0
 49
0.0
 49
0.0
 49
1.0
 49
0.0
 49
0.0
 49
0.0
 49
0.0
 49
1.0
142
0.0007999999797903
142
0.0
142
0.0
142
0.0
142
0.0
142
0.0007999999797903
142
0.0
142
0.0
142
0.0
142
0.0
142
1.0
142
0.0
142
0.0
142
0.0
142
0.0
142
1.0
144
0.0007999999797903
144
0.0
144
0.0
144
0.0
144
0.0
144
0.0007999999797903
144
0.0
144
0.0
144
0.0
144
0.0
144
1.0
144
0.0
144
0.0
144
0.0
144
0.0
144
1.0
1001
ACAD
1070
    -1
1070
     3
1070
     0
1000

1071
        0
1070
     0
  0
MLEADERSTYLE
  5
13B
102
{ACAD_REACTORS
330
12D
102
}
330
12D
100
AcDbMLeaderStyle
170
     2
171
     1
172
     0
 90
        2
 40
0.0
 41
0.0
173
     1
 91
-1056964608
340
14
 92
       -2
290
     1
 42
2.0
291
     1
 43
8.0
  3
Standard
 44
4.0
300

342
11
174
     1
178
     1
175
     1
176
     0
 93
-1056964608
 45
4.0
292
     0
297
     0
 46
4.0
 94
-1056964608
 47
1.0
 49
1.0
140
1.0
293
     1
141
0.0
294
     1
177
     0
142
1.0
295
     0
296
     1
143
3.75
1001
ACAD_MLEADERVER
1070
     2
  0
MLEADERSTYLE
  5
12E
102
{ACAD_REACTORS
330
12D
102
}
330
12D
100
AcDbMLeaderStyle
170
     2
171
     1
172
     0
 90
        2
 40
0.0
 41
0.0
173
     1
 91
-1056964608
340
14
 92
       -2
290
     1
 42
2.0
291
     1
 43
8.0
  3
Standard
 44
4.0
300

342
11
174
     1
178
     1
175
     1
176
     0
 93
-1056964608
 45
4.0
292
     0
297
     0
 46
4.0
 94
-1056964608
 47
1.0
 49
1.0
140
1.0
293
     1
141
0.0
294
     1
177
     0
142
1.0
295
     0
296
     0
143
3.75
1001
ACAD_MLEADERVER
1070
     2
  0
MLINESTYLE
  5
18
102
{ACAD_REACTORS
330
17
102
}
330
17
100
AcDbMlineStyle
  2
STANDARD
 70
     0
  3

 62
   256
 51
90.0
 52
90.0
 71
     2
 49
0.5
 62
   256
  6
BYLAYER
 49
-0.5
 62
   256
  6
BYLAYER
  0
ACDBPLACEHOLDER
  5
F
102
{ACAD_REACTORS
330
E
102
}
330
E
  0
SCALE
  5
10D
102
{ACAD_REACTORS
330
10C
102
}
330
10C
100
AcDbScale
 70
     0
300
1:1
140
1.0
141
1.0
290
     1
  0
SCALE
  5
188
102
{ACAD_REACTORS
330
10C
102
}
330
10C
100
AcDbScale
 70
     0
300
1:2
140
1.0
141
2.0
290
     0
  0
SCALE
  5
189
102
{ACAD_REACTORS
330
10C
102
}
330
10C
100
AcDbScale
 70
     0
300
1:4
140
1.0
141
4.0
290
     0
  0
SCALE
  5
18A
102
{ACAD_REACTORS
330
10C
102
}
330
10C
100
AcDbScale
 70
     0
300
1:5
140
1.0
141
5.0
290
     0
  0
SCALE
  5
18B
102
{ACAD_REACTORS
330
10C
102
}
330
10C
100
AcDbScale
 70
     0
300
1:8
140
1.0
141
8.0
290
     0
  0
SCALE
  5
18C
102
{ACAD_REACTORS
330
10C
102
}
330
10C
100
AcDbScale
 70
     0
300
1:10
140
1.0
141
10.0
290
     0
  0
SCALE
  5
18D
102
{ACAD_REACTORS
330
10C
102
}
330
10C
100
AcDbScale
 70
     0
300
1:16
140
1.0
141
16.0
290
     0
  0
SCALE
  5
18E
102
{ACAD_REACTORS
330
10C
102
}
330
10C
100
AcDbScale
 70
     0
300
1:20
140
1.0
141
20.0
290
     0
  0
SCALE
  5
18F
102
{ACAD_REACTORS
330
10C
102
}
330
10C
100
AcDbScale
 70
     0
300
1:30
140
1.0
141
30.0
290
     0
  0
SCALE
  5
190
102
{ACAD_REACTORS
330
10C
102
}
330
10C
100
AcDbScale
 70
     0
300
1:40
140
1.0
141
40.0
290
     0
  0
SCALE
  5
191
102
{ACAD_REACTORS
330
10C
102
}
330
10C
100
AcDbScale
 70
     0
300
1:50
140
1.0
141
50.0
290
     0
  0
SCALE
  5
192
102
{ACAD_REACTORS
330
10C
102
}
330
10C
100
AcDbScale
 70
     0
300
1:100
140
1.0
141
100.0
290
     0
  0
SCALE
  5
193
102
{ACAD_REACTORS
330
10C
102
}
330
10C
100
AcDbScale
 70
     0
300
2:1
140
2.0
141
1.0
290
     0
  0
SCALE
  5
194
102
{ACAD_REACTORS
330
10C
102
}
330
10C
100
AcDbScale
 70
     0
300
4:1
140
4.0
141
1.0
290
     0
  0
SCALE
  5
195
102
{ACAD_REACTORS
330
10C
102
}
330
10C
100
AcDbScale
 70
     0
300
8:1
140
8.0
141
1.0
290
     0
  0
SCALE
  5
196
102
{ACAD_REACTORS
330
10C
102
}
330
10C
100
AcDbScale
 70
     0
300
10:1
140
10.0
141
1.0
290
     0
  0
SCALE
  5
197
102
{ACAD_REACTORS
330
10C
102
}
330
10C
100
AcDbScale
 70
     0
300
100:1
140
100.0
141
1.0
290
     0
  0
SCALE
  5
198
102
{ACAD_REACTORS
330
10C
102
}
330
10C
100
AcDbScale
 70
     0
300
1/128" = 1'-0"
140
0.0078125
141
12.0
290
     0
  0
SCALE
  5
199
102
{ACAD_REACTORS
330
10C
102
}
330
10C
100
AcDbScale
 70
     0
300
1/64" = 1'-0"
140
0.015625
141
12.0
290
     0
  0
SCALE
  5
19A
102
{ACAD_REACTORS
330
10C
102
}
330
10C
100
AcDbScale
 70
     0
300
1/32" = 1'-0"
140
0.03125
141
12.0
290
     0
  0
SCALE
  5
19B
102
{ACAD_REACTORS
330
10C
102
}
330
10C
100
AcDbScale
 70
     0
300
1/16" = 1'-0"
140
0.0625
141
12.0
290
     0
  0
SCALE
  5
19C
102
{ACAD_REACTORS
330
10C
102
}
330
10C
100
AcDbScale
 70
     0
300
3/32" = 1'-0"
140
0.09375
141
12.0
290
     0
  0
SCALE
  5
19D
102
{ACAD_REACTORS
330
10C
102
}
330
10C
100
AcDbScale
 70
     0
300
1/8" = 1'-0"
140
0.125
141
12.0
290
     0
  0
SCALE
  5
19E
102
{ACAD_REACTORS
330
10C
102
}
330
10C
100
AcDbScale
 70
     0
300
3/16" = 1'-0"
140
0.1875
141
12.0
290
     0
  0
SCALE
  5
19F
102
{ACAD_REACTORS
330
10C
102
}
330
10C
100
AcDbScale
 70
     0
300
1/4" = 1'-0"
140
0.25
141
12.0
290
     0
  0
SCALE
  5
1A0
102
{ACAD_REACTORS
330
10C
102
}
330
10C
100
AcDbScale
 70
     0
300
3/8" = 1'-0"
140
0.375
141
12.0
290
     0
  0
SCALE
  5
1A1
102
{ACAD_REACTORS
330
10C
102
}
330
10C
100
AcDbScale
 70
     0
300
1/2" = 1'-0"
140
0.5
141
12.0
290
     0
  0
SCALE
  5
1A2
102
{ACAD_REACTORS
330
10C
102
}
330
10C
100
AcDbScale
 70
     0
300
3/4" = 1'-0"
140
0.75
141
12.0
290
     0
  0
SCALE
  5
1A3
102
{ACAD_REACTORS
330
10C
102
}
330
10C
100
AcDbScale
 70
     0
300
1" = 1'-0"
140
1.0
141
12.0
290
     0
  0
SCALE
  5
1A4
102
{ACAD_REACTORS
330
10C
102
}
330
10C
100
AcDbScale
 70
     0
300
1-1/2" = 1'-0"
140
1.5
141
12.0
290
     0
  0
SCALE
  5
1A5
102
{ACAD_REACTORS
330
10C
102
}
330
10C
100
AcDbScale
 70
     0
300
3" = 1'-0"
140
3.0
141
12.0
290
     0
  0
SCALE
  5
1A6
102
{ACAD_REACTORS
330
10C
102
}
330
10C
100
AcDbScale
 70
     0
300
6" = 1'-0"
140
6.0
141
12.0
290
     0
  0
SCALE
  5
1A7
102
{ACAD_REACTORS
330
10C
102
}
330
10C
100
AcDbScale
 70
     0
300
1'-0" = 1'-0"
140
12.0
141
12.0
290
     0
  0
TABLESTYLE
  5
7F
102
{ACAD_XDICTIONARY
360
162
102
}
102
{ACAD_REACTORS
330
7E
102
}
330
7E
100
AcDbTableStyle
  3
Standard
 70
     0
 71
     0
 40
1.5
 41
1.5
280
     0
281
     0
  7
Standard
140
4.5
170
     2
 62
     0
 63
     7
283
     0
274
    -2
284
     1
 64
     0
275
    -2
285
     1
 65
     0
276
    -2
286
     1
 66
     0
277
    -2
287
     1
 67
     0
278
    -2
288
     1
 68
     0
279
    -2
289
     1
 69
     0
  7
Standard
140
6.0
170
     5
 62
     0
 63
     7
283
     0
274
    -2
284
     1
 64
     0
275
    -2
285
     1
 65
     0
276
    -2
286
     1
 66
     0
277
    -2
287
     1
 67
     0
278
    -2
288
     1
 68
     0
279
    -2
289
     1
 69
     0
  7
Standard
140
4.5
170
     5
 62
     0
 63
     7
283
     0
274
    -2
284
     1
 64
     0
275
    -2
285
     1
 65
     0
276
    -2
286
     1
 66
     0
277
    -2
287
     1
 67
     0
278
    -2
288
     1
 68
     0
279
    -2
289
     1
 69
     0
  0
VISUALSTYLE
  5
F5
102
{ACAD_REACTORS
330
EF
102
}
330
EF
100
AcDbVisualStyle
  2
2dWireframe
 70
     4
 71
     0
 72
     2
 73
     1
 90
        0
 40
-0.6
 41
-30.0
 62
     5
 63
     7
 74
     1
 91
        4
 64
     7
 65
   257
 75
     1
175
     1
 42
1.0
 92
        0
 66
   257
 43
1.0
 76
     1
 77
     6
 78
     2
 67
     7
 79
     5
170
     0
171
     0
290
     0
174
     0
 93
        1
 44
0.0
173
     0
291
     0
 45
0.0
1001
ACAD
1000
AcDbSavedByObjectVersion
1070
     0
  0
VISUALSTYLE
  5
F7
102
{ACAD_REACTORS
330
EF
102
}
330
EF
100
AcDbVisualStyle
  2
3D Hidden
 70
     6
 71
     1
 72
     2
 73
     2
 90
        0
 40
-0.6
 41
-30.0
 62
     5
 63
     7
 74
     2
 91
        2
 64
     7
 65
   257
 75
     2
175
     1
 42
40.0
 92
        0
 66
   257
 43
1.0
 76
     1
 77
     6
 78
     2
 67
     7
 79
     3
170
     0
171
     0
290
     0
174
     0
 93
        1
 44
0.0
173
     0
291
     0
 45
0.0
1001
ACAD
1000
AcDbSavedByObjectVersion
1070
     0
  0
VISUALSTYLE
  5
F6
102
{ACAD_REACTORS
330
EF
102
}
330
EF
100
AcDbVisualStyle
  2
3dWireframe
 70
     5
 71
     0
 72
     2
 73
     1
 90
        0
 40
-0.6
 41
-30.0
 62
     5
 63
     7
 74
     1
 91
        4
 64
     7
 65
   257
 75
     1
175
     1
 42
1.0
 92
        0
 66
   257
 43
1.0
 76
     1
 77
     6
 78
     2
 67
     7
 79
     5
170
     0
171
     0
290
     0
174
     0
 93
        1
 44
0.0
173
     0
291
     0
 45
0.0
1001
ACAD
1000
AcDbSavedByObjectVersion
1070
     0
  0
VISUALSTYLE
  5
F4
102
{ACAD_REACTORS
330
EF
102
}
330
EF
100
AcDbVisualStyle
  2
Basic
 70
     7
 71
     1
 72
     0
 73
     1
 90
        0
 40
-0.6
 41
-30.0
 62
     5
 63
     7
 74
     0
 91
        4
 64
     7
 65
   257
 75
     1
175
     1
 42
1.0
 92
        8
 66
     7
 43
1.0
 76
     1
 77
     6
 78
     2
 67
     7
 79
     5
170
     0
171
     0
290
     0
174
     0
 93
        1
 44
0.0
173
     0
291
     1
 45
0.0
1001
ACAD
1000
AcDbSavedByObjectVersion
1070
     0
  0
VISUALSTYLE
  5
FB
102
{ACAD_REACTORS
330
EF
102
}
330
EF
100
AcDbVisualStyle
  2
Brighten
 70
    12
 71
     2
 72
     2
 73
     1
 90
        0
 40
-0.6
 41
-30.0
 62
     5
 63
     7
 74
     1
 91
        4
 64
     7
 65
   257
 75
     1
175
     1
 42
1.0
 92
        8
 66
     7
 43
1.0
 76
     1
 77
     6
 78
     2
 67
     7
 79
     5
170
     0
171
     0
290
     0
174
     0
 93
        1
 44
50.0
173
     0
291
     1
 45
0.0
1001
ACAD
1000
AcDbSavedByObjectVersion
1070
     0
  0
VISUALSTYLE
  5
FF
102
{ACAD_REACTORS
330
EF
102
}
330
EF
100
AcDbVisualStyle
  2
ColorChange
 70
    16
 71
     2
 72
     2
 73
     3
 90
        0
 40
-0.6
 41
-30.0
 62
     5
 63
     8
 74
     1
 91
        4
 64
     7
 65
   257
 75
     1
175
     1
 42
1.0
 92
        8
 66
     8
 43
1.0
 76
     1
 77
     6
 78
     2
 67
     7
 79
     5
170
     0
171
     0
290
     0
174
     0
 93
        1
 44
0.0
173
     0
291
     1
 45
0.0
1001
ACAD
1000
AcDbSavedByObjectVersion
1070
     0
  0
VISUALSTYLE
  5
F8
102
{ACAD_REACTORS
330
EF
102
}
330
EF
100
AcDbVisualStyle
  2
Conceptual
 70
     9
 71
     3
 72
     2
 73
     1
 90
        0
 40
-0.6
 41
-30.0
 62
     5
 63
     7
 74
     2
 91
        2
 64
     7
 65
   257
 75
     1
175
     1
 42
40.0
 92
        8
 66
     7
 43
1.0
 76
     1
 77
     6
 78
     2
 67
     7
 79
     3
170
     0
171
     0
290
     0
174
     0
 93
        1
 44
0.0
173
     0
291
     0
 45
0.0
1001
ACAD
1000
AcDbSavedByObjectVersion
1070
     0
  0
VISUALSTYLE
  5
FA
102
{ACAD_REACTORS
330
EF
102
}
330
EF
100
AcDbVisualStyle
  2
Dim
 70
    11
 71
     2
 72
     2
 73
     1
 90
        0
 40
-0.6
 41
-30.0
 62
     5
 63
     7
 74
     1
 91
        4
 64
     7
 65
   257
 75
     1
175
     1
 42
1.0
 92
        8
 66
     7
 43
1.0
 76
     1
 77
     6
 78
     2
 67
     7
 79
     5
170
     0
171
     0
290
     0
174
     0
 93
        1
 44
-50.0
173
     0
291
     1
 45
0.0
1001
ACAD
1000
AcDbSavedByObjectVersion
1070
     0
  0
VISUALSTYLE
  5
FE
102
{ACAD_REACTORS
330
EF
102
}
330
EF
100
AcDbVisualStyle
  2
Facepattern
 70
    15
 71
     2
 72
     2
 73
     1
 90
        0
 40
-0.6
 41
-30.0
 62
     5
 63
     7
 74
     1
 91
        4
 64
     7
 65
   257
 75
     1
175
     1
 42
1.0
 92
        8
 66
     7
 43
1.0
 76
     1
 77
     6
 78
     2
 67
     7
 79
     5
170
     0
171
     0
290
     0
174
     0
 93
        1
 44
0.0
173
     0
291
     1
 45
0.0
1001
ACAD
1000
AcDbSavedByObjectVersion
1070
     0
  0
VISUALSTYLE
  5
F0
102
{ACAD_REACTORS
330
EF
102
}
330
EF
100
AcDbVisualStyle
  2
Flat
 70
     0
 71
     2
 72
     1
 73
     1
 90
        2
 40
-0.6
 41
30.0
 62
     5
 63
     7
 74
     0
 91
        4
 64
     7
 65
   257
 75
     1
175
     1
 42
1.0
 92
        8
 66
     7
 43
1.0
 76
     1
 77
     6
 78
     2
 67
     7
 79
     5
170
     0
171
     0
290
     0
174
     0
 93
        1
 44
0.0
173
     0
291
     1
 45
0.0
1001
ACAD
1000
AcDbSavedByObjectVersion
1070
     0
  0
VISUALSTYLE
  5
F1
102
{ACAD_REACTORS
330
EF
102
}
330
EF
100
AcDbVisualStyle
  2
FlatWithEdges
 70
     1
 71
     2
 72
     1
 73
     1
 90
        2
 40
-0.6
 41
30.0
 62
     5
 63
     7
 74
     1
 91
        4
 64
     7
 65
   257
 75
     1
175
     1
 42
1.0
 92
        0
 66
   257
 43
1.0
 76
     1
 77
     6
 78
     2
 67
     7
 79
     5
170
     0
171
     0
290
     0
174
     0
 93
        1
 44
0.0
173
     0
291
     1
 45
0.0
1001
ACAD
1000
AcDbSavedByObjectVersion
1070
     0
  0
VISUALSTYLE
  5
F2
102
{ACAD_REACTORS
330
EF
102
}
330
EF
100
AcDbVisualStyle
  2
Gouraud
 70
     2
 71
     2
 72
     2
 73
     1
 90
        2
 40
-0.6
 41
30.0
 62
     5
 63
     7
 74
     0
 91
        4
 64
     7
 65
   257
 75
     1
175
     1
 42
1.0
 92
        0
 66
     7
 43
1.0
 76
     1
 77
     6
 78
     2
 67
     7
 79
     5
170
     0
171
     0
290
     0
174
     0
 93
        1
 44
0.0
173
     0
291
     1
 45
0.0
1001
ACAD
1000
AcDbSavedByObjectVersion
1070
     0
  0
VISUALSTYLE
  5
F3
102
{ACAD_REACTORS
330
EF
102
}
330
EF
100
AcDbVisualStyle
  2
GouraudWithEdges
 70
     3
 71
     2
 72
     2
 73
     1
 90
        2
 40
-0.6
 41
30.0
 62
     5
 63
     7
 74
     1
 91
        4
 64
     7
 65
   257
 75
     1
175
     1
 42
1.0
 92
        0
 66
   257
 43
1.0
 76
     1
 77
     6
 78
     2
 67
     7
 79
     5
170
     0
171
     0
290
     0
174
     0
 93
        1
 44
0.0
173
     0
291
     1
 45
0.0
1001
ACAD
1000
AcDbSavedByObjectVersion
1070
     0
  0
VISUALSTYLE
  5
FD
102
{ACAD_REACTORS
330
EF
102
}
330
EF
100
AcDbVisualStyle
  2
Linepattern
 70
    14
 71
     2
 72
     2
 73
     1
 90
        0
 40
-0.6
 41
-30.0
 62
     5
 63
     7
 74
     1
 91
        4
 64
     7
 65
   257
 75
     7
175
     7
 42
1.0
 92
        8
 66
     7
 43
1.0
 76
     1
 77
     6
 78
     2
 67
     7
 79
     5
170
     0
171
     0
290
     0
174
     0
 93
        1
 44
0.0
173
     0
291
     1
 45
0.0
1001
ACAD
1000
AcDbSavedByObjectVersion
1070
     0
  0
VISUALSTYLE
  5
F9
102
{ACAD_REACTORS
330
EF
102
}
330
EF
100
AcDbVisualStyle
  2
Realistic
 70
     8
 71
     2
 72
     2
 73
     1
 90
        0
 40
-0.6
 41
-30.0
 62
     5
 63
     7
 74
     1
 91
        0
 64
     7
 65
   257
 75
     1
175
     1
 42
1.0
 92
        8
 66
     8
 43
1.0
 76
     1
 77
     6
 78
     2
 67
     7
 79
     5
170
     0
171
     0
290
     0
174
     0
 93
       13
 44
0.0
173
     0
291
     0
 45
0.0
1001
ACAD
1000
AcDbSavedByObjectVersion
1070
     0
  0
VISUALSTYLE
  5
FC
102
{ACAD_REACTORS
330
EF
102
}
330
EF
100
AcDbVisualStyle
  2
Thicken
 70
    13
 71
     2
 72
     2
 73
     1
 90
        0
 40
-0.6
 41
-30.0
 62
     5
 63
     7
 74
     1
 91
        4
 64
     7
 65
   257
 75
     1
175
     1
 42
1.0
 92
       12
 66
     7
 43
1.0
 76
     1
 77
     6
 78
     2
 67
     7
 79
     5
170
     0
171
     0
290
     0
174
     0
 93
        1
 44
0.0
173
     0
291
     1
 45
0.0
1001
ACAD
1000
AcDbSavedByObjectVersion
1070
     0
  0
DICTIONARYVAR
  5
146
102
{ACAD_REACTORS
330
5E
102
}
330
5E
100
DictionaryVariables
280
     0
  1
1:1
  0
DICTIONARYVAR
  5
145
102
{ACAD_REACTORS
330
5E
102
}
330
5E
100
DictionaryVariables
280
     0
  1
STANDARD
  0
DICTIONARYVAR
  5
84
102
{ACAD_REACTORS
330
5E
102
}
330
5E
100
DictionaryVariables
280
     0
  1
STANDARD
  0
DICTIONARYVAR
  5
5F
102
{ACAD_REACTORS
330
5E
102
}
330
5E
100
DictionaryVariables
280
     0
  1
2
  0
DICTIONARYVAR
  5
63
102
{ACAD_REACTORS
330
5E
102
}
330
5E
100
DictionaryVariables
280
     0
  1
1
  0
DICTIONARYVAR
  5
827
102
{ACAD_REACTORS
330
5E
102
}
330
5E
100
DictionaryVariables
280
     0
  1
0
  0
DICTIONARYVAR
  5
825
102
{ACAD_REACTORS
330
5E
102
}
330
5E
100
DictionaryVariables
280
     0
  1
2
  0
DICTIONARYVAR
  5
824
102
{ACAD_REACTORS
330
5E
102
}
330
5E
100
DictionaryVariables
280
     0
  1
1
  0
DICTIONARYVAR
  5
829
102
{ACAD_REACTORS
330
5E
102
}
330
5E
100
DictionaryVariables
280
     0
  1
80.000000
  0
DICTIONARYVAR
  5
828
102
{ACAD_REACTORS
330
5E
102
}
330
5E
100
DictionaryVariables
280
     0
  1
5.000000
  0
DICTIONARYVAR
  5
826
102
{ACAD_REACTORS
330
5E
102
}
330
5E
100
DictionaryVariables
280
     0
  1
127
  0
DICTIONARY
  5
82F
330
D3
100
AcDbDictionary
280
     1
281
     1
  3
ACAD_XREC_ROUNDTRIP
360
830
  0
DICTIONARY
  5
831
330
D7
100
AcDbDictionary
280
     1
281
     1
  3
ACAD_XREC_ROUNDTRIP
360
832
  0
DICTIONARY
  5
82C
330
22
100
AcDbDictionary
280
     1
281
     1
  3
ACAD_XREC_ROUNDTRIP
360
82D
  0
DICTIONARY
  5
835
330
ED
100
AcDbDictionary
280
     1
281
     1
  3
ACAD_XREC_ROUNDTRIP
360
836
  0
DICTIONARY
  5
833
330
EC
100
AcDbDictionary
280
     1
281
     1
  3
ACAD_XREC_ROUNDTRIP
360
834
  0
DICTIONARY
  5
173
330
EE
100
AcDbDictionary
280
     1
281
     1
  3
ACAD_XREC_ROUNDTRIP
360
837
  3
BUMPTILE
360
175
  3
DIFFUSETILE
360
174
  3
OPACITYTILE
360
176
  3
REFLECTIONTILE
360
177
  0
DICTIONARY
  5
162
330
7F
100
AcDbDictionary
280
     1
281
     1
  3
ACAD_ROUNDTRIP_2008_TABLESTYLE_CELLSTYLEMAP
360
82A
  3
ACAD_XREC_ROUNDTRIP
360
82E
  0
XRECORD
  5
830
102
{ACAD_REACTORS
330
82F
102
}
330
82F
100
AcDbXrecord
280
     1
102
SHADEPLOT
 70
     0
102
SHADEPLOTRESLEVEL
 70
     2
102
SHADEPLOTCUSTOMDPI
 70
   300
  0
XRECORD
  5
832
102
{ACAD_REACTORS
330
831
102
}
330
831
100
AcDbXrecord
280
     1
102
SHADEPLOT
 70
     0
102
SHADEPLOTRESLEVEL
 70
     2
102
SHADEPLOTCUSTOMDPI
 70
   300
  0
XRECORD
  5
82D
102
{ACAD_REACTORS
330
82C
102
}
330
82C
100
AcDbXrecord
280
     1
102
SHADEPLOT
 70
     0
102
SHADEPLOTRESLEVEL
 70
     2
102
SHADEPLOTCUSTOMDPI
 70
   300
  0
XRECORD
  5
836
102
{ACAD_REACTORS
330
835
102
}
330
835
100
AcDbXrecord
280
     1
102
MATERIAL
148
0.0
149
0.0
149
0.0
 93
        0
 94
       63
282
     0
 72
     1
 77
     1
171
     1
175
     1
179
     1
273
     0
  0
XRECORD
  5
834
102
{ACAD_REACTORS
330
833
102
}
330
833
100
AcDbXrecord
280
     1
102
MATERIAL
148
0.0
149
0.0
149
0.0
 93
        0
 94
       63
282
     0
 72
     1
 77
     1
171
     1
175
     1
179
     1
273
     0
  0
XRECORD
  5
837
102
{ACAD_REACTORS
330
173
102
}
330
173
100
AcDbXrecord
280
     1
102
MATERIAL
148
0.0
149
0.0
149
0.0
 93
        0
 94
       63
282
     0
 72
     1
 77
     1
171
     1
175
     1
179
     1
273
     0
  0
XRECORD
  5
175
102
{ACAD_REACTORS
330
173
102
}
330
173
100
AcDbXrecord
280
     1
270
     1
271
     1
  0
XRECORD
  5
174
102
{ACAD_REACTORS
330
173
102
}
330
173
100
AcDbXrecord
280
     1
270
     1
271
     1
  0
XRECORD
  5
176
102
{ACAD_REACTORS
330
173
102
}
330
173
100
AcDbXrecord
280
     1
270
     1
271
     1
  0
XRECORD
  5
177
102
{ACAD_REACTORS
330
173
102
}
330
173
100
AcDbXrecord
280
     1
270
     1
271
     1
  0
CELLSTYLEMAP
  5
82A
102
{ACAD_REACTORS
330
162
102
}
330
162
100
AcDbCellStyleMap
 90
        3
300
CELLSTYLE
  1
TABLEFORMAT_BEGIN
 90
        5
170
     1
 91
        0
 92
    32768
 62
   257
 93
        1
300
CONTENTFORMAT
  1
CONTENTFORMAT_BEGIN
 90
        0
 91
        0
 92
      512
 93
        0
300

 40
0.0
140
1.0
 94
        5
 62
     0
340
11
144
6.0
309
CONTENTFORMAT_END
171
     1
301
MARGIN
  1
CELLMARGIN_BEGIN
 40
1.5
 40
1.5
 40
1.5
 40
1.5
 40
4.5
 40
4.5
309
CELLMARGIN_END
 94
        6
 95
        1
302
GRIDFORMAT
  1
GRIDFORMAT_BEGIN
 90
        0
 91
        1
 62
     0
 92
       -2
340
14
 93
        0
 40
1.125
309
GRIDFORMAT_END
 95
        2
302
GRIDFORMAT
  1
GRIDFORMAT_BEGIN
 90
        0
 91
        1
 62
     0
 92
       -2
340
14
 93
        0
 40
1.125
309
GRIDFORMAT_END
 95
        4
302
GRIDFORMAT
  1
GRIDFORMAT_BEGIN
 90
        0
 91
        1
 62
     0
 92
       -2
340
14
 93
        0
 40
1.125
309
GRIDFORMAT_END
 95
        8
302
GRIDFORMAT
  1
GRIDFORMAT_BEGIN
 90
        0
 91
        1
 62
     0
 92
       -2
340
14
 93
        0
 40
1.125
309
GRIDFORMAT_END
 95
       16
302
GRIDFORMAT
  1
GRIDFORMAT_BEGIN
 90
        0
 91
        1
 62
     0
 92
       -2
340
14
 93
        0
 40
1.125
309
GRIDFORMAT_END
 95
       32
302
GRIDFORMAT
  1
GRIDFORMAT_BEGIN
 90
        0
 91
        1
 62
     0
 92
       -2
340
14
 93
        0
 40
1.125
309
GRIDFORMAT_END
309
TABLEFORMAT_END
  1
CELLSTYLE_BEGIN
 90
        1
 91
        1
300
_TITLE
309
CELLSTYLE_END
300
CELLSTYLE
  1
TABLEFORMAT_BEGIN
 90
        5
170
     1
 91
        0
 92
        0
 62
   257
 93
        1
300
CONTENTFORMAT
  1
CONTENTFORMAT_BEGIN
 90
        0
 91
        0
 92
      512
 93
        0
300

 40
0.0
140
1.0
 94
        5
 62
     0
340
11
144
4.5
309
CONTENTFORMAT_END
171
     1
301
MARGIN
  1
CELLMARGIN_BEGIN
 40
1.5
 40
1.5
 40
1.5
 40
1.5
 40
4.5
 40
4.5
309
CELLMARGIN_END
 94
        6
 95
        1
302
GRIDFORMAT
  1
GRIDFORMAT_BEGIN
 90
        0
 91
        1
 62
     0
 92
       -2
340
14
 93
        0
 40
1.125
309
GRIDFORMAT_END
 95
        2
302
GRIDFORMAT
  1
GRIDFORMAT_BEGIN
 90
        0
 91
        1
 62
     0
 92
       -2
340
14
 93
        0
 40
1.125
309
GRIDFORMAT_END
 95
        4
302
GRIDFORMAT
  1
GRIDFORMAT_BEGIN
 90
        0
 91
        1
 62
     0
 92
       -2
340
14
 93
        0
 40
1.125
309
GRIDFORMAT_END
 95
        8
302
GRIDFORMAT
  1
GRIDFORMAT_BEGIN
 90
        0
 91
        1
 62
     0
 92
       -2
340
14
 93
        0
 40
1.125
309
GRIDFORMAT_END
 95
       16
302
GRIDFORMAT
  1
GRIDFORMAT_BEGIN
 90
        0
 91
        1
 62
     0
 92
       -2
340
14
 93
        0
 40
1.125
309
GRIDFORMAT_END
 95
       32
302
GRIDFORMAT
  1
GRIDFORMAT_BEGIN
 90
        0
 91
        1
 62
     0
 92
       -2
340
14
 93
        0
 40
1.125
309
GRIDFORMAT_END
309
TABLEFORMAT_END
  1
CELLSTYLE_BEGIN
 90
        2
 91
        1
300
_HEADER
309
CELLSTYLE_END
300
CELLSTYLE
  1
TABLEFORMAT_BEGIN
 90
        5
170
     1
 91
        0
 92
        0
 62
   257
 93
        1
300
CONTENTFORMAT
  1
CONTENTFORMAT_BEGIN
 90
        0
 91
        0
 92
      512
 93
        0
300

 40
0.0
140
1.0
 94
        2
 62
     0
340
11
144
4.5
309
CONTENTFORMAT_END
171
     1
301
MARGIN
  1
CELLMARGIN_BEGIN
 40
1.5
 40
1.5
 40
1.5
 40
1.5
 40
4.5
 40
4.5
309
CELLMARGIN_END
 94
        6
 95
        1
302
GRIDFORMAT
  1
GRIDFORMAT_BEGIN
 90
        0
 91
        1
 62
     0
 92
       -2
340
14
 93
        0
 40
1.125
309
GRIDFORMAT_END
 95
        2
302
GRIDFORMAT
  1
GRIDFORMAT_BEGIN
 90
        0
 91
        1
 62
     0
 92
       -2
340
14
 93
        0
 40
1.125
309
GRIDFORMAT_END
 95
        4
302
GRIDFORMAT
  1
GRIDFORMAT_BEGIN
 90
        0
 91
        1
 62
     0
 92
       -2
340
14
 93
        0
 40
1.125
309
GRIDFORMAT_END
 95
        8
302
GRIDFORMAT
  1
GRIDFORMAT_BEGIN
 90
        0
 91
        1
 62
     0
 92
       -2
340
14
 93
        0
 40
1.125
309
GRIDFORMAT_END
 95
       16
302
GRIDFORMAT
  1
GRIDFORMAT_BEGIN
 90
        0
 91
        1
 62
     0
 92
       -2
340
14
 93
        0
 40
1.125
309
GRIDFORMAT_END
 95
       32
302
GRIDFORMAT
  1
GRIDFORMAT_BEGIN
 90
        0
 91
        1
 62
     0
 92
       -2
340
14
 93
        0
 40
1.125
309
GRIDFORMAT_END
309
TABLEFORMAT_END
  1
CELLSTYLE_BEGIN
 90
        3
 91
        2
300
_DATA
309
CELLSTYLE_END
  0
XRECORD
  5
82E
102
{ACAD_REACTORS
330
162
102
}
330
162
100
AcDbXrecord
280
     1
102
ACAD_ROUNDTRIP_PRE2007_TABLESTYLE
 90
      512
 91
        0
  1

 92
      512
 93
        0
  2

 94
      512
 95
        0
  3

  0
ENDSEC
  0
EOF
