  0
SECTION
  2
HEADER
  9
$ACADVER
  1
AC1015
  9
$ACADMAINTVER
 70
    20
  9
$DWGCODEPAGE
  3
ANSI_1254
  9
$INSBASE
 10
0.0
 20
0.0
 30
0.0
  9
$EXTMIN
 10
1973.717072612952
 20
977.6620466485073
 30
0.0
  9
$EXTMAX
 10
2148.793041393554
 20
1028.938992745769
 30
0.0
  9
$LIMMIN
 10
0.0
 20
0.0
  9
$LIMMAX
 10
420.0
 20
297.0
  9
$ORTHOMODE
 70
     0
  9
$REGENMODE
 70
     1
  9
$FILLMODE
 70
     1
  9
$QTEXTMODE
 70
     0
  9
$MIRRTEXT
 70
     0
  9
$LTSCALE
 40
1.0
  9
$ATTMODE
 70
     1
  9
$TEXTSIZE
 40
2.5
  9
$TRACEWID
 40
1.0
  9
$TEXTSTYLE
  7
Standard
  9
$CLAYER
  8
0
  9
$CELTYPE
  6
ByLayer
  9
$CECOLOR
 62
   256
  9
$CELTSCALE
 40
1.0
  9
$DISPSILH
 70
     0
  9
$DIMSCALE
 40
1.0
  9
$DIMASZ
 40
2.5
  9
$DIMEXO
 40
0.625
  9
$DIMDLI
 40
3.75
  9
$DIMRND
 40
0.0
  9
$DIMDLE
 40
0.0
  9
$DIMEXE
 40
1.25
  9
$DIMTP
 40
0.0
  9
$DIMTM
 40
0.0
  9
$DIMTXT
 40
2.5
  9
$DIMCEN
 40
2.5
  9
$DIMTSZ
 40
0.0
  9
$DIMTOL
 70
     0
  9
$DIMLIM
 70
     0
  9
$DIMTIH
 70
     0
  9
$DIMTOH
 70
     0
  9
$DIMSE1
 70
     0
  9
$DIMSE2
 70
     0
  9
$DIMTAD
 70
     1
  9
$DIMZIN
 70
     8
  9
$DIMBLK
  1

  9
$DIMASO
 70
     1
  9
$DIMSHO
 70
     1
  9
$DIMPOST
  1

  9
$DIMAPOST
  1

  9
$DIMALT
 70
     0
  9
$DIMALTD
 70
     3
  9
$DIMALTF
 40
0.03937007874016
  9
$DIMLFAC
 40
1.0
  9
$DIMTOFL
 70
     1
  9
$DIMTVP
 40
0.0
  9
$DIMTIX
 70
     0
  9
$DIMSOXD
 70
     0
  9
$DIMSAH
 70
     0
  9
$DIMBLK1
  1

  9
$DIMBLK2
  1

  9
$DIMSTYLE
  2
ISO-25
  9
$DIMCLRD
 70
     0
  9
$DIMCLRE
 70
     0
  9
$DIMCLRT
 70
     0
  9
$DIMTFAC
 40
1.0
  9
$DIMGAP
 40
0.625
  9
$DIMJUST
 70
     0
  9
$DIMSD1
 70
     0
  9
$DIMSD2
 70
     0
  9
$DIMTOLJ
 70
     0
  9
$DIMTZIN
 70
     8
  9
$DIMALTZ
 70
     0
  9
$DIMALTTZ
 70
     0
  9
$DIMUPT
 70
     0
  9
$DIMDEC
 70
     2
  9
$DIMTDEC
 70
     2
  9
$DIMALTU
 70
     2
  9
$DIMALTTD
 70
     3
  9
$DIMTXSTY
  7
Standard
  9
$DIMAUNIT
 70
     0
  9
$DIMADEC
 70
     0
  9
$DIMALTRND
 40
0.0
  9
$DIMAZIN
 70
     0
  9
$DIMDSEP
 70
    44
  9
$DIMATFIT
 70
     3
  9
$DIMFRAC
 70
     0
  9
$DIMLDRBLK
  1

  9
$DIMLUNIT
 70
     2
  9
$DIMLWD
 70
    -2
  9
$DIMLWE
 70
    -2
  9
$DIMTMOVE
 70
     0
  9
$LUNITS
 70
     2
  9
$LUPREC
 70
     4
  9
$SKETCHINC
 40
1.0
  9
$FILLETRAD
 40
0.0
  9
$AUNITS
 70
     0
  9
$AUPREC
 70
     0
  9
$MENU
  1
.
  9
$ELEVATION
 40
0.0
  9
$PELEVATION
 40
0.0
  9
$THICKNESS
 40
0.0
  9
$LIMCHECK
 70
     0
  9
$CHAMFERA
 40
0.0
  9
$CHAMFERB
 40
0.0
  9
$CHAMFERC
 40
0.0
  9
$CHAMFERD
 40
0.0
  9
$SKPOLY
 70
     0
  9
$TDCREATE
 40
2458935.412630602
  9
$TDUCREATE
 40
2458935.287630602
  9
$TDUPDATE
 40
2458956.458587084
  9
$TDUUPDATE
 40
2458956.333587083
  9
$TDINDWG
 40
0.0004619329
  9
$TDUSRTIMER
 40
0.0004619329
  9
$USRTIMER
 70
     1
  9
$ANGBASE
 50
0.0
  9
$ANGDIR
 70
     0
  9
$PDMODE
 70
     0
  9
$PDSIZE
 40
0.0
  9
$PLINEWID
 40
0.0
  9
$SPLFRAME
 70
     0
  9
$SPLINETYPE
 70
     6
  9
$SPLINESEGS
 70
     8
  9
$HANDSEED
  5
732
  9
$SURFTAB1
 70
     6
  9
$SURFTAB2
 70
     6
  9
$SURFTYPE
 70
     6
  9
$SURFU
 70
     6
  9
$SURFV
 70
     6
  9
$UCSBASE
  2

  9
$UCSNAME
  2

  9
$UCSORG
 10
0.0
 20
0.0
 30
0.0
  9
$UCSXDIR
 10
1.0
 20
0.0
 30
0.0
  9
$UCSYDIR
 10
0.0
 20
1.0
 30
0.0
  9
$UCSORTHOREF
  2

  9
$UCSORTHOVIEW
 70
     0
  9
$UCSORGTOP
 10
0.0
 20
0.0
 30
0.0
  9
$UCSORGBOTTOM
 10
0.0
 20
0.0
 30
0.0
  9
$UCSORGLEFT
 10
0.0
 20
0.0
 30
0.0
  9
$UCSORGRIGHT
 10
0.0
 20
0.0
 30
0.0
  9
$UCSORGFRONT
 10
0.0
 20
0.0
 30
0.0
  9
$UCSORGBACK
 10
0.0
 20
0.0
 30
0.0
  9
$PUCSBASE
  2

  9
$PUCSNAME
  2

  9
$PUCSORG
 10
0.0
 20
0.0
 30
0.0
  9
$PUCSXDIR
 10
1.0
 20
0.0
 30
0.0
  9
$PUCSYDIR
 10
0.0
 20
1.0
 30
0.0
  9
$PUCSORTHOREF
  2

  9
$PUCSORTHOVIEW
 70
     0
  9
$PUCSORGTOP
 10
0.0
 20
0.0
 30
0.0
  9
$PUCSORGBOTTOM
 10
0.0
 20
0.0
 30
0.0
  9
$PUCSORGLEFT
 10
0.0
 20
0.0
 30
0.0
  9
$PUCSORGRIGHT
 10
0.0
 20
0.0
 30
0.0
  9
$PUCSORGFRONT
 10
0.0
 20
0.0
 30
0.0
  9
$PUCSORGBACK
 10
0.0
 20
0.0
 30
0.0
  9
$USERI1
 70
     0
  9
$USERI2
 70
     0
  9
$USERI3
 70
     0
  9
$USERI4
 70
     0
  9
$USERI5
 70
     0
  9
$USERR1
 40
0.0
  9
$USERR2
 40
0.0
  9
$USERR3
 40
0.0
  9
$USERR4
 40
0.0
  9
$USERR5
 40
0.0
  9
$WORLDVIEW
 70
     1
  9
$SHADEDGE
 70
     3
  9
$SHADEDIF
 70
    70
  9
$TILEMODE
 70
     1
  9
$MAXACTVP
 70
    64
  9
$PINSBASE
 10
0.0
 20
0.0
 30
0.0
  9
$PLIMCHECK
 70
     0
  9
$PEXTMIN
 10
0.0
 20
0.0
 30
0.0
  9
$PEXTMAX
 10
0.0
 20
0.0
 30
0.0
  9
$PLIMMIN
 10
0.0
 20
0.0
  9
$PLIMMAX
 10
12.0
 20
9.0
  9
$UNITMODE
 70
     0
  9
$VISRETAIN
 70
     1
  9
$PLINEGEN
 70
     0
  9
$PSLTSCALE
 70
     1
  9
$TREEDEPTH
 70
  3020
  9
$CMLSTYLE
  2
Standard
  9
$CMLJUST
 70
     0
  9
$CMLSCALE
 40
20.0
  9
$PROXYGRAPHICS
 70
     1
  9
$MEASUREMENT
 70
     1
  9
$CELWEIGHT
370
    -1
  9
$ENDCAPS
280
     0
  9
$JOINSTYLE
280
     0
  9
$LWDISPLAY
290
     0
  9
$INSUNITS
 70
     4
  9
$HYPERLINKBASE
  1

  9
$STYLESHEET
  1

  9
$XEDIT
290
     1
  9
$CEPSNTYPE
380
     0
  9
$PSTYLEMODE
290
     1
  9
$FINGERPRINTGUID
  2
{9136B957-DFD2-4518-A0F0-D8878DB8BEA4}
  9
$VERSIONGUID
  2
{30CCB079-08BD-4011-9A25-8F62F270F57D}
  9
$EXTNAMES
290
     1
  9
$PSVPSCALE
 40
0.0
  9
$OLESTARTUP
290
     0
  0
ENDSEC
  0
SECTION
  2
CLASSES
  0
CLASS
  1
ACDBDICTIONARYWDFLT
  2
AcDbDictionaryWithDefault
  3
ObjectDBX Classes
 90
        0
280
     0
281
     0
  0
CLASS
  1
ACDBPLACEHOLDER
  2
AcDbPlaceHolder
  3
ObjectDBX Classes
 90
        0
280
     0
281
     0
  0
CLASS
  1
LAYOUT
  2
AcDbLayout
  3
ObjectDBX Classes
 90
        0
280
     0
281
     0
  0
CLASS
  1
DICTIONARYVAR
  2
AcDbDictionaryVar
  3
ObjectDBX Classes
 90
        0
280
     0
281
     0
  0
CLASS
  1
TABLESTYLE
  2
AcDbTableStyle
  3
ObjectDBX Classes
 90
     4095
280
     0
281
     0
  0
CLASS
  1
MATERIAL
  2
AcDbMaterial
  3
ObjectDBX Classes
 90
     1153
280
     0
281
     0
  0
CLASS
  1
VISUALSTYLE
  2
AcDbVisualStyle
  3
ObjectDBX Classes
 90
     4095
280
     0
281
     0
  0
CLASS
  1
SCALE
  2
AcDbScale
  3
ObjectDBX Classes
 90
     1153
280
     0
281
     0
  0
CLASS
  1
MLEADERSTYLE
  2
AcDbMLeaderStyle
  3
ACDB_MLEADERSTYLE_CLASS
 90
     4095
280
     0
281
     0
  0
CLASS
  1
CELLSTYLEMAP
  2
AcDbCellStyleMap
  3
ObjectDBX Classes
 90
     1152
280
     0
281
     0
  0
ENDSEC
  0
SECTION
  2
TABLES
  0
TABLE
  2
VPORT
  5
8
330
0
100
AcDbSymbolTable
 70
     1
  0
VPORT
  5
EA
330
8
100
AcDbSymbolTableRecord
100
AcDbViewportTableRecord
  2
*Active
 70
     0
 10
0.0
 20
0.0
 11
1.0
 21
1.0
 12
2060.846144265028
 22
1005.064199635538
 13
0.0
 23
0.0
 14
10.0
 24
10.0
 15
10.0
 25
10.0
 16
0.0
 26
0.0
 36
1.0
 17
0.0
 27
0.0
 37
0.0
 40
145.587283154441
 41
1.903110047846889
 42
50.0
 43
0.0
 44
0.0
 50
0.0
 51
0.0
 71
     0
 72
  1000
 73
     1
 74
     3
 75
     0
 76
     0
 77
     0
 78
     0
281
     0
 65
     1
110
0.0
120
0.0
130
0.0
111
1.0
121
0.0
131
0.0
112
0.0
122
1.0
132
0.0
 79
     0
146
0.0
  0
ENDTAB
  0
TABLE
  2
LTYPE
  5
5
330
0
100
AcDbSymbolTable
 70
     1
  0
LTYPE
  5
14
330
5
100
AcDbSymbolTableRecord
100
AcDbLinetypeTableRecord
  2
ByBlock
 70
     0
  3

 72
    65
 73
     0
 40
0.0
  0
LTYPE
  5
15
330
5
100
AcDbSymbolTableRecord
100
AcDbLinetypeTableRecord
  2
ByLayer
 70
     0
  3

 72
    65
 73
     0
 40
0.0
  0
LTYPE
  5
16
330
5
100
AcDbSymbolTableRecord
100
AcDbLinetypeTableRecord
  2
Continuous
 70
     0
  3
Solid line
 72
    65
 73
     0
 40
0.0
  0
ENDTAB
  0
TABLE
  2
LAYER
  5
2
330
0
100
AcDbSymbolTable
 70
     1
  0
LAYER
  5
10
102
{ACAD_XDICTIONARY
360
13C
102
}
330
2
100
AcDbSymbolTableRecord
100
AcDbLayerTableRecord
  2
0
 70
     0
 62
     7
  6
Continuous
370
    -3
390
F
  0
ENDTAB
  0
TABLE
  2
STYLE
  5
3
330
0
100
AcDbSymbolTable
 70
     2
  0
STYLE
  5
11
330
3
100
AcDbSymbolTableRecord
100
AcDbTextStyleTableRecord
  2
Standard
 70
     0
 40
0.0
 41
1.0
 50
0.0
 71
     0
 42
2.5
  3
txt
  4

  0
STYLE
  5
132
330
3
100
AcDbSymbolTableRecord
100
AcDbTextStyleTableRecord
  2
Annotative
 70
     0
 40
0.0
 41
1.0
 50
0.0
 71
     0
 42
2.5
  3
txt.shx
  4

1001
AcadAnnotative
1000
AnnotativeData
1002
{
1070
     1
1070
     1
1002
}
  0
ENDTAB
  0
TABLE
  2
VIEW
  5
6
330
0
100
AcDbSymbolTable
 70
     0
  0
ENDTAB
  0
TABLE
  2
UCS
  5
7
330
0
100
AcDbSymbolTable
 70
     0
  0
ENDTAB
  0
TABLE
  2
APPID
  5
9
330
0
100
AcDbSymbolTable
 70
     7
  0
APPID
  5
12
330
9
100
AcDbSymbolTableRecord
100
AcDbRegAppTableRecord
  2
ACAD
 70
     0
  0
APPID
  5
9E
330
9
100
AcDbSymbolTableRecord
100
AcDbRegAppTableRecord
  2
ACAD_PSEXT
 70
     0
  0
APPID
  5
133
330
9
100
AcDbSymbolTableRecord
100
AcDbRegAppTableRecord
  2
AcadAnnoPO
 70
     0
  0
APPID
  5
134
330
9
100
AcDbSymbolTableRecord
100
AcDbRegAppTableRecord
  2
AcadAnnotative
 70
     0
  0
APPID
  5
135
330
9
100
AcDbSymbolTableRecord
100
AcDbRegAppTableRecord
  2
ACAD_DSTYLE_DIMJAG
 70
     0
  0
APPID
  5
136
330
9
100
AcDbSymbolTableRecord
100
AcDbRegAppTableRecord
  2
ACAD_DSTYLE_DIMTALN
 70
     0
  0
APPID
  5
165
330
9
100
AcDbSymbolTableRecord
100
AcDbRegAppTableRecord
  2
ACAD_MLEADERVER
 70
     0
  0
ENDTAB
  0
TABLE
  2
DIMSTYLE
  5
A
330
0
100
AcDbSymbolTable
 70
     2
100
AcDbDimStyleTable
 71
     2
340
27
340
137
  0
DIMSTYLE
105
27
330
A
100
AcDbSymbolTableRecord
100
AcDbDimStyleTableRecord
  2
ISO-25
 70
     0
 41
2.5
 42
0.625
 43
3.75
 44
1.25
 73
     0
 74
     0
 77
     1
 78
     8
140
2.5
141
2.5
143
0.03937007874016
147
0.625
171
     3
172
     1
271
     2
272
     2
274
     3
278
    44
283
     0
284
     8
340
11
  0
DIMSTYLE
105
137
330
A
100
AcDbSymbolTableRecord
100
AcDbDimStyleTableRecord
  2
Annotative
 70
     0
 40
0.0
 41
2.5
 42
0.625
 43
3.75
 44
1.25
 73
     0
 74
     0
 77
     1
 78
     8
140
2.5
141
2.5
143
0.03937007874016
147
0.625
171
     3
172
     1
271
     2
272
     2
274
     3
278
    44
283
     0
284
     8
340
11
1001
AcadAnnotative
1000
AnnotativeData
1002
{
1070
     1
1070
     1
1002
}
1001
ACAD_DSTYLE_DIMJAG
1070
   388
1040
1.5
1001
ACAD_DSTYLE_DIMTALN
1070
   392
1070
     0
  0
ENDTAB
  0
TABLE
  2
BLOCK_RECORD
  5
1
330
0
100
AcDbSymbolTable
 70
     5
  0
BLOCK_RECORD
  5
1F
330
1
100
AcDbSymbolTableRecord
100
AcDbBlockTableRecord
  2
*Model_Space
340
22
  0
BLOCK_RECORD
  5
D2
330
1
100
AcDbSymbolTableRecord
100
AcDbBlockTableRecord
  2
*Paper_Space
340
D3
  0
BLOCK_RECORD
  5
D6
330
1
100
AcDbSymbolTableRecord
100
AcDbBlockTableRecord
  2
*Paper_Space0
340
D7
  0
BLOCK_RECORD
  5
53F
330
1
100
AcDbSymbolTableRecord
100
AcDbBlockTableRecord
  2
1
340
0
310
2800000020000000200000000100080000000000000400000000000000000000000000000000000000000000000080000080000000808000800000008000800080800000C0C0C000C0DCC000F0CAA6000020400000206000002080000020A0000020C0000020E00000400000004020000040400000406000004080000040A0
310
000040C0000040E00000600000006020000060400000606000006080000060A0000060C0000060E00000800000008020000080400000806000008080000080A0000080C0000080E00000A0000000A0200000A0400000A0600000A0800000A0A00000A0C00000A0E00000C0000000C0200000C0400000C0600000C0800000C0
310
A00000C0C00000C0E00000E0000000E0200000E0400000E0600000E0800000E0A00000E0C00000E0E00040000000400020004000400040006000400080004000A0004000C0004000E00040200000402020004020400040206000402080004020A0004020C0004020E000404000004040200040404000404060004040800040
310
40A0004040C0004040E00040600000406020004060400040606000406080004060A0004060C0004060E00040800000408020004080400040806000408080004080A0004080C0004080E00040A0000040A0200040A0400040A0600040A0800040A0A00040A0C00040A0E00040C0000040C0200040C0400040C0600040C08000
310
40C0A00040C0C00040C0E00040E0000040E0200040E0400040E0600040E0800040E0A00040E0C00040E0E00080000000800020008000400080006000800080008000A0008000C0008000E00080200000802020008020400080206000802080008020A0008020C0008020E00080400000804020008040400080406000804080
310
008040A0008040C0008040E00080600000806020008060400080606000806080008060A0008060C0008060E00080800000808020008080400080806000808080008080A0008080C0008080E00080A0000080A0200080A0400080A0600080A0800080A0A00080A0C00080A0E00080C0000080C0200080C0400080C0600080C0
310
800080C0A00080C0C00080C0E00080E0000080E0200080E0400080E0600080E0800080E0A00080E0C00080E0E000C0000000C0002000C0004000C0006000C0008000C000A000C000C000C000E000C0200000C0202000C0204000C0206000C0208000C020A000C020C000C020E000C0400000C0402000C0404000C0406000C0
310
408000C040A000C040C000C040E000C0600000C0602000C0604000C0606000C0608000C060A000C060C000C060E000C0800000C0802000C0804000C0806000C0808000C080A000C080C000C080E000C0A00000C0A02000C0A04000C0A06000C0A08000C0A0A000C0A0C000C0A0E000C0C00000C0C02000C0C04000C0C06000
310
C0C08000C0C0A000F0FBFF00A4A0A000808080000000FF0000FF000000FFFF00FF000000FF00FF00FFFF0000FFFFFF0000000000000000000000000000000000000000000000000000000000000000000000000000000000000000000000000000000000000000000000000000000000000000000000000000000000000000
310
00000000000000000000000000000000000000000000000000000000000000000000000000000000000000000000000000000000000000000000000000000000000000000000000000000000000000000000000000000000000000000000000000000000000000000000000000000000000000000000000000000000000000
310
00000000000000000000000000000000000000000000000000000000000000000000000000000000000000000000000000000000000000000000000000000000000000000000000000000000000000000000000000000000000000000000000000000000000000000000000000000000000000000000000000000000000000
310
000000000000000000000000000000000000000000FFFFFFFF00FFFFFFFF00FFFFFF0000FFFFFF00FFFFFFFF00FFFFFFFF00000000FF0000FF00FF0000FF00FF00FF0000FF00FF00FF0000FF00FF0000FF00000000FF0000FF00FF0000FF00FF00FF0000FF00FF00FF0000FF00FF0000FF00000000FF0000FF00FF0000FF00
310
FF00FF0000FF00FF00FF0000FF00FF0000FF00000000FF0000FF00FF0000FF00FF00FF0000FF00FF00FF0000FF00FF0000FF000000FFFFFFFFFFFFFFFFFFFFFFFFFFFFFFFFFFFFFFFFFFFFFFFFFFFFFFFFFFFF0000FFFFFFFFFFFFFFFFFFFFFFFFFFFFFFFFFFFFFFFFFFFFFFFFFFFFFFFFFFFF000000FFFFFFFF00FFFFFFFF
310
00FFFFFF0000FFFFFF00FFFFFFFF00FFFFFFFF00000000FF0000FF00FF0000FF00FF00FF0000FF00FF00FF0000FF00FF0000FF00000000FFFFFFFF00FFFFFFFF00FFFFFF0000FFFFFF00FFFFFFFF00FFFFFFFF0000000000000000000000000000000000000000000000000000000000000000000000000000000000000000
310
00000000000000000000000000000000000000000000000000000000000000000000000000000000000000000000000000000000000000000000000000000000000000000000000000000000000000000000000000000000000000000000000000000000000000000000000000000000000000000000000000000000000000
310
00000000000000000000000000000000000000000000000000000000000000000000000000000000000000000000000000000000000000000000000000000000000000000000000000000000000000000000000000000000000000000000000000000000000000000000000000000000000000000000000000000000000000
310
0000000000000000000000000000000000000000000000000000000000000000000000000000000000000000000000000000000000000000
102
{BLKREFS
331
5DC
102
}
1001
ACAD
1000
DesignCenter Data
1002
{
1070
     1
1070
     4
1002
}
  0
BLOCK_RECORD
  5
5DD
330
1
100
AcDbSymbolTableRecord
100
AcDbBlockTableRecord
  2
3
340
0
310
2800000020000000200000000100080000000000000400000000000000000000000000000000000000000000000080000080000000808000800000008000800080800000C0C0C000C0DCC000F0CAA6000020400000206000002080000020A0000020C0000020E00000400000004020000040400000406000004080000040A0
310
000040C0000040E00000600000006020000060400000606000006080000060A0000060C0000060E00000800000008020000080400000806000008080000080A0000080C0000080E00000A0000000A0200000A0400000A0600000A0800000A0A00000A0C00000A0E00000C0000000C0200000C0400000C0600000C0800000C0
310
A00000C0C00000C0E00000E0000000E0200000E0400000E0600000E0800000E0A00000E0C00000E0E00040000000400020004000400040006000400080004000A0004000C0004000E00040200000402020004020400040206000402080004020A0004020C0004020E000404000004040200040404000404060004040800040
310
40A0004040C0004040E00040600000406020004060400040606000406080004060A0004060C0004060E00040800000408020004080400040806000408080004080A0004080C0004080E00040A0000040A0200040A0400040A0600040A0800040A0A00040A0C00040A0E00040C0000040C0200040C0400040C0600040C08000
310
40C0A00040C0C00040C0E00040E0000040E0200040E0400040E0600040E0800040E0A00040E0C00040E0E00080000000800020008000400080006000800080008000A0008000C0008000E00080200000802020008020400080206000802080008020A0008020C0008020E00080400000804020008040400080406000804080
310
008040A0008040C0008040E00080600000806020008060400080606000806080008060A0008060C0008060E00080800000808020008080400080806000808080008080A0008080C0008080E00080A0000080A0200080A0400080A0600080A0800080A0A00080A0C00080A0E00080C0000080C0200080C0400080C0600080C0
310
800080C0A00080C0C00080C0E00080E0000080E0200080E0400080E0600080E0800080E0A00080E0C00080E0E000C0000000C0002000C0004000C0006000C0008000C000A000C000C000C000E000C0200000C0202000C0204000C0206000C0208000C020A000C020C000C020E000C0400000C0402000C0404000C0406000C0
310
408000C040A000C040C000C040E000C0600000C0602000C0604000C0606000C0608000C060A000C060C000C060E000C0800000C0802000C0804000C0806000C0808000C080A000C080C000C080E000C0A00000C0A02000C0A04000C0A06000C0A08000C0A0A000C0A0C000C0A0E000C0C00000C0C02000C0C04000C0C06000
310
C0C08000C0C0A000F0FBFF00A4A0A000808080000000FF0000FF000000FFFF00FF000000FF00FF00FFFF0000FFFFFF0000000000000000000000000000000000000000000000000000000000000000000000000000000000000000000000000000000000000000000000000000000000000000000000000000000000000000
310
00000000000000000000000000000000000000000000000000000000000000000000000000000000000000000000000000000000000000000000000000000000000000000000000000000000000000000000000000000000000000000000000000000000000000000000000000000000000000000000000000000000000000
310
00000000000000000000000000000000000000000000000000000000000000000000000000000000000000000000000000000000000000000000000000000000000000000000000000000000000000000000000000000000000000000000000000000000000000000000000000000000000000000000000000000000000000
310
0000000000000000000000000000000000000000000000000000000000000000000000000000000000000000000000000000000000000000000000000000000000000000000000000000000000000000000000000000000000000000000000000000000000000000000000000000000000000000FFFFFFFFFFFFFFFFFFFFFF
310
FFFFFFFFFFFFFFFFFFFFFFFFFFFFFFFFFFFFFF0000FF00FFFFFF0000FFFF0000FFFFFF0000FFFFFF0000FFFFFF00FFFFFF00FF0000FFFFFFFFFF00FFFFFFFF00FFFFFF0000FFFFFF00FFFFFFFF00FFFFFFFFFF0000FFFFFFFFFFFFFFFFFFFFFFFFFFFFFFFFFFFFFFFFFFFFFFFFFFFFFFFFFFFF000000000000000000000000
310
00000000000000000000000000000000000000000000000000000000000000000000000000000000000000000000000000000000000000000000000000000000000000000000000000000000000000000000000000000000000000000000000000000000000000000000000000000000000000000000000000000000000000
310
00000000000000000000000000000000000000000000000000000000000000000000000000000000000000000000000000000000000000000000000000000000000000000000000000000000000000000000000000000000000000000000000000000000000000000000000000000000000000000000000000000000000000
310
00000000000000000000000000000000000000000000000000000000000000000000000000000000000000000000000000000000000000000000000000000000000000000000000000000000000000000000000000000000000000000000000000000000000000000000000000000000000000000000000000000000000000
310
0000000000000000000000000000000000000000000000000000000000000000000000000000000000000000000000000000000000000000
102
{BLKREFS
331
662
102
}
1001
ACAD
1000
DesignCenter Data
1002
{
1070
     1
1070
     4
1002
}
  0
BLOCK_RECORD
  5
663
330
1
100
AcDbSymbolTableRecord
100
AcDbBlockTableRecord
  2
2
340
0
310
2800000020000000200000000100080000000000000400000000000000000000000000000000000000000000000080000080000000808000800000008000800080800000C0C0C000C0DCC000F0CAA6000020400000206000002080000020A0000020C0000020E00000400000004020000040400000406000004080000040A0
310
000040C0000040E00000600000006020000060400000606000006080000060A0000060C0000060E00000800000008020000080400000806000008080000080A0000080C0000080E00000A0000000A0200000A0400000A0600000A0800000A0A00000A0C00000A0E00000C0000000C0200000C0400000C0600000C0800000C0
310
A00000C0C00000C0E00000E0000000E0200000E0400000E0600000E0800000E0A00000E0C00000E0E00040000000400020004000400040006000400080004000A0004000C0004000E00040200000402020004020400040206000402080004020A0004020C0004020E000404000004040200040404000404060004040800040
310
40A0004040C0004040E00040600000406020004060400040606000406080004060A0004060C0004060E00040800000408020004080400040806000408080004080A0004080C0004080E00040A0000040A0200040A0400040A0600040A0800040A0A00040A0C00040A0E00040C0000040C0200040C0400040C0600040C08000
310
40C0A00040C0C00040C0E00040E0000040E0200040E0400040E0600040E0800040E0A00040E0C00040E0E00080000000800020008000400080006000800080008000A0008000C0008000E00080200000802020008020400080206000802080008020A0008020C0008020E00080400000804020008040400080406000804080
310
008040A0008040C0008040E00080600000806020008060400080606000806080008060A0008060C0008060E00080800000808020008080400080806000808080008080A0008080C0008080E00080A0000080A0200080A0400080A0600080A0800080A0A00080A0C00080A0E00080C0000080C0200080C0400080C0600080C0
310
800080C0A00080C0C00080C0E00080E0000080E0200080E0400080E0600080E0800080E0A00080E0C00080E0E000C0000000C0002000C0004000C0006000C0008000C000A000C000C000C000E000C0200000C0202000C0204000C0206000C0208000C020A000C020C000C020E000C0400000C0402000C0404000C0406000C0
310
408000C040A000C040C000C040E000C0600000C0602000C0604000C0606000C0608000C060A000C060C000C060E000C0800000C0802000C0804000C0806000C0808000C080A000C080C000C080E000C0A00000C0A02000C0A04000C0A06000C0A08000C0A0A000C0A0C000C0A0E000C0C00000C0C02000C0C04000C0C06000
310
C0C08000C0C0A000F0FBFF00A4A0A000808080000000FF0000FF000000FFFF00FF000000FF00FF00FFFF0000FFFFFF000000000000000000000000000000000000000000000000000000000000000000000000000000000000000000FFFFFFFFFFFFFFFF000000000000000000000000000000000000000000000000FFFFFF
310
FFFFFFFFFF000000000000000000000000000000000000000000000000FF000000000000FF000000000000000000000000000000000000000000000000FF000000000000FF000000000000000000000000000000000000000000000000FF000000000000FF000000000000000000000000000000000000000000000000FF00
310
0000000000FF000000000000000000000000000000000000000000000000FF000000000000FF000000000000000000000000000000000000000000000000FF000000000000FF000000000000000000000000000000000000000000000000FF000000000000FF000000000000000000000000000000000000000000000000FF
310
000000000000FF000000000000000000000000000000000000000000000000FF000000000000FF000000000000000000000000000000000000000000000000FF000000000000FF000000000000000000000000000000000000000000000000FF000000000000FF000000000000000000000000000000000000000000000000
310
FF000000000000FF000000000000000000000000000000000000000000000000FF000000000000FF0000000000000000000000000000000000000000000000FFFFFFFFFFFFFFFFFFFF00000000000000000000000000000000000000000000FF0000000000000000FF00000000000000000000000000000000000000000000
310
FF0000000000000000FF00000000000000000000000000000000000000000000FF0000000000000000FF00000000000000000000000000000000000000000000FF0000000000000000FF00000000000000000000000000000000000000000000FFFFFFFFFFFFFFFFFFFF000000000000000000000000000000000000000000
310
00FFFFFFFFFFFFFFFFFFFF00000000000000000000000000000000000000000000FFA4A4A4A4A4A4A4A4FF00000000000000000000000000000000000000000000FF0000000000000000FF00000000000000000000000000000000000000000000FF0000000000000000FF0000000000000000000000000000000000000000
310
0000FF0000000000000000FF00000000000000000000000000000000000000000000FF0000000000000000FF00000000000000000000000000000000000000000000FF0000000000000000FF00000000000000000000000000000000000000000000FF0000000000000000FF00000000000000000000000000000000000000
310
000000FFFFFFFFFFFFFFFFFFFF00000000000000000000000000000000000000000000000000000000000000000000000000000000000000
102
{BLKREFS
331
684
102
}
1001
ACAD
1000
DesignCenter Data
1002
{
1070
     1
1070
     4
1002
}
  0
BLOCK_RECORD
  5
685
330
1
100
AcDbSymbolTableRecord
100
AcDbBlockTableRecord
  2
4
340
0
310
2800000020000000200000000100080000000000000400000000000000000000000000000000000000000000000080000080000000808000800000008000800080800000C0C0C000C0DCC000F0CAA6000020400000206000002080000020A0000020C0000020E00000400000004020000040400000406000004080000040A0
310
000040C0000040E00000600000006020000060400000606000006080000060A0000060C0000060E00000800000008020000080400000806000008080000080A0000080C0000080E00000A0000000A0200000A0400000A0600000A0800000A0A00000A0C00000A0E00000C0000000C0200000C0400000C0600000C0800000C0
310
A00000C0C00000C0E00000E0000000E0200000E0400000E0600000E0800000E0A00000E0C00000E0E00040000000400020004000400040006000400080004000A0004000C0004000E00040200000402020004020400040206000402080004020A0004020C0004020E000404000004040200040404000404060004040800040
310
40A0004040C0004040E00040600000406020004060400040606000406080004060A0004060C0004060E00040800000408020004080400040806000408080004080A0004080C0004080E00040A0000040A0200040A0400040A0600040A0800040A0A00040A0C00040A0E00040C0000040C0200040C0400040C0600040C08000
310
40C0A00040C0C00040C0E00040E0000040E0200040E0400040E0600040E0800040E0A00040E0C00040E0E00080000000800020008000400080006000800080008000A0008000C0008000E00080200000802020008020400080206000802080008020A0008020C0008020E00080400000804020008040400080406000804080
310
008040A0008040C0008040E00080600000806020008060400080606000806080008060A0008060C0008060E00080800000808020008080400080806000808080008080A0008080C0008080E00080A0000080A0200080A0400080A0600080A0800080A0A00080A0C00080A0E00080C0000080C0200080C0400080C0600080C0
310
800080C0A00080C0C00080C0E00080E0000080E0200080E0400080E0600080E0800080E0A00080E0C00080E0E000C0000000C0002000C0004000C0006000C0008000C000A000C000C000C000E000C0200000C0202000C0204000C0206000C0208000C020A000C020C000C020E000C0400000C0402000C0404000C0406000C0
310
408000C040A000C040C000C040E000C0600000C0602000C0604000C0606000C0608000C060A000C060C000C060E000C0800000C0802000C0804000C0806000C0808000C080A000C080C000C080E000C0A00000C0A02000C0A04000C0A06000C0A08000C0A0A000C0A0C000C0A0E000C0C00000C0C02000C0C04000C0C06000
310
C0C08000C0C0A000F0FBFF00A4A0A000808080000000FF0000FF000000FFFF00FF000000FF00FF00FFFF0000FFFFFF0000000000000000000000000000000000000000000000000000000000000000000000000000000000000000000000000000000000000000000000000000000000000000000000000000000000000000
310
00000000000000000000000000000000000000000000000000000000000000000000000000000000000000000000000000000000000000000000000000000000000000000000000000000000000000000000000000000000000000000000000000000000000000000000FFFFFFFF0000000000000000000000000000000000
310
0000000000000000000000FF0000FF0000000000000000000000000000000000000000000000FFFFFFFF00FF0000FF0000000000000000000000000000000000000000000000FF0000FF00FF0000FF00000000000000000000000000000000000000FFFFFFFFFF0000FF00FFFFFFFF00000000000000000000000000000000
310
000000FF0000FFFF0000FFFFFFFFFF00FFFF00000000000000000000000000FFFFFFFFFF0000FFFF00FFFFFF00FFFFFF00FF00000000000000000000000000FF0000FFFF0000FFFFFFFF00FFFFFFFFFFFFFF000000000000000000FFFFFF00FF0000FFFF00FFFFFF00FFFF00FF0000FF00000000000000000000FFFF00FF00
310
FF0000FFFFFFFF00FFFFFFFFFFFFFFFFFF000000000000FFFFFFFFFF0000FF00FFFFFFFF00FFFFFFFF000000FFFFFFFFFF000000000000FF0000FFFF0000FF00FFFF00FFFFFFFFFFFFFFFFFFFFFFFFFFFF000000000000FF0000FFFF0000FFFF00FFFF00FF0000FFFFFFFFFFFF00000000000000000000FF0000FFFF00FFFF
310
FFFFFFFFFFFFFFFFFF00FFFFFF0000000000000000000000FF0000FFFFFFFFFF00FF0000FFFFFFFFFF000000000000000000000000000000FFFFFFFFFFFFFFFFFFFFFFFFFFFFFFFFFF00000000000000000000000000FFFFFF00FFFFFFFF0000FFFFFFFFFF0000000000000000000000000000000000FFFFFFFFFFFFFF00FF
310
00FFFFFFFFFF0000000000000000000000000000000000FFFFFF0000FFFFFFFFFFFF00000000000000000000000000000000000000000000FFFF0000FFFFFFFFFFFF0000000000000000000000000000000000000000000000FFFFFFFF00000000000000000000000000000000000000000000000000000000FFFFFFFF0000
310
00000000000000000000000000000000000000000000000000000000000000000000000000000000000000000000000000000000000000000000000000000000000000000000000000000000000000000000000000000000000000000000000000000000000000000000000000000000000000000000000000000000000000
310
0000000000000000000000000000000000000000000000000000000000000000000000000000000000000000000000000000000000000000
102
{BLKREFS
331
715
102
}
1001
ACAD
1000
DesignCenter Data
1002
{
1070
     1
1070
     4
1002
}
  0
ENDTAB
  0
ENDSEC
  0
SECTION
  2
BLOCKS
  0
BLOCK
  5
20
330
1F
100
AcDbEntity
  8
0
100
AcDbBlockBegin
  2
*Model_Space
 70
     0
 10
0.0
 20
0.0
 30
0.0
  3
*Model_Space
  1

  0
ENDBLK
  5
21
330
1F
100
AcDbEntity
  8
0
100
AcDbBlockEnd
  0
BLOCK
  5
D4
330
D2
100
AcDbEntity
 67
     1
  8
0
100
AcDbBlockBegin
  2
*Paper_Space
 70
     0
 10
0.0
 20
0.0
 30
0.0
  3
*Paper_Space
  1

  0
ENDBLK
  5
D5
330
D2
100
AcDbEntity
 67
     1
  8
0
100
AcDbBlockEnd
  0
BLOCK
  5
D8
330
D6
100
AcDbEntity
 67
     1
  8
0
100
AcDbBlockBegin
  2
*Paper_Space0
 70
     0
 10
0.0
 20
0.0
 30
0.0
  3
*Paper_Space0
  1

  0
ENDBLK
  5
D9
330
D6
100
AcDbEntity
 67
     1
  8
0
100
AcDbBlockEnd
  0
BLOCK
  5
540
330
53F
100
AcDbEntity
  8
0
100
AcDbBlockBegin
  2
1
 70
     0
 10
0.0
 20
0.0
 30
0.0
  3
1
  1

  0
ARC
  5
542
330
53F
100
AcDbEntity
  8
0
  6
Continuous
 62
     7
370
    15
100
AcDbCircle
 10
2062.742417101198
 20
1016.643707238123
 30
0.0
 40
0.200000000000017
100
AcDbArc
 50
180.0
 51
270.0
  0
ARC
  5
543
330
53F
100
AcDbEntity
  8
0
  6
Continuous
 62
     7
370
    15
100
AcDbCircle
 10
2069.192417101199
 20
1016.643707238123
 30
0.0
 40
0.1999999999999886
100
AcDbArc
 50
270.0
 51
0.0
  0
ARC
  5
544
330
53F
100
AcDbEntity
  8
0
  6
Continuous
 62
     7
370
    15
100
AcDbCircle
 10
2002.742417101199
 20
1016.643707238123
 30
0.0
 40
0.200000000000017
100
AcDbArc
 50
180.0
 51
270.0
  0
ARC
  5
545
330
53F
100
AcDbEntity
  8
0
  6
Continuous
 62
     7
370
    15
100
AcDbCircle
 10
2009.192417101199
 20
1016.643707238123
 30
0.0
 40
0.1999999999999886
100
AcDbArc
 50
270.0
 51
0.0
  0
ARC
  5
546
330
53F
100
AcDbEntity
  8
0
  6
Continuous
 62
     7
370
    15
100
AcDbCircle
 10
2014.742417101198
 20
1016.643707238123
 30
0.0
 40
0.1999999999999886
100
AcDbArc
 50
180.0
 51
270.0
  0
ARC
  5
547
330
53F
100
AcDbEntity
  8
0
  6
Continuous
 62
     7
370
    15
100
AcDbCircle
 10
2021.192417101199
 20
1016.643707238123
 30
0.0
 40
0.1999999999999886
100
AcDbArc
 50
270.0
 51
0.0
  0
ARC
  5
548
330
53F
100
AcDbEntity
  8
0
  6
Continuous
 62
     7
370
    15
100
AcDbCircle
 10
2026.742417101199
 20
1016.643707238123
 30
0.0
 40
0.200000000000017
100
AcDbArc
 50
180.0
 51
270.0
  0
ARC
  5
549
330
53F
100
AcDbEntity
  8
0
  6
Continuous
 62
     7
370
    15
100
AcDbCircle
 10
2033.192417101199
 20
1016.643707238123
 30
0.0
 40
0.1999999999999886
100
AcDbArc
 50
270.0
 51
0.0
  0
ARC
  5
54A
330
53F
100
AcDbEntity
  8
0
  6
Continuous
 62
     7
370
    15
100
AcDbCircle
 10
2038.742417101198
 20
1016.643707238123
 30
0.0
 40
0.1999999999999886
100
AcDbArc
 50
180.0
 51
270.0
  0
ARC
  5
54B
330
53F
100
AcDbEntity
  8
0
  6
Continuous
 62
     7
370
    15
100
AcDbCircle
 10
2045.192417101199
 20
1016.643707238123
 30
0.0
 40
0.200000000000017
100
AcDbArc
 50
270.0
 51
0.0
  0
ARC
  5
54C
330
53F
100
AcDbEntity
  8
0
  6
Continuous
 62
     7
370
    15
100
AcDbCircle
 10
2050.742417101199
 20
1016.643707238123
 30
0.0
 40
0.1999999999999886
100
AcDbArc
 50
180.0
 51
270.0
  0
ARC
  5
54D
330
53F
100
AcDbEntity
  8
0
  6
Continuous
 62
     7
370
    15
100
AcDbCircle
 10
2057.192417101199
 20
1016.643707238123
 30
0.0
 40
0.200000000000017
100
AcDbArc
 50
270.0
 51
0.0
  0
LINE
  5
54E
330
53F
100
AcDbEntity
  8
0
  6
Continuous
 62
     7
370
    15
100
AcDbLine
 10
2009.392417101199
 20
1016.643707238123
 30
0.0
 11
2009.392417101199
 21
1021.843707238123
 31
0.0
  0
LINE
  5
54F
330
53F
100
AcDbEntity
  8
0
  6
Continuous
 62
     7
370
    15
100
AcDbLine
 10
2002.542417101199
 20
1021.843707238123
 30
0.0
 11
2002.542417101199
 21
1016.643707238123
 31
0.0
  0
LINE
  5
550
330
53F
100
AcDbEntity
  8
0
  6
Continuous
 62
     7
370
    15
100
AcDbLine
 10
2021.392417101198
 20
1016.643707238123
 30
0.0
 11
2021.392417101198
 21
1021.843707238123
 31
0.0
  0
LINE
  5
551
330
53F
100
AcDbEntity
  8
0
  6
Continuous
 62
     7
370
    15
100
AcDbLine
 10
2014.542417101199
 20
1021.843707238123
 30
0.0
 11
2014.542417101199
 21
1016.643707238123
 31
0.0
  0
LINE
  5
552
330
53F
100
AcDbEntity
  8
0
  6
Continuous
 62
     7
370
    15
100
AcDbLine
 10
2033.392417101199
 20
1016.643707238123
 30
0.0
 11
2033.392417101199
 21
1021.843707238123
 31
0.0
  0
LINE
  5
553
330
53F
100
AcDbEntity
  8
0
  6
Continuous
 62
     7
370
    15
100
AcDbLine
 10
2026.542417101198
 20
1021.843707238123
 30
0.0
 11
2026.542417101198
 21
1016.643707238123
 31
0.0
  0
LINE
  5
554
330
53F
100
AcDbEntity
  8
0
  6
Continuous
 62
     7
370
    15
100
AcDbLine
 10
2045.392417101199
 20
1016.643707238123
 30
0.0
 11
2045.392417101199
 21
1021.843707238123
 31
0.0
  0
LINE
  5
555
330
53F
100
AcDbEntity
  8
0
  6
Continuous
 62
     7
370
    15
100
AcDbLine
 10
2038.542417101199
 20
1021.843707238123
 30
0.0
 11
2038.542417101199
 21
1016.643707238123
 31
0.0
  0
LINE
  5
556
330
53F
100
AcDbEntity
  8
0
  6
Continuous
 62
     7
370
    15
100
AcDbLine
 10
2057.392417101199
 20
1016.643707238123
 30
0.0
 11
2057.392417101199
 21
1021.843707238123
 31
0.0
  0
LINE
  5
557
330
53F
100
AcDbEntity
  8
0
  6
Continuous
 62
     7
370
    15
100
AcDbLine
 10
2050.542417101199
 20
1021.843707238123
 30
0.0
 11
2050.542417101199
 21
1016.643707238123
 31
0.0
  0
LINE
  5
558
330
53F
100
AcDbEntity
  8
0
  6
Continuous
 62
     7
370
    15
100
AcDbLine
 10
2069.392417101199
 20
1016.643707238123
 30
0.0
 11
2069.392417101199
 21
1021.843707238123
 31
0.0
  0
LINE
  5
559
330
53F
100
AcDbEntity
  8
0
  6
Continuous
 62
     7
370
    15
100
AcDbLine
 10
2062.542417101199
 20
1021.843707238123
 30
0.0
 11
2062.542417101199
 21
1016.643707238123
 31
0.0
  0
LINE
  5
55A
330
53F
100
AcDbEntity
  8
0
  6
Continuous
 62
     7
370
    15
100
AcDbLine
 10
2008.967417101199
 20
1015.543707238123
 30
0.0
 11
2008.967417101199
 21
1016.443707238123
 31
0.0
  0
LINE
  5
55B
330
53F
100
AcDbEntity
  8
0
  6
Continuous
 62
     7
370
    15
100
AcDbLine
 10
2002.967417101199
 20
1016.443707238123
 30
0.0
 11
2002.967417101199
 21
1015.543707238123
 31
0.0
  0
LINE
  5
55C
330
53F
100
AcDbEntity
  8
0
  6
Continuous
 62
     7
370
    15
100
AcDbLine
 10
2002.905739494698
 20
1000.843707238042
 30
0.0
 11
2003.105739494573
 21
1000.643707238167
 31
0.0
  0
LINE
  5
55D
330
53F
100
AcDbEntity
  8
0
  6
Continuous
 62
     7
370
    15
100
AcDbLine
 10
2008.705739494645
 20
1000.643707238167
 30
0.0
 11
2008.905739494521
 21
1000.843707238042
 31
0.0
  0
LINE
  5
55E
330
53F
100
AcDbEntity
  8
0
  6
Continuous
 62
     7
370
    15
100
AcDbLine
 10
2008.905739494609
 20
1000.843707238042
 30
0.0
 11
2008.905739494609
 21
1011.543707238045
 31
0.0
  0
LINE
  5
55F
330
53F
100
AcDbEntity
  8
0
  6
Continuous
 62
     7
370
    15
100
AcDbLine
 10
2002.905739494609
 20
1011.543707238045
 30
0.0
 11
2002.905739494609
 21
1000.843707238042
 31
0.0
  0
LINE
  5
560
330
53F
100
AcDbEntity
  8
0
  6
Continuous
 62
     7
370
    15
100
AcDbLine
 10
2020.967417101199
 20
1015.543707238123
 30
0.0
 11
2020.967417101199
 21
1016.443707238123
 31
0.0
  0
LINE
  5
561
330
53F
100
AcDbEntity
  8
0
  6
Continuous
 62
     7
370
    15
100
AcDbLine
 10
2014.967417101199
 20
1016.443707238123
 30
0.0
 11
2014.967417101199
 21
1015.543707238123
 31
0.0
  0
LINE
  5
562
330
53F
100
AcDbEntity
  8
0
  6
Continuous
 62
     7
370
    15
100
AcDbLine
 10
2020.905739494609
 20
1000.843707238042
 30
0.0
 11
2020.905739494609
 21
1011.543707238045
 31
0.0
  0
LINE
  5
563
330
53F
100
AcDbEntity
  8
0
  6
Continuous
 62
     7
370
    15
100
AcDbLine
 10
2014.90573949461
 20
1011.543707238045
 30
0.0
 11
2014.90573949461
 21
1000.843707238042
 31
0.0
  0
LINE
  5
564
330
53F
100
AcDbEntity
  8
0
  6
Continuous
 62
     7
370
    15
100
AcDbLine
 10
2014.905739494698
 20
1000.843707238042
 30
0.0
 11
2015.105739494574
 21
1000.643707238167
 31
0.0
  0
LINE
  5
565
330
53F
100
AcDbEntity
  8
0
  6
Continuous
 62
     7
370
    15
100
AcDbLine
 10
2020.705739494646
 20
1000.643707238167
 30
0.0
 11
2020.905739494521
 21
1000.843707238042
 31
0.0
  0
LINE
  5
566
330
53F
100
AcDbEntity
  8
0
  6
Continuous
 62
     7
370
    15
100
AcDbLine
 10
2026.905739494698
 20
1000.843707238042
 30
0.0
 11
2027.105739494573
 21
1000.643707238167
 31
0.0
  0
LINE
  5
567
330
53F
100
AcDbEntity
  8
0
  6
Continuous
 62
     7
370
    15
100
AcDbLine
 10
2032.705739494645
 20
1000.643707238167
 30
0.0
 11
2032.905739494522
 21
1000.843707238042
 31
0.0
  0
LINE
  5
568
330
53F
100
AcDbEntity
  8
0
  6
Continuous
 62
     7
370
    15
100
AcDbLine
 10
2032.967417101199
 20
1015.543707238123
 30
0.0
 11
2032.967417101199
 21
1016.443707238123
 31
0.0
  0
LINE
  5
569
330
53F
100
AcDbEntity
  8
0
  6
Continuous
 62
     7
370
    15
100
AcDbLine
 10
2026.967417101198
 20
1016.443707238123
 30
0.0
 11
2026.967417101198
 21
1015.543707238123
 31
0.0
  0
LINE
  5
56A
330
53F
100
AcDbEntity
  8
0
  6
Continuous
 62
     7
370
    15
100
AcDbLine
 10
2032.905739494609
 20
1000.843707238042
 30
0.0
 11
2032.905739494609
 21
1011.543707238045
 31
0.0
  0
LINE
  5
56B
330
53F
100
AcDbEntity
  8
0
  6
Continuous
 62
     7
370
    15
100
AcDbLine
 10
2026.90573949461
 20
1011.543707238045
 30
0.0
 11
2026.90573949461
 21
1000.843707238042
 31
0.0
  0
LINE
  5
56C
330
53F
100
AcDbEntity
  8
0
  6
Continuous
 62
     7
370
    15
100
AcDbLine
 10
2044.967417101199
 20
1015.543707238123
 30
0.0
 11
2044.967417101199
 21
1016.443707238123
 31
0.0
  0
LINE
  5
56D
330
53F
100
AcDbEntity
  8
0
  6
Continuous
 62
     7
370
    15
100
AcDbLine
 10
2038.967417101199
 20
1016.443707238123
 30
0.0
 11
2038.967417101199
 21
1015.543707238123
 31
0.0
  0
LINE
  5
56E
330
53F
100
AcDbEntity
  8
0
  6
Continuous
 62
     7
370
    15
100
AcDbLine
 10
2038.905739494698
 20
1000.843707238042
 30
0.0
 11
2039.105739494573
 21
1000.643707238167
 31
0.0
  0
LINE
  5
56F
330
53F
100
AcDbEntity
  8
0
  6
Continuous
 62
     7
370
    15
100
AcDbLine
 10
2044.705739494645
 20
1000.643707238167
 30
0.0
 11
2044.905739494521
 21
1000.843707238042
 31
0.0
  0
LINE
  5
570
330
53F
100
AcDbEntity
  8
0
  6
Continuous
 62
     7
370
    15
100
AcDbLine
 10
2044.905739494609
 20
1000.843707238042
 30
0.0
 11
2044.905739494609
 21
1011.543707238045
 31
0.0
  0
LINE
  5
571
330
53F
100
AcDbEntity
  8
0
  6
Continuous
 62
     7
370
    15
100
AcDbLine
 10
2038.905739494609
 20
1011.543707238045
 30
0.0
 11
2038.905739494609
 21
1000.843707238042
 31
0.0
  0
LINE
  5
572
330
53F
100
AcDbEntity
  8
0
  6
Continuous
 62
     7
370
    15
100
AcDbLine
 10
2050.905739494698
 20
1000.843707238042
 30
0.0
 11
2051.105739494573
 21
1000.643707238167
 31
0.0
  0
LINE
  5
573
330
53F
100
AcDbEntity
  8
0
  6
Continuous
 62
     7
370
    15
100
AcDbLine
 10
2056.705739494645
 20
1000.643707238167
 30
0.0
 11
2056.905739494521
 21
1000.843707238042
 31
0.0
  0
LINE
  5
574
330
53F
100
AcDbEntity
  8
0
  6
Continuous
 62
     7
370
    15
100
AcDbLine
 10
2056.967417101199
 20
1015.543707238123
 30
0.0
 11
2056.967417101199
 21
1016.443707238123
 31
0.0
  0
LINE
  5
575
330
53F
100
AcDbEntity
  8
0
  6
Continuous
 62
     7
370
    15
100
AcDbLine
 10
2050.967417101198
 20
1016.443707238123
 30
0.0
 11
2050.967417101198
 21
1015.543707238123
 31
0.0
  0
LINE
  5
576
330
53F
100
AcDbEntity
  8
0
  6
Continuous
 62
     7
370
    15
100
AcDbLine
 10
2056.905739494609
 20
1000.843707238042
 30
0.0
 11
2056.905739494609
 21
1011.543707238045
 31
0.0
  0
LINE
  5
577
330
53F
100
AcDbEntity
  8
0
  6
Continuous
 62
     7
370
    15
100
AcDbLine
 10
2050.905739494609
 20
1011.543707238045
 30
0.0
 11
2050.905739494609
 21
1000.843707238042
 31
0.0
  0
LINE
  5
578
330
53F
100
AcDbEntity
  8
0
  6
Continuous
 62
     7
370
    15
100
AcDbLine
 10
2062.905739494698
 20
1000.843707238042
 30
0.0
 11
2063.105739494574
 21
1000.643707238167
 31
0.0
  0
LINE
  5
579
330
53F
100
AcDbEntity
  8
0
  6
Continuous
 62
     7
370
    15
100
AcDbLine
 10
2068.705739494646
 20
1000.643707238167
 30
0.0
 11
2068.905739494521
 21
1000.843707238042
 31
0.0
  0
LINE
  5
57A
330
53F
100
AcDbEntity
  8
0
  6
Continuous
 62
     7
370
    15
100
AcDbLine
 10
2068.905739494609
 20
1000.843707238042
 30
0.0
 11
2068.905739494609
 21
1011.543707238045
 31
0.0
  0
LINE
  5
57B
330
53F
100
AcDbEntity
  8
0
  6
Continuous
 62
     7
370
    15
100
AcDbLine
 10
2062.90573949461
 20
1011.543707238045
 30
0.0
 11
2062.90573949461
 21
1000.843707238042
 31
0.0
  0
LINE
  5
57C
330
53F
100
AcDbEntity
  8
0
  6
Continuous
 62
     7
370
    15
100
AcDbLine
 10
2068.967417101198
 20
1015.543707238123
 30
0.0
 11
2068.967417101198
 21
1016.443707238123
 31
0.0
  0
LINE
  5
57D
330
53F
100
AcDbEntity
  8
0
  6
Continuous
 62
     7
370
    15
100
AcDbLine
 10
2062.967417101198
 20
1016.443707238123
 30
0.0
 11
2062.967417101198
 21
1015.543707238123
 31
0.0
  0
LINE
  5
57E
330
53F
100
AcDbEntity
  8
0
  6
Continuous
 62
     7
370
    15
100
AcDbLine
 10
2008.905739494602
 20
1011.543707238045
 30
0.0
 11
2008.805739494513
 21
1011.643707238134
 31
0.0
  0
LINE
  5
57F
330
53F
100
AcDbEntity
  8
0
  6
Continuous
 62
     7
370
    15
100
AcDbLine
 10
2003.005739494706
 20
1011.643707238134
 30
0.0
 11
2002.905739494618
 21
1011.543707238045
 31
0.0
  0
LINE
  5
580
330
53F
100
AcDbEntity
  8
0
  6
Continuous
 62
     7
370
    15
100
AcDbLine
 10
2020.905739494602
 20
1011.543707238045
 30
0.0
 11
2020.805739494513
 21
1011.643707238134
 31
0.0
  0
LINE
  5
581
330
53F
100
AcDbEntity
  8
0
  6
Continuous
 62
     7
370
    15
100
AcDbLine
 10
2015.005739494706
 20
1011.643707238134
 30
0.0
 11
2014.905739494617
 21
1011.543707238045
 31
0.0
  0
LINE
  5
582
330
53F
100
AcDbEntity
  8
0
  6
Continuous
 62
     7
370
    15
100
AcDbLine
 10
2032.905739494601
 20
1011.543707238045
 30
0.0
 11
2032.805739494513
 21
1011.643707238134
 31
0.0
  0
LINE
  5
583
330
53F
100
AcDbEntity
  8
0
  6
Continuous
 62
     7
370
    15
100
AcDbLine
 10
2027.005739494706
 20
1011.643707238134
 30
0.0
 11
2026.905739494617
 21
1011.543707238045
 31
0.0
  0
LINE
  5
584
330
53F
100
AcDbEntity
  8
0
  6
Continuous
 62
     7
370
    15
100
AcDbLine
 10
2044.905739494602
 20
1011.543707238045
 30
0.0
 11
2044.805739494513
 21
1011.643707238134
 31
0.0
  0
LINE
  5
585
330
53F
100
AcDbEntity
  8
0
  6
Continuous
 62
     7
370
    15
100
AcDbLine
 10
2039.005739494706
 20
1011.643707238134
 30
0.0
 11
2038.905739494618
 21
1011.543707238045
 31
0.0
  0
LINE
  5
586
330
53F
100
AcDbEntity
  8
0
  6
Continuous
 62
     7
370
    15
100
AcDbLine
 10
2056.905739494602
 20
1011.543707238045
 30
0.0
 11
2056.805739494524
 21
1011.643707238123
 31
0.0
  0
LINE
  5
587
330
53F
100
AcDbEntity
  8
0
  6
Continuous
 62
     7
370
    15
100
AcDbLine
 10
2051.005739494695
 20
1011.643707238123
 30
0.0
 11
2050.905739494618
 21
1011.543707238045
 31
0.0
  0
LINE
  5
588
330
53F
100
AcDbEntity
  8
0
  6
Continuous
 62
     7
370
    15
100
AcDbLine
 10
2068.905739494601
 20
1011.543707238045
 30
0.0
 11
2068.805739494512
 21
1011.643707238134
 31
0.0
  0
LINE
  5
589
330
53F
100
AcDbEntity
  8
0
  6
Continuous
 62
     7
370
    15
100
AcDbLine
 10
2063.005739494706
 20
1011.643707238134
 30
0.0
 11
2062.905739494618
 21
1011.543707238045
 31
0.0
  0
LINE
  5
58A
330
53F
100
AcDbEntity
  8
0
  6
Continuous
 62
     7
370
    15
100
AcDbLine
 10
2002.520316870569
 20
1015.543707238123
 30
0.0
 11
2002.520316870569
 21
1011.643707238123
 31
0.0
  0
LINE
  5
58B
330
53F
100
AcDbEntity
  8
0
  6
Continuous
 62
     7
370
    15
100
AcDbLine
 10
2009.414517331828
 20
1015.543707238123
 30
0.0
 11
2002.520316870569
 21
1015.543707238123
 31
0.0
  0
LINE
  5
58C
330
53F
100
AcDbEntity
  8
0
  6
Continuous
 62
     7
370
    15
100
AcDbLine
 10
2009.414517331828
 20
1011.643707238123
 30
0.0
 11
2009.414517331828
 21
1015.543707238123
 31
0.0
  0
LINE
  5
58D
330
53F
100
AcDbEntity
  8
0
  6
Continuous
 62
     7
370
    15
100
AcDbLine
 10
2009.414517331828
 20
1011.643707238123
 30
0.0
 11
2002.520316870569
 21
1011.643707238123
 31
0.0
  0
LINE
  5
58E
330
53F
100
AcDbEntity
  8
0
  6
Continuous
 62
     7
370
    15
100
AcDbLine
 10
2014.520316870569
 20
1015.543707238123
 30
0.0
 11
2014.520316870569
 21
1011.643707238123
 31
0.0
  0
LINE
  5
58F
330
53F
100
AcDbEntity
  8
0
  6
Continuous
 62
     7
370
    15
100
AcDbLine
 10
2021.414517331828
 20
1011.643707238123
 30
0.0
 11
2021.414517331828
 21
1015.543707238123
 31
0.0
  0
LINE
  5
590
330
53F
100
AcDbEntity
  8
0
  6
Continuous
 62
     7
370
    15
100
AcDbLine
 10
2021.414517331828
 20
1015.543707238123
 30
0.0
 11
2014.520316870569
 21
1015.543707238123
 31
0.0
  0
LINE
  5
591
330
53F
100
AcDbEntity
  8
0
  6
Continuous
 62
     7
370
    15
100
AcDbLine
 10
2021.414517331828
 20
1011.643707238123
 30
0.0
 11
2014.520316870569
 21
1011.643707238123
 31
0.0
  0
LINE
  5
592
330
53F
100
AcDbEntity
  8
0
  6
Continuous
 62
     7
370
    15
100
AcDbLine
 10
2026.520316870569
 20
1015.543707238123
 30
0.0
 11
2026.520316870569
 21
1011.643707238123
 31
0.0
  0
LINE
  5
593
330
53F
100
AcDbEntity
  8
0
  6
Continuous
 62
     7
370
    15
100
AcDbLine
 10
2033.414517331828
 20
1011.643707238123
 30
0.0
 11
2033.414517331828
 21
1015.543707238123
 31
0.0
  0
LINE
  5
594
330
53F
100
AcDbEntity
  8
0
  6
Continuous
 62
     7
370
    15
100
AcDbLine
 10
2033.414517331828
 20
1015.543707238123
 30
0.0
 11
2026.520316870569
 21
1015.543707238123
 31
0.0
  0
LINE
  5
595
330
53F
100
AcDbEntity
  8
0
  6
Continuous
 62
     7
370
    15
100
AcDbLine
 10
2033.414517331828
 20
1011.643707238123
 30
0.0
 11
2026.520316870569
 21
1011.643707238123
 31
0.0
  0
LINE
  5
596
330
53F
100
AcDbEntity
  8
0
  6
Continuous
 62
     7
370
    15
100
AcDbLine
 10
2038.520316870569
 20
1015.543707238123
 30
0.0
 11
2038.520316870569
 21
1011.643707238123
 31
0.0
  0
LINE
  5
597
330
53F
100
AcDbEntity
  8
0
  6
Continuous
 62
     7
370
    15
100
AcDbLine
 10
2045.414517331828
 20
1011.643707238123
 30
0.0
 11
2045.414517331828
 21
1015.543707238123
 31
0.0
  0
LINE
  5
598
330
53F
100
AcDbEntity
  8
0
  6
Continuous
 62
     7
370
    15
100
AcDbLine
 10
2045.414517331828
 20
1015.543707238123
 30
0.0
 11
2038.520316870569
 21
1015.543707238123
 31
0.0
  0
LINE
  5
599
330
53F
100
AcDbEntity
  8
0
  6
Continuous
 62
     7
370
    15
100
AcDbLine
 10
2045.414517331828
 20
1011.643707238123
 30
0.0
 11
2038.520316870569
 21
1011.643707238123
 31
0.0
  0
LINE
  5
59A
330
53F
100
AcDbEntity
  8
0
  6
Continuous
 62
     7
370
    15
100
AcDbLine
 10
2050.520316870569
 20
1015.543707238123
 30
0.0
 11
2050.520316870569
 21
1011.643707238123
 31
0.0
  0
LINE
  5
59B
330
53F
100
AcDbEntity
  8
0
  6
Continuous
 62
     7
370
    15
100
AcDbLine
 10
2057.414517331829
 20
1011.643707238123
 30
0.0
 11
2057.414517331829
 21
1015.543707238123
 31
0.0
  0
LINE
  5
59C
330
53F
100
AcDbEntity
  8
0
  6
Continuous
 62
     7
370
    15
100
AcDbLine
 10
2057.414517331829
 20
1015.543707238123
 30
0.0
 11
2050.520316870569
 21
1015.543707238123
 31
0.0
  0
LINE
  5
59D
330
53F
100
AcDbEntity
  8
0
  6
Continuous
 62
     7
370
    15
100
AcDbLine
 10
2057.414517331829
 20
1011.643707238123
 30
0.0
 11
2050.520316870569
 21
1011.643707238123
 31
0.0
  0
LINE
  5
59E
330
53F
100
AcDbEntity
  8
0
  6
Continuous
 62
     7
370
    15
100
AcDbLine
 10
2062.520316870569
 20
1015.543707238123
 30
0.0
 11
2062.520316870569
 21
1011.643707238123
 31
0.0
  0
LINE
  5
59F
330
53F
100
AcDbEntity
  8
0
  6
Continuous
 62
     7
370
    15
100
AcDbLine
 10
2069.414517331829
 20
1011.643707238123
 30
0.0
 11
2069.414517331829
 21
1015.543707238123
 31
0.0
  0
LINE
  5
5A0
330
53F
100
AcDbEntity
  8
0
  6
Continuous
 62
     7
370
    15
100
AcDbLine
 10
2069.414517331829
 20
1015.543707238123
 30
0.0
 11
2062.520316870569
 21
1015.543707238123
 31
0.0
  0
LINE
  5
5A1
330
53F
100
AcDbEntity
  8
0
  6
Continuous
 62
     7
370
    15
100
AcDbLine
 10
2069.414517331829
 20
1011.643707238123
 30
0.0
 11
2062.520316870569
 21
1011.643707238123
 31
0.0
  0
SPLINE
  5
5A2
330
53F
100
AcDbEntity
  8
0
  6
Continuous
 62
     7
370
    15
100
AcDbSpline
210
0.0
220
0.0
230
1.0
 70
    24
 71
     3
 72
    10
 73
     6
 74
     0
 42
0.0000000001
 43
0.0000000001
 40
0.0
 40
0.0
 40
0.0
 40
0.0
 40
0.5
 40
0.5
 40
1.0
 40
1.0
 40
1.0
 40
1.0
 10
2062.742417101198
 20
1016.443707238123
 30
0.0
 10
2062.742417101198
 20
1016.443707238123
 30
0.0
 10
2064.187491194197
 20
1016.443707238123
 30
0.0
 10
2067.747343008201
 20
1016.443707238123
 30
0.0
 10
2069.192417101199
 20
1016.443707238123
 30
0.0
 10
2069.192417101199
 20
1016.443707238123
 30
0.0
  0
SPLINE
  5
5A3
330
53F
100
AcDbEntity
  8
0
  6
Continuous
 62
     7
370
    15
100
AcDbSpline
210
0.0
220
0.0
230
1.0
 70
    24
 71
     3
 72
    10
 73
     6
 74
     0
 42
0.0000000001
 43
0.0000000001
 40
0.0
 40
0.0
 40
0.0
 40
0.0
 40
0.5
 40
0.5
 40
1.0
 40
1.0
 40
1.0
 40
1.0
 10
2002.742417101199
 20
1016.443707238123
 30
0.0
 10
2002.742417101199
 20
1016.443707238123
 30
0.0
 10
2004.187491194197
 20
1016.443707238123
 30
0.0
 10
2007.747343008201
 20
1016.443707238123
 30
0.0
 10
2009.192417101199
 20
1016.443707238123
 30
0.0
 10
2009.192417101199
 20
1016.443707238123
 30
0.0
  0
SPLINE
  5
5A4
330
53F
100
AcDbEntity
  8
0
  6
Continuous
 62
     7
370
    15
100
AcDbSpline
210
0.0
220
0.0
230
1.0
 70
    24
 71
     3
 72
    10
 73
     6
 74
     0
 42
0.0000000001
 43
0.0000000001
 40
0.0
 40
0.0
 40
0.0
 40
0.0
 40
0.5
 40
0.5
 40
1.0
 40
1.0
 40
1.0
 40
1.0
 10
2014.742417101198
 20
1016.443707238123
 30
0.0
 10
2014.742417101198
 20
1016.443707238123
 30
0.0
 10
2016.187491194196
 20
1016.443707238123
 30
0.0
 10
2019.747343008201
 20
1016.443707238123
 30
0.0
 10
2021.192417101199
 20
1016.443707238123
 30
0.0
 10
2021.192417101199
 20
1016.443707238123
 30
0.0
  0
SPLINE
  5
5A5
330
53F
100
AcDbEntity
  8
0
  6
Continuous
 62
     7
370
    15
100
AcDbSpline
210
0.0
220
0.0
230
1.0
 70
    24
 71
     3
 72
    10
 73
     6
 74
     0
 42
0.0000000001
 43
0.0000000001
 40
0.0
 40
0.0
 40
0.0
 40
0.0
 40
0.5
 40
0.5
 40
1.0
 40
1.0
 40
1.0
 40
1.0
 10
2026.742417101199
 20
1016.443707238123
 30
0.0
 10
2026.742417101199
 20
1016.443707238123
 30
0.0
 10
2028.187491194197
 20
1016.443707238123
 30
0.0
 10
2031.747343008201
 20
1016.443707238123
 30
0.0
 10
2033.192417101199
 20
1016.443707238123
 30
0.0
 10
2033.192417101199
 20
1016.443707238123
 30
0.0
  0
SPLINE
  5
5A6
330
53F
100
AcDbEntity
  8
0
  6
Continuous
 62
     7
370
    15
100
AcDbSpline
210
0.0
220
0.0
230
1.0
 70
    24
 71
     3
 72
    10
 73
     6
 74
     0
 42
0.0000000001
 43
0.0000000001
 40
0.0
 40
0.0
 40
0.0
 40
0.0
 40
0.5
 40
0.5
 40
1.0
 40
1.0
 40
1.0
 40
1.0
 10
2038.742417101198
 20
1016.443707238123
 30
0.0
 10
2038.742417101198
 20
1016.443707238123
 30
0.0
 10
2040.187491194197
 20
1016.443707238123
 30
0.0
 10
2043.747343008201
 20
1016.443707238123
 30
0.0
 10
2045.192417101199
 20
1016.443707238123
 30
0.0
 10
2045.192417101199
 20
1016.443707238123
 30
0.0
  0
SPLINE
  5
5A7
330
53F
100
AcDbEntity
  8
0
  6
Continuous
 62
     7
370
    15
100
AcDbSpline
210
0.0
220
0.0
230
1.0
 70
    24
 71
     3
 72
    10
 73
     6
 74
     0
 42
0.0000000001
 43
0.0000000001
 40
0.0
 40
0.0
 40
0.0
 40
0.0
 40
0.5
 40
0.5
 40
1.0
 40
1.0
 40
1.0
 40
1.0
 10
2050.742417101199
 20
1016.443707238123
 30
0.0
 10
2050.742417101199
 20
1016.443707238123
 30
0.0
 10
2052.187491194197
 20
1016.443707238123
 30
0.0
 10
2055.747343008201
 20
1016.443707238123
 30
0.0
 10
2057.192417101199
 20
1016.443707238123
 30
0.0
 10
2057.192417101199
 20
1016.443707238123
 30
0.0
  0
LINE
  5
5A8
330
53F
100
AcDbEntity
  8
0
  6
Continuous
 62
     7
370
    15
100
AcDbLine
 10
2009.392417101199
 20
1021.843707238123
 30
0.0
 11
2002.542417101199
 21
1021.843707238123
 31
0.0
  0
LINE
  5
5A9
330
53F
100
AcDbEntity
  8
0
  6
Continuous
 62
     7
370
    15
100
AcDbLine
 10
2021.392417101198
 20
1021.843707238123
 30
0.0
 11
2014.542417101199
 21
1021.843707238123
 31
0.0
  0
LINE
  5
5AA
330
53F
100
AcDbEntity
  8
0
  6
Continuous
 62
     7
370
    15
100
AcDbLine
 10
2033.392417101199
 20
1021.843707238123
 30
0.0
 11
2026.542417101198
 21
1021.843707238123
 31
0.0
  0
LINE
  5
5AB
330
53F
100
AcDbEntity
  8
0
  6
Continuous
 62
     7
370
    15
100
AcDbLine
 10
2045.392417101199
 20
1021.843707238123
 30
0.0
 11
2038.542417101199
 21
1021.843707238123
 31
0.0
  0
LINE
  5
5AC
330
53F
100
AcDbEntity
  8
0
  6
Continuous
 62
     7
370
    15
100
AcDbLine
 10
2057.392417101199
 20
1021.843707238123
 30
0.0
 11
2050.542417101199
 21
1021.843707238123
 31
0.0
  0
LINE
  5
5AD
330
53F
100
AcDbEntity
  8
0
  6
Continuous
 62
     7
370
    15
100
AcDbLine
 10
2069.392417101199
 20
1021.843707238123
 30
0.0
 11
2062.542417101199
 21
1021.843707238123
 31
0.0
  0
LINE
  5
5AE
330
53F
100
AcDbEntity
  8
0
  6
Continuous
 62
     7
370
    15
100
AcDbLine
 10
2000.267417101198
 20
1015.543707238123
 30
0.0
 11
2000.267417101198
 21
1011.643707238123
 31
0.0
  0
LINE
  5
5AF
330
53F
100
AcDbEntity
  8
0
  6
Continuous
 62
     7
370
    15
100
AcDbLine
 10
2000.267417101198
 20
1015.543707238123
 30
0.0
 11
2002.520316870569
 21
1015.543707238123
 31
0.0
  0
LINE
  5
5B0
330
53F
100
AcDbEntity
  8
0
  6
Continuous
 62
     7
370
    15
100
AcDbLine
 10
2002.520316870569
 20
1011.643707238123
 30
0.0
 11
2000.267417101198
 21
1011.643707238123
 31
0.0
  0
LINE
  5
5B1
330
53F
100
AcDbEntity
  8
0
  6
Continuous
 62
     7
370
    15
100
AcDbLine
 10
2009.414517331828
 20
1015.543707238123
 30
0.0
 11
2014.520316870569
 21
1015.543707238123
 31
0.0
  0
LINE
  5
5B2
330
53F
100
AcDbEntity
  8
0
  6
Continuous
 62
     7
370
    15
100
AcDbLine
 10
2014.520316870569
 20
1011.643707238123
 30
0.0
 11
2009.414517331828
 21
1011.643707238123
 31
0.0
  0
LINE
  5
5B3
330
53F
100
AcDbEntity
  8
0
  6
Continuous
 62
     7
370
    15
100
AcDbLine
 10
2021.414517331828
 20
1015.543707238123
 30
0.0
 11
2026.520316870569
 21
1015.543707238123
 31
0.0
  0
LINE
  5
5B4
330
53F
100
AcDbEntity
  8
0
  6
Continuous
 62
     7
370
    15
100
AcDbLine
 10
2026.520316870569
 20
1011.643707238123
 30
0.0
 11
2021.414517331828
 21
1011.643707238123
 31
0.0
  0
LINE
  5
5B5
330
53F
100
AcDbEntity
  8
0
  6
Continuous
 62
     7
370
    15
100
AcDbLine
 10
2033.414517331828
 20
1015.543707238123
 30
0.0
 11
2038.520316870569
 21
1015.543707238123
 31
0.0
  0
LINE
  5
5B6
330
53F
100
AcDbEntity
  8
0
  6
Continuous
 62
     7
370
    15
100
AcDbLine
 10
2038.520316870569
 20
1011.643707238123
 30
0.0
 11
2033.414517331828
 21
1011.643707238123
 31
0.0
  0
LINE
  5
5B7
330
53F
100
AcDbEntity
  8
0
  6
Continuous
 62
     7
370
    15
100
AcDbLine
 10
2045.414517331828
 20
1015.543707238123
 30
0.0
 11
2050.520316870569
 21
1015.543707238123
 31
0.0
  0
LINE
  5
5B8
330
53F
100
AcDbEntity
  8
0
  6
Continuous
 62
     7
370
    15
100
AcDbLine
 10
2050.520316870569
 20
1011.643707238123
 30
0.0
 11
2045.414517331828
 21
1011.643707238123
 31
0.0
  0
LINE
  5
5B9
330
53F
100
AcDbEntity
  8
0
  6
Continuous
 62
     7
370
    15
100
AcDbLine
 10
2057.414517331829
 20
1015.543707238123
 30
0.0
 11
2062.520316870569
 21
1015.543707238123
 31
0.0
  0
LINE
  5
5BA
330
53F
100
AcDbEntity
  8
0
  6
Continuous
 62
     7
370
    15
100
AcDbLine
 10
2062.520316870569
 20
1011.643707238123
 30
0.0
 11
2057.414517331829
 21
1011.643707238123
 31
0.0
  0
LINE
  5
5BB
330
53F
100
AcDbEntity
  8
0
  6
Continuous
 62
     7
370
    15
100
AcDbLine
 10
2071.667417101198
 20
1015.543707238123
 30
0.0
 11
2071.667417101198
 21
1011.643707238123
 31
0.0
  0
LINE
  5
5BC
330
53F
100
AcDbEntity
  8
0
  6
Continuous
 62
     7
370
    15
100
AcDbLine
 10
2069.414517331829
 20
1015.543707238123
 30
0.0
 11
2071.667417101198
 21
1015.543707238123
 31
0.0
  0
LINE
  5
5BD
330
53F
100
AcDbEntity
  8
0
  6
Continuous
 62
     7
370
    15
100
AcDbLine
 10
2071.667417101198
 20
1011.643707238123
 30
0.0
 11
2069.414517331829
 21
1011.643707238123
 31
0.0
  0
LINE
  5
5BE
330
53F
100
AcDbEntity
  8
0
  6
Continuous
 62
     7
370
    15
100
AcDbLine
 10
2002.905739494609
 20
1000.843707238042
 30
0.0
 11
2008.905739494609
 21
1000.843707238042
 31
0.0
  0
LINE
  5
5BF
330
53F
100
AcDbEntity
  8
0
  6
Continuous
 62
     7
370
    15
100
AcDbLine
 10
2005.905739494609
 20
1000.643707238167
 30
0.0
 11
2008.705739494645
 21
1000.643707238167
 31
0.0
  0
LINE
  5
5C0
330
53F
100
AcDbEntity
  8
0
  6
Continuous
 62
     7
370
    15
100
AcDbLine
 10
2003.105739494573
 20
1000.643707238167
 30
0.0
 11
2005.905739494609
 21
1000.643707238167
 31
0.0
  0
LINE
  5
5C1
330
53F
100
AcDbEntity
  8
0
  6
Continuous
 62
     7
370
    15
100
AcDbLine
 10
2002.905739494618
 20
1011.543707238045
 30
0.0
 11
2008.905739494602
 21
1011.543707238045
 31
0.0
  0
LINE
  5
5C2
330
53F
100
AcDbEntity
  8
0
  6
Continuous
 62
     7
370
    15
100
AcDbLine
 10
2014.905739494617
 20
1011.543707238045
 30
0.0
 11
2020.905739494602
 21
1011.543707238045
 31
0.0
  0
LINE
  5
5C3
330
53F
100
AcDbEntity
  8
0
  6
Continuous
 62
     7
370
    15
100
AcDbLine
 10
2014.90573949461
 20
1000.843707238042
 30
0.0
 11
2020.905739494609
 21
1000.843707238042
 31
0.0
  0
LINE
  5
5C4
330
53F
100
AcDbEntity
  8
0
  6
Continuous
 62
     7
370
    15
100
AcDbLine
 10
2017.90573949461
 20
1000.643707238167
 30
0.0
 11
2020.705739494646
 21
1000.643707238167
 31
0.0
  0
LINE
  5
5C5
330
53F
100
AcDbEntity
  8
0
  6
Continuous
 62
     7
370
    15
100
AcDbLine
 10
2015.105739494574
 20
1000.643707238167
 30
0.0
 11
2017.90573949461
 21
1000.643707238167
 31
0.0
  0
LINE
  5
5C6
330
53F
100
AcDbEntity
  8
0
  6
Continuous
 62
     7
370
    15
100
AcDbLine
 10
2026.90573949461
 20
1000.843707238042
 30
0.0
 11
2032.905739494609
 21
1000.843707238042
 31
0.0
  0
LINE
  5
5C7
330
53F
100
AcDbEntity
  8
0
  6
Continuous
 62
     7
370
    15
100
AcDbLine
 10
2029.905739494609
 20
1000.643707238167
 30
0.0
 11
2032.705739494645
 21
1000.643707238167
 31
0.0
  0
LINE
  5
5C8
330
53F
100
AcDbEntity
  8
0
  6
Continuous
 62
     7
370
    15
100
AcDbLine
 10
2027.105739494573
 20
1000.643707238167
 30
0.0
 11
2029.905739494609
 21
1000.643707238167
 31
0.0
  0
LINE
  5
5C9
330
53F
100
AcDbEntity
  8
0
  6
Continuous
 62
     7
370
    15
100
AcDbLine
 10
2026.905739494617
 20
1011.543707238045
 30
0.0
 11
2032.905739494601
 21
1011.543707238045
 31
0.0
  0
LINE
  5
5CA
330
53F
100
AcDbEntity
  8
0
  6
Continuous
 62
     7
370
    15
100
AcDbLine
 10
2038.905739494609
 20
1000.843707238042
 30
0.0
 11
2044.905739494609
 21
1000.843707238042
 31
0.0
  0
LINE
  5
5CB
330
53F
100
AcDbEntity
  8
0
  6
Continuous
 62
     7
370
    15
100
AcDbLine
 10
2041.905739494609
 20
1000.643707238167
 30
0.0
 11
2044.705739494645
 21
1000.643707238167
 31
0.0
  0
LINE
  5
5CC
330
53F
100
AcDbEntity
  8
0
  6
Continuous
 62
     7
370
    15
100
AcDbLine
 10
2039.105739494573
 20
1000.643707238167
 30
0.0
 11
2041.905739494609
 21
1000.643707238167
 31
0.0
  0
LINE
  5
5CD
330
53F
100
AcDbEntity
  8
0
  6
Continuous
 62
     7
370
    15
100
AcDbLine
 10
2038.905739494618
 20
1011.543707238045
 30
0.0
 11
2044.905739494602
 21
1011.543707238045
 31
0.0
  0
LINE
  5
5CE
330
53F
100
AcDbEntity
  8
0
  6
Continuous
 62
     7
370
    15
100
AcDbLine
 10
2050.905739494609
 20
1000.843707238042
 30
0.0
 11
2056.905739494609
 21
1000.843707238042
 31
0.0
  0
LINE
  5
5CF
330
53F
100
AcDbEntity
  8
0
  6
Continuous
 62
     7
370
    15
100
AcDbLine
 10
2053.905739494609
 20
1000.643707238167
 30
0.0
 11
2056.705739494645
 21
1000.643707238167
 31
0.0
  0
LINE
  5
5D0
330
53F
100
AcDbEntity
  8
0
  6
Continuous
 62
     7
370
    15
100
AcDbLine
 10
2051.105739494573
 20
1000.643707238167
 30
0.0
 11
2053.905739494609
 21
1000.643707238167
 31
0.0
  0
LINE
  5
5D1
330
53F
100
AcDbEntity
  8
0
  6
Continuous
 62
     7
370
    15
100
AcDbLine
 10
2050.905739494618
 20
1011.543707238045
 30
0.0
 11
2056.905739494602
 21
1011.543707238045
 31
0.0
  0
LINE
  5
5D2
330
53F
100
AcDbEntity
  8
0
  6
Continuous
 62
     7
370
    15
100
AcDbLine
 10
2062.90573949461
 20
1000.843707238042
 30
0.0
 11
2068.905739494609
 21
1000.843707238042
 31
0.0
  0
LINE
  5
5D3
330
53F
100
AcDbEntity
  8
0
  6
Continuous
 62
     7
370
    15
100
AcDbLine
 10
2065.90573949461
 20
1000.643707238167
 30
0.0
 11
2068.705739494646
 21
1000.643707238167
 31
0.0
  0
LINE
  5
5D4
330
53F
100
AcDbEntity
  8
0
  6
Continuous
 62
     7
370
    15
100
AcDbLine
 10
2063.105739494574
 20
1000.643707238167
 30
0.0
 11
2065.90573949461
 21
1000.643707238167
 31
0.0
  0
LINE
  5
5D5
330
53F
100
AcDbEntity
  8
0
  6
Continuous
 62
     7
370
    15
100
AcDbLine
 10
2062.905739494618
 20
1011.543707238045
 30
0.0
 11
2068.905739494601
 21
1011.543707238045
 31
0.0
  0
LINE
  5
5D6
330
53F
100
AcDbEntity
  8
0
  6
Continuous
 62
     8
370
    15
100
AcDbLine
 10
2069.392417101199
 20
1016.643707238123
 30
0.0
 11
2062.542417101199
 21
1016.643707238123
 31
0.0
  0
LINE
  5
5D7
330
53F
100
AcDbEntity
  8
0
  6
Continuous
 62
     8
370
    15
100
AcDbLine
 10
2009.392417101199
 20
1016.643707238123
 30
0.0
 11
2002.542417101199
 21
1016.643707238123
 31
0.0
  0
LINE
  5
5D8
330
53F
100
AcDbEntity
  8
0
  6
Continuous
 62
     8
370
    15
100
AcDbLine
 10
2021.392417101198
 20
1016.643707238123
 30
0.0
 11
2014.542417101199
 21
1016.643707238123
 31
0.0
  0
LINE
  5
5D9
330
53F
100
AcDbEntity
  8
0
  6
Continuous
 62
     8
370
    15
100
AcDbLine
 10
2033.392417101199
 20
1016.643707238123
 30
0.0
 11
2026.542417101198
 21
1016.643707238123
 31
0.0
  0
LINE
  5
5DA
330
53F
100
AcDbEntity
  8
0
  6
Continuous
 62
     8
370
    15
100
AcDbLine
 10
2045.392417101199
 20
1016.643707238123
 30
0.0
 11
2038.542417101199
 21
1016.643707238123
 31
0.0
  0
LINE
  5
5DB
330
53F
100
AcDbEntity
  8
0
  6
Continuous
 62
     8
370
    15
100
AcDbLine
 10
2057.392417101199
 20
1016.643707238123
 30
0.0
 11
2050.542417101199
 21
1016.643707238123
 31
0.0
  0
ENDBLK
  5
541
330
53F
100
AcDbEntity
  8
0
100
AcDbBlockEnd
  0
BLOCK
  5
5DE
330
5DD
100
AcDbEntity
  8
0
100
AcDbBlockBegin
  2
3
 70
     0
 10
0.0
 20
0.0
 30
0.0
  3
3
  1

  0
CIRCLE
  5
5E0
330
5DD
100
AcDbEntity
  8
0
  6
Continuous
 62
     7
370
    15
100
AcDbCircle
 10
2041.967417101199
 20
981.3620466485074
 30
0.0
 40
2.475000000010311
  0
ARC
  5
5E1
330
5DD
100
AcDbEntity
  8
0
  6
Continuous
 62
     7
370
    15
100
AcDbCircle
 10
2041.967417101199
 20
981.3620466485074
 30
0.0
 40
2.197439522057301
100
AcDbArc
 50
13.15214010487884
 51
166.8478598951401
  0
ARC
  5
5E2
330
5DD
100
AcDbEntity
  8
0
  6
Continuous
 62
     7
370
    15
100
AcDbCircle
 10
2041.967417101199
 20
981.3620466485074
 30
0.0
 40
2.145679479873102
100
AcDbArc
 50
166.5246847195768
 51
193.4753152804231
  0
ARC
  5
5E3
330
5DD
100
AcDbEntity
  8
0
  6
Continuous
 62
     7
370
    15
100
AcDbCircle
 10
2041.967417101199
 20
981.3620466485074
 30
0.0
 40
2.197439522057301
100
AcDbArc
 50
193.1521401048788
 51
346.8478598951402
  0
ARC
  5
5E4
330
5DD
100
AcDbEntity
  8
0
  6
Continuous
 62
     7
370
    15
100
AcDbCircle
 10
2041.967417101199
 20
981.3620466485074
 30
0.0
 40
2.145679479873102
100
AcDbArc
 50
346.5246847195768
 51
13.47531528042316
  0
CIRCLE
  5
5E5
330
5DD
100
AcDbEntity
  8
0
  6
Continuous
 62
     7
370
    15
100
AcDbCircle
 10
2017.967417101198
 20
981.3620466485074
 30
0.0
 40
2.475000000010282
  0
ARC
  5
5E6
330
5DD
100
AcDbEntity
  8
0
  6
Continuous
 62
     7
370
    15
100
AcDbCircle
 10
2017.967417101198
 20
981.3620466485074
 30
0.0
 40
2.197439522057329
100
AcDbArc
 50
13.15214010487884
 51
166.8478598951401
  0
ARC
  5
5E7
330
5DD
100
AcDbEntity
  8
0
  6
Continuous
 62
     7
370
    15
100
AcDbCircle
 10
2017.967417101198
 20
981.3620466485074
 30
0.0
 40
2.145679479873102
100
AcDbArc
 50
166.5246847195768
 51
193.4753152804231
  0
ARC
  5
5E8
330
5DD
100
AcDbEntity
  8
0
  6
Continuous
 62
     7
370
    15
100
AcDbCircle
 10
2017.967417101198
 20
981.3620466485074
 30
0.0
 40
2.197439522057301
100
AcDbArc
 50
193.1521401048788
 51
346.8478598951402
  0
ARC
  5
5E9
330
5DD
100
AcDbEntity
  8
0
  6
Continuous
 62
     7
370
    15
100
AcDbCircle
 10
2017.967417101198
 20
981.3620466485074
 30
0.0
 40
2.145679479873102
100
AcDbArc
 50
346.5246847195768
 51
13.47531528042316
  0
CIRCLE
  5
5EA
330
5DD
100
AcDbEntity
  8
0
  6
Continuous
 62
     7
370
    15
100
AcDbCircle
 10
2053.967417101199
 20
981.3620466485074
 30
0.0
 40
2.475000000010339
  0
ARC
  5
5EB
330
5DD
100
AcDbEntity
  8
0
  6
Continuous
 62
     7
370
    15
100
AcDbCircle
 10
2053.967417101199
 20
981.3620466485074
 30
0.0
 40
2.197439522057301
100
AcDbArc
 50
13.15214010487884
 51
166.8478598951401
  0
ARC
  5
5EC
330
5DD
100
AcDbEntity
  8
0
  6
Continuous
 62
     7
370
    15
100
AcDbCircle
 10
2053.967417101199
 20
981.3620466485074
 30
0.0
 40
2.145679479873075
100
AcDbArc
 50
166.5246847195768
 51
193.4753152804231
  0
ARC
  5
5ED
330
5DD
100
AcDbEntity
  8
0
  6
Continuous
 62
     7
370
    15
100
AcDbCircle
 10
2053.967417101199
 20
981.3620466485074
 30
0.0
 40
2.197439522057301
100
AcDbArc
 50
193.1521401048788
 51
346.8478598951402
  0
ARC
  5
5EE
330
5DD
100
AcDbEntity
  8
0
  6
Continuous
 62
     7
370
    15
100
AcDbCircle
 10
2053.967417101199
 20
981.3620466485074
 30
0.0
 40
2.145679479873075
100
AcDbArc
 50
346.5246847195768
 51
13.47531528042316
  0
CIRCLE
  5
5EF
330
5DD
100
AcDbEntity
  8
0
  6
Continuous
 62
     7
370
    15
100
AcDbCircle
 10
2053.967417101199
 20
981.3620466485074
 30
0.0
 40
3.424999999999982
  0
CIRCLE
  5
5F0
330
5DD
100
AcDbEntity
  8
0
  6
Continuous
 62
     7
370
    15
100
AcDbCircle
 10
2005.967417101199
 20
981.3620466485074
 30
0.0
 40
2.475000000010311
  0
CIRCLE
  5
5F1
330
5DD
100
AcDbEntity
  8
0
  6
Continuous
 62
     7
370
    15
100
AcDbCircle
 10
2005.967417101199
 20
981.3620466485074
 30
0.0
 40
3.425000000000011
  0
CIRCLE
  5
5F2
330
5DD
100
AcDbEntity
  8
0
  6
Continuous
 62
     7
370
    15
100
AcDbCircle
 10
2065.967417101199
 20
981.3620466485074
 30
0.0
 40
2.475000000010794
  0
ARC
  5
5F3
330
5DD
100
AcDbEntity
  8
0
  6
Continuous
 62
     7
370
    15
100
AcDbCircle
 10
2065.967417101199
 20
981.3620466485074
 30
0.0
 40
2.197439522057772
100
AcDbArc
 50
13.1521401048725
 51
166.8478598951401
  0
ARC
  5
5F4
330
5DD
100
AcDbEntity
  8
0
  6
Continuous
 62
     7
370
    15
100
AcDbCircle
 10
2065.967417101199
 20
981.3620466485074
 30
0.0
 40
2.145679479873544
100
AcDbArc
 50
166.5246847195768
 51
193.4753152804231
  0
ARC
  5
5F5
330
5DD
100
AcDbEntity
  8
0
  6
Continuous
 62
     7
370
    15
100
AcDbCircle
 10
2065.967417101199
 20
981.3620466485074
 30
0.0
 40
2.197439522057744
100
AcDbArc
 50
193.1521401048725
 51
346.8478598951402
  0
ARC
  5
5F6
330
5DD
100
AcDbEntity
  8
0
  6
Continuous
 62
     7
370
    15
100
AcDbCircle
 10
2065.967417101199
 20
981.3620466485074
 30
0.0
 40
2.145679479873544
100
AcDbArc
 50
346.5246847195768
 51
13.47531528042316
  0
CIRCLE
  5
5F7
330
5DD
100
AcDbEntity
  8
0
  6
Continuous
 62
     7
370
    15
100
AcDbCircle
 10
2029.967417101198
 20
981.3620466485074
 30
0.0
 40
2.475000000010311
  0
ARC
  5
5F8
330
5DD
100
AcDbEntity
  8
0
  6
Continuous
 62
     7
370
    15
100
AcDbCircle
 10
2029.967417101198
 20
981.3620466485074
 30
0.0
 40
2.197439522057301
100
AcDbArc
 50
13.15214010487884
 51
166.8478598951401
  0
ARC
  5
5F9
330
5DD
100
AcDbEntity
  8
0
  6
Continuous
 62
     7
370
    15
100
AcDbCircle
 10
2029.967417101198
 20
981.3620466485074
 30
0.0
 40
2.145679479873075
100
AcDbArc
 50
166.5246847195768
 51
193.4753152804231
  0
ARC
  5
5FA
330
5DD
100
AcDbEntity
  8
0
  6
Continuous
 62
     7
370
    15
100
AcDbCircle
 10
2029.967417101198
 20
981.3620466485074
 30
0.0
 40
2.197439522057329
100
AcDbArc
 50
193.1521401048788
 51
346.8478598951402
  0
ARC
  5
5FB
330
5DD
100
AcDbEntity
  8
0
  6
Continuous
 62
     7
370
    15
100
AcDbCircle
 10
2029.967417101198
 20
981.3620466485074
 30
0.0
 40
2.145679479873102
100
AcDbArc
 50
346.5246847195768
 51
13.47531528042316
  0
CIRCLE
  5
5FC
330
5DD
100
AcDbEntity
  8
0
  6
Continuous
 62
     7
370
    15
100
AcDbCircle
 10
2065.967417101199
 20
981.3620466485074
 30
0.0
 40
3.425000000000011
  0
ARC
  5
5FD
330
5DD
100
AcDbEntity
  8
0
  6
Continuous
 62
     7
370
    15
100
AcDbCircle
 10
2005.967417101199
 20
981.3620466485074
 30
0.0
 40
2.197439522057301
100
AcDbArc
 50
13.15214010487884
 51
166.8478598951401
  0
ARC
  5
5FE
330
5DD
100
AcDbEntity
  8
0
  6
Continuous
 62
     7
370
    15
100
AcDbCircle
 10
2005.967417101199
 20
981.3620466485074
 30
0.0
 40
2.145679479873075
100
AcDbArc
 50
166.5246847195768
 51
193.4753152804231
  0
ARC
  5
5FF
330
5DD
100
AcDbEntity
  8
0
  6
Continuous
 62
     7
370
    15
100
AcDbCircle
 10
2005.967417101199
 20
981.3620466485074
 30
0.0
 40
2.197439522057329
100
AcDbArc
 50
193.1521401048788
 51
346.8478598951402
  0
ARC
  5
600
330
5DD
100
AcDbEntity
  8
0
  6
Continuous
 62
     7
370
    15
100
AcDbCircle
 10
2005.967417101199
 20
981.3620466485074
 30
0.0
 40
2.145679479873102
100
AcDbArc
 50
346.5246847195768
 51
13.47531528042316
  0
CIRCLE
  5
601
330
5DD
100
AcDbEntity
  8
0
  6
Continuous
 62
     7
370
    15
100
AcDbCircle
 10
2017.967417101198
 20
981.3620466485074
 30
0.0
 40
3.424999999999982
  0
CIRCLE
  5
602
330
5DD
100
AcDbEntity
  8
0
  6
Continuous
 62
     7
370
    15
100
AcDbCircle
 10
2041.967417101199
 20
981.3620466485074
 30
0.0
 40
3.424999999999982
  0
CIRCLE
  5
603
330
5DD
100
AcDbEntity
  8
0
  6
Continuous
 62
     7
370
    15
100
AcDbCircle
 10
2029.967417101198
 20
981.3620466485074
 30
0.0
 40
3.425000000000011
  0
SPLINE
  5
604
330
5DD
100
AcDbEntity
  8
0
  6
Continuous
 62
     7
370
    15
100
AcDbSpline
210
0.0
220
0.0
230
1.0
 70
     8
 71
     3
 72
    14
 73
    10
 74
     0
 42
0.0000000001
 43
0.0000000001
 40
0.0
 40
0.0
 40
0.0
 40
0.0
 40
0.25
 40
0.25
 40
0.5
 40
0.5
 40
0.75
 40
0.75
 40
0.9999999999999998
 40
0.9999999999999998
 40
0.9999999999999998
 40
0.9999999999999998
 10
2064.042460206055
 20
981.8620466485075
 30
0.0
 10
2064.15317945144
 20
982.2883061981661
 30
0.0
 10
2064.402284828573
 20
982.6658012160239
 30
0.0
 10
2065.099016035968
 20
983.2046791655981
 30
0.0
 10
2065.527012792667
 20
983.3508802383688
 30
0.0
 10
2066.407821409731
 20
983.3508802383688
 30
0.0
 10
2066.835818166429
 20
983.2046791655981
 30
0.0
 10
2067.532549373824
 20
982.6658012160239
 30
0.0
 10
2067.781654750957
 20
982.2883061981661
 30
0.0
 10
2067.892373996342
 20
981.8620466485075
 30
0.0
  0
LINE
  5
605
330
5DD
100
AcDbEntity
  8
0
  6
Continuous
 62
     7
370
    15
100
AcDbLine
 10
2064.042460206055
 20
981.8620466485075
 30
0.0
 11
2067.892373996342
 21
981.8620466485075
 31
0.0
  0
SPLINE
  5
606
330
5DD
100
AcDbEntity
  8
0
  6
Continuous
 62
     7
370
    15
100
AcDbSpline
210
0.0
220
0.0
230
1.0
 70
     8
 71
     3
 72
    14
 73
    10
 74
     0
 42
0.0000000001
 43
0.0000000001
 40
0.0
 40
0.0
 40
0.0
 40
0.0
 40
0.2499999999999999
 40
0.2499999999999999
 40
0.4999999999999999
 40
0.4999999999999999
 40
0.7499999999999999
 40
0.7499999999999999
 40
1.0
 40
1.0
 40
1.0
 40
1.0
 10
2004.042460206056
 20
981.8620466485075
 30
0.0
 10
2004.15317945144
 20
982.2883061981661
 30
0.0
 10
2004.402284828573
 20
982.6658012160239
 30
0.0
 10
2005.099016035968
 20
983.2046791655981
 30
0.0
 10
2005.527012792666
 20
983.3508802383688
 30
0.0
 10
2006.407821409731
 20
983.3508802383688
 30
0.0
 10
2006.83581816643
 20
983.2046791655981
 30
0.0
 10
2007.532549373824
 20
982.6658012160239
 30
0.0
 10
2007.781654750957
 20
982.2883061981661
 30
0.0
 10
2007.892373996342
 20
981.8620466485075
 30
0.0
  0
LINE
  5
607
330
5DD
100
AcDbEntity
  8
0
  6
Continuous
 62
     7
370
    15
100
AcDbLine
 10
2004.042460206056
 20
981.8620466485075
 30
0.0
 11
2007.892373996342
 21
981.8620466485075
 31
0.0
  0
SPLINE
  5
608
330
5DD
100
AcDbEntity
  8
0
  6
Continuous
 62
     7
370
    15
100
AcDbSpline
210
0.0
220
0.0
230
1.0
 70
     8
 71
     3
 72
    14
 73
    10
 74
     0
 42
0.0000000001
 43
0.0000000001
 40
0.0
 40
0.0
 40
0.0
 40
0.0
 40
0.25
 40
0.25
 40
0.5
 40
0.5
 40
0.75
 40
0.75
 40
0.9999999999999998
 40
0.9999999999999998
 40
0.9999999999999998
 40
0.9999999999999998
 10
2028.042460206055
 20
981.8620466485075
 30
0.0
 10
2028.15317945144
 20
982.2883061981661
 30
0.0
 10
2028.402284828573
 20
982.6658012160239
 30
0.0
 10
2029.099016035968
 20
983.2046791655981
 30
0.0
 10
2029.527012792666
 20
983.3508802383688
 30
0.0
 10
2030.407821409731
 20
983.3508802383688
 30
0.0
 10
2030.83581816643
 20
983.2046791655981
 30
0.0
 10
2031.532549373824
 20
982.6658012160239
 30
0.0
 10
2031.781654750957
 20
982.2883061981661
 30
0.0
 10
2031.892373996342
 20
981.8620466485075
 30
0.0
  0
LINE
  5
609
330
5DD
100
AcDbEntity
  8
0
  6
Continuous
 62
     7
370
    15
100
AcDbLine
 10
2028.042460206055
 20
981.8620466485075
 30
0.0
 11
2031.892373996342
 21
981.8620466485075
 31
0.0
  0
SPLINE
  5
60A
330
5DD
100
AcDbEntity
  8
0
  6
Continuous
 62
     7
370
    15
100
AcDbSpline
210
0.0
220
0.0
230
1.0
 70
     8
 71
     3
 72
    14
 73
    10
 74
     0
 42
0.0000000001
 43
0.0000000001
 40
0.0
 40
0.0
 40
0.0
 40
0.0
 40
0.25
 40
0.25
 40
0.5
 40
0.5
 40
0.75
 40
0.75
 40
0.9999999999999998
 40
0.9999999999999998
 40
0.9999999999999998
 40
0.9999999999999998
 10
2040.042460206056
 20
981.8620466485075
 30
0.0
 10
2040.15317945144
 20
982.2883061981661
 30
0.0
 10
2040.402284828573
 20
982.6658012160239
 30
0.0
 10
2041.099016035968
 20
983.2046791655981
 30
0.0
 10
2041.527012792666
 20
983.3508802383688
 30
0.0
 10
2042.407821409731
 20
983.3508802383688
 30
0.0
 10
2042.83581816643
 20
983.2046791655981
 30
0.0
 10
2043.532549373825
 20
982.6658012160239
 30
0.0
 10
2043.781654750957
 20
982.2883061981661
 30
0.0
 10
2043.892373996342
 20
981.8620466485075
 30
0.0
  0
LINE
  5
60B
330
5DD
100
AcDbEntity
  8
0
  6
Continuous
 62
     7
370
    15
100
AcDbLine
 10
2040.042460206056
 20
981.8620466485075
 30
0.0
 11
2043.892373996342
 21
981.8620466485075
 31
0.0
  0
SPLINE
  5
60C
330
5DD
100
AcDbEntity
  8
0
  6
Continuous
 62
     7
370
    15
100
AcDbSpline
210
0.0
220
0.0
230
1.0
 70
     8
 71
     3
 72
    14
 73
    10
 74
     0
 42
0.0000000001
 43
0.0000000001
 40
0.0
 40
0.0
 40
0.0
 40
0.0
 40
0.2499999999999999
 40
0.2499999999999999
 40
0.4999999999999999
 40
0.4999999999999999
 40
0.7499999999999999
 40
0.7499999999999999
 40
1.0
 40
1.0
 40
1.0
 40
1.0
 10
2016.042460206055
 20
981.8620466485075
 30
0.0
 10
2016.15317945144
 20
982.2883061981661
 30
0.0
 10
2016.402284828573
 20
982.6658012160239
 30
0.0
 10
2017.099016035968
 20
983.2046791655981
 30
0.0
 10
2017.527012792666
 20
983.3508802383688
 30
0.0
 10
2018.407821409731
 20
983.3508802383688
 30
0.0
 10
2018.835818166429
 20
983.2046791655981
 30
0.0
 10
2019.532549373824
 20
982.6658012160239
 30
0.0
 10
2019.781654750957
 20
982.2883061981661
 30
0.0
 10
2019.892373996342
 20
981.8620466485075
 30
0.0
  0
LINE
  5
60D
330
5DD
100
AcDbEntity
  8
0
  6
Continuous
 62
     7
370
    15
100
AcDbLine
 10
2016.042460206055
 20
981.8620466485075
 30
0.0
 11
2019.892373996342
 21
981.8620466485075
 31
0.0
  0
SPLINE
  5
60E
330
5DD
100
AcDbEntity
  8
0
  6
Continuous
 62
     7
370
    15
100
AcDbSpline
210
0.0
220
0.0
230
1.0
 70
     8
 71
     3
 72
    14
 73
    10
 74
     0
 42
0.0000000001
 43
0.0000000001
 40
0.0
 40
0.0
 40
0.0
 40
0.0
 40
0.25
 40
0.25
 40
0.5
 40
0.5
 40
0.75
 40
0.75
 40
0.9999999999999998
 40
0.9999999999999998
 40
0.9999999999999998
 40
0.9999999999999998
 10
2052.042460206056
 20
981.8620466485075
 30
0.0
 10
2052.15317945144
 20
982.2883061981661
 30
0.0
 10
2052.402284828573
 20
982.6658012160239
 30
0.0
 10
2053.099016035968
 20
983.2046791655981
 30
0.0
 10
2053.527012792667
 20
983.3508802383688
 30
0.0
 10
2054.407821409731
 20
983.3508802383688
 30
0.0
 10
2054.835818166429
 20
983.2046791655981
 30
0.0
 10
2055.532549373824
 20
982.6658012160239
 30
0.0
 10
2055.781654750957
 20
982.2883061981661
 30
0.0
 10
2055.892373996342
 20
981.8620466485075
 30
0.0
  0
LINE
  5
60F
330
5DD
100
AcDbEntity
  8
0
  6
Continuous
 62
     7
370
    15
100
AcDbLine
 10
2052.042460206056
 20
981.8620466485075
 30
0.0
 11
2055.892373996342
 21
981.8620466485075
 31
0.0
  0
SPLINE
  5
610
330
5DD
100
AcDbEntity
  8
0
  6
Continuous
 62
     7
370
    15
100
AcDbSpline
210
0.0
220
0.0
230
1.0
 70
     8
 71
     3
 72
    10
 73
     6
 74
     0
 42
0.0000000001
 43
0.0000000001
 40
0.0
 40
0.0
 40
0.0
 40
0.0
 40
0.5
 40
0.5
 40
1.0
 40
1.0
 40
1.0
 40
1.0
 10
2043.892373996342
 20
980.8620466485075
 30
0.0
 10
2043.781654750957
 20
980.4357870988489
 30
0.0
 10
2043.532549373825
 20
980.0582920809912
 30
0.0
 10
2042.83581816643
 20
979.5194141314167
 30
0.0
 10
2042.407821409731
 20
979.3732130586462
 30
0.0
 10
2041.967417101199
 20
979.3732130586462
 30
0.0
  0
SPLINE
  5
611
330
5DD
100
AcDbEntity
  8
0
  6
Continuous
 62
     7
370
    15
100
AcDbSpline
210
0.0
220
0.0
230
1.0
 70
     8
 71
     3
 72
    10
 73
     6
 74
     0
 42
0.0000000001
 43
0.0000000001
 40
0.0
 40
0.0
 40
0.0
 40
0.0
 40
0.5
 40
0.5
 40
1.0
 40
1.0
 40
1.0
 40
1.0
 10
2041.967417101199
 20
979.3732130586462
 30
0.0
 10
2041.527012792666
 20
979.3732130586462
 30
0.0
 10
2041.099016035968
 20
979.5194141314167
 30
0.0
 10
2040.402284828573
 20
980.0582920809912
 30
0.0
 10
2040.15317945144
 20
980.4357870988489
 30
0.0
 10
2040.042460206056
 20
980.8620466485075
 30
0.0
  0
LINE
  5
612
330
5DD
100
AcDbEntity
  8
0
  6
Continuous
 62
     7
370
    15
100
AcDbLine
 10
2043.892373996342
 20
980.8620466485075
 30
0.0
 11
2040.042460206056
 21
980.8620466485075
 31
0.0
  0
SPLINE
  5
613
330
5DD
100
AcDbEntity
  8
0
  6
Continuous
 62
     7
370
    15
100
AcDbSpline
210
0.0
220
0.0
230
1.0
 70
     8
 71
     3
 72
    10
 73
     6
 74
     0
 42
0.0000000001
 43
0.0000000001
 40
0.0
 40
0.0
 40
0.0
 40
0.0
 40
0.5
 40
0.5
 40
1.0
 40
1.0
 40
1.0
 40
1.0
 10
2031.892373996342
 20
980.8620466485075
 30
0.0
 10
2031.781654750957
 20
980.4357870988489
 30
0.0
 10
2031.532549373824
 20
980.0582920809912
 30
0.0
 10
2030.83581816643
 20
979.5194141314167
 30
0.0
 10
2030.407821409731
 20
979.3732130586462
 30
0.0
 10
2029.967417101198
 20
979.3732130586462
 30
0.0
  0
SPLINE
  5
614
330
5DD
100
AcDbEntity
  8
0
  6
Continuous
 62
     7
370
    15
100
AcDbSpline
210
0.0
220
0.0
230
1.0
 70
     8
 71
     3
 72
    10
 73
     6
 74
     0
 42
0.0000000001
 43
0.0000000001
 40
0.0
 40
0.0
 40
0.0
 40
0.0
 40
0.5
 40
0.5
 40
1.0
 40
1.0
 40
1.0
 40
1.0
 10
2029.967417101198
 20
979.3732130586462
 30
0.0
 10
2029.527012792666
 20
979.3732130586462
 30
0.0
 10
2029.099016035968
 20
979.5194141314167
 30
0.0
 10
2028.402284828573
 20
980.0582920809912
 30
0.0
 10
2028.15317945144
 20
980.4357870988489
 30
0.0
 10
2028.042460206055
 20
980.8620466485075
 30
0.0
  0
LINE
  5
615
330
5DD
100
AcDbEntity
  8
0
  6
Continuous
 62
     7
370
    15
100
AcDbLine
 10
2031.892373996342
 20
980.8620466485075
 30
0.0
 11
2028.042460206055
 21
980.8620466485075
 31
0.0
  0
SPLINE
  5
616
330
5DD
100
AcDbEntity
  8
0
  6
Continuous
 62
     7
370
    15
100
AcDbSpline
210
0.0
220
0.0
230
1.0
 70
     8
 71
     3
 72
    10
 73
     6
 74
     0
 42
0.0000000001
 43
0.0000000001
 40
0.0
 40
0.0
 40
0.0
 40
0.0
 40
0.5
 40
0.5
 40
1.0
 40
1.0
 40
1.0
 40
1.0
 10
2019.892373996342
 20
980.8620466485075
 30
0.0
 10
2019.781654750957
 20
980.4357870988489
 30
0.0
 10
2019.532549373824
 20
980.0582920809912
 30
0.0
 10
2018.835818166429
 20
979.5194141314167
 30
0.0
 10
2018.407821409731
 20
979.3732130586462
 30
0.0
 10
2017.967417101198
 20
979.3732130586462
 30
0.0
  0
SPLINE
  5
617
330
5DD
100
AcDbEntity
  8
0
  6
Continuous
 62
     7
370
    15
100
AcDbSpline
210
0.0
220
0.0
230
1.0
 70
     8
 71
     3
 72
    10
 73
     6
 74
     0
 42
0.0000000001
 43
0.0000000001
 40
0.0
 40
0.0
 40
0.0
 40
0.0
 40
0.5
 40
0.5
 40
0.9999999999999998
 40
0.9999999999999998
 40
0.9999999999999998
 40
0.9999999999999998
 10
2017.967417101198
 20
979.3732130586462
 30
0.0
 10
2017.527012792666
 20
979.3732130586462
 30
0.0
 10
2017.099016035968
 20
979.5194141314167
 30
0.0
 10
2016.402284828573
 20
980.0582920809912
 30
0.0
 10
2016.15317945144
 20
980.4357870988489
 30
0.0
 10
2016.042460206055
 20
980.8620466485075
 30
0.0
  0
LINE
  5
618
330
5DD
100
AcDbEntity
  8
0
  6
Continuous
 62
     7
370
    15
100
AcDbLine
 10
2019.892373996342
 20
980.8620466485075
 30
0.0
 11
2016.042460206055
 21
980.8620466485075
 31
0.0
  0
SPLINE
  5
619
330
5DD
100
AcDbEntity
  8
0
  6
Continuous
 62
     7
370
    15
100
AcDbSpline
210
0.0
220
0.0
230
1.0
 70
     8
 71
     3
 72
    10
 73
     6
 74
     0
 42
0.0000000001
 43
0.0000000001
 40
0.0
 40
0.0
 40
0.0
 40
0.0
 40
0.5
 40
0.5
 40
1.0
 40
1.0
 40
1.0
 40
1.0
 10
2055.892373996342
 20
980.8620466485075
 30
0.0
 10
2055.781654750957
 20
980.4357870988489
 30
0.0
 10
2055.532549373824
 20
980.0582920809912
 30
0.0
 10
2054.835818166429
 20
979.5194141314167
 30
0.0
 10
2054.407821409731
 20
979.3732130586462
 30
0.0
 10
2053.967417101199
 20
979.3732130586462
 30
0.0
  0
SPLINE
  5
61A
330
5DD
100
AcDbEntity
  8
0
  6
Continuous
 62
     7
370
    15
100
AcDbSpline
210
0.0
220
0.0
230
1.0
 70
     8
 71
     3
 72
    10
 73
     6
 74
     0
 42
0.0000000001
 43
0.0000000001
 40
0.0
 40
0.0
 40
0.0
 40
0.0
 40
0.5
 40
0.5
 40
1.0
 40
1.0
 40
1.0
 40
1.0
 10
2053.967417101199
 20
979.3732130586462
 30
0.0
 10
2053.527012792667
 20
979.3732130586462
 30
0.0
 10
2053.099016035968
 20
979.5194141314167
 30
0.0
 10
2052.402284828573
 20
980.0582920809912
 30
0.0
 10
2052.15317945144
 20
980.4357870988489
 30
0.0
 10
2052.042460206056
 20
980.8620466485075
 30
0.0
  0
LINE
  5
61B
330
5DD
100
AcDbEntity
  8
0
  6
Continuous
 62
     7
370
    15
100
AcDbLine
 10
2055.892373996342
 20
980.8620466485075
 30
0.0
 11
2052.042460206056
 21
980.8620466485075
 31
0.0
  0
SPLINE
  5
61C
330
5DD
100
AcDbEntity
  8
0
  6
Continuous
 62
     7
370
    15
100
AcDbSpline
210
0.0
220
0.0
230
1.0
 70
     8
 71
     3
 72
    10
 73
     6
 74
     0
 42
0.0000000001
 43
0.0000000001
 40
0.0
 40
0.0
 40
0.0
 40
0.0
 40
0.5
 40
0.5
 40
1.0
 40
1.0
 40
1.0
 40
1.0
 10
2007.892373996342
 20
980.8620466485075
 30
0.0
 10
2007.781654750957
 20
980.4357870988489
 30
0.0
 10
2007.532549373824
 20
980.0582920809912
 30
0.0
 10
2006.83581816643
 20
979.5194141314167
 30
0.0
 10
2006.407821409731
 20
979.3732130586462
 30
0.0
 10
2005.967417101199
 20
979.3732130586462
 30
0.0
  0
SPLINE
  5
61D
330
5DD
100
AcDbEntity
  8
0
  6
Continuous
 62
     7
370
    15
100
AcDbSpline
210
0.0
220
0.0
230
1.0
 70
     8
 71
     3
 72
    10
 73
     6
 74
     0
 42
0.0000000001
 43
0.0000000001
 40
0.0
 40
0.0
 40
0.0
 40
0.0
 40
0.5
 40
0.5
 40
0.9999999999999998
 40
0.9999999999999998
 40
0.9999999999999998
 40
0.9999999999999998
 10
2005.967417101199
 20
979.3732130586462
 30
0.0
 10
2005.527012792667
 20
979.3732130586462
 30
0.0
 10
2005.099016035968
 20
979.5194141314167
 30
0.0
 10
2004.402284828573
 20
980.0582920809912
 30
0.0
 10
2004.15317945144
 20
980.4357870988489
 30
0.0
 10
2004.042460206056
 20
980.8620466485075
 30
0.0
  0
LINE
  5
61E
330
5DD
100
AcDbEntity
  8
0
  6
Continuous
 62
     7
370
    15
100
AcDbLine
 10
2007.892373996342
 20
980.8620466485075
 30
0.0
 11
2004.042460206056
 21
980.8620466485075
 31
0.0
  0
SPLINE
  5
61F
330
5DD
100
AcDbEntity
  8
0
  6
Continuous
 62
     7
370
    15
100
AcDbSpline
210
0.0
220
0.0
230
1.0
 70
     8
 71
     3
 72
    10
 73
     6
 74
     0
 42
0.0000000001
 43
0.0000000001
 40
0.0
 40
0.0
 40
0.0
 40
0.0
 40
0.5
 40
0.5
 40
1.0
 40
1.0
 40
1.0
 40
1.0
 10
2067.892373996342
 20
980.8620466485075
 30
0.0
 10
2067.781654750957
 20
980.4357870988489
 30
0.0
 10
2067.532549373824
 20
980.0582920809912
 30
0.0
 10
2066.835818166429
 20
979.5194141314167
 30
0.0
 10
2066.407821409731
 20
979.3732130586462
 30
0.0
 10
2065.967417101199
 20
979.3732130586462
 30
0.0
  0
SPLINE
  5
620
330
5DD
100
AcDbEntity
  8
0
  6
Continuous
 62
     7
370
    15
100
AcDbSpline
210
0.0
220
0.0
230
1.0
 70
     8
 71
     3
 72
    10
 73
     6
 74
     0
 42
0.0000000001
 43
0.0000000001
 40
0.0
 40
0.0
 40
0.0
 40
0.0
 40
0.5
 40
0.5
 40
1.0
 40
1.0
 40
1.0
 40
1.0
 10
2065.967417101199
 20
979.3732130586462
 30
0.0
 10
2065.527012792667
 20
979.3732130586462
 30
0.0
 10
2065.099016035968
 20
979.5194141314167
 30
0.0
 10
2064.402284828573
 20
980.0582920809912
 30
0.0
 10
2064.15317945144
 20
980.4357870988489
 30
0.0
 10
2064.042460206055
 20
980.8620466485075
 30
0.0
  0
LINE
  5
621
330
5DD
100
AcDbEntity
  8
0
  6
Continuous
 62
     7
370
    15
100
AcDbLine
 10
2067.892373996342
 20
980.8620466485075
 30
0.0
 11
2064.042460206055
 21
980.8620466485075
 31
0.0
  0
ARC
  5
622
330
5DD
100
AcDbEntity
  8
0
  6
Continuous
 62
     7
370
    15
100
AcDbCircle
 10
2065.967417101199
 20
981.3620466485074
 30
0.0
 40
2.188421798070006
100
AcDbArc
 50
13.20731410364895
 51
166.792685896351
  0
SPLINE
  5
623
330
5DD
100
AcDbEntity
  8
0
  6
Continuous
 62
     7
370
    15
100
AcDbSpline
210
0.0
220
0.0
230
1.0
 70
    24
 71
     3
 72
    10
 73
     6
 74
     0
 42
0.0000000001
 43
0.0000000001
 40
0.0
 40
0.0
 40
0.0
 40
0.0
 40
0.5
 40
0.5
 40
1.0
 40
1.0
 40
1.0
 40
1.0
 10
2067.892373996342
 20
981.8620466485075
 30
0.0
 10
2067.943840579934
 20
981.8620466485075
 30
0.0
 10
2067.994239821902
 20
981.8620466485075
 30
0.0
 10
2068.070289820195
 20
981.8620466485075
 30
0.0
 10
2068.094561266832
 20
981.8620466485075
 30
0.0
 10
2068.097954584152
 20
981.8620466485075
 30
0.0
  0
SPLINE
  5
624
330
5DD
100
AcDbEntity
  8
0
  6
Continuous
 62
     7
370
    15
100
AcDbSpline
210
0.0
220
0.0
230
1.0
 70
    24
 71
     3
 72
    10
 73
     6
 74
     0
 42
0.0000000001
 43
0.0000000001
 40
0.0
 40
0.0
 40
0.0
 40
0.0
 40
0.5
 40
0.5
 40
1.0
 40
1.0
 40
1.0
 40
1.0
 10
2063.836879618246
 20
981.8620466485075
 30
0.0
 10
2063.840270356532
 20
981.8620466485075
 30
0.0
 10
2063.864646392306
 20
981.8620466485075
 30
0.0
 10
2063.940308969961
 20
981.8620466485075
 30
0.0
 10
2063.991027979133
 20
981.8620466485075
 30
0.0
 10
2064.042460206055
 20
981.8620466485075
 30
0.0
  0
ARC
  5
625
330
5DD
100
AcDbEntity
  8
0
  6
Continuous
 62
     7
370
    15
100
AcDbCircle
 10
2053.967417101199
 20
981.3620466485074
 30
0.0
 40
2.188421798069978
100
AcDbArc
 50
193.2073141036489
 51
346.792685896351
  0
SPLINE
  5
626
330
5DD
100
AcDbEntity
  8
0
  6
Continuous
 62
     7
370
    15
100
AcDbSpline
210
0.0
220
0.0
230
1.0
 70
    24
 71
     3
 72
    10
 73
     6
 74
     0
 42
0.0000000001
 43
0.0000000001
 40
0.0
 40
0.0
 40
0.0
 40
0.0
 40
0.5
 40
0.5
 40
1.0
 40
1.0
 40
1.0
 40
1.0
 10
2056.097954584152
 20
980.8620466485075
 30
0.0
 10
2056.094563845866
 20
980.8620466485075
 30
0.0
 10
2056.070187810091
 20
980.8620466485075
 30
0.0
 10
2055.994525232437
 20
980.8620466485075
 30
0.0
 10
2055.943806223264
 20
980.8620466485075
 30
0.0
 10
2055.892373996342
 20
980.8620466485075
 30
0.0
  0
SPLINE
  5
627
330
5DD
100
AcDbEntity
  8
0
  6
Continuous
 62
     7
370
    15
100
AcDbSpline
210
0.0
220
0.0
230
1.0
 70
    24
 71
     3
 72
    10
 73
     6
 74
     0
 42
0.0000000001
 43
0.0000000001
 40
0.0
 40
0.0
 40
0.0
 40
0.0
 40
0.5
 40
0.5
 40
1.0
 40
1.0
 40
1.0
 40
1.0
 10
2052.042460206056
 20
980.8620466485075
 30
0.0
 10
2051.990993622463
 20
980.8620466485075
 30
0.0
 10
2051.940594380496
 20
980.8620466485075
 30
0.0
 10
2051.864544382203
 20
980.8620466485075
 30
0.0
 10
2051.840272935566
 20
980.8620466485075
 30
0.0
 10
2051.836879618246
 20
980.8620466485075
 30
0.0
  0
ARC
  5
628
330
5DD
100
AcDbEntity
  8
0
  6
Continuous
 62
     7
370
    15
100
AcDbCircle
 10
2005.967417101199
 20
981.3620466485074
 30
0.0
 40
2.188421798069978
100
AcDbArc
 50
193.2073141036489
 51
346.792685896351
  0
SPLINE
  5
629
330
5DD
100
AcDbEntity
  8
0
  6
Continuous
 62
     7
370
    15
100
AcDbSpline
210
0.0
220
0.0
230
1.0
 70
    24
 71
     3
 72
    10
 73
     6
 74
     0
 42
0.0000000001
 43
0.0000000001
 40
0.0
 40
0.0
 40
0.0
 40
0.0
 40
0.5
 40
0.5
 40
1.0
 40
1.0
 40
1.0
 40
1.0
 10
2008.097954584152
 20
980.8620466485075
 30
0.0
 10
2008.094563845866
 20
980.8620466485075
 30
0.0
 10
2008.070187810091
 20
980.8620466485075
 30
0.0
 10
2007.994525232437
 20
980.8620466485075
 30
0.0
 10
2007.943806223264
 20
980.8620466485075
 30
0.0
 10
2007.892373996342
 20
980.8620466485075
 30
0.0
  0
SPLINE
  5
62A
330
5DD
100
AcDbEntity
  8
0
  6
Continuous
 62
     7
370
    15
100
AcDbSpline
210
0.0
220
0.0
230
1.0
 70
    24
 71
     3
 72
    10
 73
     6
 74
     0
 42
0.0000000001
 43
0.0000000001
 40
0.0
 40
0.0
 40
0.0
 40
0.0
 40
0.5
 40
0.5
 40
1.0
 40
1.0
 40
1.0
 40
1.0
 10
2004.042460206056
 20
980.8620466485075
 30
0.0
 10
2003.990993622463
 20
980.8620466485075
 30
0.0
 10
2003.940594380496
 20
980.8620466485075
 30
0.0
 10
2003.864544382203
 20
980.8620466485075
 30
0.0
 10
2003.840272935565
 20
980.8620466485075
 30
0.0
 10
2003.836879618246
 20
980.8620466485075
 30
0.0
  0
ARC
  5
62B
330
5DD
100
AcDbEntity
  8
0
  6
Continuous
 62
     7
370
    15
100
AcDbCircle
 10
2029.967417101198
 20
981.3620466485074
 30
0.0
 40
2.188421798069978
100
AcDbArc
 50
193.2073141036489
 51
346.792685896351
  0
SPLINE
  5
62C
330
5DD
100
AcDbEntity
  8
0
  6
Continuous
 62
     7
370
    15
100
AcDbSpline
210
0.0
220
0.0
230
1.0
 70
    24
 71
     3
 72
    10
 73
     6
 74
     0
 42
0.0000000001
 43
0.0000000001
 40
0.0
 40
0.0
 40
0.0
 40
0.0
 40
0.5
 40
0.5
 40
1.0
 40
1.0
 40
1.0
 40
1.0
 10
2032.097954584152
 20
980.8620466485075
 30
0.0
 10
2032.094563845866
 20
980.8620466485075
 30
0.0
 10
2032.070187810091
 20
980.8620466485075
 30
0.0
 10
2031.994525232437
 20
980.8620466485075
 30
0.0
 10
2031.943806223264
 20
980.8620466485075
 30
0.0
 10
2031.892373996342
 20
980.8620466485075
 30
0.0
  0
SPLINE
  5
62D
330
5DD
100
AcDbEntity
  8
0
  6
Continuous
 62
     7
370
    15
100
AcDbSpline
210
0.0
220
0.0
230
1.0
 70
    24
 71
     3
 72
    10
 73
     6
 74
     0
 42
0.0000000001
 43
0.0000000001
 40
0.0
 40
0.0
 40
0.0
 40
0.0
 40
0.5
 40
0.5
 40
1.0
 40
1.0
 40
1.0
 40
1.0
 10
2028.042460206055
 20
980.8620466485075
 30
0.0
 10
2027.990993622463
 20
980.8620466485075
 30
0.0
 10
2027.940594380496
 20
980.8620466485075
 30
0.0
 10
2027.864544382203
 20
980.8620466485075
 30
0.0
 10
2027.840272935566
 20
980.8620466485075
 30
0.0
 10
2027.836879618245
 20
980.8620466485075
 30
0.0
  0
ARC
  5
62E
330
5DD
100
AcDbEntity
  8
0
  6
Continuous
 62
     7
370
    15
100
AcDbCircle
 10
2017.967417101198
 20
981.3620466485074
 30
0.0
 40
2.188421798070006
100
AcDbArc
 50
193.2073141036489
 51
346.792685896351
  0
SPLINE
  5
62F
330
5DD
100
AcDbEntity
  8
0
  6
Continuous
 62
     7
370
    15
100
AcDbSpline
210
0.0
220
0.0
230
1.0
 70
    24
 71
     3
 72
    10
 73
     6
 74
     0
 42
0.0000000001
 43
0.0000000001
 40
0.0
 40
0.0
 40
0.0
 40
0.0
 40
0.5
 40
0.5
 40
1.0
 40
1.0
 40
1.0
 40
1.0
 10
2020.097954584151
 20
980.8620466485075
 30
0.0
 10
2020.094563845866
 20
980.8620466485075
 30
0.0
 10
2020.070187810091
 20
980.8620466485075
 30
0.0
 10
2019.994525232437
 20
980.8620466485075
 30
0.0
 10
2019.943806223264
 20
980.8620466485075
 30
0.0
 10
2019.892373996342
 20
980.8620466485075
 30
0.0
  0
SPLINE
  5
630
330
5DD
100
AcDbEntity
  8
0
  6
Continuous
 62
     7
370
    15
100
AcDbSpline
210
0.0
220
0.0
230
1.0
 70
    24
 71
     3
 72
    10
 73
     6
 74
     0
 42
0.0000000001
 43
0.0000000001
 40
0.0
 40
0.0
 40
0.0
 40
0.0
 40
0.5
 40
0.5
 40
1.0
 40
1.0
 40
1.0
 40
1.0
 10
2016.042460206055
 20
980.8620466485075
 30
0.0
 10
2015.990993622463
 20
980.8620466485075
 30
0.0
 10
2015.940594380496
 20
980.8620466485075
 30
0.0
 10
2015.864544382203
 20
980.8620466485075
 30
0.0
 10
2015.840272935566
 20
980.8620466485075
 30
0.0
 10
2015.836879618245
 20
980.8620466485075
 30
0.0
  0
ARC
  5
631
330
5DD
100
AcDbEntity
  8
0
  6
Continuous
 62
     7
370
    15
100
AcDbCircle
 10
2041.967417101199
 20
981.3620466485074
 30
0.0
 40
2.188421798069978
100
AcDbArc
 50
193.2073141036489
 51
346.792685896351
  0
SPLINE
  5
632
330
5DD
100
AcDbEntity
  8
0
  6
Continuous
 62
     7
370
    15
100
AcDbSpline
210
0.0
220
0.0
230
1.0
 70
    24
 71
     3
 72
    10
 73
     6
 74
     0
 42
0.0000000001
 43
0.0000000001
 40
0.0
 40
0.0
 40
0.0
 40
0.0
 40
0.5
 40
0.5
 40
1.0
 40
1.0
 40
1.0
 40
1.0
 10
2044.097954584152
 20
980.8620466485075
 30
0.0
 10
2044.094563845866
 20
980.8620466485075
 30
0.0
 10
2044.070187810091
 20
980.8620466485075
 30
0.0
 10
2043.994525232437
 20
980.8620466485075
 30
0.0
 10
2043.943806223264
 20
980.8620466485075
 30
0.0
 10
2043.892373996342
 20
980.8620466485075
 30
0.0
  0
SPLINE
  5
633
330
5DD
100
AcDbEntity
  8
0
  6
Continuous
 62
     7
370
    15
100
AcDbSpline
210
0.0
220
0.0
230
1.0
 70
    24
 71
     3
 72
    10
 73
     6
 74
     0
 42
0.0000000001
 43
0.0000000001
 40
0.0
 40
0.0
 40
0.0
 40
0.0
 40
0.5
 40
0.5
 40
1.0
 40
1.0
 40
1.0
 40
1.0
 10
2040.042460206056
 20
980.8620466485075
 30
0.0
 10
2039.990993622463
 20
980.8620466485075
 30
0.0
 10
2039.940594380496
 20
980.8620466485075
 30
0.0
 10
2039.864544382203
 20
980.8620466485075
 30
0.0
 10
2039.840272935566
 20
980.8620466485075
 30
0.0
 10
2039.836879618246
 20
980.8620466485075
 30
0.0
  0
ARC
  5
634
330
5DD
100
AcDbEntity
  8
0
  6
Continuous
 62
     7
370
    15
100
AcDbCircle
 10
2005.967417101199
 20
981.3620466485074
 30
0.0
 40
2.188421798069978
100
AcDbArc
 50
13.20731410364895
 51
166.792685896351
  0
SPLINE
  5
635
330
5DD
100
AcDbEntity
  8
0
  6
Continuous
 62
     7
370
    15
100
AcDbSpline
210
0.0
220
0.0
230
1.0
 70
    24
 71
     3
 72
    10
 73
     6
 74
     0
 42
0.0000000001
 43
0.0000000001
 40
0.0
 40
0.0
 40
0.0
 40
0.0
 40
0.5
 40
0.5
 40
1.0
 40
1.0
 40
1.0
 40
1.0
 10
2007.892373996342
 20
981.8620466485075
 30
0.0
 10
2007.943840579935
 20
981.8620466485075
 30
0.0
 10
2007.994239821901
 20
981.8620466485075
 30
0.0
 10
2008.070289820194
 20
981.8620466485075
 30
0.0
 10
2008.094561266832
 20
981.8620466485075
 30
0.0
 10
2008.097954584152
 20
981.8620466485075
 30
0.0
  0
SPLINE
  5
636
330
5DD
100
AcDbEntity
  8
0
  6
Continuous
 62
     7
370
    15
100
AcDbSpline
210
0.0
220
0.0
230
1.0
 70
    24
 71
     3
 72
    10
 73
     6
 74
     0
 42
0.0000000001
 43
0.0000000001
 40
0.0
 40
0.0
 40
0.0
 40
0.0
 40
0.5
 40
0.5
 40
1.0
 40
1.0
 40
1.0
 40
1.0
 10
2003.836879618246
 20
981.8620466485075
 30
0.0
 10
2003.840270356532
 20
981.8620466485075
 30
0.0
 10
2003.864646392306
 20
981.8620466485075
 30
0.0
 10
2003.940308969961
 20
981.8620466485075
 30
0.0
 10
2003.991027979134
 20
981.8620466485075
 30
0.0
 10
2004.042460206056
 20
981.8620466485075
 30
0.0
  0
ARC
  5
637
330
5DD
100
AcDbEntity
  8
0
  6
Continuous
 62
     7
370
    15
100
AcDbCircle
 10
2041.967417101199
 20
981.3620466485074
 30
0.0
 40
2.188421798069978
100
AcDbArc
 50
13.20731410364895
 51
166.792685896351
  0
SPLINE
  5
638
330
5DD
100
AcDbEntity
  8
0
  6
Continuous
 62
     7
370
    15
100
AcDbSpline
210
0.0
220
0.0
230
1.0
 70
    24
 71
     3
 72
    10
 73
     6
 74
     0
 42
0.0000000001
 43
0.0000000001
 40
0.0
 40
0.0
 40
0.0
 40
0.0
 40
0.5
 40
0.5
 40
1.0
 40
1.0
 40
1.0
 40
1.0
 10
2043.892373996342
 20
981.8620466485075
 30
0.0
 10
2043.943840579935
 20
981.8620466485075
 30
0.0
 10
2043.994239821901
 20
981.8620466485075
 30
0.0
 10
2044.070289820194
 20
981.8620466485075
 30
0.0
 10
2044.094561266832
 20
981.8620466485075
 30
0.0
 10
2044.097954584152
 20
981.8620466485075
 30
0.0
  0
SPLINE
  5
639
330
5DD
100
AcDbEntity
  8
0
  6
Continuous
 62
     7
370
    15
100
AcDbSpline
210
0.0
220
0.0
230
1.0
 70
    24
 71
     3
 72
    10
 73
     6
 74
     0
 42
0.0000000001
 43
0.0000000001
 40
0.0
 40
0.0
 40
0.0
 40
0.0
 40
0.5
 40
0.5
 40
1.0
 40
1.0
 40
1.0
 40
1.0
 10
2039.836879618246
 20
981.8620466485075
 30
0.0
 10
2039.840270356531
 20
981.8620466485075
 30
0.0
 10
2039.864646392306
 20
981.8620466485075
 30
0.0
 10
2039.940308969961
 20
981.8620466485075
 30
0.0
 10
2039.991027979134
 20
981.8620466485075
 30
0.0
 10
2040.042460206056
 20
981.8620466485075
 30
0.0
  0
ARC
  5
63A
330
5DD
100
AcDbEntity
  8
0
  6
Continuous
 62
     7
370
    15
100
AcDbCircle
 10
2053.967417101199
 20
981.3620466485074
 30
0.0
 40
2.188421798069978
100
AcDbArc
 50
13.20731410364895
 51
166.792685896351
  0
SPLINE
  5
63B
330
5DD
100
AcDbEntity
  8
0
  6
Continuous
 62
     7
370
    15
100
AcDbSpline
210
0.0
220
0.0
230
1.0
 70
    24
 71
     3
 72
    10
 73
     6
 74
     0
 42
0.0000000001
 43
0.0000000001
 40
0.0
 40
0.0
 40
0.0
 40
0.0
 40
0.5
 40
0.5
 40
1.0
 40
1.0
 40
1.0
 40
1.0
 10
2055.892373996342
 20
981.8620466485075
 30
0.0
 10
2055.943840579934
 20
981.8620466485075
 30
0.0
 10
2055.994239821901
 20
981.8620466485075
 30
0.0
 10
2056.070289820195
 20
981.8620466485075
 30
0.0
 10
2056.094561266832
 20
981.8620466485075
 30
0.0
 10
2056.097954584152
 20
981.8620466485075
 30
0.0
  0
SPLINE
  5
63C
330
5DD
100
AcDbEntity
  8
0
  6
Continuous
 62
     7
370
    15
100
AcDbSpline
210
0.0
220
0.0
230
1.0
 70
    24
 71
     3
 72
    10
 73
     6
 74
     0
 42
0.0000000001
 43
0.0000000001
 40
0.0
 40
0.0
 40
0.0
 40
0.0
 40
0.5
 40
0.5
 40
1.0
 40
1.0
 40
1.0
 40
1.0
 10
2051.836879618246
 20
981.8620466485075
 30
0.0
 10
2051.840270356532
 20
981.8620466485075
 30
0.0
 10
2051.864646392306
 20
981.8620466485075
 30
0.0
 10
2051.940308969961
 20
981.8620466485075
 30
0.0
 10
2051.991027979133
 20
981.8620466485075
 30
0.0
 10
2052.042460206056
 20
981.8620466485075
 30
0.0
  0
ARC
  5
63D
330
5DD
100
AcDbEntity
  8
0
  6
Continuous
 62
     7
370
    15
100
AcDbCircle
 10
2029.967417101198
 20
981.3620466485074
 30
0.0
 40
2.188421798069978
100
AcDbArc
 50
13.20731410364895
 51
166.792685896351
  0
SPLINE
  5
63E
330
5DD
100
AcDbEntity
  8
0
  6
Continuous
 62
     7
370
    15
100
AcDbSpline
210
0.0
220
0.0
230
1.0
 70
    24
 71
     3
 72
    10
 73
     6
 74
     0
 42
0.0000000001
 43
0.0000000001
 40
0.0
 40
0.0
 40
0.0
 40
0.0
 40
0.5
 40
0.5
 40
1.0
 40
1.0
 40
1.0
 40
1.0
 10
2031.892373996342
 20
981.8620466485075
 30
0.0
 10
2031.943840579935
 20
981.8620466485075
 30
0.0
 10
2031.994239821901
 20
981.8620466485075
 30
0.0
 10
2032.070289820194
 20
981.8620466485075
 30
0.0
 10
2032.094561266832
 20
981.8620466485075
 30
0.0
 10
2032.097954584152
 20
981.8620466485075
 30
0.0
  0
SPLINE
  5
63F
330
5DD
100
AcDbEntity
  8
0
  6
Continuous
 62
     7
370
    15
100
AcDbSpline
210
0.0
220
0.0
230
1.0
 70
    24
 71
     3
 72
    10
 73
     6
 74
     0
 42
0.0000000001
 43
0.0000000001
 40
0.0
 40
0.0
 40
0.0
 40
0.0
 40
0.5
 40
0.5
 40
1.0
 40
1.0
 40
1.0
 40
1.0
 10
2027.836879618245
 20
981.8620466485075
 30
0.0
 10
2027.840270356532
 20
981.8620466485075
 30
0.0
 10
2027.864646392306
 20
981.8620466485075
 30
0.0
 10
2027.940308969961
 20
981.8620466485075
 30
0.0
 10
2027.991027979133
 20
981.8620466485075
 30
0.0
 10
2028.042460206055
 20
981.8620466485075
 30
0.0
  0
ARC
  5
640
330
5DD
100
AcDbEntity
  8
0
  6
Continuous
 62
     7
370
    15
100
AcDbCircle
 10
2017.967417101198
 20
981.3620466485074
 30
0.0
 40
2.188421798069978
100
AcDbArc
 50
13.20731410364895
 51
166.792685896351
  0
SPLINE
  5
641
330
5DD
100
AcDbEntity
  8
0
  6
Continuous
 62
     7
370
    15
100
AcDbSpline
210
0.0
220
0.0
230
1.0
 70
    24
 71
     3
 72
    10
 73
     6
 74
     0
 42
0.0000000001
 43
0.0000000001
 40
0.0
 40
0.0
 40
0.0
 40
0.0
 40
0.5
 40
0.5
 40
1.0
 40
1.0
 40
1.0
 40
1.0
 10
2019.892373996342
 20
981.8620466485075
 30
0.0
 10
2019.943840579934
 20
981.8620466485075
 30
0.0
 10
2019.994239821901
 20
981.8620466485075
 30
0.0
 10
2020.070289820194
 20
981.8620466485075
 30
0.0
 10
2020.094561266832
 20
981.8620466485075
 30
0.0
 10
2020.097954584151
 20
981.8620466485075
 30
0.0
  0
SPLINE
  5
642
330
5DD
100
AcDbEntity
  8
0
  6
Continuous
 62
     7
370
    15
100
AcDbSpline
210
0.0
220
0.0
230
1.0
 70
    24
 71
     3
 72
    10
 73
     6
 74
     0
 42
0.0000000001
 43
0.0000000001
 40
0.0
 40
0.0
 40
0.0
 40
0.0
 40
0.5
 40
0.5
 40
1.0
 40
1.0
 40
1.0
 40
1.0
 10
2015.836879618245
 20
981.8620466485075
 30
0.0
 10
2015.840270356532
 20
981.8620466485075
 30
0.0
 10
2015.864646392306
 20
981.8620466485075
 30
0.0
 10
2015.940308969961
 20
981.8620466485075
 30
0.0
 10
2015.991027979133
 20
981.8620466485075
 30
0.0
 10
2016.042460206055
 20
981.8620466485075
 30
0.0
  0
ARC
  5
643
330
5DD
100
AcDbEntity
  8
0
  6
Continuous
 62
     7
370
    15
100
AcDbCircle
 10
2065.967417101199
 20
981.3620466485074
 30
0.0
 40
2.188421798069978
100
AcDbArc
 50
193.2073141036489
 51
346.792685896351
  0
SPLINE
  5
644
330
5DD
100
AcDbEntity
  8
0
  6
Continuous
 62
     7
370
    15
100
AcDbSpline
210
0.0
220
0.0
230
1.0
 70
    24
 71
     3
 72
    10
 73
     6
 74
     0
 42
0.0000000001
 43
0.0000000001
 40
0.0
 40
0.0
 40
0.0
 40
0.0
 40
0.5
 40
0.5
 40
1.0
 40
1.0
 40
1.0
 40
1.0
 10
2068.097954584152
 20
980.8620466485075
 30
0.0
 10
2068.094563845866
 20
980.8620466485075
 30
0.0
 10
2068.070187810091
 20
980.8620466485075
 30
0.0
 10
2067.994525232437
 20
980.8620466485075
 30
0.0
 10
2067.943806223264
 20
980.8620466485075
 30
0.0
 10
2067.892373996342
 20
980.8620466485075
 30
0.0
  0
SPLINE
  5
645
330
5DD
100
AcDbEntity
  8
0
  6
Continuous
 62
     7
370
    15
100
AcDbSpline
210
0.0
220
0.0
230
1.0
 70
    24
 71
     3
 72
    10
 73
     6
 74
     0
 42
0.0000000001
 43
0.0000000001
 40
0.0
 40
0.0
 40
0.0
 40
0.0
 40
0.5
 40
0.5
 40
1.0
 40
1.0
 40
1.0
 40
1.0
 10
2064.042460206055
 20
980.8620466485075
 30
0.0
 10
2063.990993622463
 20
980.8620466485075
 30
0.0
 10
2063.940594380496
 20
980.8620466485075
 30
0.0
 10
2063.864544382203
 20
980.8620466485075
 30
0.0
 10
2063.840272935566
 20
980.8620466485075
 30
0.0
 10
2063.836879618246
 20
980.8620466485075
 30
0.0
  0
ARC
  5
646
330
5DD
100
AcDbEntity
  8
0
  6
Continuous
 62
     7
370
    15
100
AcDbCircle
 10
2029.967417101198
 20
968.1120466485072
 30
0.0
 40
16.95000000000021
100
AcDbArc
 50
78.33628343584944
 51
101.6637165641505
  0
LINE
  5
647
330
5DD
100
AcDbEntity
  8
0
  6
Continuous
 62
     7
370
    15
100
AcDbLine
 10
2050.540683963064
 20
984.7120466485076
 30
0.0
 11
2045.394150239334
 21
984.7120466485076
 31
0.0
  0
ARC
  5
648
330
5DD
100
AcDbEntity
  8
0
  6
Continuous
 62
     7
370
    15
100
AcDbCircle
 10
2053.967417101199
 20
968.1120466485072
 30
0.0
 40
16.9500000000002
100
AcDbArc
 50
78.33628343584944
 51
101.6637165641505
  0
LINE
  5
649
330
5DD
100
AcDbEntity
  8
0
  6
Continuous
 62
     7
370
    15
100
AcDbLine
 10
2062.540683963064
 20
984.7120466485076
 30
0.0
 11
2057.394150239334
 21
984.7120466485076
 31
0.0
  0
ARC
  5
64A
330
5DD
100
AcDbEntity
  8
0
  6
Continuous
 62
     7
370
    15
100
AcDbCircle
 10
2065.967417101199
 20
968.1120466485072
 30
0.0
 40
16.95000000000021
100
AcDbArc
 50
78.33628343584944
 51
101.6637165641505
  0
LINE
  5
64B
330
5DD
100
AcDbEntity
  8
0
  6
Continuous
 62
     7
370
    15
100
AcDbLine
 10
2071.667417101198
 20
984.7120466485076
 30
0.0
 11
2069.394150239334
 21
984.7120466485076
 31
0.0
  0
LINE
  5
64C
330
5DD
100
AcDbEntity
  8
0
  6
Continuous
 62
     7
370
    15
100
AcDbLine
 10
2071.667417101198
 20
978.0120466485076
 30
0.0
 11
2071.667417101198
 21
984.7120466485076
 31
0.0
  0
LINE
  5
64D
330
5DD
100
AcDbEntity
  8
0
  6
Continuous
 62
     7
370
    15
100
AcDbLine
 10
2069.414517331829
 20
978.0120466485076
 30
0.0
 11
2071.667417101198
 21
978.0120466485076
 31
0.0
  0
ARC
  5
64E
330
5DD
100
AcDbEntity
  8
0
  6
Continuous
 62
     7
370
    15
100
AcDbCircle
 10
2065.967417101199
 20
994.8120466485075
 30
0.0
 40
17.15000000000023
100
AcDbArc
 50
258.404727340934
 51
281.595272659066
  0
LINE
  5
64F
330
5DD
100
AcDbEntity
  8
0
  6
Continuous
 62
     7
370
    15
100
AcDbLine
 10
2057.414517331829
 20
978.0120466485076
 30
0.0
 11
2062.520316870569
 21
978.0120466485076
 31
0.0
  0
ARC
  5
650
330
5DD
100
AcDbEntity
  8
0
  6
Continuous
 62
     7
370
    15
100
AcDbCircle
 10
2053.967417101199
 20
994.8120466485075
 30
0.0
 40
17.15000000000023
100
AcDbArc
 50
258.404727340934
 51
281.595272659066
  0
ARC
  5
651
330
5DD
100
AcDbEntity
  8
0
  6
Continuous
 62
     7
370
    15
100
AcDbCircle
 10
2017.967417101198
 20
994.8120466485075
 30
0.0
 40
17.15000000000021
100
AcDbArc
 50
258.404727340934
 51
281.595272659066
  0
LINE
  5
652
330
5DD
100
AcDbEntity
  8
0
  6
Continuous
 62
     7
370
    15
100
AcDbLine
 10
2009.414517331828
 20
978.0120466485074
 30
0.0
 11
2014.520316870569
 21
978.0120466485074
 31
0.0
  0
ARC
  5
653
330
5DD
100
AcDbEntity
  8
0
  6
Continuous
 62
     7
370
    15
100
AcDbCircle
 10
2005.967417101199
 20
994.8120466485075
 30
0.0
 40
17.15000000000022
100
AcDbArc
 50
258.404727340934
 51
281.595272659066
  0
LINE
  5
654
330
5DD
100
AcDbEntity
  8
0
  6
Continuous
 62
     7
370
    15
100
AcDbLine
 10
2000.267417101198
 20
984.7120466485076
 30
0.0
 11
2000.267417101198
 21
978.0120466485074
 31
0.0
  0
LINE
  5
655
330
5DD
100
AcDbEntity
  8
0
  6
Continuous
 62
     7
370
    15
100
AcDbLine
 10
2002.540683963064
 20
984.7120466485076
 30
0.0
 11
2000.267417101198
 21
984.7120466485076
 31
0.0
  0
ARC
  5
656
330
5DD
100
AcDbEntity
  8
0
  6
Continuous
 62
     7
370
    15
100
AcDbCircle
 10
2005.967417101199
 20
968.1120466485072
 30
0.0
 40
16.95000000000019
100
AcDbArc
 50
78.33628343584944
 51
101.6637165641505
  0
LINE
  5
657
330
5DD
100
AcDbEntity
  8
0
  6
Continuous
 62
     7
370
    15
100
AcDbLine
 10
2014.540683963064
 20
984.7120466485076
 30
0.0
 11
2009.394150239334
 21
984.7120466485076
 31
0.0
  0
ARC
  5
658
330
5DD
100
AcDbEntity
  8
0
  6
Continuous
 62
     7
370
    15
100
AcDbCircle
 10
2017.967417101198
 20
968.1120466485072
 30
0.0
 40
16.95000000000021
100
AcDbArc
 50
78.33628343584944
 51
101.6637165641505
  0
LINE
  5
659
330
5DD
100
AcDbEntity
  8
0
  6
Continuous
 62
     7
370
    15
100
AcDbLine
 10
2026.540683963064
 20
984.7120466485076
 30
0.0
 11
2021.394150239334
 21
984.7120466485076
 31
0.0
  0
LINE
  5
65A
330
5DD
100
AcDbEntity
  8
0
  6
Continuous
 62
     7
370
    15
100
AcDbLine
 10
2038.540683963064
 20
984.7120466485076
 30
0.0
 11
2033.394150239334
 21
984.7120466485076
 31
0.0
  0
ARC
  5
65B
330
5DD
100
AcDbEntity
  8
0
  6
Continuous
 62
     7
370
    15
100
AcDbCircle
 10
2041.967417101199
 20
994.8120466485075
 30
0.0
 40
17.1500000000002
100
AcDbArc
 50
258.404727340934
 51
281.595272659066
  0
LINE
  5
65C
330
5DD
100
AcDbEntity
  8
0
  6
Continuous
 62
     7
370
    15
100
AcDbLine
 10
2033.414517331828
 20
978.0120466485074
 30
0.0
 11
2038.520316870569
 21
978.0120466485076
 31
0.0
  0
ARC
  5
65D
330
5DD
100
AcDbEntity
  8
0
  6
Continuous
 62
     7
370
    15
100
AcDbCircle
 10
2029.967417101198
 20
994.8120466485075
 30
0.0
 40
17.15000000000022
100
AcDbArc
 50
258.404727340934
 51
281.595272659066
  0
ARC
  5
65E
330
5DD
100
AcDbEntity
  8
0
  6
Continuous
 62
     7
370
    15
100
AcDbCircle
 10
2041.967417101199
 20
968.1120466485072
 30
0.0
 40
16.95000000000021
100
AcDbArc
 50
78.33628343584944
 51
101.6637165641505
  0
LINE
  5
65F
330
5DD
100
AcDbEntity
  8
0
  6
Continuous
 62
     7
370
    15
100
AcDbLine
 10
2000.267417101198
 20
978.0120466485074
 30
0.0
 11
2002.520316870569
 21
978.0120466485074
 31
0.0
  0
LINE
  5
660
330
5DD
100
AcDbEntity
  8
0
  6
Continuous
 62
     7
370
    15
100
AcDbLine
 10
2021.414517331828
 20
978.0120466485074
 30
0.0
 11
2026.520316870569
 21
978.0120466485074
 31
0.0
  0
LINE
  5
661
330
5DD
100
AcDbEntity
  8
0
  6
Continuous
 62
     7
370
    15
100
AcDbLine
 10
2045.414517331828
 20
978.0120466485076
 30
0.0
 11
2050.520316870569
 21
978.0120466485076
 31
0.0
  0
ENDBLK
  5
5DF
330
5DD
100
AcDbEntity
  8
0
100
AcDbBlockEnd
  0
BLOCK
  5
664
330
663
100
AcDbEntity
  8
0
100
AcDbBlockBegin
  2
2
 70
     0
 10
0.0
 20
0.0
 30
0.0
  3
2
  1

  0
LINE
  5
666
330
663
100
AcDbEntity
  8
0
  6
Continuous
 62
     7
370
    15
100
AcDbLine
 10
1973.717072612952
 20
1015.543707238123
 30
0.0
 11
1973.717072612952
 21
1011.643707238123
 31
0.0
  0
LINE
  5
667
330
663
100
AcDbEntity
  8
0
  6
Continuous
 62
     7
370
    15
100
AcDbLine
 10
1981.117072612952
 20
1011.643707238123
 30
0.0
 11
1981.117072612952
 21
1015.543707238123
 31
0.0
  0
ARC
  5
668
330
663
100
AcDbEntity
  8
0
  6
Continuous
 62
     7
370
    15
100
AcDbCircle
 10
1974.192072612952
 20
1016.643707238123
 30
0.0
 40
0.2000000000000028
100
AcDbArc
 50
180.0
 51
270.0
  0
ARC
  5
669
330
663
100
AcDbEntity
  8
0
  6
Continuous
 62
     7
370
    15
100
AcDbCircle
 10
1980.642072612952
 20
1016.643707238123
 30
0.0
 40
0.2000000000000028
100
AcDbArc
 50
270.0
 51
0.0
  0
LINE
  5
66A
330
663
100
AcDbEntity
  8
0
  6
Continuous
 62
     7
370
    15
100
AcDbLine
 10
1980.842072612952
 20
1016.643707238123
 30
0.0
 11
1980.842072612952
 21
1021.843707238123
 31
0.0
  0
LINE
  5
66B
330
663
100
AcDbEntity
  8
0
  6
Continuous
 62
     7
370
    15
100
AcDbLine
 10
1973.992072612952
 20
1021.843707238123
 30
0.0
 11
1973.992072612952
 21
1016.643707238123
 31
0.0
  0
LINE
  5
66C
330
663
100
AcDbEntity
  8
0
  6
Continuous
 62
     7
370
    15
100
AcDbLine
 10
1980.417072612952
 20
1015.543707238123
 30
0.0
 11
1980.417072612952
 21
1016.443707238123
 31
0.0
  0
LINE
  5
66D
330
663
100
AcDbEntity
  8
0
  6
Continuous
 62
     7
370
    15
100
AcDbLine
 10
1974.417072612952
 20
1016.443707238123
 30
0.0
 11
1974.417072612952
 21
1015.543707238123
 31
0.0
  0
LINE
  5
66E
330
663
100
AcDbEntity
  8
0
  6
Continuous
 62
     7
370
    15
100
AcDbLine
 10
1980.417072612952
 20
1000.843707238042
 30
0.0
 11
1980.417072612952
 21
1011.543707238045
 31
0.0
  0
LINE
  5
66F
330
663
100
AcDbEntity
  8
0
  6
Continuous
 62
     7
370
    15
100
AcDbLine
 10
1974.417072612952
 20
1011.543707238045
 30
0.0
 11
1974.417072612952
 21
1000.843707238042
 31
0.0
  0
LINE
  5
670
330
663
100
AcDbEntity
  8
0
  6
Continuous
 62
     7
370
    15
100
AcDbLine
 10
1974.41707261304
 20
1000.843707238042
 30
0.0
 11
1974.617072612916
 21
1000.643707238167
 31
0.0
  0
LINE
  5
671
330
663
100
AcDbEntity
  8
0
  6
Continuous
 62
     7
370
    15
100
AcDbLine
 10
1980.217072612988
 20
1000.643707238167
 30
0.0
 11
1980.417072612864
 21
1000.843707238042
 31
0.0
  0
LINE
  5
672
330
663
100
AcDbEntity
  8
0
  6
Continuous
 62
     7
370
    15
100
AcDbLine
 10
1980.417072612944
 20
1011.543707238045
 30
0.0
 11
1980.317072612855
 21
1011.643707238134
 31
0.0
  0
LINE
  5
673
330
663
100
AcDbEntity
  8
0
  6
Continuous
 62
     7
370
    15
100
AcDbLine
 10
1974.517072613049
 20
1011.643707238134
 30
0.0
 11
1974.417072612961
 21
1011.543707238045
 31
0.0
  0
LINE
  5
674
330
663
100
AcDbEntity
  8
0
  6
Continuous
 62
     7
370
    15
100
AcDbLine
 10
1974.067072612952
 20
1015.543707238123
 30
0.0
 11
1974.067072612952
 21
1011.643707238123
 31
0.0
  0
LINE
  5
675
330
663
100
AcDbEntity
  8
0
  6
Continuous
 62
     7
370
    15
100
AcDbLine
 10
1980.767072612952
 20
1015.543707238123
 30
0.0
 11
1980.767072612952
 21
1011.643707238123
 31
0.0
  0
LINE
  5
676
330
663
100
AcDbEntity
  8
0
  6
Continuous
 62
     7
370
    15
100
AcDbLine
 10
1974.067072612952
 20
1015.543707238123
 30
0.0
 11
1980.767072612952
 21
1015.543707238123
 31
0.0
  0
LINE
  5
677
330
663
100
AcDbEntity
  8
0
  6
Continuous
 62
     7
370
    15
100
AcDbLine
 10
1980.767072612952
 20
1011.643707238123
 30
0.0
 11
1974.067072612952
 21
1011.643707238123
 31
0.0
  0
LINE
  5
678
330
663
100
AcDbEntity
  8
0
  6
Continuous
 62
     7
370
    15
100
AcDbLine
 10
1974.067072612952
 20
1015.543707238123
 30
0.0
 11
1973.717072612952
 21
1015.543707238123
 31
0.0
  0
LINE
  5
679
330
663
100
AcDbEntity
  8
0
  6
Continuous
 62
     7
370
    15
100
AcDbLine
 10
1974.067072612952
 20
1011.643707238123
 30
0.0
 11
1973.717072612952
 21
1011.643707238123
 31
0.0
  0
LINE
  5
67A
330
663
100
AcDbEntity
  8
0
  6
Continuous
 62
     7
370
    15
100
AcDbLine
 10
1981.117072612952
 20
1015.543707238123
 30
0.0
 11
1980.767072612952
 21
1015.543707238123
 31
0.0
  0
LINE
  5
67B
330
663
100
AcDbEntity
  8
0
  6
Continuous
 62
     7
370
    15
100
AcDbLine
 10
1981.117072612952
 20
1011.643707238123
 30
0.0
 11
1980.767072612952
 21
1011.643707238123
 31
0.0
  0
SPLINE
  5
67C
330
663
100
AcDbEntity
  8
0
  6
Continuous
 62
     7
370
    15
100
AcDbSpline
210
0.0
220
0.0
230
1.0
 70
    24
 71
     3
 72
    10
 73
     6
 74
     0
 42
0.0000000001
 43
0.0000000001
 40
0.0
 40
0.0
 40
0.0
 40
0.0
 40
0.5
 40
0.5
 40
1.0
 40
1.0
 40
1.0
 40
1.0
 10
1974.192072612952
 20
1016.443707238123
 30
0.0
 10
1974.192072612952
 20
1016.443707238123
 30
0.0
 10
1974.531865539592
 20
1016.443707238123
 30
0.0
 10
1975.741440947659
 20
1016.443707238123
 30
0.0
 10
1976.561773639552
 20
1016.443707238123
 30
0.0
 10
1977.417072612952
 20
1016.443707238123
 30
0.0
  0
SPLINE
  5
67D
330
663
100
AcDbEntity
  8
0
  6
Continuous
 62
     7
370
    15
100
AcDbSpline
210
0.0
220
0.0
230
1.0
 70
    24
 71
     3
 72
     8
 73
     4
 74
     0
 42
0.0000000001
 43
0.0000000001
 40
0.0
 40
0.0
 40
0.0
 40
0.0
 40
1.0
 40
1.0
 40
1.0
 40
1.0
 10
1977.417072612952
 20
1016.443707238123
 30
0.0
 10
1979.196998519954
 20
1016.443707238123
 30
0.0
 10
1980.642072612952
 20
1016.443707238123
 30
0.0
 10
1980.642072612952
 20
1016.443707238123
 30
0.0
  0
LINE
  5
67E
330
663
100
AcDbEntity
  8
0
  6
Continuous
 62
     7
370
    15
100
AcDbLine
 10
1980.842072612952
 20
1021.843707238123
 30
0.0
 11
1973.992072612952
 21
1021.843707238123
 31
0.0
  0
LINE
  5
67F
330
663
100
AcDbEntity
  8
0
  6
Continuous
 62
     7
370
    15
100
AcDbLine
 10
1974.417072612961
 20
1011.543707238045
 30
0.0
 11
1980.417072612944
 21
1011.543707238045
 31
0.0
  0
LINE
  5
680
330
663
100
AcDbEntity
  8
0
  6
Continuous
 62
     7
370
    15
100
AcDbLine
 10
1974.417072612952
 20
1000.843707238042
 30
0.0
 11
1980.417072612952
 21
1000.843707238042
 31
0.0
  0
LINE
  5
681
330
663
100
AcDbEntity
  8
0
  6
Continuous
 62
     7
370
    15
100
AcDbLine
 10
1974.617072612916
 20
1000.643707238167
 30
0.0
 11
1980.217072612988
 21
1000.643707238167
 31
0.0
  0
LINE
  5
682
330
663
100
AcDbEntity
  8
0
  6
Continuous
 62
     8
370
    15
100
AcDbLine
 10
1977.417072612952
 20
1016.643707238123
 30
0.0
 11
1973.992072612952
 21
1016.643707238123
 31
0.0
  0
LINE
  5
683
330
663
100
AcDbEntity
  8
0
  6
Continuous
 62
     8
370
    15
100
AcDbLine
 10
1980.842072612952
 20
1016.643707238123
 30
0.0
 11
1977.417072612952
 21
1016.643707238123
 31
0.0
  0
ENDBLK
  5
665
330
663
100
AcDbEntity
  8
0
100
AcDbBlockEnd
  0
BLOCK
  5
686
330
685
100
AcDbEntity
  8
0
100
AcDbBlockBegin
  2
4
 70
     0
 10
0.0
 20
0.0
 30
0.0
  3
4
  1

  0
LINE
  5
688
330
685
100
AcDbEntity
  8
0
  6
Continuous
 62
     7
370
    15
100
AcDbLine
 10
2145.831049288487
 20
1002.374908324975
 30
0.0
 11
2145.903884435933
 21
1006.971814170147
 31
0.0
  0
LINE
  5
689
330
685
100
AcDbEntity
  8
0
  6
Continuous
 62
     7
370
    15
100
AcDbLine
 10
2139.054744101645
 20
1007.080334588647
 30
0.0
 11
2138.981908954199
 21
1002.483428743476
 31
0.0
  0
SPLINE
  5
68A
330
685
100
AcDbEntity
  8
0
  6
Continuous
 62
     7
370
    15
100
AcDbSpline
210
0.0
220
0.0
230
1.0
 70
     8
 71
     3
 72
    24
 73
    20
 74
     0
 42
0.0000000001
 43
0.0000000001
 40
0.0
 40
0.0
 40
0.0
 40
0.0
 40
0.0150036251565144
 40
0.0857950840535452
 40
0.1525016822299534
 40
0.2205172455243148
 40
0.2893109175673704
 40
0.3582204199371123
 40
0.4268642369049795
 40
0.4950793898857311
 40
0.5628624432855011
 40
0.6300551284532487
 40
0.6962853705168414
 40
0.7606680931866908
 40
0.8206329922639488
 40
0.8723948456615122
 40
0.9149477786263247
 40
0.9656333071964786
 40
1.0
 40
1.0
 40
1.0
 40
1.0
 10
2138.985522028484
 20
1002.474719190368
 30
0.0
 10
2138.984299465616
 20
1002.459975936923
 30
0.0
 10
2138.977308496237
 20
1002.375669733902
 30
0.0
 10
2139.00938510612
 20
1002.225556390012
 30
0.0
 10
2139.081999843254
 20
1002.031167119203
 30
0.0
 10
2139.195702077618
 20
1001.848881144854
 30
0.0
 10
2139.34539116664
 20
1001.676465280179
 30
0.0
 10
2139.529140079005
 20
1001.515771846049
 30
0.0
 10
2139.743271572628
 20
1001.368052637939
 30
0.0
 10
2139.984733925556
 20
1001.234067049248
 30
0.0
 10
2140.250264887291
 20
1001.114517254189
 30
0.0
 10
2140.535981261277
 20
1001.010214781728
 30
0.0
 10
2140.836228365631
 20
1000.922176482648
 30
0.0
 10
2141.140922194685
 20
1000.851745184274
 30
0.0
 10
2141.433418889107
 20
1000.79988106895
 30
0.0
 10
2141.696231541683
 20
1000.765125579845
 30
0.0
 10
2141.946990831635
 20
1000.741278165915
 30
0.0
 10
2142.169962804814
 20
1000.727440020035
 30
0.0
 10
2142.319155111487
 20
1000.723949110968
 30
0.0
 10
2142.379438618364
 20
1000.722538554047
 30
0.0
  0
LINE
  5
68B
330
685
100
AcDbEntity
  8
0
  6
Continuous
 62
     7
370
    15
100
AcDbLine
 10
2139.393617271569
 20
1001.641172891516
 30
0.0
 11
2139.391448182239
 21
1001.504273334485
 31
0.0
  0
LINE
  5
68C
330
685
100
AcDbEntity
  8
0
  6
Continuous
 62
     7
370
    15
100
AcDbLine
 10
2145.141101096232
 20
988.4349999548561
 30
0.0
 11
2145.254112545545
 21
995.5675864894558
 31
0.0
  0
LINE
  5
68D
330
685
100
AcDbEntity
  8
0
  6
Continuous
 62
     7
370
    15
100
AcDbLine
 10
2139.27667269902
 20
997.0389745802235
 30
0.0
 11
2139.141854088096
 21
988.5300543360246
 31
0.0
  0
LINE
  5
68E
330
685
100
AcDbEntity
  8
0
  6
Continuous
 62
     7
370
    15
100
AcDbLine
 10
2137.329798199537
 20
1006.437365140116
 30
0.0
 11
2137.402633346983
 21
1011.034270985287
 31
0.0
  0
LINE
  5
68F
330
685
100
AcDbEntity
  8
0
  6
Continuous
 62
     7
370
    15
100
AcDbLine
 10
2130.553493012695
 20
1011.142791403788
 30
0.0
 11
2130.480657865249
 21
1006.545885558617
 31
0.0
  0
SPLINE
  5
690
330
685
100
AcDbEntity
  8
0
  6
Continuous
 62
     7
370
    15
100
AcDbSpline
210
0.0
220
0.0
230
1.0
 70
     8
 71
     3
 72
    24
 73
    20
 74
     0
 42
0.0000000001
 43
0.0000000001
 40
0.0
 40
0.0
 40
0.0
 40
0.0
 40
0.0150036251565084
 40
0.0857950840535355
 40
0.1525016822299436
 40
0.2205172455243053
 40
0.2893109175673613
 40
0.3582204199371021
 40
0.4268642369049696
 40
0.4950793898857202
 40
0.5628624432854893
 40
0.6300551284532366
 40
0.6962853705168257
 40
0.7606680931866773
 40
0.8206329922639376
 40
0.8723948456615071
 40
0.9149477786263254
 40
0.9656333071965025
 40
1.0
 40
1.0
 40
1.0
 40
1.0
 10
2130.484270939535
 20
1006.537176005509
 30
0.0
 10
2130.483048376667
 20
1006.522432752064
 30
0.0
 10
2130.476057407287
 20
1006.438126549043
 30
0.0
 10
2130.508134017171
 20
1006.288013205153
 30
0.0
 10
2130.580748754304
 20
1006.093623934344
 30
0.0
 10
2130.694450988668
 20
1005.911337959995
 30
0.0
 10
2130.84414007769
 20
1005.73892209532
 30
0.0
 10
2131.027888990055
 20
1005.57822866119
 30
0.0
 10
2131.242020483678
 20
1005.43050945308
 30
0.0
 10
2131.483482836606
 20
1005.296523864389
 30
0.0
 10
2131.749013798341
 20
1005.17697406933
 30
0.0
 10
2132.034730172327
 20
1005.072671596869
 30
0.0
 10
2132.334977276681
 20
1004.984633297789
 30
0.0
 10
2132.639671105736
 20
1004.914201999415
 30
0.0
 10
2132.932167800157
 20
1004.862337884091
 30
0.0
 10
2133.194980452733
 20
1004.827582394986
 30
0.0
 10
2133.445739742685
 20
1004.803734981056
 30
0.0
 10
2133.668711715865
 20
1004.789896835176
 30
0.0
 10
2133.817904022537
 20
1004.786405926109
 30
0.0
 10
2133.878187529414
 20
1004.784995369188
 30
0.0
  0
LINE
  5
691
330
685
100
AcDbEntity
  8
0
  6
Continuous
 62
     7
370
    15
100
AcDbLine
 10
2139.583209209544
 20
987.7822011672447
 30
0.0
 11
2139.750959083127
 21
987.6520854949053
 31
0.0
  0
LINE
  5
692
330
685
100
AcDbEntity
  8
0
  6
Continuous
 62
     7
370
    15
100
AcDbLine
 10
2144.504487078946
 20
987.5767687657564
 30
0.0
 11
2144.676274919134
 21
987.7015046717314
 31
0.0
  0
LINE
  5
693
330
685
100
AcDbEntity
  8
0
  6
Continuous
 62
     7
370
    15
100
AcDbLine
 10
2130.892366182619
 20
1005.703629706657
 30
0.0
 11
2130.890197093288
 21
1005.566730149626
 31
0.0
  0
LINE
  5
694
330
685
100
AcDbEntity
  8
0
  6
Continuous
 62
     7
370
    15
100
AcDbLine
 10
2136.639850007282
 20
992.4974567699971
 30
0.0
 11
2136.734585313925
 21
998.4765657596144
 31
0.0
  0
LINE
  5
695
330
685
100
AcDbEntity
  8
0
  6
Continuous
 62
     7
370
    15
100
AcDbLine
 10
2130.77542161007
 20
1001.101431395364
 30
0.0
 11
2130.640602999147
 21
992.5925111511654
 31
0.0
  0
LINE
  5
696
330
685
100
AcDbEntity
  8
0
  6
Continuous
 62
     7
370
    15
100
AcDbLine
 10
2128.828547110587
 20
1010.499821955257
 30
0.0
 11
2128.901382258033
 21
1015.096727800428
 31
0.0
  0
LINE
  5
697
330
685
100
AcDbEntity
  8
0
  6
Continuous
 62
     7
370
    15
100
AcDbLine
 10
2122.052241923745
 20
1015.205248218929
 30
0.0
 11
2121.979406776299
 21
1010.608342373757
 31
0.0
  0
SPLINE
  5
698
330
685
100
AcDbEntity
  8
0
  6
Continuous
 62
     7
370
    15
100
AcDbSpline
210
0.0
220
0.0
230
1.0
 70
     8
 71
     3
 72
    24
 73
    20
 74
     0
 42
0.0000000001
 43
0.0000000001
 40
0.0
 40
0.0
 40
0.0
 40
0.0
 40
0.0150036251565173
 40
0.0857950840535471
 40
0.1525016822299557
 40
0.2205172455243207
 40
0.2893109175673775
 40
0.3582204199371204
 40
0.4268642369049889
 40
0.4950793898857406
 40
0.5628624432855104
 40
0.6300551284532605
 40
0.6962853705168516
 40
0.7606680931866979
 40
0.8206329922639579
 40
0.8723948456615124
 40
0.9149477786263158
 40
0.9656333071964283
 40
1.0
 40
1.0
 40
1.0
 40
1.0
 10
2121.983019850585
 20
1010.59963282065
 30
0.0
 10
2121.981797287716
 20
1010.584889567205
 30
0.0
 10
2121.974806318337
 20
1010.500583364184
 30
0.0
 10
2122.006882928221
 20
1010.350470020294
 30
0.0
 10
2122.079497665354
 20
1010.156080749485
 30
0.0
 10
2122.193199899718
 20
1009.973794775136
 30
0.0
 10
2122.34288898874
 20
1009.801378910461
 30
0.0
 10
2122.526637901106
 20
1009.640685476331
 30
0.0
 10
2122.740769394728
 20
1009.492966268221
 30
0.0
 10
2122.982231747656
 20
1009.35898067953
 30
0.0
 10
2123.247762709391
 20
1009.239430884471
 30
0.0
 10
2123.533479083377
 20
1009.13512841201
 30
0.0
 10
2123.833726187731
 20
1009.04709011293
 30
0.0
 10
2124.138420016786
 20
1008.976658814556
 30
0.0
 10
2124.430916711207
 20
1008.924794699232
 30
0.0
 10
2124.693729363783
 20
1008.890039210127
 30
0.0
 10
2124.944488653735
 20
1008.866191796197
 30
0.0
 10
2125.167460626915
 20
1008.852353650317
 30
0.0
 10
2125.316652933587
 20
1008.84886274125
 30
0.0
 10
2125.376936440464
 20
1008.847452184329
 30
0.0
  0
LINE
  5
699
330
685
100
AcDbEntity
  8
0
  6
Continuous
 62
     7
370
    15
100
AcDbLine
 10
2131.081958120594
 20
991.8446579823855
 30
0.0
 11
2131.249707994178
 21
991.714542310046
 31
0.0
  0
LINE
  5
69A
330
685
100
AcDbEntity
  8
0
  6
Continuous
 62
     7
370
    15
100
AcDbLine
 10
2136.003235989996
 20
991.6392255808972
 30
0.0
 11
2136.175023830184
 21
991.7639614868722
 31
0.0
  0
LINE
  5
69B
330
685
100
AcDbEntity
  8
0
  6
Continuous
 62
     7
370
    15
100
AcDbLine
 10
2122.39111509367
 20
1009.766086521798
 30
0.0
 11
2122.388946004339
 21
1009.629186964767
 31
0.0
  0
LINE
  5
69C
330
685
100
AcDbEntity
  8
0
  6
Continuous
 62
     7
370
    15
100
AcDbLine
 10
2128.138598918332
 20
996.559913585138
 30
0.0
 11
2128.233334224975
 21
1002.539022574755
 31
0.0
  0
LINE
  5
69D
330
685
100
AcDbEntity
  8
0
  6
Continuous
 62
     7
370
    15
100
AcDbLine
 10
2122.27417052112
 20
1005.163888210505
 30
0.0
 11
2122.139351910197
 21
996.6549679663064
 31
0.0
  0
LINE
  5
69E
330
685
100
AcDbEntity
  8
0
  6
Continuous
 62
     7
370
    15
100
AcDbLine
 10
2120.327296021637
 20
1014.562278770398
 30
0.0
 11
2120.400131169083
 21
1019.159184615569
 31
0.0
  0
LINE
  5
69F
330
685
100
AcDbEntity
  8
0
  6
Continuous
 62
     7
370
    15
100
AcDbLine
 10
2113.550990834795
 20
1019.26770503407
 30
0.0
 11
2113.478155687349
 21
1014.670799188898
 31
0.0
  0
SPLINE
  5
6A0
330
685
100
AcDbEntity
  8
0
  6
Continuous
 62
     7
370
    15
100
AcDbSpline
210
0.0
220
0.0
230
1.0
 70
     8
 71
     3
 72
    24
 73
    20
 74
     0
 42
0.0000000001
 43
0.0000000001
 40
0.0
 40
0.0
 40
0.0
 40
0.0
 40
0.0150036251564908
 40
0.0857950840535117
 40
0.1525016822299202
 40
0.2205172455242757
 40
0.2893109175673277
 40
0.3582204199370678
 40
0.4268642369049336
 40
0.4950793898856836
 40
0.5628624432854532
 40
0.6300551284531987
 40
0.696285370516791
 40
0.7606680931866387
 40
0.8206329922639028
 40
0.8723948456614849
 40
0.9149477786262993
 40
0.9656333071964537
 40
1.0
 40
1.0
 40
1.0
 40
1.0
 10
2113.481768761635
 20
1014.662089635791
 30
0.0
 10
2113.480546198767
 20
1014.647346382346
 30
0.0
 10
2113.473555229387
 20
1014.563040179325
 30
0.0
 10
2113.505631839271
 20
1014.412926835435
 30
0.0
 10
2113.578246576405
 20
1014.218537564626
 30
0.0
 10
2113.691948810768
 20
1014.036251590277
 30
0.0
 10
2113.84163789979
 20
1013.863835725602
 30
0.0
 10
2114.025386812155
 20
1013.703142291472
 30
0.0
 10
2114.239518305778
 20
1013.555423083362
 30
0.0
 10
2114.480980658706
 20
1013.421437494671
 30
0.0
 10
2114.746511620441
 20
1013.301887699612
 30
0.0
 10
2115.032227994428
 20
1013.197585227151
 30
0.0
 10
2115.332475098781
 20
1013.109546928071
 30
0.0
 10
2115.637168927836
 20
1013.039115629696
 30
0.0
 10
2115.929665622257
 20
1012.987251514373
 30
0.0
 10
2116.192478274833
 20
1012.952496025268
 30
0.0
 10
2116.443237564785
 20
1012.928648611338
 30
0.0
 10
2116.666209537964
 20
1012.914810465458
 30
0.0
 10
2116.815401844637
 20
1012.911319556391
 30
0.0
 10
2116.875685351514
 20
1012.909908999469
 30
0.0
  0
LINE
  5
6A1
330
685
100
AcDbEntity
  8
0
  6
Continuous
 62
     7
370
    15
100
AcDbLine
 10
2122.580707031644
 20
995.9071147975265
 30
0.0
 11
2122.748456905227
 21
995.776999125187
 31
0.0
  0
LINE
  5
6A2
330
685
100
AcDbEntity
  8
0
  6
Continuous
 62
     7
370
    15
100
AcDbLine
 10
2127.501984901046
 20
995.7016823960382
 30
0.0
 11
2127.673772741234
 21
995.8264183020132
 31
0.0
  0
LINE
  5
6A3
330
685
100
AcDbEntity
  8
0
  6
Continuous
 62
     7
370
    15
100
AcDbLine
 10
2113.889864004719
 20
1013.828543336939
 30
0.0
 11
2113.887694915389
 21
1013.691643779907
 31
0.0
  0
LINE
  5
6A4
330
685
100
AcDbEntity
  8
0
  6
Continuous
 62
     7
370
    15
100
AcDbLine
 10
2119.637347829382
 20
1000.622370400279
 30
0.0
 11
2119.732083136026
 21
1006.601479389896
 31
0.0
  0
LINE
  5
6A5
330
685
100
AcDbEntity
  8
0
  6
Continuous
 62
     7
370
    15
100
AcDbLine
 10
2113.77291943217
 20
1009.226345025646
 30
0.0
 11
2113.638100821247
 21
1000.717424781447
 31
0.0
  0
LINE
  5
6A6
330
685
100
AcDbEntity
  8
0
  6
Continuous
 62
     7
370
    15
100
AcDbLine
 10
2111.826044932687
 20
1018.624735585539
 30
0.0
 11
2111.898880080133
 21
1023.22164143071
 31
0.0
  0
LINE
  5
6A7
330
685
100
AcDbEntity
  8
0
  6
Continuous
 62
     7
370
    15
100
AcDbLine
 10
2105.049739745846
 20
1023.330161849211
 30
0.0
 11
2104.976904598399
 21
1018.733256004039
 31
0.0
  0
SPLINE
  5
6A8
330
685
100
AcDbEntity
  8
0
  6
Continuous
 62
     7
370
    15
100
AcDbSpline
210
0.0
220
0.0
230
1.0
 70
     8
 71
     3
 72
    24
 73
    20
 74
     0
 42
0.0000000001
 43
0.0000000001
 40
0.0
 40
0.0
 40
0.0
 40
0.0
 40
0.0150036251565168
 40
0.0857950840535504
 40
0.1525016822299629
 40
0.2205172455243276
 40
0.2893109175673845
 40
0.3582204199371217
 40
0.4268642369049937
 40
0.4950793898857423
 40
0.5628624432855145
 40
0.6300551284532556
 40
0.6962853705168534
 40
0.7606680931867044
 40
0.8206329922639666
 40
0.872394845661525
 40
0.9149477786263345
 40
0.9656333071964786
 40
1.0
 40
1.0
 40
1.0
 40
1.0
 10
2104.980517672685
 20
1018.724546450932
 30
0.0
 10
2104.979295109817
 20
1018.709803197487
 30
0.0
 10
2104.972304140437
 20
1018.625496994466
 30
0.0
 10
2105.004380750321
 20
1018.475383650576
 30
0.0
 10
2105.076995487455
 20
1018.280994379767
 30
0.0
 10
2105.190697721818
 20
1018.098708405418
 30
0.0
 10
2105.34038681084
 20
1017.926292540743
 30
0.0
 10
2105.524135723205
 20
1017.765599106613
 30
0.0
 10
2105.738267216828
 20
1017.617879898503
 30
0.0
 10
2105.979729569757
 20
1017.483894309812
 30
0.0
 10
2106.245260531491
 20
1017.364344514753
 30
0.0
 10
2106.530976905478
 20
1017.260042042292
 30
0.0
 10
2106.831224009831
 20
1017.172003743212
 30
0.0
 10
2107.135917838886
 20
1017.101572444838
 30
0.0
 10
2107.428414533307
 20
1017.049708329514
 30
0.0
 10
2107.691227185883
 20
1017.014952840409
 30
0.0
 10
2107.941986475836
 20
1016.991105426479
 30
0.0
 10
2108.164958449015
 20
1016.977267280599
 30
0.0
 10
2108.314150755687
 20
1016.973776371532
 30
0.0
 10
2108.374434262564
 20
1016.972365814611
 30
0.0
  0
LINE
  5
6A9
330
685
100
AcDbEntity
  8
0
  6
Continuous
 62
     7
370
    15
100
AcDbLine
 10
2114.079455942694
 20
999.9695716126675
 30
0.0
 11
2114.247205816278
 21
999.839455940328
 31
0.0
  0
LINE
  5
6AA
330
685
100
AcDbEntity
  8
0
  6
Continuous
 62
     7
370
    15
100
AcDbLine
 10
2119.000733812097
 20
999.7641392111789
 30
0.0
 11
2119.172521652284
 21
999.8888751171541
 31
0.0
  0
LINE
  5
6AB
330
685
100
AcDbEntity
  8
0
  6
Continuous
 62
     7
370
    15
100
AcDbLine
 10
2105.38861291577
 20
1017.89100015208
 30
0.0
 11
2105.386443826439
 21
1017.754100595048
 31
0.0
  0
LINE
  5
6AC
330
685
100
AcDbEntity
  8
0
  6
Continuous
 62
     7
370
    15
100
AcDbLine
 10
2111.136096740432
 20
1004.68482721542
 30
0.0
 11
2111.230832047076
 21
1010.663936205037
 31
0.0
  0
LINE
  5
6AD
330
685
100
AcDbEntity
  8
0
  6
Continuous
 62
     7
370
    15
100
AcDbLine
 10
2105.27166834322
 20
1013.288801840787
 30
0.0
 11
2105.136849732296
 21
1004.779881596588
 31
0.0
  0
LINE
  5
6AE
330
685
100
AcDbEntity
  8
0
  6
Continuous
 62
     7
370
    15
100
AcDbLine
 10
2103.324793843737
 20
1022.687192400679
 30
0.0
 11
2103.397628991183
 21
1027.284098245851
 31
0.0
  0
LINE
  5
6AF
330
685
100
AcDbEntity
  8
0
  6
Continuous
 62
     7
370
    15
100
AcDbLine
 10
2096.548488656895
 20
1027.392618664352
 30
0.0
 11
2096.475653509449
 21
1022.79571281918
 31
0.0
  0
SPLINE
  5
6B0
330
685
100
AcDbEntity
  8
0
  6
Continuous
 62
     7
370
    15
100
AcDbSpline
210
0.0
220
0.0
230
1.0
 70
     8
 71
     3
 72
    24
 73
    20
 74
     0
 42
0.0000000001
 43
0.0000000001
 40
0.0
 40
0.0
 40
0.0
 40
0.0
 40
0.0150036251565183
 40
0.0857950840535605
 40
0.1525016822299703
 40
0.2205172455243317
 40
0.2893109175673883
 40
0.3582204199371374
 40
0.4268642369050055
 40
0.4950793898857593
 40
0.5628624432855264
 40
0.6300551284532718
 40
0.6962853705168575
 40
0.7606680931867091
 40
0.8206329922639573
 40
0.8723948456615124
 40
0.9149477786263148
 40
0.9656333071964029
 40
1.0
 40
1.0
 40
1.0
 40
1.0
 10
2096.479266583735
 20
1022.787003266073
 30
0.0
 10
2096.478044020867
 20
1022.772260012628
 30
0.0
 10
2096.471053051487
 20
1022.687953809607
 30
0.0
 10
2096.503129661371
 20
1022.537840465717
 30
0.0
 10
2096.575744398505
 20
1022.343451194907
 30
0.0
 10
2096.689446632868
 20
1022.161165220559
 30
0.0
 10
2096.83913572189
 20
1021.988749355884
 30
0.0
 10
2097.022884634256
 20
1021.828055921753
 30
0.0
 10
2097.237016127879
 20
1021.680336713644
 30
0.0
 10
2097.478478480807
 20
1021.546351124952
 30
0.0
 10
2097.744009442541
 20
1021.426801329894
 30
0.0
 10
2098.029725816528
 20
1021.322498857433
 30
0.0
 10
2098.329972920881
 20
1021.234460558352
 30
0.0
 10
2098.634666749936
 20
1021.164029259978
 30
0.0
 10
2098.927163444357
 20
1021.112165144655
 30
0.0
 10
2099.189976096933
 20
1021.07740965555
 30
0.0
 10
2099.440735386886
 20
1021.05356224162
 30
0.0
 10
2099.663707360065
 20
1021.03972409574
 30
0.0
 10
2099.812899666738
 20
1021.036233186673
 30
0.0
 10
2099.873183173614
 20
1021.034822629751
 30
0.0
  0
LINE
  5
6B1
330
685
100
AcDbEntity
  8
0
  6
Continuous
 62
     7
370
    15
100
AcDbLine
 10
2105.578204853744
 20
1004.032028427808
 30
0.0
 11
2105.745954727328
 21
1003.901912755469
 31
0.0
  0
LINE
  5
6B2
330
685
100
AcDbEntity
  8
0
  6
Continuous
 62
     7
370
    15
100
AcDbLine
 10
2110.499482723146
 20
1003.82659602632
 30
0.0
 11
2110.671270563334
 21
1003.951331932295
 31
0.0
  0
LINE
  5
6B3
330
685
100
AcDbEntity
  8
0
  6
Continuous
 62
     7
370
    15
100
AcDbLine
 10
2096.887361826819
 20
1021.953456967221
 30
0.0
 11
2096.885192737489
 21
1021.816557410189
 31
0.0
  0
LINE
  5
6B4
330
685
100
AcDbEntity
  8
0
  6
Continuous
 62
     7
370
    15
100
AcDbLine
 10
2102.634845651482
 20
1008.74728403056
 30
0.0
 11
2102.729580958126
 21
1014.726393020178
 31
0.0
  0
LINE
  5
6B5
330
685
100
AcDbEntity
  8
0
  6
Continuous
 62
     7
370
    15
100
AcDbLine
 10
2096.77041725427
 20
1017.351258655928
 30
0.0
 11
2096.635598643347
 21
1008.842338411729
 31
0.0
  0
LINE
  5
6B6
330
685
100
AcDbEntity
  8
0
  6
Continuous
 62
     7
370
    15
100
AcDbLine
 10
2097.076953764794
 20
1008.094485242949
 30
0.0
 11
2097.244703638378
 21
1007.964369570609
 31
0.0
  0
LINE
  5
6B7
330
685
100
AcDbEntity
  8
0
  6
Continuous
 62
     7
370
    15
100
AcDbLine
 10
2101.998231634197
 20
1007.889052841461
 30
0.0
 11
2102.170019474384
 21
1008.013788747436
 31
0.0
  0
LWPOLYLINE
  5
6B8
330
685
100
AcDbEntity
  8
0
  6
Continuous
 62
     7
370
    15
100
AcDbPolyline
 90
       44
 70
   128
 43
0.0
 10
2144.232697305893
 20
1006.188192661278
 10
2143.959727674959
 20
1006.080964009811
 10
2143.655205602492
 20
1005.993878745019
 10
2143.325621447772
 20
1005.928792938126
 10
2142.977999724848
 20
1005.887093780109
 10
2142.619749387222
 20
1005.869670016125
 10
2142.258505918861
 20
1005.876893003452
 10
2141.901968597124
 20
1005.908608796656
 10
2141.557736396019
 20
1005.964141428668
 10
2141.233146027275
 20
1006.042307317851
 10
2140.935115571063
 20
1006.141440493982
 10
2140.669997029132
 20
1006.259428105525
 10
2140.443440942918
 20
1006.393755451381
 10
2140.260275962063
 20
1006.541559577389
 10
2140.124405930133
 20
1006.69969029521
 10
2140.038726680965
 20
1006.864777323134
 10
2140.005064319006
 20
1007.033302117777
 10
2140.024136299057
 20
1007.201672865725
 10
2140.095536134975
 20
1007.366301036802
 10
2140.217742063218
 20
1007.523677867362
 10
2140.388149476594
 20
1007.67044914349
 10
2140.603126436939
 20
1007.803486690253
 10
2140.858091083576
 20
1007.919955043314
 10
2141.147609287719
 20
1008.017371881936
 10
2141.465510471494
 20
1008.093660935333
 10
2141.805019123092
 20
1008.14719623478
 10
2142.158899205043
 20
1008.176836768317
 10
2142.51960837779
 20
1008.18195079943
 10
2142.879458751559
 20
1008.162429331425
 10
2143.230780740389
 20
1008.118688430501
 10
2143.566086526035
 20
1008.051660358019
 10
2143.878229647819
 20
1007.962773700975
 10
2144.160557317026
 20
1007.853922924143
 10
2144.40705220955
 20
1007.727427992849
 10
2144.612460714709
 20
1007.585984926939
 10
2144.772404906836
 20
1007.432608339797
 10
2144.883475853163
 20
1007.270567187094
 10
2144.943306269305
 20
1007.103315094671
 10
2144.950620973816
 20
1006.934416750504
 10
2144.905264066469
 20
1006.767471929566
 10
2144.808202250997
 20
1006.606038770873
 10
2144.661504231485
 20
1006.45355794193
 10
2144.468296621527
 20
1006.313279306878
 10
2144.232697305893
 20
1006.188192661278
  0
LWPOLYLINE
  5
6B9
330
685
100
AcDbEntity
  8
0
  6
Continuous
 62
     7
370
    15
100
AcDbPolyline
 90
       52
 70
   128
 43
0.0
 10
2140.052915520485
 20
1008.185567262052
 10
2140.368302564439
 20
1008.312447336435
 10
2140.715690393984
 20
1008.419827308046
 10
2141.089812963733
 20
1008.506079405973
 10
2141.484998956886
 20
1008.56989613633
 10
2141.895257756619
 20
1008.610310102538
 10
2142.314370257722
 20
1008.626708670064
 10
2142.735983141897
 20
1008.61884325334
 10
2143.15370518759
 20
1008.586833084066
 10
2143.561204154391
 20
1008.53116340378
 10
2143.952302773344
 20
1008.452678108087
 10
2144.321072388049
 20
1008.352566954066
 10
2144.661922827051
 20
1008.232347524766
 10
2144.969687145139
 20
1008.09384222419
 10
2145.239699948967
 20
1007.939150651508
 10
2145.467868119666
 20
1007.770617773281
 10
2145.65073286035
 20
1007.590798376147
 10
2145.785522127952
 20
1007.402418338871
 10
2145.870192654573
 20
1007.208333310793
 10
2145.903460921334
 20
1007.0114854231
 10
2145.884822615228
 20
1006.814858689113
 10
2145.814560273972
 20
1006.62143376969
 10
2145.693739003041
 20
1006.434142789441
 10
2145.524190329743
 20
1006.255824888715
 10
2145.308484439136
 20
1006.089183185118
 10
2145.049891212644
 20
1005.936743797012
 10
2144.752330659986
 20
1005.800817550132
 10
2144.420313495821
 20
1005.683464947827
 10
2144.058872761922
 20
1005.586464935923
 10
2143.673487531378
 20
1005.511287935725
 10
2143.269999851448
 20
1005.459073553925
 10
2142.854526184065
 20
1005.430613307326
 10
2142.433364686516
 20
1005.426338624257
 10
2142.012899737796
 20
1005.446314304554
 10
2141.59950515793
 20
1005.490237537268
 10
2141.199447587356
 20
1005.557442490962
 10
2140.818791491048
 20
1005.646910407044
 10
2140.463307227406
 20
1005.757285043105
 10
2140.138383575509
 20
1005.886893232171
 10
2139.848946046707
 20
1006.033770246211
 10
2139.599382218903
 20
1006.195689579412
 10
2139.393475225334
 20
1006.370196699733
 10
2139.234346406132
 20
1006.554646257113
 10
2139.124407991991
 20
1006.746242184279
 10
2139.065326537202
 20
1006.942080082278
 10
2139.057997656396
 20
1007.139191248201
 10
2139.102532447937
 20
1007.3345876777
 10
2139.19825580978
 20
1007.525307360076
 10
2139.343716673334
 20
1007.708459179356
 10
2139.536710000184
 20
1007.881266740653
 10
2139.77431020822
 20
1008.041110457489
 10
2140.052915520485
 20
1008.185567262052
  0
ARC
  5
6BA
330
685
100
AcDbEntity
  8
0
  6
Continuous
 62
     7
370
    15
100
AcDbCircle
 10
2144.408132660585
 20
1002.656633607788
 30
0.0
 40
1.450538129432603
100
AcDbArc
 50
287.0268045357441
 51
348.8007670635883
  0
LWPOLYLINE
  5
6BB
330
685
100
AcDbEntity
  8
0
  6
Continuous
 62
     7
370
    15
100
AcDbPolyline
 90
       26
 70
   128
 43
0.0
 10
2096.885192737489
 20
1021.816557410189
 10
2096.885116433685
 20
1021.803401667853
 10
2096.911555434354
 20
1021.620119822608
 10
2096.988867751778
 20
1021.43938587554
 10
2097.115730550771
 20
1021.264292234594
 10
2097.289973173669
 20
1021.097834800511
 10
2097.508614280884
 20
1020.94286170614
 10
2097.767912862455
 20
1020.802024584091
 10
2098.063432247758
 20
1020.677733196571
 10
2098.390116018178
 20
1020.572114203679
 10
2098.742374523829
 20
1020.486974775667
 10
2099.114180524016
 20
1020.423771671755
 10
2099.49917231499
 20
1020.383586314572
 10
2099.890762580469
 20
1020.367106286722
 10
2100.282251102439
 20
1020.37461356605
 10
2100.666939403751
 20
1020.405979700926
 10
2101.038245360912
 20
1020.460668008085
 10
2101.38981582605
 20
1020.53774275543
 10
2101.715635331032
 20
1020.635885172665
 10
2102.010129013794
 20
1020.75341601582
 10
2102.268258005776
 20
1020.888324299583
 10
2102.485605648356
 20
1021.038301705815
 10
2102.658453063112
 20
1021.200782079515
 10
2102.783842782853
 20
1021.37298533644
 10
2102.859629354711
 20
1021.55196503112
 10
2102.884439745624
 20
1021.721503029021
  0
LWPOLYLINE
  5
6BC
330
685
100
AcDbEntity
  8
0
  6
Continuous
 62
     7
370
    15
100
AcDbPolyline
 90
       26
 70
   128
 43
0.0
 10
2105.386443826439
 20
1017.754100595048
 10
2105.386367522635
 20
1017.740944852713
 10
2105.412806523304
 20
1017.557663007466
 10
2105.490118840728
 20
1017.376929060399
 10
2105.616981639721
 20
1017.201835419453
 10
2105.791224262619
 20
1017.03537798537
 10
2106.009865369834
 20
1016.880404890999
 10
2106.269163951405
 20
1016.73956776895
 10
2106.564683336708
 20
1016.61527638143
 10
2106.891367107128
 20
1016.509657388538
 10
2107.243625612779
 20
1016.424517960526
 10
2107.615431612966
 20
1016.361314856614
 10
2108.00042340394
 20
1016.321129499431
 10
2108.392013669418
 20
1016.304649471581
 10
2108.783502191389
 20
1016.312156750909
 10
2109.168190492701
 20
1016.343522885785
 10
2109.539496449861
 20
1016.398211192944
 10
2109.891066914999
 20
1016.475285940289
 10
2110.216886419982
 20
1016.573428357524
 10
2110.511380102744
 20
1016.690959200679
 10
2110.769509094726
 20
1016.825867484442
 10
2110.986856737307
 20
1016.975844890674
 10
2111.159704152062
 20
1017.138325264374
 10
2111.285093871803
 20
1017.310528521299
 10
2111.36088044366
 20
1017.489508215979
 10
2111.385690834574
 20
1017.65904621388
  0
LWPOLYLINE
  5
6BD
330
685
100
AcDbEntity
  8
0
  6
Continuous
 62
     7
370
    15
100
AcDbPolyline
 90
       26
 70
   128
 43
0.0
 10
2113.887694915389
 20
1013.691643779907
 10
2113.887618611586
 20
1013.678488037572
 10
2113.914057612255
 20
1013.495206192326
 10
2113.991369929678
 20
1013.314472245258
 10
2114.118232728671
 20
1013.139378604312
 10
2114.292475351569
 20
1012.97292117023
 10
2114.511116458784
 20
1012.817948075858
 10
2114.770415040354
 20
1012.677110953809
 10
2115.065934425658
 20
1012.552819566289
 10
2115.392618196078
 20
1012.447200573397
 10
2115.74487670173
 20
1012.362061145386
 10
2116.116682701916
 20
1012.298858041473
 10
2116.50167449289
 20
1012.25867268429
 10
2116.893264758369
 20
1012.24219265644
 10
2117.28475328034
 20
1012.249699935768
 10
2117.669441581651
 20
1012.281066070644
 10
2118.040747538811
 20
1012.335754377803
 10
2118.392318003949
 20
1012.412829125149
 10
2118.718137508932
 20
1012.510971542383
 10
2119.012631191694
 20
1012.628502385538
 10
2119.270760183676
 20
1012.763410669301
 10
2119.488107826256
 20
1012.913388075533
 10
2119.660955241011
 20
1013.075868449233
 10
2119.786344960752
 20
1013.248071706158
 10
2119.86213153261
 20
1013.427051400838
 10
2119.886941923525
 20
1013.596589398739
  0
LWPOLYLINE
  5
6BE
330
685
100
AcDbEntity
  8
0
  6
Continuous
 62
     7
370
    15
100
AcDbPolyline
 90
       26
 70
   128
 43
0.0
 10
2122.388946004339
 20
1009.629186964767
 10
2122.388869700535
 20
1009.616031222431
 10
2122.415308701204
 20
1009.432749377185
 10
2122.492621018628
 20
1009.252015430117
 10
2122.619483817621
 20
1009.076921789171
 10
2122.793726440518
 20
1008.910464355089
 10
2123.012367547734
 20
1008.755491260717
 10
2123.271666129304
 20
1008.614654138669
 10
2123.567185514608
 20
1008.490362751148
 10
2123.893869285028
 20
1008.384743758256
 10
2124.246127790679
 20
1008.299604330245
 10
2124.617933790866
 20
1008.236401226332
 10
2125.00292558184
 20
1008.196215869149
 10
2125.394515847318
 20
1008.179735841299
 10
2125.786004369289
 20
1008.187243120627
 10
2126.170692670601
 20
1008.218609255503
 10
2126.541998627762
 20
1008.273297562662
 10
2126.893569092899
 20
1008.350372310008
 10
2127.219388597882
 20
1008.448514727242
 10
2127.513882280644
 20
1008.566045570397
 10
2127.772011272625
 20
1008.70095385416
 10
2127.989358915206
 20
1008.850931260393
 10
2128.162206329962
 20
1009.013411634092
 10
2128.287596049703
 20
1009.185614891017
 10
2128.36338262156
 20
1009.364594585697
 10
2128.388193012474
 20
1009.534132583598
  0
LWPOLYLINE
  5
6BF
330
685
100
AcDbEntity
  8
0
  6
Continuous
 62
     7
370
    15
100
AcDbPolyline
 90
       26
 70
   128
 43
0.0
 10
2139.391448182239
 20
1001.504273334485
 10
2139.391371878435
 20
1001.491117592149
 10
2139.417810879104
 20
1001.307835746903
 10
2139.495123196528
 20
1001.127101799835
 10
2139.621985995521
 20
1000.952008158889
 10
2139.796228618418
 20
1000.785550724807
 10
2140.014869725634
 20
1000.630577630436
 10
2140.274168307204
 20
1000.489740508387
 10
2140.569687692508
 20
1000.365449120866
 10
2140.896371462928
 20
1000.259830127974
 10
2141.248629968579
 20
1000.174690699963
 10
2141.620435968766
 20
1000.11148759605
 10
2142.00542775974
 20
1000.071302238867
 10
2142.397018025218
 20
1000.054822211017
 10
2142.788506547189
 20
1000.062329490345
 10
2143.1731948485
 20
1000.093695625221
 10
2143.544500805662
 20
1000.148383932381
 10
2143.896071270799
 20
1000.225458679726
 10
2144.221890775781
 20
1000.32360109696
 10
2144.516384458544
 20
1000.441131940115
 10
2144.774513450525
 20
1000.576040223879
 10
2144.991861093106
 20
1000.726017630111
 10
2145.164708507861
 20
1000.88849800381
 10
2145.290098227603
 20
1001.060701260735
 10
2145.36588479946
 20
1001.239680955415
 10
2145.390695190374
 20
1001.409218953316
  0
LINE
  5
6C0
330
685
100
AcDbEntity
  8
0
  6
Continuous
 62
     7
370
    15
100
AcDbLine
 10
2148.793041393554
 20
1000.606902116366
 30
0.0
 11
2147.182573694813
 21
1001.376489487667
 31
0.0
  0
LINE
  5
6C1
330
685
100
AcDbEntity
  8
0
  6
Continuous
 62
     7
370
    15
100
AcDbLine
 10
2144.065290513559
 20
998.447256197052
 30
0.0
 11
2148.793041393554
 21
1000.606902116366
 31
0.0
  0
LINE
  5
6C2
330
685
100
AcDbEntity
  8
0
  6
Continuous
 62
     7
370
    15
100
AcDbLine
 10
2142.469251628756
 20
999.2099485322107
 30
0.0
 11
2144.065290513559
 21
998.447256197052
 31
0.0
  0
ARC
  5
6C3
330
685
100
AcDbEntity
  8
0
  6
Continuous
 62
     7
370
    15
100
AcDbCircle
 10
2147.53296473701
 20
1016.083778778907
 30
0.0
 40
17.61724546111099
100
AcDbArc
 50
235.6210395231084
 51
253.2958836498253
  0
LINE
  5
6C4
330
685
100
AcDbEntity
  8
0
  6
Continuous
 62
     7
370
    15
100
AcDbLine
 10
2133.968000539806
 20
1003.272405347351
 30
0.0
 11
2137.585140863862
 21
1001.543897836276
 31
0.0
  0
ARC
  5
6C5
330
685
100
AcDbEntity
  8
0
  6
Continuous
 62
     7
370
    15
100
AcDbCircle
 10
2139.031713648059
 20
1020.146235594047
 30
0.0
 40
17.61724546110956
100
AcDbArc
 50
235.6210395231084
 51
253.2958836498253
  0
LINE
  5
6C6
330
685
100
AcDbEntity
  8
0
  6
Continuous
 62
     7
370
    15
100
AcDbLine
 10
2125.466749450856
 20
1007.334862162492
 30
0.0
 11
2129.083889774912
 21
1005.606354651417
 31
0.0
  0
ARC
  5
6C7
330
685
100
AcDbEntity
  8
0
  6
Continuous
 62
     7
370
    15
100
AcDbCircle
 10
2130.530462559111
 20
1024.208692409191
 30
0.0
 40
17.61724546111374
100
AcDbArc
 50
235.6210395231084
 51
253.2958836498253
  0
LINE
  5
6C8
330
685
100
AcDbEntity
  8
0
  6
Continuous
 62
     7
370
    15
100
AcDbLine
 10
2116.965498361906
 20
1011.397318977633
 30
0.0
 11
2120.582638685963
 21
1009.668811466558
 31
0.0
  0
ARC
  5
6C9
330
685
100
AcDbEntity
  8
0
  6
Continuous
 62
     7
370
    15
100
AcDbCircle
 10
2122.02921147016
 20
1028.27114922433
 30
0.0
 40
17.61724546111166
100
AcDbArc
 50
235.6210395231084
 51
253.2958836498253
  0
LINE
  5
6CA
330
685
100
AcDbEntity
  8
0
  6
Continuous
 62
     7
370
    15
100
AcDbLine
 10
2108.464247272956
 20
1015.459775792774
 30
0.0
 11
2112.081387597013
 21
1013.731268281699
 31
0.0
  0
ARC
  5
6CB
330
685
100
AcDbEntity
  8
0
  6
Continuous
 62
     7
370
    15
100
AcDbCircle
 10
2113.52796038121
 20
1032.333606039471
 30
0.0
 40
17.61724546111116
100
AcDbArc
 50
235.6210395231084
 51
253.2958836498253
  0
LINE
  5
6CC
330
685
100
AcDbEntity
  8
0
  6
Continuous
 62
     7
370
    15
100
AcDbLine
 10
2099.962996184006
 20
1019.522232607915
 30
0.0
 11
2103.580136508063
 21
1017.79372509684
 31
0.0
  0
ARC
  5
6CD
330
685
100
AcDbEntity
  8
0
  6
Continuous
 62
     7
370
    15
100
AcDbCircle
 10
2105.02670929226
 20
1036.39606285461
 30
0.0
 40
17.61724546110956
100
AcDbArc
 50
235.6210395231084
 51
253.2958836498253
  0
LINE
  5
6CE
330
685
100
AcDbEntity
  8
0
  6
Continuous
 62
     7
370
    15
100
AcDbLine
 10
2093.482846534308
 20
1022.61887424714
 30
0.0
 11
2095.078885419113
 21
1021.856181911981
 31
0.0
  0
LINE
  5
6CF
330
685
100
AcDbEntity
  8
0
  6
Continuous
 62
     7
370
    15
100
AcDbLine
 10
2096.494650282822
 20
1023.994672135048
 30
0.0
 11
2093.482846534308
 21
1022.61887424714
 31
0.0
  0
LWPOLYLINE
  5
6D0
330
685
100
AcDbEntity
  8
0
  6
Continuous
 62
     7
370
    15
100
AcDbPolyline
 90
       26
 70
   128
 43
0.0
 10
2130.890197093288
 20
1005.566730149626
 10
2130.890120789485
 20
1005.55357440729
 10
2130.916559790154
 20
1005.370292562044
 10
2130.993872107578
 20
1005.189558614976
 10
2131.120734906571
 20
1005.01446497403
 10
2131.294977529468
 20
1004.848007539948
 10
2131.513618636684
 20
1004.693034445576
 10
2131.772917218254
 20
1004.552197323528
 10
2132.068436603558
 20
1004.427905936007
 10
2132.395120373978
 20
1004.322286943115
 10
2132.74737887963
 20
1004.237147515104
 10
2133.119184879815
 20
1004.173944411191
 10
2133.50417667079
 20
1004.133759054008
 10
2133.895766936268
 20
1004.117279026158
 10
2134.287255458239
 20
1004.124786305486
 10
2134.67194375955
 20
1004.156152440362
 10
2135.043249716711
 20
1004.210840747522
 10
2135.394820181849
 20
1004.287915494867
 10
2135.720639686832
 20
1004.386057912101
 10
2136.015133369594
 20
1004.503588755256
 10
2136.273262361575
 20
1004.638497039019
 10
2136.490610004156
 20
1004.788474445252
 10
2136.663457418911
 20
1004.950954818951
 10
2136.788847138653
 20
1005.123158075876
 10
2136.86463371051
 20
1005.302137770556
 10
2136.889444101424
 20
1005.471675768457
  0
LINE
  5
6D1
330
685
100
AcDbEntity
  8
0
  6
Continuous
 62
     7
370
    15
100
AcDbLine
 10
2144.010664152975
 20
994.9995768131731
 30
0.0
 11
2142.414625268171
 21
995.7622691483319
 31
0.0
  0
LINE
  5
6D2
330
685
100
AcDbEntity
  8
0
  6
Continuous
 62
     7
370
    15
100
AcDbLine
 10
2142.414625268171
 20
995.7622691483319
 30
0.0
 11
2142.469251628756
 21
999.2099485322107
 31
0.0
  0
LINE
  5
6D3
330
685
100
AcDbEntity
  8
0
  6
Continuous
 62
     7
370
    15
100
AcDbLine
 10
2144.065290513559
 20
998.447256197052
 30
0.0
 11
2144.010664152975
 21
994.9995768131731
 31
0.0
  0
LINE
  5
6D4
330
685
100
AcDbEntity
  8
0
  6
Continuous
 62
     7
370
    15
100
AcDbLine
 10
2148.793041393554
 20
1000.606902116366
 30
0.0
 11
2148.73841503297
 21
997.1592227324874
 31
0.0
  0
LINE
  5
6D5
330
685
100
AcDbEntity
  8
0
  6
Continuous
 62
     7
370
    15
100
AcDbLine
 10
2148.73841503297
 20
997.1592227324874
 30
0.0
 11
2144.010664152975
 21
994.9995768131731
 31
0.0
  0
ARC
  5
6D6
330
685
100
AcDbEntity
  8
0
  6
Continuous
 62
     7
370
    15
100
AcDbCircle
 10
2147.478338376426
 20
1012.636099395029
 30
0.0
 40
17.61724546111228
100
AcDbArc
 50
235.6210395231084
 51
253.2958836498253
  0
LINE
  5
6D7
330
685
100
AcDbEntity
  8
0
  6
Continuous
 62
     7
370
    15
100
AcDbLine
 10
2137.585140863862
 20
1001.543897836276
 30
0.0
 11
2137.530514503278
 21
998.0962184523978
 31
0.0
  0
LWPOLYLINE
  5
6D8
330
685
100
AcDbEntity
  8
0
  6
Continuous
 62
     7
370
    15
100
AcDbPolyline
 90
       26
 70
   128
 43
0.0
 10
2139.141854088096
 20
988.5300543360246
 10
2139.141777784292
 20
988.5168985936887
 10
2139.168216784962
 20
988.3336167484428
 10
2139.245529102386
 20
988.1528828013752
 10
2139.372391901378
 20
987.9777891604293
 10
2139.546634524276
 20
987.8113317263467
 10
2139.765275631491
 20
987.6563586319752
 10
2140.024574213062
 20
987.5155215099265
 10
2140.320093598365
 20
987.3912301224059
 10
2140.646777368786
 20
987.2856111295142
 10
2140.999035874437
 20
987.2004717015029
 10
2141.370841874623
 20
987.1372685975901
 10
2141.755833665598
 20
987.0970832404072
 10
2142.147423931076
 20
987.0806032125569
 10
2142.538912453046
 20
987.0881104918852
 10
2142.923600754358
 20
987.119476626761
 10
2143.294906711519
 20
987.1741649339206
 10
2143.646477176657
 20
987.2512396812657
 10
2143.972296681639
 20
987.3493820985002
 10
2144.266790364401
 20
987.4669129416552
 10
2144.524919356383
 20
987.6018212254182
 10
2144.742266998964
 20
987.7517986316506
 10
2144.915114413719
 20
987.9142790053503
 10
2145.04050413346
 20
988.0864822622751
 10
2145.116290705318
 20
988.2654619569549
 10
2145.141101096232
 20
988.4349999548561
  0
LINE
  5
6D9
330
685
100
AcDbEntity
  8
0
  6
Continuous
 62
     7
370
    15
100
AcDbLine
 10
2133.913374179221
 20
999.8247259634728
 30
0.0
 11
2133.968000539806
 21
1003.272405347351
 31
0.0
  0
LINE
  5
6DA
330
685
100
AcDbEntity
  8
0
  6
Continuous
 62
     7
370
    15
100
AcDbLine
 10
2137.530514503278
 20
998.0962184523978
 30
0.0
 11
2133.913374179221
 21
999.8247259634728
 31
0.0
  0
LWPOLYLINE
  5
6DB
330
685
100
AcDbEntity
  8
0
  6
Continuous
 62
     7
370
    15
100
AcDbPolyline
 90
       44
 70
   128
 43
0.0
 10
2135.731446216942
 20
1010.250649476419
 10
2135.458476586009
 20
1010.143420824952
 10
2135.153954513542
 20
1010.05633556016
 10
2134.824370358822
 20
1009.991249753267
 10
2134.476748635898
 20
1009.94955059525
 10
2134.118498298271
 20
1009.932126831266
 10
2133.757254829911
 20
1009.939349818593
 10
2133.400717508175
 20
1009.971065611797
 10
2133.056485307069
 20
1010.026598243809
 10
2132.731894938325
 20
1010.104764132992
 10
2132.433864482113
 20
1010.203897309123
 10
2132.168745940183
 20
1010.321884920665
 10
2131.942189853969
 20
1010.456212266523
 10
2131.759024873114
 20
1010.604016392529
 10
2131.623154841183
 20
1010.762147110351
 10
2131.537475592016
 20
1010.927234138275
 10
2131.503813230057
 20
1011.095758932918
 10
2131.522885210107
 20
1011.264129680866
 10
2131.594285046025
 20
1011.428757851943
 10
2131.716490974268
 20
1011.586134682503
 10
2131.886898387644
 20
1011.732905958631
 10
2132.10187534799
 20
1011.865943505394
 10
2132.356839994627
 20
1011.982411858455
 10
2132.64635819877
 20
1012.079828697077
 10
2132.964259382545
 20
1012.156117750474
 10
2133.303768034142
 20
1012.209653049921
 10
2133.657648116093
 20
1012.239293583457
 10
2134.01835728884
 20
1012.24440761457
 10
2134.378207662609
 20
1012.224886146565
 10
2134.729529651439
 20
1012.181145245641
 10
2135.064835437086
 20
1012.11411717316
 10
2135.376978558869
 20
1012.025230516116
 10
2135.659306228076
 20
1011.916379739284
 10
2135.9058011206
 20
1011.789884807989
 10
2136.111209625759
 20
1011.64844174208
 10
2136.271153817886
 20
1011.495065154939
 10
2136.382224764213
 20
1011.333024002235
 10
2136.442055180354
 20
1011.165771909812
 10
2136.449369884866
 20
1010.996873565645
 10
2136.404012977519
 20
1010.829928744707
 10
2136.306951162047
 20
1010.668495586013
 10
2136.160253142535
 20
1010.516014757071
 10
2135.967045532577
 20
1010.37573612202
 10
2135.731446216942
 20
1010.250649476419
  0
LWPOLYLINE
  5
6DC
330
685
100
AcDbEntity
  8
0
  6
Continuous
 62
     7
370
    15
100
AcDbPolyline
 90
       52
 70
   128
 43
0.0
 10
2131.551664431535
 20
1012.248024077193
 10
2131.867051475489
 20
1012.374904151576
 10
2132.214439305034
 20
1012.482284123187
 10
2132.588561874783
 20
1012.568536221114
 10
2132.983747867936
 20
1012.632352951471
 10
2133.394006667669
 20
1012.672766917679
 10
2133.813119168771
 20
1012.689165485205
 10
2134.234732052947
 20
1012.681300068481
 10
2134.65245409864
 20
1012.649289899207
 10
2135.059953065441
 20
1012.593620218921
 10
2135.451051684393
 20
1012.515134923227
 10
2135.819821299099
 20
1012.415023769207
 10
2136.160671738101
 20
1012.294804339907
 10
2136.468436056189
 20
1012.15629903933
 10
2136.738448860017
 20
1012.001607466649
 10
2136.966617030717
 20
1011.833074588421
 10
2137.1494817714
 20
1011.653255191288
 10
2137.284271039002
 20
1011.464875154012
 10
2137.368941565622
 20
1011.270790125935
 10
2137.402209832385
 20
1011.073942238241
 10
2137.383571526278
 20
1010.877315504254
 10
2137.313309185023
 20
1010.68389058483
 10
2137.192487914091
 20
1010.496599604582
 10
2137.022939240793
 20
1010.318281703856
 10
2136.807233350186
 20
1010.151640000259
 10
2136.548640123695
 20
1009.999200612153
 10
2136.251079571036
 20
1009.863274365274
 10
2135.919062406872
 20
1009.745921762968
 10
2135.557621672972
 20
1009.648921751064
 10
2135.172236442429
 20
1009.573744750866
 10
2134.768748762498
 20
1009.521530369066
 10
2134.353275095115
 20
1009.493070122467
 10
2133.932113597567
 20
1009.488795439398
 10
2133.511648648847
 20
1009.508771119695
 10
2133.09825406898
 20
1009.552694352409
 10
2132.698196498406
 20
1009.619899306103
 10
2132.317540402098
 20
1009.709367222185
 10
2131.962056138457
 20
1009.819741858245
 10
2131.637132486559
 20
1009.949350047312
 10
2131.347694957757
 20
1010.096227061352
 10
2131.098131129953
 20
1010.258146394553
 10
2130.892224136383
 20
1010.432653514874
 10
2130.733095317182
 20
1010.617103072253
 10
2130.623156903041
 20
1010.80869899942
 10
2130.564075448252
 20
1011.004536897418
 10
2130.556746567447
 20
1011.201648063343
 10
2130.601281358987
 20
1011.397044492841
 10
2130.69700472083
 20
1011.587764175217
 10
2130.842465584385
 20
1011.770915994497
 10
2131.035458911234
 20
1011.943723555794
 10
2131.27305911927
 20
1012.10356727263
 10
2131.551664431535
 20
1012.248024077193
  0
ARC
  5
6DD
330
685
100
AcDbEntity
  8
0
  6
Continuous
 62
     7
370
    15
100
AcDbCircle
 10
2135.906881571634
 20
1006.719090422929
 30
0.0
 40
1.450538129432931
100
AcDbArc
 50
287.0268045357441
 51
348.8007670635819
  0
LINE
  5
6DE
330
685
100
AcDbEntity
  8
0
  6
Continuous
 62
     7
370
    15
100
AcDbLine
 10
2129.083889774912
 20
1005.606354651417
 30
0.0
 11
2129.029263414328
 21
1002.158675267539
 31
0.0
  0
ARC
  5
6DF
330
685
100
AcDbEntity
  8
0
  6
Continuous
 62
     7
370
    15
100
AcDbCircle
 10
2138.977087287475
 20
1016.698556210169
 30
0.0
 40
17.61724546111112
100
AcDbArc
 50
235.6210395231084
 51
253.2958836498253
  0
ARC
  5
6E0
330
685
100
AcDbEntity
  8
0
  6
Continuous
 62
     7
370
    15
100
AcDbCircle
 10
2142.162683548286
 20
991.7671741667001
 30
0.0
 40
4.800368860876092
100
AcDbArc
 50
245.3805381998237
 51
299.1985945945842
  0
LWPOLYLINE
  5
6E1
330
685
100
AcDbEntity
  8
0
  6
Continuous
 62
     7
370
    15
100
AcDbPolyline
 90
        3
 70
   128
 43
0.0
 10
2139.750959083127
 20
987.6520854949053
 10
2139.91119863806
 20
987.5406640386307
 10
2140.162899753153
 20
987.4031844814243
  0
LWPOLYLINE
  5
6E2
330
685
100
AcDbEntity
  8
0
  6
Continuous
 62
     7
370
    15
100
AcDbPolyline
 90
       26
 70
   128
 43
0.0
 10
2130.640602999147
 20
992.5925111511654
 10
2130.640526695343
 20
992.5793554088297
 10
2130.666965696012
 20
992.3960735635837
 10
2130.744278013436
 20
992.2153396165162
 10
2130.871140812429
 20
992.0402459755703
 10
2131.045383435326
 20
991.8737885414875
 10
2131.264024542542
 20
991.7188154471162
 10
2131.523323124112
 20
991.5779783250673
 10
2131.818842509416
 20
991.4536869375469
 10
2132.145526279836
 20
991.348067944655
 10
2132.497784785487
 20
991.2629285166437
 10
2132.869590785674
 20
991.1997254127308
 10
2133.254582576647
 20
991.159540055548
 10
2133.646172842126
 20
991.1430600276979
 10
2134.037661364097
 20
991.150567307026
 10
2134.422349665408
 20
991.1819334419019
 10
2134.793655622569
 20
991.2366217490616
 10
2135.145226087707
 20
991.3136964964067
 10
2135.471045592689
 20
991.4118389136412
 10
2135.765539275451
 20
991.529369756796
 10
2136.023668267433
 20
991.6642780405592
 10
2136.241015910014
 20
991.8142554467916
 10
2136.413863324769
 20
991.9767358204911
 10
2136.53925304451
 20
992.1489390774159
 10
2136.615039616368
 20
992.3279187720959
 10
2136.639850007282
 20
992.4974567699971
  0
LINE
  5
6E3
330
685
100
AcDbEntity
  8
0
  6
Continuous
 62
     7
370
    15
100
AcDbLine
 10
2125.412123090272
 20
1003.887182778613
 30
0.0
 11
2125.466749450856
 21
1007.334862162492
 31
0.0
  0
LINE
  5
6E4
330
685
100
AcDbEntity
  8
0
  6
Continuous
 62
     7
370
    15
100
AcDbLine
 10
2129.029263414328
 20
1002.158675267539
 30
0.0
 11
2125.412123090272
 21
1003.887182778613
 31
0.0
  0
LWPOLYLINE
  5
6E5
330
685
100
AcDbEntity
  8
0
  6
Continuous
 62
     7
370
    15
100
AcDbPolyline
 90
       44
 70
   128
 43
0.0
 10
2127.230195127992
 20
1014.31310629156
 10
2126.957225497059
 20
1014.205877640093
 10
2126.652703424593
 20
1014.118792375301
 10
2126.323119269872
 20
1014.053706568408
 10
2125.975497546948
 20
1014.012007410391
 10
2125.617247209321
 20
1013.994583646407
 10
2125.256003740962
 20
1014.001806633734
 10
2124.899466419224
 20
1014.033522426938
 10
2124.555234218119
 20
1014.08905505895
 10
2124.230643849375
 20
1014.167220948132
 10
2123.932613393163
 20
1014.266354124264
 10
2123.667494851233
 20
1014.384341735806
 10
2123.440938765019
 20
1014.518669081663
 10
2123.257773784164
 20
1014.66647320767
 10
2123.121903752233
 20
1014.824603925492
 10
2123.036224503066
 20
1014.989690953416
 10
2123.002562141107
 20
1015.158215748059
 10
2123.021634121158
 20
1015.326586496007
 10
2123.093033957076
 20
1015.491214667084
 10
2123.215239885319
 20
1015.648591497644
 10
2123.385647298695
 20
1015.795362773771
 10
2123.600624259039
 20
1015.928400320534
 10
2123.855588905676
 20
1016.044868673596
 10
2124.14510710982
 20
1016.142285512218
 10
2124.463008293594
 20
1016.218574565614
 10
2124.802516945193
 20
1016.272109865062
 10
2125.156397027144
 20
1016.301750398598
 10
2125.51710619989
 20
1016.306864429711
 10
2125.876956573659
 20
1016.287342961706
 10
2126.228278562489
 20
1016.243602060782
 10
2126.563584348136
 20
1016.176573988301
 10
2126.875727469919
 20
1016.087687331257
 10
2127.158055139126
 20
1015.978836554424
 10
2127.40455003165
 20
1015.85234162313
 10
2127.609958536809
 20
1015.710898557221
 10
2127.769902728936
 20
1015.557521970079
 10
2127.880973675263
 20
1015.395480817376
 10
2127.940804091405
 20
1015.228228724953
 10
2127.948118795916
 20
1015.059330380786
 10
2127.902761888568
 20
1014.892385559847
 10
2127.805700073098
 20
1014.730952401154
 10
2127.659002053585
 20
1014.578471572212
 10
2127.465794443627
 20
1014.43819293716
 10
2127.230195127992
 20
1014.31310629156
  0
LWPOLYLINE
  5
6E6
330
685
100
AcDbEntity
  8
0
  6
Continuous
 62
     7
370
    15
100
AcDbPolyline
 90
       52
 70
   128
 43
0.0
 10
2123.050413342585
 20
1016.310480892334
 10
2123.365800386539
 20
1016.437360966717
 10
2123.713188216084
 20
1016.544740938328
 10
2124.087310785833
 20
1016.630993036255
 10
2124.482496778986
 20
1016.694809766612
 10
2124.892755578719
 20
1016.73522373282
 10
2125.311868079821
 20
1016.751622300346
 10
2125.733480963997
 20
1016.743756883622
 10
2126.15120300969
 20
1016.711746714348
 10
2126.558701976491
 20
1016.656077034062
 10
2126.949800595443
 20
1016.577591738369
 10
2127.31857021015
 20
1016.477480584348
 10
2127.659420649151
 20
1016.357261155048
 10
2127.967184967239
 20
1016.218755854471
 10
2128.237197771067
 20
1016.06406428179
 10
2128.465365941766
 20
1015.895531403562
 10
2128.648230682451
 20
1015.715712006429
 10
2128.783019950053
 20
1015.527331969153
 10
2128.867690476673
 20
1015.333246941075
 10
2128.900958743435
 20
1015.136399053382
 10
2128.882320437328
 20
1014.939772319395
 10
2128.812058096072
 20
1014.746347399972
 10
2128.691236825141
 20
1014.559056419723
 10
2128.521688151843
 20
1014.380738518997
 10
2128.305982261236
 20
1014.2140968154
 10
2128.047389034744
 20
1014.061657427294
 10
2127.749828482086
 20
1013.925731180414
 10
2127.417811317922
 20
1013.808378578109
 10
2127.056370584021
 20
1013.711378566205
 10
2126.670985353479
 20
1013.636201566007
 10
2126.267497673548
 20
1013.583987184207
 10
2125.852024006166
 20
1013.555526937608
 10
2125.430862508617
 20
1013.551252254539
 10
2125.010397559897
 20
1013.571227934836
 10
2124.59700298003
 20
1013.61515116755
 10
2124.196945409456
 20
1013.682356121244
 10
2123.816289313148
 20
1013.771824037326
 10
2123.460805049507
 20
1013.882198673387
 10
2123.135881397609
 20
1014.011806862453
 10
2122.846443868807
 20
1014.158683876493
 10
2122.596880041003
 20
1014.320603209694
 10
2122.390973047434
 20
1014.495110330015
 10
2122.231844228232
 20
1014.679559887394
 10
2122.121905814091
 20
1014.87115581456
 10
2122.062824359302
 20
1015.066993712559
 10
2122.055495478496
 20
1015.264104878483
 10
2122.100030270037
 20
1015.459501307981
 10
2122.19575363188
 20
1015.650220990358
 10
2122.341214495435
 20
1015.833372809638
 10
2122.534207822284
 20
1016.006180370935
 10
2122.77180803032
 20
1016.166024087771
 10
2123.050413342585
 20
1016.310480892334
  0
ARC
  5
6E7
330
685
100
AcDbEntity
  8
0
  6
Continuous
 62
     7
370
    15
100
AcDbCircle
 10
2127.405630482684
 20
1010.78154723807
 30
0.0
 40
1.450538129432851
100
AcDbArc
 50
287.0268045357441
 51
348.8007670635819
  0
LINE
  5
6E8
330
685
100
AcDbEntity
  8
0
  6
Continuous
 62
     7
370
    15
100
AcDbLine
 10
2120.582638685963
 20
1009.668811466558
 30
0.0
 11
2120.528012325378
 21
1006.221132082679
 31
0.0
  0
ARC
  5
6E9
330
685
100
AcDbEntity
  8
0
  6
Continuous
 62
     7
370
    15
100
AcDbCircle
 10
2130.475836198525
 20
1020.761013025309
 30
0.0
 40
17.61724546111047
100
AcDbArc
 50
235.6210395231084
 51
253.2958836498253
  0
ARC
  5
6EA
330
685
100
AcDbEntity
  8
0
  6
Continuous
 62
     7
370
    15
100
AcDbCircle
 10
2133.661432459337
 20
995.8296309818408
 30
0.0
 40
4.800368860876005
100
AcDbArc
 50
245.3805381998237
 51
299.1985945945842
  0
LWPOLYLINE
  5
6EB
330
685
100
AcDbEntity
  8
0
  6
Continuous
 62
     7
370
    15
100
AcDbPolyline
 90
        3
 70
   128
 43
0.0
 10
2131.249707994178
 20
991.714542310046
 10
2131.40994754911
 20
991.6031208537715
 10
2131.661648664203
 20
991.4656412965651
  0
LWPOLYLINE
  5
6EC
330
685
100
AcDbEntity
  8
0
  6
Continuous
 62
     7
370
    15
100
AcDbPolyline
 90
       26
 70
   128
 43
0.0
 10
2122.139351910197
 20
996.6549679663064
 10
2122.139275606393
 20
996.6418122239707
 10
2122.165714607062
 20
996.4585303787245
 10
2122.243026924486
 20
996.277796431657
 10
2122.369889723479
 20
996.102702790711
 10
2122.544132346376
 20
995.9362453566285
 10
2122.762773453592
 20
995.7812722622572
 10
2123.022072035162
 20
995.6404351402083
 10
2123.317591420466
 20
995.5161437526877
 10
2123.644275190885
 20
995.410524759796
 10
2123.996533696537
 20
995.3253853317844
 10
2124.368339696724
 20
995.2621822278718
 10
2124.753331487697
 20
995.221996870689
 10
2125.144921753176
 20
995.2055168428389
 10
2125.536410275147
 20
995.213024122167
 10
2125.921098576458
 20
995.2443902570429
 10
2126.292404533619
 20
995.2990785642024
 10
2126.643974998756
 20
995.3761533115475
 10
2126.96979450374
 20
995.474295728782
 10
2127.264288186502
 20
995.591826571937
 10
2127.522417178483
 20
995.7267348557
 10
2127.739764821064
 20
995.8767122619324
 10
2127.912612235819
 20
996.039192635632
 10
2128.038001955561
 20
996.2113958925568
 10
2128.113788527418
 20
996.3903755872367
 10
2128.138598918332
 20
996.559913585138
  0
LINE
  5
6ED
330
685
100
AcDbEntity
  8
0
  6
Continuous
 62
     7
370
    15
100
AcDbLine
 10
2116.910872001321
 20
1007.949639593754
 30
0.0
 11
2116.965498361906
 21
1011.397318977633
 31
0.0
  0
LINE
  5
6EE
330
685
100
AcDbEntity
  8
0
  6
Continuous
 62
     7
370
    15
100
AcDbLine
 10
2120.528012325378
 20
1006.221132082679
 30
0.0
 11
2116.910872001321
 21
1007.949639593754
 31
0.0
  0
LWPOLYLINE
  5
6EF
330
685
100
AcDbEntity
  8
0
  6
Continuous
 62
     7
370
    15
100
AcDbPolyline
 90
       44
 70
   128
 43
0.0
 10
2118.728944039042
 20
1018.375563106701
 10
2118.455974408108
 20
1018.268334455234
 10
2118.151452335642
 20
1018.181249190441
 10
2117.821868180922
 20
1018.116163383549
 10
2117.474246457998
 20
1018.074464225532
 10
2117.115996120372
 20
1018.057040461548
 10
2116.754752652012
 20
1018.064263448875
 10
2116.398215330274
 20
1018.095979242079
 10
2116.05398312917
 20
1018.151511874091
 10
2115.729392760425
 20
1018.229677763273
 10
2115.431362304214
 20
1018.328810939405
 10
2115.166243762283
 20
1018.446798550947
 10
2114.939687676069
 20
1018.581125896804
 10
2114.756522695214
 20
1018.728930022811
 10
2114.620652663283
 20
1018.887060740633
 10
2114.534973414116
 20
1019.052147768557
 10
2114.501311052157
 20
1019.2206725632
 10
2114.520383032207
 20
1019.389043311148
 10
2114.591782868126
 20
1019.553671482225
 10
2114.713988796369
 20
1019.711048312784
 10
2114.884396209744
 20
1019.857819588912
 10
2115.09937317009
 20
1019.990857135675
 10
2115.354337816727
 20
1020.107325488737
 10
2115.64385602087
 20
1020.204742327359
 10
2115.961757204644
 20
1020.281031380755
 10
2116.301265856243
 20
1020.334566680203
 10
2116.655145938194
 20
1020.364207213739
 10
2117.01585511094
 20
1020.369321244852
 10
2117.375705484709
 20
1020.349799776847
 10
2117.727027473539
 20
1020.306058875923
 10
2118.062333259186
 20
1020.239030803442
 10
2118.374476380969
 20
1020.150144146398
 10
2118.656804050176
 20
1020.041293369565
 10
2118.9032989427
 20
1019.914798438271
 10
2119.108707447859
 20
1019.773355372362
 10
2119.268651639986
 20
1019.61997878522
 10
2119.379722586313
 20
1019.457937632517
 10
2119.439553002454
 20
1019.290685540094
 10
2119.446867706965
 20
1019.121787195927
 10
2119.401510799618
 20
1018.954842374988
 10
2119.304448984147
 20
1018.793409216295
 10
2119.157750964635
 20
1018.640928387353
 10
2118.964543354676
 20
1018.500649752301
 10
2118.728944039042
 20
1018.375563106701
  0
LWPOLYLINE
  5
6F0
330
685
100
AcDbEntity
  8
0
  6
Continuous
 62
     7
370
    15
100
AcDbPolyline
 90
       52
 70
   128
 43
0.0
 10
2114.549162253635
 20
1020.372937707475
 10
2114.864549297589
 20
1020.499817781858
 10
2115.211937127135
 20
1020.607197753469
 10
2115.586059696883
 20
1020.693449851395
 10
2115.981245690036
 20
1020.757266581753
 10
2116.391504489769
 20
1020.797680547961
 10
2116.810616990871
 20
1020.814079115487
 10
2117.232229875047
 20
1020.806213698763
 10
2117.649951920741
 20
1020.774203529489
 10
2118.057450887541
 20
1020.718533849202
 10
2118.448549506494
 20
1020.640048553509
 10
2118.817319121199
 20
1020.539937399489
 10
2119.158169560201
 20
1020.419717970189
 10
2119.465933878289
 20
1020.281212669612
 10
2119.735946682117
 20
1020.126521096931
 10
2119.964114852817
 20
1019.957988218703
 10
2120.146979593501
 20
1019.77816882157
 10
2120.281768861103
 20
1019.589788784294
 10
2120.366439387723
 20
1019.395703756216
 10
2120.399707654485
 20
1019.198855868523
 10
2120.381069348378
 20
1019.002229134536
 10
2120.310807007123
 20
1018.808804215112
 10
2120.189985736192
 20
1018.621513234864
 10
2120.020437062893
 20
1018.443195334137
 10
2119.804731172286
 20
1018.276553630541
 10
2119.546137945795
 20
1018.124114242435
 10
2119.248577393136
 20
1017.988187995555
 10
2118.916560228972
 20
1017.870835393249
 10
2118.555119495072
 20
1017.773835381346
 10
2118.169734264529
 20
1017.698658381148
 10
2117.766246584598
 20
1017.646443999348
 10
2117.350772917215
 20
1017.617983752749
 10
2116.929611419667
 20
1017.613709069679
 10
2116.509146470947
 20
1017.633684749977
 10
2116.09575189108
 20
1017.67760798269
 10
2115.695694320506
 20
1017.744812936385
 10
2115.315038224198
 20
1017.834280852467
 10
2114.959553960557
 20
1017.944655488527
 10
2114.634630308659
 20
1018.074263677593
 10
2114.345192779857
 20
1018.221140691634
 10
2114.095628952053
 20
1018.383060024835
 10
2113.889721958484
 20
1018.557567145156
 10
2113.730593139283
 20
1018.742016702535
 10
2113.62065472514
 20
1018.933612629701
 10
2113.561573270352
 20
1019.1294505277
 10
2113.554244389547
 20
1019.326561693624
 10
2113.598779181087
 20
1019.521958123122
 10
2113.69450254293
 20
1019.712677805499
 10
2113.839963406485
 20
1019.895829624779
 10
2114.032956733334
 20
1020.068637186076
 10
2114.27055694137
 20
1020.228480902912
 10
2114.549162253635
 20
1020.372937707475
  0
ARC
  5
6F1
330
685
100
AcDbEntity
  8
0
  6
Continuous
 62
     7
370
    15
100
AcDbCircle
 10
2118.904379393734
 20
1014.844004053211
 30
0.0
 40
1.450538129432864
100
AcDbArc
 50
287.0268045357441
 51
348.8007670635819
  0
LINE
  5
6F2
330
685
100
AcDbEntity
  8
0
  6
Continuous
 62
     7
370
    15
100
AcDbLine
 10
2112.081387597013
 20
1013.731268281699
 30
0.0
 11
2112.026761236428
 21
1010.28358889782
 31
0.0
  0
ARC
  5
6F3
330
685
100
AcDbEntity
  8
0
  6
Continuous
 62
     7
370
    15
100
AcDbCircle
 10
2121.974585109576
 20
1024.823469840453
 30
0.0
 40
17.61724546111248
100
AcDbArc
 50
235.6210395231084
 51
253.2958836498253
  0
ARC
  5
6F4
330
685
100
AcDbEntity
  8
0
  6
Continuous
 62
     7
370
    15
100
AcDbCircle
 10
2125.160181370386
 20
999.8920877969817
 30
0.0
 40
4.80036886087601
100
AcDbArc
 50
245.3805381998237
 51
299.1985945945842
  0
LWPOLYLINE
  5
6F5
330
685
100
AcDbEntity
  8
0
  6
Continuous
 62
     7
370
    15
100
AcDbPolyline
 90
        3
 70
   128
 43
0.0
 10
2122.748456905227
 20
995.776999125187
 10
2122.90869646016
 20
995.6655776689125
 10
2123.160397575254
 20
995.5280981117061
  0
LWPOLYLINE
  5
6F6
330
685
100
AcDbEntity
  8
0
  6
Continuous
 62
     7
370
    15
100
AcDbPolyline
 90
       26
 70
   128
 43
0.0
 10
2113.638100821247
 20
1000.717424781447
 10
2113.638024517443
 20
1000.704269039111
 10
2113.664463518112
 20
1000.520987193866
 10
2113.741775835536
 20
1000.340253246798
 10
2113.868638634529
 20
1000.165159605852
 10
2114.042881257427
 20
999.9987021717695
 10
2114.261522364642
 20
999.843729077398
 10
2114.520820946212
 20
999.7028919553491
 10
2114.816340331516
 20
999.5786005678287
 10
2115.143024101936
 20
999.4729815749369
 10
2115.495282607587
 20
999.3878421469256
 10
2115.867088607774
 20
999.3246390430128
 10
2116.252080398748
 20
999.2844536858299
 10
2116.643670664226
 20
999.2679736579797
 10
2117.035159186197
 20
999.275480937308
 10
2117.419847487508
 20
999.3068470721837
 10
2117.791153444669
 20
999.3615353793433
 10
2118.142723909807
 20
999.4386101266885
 10
2118.468543414789
 20
999.5367525439231
 10
2118.763037097552
 20
999.6542833870778
 10
2119.021166089533
 20
999.7891916708409
 10
2119.238513732114
 20
999.9391690770734
 10
2119.41136114687
 20
1000.101649450773
 10
2119.536750866611
 20
1000.273852707697
 10
2119.612537438468
 20
1000.452832402378
 10
2119.637347829382
 20
1000.622370400279
  0
LINE
  5
6F7
330
685
100
AcDbEntity
  8
0
  6
Continuous
 62
     7
370
    15
100
AcDbLine
 10
2108.409620912372
 20
1012.012096408895
 30
0.0
 11
2108.464247272956
 21
1015.459775792774
 31
0.0
  0
LINE
  5
6F8
330
685
100
AcDbEntity
  8
0
  6
Continuous
 62
     7
370
    15
100
AcDbLine
 10
2112.026761236428
 20
1010.28358889782
 30
0.0
 11
2108.409620912372
 21
1012.012096408895
 31
0.0
  0
LWPOLYLINE
  5
6F9
330
685
100
AcDbEntity
  8
0
  6
Continuous
 62
     7
370
    15
100
AcDbPolyline
 90
       44
 70
   128
 43
0.0
 10
2110.227692950093
 20
1022.438019921842
 10
2109.954723319159
 20
1022.330791270375
 10
2109.650201246693
 20
1022.243706005582
 10
2109.320617091972
 20
1022.17862019869
 10
2108.972995369049
 20
1022.136921040673
 10
2108.614745031422
 20
1022.119497276689
 10
2108.253501563062
 20
1022.126720264016
 10
2107.896964241325
 20
1022.15843605722
 10
2107.55273204022
 20
1022.213968689232
 10
2107.228141671475
 20
1022.292134578414
 10
2106.930111215263
 20
1022.391267754546
 10
2106.664992673333
 20
1022.509255366088
 10
2106.438436587119
 20
1022.643582711945
 10
2106.255271606264
 20
1022.791386837952
 10
2106.119401574333
 20
1022.949517555774
 10
2106.033722325166
 20
1023.114604583698
 10
2106.000059963207
 20
1023.283129378341
 10
2106.019131943258
 20
1023.451500126289
 10
2106.090531779176
 20
1023.616128297366
 10
2106.212737707419
 20
1023.773505127925
 10
2106.383145120794
 20
1023.920276404053
 10
2106.598122081139
 20
1024.053313950816
 10
2106.853086727777
 20
1024.169782303878
 10
2107.14260493192
 20
1024.2671991425
 10
2107.460506115694
 20
1024.343488195896
 10
2107.800014767292
 20
1024.397023495344
 10
2108.153894849244
 20
1024.42666402888
 10
2108.51460402199
 20
1024.431778059993
 10
2108.874454395759
 20
1024.412256591988
 10
2109.225776384589
 20
1024.368515691064
 10
2109.561082170236
 20
1024.301487618583
 10
2109.87322529202
 20
1024.212600961539
 10
2110.155552961226
 20
1024.103750184706
 10
2110.402047853749
 20
1023.977255253412
 10
2110.607456358909
 20
1023.835812187503
 10
2110.767400551036
 20
1023.682435600361
 10
2110.878471497363
 20
1023.520394447658
 10
2110.938301913505
 20
1023.353142355235
 10
2110.945616618016
 20
1023.184244011068
 10
2110.900259710669
 20
1023.017299190129
 10
2110.803197895198
 20
1022.855866031436
 10
2110.656499875685
 20
1022.703385202494
 10
2110.463292265727
 20
1022.563106567442
 10
2110.227692950093
 20
1022.438019921842
  0
LWPOLYLINE
  5
6FA
330
685
100
AcDbEntity
  8
0
  6
Continuous
 62
     7
370
    15
100
AcDbPolyline
 90
       52
 70
   128
 43
0.0
 10
2106.047911164685
 20
1024.435394522615
 10
2106.363298208639
 20
1024.562274596999
 10
2106.710686038185
 20
1024.66965456861
 10
2107.084808607933
 20
1024.755906666537
 10
2107.479994601086
 20
1024.819723396894
 10
2107.890253400819
 20
1024.860137363102
 10
2108.309365901922
 20
1024.876535930627
 10
2108.730978786097
 20
1024.868670513904
 10
2109.148700831791
 20
1024.83666034463
 10
2109.556199798591
 20
1024.780990664343
 10
2109.947298417544
 20
1024.70250536865
 10
2110.316068032249
 20
1024.60239421463
 10
2110.656918471251
 20
1024.48217478533
 10
2110.964682789339
 20
1024.343669484753
 10
2111.234695593168
 20
1024.188977912072
 10
2111.462863763867
 20
1024.020445033844
 10
2111.645728504551
 20
1023.840625636711
 10
2111.780517772153
 20
1023.652245599435
 10
2111.865188298772
 20
1023.458160571357
 10
2111.898456565535
 20
1023.261312683664
 10
2111.879818259428
 20
1023.064685949677
 10
2111.809555918172
 20
1022.871261030253
 10
2111.688734647241
 20
1022.683970050005
 10
2111.519185973943
 20
1022.505652149279
 10
2111.303480083337
 20
1022.339010445681
 10
2111.044886856845
 20
1022.186571057575
 10
2110.747326304186
 20
1022.050644810696
 10
2110.415309140022
 20
1021.93329220839
 10
2110.053868406122
 20
1021.836292196486
 10
2109.668483175579
 20
1021.761115196289
 10
2109.264995495649
 20
1021.708900814489
 10
2108.849521828266
 20
1021.68044056789
 10
2108.428360330717
 20
1021.67616588482
 10
2108.007895381997
 20
1021.696141565118
 10
2107.59450080213
 20
1021.740064797832
 10
2107.194443231556
 20
1021.807269751526
 10
2106.813787135248
 20
1021.896737667608
 10
2106.458302871607
 20
1022.007112303668
 10
2106.133379219709
 20
1022.136720492734
 10
2105.843941690908
 20
1022.283597506775
 10
2105.594377863103
 20
1022.445516839976
 10
2105.388470869534
 20
1022.620023960296
 10
2105.229342050332
 20
1022.804473517676
 10
2105.119403636191
 20
1022.996069444842
 10
2105.060322181402
 20
1023.191907342841
 10
2105.052993300597
 20
1023.389018508765
 10
2105.097528092137
 20
1023.584414938263
 10
2105.193251453981
 20
1023.77513462064
 10
2105.338712317535
 20
1023.95828643992
 10
2105.531705644384
 20
1024.131094001217
 10
2105.76930585242
 20
1024.290937718053
 10
2106.047911164685
 20
1024.435394522615
  0
ARC
  5
6FB
330
685
100
AcDbEntity
  8
0
  6
Continuous
 62
     7
370
    15
100
AcDbCircle
 10
2110.403128304784
 20
1018.906460868352
 30
0.0
 40
1.450538129432775
100
AcDbArc
 50
287.0268045357441
 51
348.8007670635819
  0
LINE
  5
6FC
330
685
100
AcDbEntity
  8
0
  6
Continuous
 62
     7
370
    15
100
AcDbLine
 10
2103.580136508063
 20
1017.79372509684
 30
0.0
 11
2103.525510147478
 21
1014.346045712961
 31
0.0
  0
ARC
  5
6FD
330
685
100
AcDbEntity
  8
0
  6
Continuous
 62
     7
370
    15
100
AcDbCircle
 10
2113.473334020626
 20
1028.885926655592
 30
0.0
 40
17.61724546111185
100
AcDbArc
 50
235.6210395231084
 51
253.2958836498253
  0
ARC
  5
6FE
330
685
100
AcDbEntity
  8
0
  6
Continuous
 62
     7
370
    15
100
AcDbCircle
 10
2116.658930281436
 20
1003.954544612122
 30
0.0
 40
4.800368860875841
100
AcDbArc
 50
245.3805381998237
 51
299.1985945945842
  0
LWPOLYLINE
  5
6FF
330
685
100
AcDbEntity
  8
0
  6
Continuous
 62
     7
370
    15
100
AcDbPolyline
 90
        3
 70
   128
 43
0.0
 10
2114.247205816278
 20
999.839455940328
 10
2114.40744537121
 20
999.7280344840532
 10
2114.659146486304
 20
999.5905549268471
  0
LWPOLYLINE
  5
700
330
685
100
AcDbEntity
  8
0
  6
Continuous
 62
     7
370
    15
100
AcDbPolyline
 90
       26
 70
   128
 43
0.0
 10
2105.136849732296
 20
1004.779881596588
 10
2105.136773428493
 20
1004.766725854252
 10
2105.163212429162
 20
1004.583444009006
 10
2105.240524746586
 20
1004.402710061939
 10
2105.367387545579
 20
1004.227616420993
 10
2105.541630168477
 20
1004.06115898691
 10
2105.760271275692
 20
1003.906185892539
 10
2106.019569857263
 20
1003.76534877049
 10
2106.315089242566
 20
1003.641057382969
 10
2106.641773012986
 20
1003.535438390078
 10
2106.994031518637
 20
1003.450298962066
 10
2107.365837518823
 20
1003.387095858153
 10
2107.750829309798
 20
1003.346910500971
 10
2108.142419575276
 20
1003.33043047312
 10
2108.533908097247
 20
1003.337937752449
 10
2108.918596398559
 20
1003.369303887325
 10
2109.289902355719
 20
1003.423992194484
 10
2109.641472820857
 20
1003.501066941829
 10
2109.96729232584
 20
1003.599209359064
 10
2110.261786008602
 20
1003.716740202219
 10
2110.519915000583
 20
1003.851648485982
 10
2110.737262643164
 20
1004.001625892214
 10
2110.91011005792
 20
1004.164106265914
 10
2111.035499777661
 20
1004.336309522838
 10
2111.111286349518
 20
1004.515289217518
 10
2111.136096740432
 20
1004.68482721542
  0
LINE
  5
701
330
685
100
AcDbEntity
  8
0
  6
Continuous
 62
     7
370
    15
100
AcDbLine
 10
2099.908369823422
 20
1016.074553224036
 30
0.0
 11
2099.962996184006
 21
1019.522232607915
 31
0.0
  0
LINE
  5
702
330
685
100
AcDbEntity
  8
0
  6
Continuous
 62
     7
370
    15
100
AcDbLine
 10
2103.525510147478
 20
1014.346045712961
 30
0.0
 11
2099.908369823422
 21
1016.074553224036
 31
0.0
  0
LWPOLYLINE
  5
703
330
685
100
AcDbEntity
  8
0
  6
Continuous
 62
     7
370
    15
100
AcDbPolyline
 90
       44
 70
   128
 43
0.0
 10
2101.726441861142
 20
1026.500476736983
 10
2101.453472230209
 20
1026.393248085516
 10
2101.148950157742
 20
1026.306162820723
 10
2100.819366003022
 20
1026.241077013831
 10
2100.471744280099
 20
1026.199377855814
 10
2100.113493942472
 20
1026.181954091829
 10
2099.752250474112
 20
1026.189177079157
 10
2099.395713152374
 20
1026.220892872361
 10
2099.05148095127
 20
1026.276425504373
 10
2098.726890582526
 20
1026.354591393555
 10
2098.428860126314
 20
1026.453724569687
 10
2098.163741584383
 20
1026.571712181229
 10
2097.937185498169
 20
1026.706039527086
 10
2097.754020517314
 20
1026.853843653093
 10
2097.618150485383
 20
1027.011974370914
 10
2097.532471236216
 20
1027.177061398839
 10
2097.498808874257
 20
1027.345586193482
 10
2097.517880854308
 20
1027.513956941429
 10
2097.589280690226
 20
1027.678585112507
 10
2097.711486618469
 20
1027.835961943066
 10
2097.881894031845
 20
1027.982733219194
 10
2098.09687099219
 20
1028.115770765957
 10
2098.351835638827
 20
1028.232239119019
 10
2098.64135384297
 20
1028.329655957641
 10
2098.959255026744
 20
1028.405945011037
 10
2099.298763678343
 20
1028.459480310485
 10
2099.652643760294
 20
1028.489120844021
 10
2100.01335293304
 20
1028.494234875134
 10
2100.37320330681
 20
1028.474713407129
 10
2100.724525295639
 20
1028.430972506205
 10
2101.059831081286
 20
1028.363944433724
 10
2101.37197420307
 20
1028.27505777668
 10
2101.654301872276
 20
1028.166206999847
 10
2101.9007967648
 20
1028.039712068553
 10
2102.106205269959
 20
1027.898269002643
 10
2102.266149462086
 20
1027.744892415502
 10
2102.377220408413
 20
1027.582851262799
 10
2102.437050824555
 20
1027.415599170376
 10
2102.444365529066
 20
1027.246700826209
 10
2102.399008621719
 20
1027.07975600527
 10
2102.301946806248
 20
1026.918322846577
 10
2102.155248786735
 20
1026.765842017635
 10
2101.962041176777
 20
1026.625563382583
 10
2101.726441861142
 20
1026.500476736983
  0
LWPOLYLINE
  5
704
330
685
100
AcDbEntity
  8
0
  6
Continuous
 62
     7
370
    15
100
AcDbPolyline
 90
       52
 70
   128
 43
0.0
 10
2097.546660075735
 20
1028.497851337756
 10
2097.862047119689
 20
1028.62473141214
 10
2098.209434949235
 20
1028.732111383751
 10
2098.583557518983
 20
1028.818363481677
 10
2098.978743512137
 20
1028.882180212035
 10
2099.389002311869
 20
1028.922594178243
 10
2099.808114812972
 20
1028.938992745769
 10
2100.229727697147
 20
1028.931127329045
 10
2100.647449742841
 20
1028.899117159771
 10
2101.054948709641
 20
1028.843447479484
 10
2101.446047328594
 20
1028.764962183791
 10
2101.814816943299
 20
1028.664851029771
 10
2102.155667382302
 20
1028.544631600471
 10
2102.463431700389
 20
1028.406126299894
 10
2102.733444504218
 20
1028.251434727213
 10
2102.961612674917
 20
1028.082901848985
 10
2103.144477415601
 20
1027.903082451852
 10
2103.279266683203
 20
1027.714702414576
 10
2103.363937209823
 20
1027.520617386498
 10
2103.397205476585
 20
1027.323769498805
 10
2103.378567170478
 20
1027.127142764818
 10
2103.308304829223
 20
1026.933717845394
 10
2103.187483558292
 20
1026.746426865146
 10
2103.017934884993
 20
1026.568108964419
 10
2102.802228994387
 20
1026.401467260822
 10
2102.543635767895
 20
1026.249027872716
 10
2102.246075215236
 20
1026.113101625837
 10
2101.914058051072
 20
1025.995749023531
 10
2101.552617317172
 20
1025.898749011627
 10
2101.167232086629
 20
1025.82357201143
 10
2100.763744406699
 20
1025.771357629629
 10
2100.348270739315
 20
1025.742897383031
 10
2099.927109241767
 20
1025.738622699961
 10
2099.506644293047
 20
1025.758598380259
 10
2099.093249713181
 20
1025.802521612972
 10
2098.693192142606
 20
1025.869726566666
 10
2098.312536046298
 20
1025.959194482749
 10
2097.957051782657
 20
1026.069569118809
 10
2097.632128130759
 20
1026.199177307875
 10
2097.342690601958
 20
1026.346054321916
 10
2097.093126774153
 20
1026.507973655117
 10
2096.887219780584
 20
1026.682480775438
 10
2096.728090961383
 20
1026.866930332817
 10
2096.618152547241
 20
1027.058526259983
 10
2096.559071092452
 20
1027.254364157982
 10
2096.551742211647
 20
1027.451475323906
 10
2096.596277003188
 20
1027.646871753404
 10
2096.69200036503
 20
1027.837591435781
 10
2096.837461228585
 20
1028.020743255061
 10
2097.030454555434
 20
1028.193550816358
 10
2097.26805476347
 20
1028.353394533194
 10
2097.546660075735
 20
1028.497851337756
  0
ARC
  5
705
330
685
100
AcDbEntity
  8
0
  6
Continuous
 62
     7
370
    15
100
AcDbCircle
 10
2101.901877215834
 20
1022.968917683493
 30
0.0
 40
1.450538129433064
100
AcDbArc
 50
287.0268045357441
 51
348.8007670635755
  0
LINE
  5
706
330
685
100
AcDbEntity
  8
0
  6
Continuous
 62
     7
370
    15
100
AcDbLine
 10
2095.078885419113
 20
1021.856181911981
 30
0.0
 11
2095.024259058529
 21
1018.408502528102
 31
0.0
  0
ARC
  5
707
330
685
100
AcDbEntity
  8
0
  6
Continuous
 62
     7
370
    15
100
AcDbCircle
 10
2104.972082931677
 20
1032.948383470735
 30
0.0
 40
17.61724546111288
100
AcDbArc
 50
235.6210395231084
 51
253.2958836498253
  0
ARC
  5
708
330
685
100
AcDbEntity
  8
0
  6
Continuous
 62
     7
370
    15
100
AcDbCircle
 10
2108.157679192487
 20
1008.017001427264
 30
0.0
 40
4.800368860876127
100
AcDbArc
 50
245.3805381998237
 51
299.1985945945842
  0
LWPOLYLINE
  5
709
330
685
100
AcDbEntity
  8
0
  6
Continuous
 62
     7
370
    15
100
AcDbPolyline
 90
        3
 70
   128
 43
0.0
 10
2105.745954727328
 20
1003.901912755469
 10
2105.906194282261
 20
1003.790491299194
 10
2106.157895397354
 20
1003.653011741988
  0
LWPOLYLINE
  5
70A
330
685
100
AcDbEntity
  8
0
  6
Continuous
 62
     7
370
    15
100
AcDbPolyline
 90
       26
 70
   128
 43
0.0
 10
2096.635598643347
 20
1008.842338411729
 10
2096.635522339543
 20
1008.829182669393
 10
2096.661961340212
 20
1008.645900824147
 10
2096.739273657636
 20
1008.46516687708
 10
2096.866136456629
 20
1008.290073236134
 10
2097.040379079526
 20
1008.123615802051
 10
2097.259020186742
 20
1007.968642707679
 10
2097.518318768313
 20
1007.827805585631
 10
2097.813838153616
 20
1007.70351419811
 10
2098.140521924036
 20
1007.597895205218
 10
2098.492780429687
 20
1007.512755777207
 10
2098.864586429874
 20
1007.449552673294
 10
2099.249578220848
 20
1007.409367316111
 10
2099.641168486326
 20
1007.392887288261
 10
2100.032657008297
 20
1007.40039456759
 10
2100.417345309609
 20
1007.431760702465
 10
2100.788651266769
 20
1007.486449009625
 10
2101.140221731907
 20
1007.56352375697
 10
2101.466041236889
 20
1007.661666174205
 10
2101.760534919652
 20
1007.779197017359
 10
2102.018663911633
 20
1007.914105301122
 10
2102.236011554214
 20
1008.064082707355
 10
2102.40885896897
 20
1008.226563081055
 10
2102.534248688711
 20
1008.398766337979
 10
2102.610035260568
 20
1008.577746032659
 10
2102.634845651482
 20
1008.74728403056
  0
LINE
  5
70B
330
685
100
AcDbEntity
  8
0
  6
Continuous
 62
     7
370
    15
100
AcDbLine
 10
2093.482846534308
 20
1022.61887424714
 30
0.0
 11
2093.428220173723
 21
1019.171194863261
 31
0.0
  0
LINE
  5
70C
330
685
100
AcDbEntity
  8
0
  6
Continuous
 62
     7
370
    15
100
AcDbLine
 10
2095.024259058529
 20
1018.408502528102
 30
0.0
 11
2093.428220173723
 21
1019.171194863261
 31
0.0
  0
ARC
  5
70D
330
685
100
AcDbEntity
  8
0
  6
Continuous
 62
     7
370
    15
100
AcDbCircle
 10
2099.656428103537
 20
1012.079458242404
 30
0.0
 40
4.800368860875681
100
AcDbArc
 50
245.3805381998237
 51
299.1985945945956
  0
LWPOLYLINE
  5
70E
330
685
100
AcDbEntity
  8
0
  6
Continuous
 62
     7
370
    15
100
AcDbPolyline
 90
        3
 70
   128
 43
0.0
 10
2097.244703638378
 20
1007.964369570609
 10
2097.404943193311
 20
1007.852948114335
 10
2097.656644308404
 20
1007.715468557129
  0
LWPOLYLINE
  5
70F
330
685
100
AcDbEntity
  8
0
  6
Continuous
 62
     8
370
    15
100
AcDbPolyline
 90
       21
 70
   128
 43
0.0
 10
2144.832877869648
 20
1001.26967565157
 10
2144.517490825693
 20
1001.142795577187
 10
2144.170102996147
 20
1001.035415605576
 10
2143.795980426399
 20
1000.949163507649
 10
2143.400794433246
 20
1000.885346777292
 10
2142.990535633513
 20
1000.844932811084
 10
2142.571423132411
 20
1000.828534243558
 10
2142.149810248235
 20
1000.836399660282
 10
2141.732088202541
 20
1000.868409829556
 10
2141.324589235741
 20
1000.924079509843
 10
2140.933490616788
 20
1001.002564805536
 10
2140.564721002083
 20
1001.102675959556
 10
2140.223870563081
 20
1001.222895388856
 10
2139.916106244993
 20
1001.361400689433
 10
2139.646093441164
 20
1001.516092262114
 10
2139.417925270465
 20
1001.684625140342
 10
2139.235060529782
 20
1001.864444537475
 10
2139.100271262179
 20
1002.052824574751
 10
2139.01560073556
 20
1002.246909602829
 10
2138.982332468797
 20
1002.443757490522
 10
2138.981908954199
 20
1002.483428743476
  0
LWPOLYLINE
  5
710
330
685
100
AcDbEntity
  8
0
  6
Continuous
 62
     8
370
    15
100
AcDbPolyline
 90
       21
 70
   128
 43
0.0
 10
2136.331626780697
 20
1005.332132466711
 10
2136.016239736743
 20
1005.205252392328
 10
2135.668851907198
 20
1005.097872420717
 10
2135.294729337449
 20
1005.01162032279
 10
2134.899543344296
 20
1004.947803592433
 10
2134.489284544564
 20
1004.907389626225
 10
2134.070172043461
 20
1004.890991058699
 10
2133.648559159285
 20
1004.898856475423
 10
2133.230837113591
 20
1004.930866644697
 10
2132.823338146792
 20
1004.986536324984
 10
2132.432239527839
 20
1005.065021620676
 10
2132.063469913133
 20
1005.165132774697
 10
2131.72261947413
 20
1005.285352203997
 10
2131.414855156043
 20
1005.423857504574
 10
2131.144842352215
 20
1005.578549077255
 10
2130.916674181515
 20
1005.747081955483
 10
2130.733809440831
 20
1005.926901352616
 10
2130.599020173229
 20
1006.115281389892
 10
2130.51434964661
 20
1006.30936641797
 10
2130.481081379847
 20
1006.506214305663
 10
2130.480657865249
 20
1006.545885558617
  0
LWPOLYLINE
  5
711
330
685
100
AcDbEntity
  8
0
  6
Continuous
 62
     8
370
    15
100
AcDbPolyline
 90
       21
 70
   128
 43
0.0
 10
2127.830375691748
 20
1009.394589281852
 10
2127.514988647793
 20
1009.267709207469
 10
2127.167600818248
 20
1009.160329235857
 10
2126.7934782485
 20
1009.074077137931
 10
2126.398292255346
 20
1009.010260407574
 10
2125.988033455613
 20
1008.969846441366
 10
2125.568920954511
 20
1008.95344787384
 10
2125.147308070335
 20
1008.961313290564
 10
2124.729586024642
 20
1008.993323459838
 10
2124.322087057841
 20
1009.048993140124
 10
2123.930988438889
 20
1009.127478435817
 10
2123.562218824183
 20
1009.227589589838
 10
2123.221368385181
 20
1009.347809019138
 10
2122.913604067093
 20
1009.486314319715
 10
2122.643591263265
 20
1009.641005892396
 10
2122.415423092566
 20
1009.809538770624
 10
2122.232558351881
 20
1009.989358167757
 10
2122.09776908428
 20
1010.177738205033
 10
2122.01309855766
 20
1010.371823233111
 10
2121.979830290897
 20
1010.568671120804
 10
2121.979406776299
 20
1010.608342373757
  0
LWPOLYLINE
  5
712
330
685
100
AcDbEntity
  8
0
  6
Continuous
 62
     8
370
    15
100
AcDbPolyline
 90
       21
 70
   128
 43
0.0
 10
2119.329124602797
 20
1013.457046096993
 10
2119.013737558844
 20
1013.33016602261
 10
2118.666349729298
 20
1013.222786050999
 10
2118.29222715955
 20
1013.136533953072
 10
2117.897041166396
 20
1013.072717222715
 10
2117.486782366664
 20
1013.032303256507
 10
2117.067669865561
 20
1013.015904688981
 10
2116.646056981386
 20
1013.023770105705
 10
2116.228334935692
 20
1013.055780274979
 10
2115.820835968891
 20
1013.111449955265
 10
2115.429737349939
 20
1013.189935250959
 10
2115.060967735233
 20
1013.290046404978
 10
2114.720117296231
 20
1013.410265834279
 10
2114.412352978144
 20
1013.548771134855
 10
2114.142340174315
 20
1013.703462707536
 10
2113.914172003616
 20
1013.871995585764
 10
2113.731307262932
 20
1014.051814982898
 10
2113.596517995329
 20
1014.240195020174
 10
2113.51184746871
 20
1014.434280048251
 10
2113.478579201947
 20
1014.631127935945
 10
2113.478155687349
 20
1014.670799188898
  0
LWPOLYLINE
  5
713
330
685
100
AcDbEntity
  8
0
  6
Continuous
 62
     8
370
    15
100
AcDbPolyline
 90
       21
 70
   128
 43
0.0
 10
2110.827873513848
 20
1017.519502912134
 10
2110.512486469893
 20
1017.392622837751
 10
2110.165098640348
 20
1017.285242866139
 10
2109.790976070599
 20
1017.198990768213
 10
2109.395790077446
 20
1017.135174037855
 10
2108.985531277713
 20
1017.094760071648
 10
2108.566418776611
 20
1017.078361504122
 10
2108.144805892435
 20
1017.086226920846
 10
2107.727083846742
 20
1017.118237090119
 10
2107.319584879942
 20
1017.173906770406
 10
2106.928486260989
 20
1017.252392066099
 10
2106.559716646284
 20
1017.352503220119
 10
2106.218866207282
 20
1017.47272264942
 10
2105.911101889194
 20
1017.611227949996
 10
2105.641089085365
 20
1017.765919522678
 10
2105.412920914666
 20
1017.934452400905
 10
2105.230056173982
 20
1018.114271798038
 10
2105.09526690638
 20
1018.302651835315
 10
2105.01059637976
 20
1018.496736863392
 10
2104.977328112997
 20
1018.693584751086
 10
2104.976904598399
 20
1018.733256004039
  0
LWPOLYLINE
  5
714
330
685
100
AcDbEntity
  8
0
  6
Continuous
 62
     8
370
    15
100
AcDbPolyline
 90
       21
 70
   128
 43
0.0
 10
2102.326622424898
 20
1021.581959727275
 10
2102.011235380944
 20
1021.455079652892
 10
2101.663847551398
 20
1021.34769968128
 10
2101.28972498165
 20
1021.261447583354
 10
2100.894538988496
 20
1021.197630852996
 10
2100.484280188763
 20
1021.157216886789
 10
2100.065167687661
 20
1021.140818319263
 10
2099.643554803485
 20
1021.148683735987
 10
2099.225832757792
 20
1021.18069390526
 10
2098.818333790991
 20
1021.236363585547
 10
2098.427235172039
 20
1021.31484888124
 10
2098.058465557333
 20
1021.41496003526
 10
2097.717615118331
 20
1021.53517946456
 10
2097.409850800243
 20
1021.673684765137
 10
2097.139837996415
 20
1021.828376337818
 10
2096.911669825716
 20
1021.996909216046
 10
2096.728805085032
 20
1022.176728613179
 10
2096.59401581743
 20
1022.365108650455
 10
2096.50934529081
 20
1022.559193678533
 10
2096.476077024048
 20
1022.756041566227
 10
2096.475653509449
 20
1022.79571281918
  0
ENDBLK
  5
687
330
685
100
AcDbEntity
  8
0
100
AcDbBlockEnd
  0
ENDSEC
  0
SECTION
  2
ENTITIES
  0
INSERT
  5
5DC
330
1F
100
AcDbEntity
  8
0
100
AcDbBlockReference
  2
1
 10
0.0
 20
0.0
 30
0.0
  0
INSERT
  5
662
330
1F
100
AcDbEntity
  8
0
100
AcDbBlockReference
  2
3
 10
0.0
 20
0.0
 30
0.0
  0
INSERT
  5
684
330
1F
100
AcDbEntity
  8
0
100
AcDbBlockReference
  2
2
 10
0.0
 20
0.0
 30
0.0
  0
INSERT
  5
715
330
1F
100
AcDbEntity
  8
0
100
AcDbBlockReference
  2
4
 10
0.0
 20
0.0
 30
0.0
  0
ENDSEC
  0
SECTION
  2
OBJECTS
  0
DICTIONARY
  5
C
330
0
100
AcDbDictionary
281
     1
  3
ACAD_COLOR
350
6B
  3
ACAD_GROUP
350
D
  3
ACAD_LAYOUT
350
1A
  3
ACAD_MATERIAL
350
6A
  3
ACAD_MLEADERSTYLE
350
12D
  3
ACAD_MLINESTYLE
350
17
  3
ACAD_PLOTSETTINGS
350
19
  3
ACAD_PLOTSTYLENAME
350
E
  3
ACAD_SCALELIST
350
10C
  3
ACAD_TABLESTYLE
350
7E
  3
ACAD_VISUALSTYLE
350
EF
  3
ACDB_RECOMPOSE_DATA
350
15D
  3
AcDbVariableDictionary
350
5E
  3
DWGPROPS
350
725
  0
DICTIONARY
  5
13C
330
10
100
AcDbDictionary
280
     1
281
     1
  3
ADSK_XREC_LAYER_RECONCILED
360
716
  0
DICTIONARY
  5
6B
102
{ACAD_REACTORS
330
C
102
}
330
C
100
AcDbDictionary
281
     1
  0
DICTIONARY
  5
D
102
{ACAD_REACTORS
330
C
102
}
330
C
100
AcDbDictionary
281
     1
  0
DICTIONARY
  5
1A
102
{ACAD_REACTORS
330
C
102
}
330
C
100
AcDbDictionary
281
     1
  3
Layout1
350
D3
  3
Layout2
350
D7
  3
Model
350
22
  0
DICTIONARY
  5
6A
102
{ACAD_REACTORS
330
C
102
}
330
C
100
AcDbDictionary
281
     1
  3
ByBlock
350
ED
  3
ByLayer
350
EC
  3
Global
350
EE
  0
DICTIONARY
  5
12D
102
{ACAD_REACTORS
330
C
102
}
330
C
100
AcDbDictionary
281
     1
  3
Annotative
350
13B
  3
Standard
350
12E
  0
DICTIONARY
  5
17
102
{ACAD_REACTORS
330
C
102
}
330
C
100
AcDbDictionary
281
     1
  3
Standard
350
18
  0
DICTIONARY
  5
19
102
{ACAD_REACTORS
330
C
102
}
330
C
100
AcDbDictionary
281
     1
  0
ACDBDICTIONARYWDFLT
  5
E
102
{ACAD_REACTORS
330
C
102
}
330
C
100
AcDbDictionary
281
     1
  3
Normal
350
F
100
AcDbDictionaryWithDefault
340
F
  0
DICTIONARY
  5
10C
102
{ACAD_REACTORS
330
C
102
}
330
C
100
AcDbDictionary
281
     1
  3
A0
350
10D
  3
A1
350
188
  3
A2
350
189
  3
A3
350
18A
  3
A4
350
18B
  3
A5
350
18C
  3
A6
350
18D
  3
A7
350
18E
  3
A8
350
18F
  3
A9
350
190
  3
B0
350
191
  3
B1
350
192
  3
B2
350
193
  3
B3
350
194
  3
B4
350
195
  3
B5
350
196
  3
B6
350
197
  3
B7
350
198
  3
B8
350
199
  3
B9
350
19A
  3
C0
350
19B
  3
C1
350
19C
  3
C2
350
19D
  3
C3
350
19E
  3
C4
350
19F
  3
C5
350
1A0
  3
C6
350
1A1
  3
C7
350
1A2
  3
C8
350
1A3
  3
C9
350
1A4
  3
D0
350
1A5
  3
D1
350
1A6
  3
D2
350
1A7
  0
DICTIONARY
  5
7E
102
{ACAD_REACTORS
330
C
102
}
330
C
100
AcDbDictionary
281
     1
  3
Standard
350
7F
  0
DICTIONARY
  5
EF
102
{ACAD_REACTORS
330
C
102
}
330
C
100
AcDbDictionary
281
     1
  3
2dWireframe
350
F5
  3
3D Hidden
350
F7
  3
3dWireframe
350
F6
  3
Basic
350
F4
  3
Brighten
350
FB
  3
ColorChange
350
FF
  3
Conceptual
350
F8
  3
Dim
350
FA
  3
Facepattern
350
FE
  3
Flat
350
F0
  3
FlatWithEdges
350
F1
  3
Gouraud
350
F2
  3
GouraudWithEdges
350
F3
  3
Linepattern
350
FD
  3
Realistic
350
F9
  3
Thicken
350
FC
  0
XRECORD
  5
15D
102
{ACAD_REACTORS
330
C
102
}
330
C
100
AcDbXrecord
280
     1
 90
        1
330
7F
  0
DICTIONARY
  5
5E
102
{ACAD_REACTORS
330
C
102
}
330
C
100
AcDbDictionary
281
     1
  3
CANNOSCALE
350
146
  3
CMLEADERSTYLE
350
145
  3
CTABLESTYLE
350
84
  3
DIMASSOC
350
5F
  3
HIDETEXT
350
63
  3
INDEXCTL
350
721
  3
LIGHTINGUNITS
350
71F
  3
MSLTSCALE
350
71E
  3
PSOLHEIGHT
350
723
  3
PSOLWIDTH
350
722
  3
SORTENTS
350
720
  0
XRECORD
  5
725
102
{ACAD_REACTORS
330
C
102
}
330
C
100
AcDbXrecord
280
     1
  1
DWGPROPS COOKIE
  2

  3

  4

  6

  7

  8
orhan kara
  9

300
=
301
=
302
=
303
=
304
=
305
=
306
=
307
=
308
=
309
=
 40
0.0004619328703704
 41
2458935.412630602
 42
2458956.458587084
  1

 90
        0
  0
XRECORD
  5
716
102
{ACAD_REACTORS
330
13C
102
}
330
13C
100
AcDbXrecord
280
     1
290
     1
  0
LAYOUT
  5
D3
102
{ACAD_XDICTIONARY
360
729
102
}
102
{ACAD_REACTORS
330
1A
102
}
330
1A
100
AcDbPlotSettings
  1

  2
C:\Documents and Settings\basas\Application Data\Autodesk\AutoCAD 2005\R16.1\enu\plotters\Default Windows System Printer.pc3
  4

  6

 40
0.0
 41
0.0
 42
0.0
 43
0.0
 44
0.0
 45
0.0
 46
0.0
 47
0.0
 48
0.0
 49
0.0
140
0.0
141
0.0
142
1.0
143
1.0
 70
   688
 72
     0
 73
     0
 74
     5
  7

 75
    16
147
1.0
148
0.0
149
0.0
100
AcDbLayout
  1
Layout1
 70
     1
 71
     1
 10
0.0
 20
0.0
 11
12.0
 21
9.0
 12
0.0
 22
0.0
 32
0.0
 14
0.0
 24
0.0
 34
0.0
 15
0.0
 25
0.0
 35
0.0
146
0.0
 13
0.0
 23
0.0
 33
0.0
 16
1.0
 26
0.0
 36
0.0
 17
0.0
 27
1.0
 37
0.0
 76
     0
330
D2
  0
LAYOUT
  5
D7
102
{ACAD_XDICTIONARY
360
72B
102
}
102
{ACAD_REACTORS
330
1A
102
}
330
1A
100
AcDbPlotSettings
  1

  2
C:\Documents and Settings\basas\Application Data\Autodesk\AutoCAD 2005\R16.1\enu\plotters\Default Windows System Printer.pc3
  4

  6

 40
0.0
 41
0.0
 42
0.0
 43
0.0
 44
0.0
 45
0.0
 46
0.0
 47
0.0
 48
0.0
 49
0.0
140
0.0
141
0.0
142
1.0
143
1.0
 70
   688
 72
     0
 73
     0
 74
     5
  7

 75
    16
147
1.0
148
0.0
149
0.0
100
AcDbLayout
  1
Layout2
 70
     1
 71
     2
 10
0.0
 20
0.0
 11
12.0
 21
9.0
 12
0.0
 22
0.0
 32
0.0
 14
0.0
 24
0.0
 34
0.0
 15
0.0
 25
0.0
 35
0.0
146
0.0
 13
0.0
 23
0.0
 33
0.0
 16
1.0
 26
0.0
 36
0.0
 17
0.0
 27
1.0
 37
0.0
 76
     0
330
D6
  0
LAYOUT
  5
22
102
{ACAD_XDICTIONARY
360
726
102
}
102
{ACAD_REACTORS
330
1A
102
}
330
1A
100
AcDbPlotSettings
  1

  2
none_device
  4
ISO_A4_(210.00_x_297.00_MM)
  6

 40
7.5
 41
20.0
 42
7.5
 43
20.0
 44
210.0
 45
297.0
 46
11.54999923706054
 47
-13.65000009536743
 48
0.0
 49
0.0
140
0.0
141
0.0
142
1.0
143
8.704084754739808
 70
 11952
 72
     1
 73
     0
 74
     0
  7

 75
     0
147
0.1148885871608098
148
0.0
149
0.0
100
AcDbLayout
  1
Model
 70
     1
 71
     0
 10
0.0
 20
0.0
 11
12.0
 21
9.0
 12
0.0
 22
0.0
 32
0.0
 14
0.0
 24
0.0
 34
0.0
 15
0.0
 25
0.0
 35
0.0
146
0.0
 13
0.0
 23
0.0
 33
0.0
 16
1.0
 26
0.0
 36
0.0
 17
0.0
 27
1.0
 37
0.0
 76
     0
330
1F
331
EA
1001
ACAD_PSEXT
1000
None
1000
None
1000
Not applicable
1000
The layout will not be plotted unless a new plotter configuration name is selected.
1070
     0
  0
MATERIAL
  5
ED
102
{ACAD_XDICTIONARY
360
72F
102
}
102
{ACAD_REACTORS
330
6A
102
}
330
6A
100
AcDbMaterial
  1
ByBlock
  0
MATERIAL
  5
EC
102
{ACAD_XDICTIONARY
360
72D
102
}
102
{ACAD_REACTORS
330
6A
102
}
330
6A
100
AcDbMaterial
  1
ByLayer
  0
MATERIAL
  5
EE
102
{ACAD_XDICTIONARY
360
173
102
}
102
{ACAD_REACTORS
330
6A
102
}
330
6A
100
AcDbMaterial
  1
Global
 43
0.0007999999797903
 43
0.0
 43
0.0
 43
0.0
 43
0.0
 43
0.0007999999797903
 43
0.0
 43
0.0
 43
0.0
 43
0.0
 43
1.0
 43
0.0
 43
0.0
 43
0.0
 43
0.0
 43
1.0
 49
0.0007999999797903
 49
0.0
 49
0.0
 49
0.0
 49
0.0
 49
0.0007999999797903
 49
0.0
 49
0.0
 49
0.0
 49
0.0
 49
1.0
 49
0.0
 49
0.0
 49
0.0
 49
0.0
 49
1.0
142
0.0007999999797903
142
0.0
142
0.0
142
0.0
142
0.0
142
0.0007999999797903
142
0.0
142
0.0
142
0.0
142
0.0
142
1.0
142
0.0
142
0.0
142
0.0
142
0.0
142
1.0
144
0.0007999999797903
144
0.0
144
0.0
144
0.0
144
0.0
144
0.0007999999797903
144
0.0
144
0.0
144
0.0
144
0.0
144
1.0
144
0.0
144
0.0
144
0.0
144
0.0
144
1.0
1001
ACAD
1070
    -1
1070
     3
1070
     0
1000

1071
        0
1070
     0
  0
MLEADERSTYLE
  5
13B
102
{ACAD_REACTORS
330
12D
102
}
330
12D
100
AcDbMLeaderStyle
170
     2
171
     1
172
     0
 90
        2
 40
0.0
 41
0.0
173
     1
 91
-1056964608
340
14
 92
       -2
290
     1
 42
2.0
291
     1
 43
8.0
  3
Standard
 44
4.0
300

342
11
174
     1
178
     1
175
     1
176
     0
 93
-1056964608
 45
4.0
292
     0
297
     0
 46
4.0
 94
-1056964608
 47
1.0
 49
1.0
140
1.0
293
     1
141
0.0
294
     1
177
     0
142
1.0
295
     0
296
     1
143
3.75
1001
ACAD_MLEADERVER
1070
     2
  0
MLEADERSTYLE
  5
12E
102
{ACAD_REACTORS
330
12D
102
}
330
12D
100
AcDbMLeaderStyle
170
     2
171
     1
172
     0
 90
        2
 40
0.0
 41
0.0
173
     1
 91
-1056964608
340
14
 92
       -2
290
     1
 42
2.0
291
     1
 43
8.0
  3
Standard
 44
4.0
300

342
11
174
     1
178
     1
175
     1
176
     0
 93
-1056964608
 45
4.0
292
     0
297
     0
 46
4.0
 94
-1056964608
 47
1.0
 49
1.0
140
1.0
293
     1
141
0.0
294
     1
177
     0
142
1.0
295
     0
296
     0
143
3.75
1001
ACAD_MLEADERVER
1070
     2
  0
MLINESTYLE
  5
18
102
{ACAD_REACTORS
330
17
102
}
330
17
100
AcDbMlineStyle
  2
STANDARD
 70
     0
  3

 62
   256
 51
90.0
 52
90.0
 71
     2
 49
0.5
 62
   256
  6
BYLAYER
 49
-0.5
 62
   256
  6
BYLAYER
  0
ACDBPLACEHOLDER
  5
F
102
{ACAD_REACTORS
330
E
102
}
330
E
  0
SCALE
  5
10D
102
{ACAD_REACTORS
330
10C
102
}
330
10C
100
AcDbScale
 70
     0
300
1:1
140
1.0
141
1.0
290
     1
  0
SCALE
  5
188
102
{ACAD_REACTORS
330
10C
102
}
330
10C
100
AcDbScale
 70
     0
300
1:2
140
1.0
141
2.0
290
     0
  0
SCALE
  5
189
102
{ACAD_REACTORS
330
10C
102
}
330
10C
100
AcDbScale
 70
     0
300
1:4
140
1.0
141
4.0
290
     0
  0
SCALE
  5
18A
102
{ACAD_REACTORS
330
10C
102
}
330
10C
100
AcDbScale
 70
     0
300
1:5
140
1.0
141
5.0
290
     0
  0
SCALE
  5
18B
102
{ACAD_REACTORS
330
10C
102
}
330
10C
100
AcDbScale
 70
     0
300
1:8
140
1.0
141
8.0
290
     0
  0
SCALE
  5
18C
102
{ACAD_REACTORS
330
10C
102
}
330
10C
100
AcDbScale
 70
     0
300
1:10
140
1.0
141
10.0
290
     0
  0
SCALE
  5
18D
102
{ACAD_REACTORS
330
10C
102
}
330
10C
100
AcDbScale
 70
     0
300
1:16
140
1.0
141
16.0
290
     0
  0
SCALE
  5
18E
102
{ACAD_REACTORS
330
10C
102
}
330
10C
100
AcDbScale
 70
     0
300
1:20
140
1.0
141
20.0
290
     0
  0
SCALE
  5
18F
102
{ACAD_REACTORS
330
10C
102
}
330
10C
100
AcDbScale
 70
     0
300
1:30
140
1.0
141
30.0
290
     0
  0
SCALE
  5
190
102
{ACAD_REACTORS
330
10C
102
}
330
10C
100
AcDbScale
 70
     0
300
1:40
140
1.0
141
40.0
290
     0
  0
SCALE
  5
191
102
{ACAD_REACTORS
330
10C
102
}
330
10C
100
AcDbScale
 70
     0
300
1:50
140
1.0
141
50.0
290
     0
  0
SCALE
  5
192
102
{ACAD_REACTORS
330
10C
102
}
330
10C
100
AcDbScale
 70
     0
300
1:100
140
1.0
141
100.0
290
     0
  0
SCALE
  5
193
102
{ACAD_REACTORS
330
10C
102
}
330
10C
100
AcDbScale
 70
     0
300
2:1
140
2.0
141
1.0
290
     0
  0
SCALE
  5
194
102
{ACAD_REACTORS
330
10C
102
}
330
10C
100
AcDbScale
 70
     0
300
4:1
140
4.0
141
1.0
290
     0
  0
SCALE
  5
195
102
{ACAD_REACTORS
330
10C
102
}
330
10C
100
AcDbScale
 70
     0
300
8:1
140
8.0
141
1.0
290
     0
  0
SCALE
  5
196
102
{ACAD_REACTORS
330
10C
102
}
330
10C
100
AcDbScale
 70
     0
300
10:1
140
10.0
141
1.0
290
     0
  0
SCALE
  5
197
102
{ACAD_REACTORS
330
10C
102
}
330
10C
100
AcDbScale
 70
     0
300
100:1
140
100.0
141
1.0
290
     0
  0
SCALE
  5
198
102
{ACAD_REACTORS
330
10C
102
}
330
10C
100
AcDbScale
 70
     0
300
1/128" = 1'-0"
140
0.0078125
141
12.0
290
     0
  0
SCALE
  5
199
102
{ACAD_REACTORS
330
10C
102
}
330
10C
100
AcDbScale
 70
     0
300
1/64" = 1'-0"
140
0.015625
141
12.0
290
     0
  0
SCALE
  5
19A
102
{ACAD_REACTORS
330
10C
102
}
330
10C
100
AcDbScale
 70
     0
300
1/32" = 1'-0"
140
0.03125
141
12.0
290
     0
  0
SCALE
  5
19B
102
{ACAD_REACTORS
330
10C
102
}
330
10C
100
AcDbScale
 70
     0
300
1/16" = 1'-0"
140
0.0625
141
12.0
290
     0
  0
SCALE
  5
19C
102
{ACAD_REACTORS
330
10C
102
}
330
10C
100
AcDbScale
 70
     0
300
3/32" = 1'-0"
140
0.09375
141
12.0
290
     0
  0
SCALE
  5
19D
102
{ACAD_REACTORS
330
10C
102
}
330
10C
100
AcDbScale
 70
     0
300
1/8" = 1'-0"
140
0.125
141
12.0
290
     0
  0
SCALE
  5
19E
102
{ACAD_REACTORS
330
10C
102
}
330
10C
100
AcDbScale
 70
     0
300
3/16" = 1'-0"
140
0.1875
141
12.0
290
     0
  0
SCALE
  5
19F
102
{ACAD_REACTORS
330
10C
102
}
330
10C
100
AcDbScale
 70
     0
300
1/4" = 1'-0"
140
0.25
141
12.0
290
     0
  0
SCALE
  5
1A0
102
{ACAD_REACTORS
330
10C
102
}
330
10C
100
AcDbScale
 70
     0
300
3/8" = 1'-0"
140
0.375
141
12.0
290
     0
  0
SCALE
  5
1A1
102
{ACAD_REACTORS
330
10C
102
}
330
10C
100
AcDbScale
 70
     0
300
1/2" = 1'-0"
140
0.5
141
12.0
290
     0
  0
SCALE
  5
1A2
102
{ACAD_REACTORS
330
10C
102
}
330
10C
100
AcDbScale
 70
     0
300
3/4" = 1'-0"
140
0.75
141
12.0
290
     0
  0
SCALE
  5
1A3
102
{ACAD_REACTORS
330
10C
102
}
330
10C
100
AcDbScale
 70
     0
300
1" = 1'-0"
140
1.0
141
12.0
290
     0
  0
SCALE
  5
1A4
102
{ACAD_REACTORS
330
10C
102
}
330
10C
100
AcDbScale
 70
     0
300
1-1/2" = 1'-0"
140
1.5
141
12.0
290
     0
  0
SCALE
  5
1A5
102
{ACAD_REACTORS
330
10C
102
}
330
10C
100
AcDbScale
 70
     0
300
3" = 1'-0"
140
3.0
141
12.0
290
     0
  0
SCALE
  5
1A6
102
{ACAD_REACTORS
330
10C
102
}
330
10C
100
AcDbScale
 70
     0
300
6" = 1'-0"
140
6.0
141
12.0
290
     0
  0
SCALE
  5
1A7
102
{ACAD_REACTORS
330
10C
102
}
330
10C
100
AcDbScale
 70
     0
300
1'-0" = 1'-0"
140
12.0
141
12.0
290
     0
  0
TABLESTYLE
  5
7F
102
{ACAD_XDICTIONARY
360
162
102
}
102
{ACAD_REACTORS
330
7E
102
}
330
7E
100
AcDbTableStyle
  3
Standard
 70
     0
 71
     0
 40
1.5
 41
1.5
280
     0
281
     0
  7
Standard
140
4.5
170
     2
 62
     0
 63
     7
283
     0
274
    -2
284
     1
 64
     0
275
    -2
285
     1
 65
     0
276
    -2
286
     1
 66
     0
277
    -2
287
     1
 67
     0
278
    -2
288
     1
 68
     0
279
    -2
289
     1
 69
     0
  7
Standard
140
6.0
170
     5
 62
     0
 63
     7
283
     0
274
    -2
284
     1
 64
     0
275
    -2
285
     1
 65
     0
276
    -2
286
     1
 66
     0
277
    -2
287
     1
 67
     0
278
    -2
288
     1
 68
     0
279
    -2
289
     1
 69
     0
  7
Standard
140
4.5
170
     5
 62
     0
 63
     7
283
     0
274
    -2
284
     1
 64
     0
275
    -2
285
     1
 65
     0
276
    -2
286
     1
 66
     0
277
    -2
287
     1
 67
     0
278
    -2
288
     1
 68
     0
279
    -2
289
     1
 69
     0
  0
VISUALSTYLE
  5
F5
102
{ACAD_REACTORS
330
EF
102
}
330
EF
100
AcDbVisualStyle
  2
2dWireframe
 70
     4
 71
     0
 72
     2
 73
     1
 90
        0
 40
-0.6
 41
-30.0
 62
     5
 63
     7
 74
     1
 91
        4
 64
     7
 65
   257
 75
     1
175
     1
 42
1.0
 92
        0
 66
   257
 43
1.0
 76
     1
 77
     6
 78
     2
 67
     7
 79
     5
170
     0
171
     0
290
     0
174
     0
 93
        1
 44
0.0
173
     0
291
     0
 45
0.0
1001
ACAD
1000
AcDbSavedByObjectVersion
1070
     0
  0
VISUALSTYLE
  5
F7
102
{ACAD_REACTORS
330
EF
102
}
330
EF
100
AcDbVisualStyle
  2
3D Hidden
 70
     6
 71
     1
 72
     2
 73
     2
 90
        0
 40
-0.6
 41
-30.0
 62
     5
 63
     7
 74
     2
 91
        2
 64
     7
 65
   257
 75
     2
175
     1
 42
40.0
 92
        0
 66
   257
 43
1.0
 76
     1
 77
     6
 78
     2
 67
     7
 79
     3
170
     0
171
     0
290
     0
174
     0
 93
        1
 44
0.0
173
     0
291
     0
 45
0.0
1001
ACAD
1000
AcDbSavedByObjectVersion
1070
     0
  0
VISUALSTYLE
  5
F6
102
{ACAD_REACTORS
330
EF
102
}
330
EF
100
AcDbVisualStyle
  2
3dWireframe
 70
     5
 71
     0
 72
     2
 73
     1
 90
        0
 40
-0.6
 41
-30.0
 62
     5
 63
     7
 74
     1
 91
        4
 64
     7
 65
   257
 75
     1
175
     1
 42
1.0
 92
        0
 66
   257
 43
1.0
 76
     1
 77
     6
 78
     2
 67
     7
 79
     5
170
     0
171
     0
290
     0
174
     0
 93
        1
 44
0.0
173
     0
291
     0
 45
0.0
1001
ACAD
1000
AcDbSavedByObjectVersion
1070
     0
  0
VISUALSTYLE
  5
F4
102
{ACAD_REACTORS
330
EF
102
}
330
EF
100
AcDbVisualStyle
  2
Basic
 70
     7
 71
     1
 72
     0
 73
     1
 90
        0
 40
-0.6
 41
-30.0
 62
     5
 63
     7
 74
     0
 91
        4
 64
     7
 65
   257
 75
     1
175
     1
 42
1.0
 92
        8
 66
     7
 43
1.0
 76
     1
 77
     6
 78
     2
 67
     7
 79
     5
170
     0
171
     0
290
     0
174
     0
 93
        1
 44
0.0
173
     0
291
     1
 45
0.0
1001
ACAD
1000
AcDbSavedByObjectVersion
1070
     0
  0
VISUALSTYLE
  5
FB
102
{ACAD_REACTORS
330
EF
102
}
330
EF
100
AcDbVisualStyle
  2
Brighten
 70
    12
 71
     2
 72
     2
 73
     1
 90
        0
 40
-0.6
 41
-30.0
 62
     5
 63
     7
 74
     1
 91
        4
 64
     7
 65
   257
 75
     1
175
     1
 42
1.0
 92
        8
 66
     7
 43
1.0
 76
     1
 77
     6
 78
     2
 67
     7
 79
     5
170
     0
171
     0
290
     0
174
     0
 93
        1
 44
50.0
173
     0
291
     1
 45
0.0
1001
ACAD
1000
AcDbSavedByObjectVersion
1070
     0
  0
VISUALSTYLE
  5
FF
102
{ACAD_REACTORS
330
EF
102
}
330
EF
100
AcDbVisualStyle
  2
ColorChange
 70
    16
 71
     2
 72
     2
 73
     3
 90
        0
 40
-0.6
 41
-30.0
 62
     5
 63
     8
 74
     1
 91
        4
 64
     7
 65
   257
 75
     1
175
     1
 42
1.0
 92
        8
 66
     8
 43
1.0
 76
     1
 77
     6
 78
     2
 67
     7
 79
     5
170
     0
171
     0
290
     0
174
     0
 93
        1
 44
0.0
173
     0
291
     1
 45
0.0
1001
ACAD
1000
AcDbSavedByObjectVersion
1070
     0
  0
VISUALSTYLE
  5
F8
102
{ACAD_REACTORS
330
EF
102
}
330
EF
100
AcDbVisualStyle
  2
Conceptual
 70
     9
 71
     3
 72
     2
 73
     1
 90
        0
 40
-0.6
 41
-30.0
 62
     5
 63
     7
 74
     2
 91
        2
 64
     7
 65
   257
 75
     1
175
     1
 42
40.0
 92
        8
 66
     7
 43
1.0
 76
     1
 77
     6
 78
     2
 67
     7
 79
     3
170
     0
171
     0
290
     0
174
     0
 93
        1
 44
0.0
173
     0
291
     0
 45
0.0
1001
ACAD
1000
AcDbSavedByObjectVersion
1070
     0
  0
VISUALSTYLE
  5
FA
102
{ACAD_REACTORS
330
EF
102
}
330
EF
100
AcDbVisualStyle
  2
Dim
 70
    11
 71
     2
 72
     2
 73
     1
 90
        0
 40
-0.6
 41
-30.0
 62
     5
 63
     7
 74
     1
 91
        4
 64
     7
 65
   257
 75
     1
175
     1
 42
1.0
 92
        8
 66
     7
 43
1.0
 76
     1
 77
     6
 78
     2
 67
     7
 79
     5
170
     0
171
     0
290
     0
174
     0
 93
        1
 44
-50.0
173
     0
291
     1
 45
0.0
1001
ACAD
1000
AcDbSavedByObjectVersion
1070
     0
  0
VISUALSTYLE
  5
FE
102
{ACAD_REACTORS
330
EF
102
}
330
EF
100
AcDbVisualStyle
  2
Facepattern
 70
    15
 71
     2
 72
     2
 73
     1
 90
        0
 40
-0.6
 41
-30.0
 62
     5
 63
     7
 74
     1
 91
        4
 64
     7
 65
   257
 75
     1
175
     1
 42
1.0
 92
        8
 66
     7
 43
1.0
 76
     1
 77
     6
 78
     2
 67
     7
 79
     5
170
     0
171
     0
290
     0
174
     0
 93
        1
 44
0.0
173
     0
291
     1
 45
0.0
1001
ACAD
1000
AcDbSavedByObjectVersion
1070
     0
  0
VISUALSTYLE
  5
F0
102
{ACAD_REACTORS
330
EF
102
}
330
EF
100
AcDbVisualStyle
  2
Flat
 70
     0
 71
     2
 72
     1
 73
     1
 90
        2
 40
-0.6
 41
30.0
 62
     5
 63
     7
 74
     0
 91
        4
 64
     7
 65
   257
 75
     1
175
     1
 42
1.0
 92
        8
 66
     7
 43
1.0
 76
     1
 77
     6
 78
     2
 67
     7
 79
     5
170
     0
171
     0
290
     0
174
     0
 93
        1
 44
0.0
173
     0
291
     1
 45
0.0
1001
ACAD
1000
AcDbSavedByObjectVersion
1070
     0
  0
VISUALSTYLE
  5
F1
102
{ACAD_REACTORS
330
EF
102
}
330
EF
100
AcDbVisualStyle
  2
FlatWithEdges
 70
     1
 71
     2
 72
     1
 73
     1
 90
        2
 40
-0.6
 41
30.0
 62
     5
 63
     7
 74
     1
 91
        4
 64
     7
 65
   257
 75
     1
175
     1
 42
1.0
 92
        0
 66
   257
 43
1.0
 76
     1
 77
     6
 78
     2
 67
     7
 79
     5
170
     0
171
     0
290
     0
174
     0
 93
        1
 44
0.0
173
     0
291
     1
 45
0.0
1001
ACAD
1000
AcDbSavedByObjectVersion
1070
     0
  0
VISUALSTYLE
  5
F2
102
{ACAD_REACTORS
330
EF
102
}
330
EF
100
AcDbVisualStyle
  2
Gouraud
 70
     2
 71
     2
 72
     2
 73
     1
 90
        2
 40
-0.6
 41
30.0
 62
     5
 63
     7
 74
     0
 91
        4
 64
     7
 65
   257
 75
     1
175
     1
 42
1.0
 92
        0
 66
     7
 43
1.0
 76
     1
 77
     6
 78
     2
 67
     7
 79
     5
170
     0
171
     0
290
     0
174
     0
 93
        1
 44
0.0
173
     0
291
     1
 45
0.0
1001
ACAD
1000
AcDbSavedByObjectVersion
1070
     0
  0
VISUALSTYLE
  5
F3
102
{ACAD_REACTORS
330
EF
102
}
330
EF
100
AcDbVisualStyle
  2
GouraudWithEdges
 70
     3
 71
     2
 72
     2
 73
     1
 90
        2
 40
-0.6
 41
30.0
 62
     5
 63
     7
 74
     1
 91
        4
 64
     7
 65
   257
 75
     1
175
     1
 42
1.0
 92
        0
 66
   257
 43
1.0
 76
     1
 77
     6
 78
     2
 67
     7
 79
     5
170
     0
171
     0
290
     0
174
     0
 93
        1
 44
0.0
173
     0
291
     1
 45
0.0
1001
ACAD
1000
AcDbSavedByObjectVersion
1070
     0
  0
VISUALSTYLE
  5
FD
102
{ACAD_REACTORS
330
EF
102
}
330
EF
100
AcDbVisualStyle
  2
Linepattern
 70
    14
 71
     2
 72
     2
 73
     1
 90
        0
 40
-0.6
 41
-30.0
 62
     5
 63
     7
 74
     1
 91
        4
 64
     7
 65
   257
 75
     7
175
     7
 42
1.0
 92
        8
 66
     7
 43
1.0
 76
     1
 77
     6
 78
     2
 67
     7
 79
     5
170
     0
171
     0
290
     0
174
     0
 93
        1
 44
0.0
173
     0
291
     1
 45
0.0
1001
ACAD
1000
AcDbSavedByObjectVersion
1070
     0
  0
VISUALSTYLE
  5
F9
102
{ACAD_REACTORS
330
EF
102
}
330
EF
100
AcDbVisualStyle
  2
Realistic
 70
     8
 71
     2
 72
     2
 73
     1
 90
        0
 40
-0.6
 41
-30.0
 62
     5
 63
     7
 74
     1
 91
        0
 64
     7
 65
   257
 75
     1
175
     1
 42
1.0
 92
        8
 66
     8
 43
1.0
 76
     1
 77
     6
 78
     2
 67
     7
 79
     5
170
     0
171
     0
290
     0
174
     0
 93
       13
 44
0.0
173
     0
291
     0
 45
0.0
1001
ACAD
1000
AcDbSavedByObjectVersion
1070
     0
  0
VISUALSTYLE
  5
FC
102
{ACAD_REACTORS
330
EF
102
}
330
EF
100
AcDbVisualStyle
  2
Thicken
 70
    13
 71
     2
 72
     2
 73
     1
 90
        0
 40
-0.6
 41
-30.0
 62
     5
 63
     7
 74
     1
 91
        4
 64
     7
 65
   257
 75
     1
175
     1
 42
1.0
 92
       12
 66
     7
 43
1.0
 76
     1
 77
     6
 78
     2
 67
     7
 79
     5
170
     0
171
     0
290
     0
174
     0
 93
        1
 44
0.0
173
     0
291
     1
 45
0.0
1001
ACAD
1000
AcDbSavedByObjectVersion
1070
     0
  0
DICTIONARYVAR
  5
146
102
{ACAD_REACTORS
330
5E
102
}
330
5E
100
DictionaryVariables
280
     0
  1
1:1
  0
DICTIONARYVAR
  5
145
102
{ACAD_REACTORS
330
5E
102
}
330
5E
100
DictionaryVariables
280
     0
  1
STANDARD
  0
DICTIONARYVAR
  5
84
102
{ACAD_REACTORS
330
5E
102
}
330
5E
100
DictionaryVariables
280
     0
  1
STANDARD
  0
DICTIONARYVAR
  5
5F
102
{ACAD_REACTORS
330
5E
102
}
330
5E
100
DictionaryVariables
280
     0
  1
2
  0
DICTIONARYVAR
  5
63
102
{ACAD_REACTORS
330
5E
102
}
330
5E
100
DictionaryVariables
280
     0
  1
1
  0
DICTIONARYVAR
  5
721
102
{ACAD_REACTORS
330
5E
102
}
330
5E
100
DictionaryVariables
280
     0
  1
0
  0
DICTIONARYVAR
  5
71F
102
{ACAD_REACTORS
330
5E
102
}
330
5E
100
DictionaryVariables
280
     0
  1
2
  0
DICTIONARYVAR
  5
71E
102
{ACAD_REACTORS
330
5E
102
}
330
5E
100
DictionaryVariables
280
     0
  1
1
  0
DICTIONARYVAR
  5
723
102
{ACAD_REACTORS
330
5E
102
}
330
5E
100
DictionaryVariables
280
     0
  1
80.000000
  0
DICTIONARYVAR
  5
722
102
{ACAD_REACTORS
330
5E
102
}
330
5E
100
DictionaryVariables
280
     0
  1
5.000000
  0
DICTIONARYVAR
  5
720
102
{ACAD_REACTORS
330
5E
102
}
330
5E
100
DictionaryVariables
280
     0
  1
127
  0
DICTIONARY
  5
729
330
D3
100
AcDbDictionary
280
     1
281
     1
  3
ACAD_XREC_ROUNDTRIP
360
72A
  0
DICTIONARY
  5
72B
330
D7
100
AcDbDictionary
280
     1
281
     1
  3
ACAD_XREC_ROUNDTRIP
360
72C
  0
DICTIONARY
  5
726
330
22
100
AcDbDictionary
280
     1
281
     1
  3
ACAD_XREC_ROUNDTRIP
360
727
  0
DICTIONARY
  5
72F
330
ED
100
AcDbDictionary
280
     1
281
     1
  3
ACAD_XREC_ROUNDTRIP
360
730
  0
DICTIONARY
  5
72D
330
EC
100
AcDbDictionary
280
     1
281
     1
  3
ACAD_XREC_ROUNDTRIP
360
72E
  0
DICTIONARY
  5
173
330
EE
100
AcDbDictionary
280
     1
281
     1
  3
ACAD_XREC_ROUNDTRIP
360
731
  3
BUMPTILE
360
175
  3
DIFFUSETILE
360
174
  3
OPACITYTILE
360
176
  3
REFLECTIONTILE
360
177
  0
DICTIONARY
  5
162
330
7F
100
AcDbDictionary
280
     1
281
     1
  3
ACAD_ROUNDTRIP_2008_TABLESTYLE_CELLSTYLEMAP
360
724
  3
ACAD_XREC_ROUNDTRIP
360
728
  0
XRECORD
  5
72A
102
{ACAD_REACTORS
330
729
102
}
330
729
100
AcDbXrecord
280
     1
102
SHADEPLOT
 70
     0
102
SHADEPLOTRESLEVEL
 70
     2
102
SHADEPLOTCUSTOMDPI
 70
   300
  0
XRECORD
  5
72C
102
{ACAD_REACTORS
330
72B
102
}
330
72B
100
AcDbXrecord
280
     1
102
SHADEPLOT
 70
     0
102
SHADEPLOTRESLEVEL
 70
     2
102
SHADEPLOTCUSTOMDPI
 70
   300
  0
XRECORD
  5
727
102
{ACAD_REACTORS
330
726
102
}
330
726
100
AcDbXrecord
280
     1
102
SHADEPLOT
 70
     0
102
SHADEPLOTRESLEVEL
 70
     2
102
SHADEPLOTCUSTOMDPI
 70
   300
  0
XRECORD
  5
730
102
{ACAD_REACTORS
330
72F
102
}
330
72F
100
AcDbXrecord
280
     1
102
MATERIAL
148
0.0
149
0.0
149
0.0
 93
        0
 94
       63
282
     0
 72
     1
 77
     1
171
     1
175
     1
179
     1
273
     0
  0
XRECORD
  5
72E
102
{ACAD_REACTORS
330
72D
102
}
330
72D
100
AcDbXrecord
280
     1
102
MATERIAL
148
0.0
149
0.0
149
0.0
 93
        0
 94
       63
282
     0
 72
     1
 77
     1
171
     1
175
     1
179
     1
273
     0
  0
XRECORD
  5
731
102
{ACAD_REACTORS
330
173
102
}
330
173
100
AcDbXrecord
280
     1
102
MATERIAL
148
0.0
149
0.0
149
0.0
 93
        0
 94
       63
282
     0
 72
     1
 77
     1
171
     1
175
     1
179
     1
273
     0
  0
XRECORD
  5
175
102
{ACAD_REACTORS
330
173
102
}
330
173
100
AcDbXrecord
280
     1
270
     1
271
     1
  0
XRECORD
  5
174
102
{ACAD_REACTORS
330
173
102
}
330
173
100
AcDbXrecord
280
     1
270
     1
271
     1
  0
XRECORD
  5
176
102
{ACAD_REACTORS
330
173
102
}
330
173
100
AcDbXrecord
280
     1
270
     1
271
     1
  0
XRECORD
  5
177
102
{ACAD_REACTORS
330
173
102
}
330
173
100
AcDbXrecord
280
     1
270
     1
271
     1
  0
CELLSTYLEMAP
  5
724
102
{ACAD_REACTORS
330
162
102
}
330
162
100
AcDbCellStyleMap
 90
        3
300
CELLSTYLE
  1
TABLEFORMAT_BEGIN
 90
        5
170
     1
 91
        0
 92
    32768
 62
   257
 93
        1
300
CONTENTFORMAT
  1
CONTENTFORMAT_BEGIN
 90
        0
 91
        0
 92
      512
 93
        0
300

 40
0.0
140
1.0
 94
        5
 62
     0
340
11
144
6.0
309
CONTENTFORMAT_END
171
     1
301
MARGIN
  1
CELLMARGIN_BEGIN
 40
1.5
 40
1.5
 40
1.5
 40
1.5
 40
4.5
 40
4.5
309
CELLMARGIN_END
 94
        6
 95
        1
302
GRIDFORMAT
  1
GRIDFORMAT_BEGIN
 90
        0
 91
        1
 62
     0
 92
       -2
340
14
 93
        0
 40
1.125
309
GRIDFORMAT_END
 95
        2
302
GRIDFORMAT
  1
GRIDFORMAT_BEGIN
 90
        0
 91
        1
 62
     0
 92
       -2
340
14
 93
        0
 40
1.125
309
GRIDFORMAT_END
 95
        4
302
GRIDFORMAT
  1
GRIDFORMAT_BEGIN
 90
        0
 91
        1
 62
     0
 92
       -2
340
14
 93
        0
 40
1.125
309
GRIDFORMAT_END
 95
        8
302
GRIDFORMAT
  1
GRIDFORMAT_BEGIN
 90
        0
 91
        1
 62
     0
 92
       -2
340
14
 93
        0
 40
1.125
309
GRIDFORMAT_END
 95
       16
302
GRIDFORMAT
  1
GRIDFORMAT_BEGIN
 90
        0
 91
        1
 62
     0
 92
       -2
340
14
 93
        0
 40
1.125
309
GRIDFORMAT_END
 95
       32
302
GRIDFORMAT
  1
GRIDFORMAT_BEGIN
 90
        0
 91
        1
 62
     0
 92
       -2
340
14
 93
        0
 40
1.125
309
GRIDFORMAT_END
309
TABLEFORMAT_END
  1
CELLSTYLE_BEGIN
 90
        1
 91
        1
300
_TITLE
309
CELLSTYLE_END
300
CELLSTYLE
  1
TABLEFORMAT_BEGIN
 90
        5
170
     1
 91
        0
 92
        0
 62
   257
 93
        1
300
CONTENTFORMAT
  1
CONTENTFORMAT_BEGIN
 90
        0
 91
        0
 92
      512
 93
        0
300

 40
0.0
140
1.0
 94
        5
 62
     0
340
11
144
4.5
309
CONTENTFORMAT_END
171
     1
301
MARGIN
  1
CELLMARGIN_BEGIN
 40
1.5
 40
1.5
 40
1.5
 40
1.5
 40
4.5
 40
4.5
309
CELLMARGIN_END
 94
        6
 95
        1
302
GRIDFORMAT
  1
GRIDFORMAT_BEGIN
 90
        0
 91
        1
 62
     0
 92
       -2
340
14
 93
        0
 40
1.125
309
GRIDFORMAT_END
 95
        2
302
GRIDFORMAT
  1
GRIDFORMAT_BEGIN
 90
        0
 91
        1
 62
     0
 92
       -2
340
14
 93
        0
 40
1.125
309
GRIDFORMAT_END
 95
        4
302
GRIDFORMAT
  1
GRIDFORMAT_BEGIN
 90
        0
 91
        1
 62
     0
 92
       -2
340
14
 93
        0
 40
1.125
309
GRIDFORMAT_END
 95
        8
302
GRIDFORMAT
  1
GRIDFORMAT_BEGIN
 90
        0
 91
        1
 62
     0
 92
       -2
340
14
 93
        0
 40
1.125
309
GRIDFORMAT_END
 95
       16
302
GRIDFORMAT
  1
GRIDFORMAT_BEGIN
 90
        0
 91
        1
 62
     0
 92
       -2
340
14
 93
        0
 40
1.125
309
GRIDFORMAT_END
 95
       32
302
GRIDFORMAT
  1
GRIDFORMAT_BEGIN
 90
        0
 91
        1
 62
     0
 92
       -2
340
14
 93
        0
 40
1.125
309
GRIDFORMAT_END
309
TABLEFORMAT_END
  1
CELLSTYLE_BEGIN
 90
        2
 91
        1
300
_HEADER
309
CELLSTYLE_END
300
CELLSTYLE
  1
TABLEFORMAT_BEGIN
 90
        5
170
     1
 91
        0
 92
        0
 62
   257
 93
        1
300
CONTENTFORMAT
  1
CONTENTFORMAT_BEGIN
 90
        0
 91
        0
 92
      512
 93
        0
300

 40
0.0
140
1.0
 94
        2
 62
     0
340
11
144
4.5
309
CONTENTFORMAT_END
171
     1
301
MARGIN
  1
CELLMARGIN_BEGIN
 40
1.5
 40
1.5
 40
1.5
 40
1.5
 40
4.5
 40
4.5
309
CELLMARGIN_END
 94
        6
 95
        1
302
GRIDFORMAT
  1
GRIDFORMAT_BEGIN
 90
        0
 91
        1
 62
     0
 92
       -2
340
14
 93
        0
 40
1.125
309
GRIDFORMAT_END
 95
        2
302
GRIDFORMAT
  1
GRIDFORMAT_BEGIN
 90
        0
 91
        1
 62
     0
 92
       -2
340
14
 93
        0
 40
1.125
309
GRIDFORMAT_END
 95
        4
302
GRIDFORMAT
  1
GRIDFORMAT_BEGIN
 90
        0
 91
        1
 62
     0
 92
       -2
340
14
 93
        0
 40
1.125
309
GRIDFORMAT_END
 95
        8
302
GRIDFORMAT
  1
GRIDFORMAT_BEGIN
 90
        0
 91
        1
 62
     0
 92
       -2
340
14
 93
        0
 40
1.125
309
GRIDFORMAT_END
 95
       16
302
GRIDFORMAT
  1
GRIDFORMAT_BEGIN
 90
        0
 91
        1
 62
     0
 92
       -2
340
14
 93
        0
 40
1.125
309
GRIDFORMAT_END
 95
       32
302
GRIDFORMAT
  1
GRIDFORMAT_BEGIN
 90
        0
 91
        1
 62
     0
 92
       -2
340
14
 93
        0
 40
1.125
309
GRIDFORMAT_END
309
TABLEFORMAT_END
  1
CELLSTYLE_BEGIN
 90
        3
 91
        2
300
_DATA
309
CELLSTYLE_END
  0
XRECORD
  5
728
102
{ACAD_REACTORS
330
162
102
}
330
162
100
AcDbXrecord
280
     1
102
ACAD_ROUNDTRIP_PRE2007_TABLESTYLE
 90
      512
 91
        0
  1

 92
      512
 93
        0
  2

 94
      512
 95
        0
  3

  0
ENDSEC
  0
EOF
