  0
SECTION
  2
HEADER
  9
$ACADVER
  1
AC1015
  9
$ACADMAINTVER
 70
    20
  9
$DWGCODEPAGE
  3
ANSI_1254
  9
$INSBASE
 10
0.0
 20
0.0
 30
0.0
  9
$EXTMIN
 10
2527.241415823507
 20
808.8757714372995
 30
0.0
  9
$EXTMAX
 10
2653.795405511096
 20
853.0574320269154
 30
0.0
  9
$LIMMIN
 10
0.0
 20
0.0
  9
$LIMMAX
 10
420.0
 20
297.0
  9
$ORTHOMODE
 70
     0
  9
$REGENMODE
 70
     1
  9
$FILLMODE
 70
     1
  9
$QTEXTMODE
 70
     0
  9
$MIRRTEXT
 70
     0
  9
$LTSCALE
 40
1.0
  9
$ATTMODE
 70
     1
  9
$TEXTSIZE
 40
2.5
  9
$TRACEWID
 40
1.0
  9
$TEXTSTYLE
  7
Standard
  9
$CLAYER
  8
0
  9
$CELTYPE
  6
ByLayer
  9
$CECOLOR
 62
   256
  9
$CELTSCALE
 40
1.0
  9
$DISPSILH
 70
     0
  9
$DIMSCALE
 40
1.0
  9
$DIMASZ
 40
2.5
  9
$DIMEXO
 40
0.625
  9
$DIMDLI
 40
3.75
  9
$DIMRND
 40
0.0
  9
$DIMDLE
 40
0.0
  9
$DIMEXE
 40
1.25
  9
$DIMTP
 40
0.0
  9
$DIMTM
 40
0.0
  9
$DIMTXT
 40
2.5
  9
$DIMCEN
 40
2.5
  9
$DIMTSZ
 40
0.0
  9
$DIMTOL
 70
     0
  9
$DIMLIM
 70
     0
  9
$DIMTIH
 70
     0
  9
$DIMTOH
 70
     0
  9
$DIMSE1
 70
     0
  9
$DIMSE2
 70
     0
  9
$DIMTAD
 70
     1
  9
$DIMZIN
 70
     8
  9
$DIMBLK
  1

  9
$DIMASO
 70
     1
  9
$DIMSHO
 70
     1
  9
$DIMPOST
  1

  9
$DIMAPOST
  1

  9
$DIMALT
 70
     0
  9
$DIMALTD
 70
     3
  9
$DIMALTF
 40
0.03937007874016
  9
$DIMLFAC
 40
1.0
  9
$DIMTOFL
 70
     1
  9
$DIMTVP
 40
0.0
  9
$DIMTIX
 70
     0
  9
$DIMSOXD
 70
     0
  9
$DIMSAH
 70
     0
  9
$DIMBLK1
  1

  9
$DIMBLK2
  1

  9
$DIMSTYLE
  2
ISO-25
  9
$DIMCLRD
 70
     0
  9
$DIMCLRE
 70
     0
  9
$DIMCLRT
 70
     0
  9
$DIMTFAC
 40
1.0
  9
$DIMGAP
 40
0.625
  9
$DIMJUST
 70
     0
  9
$DIMSD1
 70
     0
  9
$DIMSD2
 70
     0
  9
$DIMTOLJ
 70
     0
  9
$DIMTZIN
 70
     8
  9
$DIMALTZ
 70
     0
  9
$DIMALTTZ
 70
     0
  9
$DIMUPT
 70
     0
  9
$DIMDEC
 70
     2
  9
$DIMTDEC
 70
     2
  9
$DIMALTU
 70
     2
  9
$DIMALTTD
 70
     3
  9
$DIMTXSTY
  7
Standard
  9
$DIMAUNIT
 70
     0
  9
$DIMADEC
 70
     0
  9
$DIMALTRND
 40
0.0
  9
$DIMAZIN
 70
     0
  9
$DIMDSEP
 70
    44
  9
$DIMATFIT
 70
     3
  9
$DIMFRAC
 70
     0
  9
$DIMLDRBLK
  1

  9
$DIMLUNIT
 70
     2
  9
$DIMLWD
 70
    -2
  9
$DIMLWE
 70
    -2
  9
$DIMTMOVE
 70
     0
  9
$LUNITS
 70
     2
  9
$LUPREC
 70
     4
  9
$SKETCHINC
 40
1.0
  9
$FILLETRAD
 40
0.0
  9
$AUNITS
 70
     0
  9
$AUPREC
 70
     0
  9
$MENU
  1
.
  9
$ELEVATION
 40
0.0
  9
$PELEVATION
 40
0.0
  9
$THICKNESS
 40
0.0
  9
$LIMCHECK
 70
     0
  9
$CHAMFERA
 40
0.0
  9
$CHAMFERB
 40
0.0
  9
$CHAMFERC
 40
0.0
  9
$CHAMFERD
 40
0.0
  9
$SKPOLY
 70
     0
  9
$TDCREATE
 40
2458935.373748299
  9
$TDUCREATE
 40
2458935.248748299
  9
$TDUPDATE
 40
2458956.456250220
  9
$TDUUPDATE
 40
2458956.331250220
  9
$TDINDWG
 40
0.0004249769
  9
$TDUSRTIMER
 40
0.0004249769
  9
$USRTIMER
 70
     1
  9
$ANGBASE
 50
0.0
  9
$ANGDIR
 70
     0
  9
$PDMODE
 70
     0
  9
$PDSIZE
 40
0.0
  9
$PLINEWID
 40
0.0
  9
$SPLFRAME
 70
     0
  9
$SPLINETYPE
 70
     6
  9
$SPLINESEGS
 70
     8
  9
$HANDSEED
  5
5D1
  9
$SURFTAB1
 70
     6
  9
$SURFTAB2
 70
     6
  9
$SURFTYPE
 70
     6
  9
$SURFU
 70
     6
  9
$SURFV
 70
     6
  9
$UCSBASE
  2

  9
$UCSNAME
  2

  9
$UCSORG
 10
0.0
 20
0.0
 30
0.0
  9
$UCSXDIR
 10
1.0
 20
0.0
 30
0.0
  9
$UCSYDIR
 10
0.0
 20
1.0
 30
0.0
  9
$UCSORTHOREF
  2

  9
$UCSORTHOVIEW
 70
     0
  9
$UCSORGTOP
 10
0.0
 20
0.0
 30
0.0
  9
$UCSORGBOTTOM
 10
0.0
 20
0.0
 30
0.0
  9
$UCSORGLEFT
 10
0.0
 20
0.0
 30
0.0
  9
$UCSORGRIGHT
 10
0.0
 20
0.0
 30
0.0
  9
$UCSORGFRONT
 10
0.0
 20
0.0
 30
0.0
  9
$UCSORGBACK
 10
0.0
 20
0.0
 30
0.0
  9
$PUCSBASE
  2

  9
$PUCSNAME
  2

  9
$PUCSORG
 10
0.0
 20
0.0
 30
0.0
  9
$PUCSXDIR
 10
1.0
 20
0.0
 30
0.0
  9
$PUCSYDIR
 10
0.0
 20
1.0
 30
0.0
  9
$PUCSORTHOREF
  2

  9
$PUCSORTHOVIEW
 70
     0
  9
$PUCSORGTOP
 10
0.0
 20
0.0
 30
0.0
  9
$PUCSORGBOTTOM
 10
0.0
 20
0.0
 30
0.0
  9
$PUCSORGLEFT
 10
0.0
 20
0.0
 30
0.0
  9
$PUCSORGRIGHT
 10
0.0
 20
0.0
 30
0.0
  9
$PUCSORGFRONT
 10
0.0
 20
0.0
 30
0.0
  9
$PUCSORGBACK
 10
0.0
 20
0.0
 30
0.0
  9
$USERI1
 70
     0
  9
$USERI2
 70
     0
  9
$USERI3
 70
     0
  9
$USERI4
 70
     0
  9
$USERI5
 70
     0
  9
$USERR1
 40
0.0
  9
$USERR2
 40
0.0
  9
$USERR3
 40
0.0
  9
$USERR4
 40
0.0
  9
$USERR5
 40
0.0
  9
$WORLDVIEW
 70
     1
  9
$SHADEDGE
 70
     3
  9
$SHADEDIF
 70
    70
  9
$TILEMODE
 70
     1
  9
$MAXACTVP
 70
    64
  9
$PINSBASE
 10
0.0
 20
0.0
 30
0.0
  9
$PLIMCHECK
 70
     0
  9
$PEXTMIN
 10
0.0
 20
0.0
 30
0.0
  9
$PEXTMAX
 10
0.0
 20
0.0
 30
0.0
  9
$PLIMMIN
 10
0.0
 20
0.0
  9
$PLIMMAX
 10
12.0
 20
9.0
  9
$UNITMODE
 70
     0
  9
$VISRETAIN
 70
     1
  9
$PLINEGEN
 70
     0
  9
$PSLTSCALE
 70
     1
  9
$TREEDEPTH
 70
  3020
  9
$CMLSTYLE
  2
Standard
  9
$CMLJUST
 70
     0
  9
$CMLSCALE
 40
20.0
  9
$PROXYGRAPHICS
 70
     1
  9
$MEASUREMENT
 70
     1
  9
$CELWEIGHT
370
    -1
  9
$ENDCAPS
280
     0
  9
$JOINSTYLE
280
     0
  9
$LWDISPLAY
290
     0
  9
$INSUNITS
 70
     4
  9
$HYPERLINKBASE
  1

  9
$STYLESHEET
  1

  9
$XEDIT
290
     1
  9
$CEPSNTYPE
380
     0
  9
$PSTYLEMODE
290
     1
  9
$FINGERPRINTGUID
  2
{73D017EA-77FD-4537-B1AE-FE60DFD93959}
  9
$VERSIONGUID
  2
{466B9E72-78BF-4574-B278-0591FC5E0321}
  9
$EXTNAMES
290
     1
  9
$PSVPSCALE
 40
0.0
  9
$OLESTARTUP
290
     0
  0
ENDSEC
  0
SECTION
  2
CLASSES
  0
CLASS
  1
ACDBDICTIONARYWDFLT
  2
AcDbDictionaryWithDefault
  3
ObjectDBX Classes
 90
        0
280
     0
281
     0
  0
CLASS
  1
ACDBPLACEHOLDER
  2
AcDbPlaceHolder
  3
ObjectDBX Classes
 90
        0
280
     0
281
     0
  0
CLASS
  1
LAYOUT
  2
AcDbLayout
  3
ObjectDBX Classes
 90
        0
280
     0
281
     0
  0
CLASS
  1
DICTIONARYVAR
  2
AcDbDictionaryVar
  3
ObjectDBX Classes
 90
        0
280
     0
281
     0
  0
CLASS
  1
TABLESTYLE
  2
AcDbTableStyle
  3
ObjectDBX Classes
 90
     4095
280
     0
281
     0
  0
CLASS
  1
MATERIAL
  2
AcDbMaterial
  3
ObjectDBX Classes
 90
     1153
280
     0
281
     0
  0
CLASS
  1
VISUALSTYLE
  2
AcDbVisualStyle
  3
ObjectDBX Classes
 90
     4095
280
     0
281
     0
  0
CLASS
  1
SCALE
  2
AcDbScale
  3
ObjectDBX Classes
 90
     1153
280
     0
281
     0
  0
CLASS
  1
MLEADERSTYLE
  2
AcDbMLeaderStyle
  3
ACDB_MLEADERSTYLE_CLASS
 90
     4095
280
     0
281
     0
  0
CLASS
  1
CELLSTYLEMAP
  2
AcDbCellStyleMap
  3
ObjectDBX Classes
 90
     1152
280
     0
281
     0
  0
ENDSEC
  0
SECTION
  2
TABLES
  0
TABLE
  2
VPORT
  5
8
330
0
100
AcDbSymbolTable
 70
     1
  0
VPORT
  5
EA
330
8
100
AcDbSymbolTableRecord
100
AcDbViewportTableRecord
  2
*Active
 70
     0
 10
0.0
 20
0.0
 11
1.0
 21
1.0
 12
2583.718565605455
 22
838.8742579970697
 13
0.0
 23
0.0
 14
10.0
 24
10.0
 15
10.0
 25
10.0
 16
0.0
 26
0.0
 36
1.0
 17
0.0
 27
0.0
 37
0.0
 40
105.2914027448457
 41
1.90311004784689
 42
50.0
 43
0.0
 44
0.0
 50
0.0
 51
0.0
 71
     0
 72
  1000
 73
     1
 74
     3
 75
     0
 76
     0
 77
     0
 78
     0
281
     0
 65
     1
110
0.0
120
0.0
130
0.0
111
1.0
121
0.0
131
0.0
112
0.0
122
1.0
132
0.0
 79
     0
146
0.0
  0
ENDTAB
  0
TABLE
  2
LTYPE
  5
5
330
0
100
AcDbSymbolTable
 70
     1
  0
LTYPE
  5
14
330
5
100
AcDbSymbolTableRecord
100
AcDbLinetypeTableRecord
  2
ByBlock
 70
     0
  3

 72
    65
 73
     0
 40
0.0
  0
LTYPE
  5
15
330
5
100
AcDbSymbolTableRecord
100
AcDbLinetypeTableRecord
  2
ByLayer
 70
     0
  3

 72
    65
 73
     0
 40
0.0
  0
LTYPE
  5
16
330
5
100
AcDbSymbolTableRecord
100
AcDbLinetypeTableRecord
  2
Continuous
 70
     0
  3
Solid line
 72
    65
 73
     0
 40
0.0
  0
ENDTAB
  0
TABLE
  2
LAYER
  5
2
330
0
100
AcDbSymbolTable
 70
     1
  0
LAYER
  5
10
102
{ACAD_XDICTIONARY
360
13C
102
}
330
2
100
AcDbSymbolTableRecord
100
AcDbLayerTableRecord
  2
0
 70
     0
 62
     7
  6
Continuous
370
    -3
390
F
  0
ENDTAB
  0
TABLE
  2
STYLE
  5
3
330
0
100
AcDbSymbolTable
 70
     2
  0
STYLE
  5
11
330
3
100
AcDbSymbolTableRecord
100
AcDbTextStyleTableRecord
  2
Standard
 70
     0
 40
0.0
 41
1.0
 50
0.0
 71
     0
 42
2.5
  3
txt
  4

  0
STYLE
  5
132
330
3
100
AcDbSymbolTableRecord
100
AcDbTextStyleTableRecord
  2
Annotative
 70
     0
 40
0.0
 41
1.0
 50
0.0
 71
     0
 42
2.5
  3
txt.shx
  4

1001
AcadAnnotative
1000
AnnotativeData
1002
{
1070
     1
1070
     1
1002
}
  0
ENDTAB
  0
TABLE
  2
VIEW
  5
6
330
0
100
AcDbSymbolTable
 70
     0
  0
ENDTAB
  0
TABLE
  2
UCS
  5
7
330
0
100
AcDbSymbolTable
 70
     0
  0
ENDTAB
  0
TABLE
  2
APPID
  5
9
330
0
100
AcDbSymbolTable
 70
     7
  0
APPID
  5
12
330
9
100
AcDbSymbolTableRecord
100
AcDbRegAppTableRecord
  2
ACAD
 70
     0
  0
APPID
  5
9E
330
9
100
AcDbSymbolTableRecord
100
AcDbRegAppTableRecord
  2
ACAD_PSEXT
 70
     0
  0
APPID
  5
133
330
9
100
AcDbSymbolTableRecord
100
AcDbRegAppTableRecord
  2
AcadAnnoPO
 70
     0
  0
APPID
  5
134
330
9
100
AcDbSymbolTableRecord
100
AcDbRegAppTableRecord
  2
AcadAnnotative
 70
     0
  0
APPID
  5
135
330
9
100
AcDbSymbolTableRecord
100
AcDbRegAppTableRecord
  2
ACAD_DSTYLE_DIMJAG
 70
     0
  0
APPID
  5
136
330
9
100
AcDbSymbolTableRecord
100
AcDbRegAppTableRecord
  2
ACAD_DSTYLE_DIMTALN
 70
     0
  0
APPID
  5
165
330
9
100
AcDbSymbolTableRecord
100
AcDbRegAppTableRecord
  2
ACAD_MLEADERVER
 70
     0
  0
ENDTAB
  0
TABLE
  2
DIMSTYLE
  5
A
330
0
100
AcDbSymbolTable
 70
     2
100
AcDbDimStyleTable
 71
     2
340
27
340
137
  0
DIMSTYLE
105
27
330
A
100
AcDbSymbolTableRecord
100
AcDbDimStyleTableRecord
  2
ISO-25
 70
     0
 41
2.5
 42
0.625
 43
3.75
 44
1.25
 73
     0
 74
     0
 77
     1
 78
     8
140
2.5
141
2.5
143
0.03937007874016
147
0.625
171
     3
172
     1
271
     2
272
     2
274
     3
278
    44
283
     0
284
     8
340
11
  0
DIMSTYLE
105
137
330
A
100
AcDbSymbolTableRecord
100
AcDbDimStyleTableRecord
  2
Annotative
 70
     0
 40
0.0
 41
2.5
 42
0.625
 43
3.75
 44
1.25
 73
     0
 74
     0
 77
     1
 78
     8
140
2.5
141
2.5
143
0.03937007874016
147
0.625
171
     3
172
     1
271
     2
272
     2
274
     3
278
    44
283
     0
284
     8
340
11
1001
AcadAnnotative
1000
AnnotativeData
1002
{
1070
     1
1070
     1
1002
}
1001
ACAD_DSTYLE_DIMJAG
1070
   388
1040
1.5
1001
ACAD_DSTYLE_DIMTALN
1070
   392
1070
     0
  0
ENDTAB
  0
TABLE
  2
BLOCK_RECORD
  5
1
330
0
100
AcDbSymbolTable
 70
     5
  0
BLOCK_RECORD
  5
1F
330
1
100
AcDbSymbolTableRecord
100
AcDbBlockTableRecord
  2
*Model_Space
340
22
  0
BLOCK_RECORD
  5
D2
330
1
100
AcDbSymbolTableRecord
100
AcDbBlockTableRecord
  2
*Paper_Space
340
D3
  0
BLOCK_RECORD
  5
D6
330
1
100
AcDbSymbolTableRecord
100
AcDbBlockTableRecord
  2
*Paper_Space0
340
D7
  0
BLOCK_RECORD
  5
455
330
1
100
AcDbSymbolTableRecord
100
AcDbBlockTableRecord
  2
1
340
0
310
2800000020000000200000000100080000000000000400000000000000000000000000000000000000000000000080000080000000808000800000008000800080800000C0C0C000C0DCC000F0CAA6000020400000206000002080000020A0000020C0000020E00000400000004020000040400000406000004080000040A0
310
000040C0000040E00000600000006020000060400000606000006080000060A0000060C0000060E00000800000008020000080400000806000008080000080A0000080C0000080E00000A0000000A0200000A0400000A0600000A0800000A0A00000A0C00000A0E00000C0000000C0200000C0400000C0600000C0800000C0
310
A00000C0C00000C0E00000E0000000E0200000E0400000E0600000E0800000E0A00000E0C00000E0E00040000000400020004000400040006000400080004000A0004000C0004000E00040200000402020004020400040206000402080004020A0004020C0004020E000404000004040200040404000404060004040800040
310
40A0004040C0004040E00040600000406020004060400040606000406080004060A0004060C0004060E00040800000408020004080400040806000408080004080A0004080C0004080E00040A0000040A0200040A0400040A0600040A0800040A0A00040A0C00040A0E00040C0000040C0200040C0400040C0600040C08000
310
40C0A00040C0C00040C0E00040E0000040E0200040E0400040E0600040E0800040E0A00040E0C00040E0E00080000000800020008000400080006000800080008000A0008000C0008000E00080200000802020008020400080206000802080008020A0008020C0008020E00080400000804020008040400080406000804080
310
008040A0008040C0008040E00080600000806020008060400080606000806080008060A0008060C0008060E00080800000808020008080400080806000808080008080A0008080C0008080E00080A0000080A0200080A0400080A0600080A0800080A0A00080A0C00080A0E00080C0000080C0200080C0400080C0600080C0
310
800080C0A00080C0C00080C0E00080E0000080E0200080E0400080E0600080E0800080E0A00080E0C00080E0E000C0000000C0002000C0004000C0006000C0008000C000A000C000C000C000E000C0200000C0202000C0204000C0206000C0208000C020A000C020C000C020E000C0400000C0402000C0404000C0406000C0
310
408000C040A000C040C000C040E000C0600000C0602000C0604000C0606000C0608000C060A000C060C000C060E000C0800000C0802000C0804000C0806000C0808000C080A000C080C000C080E000C0A00000C0A02000C0A04000C0A06000C0A08000C0A0A000C0A0C000C0A0E000C0C00000C0C02000C0C04000C0C06000
310
C0C08000C0C0A000F0FBFF00A4A0A000808080000000FF0000FF000000FFFF00FF000000FF00FF00FFFF0000FFFFFF0000000000000000000000000000000000000000000000000000000000000000000000000000000000000000000000000000000000000000000000000000000000000000000000000000000000000000
310
00000000000000000000000000000000000000000000000000000000000000000000000000000000000000000000000000000000000000000000000000000000000000000000000000000000000000000000000000000000000000000000000000000000000000000000000000000000000000000000000000000000000000
310
00000000000000000000000000000000000000000000000000000000000000000000000000000000000000000000000000000000000000000000000000000000000000000000000000000000000000000000000000FFFFFFFFFF0000FFFFFFFFFF0000FFFFFFFFFF0000FFFFFFFFFF000000000000FF000000FF0000FF0000
310
00FF0000FF000000FF0000FF000000FF000000000000FF000000FF0000FF000000FF0000FF000000FF0000FF000000FF000000000000FF000000FF0000FF000000FF0000FF000000FF0000FF000000FF000000000000FF000000FF0000FF000000FF0000FF000000FF0000FF000000FF000000000000FF000000FF0000FF00
310
0000FF0000FF000000FF0000FF000000FF000000000000FF000000FF0000FF000000FF0000FF000000FF0000FF000000FF00000000FFFFFFFFFFFFFFFFFFFFFFFFFFFFFFFFFFFFFFFFFFFFFFFFFFFFFFFFFFFF0000FF00FF000000FF0000FF000000FF0000FF000000FF0000FF000000FF00FF0000FFFFFFFFFFFFFFFFFFFF
310
FFFFFFFFFFFFFFFFFFFFFFFFFFFFFFFFFFFFFFFF00000000FFFFFFFFFF0000FFFFFFFFFF0000FFFFFFFFFF0000FFFFFFFFFF000000000000FF000000FF0000FF000000FF0000FF000000FF0000FF000000FF000000000000FF000000FF0000FF000000FF0000FF000000FF0000FF000000FF000000000000FFFFFFFFFF0000
310
FFFFFFFFFF0000FFFFFFFFFF0000FFFFFFFFFF000000000000000000000000000000000000000000000000000000000000000000000000000000000000000000000000000000000000000000000000000000000000000000000000000000000000000000000000000000000000000000000000000000000000000000000000
310
00000000000000000000000000000000000000000000000000000000000000000000000000000000000000000000000000000000000000000000000000000000000000000000000000000000000000000000000000000000000000000000000000000000000000000000000000000000000000000000000000000000000000
310
0000000000000000000000000000000000000000000000000000000000000000000000000000000000000000000000000000000000000000
102
{BLKREFS
331
4C0
102
}
1001
ACAD
1000
DesignCenter Data
1002
{
1070
     1
1070
     4
1002
}
  0
BLOCK_RECORD
  5
4C1
330
1
100
AcDbSymbolTableRecord
100
AcDbBlockTableRecord
  2
2
340
0
310
2800000020000000200000000100080000000000000400000000000000000000000000000000000000000000000080000080000000808000800000008000800080800000C0C0C000C0DCC000F0CAA6000020400000206000002080000020A0000020C0000020E00000400000004020000040400000406000004080000040A0
310
000040C0000040E00000600000006020000060400000606000006080000060A0000060C0000060E00000800000008020000080400000806000008080000080A0000080C0000080E00000A0000000A0200000A0400000A0600000A0800000A0A00000A0C00000A0E00000C0000000C0200000C0400000C0600000C0800000C0
310
A00000C0C00000C0E00000E0000000E0200000E0400000E0600000E0800000E0A00000E0C00000E0E00040000000400020004000400040006000400080004000A0004000C0004000E00040200000402020004020400040206000402080004020A0004020C0004020E000404000004040200040404000404060004040800040
310
40A0004040C0004040E00040600000406020004060400040606000406080004060A0004060C0004060E00040800000408020004080400040806000408080004080A0004080C0004080E00040A0000040A0200040A0400040A0600040A0800040A0A00040A0C00040A0E00040C0000040C0200040C0400040C0600040C08000
310
40C0A00040C0C00040C0E00040E0000040E0200040E0400040E0600040E0800040E0A00040E0C00040E0E00080000000800020008000400080006000800080008000A0008000C0008000E00080200000802020008020400080206000802080008020A0008020C0008020E00080400000804020008040400080406000804080
310
008040A0008040C0008040E00080600000806020008060400080606000806080008060A0008060C0008060E00080800000808020008080400080806000808080008080A0008080C0008080E00080A0000080A0200080A0400080A0600080A0800080A0A00080A0C00080A0E00080C0000080C0200080C0400080C0600080C0
310
800080C0A00080C0C00080C0E00080E0000080E0200080E0400080E0600080E0800080E0A00080E0C00080E0E000C0000000C0002000C0004000C0006000C0008000C000A000C000C000C000E000C0200000C0202000C0204000C0206000C0208000C020A000C020C000C020E000C0400000C0402000C0404000C0406000C0
310
408000C040A000C040C000C040E000C0600000C0602000C0604000C0606000C0608000C060A000C060C000C060E000C0800000C0802000C0804000C0806000C0808000C080A000C080C000C080E000C0A00000C0A02000C0A04000C0A06000C0A08000C0A0A000C0A0C000C0A0E000C0C00000C0C02000C0C04000C0C06000
310
C0C08000C0C0A000F0FBFF00A4A0A000808080000000FF0000FF000000FFFF00FF000000FF00FF00FFFF0000FFFFFF000000000000000000000000000000000000000000000000000000000000000000000000000000000000000000FFFFFFFFFFFFFFFF000000000000000000000000000000000000000000000000FFFFFF
310
FFFFFFFFFF000000000000000000000000000000000000000000000000FF000000000000FF000000000000000000000000000000000000000000000000FF000000000000FF000000000000000000000000000000000000000000000000FF000000000000FF000000000000000000000000000000000000000000000000FF00
310
0000000000FF000000000000000000000000000000000000000000000000FF000000000000FF000000000000000000000000000000000000000000000000FF000000000000FF000000000000000000000000000000000000000000000000FF000000000000FF000000000000000000000000000000000000000000000000FF
310
000000000000FF000000000000000000000000000000000000000000000000FF000000000000FF000000000000000000000000000000000000000000000000FF000000000000FF000000000000000000000000000000000000000000000000FF000000000000FF000000000000000000000000000000000000000000000000
310
FF000000000000FF000000000000000000000000000000000000000000000000FF000000000000FF0000000000000000000000000000000000000000000000FFFFFFFFFFFFFFFFFFFF00000000000000000000000000000000000000000000FF0000000000000000FF00000000000000000000000000000000000000000000
310
FF0000000000000000FF00000000000000000000000000000000000000000000FF0000000000000000FF00000000000000000000000000000000000000000000FF0000000000000000FF00000000000000000000000000000000000000000000FFFFFFFFFFFFFFFFFFFF000000000000000000000000000000000000000000
310
00FFFFFFFFFFFFFFFFFFFF00000000000000000000000000000000000000000000FFA4A4A4A4A4A4A4A4FF00000000000000000000000000000000000000000000FF0000000000000000FF00000000000000000000000000000000000000000000FF0000000000000000FF0000000000000000000000000000000000000000
310
0000FF0000000000000000FF00000000000000000000000000000000000000000000FF0000000000000000FF00000000000000000000000000000000000000000000FF0000000000000000FF00000000000000000000000000000000000000000000FF0000000000000000FF00000000000000000000000000000000000000
310
000000FFFFFFFFFFFFFFFFFFFF00000000000000000000000000000000000000000000000000000000000000000000000000000000000000
102
{BLKREFS
331
4E2
102
}
1001
ACAD
1000
DesignCenter Data
1002
{
1070
     1
1070
     4
1002
}
  0
BLOCK_RECORD
  5
4E3
330
1
100
AcDbSymbolTableRecord
100
AcDbBlockTableRecord
  2
3
340
0
310
2800000020000000200000000100080000000000000400000000000000000000000000000000000000000000000080000080000000808000800000008000800080800000C0C0C000C0DCC000F0CAA6000020400000206000002080000020A0000020C0000020E00000400000004020000040400000406000004080000040A0
310
000040C0000040E00000600000006020000060400000606000006080000060A0000060C0000060E00000800000008020000080400000806000008080000080A0000080C0000080E00000A0000000A0200000A0400000A0600000A0800000A0A00000A0C00000A0E00000C0000000C0200000C0400000C0600000C0800000C0
310
A00000C0C00000C0E00000E0000000E0200000E0400000E0600000E0800000E0A00000E0C00000E0E00040000000400020004000400040006000400080004000A0004000C0004000E00040200000402020004020400040206000402080004020A0004020C0004020E000404000004040200040404000404060004040800040
310
40A0004040C0004040E00040600000406020004060400040606000406080004060A0004060C0004060E00040800000408020004080400040806000408080004080A0004080C0004080E00040A0000040A0200040A0400040A0600040A0800040A0A00040A0C00040A0E00040C0000040C0200040C0400040C0600040C08000
310
40C0A00040C0C00040C0E00040E0000040E0200040E0400040E0600040E0800040E0A00040E0C00040E0E00080000000800020008000400080006000800080008000A0008000C0008000E00080200000802020008020400080206000802080008020A0008020C0008020E00080400000804020008040400080406000804080
310
008040A0008040C0008040E00080600000806020008060400080606000806080008060A0008060C0008060E00080800000808020008080400080806000808080008080A0008080C0008080E00080A0000080A0200080A0400080A0600080A0800080A0A00080A0C00080A0E00080C0000080C0200080C0400080C0600080C0
310
800080C0A00080C0C00080C0E00080E0000080E0200080E0400080E0600080E0800080E0A00080E0C00080E0E000C0000000C0002000C0004000C0006000C0008000C000A000C000C000C000E000C0200000C0202000C0204000C0206000C0208000C020A000C020C000C020E000C0400000C0402000C0404000C0406000C0
310
408000C040A000C040C000C040E000C0600000C0602000C0604000C0606000C0608000C060A000C060C000C060E000C0800000C0802000C0804000C0806000C0808000C080A000C080C000C080E000C0A00000C0A02000C0A04000C0A06000C0A08000C0A0A000C0A0C000C0A0E000C0C00000C0C02000C0C04000C0C06000
310
C0C08000C0C0A000F0FBFF00A4A0A000808080000000FF0000FF000000FFFF00FF000000FF00FF00FFFF0000FFFFFF0000000000000000000000000000000000000000000000000000000000000000000000000000000000000000000000000000000000000000000000000000000000000000000000000000000000000000
310
00000000000000000000000000000000000000000000000000000000000000000000000000000000000000000000000000000000000000000000000000000000000000000000000000000000000000000000000000000000000000000000000000000000000000000000000000000000000000000000000000000000000000
310
00000000000000000000000000000000000000000000000000000000000000000000000000000000000000000000000000000000000000000000000000000000000000000000000000000000000000000000000000000000000000000000000000000000000000000000000000000000000000000000000000000000000000
310
0000000000000000000000000000000000000000000000000000000000000000000000000000000000000000000000000000000000000000000000000000000000000000000000000000000000000000000000000000000000000000000000000000000000000000000000000000000000000000FFFFFFFFFFFFFFFFFFFFFF
310
FFFFFFFFFFFFFFFFFFFFFFFFFFFFFFFFFFFFFF0000FF00FFFFFFFFFF0000FFFFFFFFFF0000FFFFFFFFFF000000FFFFFFFF00FF0000FF00FFFFFFFF000000FFFFFFFFFF0000FFFFFFFFFF000000FFFFFFFF00FF0000FFFFFFFFFFFFFFFFFFFFFFFFFFFFFFFFFFFFFFFFFFFFFFFFFFFFFFFFFFFF000000000000000000000000
310
00000000000000000000000000000000000000000000000000000000000000000000000000000000000000000000000000000000000000000000000000000000000000000000000000000000000000000000000000000000000000000000000000000000000000000000000000000000000000000000000000000000000000
310
00000000000000000000000000000000000000000000000000000000000000000000000000000000000000000000000000000000000000000000000000000000000000000000000000000000000000000000000000000000000000000000000000000000000000000000000000000000000000000000000000000000000000
310
00000000000000000000000000000000000000000000000000000000000000000000000000000000000000000000000000000000000000000000000000000000000000000000000000000000000000000000000000000000000000000000000000000000000000000000000000000000000000000000000000000000000000
310
0000000000000000000000000000000000000000000000000000000000000000000000000000000000000000000000000000000000000000
102
{BLKREFS
331
53E
102
}
1001
ACAD
1000
DesignCenter Data
1002
{
1070
     1
1070
     4
1002
}
  0
BLOCK_RECORD
  5
53F
330
1
100
AcDbSymbolTableRecord
100
AcDbBlockTableRecord
  2
4
340
0
310
2800000020000000200000000100080000000000000400000000000000000000000000000000000000000000000080000080000000808000800000008000800080800000C0C0C000C0DCC000F0CAA6000020400000206000002080000020A0000020C0000020E00000400000004020000040400000406000004080000040A0
310
000040C0000040E00000600000006020000060400000606000006080000060A0000060C0000060E00000800000008020000080400000806000008080000080A0000080C0000080E00000A0000000A0200000A0400000A0600000A0800000A0A00000A0C00000A0E00000C0000000C0200000C0400000C0600000C0800000C0
310
A00000C0C00000C0E00000E0000000E0200000E0400000E0600000E0800000E0A00000E0C00000E0E00040000000400020004000400040006000400080004000A0004000C0004000E00040200000402020004020400040206000402080004020A0004020C0004020E000404000004040200040404000404060004040800040
310
40A0004040C0004040E00040600000406020004060400040606000406080004060A0004060C0004060E00040800000408020004080400040806000408080004080A0004080C0004080E00040A0000040A0200040A0400040A0600040A0800040A0A00040A0C00040A0E00040C0000040C0200040C0400040C0600040C08000
310
40C0A00040C0C00040C0E00040E0000040E0200040E0400040E0600040E0800040E0A00040E0C00040E0E00080000000800020008000400080006000800080008000A0008000C0008000E00080200000802020008020400080206000802080008020A0008020C0008020E00080400000804020008040400080406000804080
310
008040A0008040C0008040E00080600000806020008060400080606000806080008060A0008060C0008060E00080800000808020008080400080806000808080008080A0008080C0008080E00080A0000080A0200080A0400080A0600080A0800080A0A00080A0C00080A0E00080C0000080C0200080C0400080C0600080C0
310
800080C0A00080C0C00080C0E00080E0000080E0200080E0400080E0600080E0800080E0A00080E0C00080E0E000C0000000C0002000C0004000C0006000C0008000C000A000C000C000C000E000C0200000C0202000C0204000C0206000C0208000C020A000C020C000C020E000C0400000C0402000C0404000C0406000C0
310
408000C040A000C040C000C040E000C0600000C0602000C0604000C0606000C0608000C060A000C060C000C060E000C0800000C0802000C0804000C0806000C0808000C080A000C080C000C080E000C0A00000C0A02000C0A04000C0A06000C0A08000C0A0A000C0A0C000C0A0E000C0C00000C0C02000C0C04000C0C06000
310
C0C08000C0C0A000F0FBFF00A4A0A000808080000000FF0000FF000000FFFF00FF000000FF00FF00FFFF0000FFFFFF0000000000000000000000000000000000000000000000000000000000000000000000000000000000000000000000000000000000000000000000000000000000000000000000000000000000000000
310
00000000000000000000000000000000000000000000000000000000000000000000000000000000FFFFFFFF00000000000000000000000000000000000000000000000000000000FF00FFFFFF000000000000000000000000000000000000000000000000000000FF000000FF000000000000000000000000000000000000
310
000000FFFFFFFF0000FF000000FF0000000000000000000000000000000000000000FFFF0000FFFF00FF000000FF0000000000000000000000000000000000000000FF00000000FF00FF000000FF000000000000000000000000000000FFFFFFFF00FF00000000FF00FF0000FFFF0000000000000000000000000000FF0000
310
00FF00FF00000000FF00FFFFFFFFFFFF00000000000000000000000000FF000000FF00FF00000000FFFFFF00FFFF0000FFFF0000000000FFFFFFFFFF00FF000000FF00FF000000FFFF000000FF00FFFF00FF0000000000FF000000FF00FF000000FF00FF00FFFF00FF00FFFFFFFFFF00FFFF0000000000FF000000FF00FF00
310
0000FFFFFFFF00FF00FFFFFF000000FFFFFF000000000000FF000000FF00FF00FFFFFFFF000000FFFF00FF00000000FF0000000000000000FF000000FF00FFFFFF0000FF00FFFFFFFFFFFF00000000FF0000000000000000FF000000FFFF0000FF00FFFFFFFF0000A4FFFFFFFFFFFFFF0000000000000000FF00FFFF00FF00
310
00FFFF0000FF00000000FFFFFFFF00FFFF0000000000000000FFFFFF0000FFFFFFFFFFFFFFFF00000000FF00FFFFFFFFFF00000000000000FF0000FF00FFFFFFFF0000FFFFFFFFFFFFFFFF0000000000000000000000FFFFFF0000FFFF0000FF00000000FFFFFFFF00FFFF0000000000000000000000FF00FFFFFFFFFFFF00
310
FF00000000FF00FFFFFFFFFF0000000000000000000000FFFFFFFF000000FFFFFFFFFFFFFFFF00000000000000000000000000000000000000FFFF00000000FFFFFF00FFFFFF0000000000000000000000000000000000000000FF00000000FF00FFFFFFFF000000000000000000000000000000000000000000FFFFFFFFFF
310
FF0000000000000000000000000000000000000000000000000000FFFF00FFFFFF0000000000000000000000000000000000000000000000000000FFFFFFFFFF000000000000000000000000000000000000000000000000000000000000000000000000000000000000000000000000000000000000000000000000000000
310
0000000000000000000000000000000000000000000000000000000000000000000000000000000000000000000000000000000000000000
102
{BLKREFS
331
5B6
102
}
1001
ACAD
1000
DesignCenter Data
1002
{
1070
     1
1070
     4
1002
}
  0
ENDTAB
  0
ENDSEC
  0
SECTION
  2
BLOCKS
  0
BLOCK
  5
20
330
1F
100
AcDbEntity
  8
0
100
AcDbBlockBegin
  2
*Model_Space
 70
     0
 10
0.0
 20
0.0
 30
0.0
  3
*Model_Space
  1

  0
ENDBLK
  5
21
330
1F
100
AcDbEntity
  8
0
100
AcDbBlockEnd
  0
BLOCK
  5
D4
330
D2
100
AcDbEntity
 67
     1
  8
0
100
AcDbBlockBegin
  2
*Paper_Space
 70
     0
 10
0.0
 20
0.0
 30
0.0
  3
*Paper_Space
  1

  0
ENDBLK
  5
D5
330
D2
100
AcDbEntity
 67
     1
  8
0
100
AcDbBlockEnd
  0
BLOCK
  5
D8
330
D6
100
AcDbEntity
 67
     1
  8
0
100
AcDbBlockBegin
  2
*Paper_Space0
 70
     0
 10
0.0
 20
0.0
 30
0.0
  3
*Paper_Space0
  1

  0
ENDBLK
  5
D9
330
D6
100
AcDbEntity
 67
     1
  8
0
100
AcDbBlockEnd
  0
BLOCK
  5
456
330
455
100
AcDbEntity
  8
0
100
AcDbBlockBegin
  2
1
 70
     0
 10
0.0
 20
0.0
 30
0.0
  3
1
  1

  0
ARC
  5
458
330
455
100
AcDbEntity
  8
0
  6
Continuous
 62
     7
370
    15
100
AcDbCircle
 10
2584.368051833939
 20
847.8574320269153
 30
0.0
 40
0.200000000000017
100
AcDbArc
 50
180.0
 51
270.0
  0
ARC
  5
459
330
455
100
AcDbEntity
  8
0
  6
Continuous
 62
     7
370
    15
100
AcDbCircle
 10
2590.818051833939
 20
847.8574320269153
 30
0.0
 40
0.1999999999999886
100
AcDbArc
 50
270.0
 51
0.0
  0
ARC
  5
45A
330
455
100
AcDbEntity
  8
0
  6
Continuous
 62
     7
370
    15
100
AcDbCircle
 10
2548.36805183394
 20
847.8574320269153
 30
0.0
 40
0.200000000000017
100
AcDbArc
 50
180.0
 51
270.0
  0
ARC
  5
45B
330
455
100
AcDbEntity
  8
0
  6
Continuous
 62
     7
370
    15
100
AcDbCircle
 10
2554.818051833939
 20
847.8574320269153
 30
0.0
 40
0.1999999999999886
100
AcDbArc
 50
270.0
 51
0.0
  0
ARC
  5
45C
330
455
100
AcDbEntity
  8
0
  6
Continuous
 62
     7
370
    15
100
AcDbCircle
 10
2560.368051833939
 20
847.8574320269153
 30
0.0
 40
0.1999999999999886
100
AcDbArc
 50
180.0
 51
270.0
  0
ARC
  5
45D
330
455
100
AcDbEntity
  8
0
  6
Continuous
 62
     7
370
    15
100
AcDbCircle
 10
2566.818051833939
 20
847.8574320269153
 30
0.0
 40
0.200000000000017
100
AcDbArc
 50
270.0
 51
0.0
  0
ARC
  5
45E
330
455
100
AcDbEntity
  8
0
  6
Continuous
 62
     7
370
    15
100
AcDbCircle
 10
2572.368051833939
 20
847.8574320269153
 30
0.0
 40
0.1999999999999886
100
AcDbArc
 50
180.0
 51
270.0
  0
ARC
  5
45F
330
455
100
AcDbEntity
  8
0
  6
Continuous
 62
     7
370
    15
100
AcDbCircle
 10
2578.818051833939
 20
847.8574320269153
 30
0.0
 40
0.200000000000017
100
AcDbArc
 50
270.0
 51
0.0
  0
LINE
  5
460
330
455
100
AcDbEntity
  8
0
  6
Continuous
 62
     7
370
    15
100
AcDbLine
 10
2555.01805183394
 20
847.8574320269153
 30
0.0
 11
2555.01805183394
 21
853.0574320269154
 31
0.0
  0
LINE
  5
461
330
455
100
AcDbEntity
  8
0
  6
Continuous
 62
     7
370
    15
100
AcDbLine
 10
2548.168051833939
 20
853.0574320269154
 30
0.0
 11
2548.168051833939
 21
847.8574320269153
 31
0.0
  0
LINE
  5
462
330
455
100
AcDbEntity
  8
0
  6
Continuous
 62
     7
370
    15
100
AcDbLine
 10
2567.018051833939
 20
847.8574320269153
 30
0.0
 11
2567.018051833939
 21
853.0574320269154
 31
0.0
  0
LINE
  5
463
330
455
100
AcDbEntity
  8
0
  6
Continuous
 62
     7
370
    15
100
AcDbLine
 10
2560.168051833939
 20
853.0574320269154
 30
0.0
 11
2560.168051833939
 21
847.8574320269153
 31
0.0
  0
LINE
  5
464
330
455
100
AcDbEntity
  8
0
  6
Continuous
 62
     7
370
    15
100
AcDbLine
 10
2591.01805183394
 20
847.8574320269153
 30
0.0
 11
2591.01805183394
 21
853.0574320269154
 31
0.0
  0
LINE
  5
465
330
455
100
AcDbEntity
  8
0
  6
Continuous
 62
     7
370
    15
100
AcDbLine
 10
2584.168051833939
 20
853.0574320269154
 30
0.0
 11
2584.168051833939
 21
847.8574320269153
 31
0.0
  0
LINE
  5
466
330
455
100
AcDbEntity
  8
0
  6
Continuous
 62
     7
370
    15
100
AcDbLine
 10
2579.018051833939
 20
847.8574320269153
 30
0.0
 11
2579.018051833939
 21
853.0574320269154
 31
0.0
  0
LINE
  5
467
330
455
100
AcDbEntity
  8
0
  6
Continuous
 62
     7
370
    15
100
AcDbLine
 10
2572.168051833939
 20
853.0574320269154
 30
0.0
 11
2572.168051833939
 21
847.8574320269153
 31
0.0
  0
LINE
  5
468
330
455
100
AcDbEntity
  8
0
  6
Continuous
 62
     7
370
    15
100
AcDbLine
 10
2554.53137422735
 20
832.0574320268347
 30
0.0
 11
2554.53137422735
 21
842.7574320268378
 31
0.0
  0
LINE
  5
469
330
455
100
AcDbEntity
  8
0
  6
Continuous
 62
     7
370
    15
100
AcDbLine
 10
2548.53137422735
 20
842.7574320268378
 30
0.0
 11
2548.53137422735
 21
832.0574320268347
 31
0.0
  0
LINE
  5
46A
330
455
100
AcDbEntity
  8
0
  6
Continuous
 62
     7
370
    15
100
AcDbLine
 10
2554.593051833939
 20
846.7574320269154
 30
0.0
 11
2554.593051833939
 21
847.6574320269152
 31
0.0
  0
LINE
  5
46B
330
455
100
AcDbEntity
  8
0
  6
Continuous
 62
     7
370
    15
100
AcDbLine
 10
2548.593051833939
 20
847.6574320269152
 30
0.0
 11
2548.593051833939
 21
846.7574320269154
 31
0.0
  0
LINE
  5
46C
330
455
100
AcDbEntity
  8
0
  6
Continuous
 62
     7
370
    15
100
AcDbLine
 10
2548.531374227439
 20
832.0574320268347
 30
0.0
 11
2548.731374227314
 21
831.8574320269592
 31
0.0
  0
LINE
  5
46D
330
455
100
AcDbEntity
  8
0
  6
Continuous
 62
     7
370
    15
100
AcDbLine
 10
2554.331374227386
 20
831.8574320269592
 30
0.0
 11
2554.531374227262
 21
832.0574320268347
 31
0.0
  0
LINE
  5
46E
330
455
100
AcDbEntity
  8
0
  6
Continuous
 62
     7
370
    15
100
AcDbLine
 10
2560.531374227438
 20
832.0574320268347
 30
0.0
 11
2560.731374227315
 21
831.8574320269592
 31
0.0
  0
LINE
  5
46F
330
455
100
AcDbEntity
  8
0
  6
Continuous
 62
     7
370
    15
100
AcDbLine
 10
2566.331374227387
 20
831.8574320269592
 30
0.0
 11
2566.531374227262
 21
832.0574320268347
 31
0.0
  0
LINE
  5
470
330
455
100
AcDbEntity
  8
0
  6
Continuous
 62
     7
370
    15
100
AcDbLine
 10
2566.593051833939
 20
846.7574320269154
 30
0.0
 11
2566.593051833939
 21
847.6574320269152
 31
0.0
  0
LINE
  5
471
330
455
100
AcDbEntity
  8
0
  6
Continuous
 62
     7
370
    15
100
AcDbLine
 10
2560.593051833939
 20
847.6574320269152
 30
0.0
 11
2560.593051833939
 21
846.7574320269154
 31
0.0
  0
LINE
  5
472
330
455
100
AcDbEntity
  8
0
  6
Continuous
 62
     7
370
    15
100
AcDbLine
 10
2566.53137422735
 20
832.0574320268347
 30
0.0
 11
2566.53137422735
 21
842.7574320268378
 31
0.0
  0
LINE
  5
473
330
455
100
AcDbEntity
  8
0
  6
Continuous
 62
     7
370
    15
100
AcDbLine
 10
2560.53137422735
 20
842.7574320268378
 30
0.0
 11
2560.53137422735
 21
832.0574320268347
 31
0.0
  0
LINE
  5
474
330
455
100
AcDbEntity
  8
0
  6
Continuous
 62
     7
370
    15
100
AcDbLine
 10
2578.53137422735
 20
832.0574320268347
 30
0.0
 11
2578.53137422735
 21
842.7574320268378
 31
0.0
  0
LINE
  5
475
330
455
100
AcDbEntity
  8
0
  6
Continuous
 62
     7
370
    15
100
AcDbLine
 10
2572.531374227351
 20
842.7574320268378
 30
0.0
 11
2572.531374227351
 21
832.0574320268347
 31
0.0
  0
LINE
  5
476
330
455
100
AcDbEntity
  8
0
  6
Continuous
 62
     7
370
    15
100
AcDbLine
 10
2572.531374227438
 20
832.0574320268347
 30
0.0
 11
2572.731374227314
 21
831.8574320269592
 31
0.0
  0
LINE
  5
477
330
455
100
AcDbEntity
  8
0
  6
Continuous
 62
     7
370
    15
100
AcDbLine
 10
2578.331374227386
 20
831.8574320269592
 30
0.0
 11
2578.531374227262
 21
832.0574320268347
 31
0.0
  0
LINE
  5
478
330
455
100
AcDbEntity
  8
0
  6
Continuous
 62
     7
370
    15
100
AcDbLine
 10
2578.593051833939
 20
846.7574320269154
 30
0.0
 11
2578.593051833939
 21
847.6574320269152
 31
0.0
  0
LINE
  5
479
330
455
100
AcDbEntity
  8
0
  6
Continuous
 62
     7
370
    15
100
AcDbLine
 10
2572.593051833939
 20
847.6574320269152
 30
0.0
 11
2572.593051833939
 21
846.7574320269154
 31
0.0
  0
LINE
  5
47A
330
455
100
AcDbEntity
  8
0
  6
Continuous
 62
     7
370
    15
100
AcDbLine
 10
2584.531374227438
 20
832.0574320268347
 30
0.0
 11
2584.731374227314
 21
831.8574320269592
 31
0.0
  0
LINE
  5
47B
330
455
100
AcDbEntity
  8
0
  6
Continuous
 62
     7
370
    15
100
AcDbLine
 10
2590.331374227386
 20
831.8574320269592
 30
0.0
 11
2590.531374227262
 21
832.0574320268347
 31
0.0
  0
LINE
  5
47C
330
455
100
AcDbEntity
  8
0
  6
Continuous
 62
     7
370
    15
100
AcDbLine
 10
2590.593051833939
 20
846.7574320269154
 30
0.0
 11
2590.593051833939
 21
847.6574320269152
 31
0.0
  0
LINE
  5
47D
330
455
100
AcDbEntity
  8
0
  6
Continuous
 62
     7
370
    15
100
AcDbLine
 10
2584.59305183394
 20
847.6574320269152
 30
0.0
 11
2584.59305183394
 21
846.7574320269154
 31
0.0
  0
LINE
  5
47E
330
455
100
AcDbEntity
  8
0
  6
Continuous
 62
     7
370
    15
100
AcDbLine
 10
2590.53137422735
 20
832.0574320268347
 30
0.0
 11
2590.53137422735
 21
842.7574320268378
 31
0.0
  0
LINE
  5
47F
330
455
100
AcDbEntity
  8
0
  6
Continuous
 62
     7
370
    15
100
AcDbLine
 10
2584.531374227351
 20
842.7574320268378
 30
0.0
 11
2584.531374227351
 21
832.0574320268347
 31
0.0
  0
LINE
  5
480
330
455
100
AcDbEntity
  8
0
  6
Continuous
 62
     7
370
    15
100
AcDbLine
 10
2554.531374227342
 20
842.7574320268378
 30
0.0
 11
2554.431374227254
 21
842.8574320269264
 31
0.0
  0
LINE
  5
481
330
455
100
AcDbEntity
  8
0
  6
Continuous
 62
     7
370
    15
100
AcDbLine
 10
2548.631374227447
 20
842.8574320269264
 30
0.0
 11
2548.531374227358
 21
842.7574320268378
 31
0.0
  0
LINE
  5
482
330
455
100
AcDbEntity
  8
0
  6
Continuous
 62
     7
370
    15
100
AcDbLine
 10
2566.531374227342
 20
842.7574320268378
 30
0.0
 11
2566.431374227253
 21
842.8574320269264
 31
0.0
  0
LINE
  5
483
330
455
100
AcDbEntity
  8
0
  6
Continuous
 62
     7
370
    15
100
AcDbLine
 10
2560.631374227447
 20
842.8574320269264
 30
0.0
 11
2560.531374227358
 21
842.7574320268378
 31
0.0
  0
LINE
  5
484
330
455
100
AcDbEntity
  8
0
  6
Continuous
 62
     7
370
    15
100
AcDbLine
 10
2578.531374227342
 20
842.7574320268378
 30
0.0
 11
2578.431374227265
 21
842.8574320269154
 31
0.0
  0
LINE
  5
485
330
455
100
AcDbEntity
  8
0
  6
Continuous
 62
     7
370
    15
100
AcDbLine
 10
2572.631374227436
 20
842.8574320269154
 30
0.0
 11
2572.531374227358
 21
842.7574320268378
 31
0.0
  0
LINE
  5
486
330
455
100
AcDbEntity
  8
0
  6
Continuous
 62
     7
370
    15
100
AcDbLine
 10
2590.531374227342
 20
842.7574320268378
 30
0.0
 11
2590.431374227253
 21
842.8574320269264
 31
0.0
  0
LINE
  5
487
330
455
100
AcDbEntity
  8
0
  6
Continuous
 62
     7
370
    15
100
AcDbLine
 10
2584.631374227447
 20
842.8574320269264
 30
0.0
 11
2584.531374227359
 21
842.7574320268378
 31
0.0
  0
LINE
  5
488
330
455
100
AcDbEntity
  8
0
  6
Continuous
 62
     7
370
    15
100
AcDbLine
 10
2555.040152064569
 20
842.8574320269154
 30
0.0
 11
2548.14595160331
 21
842.8574320269154
 31
0.0
  0
LINE
  5
489
330
455
100
AcDbEntity
  8
0
  6
Continuous
 62
     7
370
    15
100
AcDbLine
 10
2548.14595160331
 20
846.7574320269154
 30
0.0
 11
2548.14595160331
 21
842.8574320269154
 31
0.0
  0
LINE
  5
48A
330
455
100
AcDbEntity
  8
0
  6
Continuous
 62
     7
370
    15
100
AcDbLine
 10
2555.040152064569
 20
846.7574320269154
 30
0.0
 11
2548.14595160331
 21
846.7574320269154
 31
0.0
  0
LINE
  5
48B
330
455
100
AcDbEntity
  8
0
  6
Continuous
 62
     7
370
    15
100
AcDbLine
 10
2555.040152064569
 20
842.8574320269154
 30
0.0
 11
2555.040152064569
 21
846.7574320269154
 31
0.0
  0
LINE
  5
48C
330
455
100
AcDbEntity
  8
0
  6
Continuous
 62
     7
370
    15
100
AcDbLine
 10
2560.14595160331
 20
846.7574320269154
 30
0.0
 11
2560.14595160331
 21
842.8574320269154
 31
0.0
  0
LINE
  5
48D
330
455
100
AcDbEntity
  8
0
  6
Continuous
 62
     7
370
    15
100
AcDbLine
 10
2567.040152064569
 20
842.8574320269154
 30
0.0
 11
2567.040152064569
 21
846.7574320269154
 31
0.0
  0
LINE
  5
48E
330
455
100
AcDbEntity
  8
0
  6
Continuous
 62
     7
370
    15
100
AcDbLine
 10
2567.040152064569
 20
842.8574320269154
 30
0.0
 11
2560.14595160331
 21
842.8574320269154
 31
0.0
  0
LINE
  5
48F
330
455
100
AcDbEntity
  8
0
  6
Continuous
 62
     7
370
    15
100
AcDbLine
 10
2567.040152064569
 20
846.7574320269154
 30
0.0
 11
2560.14595160331
 21
846.7574320269154
 31
0.0
  0
LINE
  5
490
330
455
100
AcDbEntity
  8
0
  6
Continuous
 62
     7
370
    15
100
AcDbLine
 10
2572.14595160331
 20
846.7574320269154
 30
0.0
 11
2572.14595160331
 21
842.8574320269154
 31
0.0
  0
LINE
  5
491
330
455
100
AcDbEntity
  8
0
  6
Continuous
 62
     7
370
    15
100
AcDbLine
 10
2579.040152064569
 20
842.8574320269154
 30
0.0
 11
2579.040152064569
 21
846.7574320269154
 31
0.0
  0
LINE
  5
492
330
455
100
AcDbEntity
  8
0
  6
Continuous
 62
     7
370
    15
100
AcDbLine
 10
2579.040152064569
 20
842.8574320269154
 30
0.0
 11
2572.14595160331
 21
842.8574320269154
 31
0.0
  0
LINE
  5
493
330
455
100
AcDbEntity
  8
0
  6
Continuous
 62
     7
370
    15
100
AcDbLine
 10
2579.040152064569
 20
846.7574320269154
 30
0.0
 11
2572.14595160331
 21
846.7574320269154
 31
0.0
  0
LINE
  5
494
330
455
100
AcDbEntity
  8
0
  6
Continuous
 62
     7
370
    15
100
AcDbLine
 10
2584.14595160331
 20
846.7574320269154
 30
0.0
 11
2584.14595160331
 21
842.8574320269154
 31
0.0
  0
LINE
  5
495
330
455
100
AcDbEntity
  8
0
  6
Continuous
 62
     7
370
    15
100
AcDbLine
 10
2591.040152064569
 20
842.8574320269154
 30
0.0
 11
2591.040152064569
 21
846.7574320269154
 31
0.0
  0
LINE
  5
496
330
455
100
AcDbEntity
  8
0
  6
Continuous
 62
     7
370
    15
100
AcDbLine
 10
2591.040152064569
 20
842.8574320269154
 30
0.0
 11
2584.14595160331
 21
842.8574320269154
 31
0.0
  0
LINE
  5
497
330
455
100
AcDbEntity
  8
0
  6
Continuous
 62
     7
370
    15
100
AcDbLine
 10
2591.040152064569
 20
846.7574320269154
 30
0.0
 11
2584.14595160331
 21
846.7574320269154
 31
0.0
  0
SPLINE
  5
498
330
455
100
AcDbEntity
  8
0
  6
Continuous
 62
     7
370
    15
100
AcDbSpline
210
0.0
220
0.0
230
1.0
 70
    24
 71
     3
 72
    10
 73
     6
 74
     0
 42
0.0000000001
 43
0.0000000001
 40
0.0
 40
0.0
 40
0.0
 40
0.0
 40
0.5
 40
0.5
 40
1.0
 40
1.0
 40
1.0
 40
1.0
 10
2584.368051833939
 20
847.6574320269152
 30
0.0
 10
2584.368051833939
 20
847.6574320269152
 30
0.0
 10
2585.813125926937
 20
847.6574320269152
 30
0.0
 10
2589.372977740941
 20
847.6574320269152
 30
0.0
 10
2590.818051833939
 20
847.6574320269152
 30
0.0
 10
2590.818051833939
 20
847.6574320269152
 30
0.0
  0
SPLINE
  5
499
330
455
100
AcDbEntity
  8
0
  6
Continuous
 62
     7
370
    15
100
AcDbSpline
210
0.0
220
0.0
230
1.0
 70
    24
 71
     3
 72
    10
 73
     6
 74
     0
 42
0.0000000001
 43
0.0000000001
 40
0.0
 40
0.0
 40
0.0
 40
0.0
 40
0.5
 40
0.5
 40
1.0
 40
1.0
 40
1.0
 40
1.0
 10
2548.36805183394
 20
847.6574320269152
 30
0.0
 10
2548.36805183394
 20
847.6574320269152
 30
0.0
 10
2549.813125926937
 20
847.6574320269152
 30
0.0
 10
2553.372977740941
 20
847.6574320269152
 30
0.0
 10
2554.818051833939
 20
847.6574320269152
 30
0.0
 10
2554.818051833939
 20
847.6574320269152
 30
0.0
  0
SPLINE
  5
49A
330
455
100
AcDbEntity
  8
0
  6
Continuous
 62
     7
370
    15
100
AcDbSpline
210
0.0
220
0.0
230
1.0
 70
    24
 71
     3
 72
    10
 73
     6
 74
     0
 42
0.0000000001
 43
0.0000000001
 40
0.0
 40
0.0
 40
0.0
 40
0.0
 40
0.5
 40
0.5
 40
1.0
 40
1.0
 40
1.0
 40
1.0
 10
2560.368051833939
 20
847.6574320269152
 30
0.0
 10
2560.368051833939
 20
847.6574320269152
 30
0.0
 10
2561.813125926937
 20
847.6574320269152
 30
0.0
 10
2565.372977740941
 20
847.6574320269152
 30
0.0
 10
2566.818051833939
 20
847.6574320269152
 30
0.0
 10
2566.818051833939
 20
847.6574320269152
 30
0.0
  0
SPLINE
  5
49B
330
455
100
AcDbEntity
  8
0
  6
Continuous
 62
     7
370
    15
100
AcDbSpline
210
0.0
220
0.0
230
1.0
 70
    24
 71
     3
 72
    10
 73
     6
 74
     0
 42
0.0000000001
 43
0.0000000001
 40
0.0
 40
0.0
 40
0.0
 40
0.0
 40
0.5
 40
0.5
 40
1.0
 40
1.0
 40
1.0
 40
1.0
 10
2572.368051833939
 20
847.6574320269152
 30
0.0
 10
2572.368051833939
 20
847.6574320269152
 30
0.0
 10
2573.813125926938
 20
847.6574320269152
 30
0.0
 10
2577.372977740941
 20
847.6574320269152
 30
0.0
 10
2578.818051833939
 20
847.6574320269152
 30
0.0
 10
2578.818051833939
 20
847.6574320269152
 30
0.0
  0
LINE
  5
49C
330
455
100
AcDbEntity
  8
0
  6
Continuous
 62
     7
370
    15
100
AcDbLine
 10
2555.01805183394
 20
853.0574320269154
 30
0.0
 11
2548.168051833939
 21
853.0574320269154
 31
0.0
  0
LINE
  5
49D
330
455
100
AcDbEntity
  8
0
  6
Continuous
 62
     7
370
    15
100
AcDbLine
 10
2567.018051833939
 20
853.0574320269154
 30
0.0
 11
2560.168051833939
 21
853.0574320269154
 31
0.0
  0
LINE
  5
49E
330
455
100
AcDbEntity
  8
0
  6
Continuous
 62
     7
370
    15
100
AcDbLine
 10
2591.01805183394
 20
853.0574320269154
 30
0.0
 11
2584.168051833939
 21
853.0574320269154
 31
0.0
  0
LINE
  5
49F
330
455
100
AcDbEntity
  8
0
  6
Continuous
 62
     7
370
    15
100
AcDbLine
 10
2579.018051833939
 20
853.0574320269154
 30
0.0
 11
2572.168051833939
 21
853.0574320269154
 31
0.0
  0
LINE
  5
4A0
330
455
100
AcDbEntity
  8
0
  6
Continuous
 62
     7
370
    15
100
AcDbLine
 10
2545.893051833939
 20
846.7574320269154
 30
0.0
 11
2545.893051833939
 21
842.8574320269154
 31
0.0
  0
LINE
  5
4A1
330
455
100
AcDbEntity
  8
0
  6
Continuous
 62
     7
370
    15
100
AcDbLine
 10
2548.14595160331
 20
842.8574320269154
 30
0.0
 11
2545.893051833939
 21
842.8574320269154
 31
0.0
  0
LINE
  5
4A2
330
455
100
AcDbEntity
  8
0
  6
Continuous
 62
     7
370
    15
100
AcDbLine
 10
2545.893051833939
 20
846.7574320269154
 30
0.0
 11
2548.14595160331
 21
846.7574320269154
 31
0.0
  0
LINE
  5
4A3
330
455
100
AcDbEntity
  8
0
  6
Continuous
 62
     7
370
    15
100
AcDbLine
 10
2560.14595160331
 20
842.8574320269154
 30
0.0
 11
2555.040152064569
 21
842.8574320269154
 31
0.0
  0
LINE
  5
4A4
330
455
100
AcDbEntity
  8
0
  6
Continuous
 62
     7
370
    15
100
AcDbLine
 10
2555.040152064569
 20
846.7574320269154
 30
0.0
 11
2560.14595160331
 21
846.7574320269154
 31
0.0
  0
LINE
  5
4A5
330
455
100
AcDbEntity
  8
0
  6
Continuous
 62
     7
370
    15
100
AcDbLine
 10
2584.14595160331
 20
842.8574320269154
 30
0.0
 11
2579.040152064569
 21
842.8574320269154
 31
0.0
  0
LINE
  5
4A6
330
455
100
AcDbEntity
  8
0
  6
Continuous
 62
     7
370
    15
100
AcDbLine
 10
2579.040152064569
 20
846.7574320269154
 30
0.0
 11
2584.14595160331
 21
846.7574320269154
 31
0.0
  0
LINE
  5
4A7
330
455
100
AcDbEntity
  8
0
  6
Continuous
 62
     7
370
    15
100
AcDbLine
 10
2572.14595160331
 20
842.8574320269154
 30
0.0
 11
2567.040152064569
 21
842.8574320269154
 31
0.0
  0
LINE
  5
4A8
330
455
100
AcDbEntity
  8
0
  6
Continuous
 62
     7
370
    15
100
AcDbLine
 10
2567.040152064569
 20
846.7574320269154
 30
0.0
 11
2572.14595160331
 21
846.7574320269154
 31
0.0
  0
LINE
  5
4A9
330
455
100
AcDbEntity
  8
0
  6
Continuous
 62
     7
370
    15
100
AcDbLine
 10
2593.293051833939
 20
846.7574320269154
 30
0.0
 11
2593.293051833939
 21
842.8574320269154
 31
0.0
  0
LINE
  5
4AA
330
455
100
AcDbEntity
  8
0
  6
Continuous
 62
     7
370
    15
100
AcDbLine
 10
2593.293051833939
 20
842.8574320269154
 30
0.0
 11
2591.040152064569
 21
842.8574320269154
 31
0.0
  0
LINE
  5
4AB
330
455
100
AcDbEntity
  8
0
  6
Continuous
 62
     7
370
    15
100
AcDbLine
 10
2591.040152064569
 20
846.7574320269154
 30
0.0
 11
2593.293051833939
 21
846.7574320269154
 31
0.0
  0
LINE
  5
4AC
330
455
100
AcDbEntity
  8
0
  6
Continuous
 62
     7
370
    15
100
AcDbLine
 10
2548.531374227358
 20
842.7574320268378
 30
0.0
 11
2554.53137422735
 21
842.7574320268378
 31
0.0
  0
LINE
  5
4AD
330
455
100
AcDbEntity
  8
0
  6
Continuous
 62
     7
370
    15
100
AcDbLine
 10
2548.53137422735
 20
832.0574320268347
 30
0.0
 11
2554.53137422735
 21
832.0574320268347
 31
0.0
  0
LINE
  5
4AE
330
455
100
AcDbEntity
  8
0
  6
Continuous
 62
     7
370
    15
100
AcDbLine
 10
2551.53137422735
 20
831.8574320269592
 30
0.0
 11
2554.331374227386
 21
831.8574320269592
 31
0.0
  0
LINE
  5
4AF
330
455
100
AcDbEntity
  8
0
  6
Continuous
 62
     7
370
    15
100
AcDbLine
 10
2548.731374227314
 20
831.8574320269592
 30
0.0
 11
2551.53137422735
 21
831.8574320269592
 31
0.0
  0
LINE
  5
4B0
330
455
100
AcDbEntity
  8
0
  6
Continuous
 62
     7
370
    15
100
AcDbLine
 10
2560.53137422735
 20
832.0574320268347
 30
0.0
 11
2566.531374227262
 21
832.0574320268347
 31
0.0
  0
LINE
  5
4B1
330
455
100
AcDbEntity
  8
0
  6
Continuous
 62
     7
370
    15
100
AcDbLine
 10
2563.531374227351
 20
831.8574320269592
 30
0.0
 11
2566.331374227387
 21
831.8574320269592
 31
0.0
  0
LINE
  5
4B2
330
455
100
AcDbEntity
  8
0
  6
Continuous
 62
     7
370
    15
100
AcDbLine
 10
2560.731374227315
 20
831.8574320269592
 30
0.0
 11
2563.531374227351
 21
831.8574320269592
 31
0.0
  0
LINE
  5
4B3
330
455
100
AcDbEntity
  8
0
  6
Continuous
 62
     7
370
    15
100
AcDbLine
 10
2560.531374227358
 20
842.7574320268378
 30
0.0
 11
2566.53137422735
 21
842.7574320268378
 31
0.0
  0
LINE
  5
4B4
330
455
100
AcDbEntity
  8
0
  6
Continuous
 62
     7
370
    15
100
AcDbLine
 10
2572.531374227358
 20
842.7574320268378
 30
0.0
 11
2578.53137422735
 21
842.7574320268378
 31
0.0
  0
LINE
  5
4B5
330
455
100
AcDbEntity
  8
0
  6
Continuous
 62
     7
370
    15
100
AcDbLine
 10
2572.531374227351
 20
832.0574320268347
 30
0.0
 11
2578.53137422735
 21
832.0574320268347
 31
0.0
  0
LINE
  5
4B6
330
455
100
AcDbEntity
  8
0
  6
Continuous
 62
     7
370
    15
100
AcDbLine
 10
2575.53137422735
 20
831.8574320269592
 30
0.0
 11
2578.331374227386
 21
831.8574320269592
 31
0.0
  0
LINE
  5
4B7
330
455
100
AcDbEntity
  8
0
  6
Continuous
 62
     7
370
    15
100
AcDbLine
 10
2572.731374227314
 20
831.8574320269592
 30
0.0
 11
2575.53137422735
 21
831.8574320269592
 31
0.0
  0
LINE
  5
4B8
330
455
100
AcDbEntity
  8
0
  6
Continuous
 62
     7
370
    15
100
AcDbLine
 10
2584.531374227351
 20
832.0574320268347
 30
0.0
 11
2590.531374227262
 21
832.0574320268347
 31
0.0
  0
LINE
  5
4B9
330
455
100
AcDbEntity
  8
0
  6
Continuous
 62
     7
370
    15
100
AcDbLine
 10
2587.53137422735
 20
831.8574320269592
 30
0.0
 11
2590.331374227386
 21
831.8574320269592
 31
0.0
  0
LINE
  5
4BA
330
455
100
AcDbEntity
  8
0
  6
Continuous
 62
     7
370
    15
100
AcDbLine
 10
2584.731374227314
 20
831.8574320269592
 30
0.0
 11
2587.53137422735
 21
831.8574320269592
 31
0.0
  0
LINE
  5
4BB
330
455
100
AcDbEntity
  8
0
  6
Continuous
 62
     7
370
    15
100
AcDbLine
 10
2584.531374227359
 20
842.7574320268378
 30
0.0
 11
2590.53137422735
 21
842.7574320268378
 31
0.0
  0
LINE
  5
4BC
330
455
100
AcDbEntity
  8
0
  6
Continuous
 62
     8
370
    15
100
AcDbLine
 10
2591.01805183394
 20
847.8574320269153
 30
0.0
 11
2584.168051833939
 21
847.8574320269153
 31
0.0
  0
LINE
  5
4BD
330
455
100
AcDbEntity
  8
0
  6
Continuous
 62
     8
370
    15
100
AcDbLine
 10
2555.01805183394
 20
847.8574320269153
 30
0.0
 11
2548.168051833939
 21
847.8574320269153
 31
0.0
  0
LINE
  5
4BE
330
455
100
AcDbEntity
  8
0
  6
Continuous
 62
     8
370
    15
100
AcDbLine
 10
2567.018051833939
 20
847.8574320269153
 30
0.0
 11
2560.168051833939
 21
847.8574320269153
 31
0.0
  0
LINE
  5
4BF
330
455
100
AcDbEntity
  8
0
  6
Continuous
 62
     8
370
    15
100
AcDbLine
 10
2579.018051833939
 20
847.8574320269153
 30
0.0
 11
2572.168051833939
 21
847.8574320269153
 31
0.0
  0
ENDBLK
  5
457
330
455
100
AcDbEntity
  8
0
100
AcDbBlockEnd
  0
BLOCK
  5
4C2
330
4C1
100
AcDbEntity
  8
0
100
AcDbBlockBegin
  2
2
 70
     0
 10
0.0
 20
0.0
 30
0.0
  3
2
  1

  0
LINE
  5
4C4
330
4C1
100
AcDbEntity
  8
0
  6
Continuous
 62
     7
370
    15
100
AcDbLine
 10
2527.241415823507
 20
846.7574320269154
 30
0.0
 11
2527.241415823507
 21
842.8574320269154
 31
0.0
  0
LINE
  5
4C5
330
4C1
100
AcDbEntity
  8
0
  6
Continuous
 62
     7
370
    15
100
AcDbLine
 10
2534.641415823507
 20
842.8574320269154
 30
0.0
 11
2534.641415823507
 21
846.7574320269154
 31
0.0
  0
ARC
  5
4C6
330
4C1
100
AcDbEntity
  8
0
  6
Continuous
 62
     7
370
    15
100
AcDbCircle
 10
2527.716415823507
 20
847.8574320269153
 30
0.0
 40
0.200000000000017
100
AcDbArc
 50
180.0
 51
270.0
  0
ARC
  5
4C7
330
4C1
100
AcDbEntity
  8
0
  6
Continuous
 62
     7
370
    15
100
AcDbCircle
 10
2534.166415823507
 20
847.8574320269153
 30
0.0
 40
0.200000000000017
100
AcDbArc
 50
270.0
 51
0.0
  0
LINE
  5
4C8
330
4C1
100
AcDbEntity
  8
0
  6
Continuous
 62
     7
370
    15
100
AcDbLine
 10
2534.366415823507
 20
847.8574320269153
 30
0.0
 11
2534.366415823507
 21
853.0574320269154
 31
0.0
  0
LINE
  5
4C9
330
4C1
100
AcDbEntity
  8
0
  6
Continuous
 62
     7
370
    15
100
AcDbLine
 10
2527.516415823507
 20
853.0574320269154
 30
0.0
 11
2527.516415823507
 21
847.8574320269153
 31
0.0
  0
LINE
  5
4CA
330
4C1
100
AcDbEntity
  8
0
  6
Continuous
 62
     7
370
    15
100
AcDbLine
 10
2533.941415823508
 20
846.7574320269154
 30
0.0
 11
2533.941415823508
 21
847.6574320269152
 31
0.0
  0
LINE
  5
4CB
330
4C1
100
AcDbEntity
  8
0
  6
Continuous
 62
     7
370
    15
100
AcDbLine
 10
2527.941415823507
 20
847.6574320269152
 30
0.0
 11
2527.941415823507
 21
846.7574320269154
 31
0.0
  0
LINE
  5
4CC
330
4C1
100
AcDbEntity
  8
0
  6
Continuous
 62
     7
370
    15
100
AcDbLine
 10
2527.941415823596
 20
832.0574320268347
 30
0.0
 11
2528.141415823471
 21
831.8574320269592
 31
0.0
  0
LINE
  5
4CD
330
4C1
100
AcDbEntity
  8
0
  6
Continuous
 62
     7
370
    15
100
AcDbLine
 10
2533.741415823544
 20
831.8574320269592
 30
0.0
 11
2533.941415823419
 21
832.0574320268347
 31
0.0
  0
LINE
  5
4CE
330
4C1
100
AcDbEntity
  8
0
  6
Continuous
 62
     7
370
    15
100
AcDbLine
 10
2533.941415823508
 20
832.0574320268347
 30
0.0
 11
2533.941415823508
 21
842.7574320268378
 31
0.0
  0
LINE
  5
4CF
330
4C1
100
AcDbEntity
  8
0
  6
Continuous
 62
     7
370
    15
100
AcDbLine
 10
2527.941415823507
 20
842.7574320268378
 30
0.0
 11
2527.941415823507
 21
832.0574320268347
 31
0.0
  0
LINE
  5
4D0
330
4C1
100
AcDbEntity
  8
0
  6
Continuous
 62
     7
370
    15
100
AcDbLine
 10
2533.941415823499
 20
842.7574320268378
 30
0.0
 11
2533.84141582341
 21
842.8574320269264
 31
0.0
  0
LINE
  5
4D1
330
4C1
100
AcDbEntity
  8
0
  6
Continuous
 62
     7
370
    15
100
AcDbLine
 10
2528.041415823604
 20
842.8574320269264
 30
0.0
 11
2527.941415823516
 21
842.7574320268378
 31
0.0
  0
LINE
  5
4D2
330
4C1
100
AcDbEntity
  8
0
  6
Continuous
 62
     7
370
    15
100
AcDbLine
 10
2527.591415823508
 20
846.7574320269154
 30
0.0
 11
2527.591415823508
 21
842.8574320269154
 31
0.0
  0
LINE
  5
4D3
330
4C1
100
AcDbEntity
  8
0
  6
Continuous
 62
     7
370
    15
100
AcDbLine
 10
2534.291415823507
 20
846.7574320269154
 30
0.0
 11
2534.291415823507
 21
842.8574320269154
 31
0.0
  0
LINE
  5
4D4
330
4C1
100
AcDbEntity
  8
0
  6
Continuous
 62
     7
370
    15
100
AcDbLine
 10
2534.291415823507
 20
842.8574320269154
 30
0.0
 11
2527.591415823508
 21
842.8574320269154
 31
0.0
  0
LINE
  5
4D5
330
4C1
100
AcDbEntity
  8
0
  6
Continuous
 62
     7
370
    15
100
AcDbLine
 10
2527.591415823508
 20
846.7574320269154
 30
0.0
 11
2534.291415823507
 21
846.7574320269154
 31
0.0
  0
LINE
  5
4D6
330
4C1
100
AcDbEntity
  8
0
  6
Continuous
 62
     7
370
    15
100
AcDbLine
 10
2527.591415823508
 20
842.8574320269154
 30
0.0
 11
2527.241415823507
 21
842.8574320269154
 31
0.0
  0
LINE
  5
4D7
330
4C1
100
AcDbEntity
  8
0
  6
Continuous
 62
     7
370
    15
100
AcDbLine
 10
2527.591415823508
 20
846.7574320269154
 30
0.0
 11
2527.241415823507
 21
846.7574320269154
 31
0.0
  0
LINE
  5
4D8
330
4C1
100
AcDbEntity
  8
0
  6
Continuous
 62
     7
370
    15
100
AcDbLine
 10
2534.641415823507
 20
842.8574320269154
 30
0.0
 11
2534.291415823507
 21
842.8574320269154
 31
0.0
  0
LINE
  5
4D9
330
4C1
100
AcDbEntity
  8
0
  6
Continuous
 62
     7
370
    15
100
AcDbLine
 10
2534.641415823507
 20
846.7574320269154
 30
0.0
 11
2534.291415823507
 21
846.7574320269154
 31
0.0
  0
SPLINE
  5
4DA
330
4C1
100
AcDbEntity
  8
0
  6
Continuous
 62
     7
370
    15
100
AcDbSpline
210
0.0
220
0.0
230
1.0
 70
    24
 71
     3
 72
    10
 73
     6
 74
     0
 42
0.0000000001
 43
0.0000000001
 40
0.0
 40
0.0
 40
0.0
 40
0.0
 40
0.5
 40
0.5
 40
1.0
 40
1.0
 40
1.0
 40
1.0
 10
2527.716415823507
 20
847.6574320269152
 30
0.0
 10
2527.716415823507
 20
847.6574320269152
 30
0.0
 10
2528.056208750148
 20
847.6574320269152
 30
0.0
 10
2529.265784158214
 20
847.6574320269152
 30
0.0
 10
2530.086116850107
 20
847.6574320269152
 30
0.0
 10
2530.941415823507
 20
847.6574320269152
 30
0.0
  0
SPLINE
  5
4DB
330
4C1
100
AcDbEntity
  8
0
  6
Continuous
 62
     7
370
    15
100
AcDbSpline
210
0.0
220
0.0
230
1.0
 70
    24
 71
     3
 72
     8
 73
     4
 74
     0
 42
0.0000000001
 43
0.0000000001
 40
0.0
 40
0.0
 40
0.0
 40
0.0
 40
1.0
 40
1.0
 40
1.0
 40
1.0
 10
2530.941415823507
 20
847.6574320269152
 30
0.0
 10
2532.721341730509
 20
847.6574320269152
 30
0.0
 10
2534.166415823507
 20
847.6574320269152
 30
0.0
 10
2534.166415823507
 20
847.6574320269152
 30
0.0
  0
LINE
  5
4DC
330
4C1
100
AcDbEntity
  8
0
  6
Continuous
 62
     7
370
    15
100
AcDbLine
 10
2534.366415823507
 20
853.0574320269154
 30
0.0
 11
2527.516415823507
 21
853.0574320269154
 31
0.0
  0
LINE
  5
4DD
330
4C1
100
AcDbEntity
  8
0
  6
Continuous
 62
     7
370
    15
100
AcDbLine
 10
2527.941415823596
 20
832.0574320268347
 30
0.0
 11
2533.941415823419
 21
832.0574320268347
 31
0.0
  0
LINE
  5
4DE
330
4C1
100
AcDbEntity
  8
0
  6
Continuous
 62
     7
370
    15
100
AcDbLine
 10
2528.141415823471
 20
831.8574320269592
 30
0.0
 11
2533.741415823544
 21
831.8574320269592
 31
0.0
  0
LINE
  5
4DF
330
4C1
100
AcDbEntity
  8
0
  6
Continuous
 62
     7
370
    15
100
AcDbLine
 10
2527.941415823507
 20
842.7574320268378
 30
0.0
 11
2533.941415823508
 21
842.7574320268378
 31
0.0
  0
LINE
  5
4E0
330
4C1
100
AcDbEntity
  8
0
  6
Continuous
 62
     8
370
    15
100
AcDbLine
 10
2530.941415823507
 20
847.8574320269153
 30
0.0
 11
2527.516415823507
 21
847.8574320269153
 31
0.0
  0
LINE
  5
4E1
330
4C1
100
AcDbEntity
  8
0
  6
Continuous
 62
     8
370
    15
100
AcDbLine
 10
2534.366415823507
 20
847.8574320269153
 30
0.0
 11
2530.941415823507
 21
847.8574320269153
 31
0.0
  0
ENDBLK
  5
4C3
330
4C1
100
AcDbEntity
  8
0
100
AcDbBlockEnd
  0
BLOCK
  5
4E4
330
4E3
100
AcDbEntity
  8
0
100
AcDbBlockBegin
  2
3
 70
     0
 10
0.0
 20
0.0
 30
0.0
  3
3
  1

  0
CIRCLE
  5
4E6
330
4E3
100
AcDbEntity
  8
0
  6
Continuous
 62
     7
370
    15
100
AcDbCircle
 10
2587.593051833939
 20
812.5757714372998
 30
0.0
 40
2.475000000010794
  0
ARC
  5
4E7
330
4E3
100
AcDbEntity
  8
0
  6
Continuous
 62
     7
370
    15
100
AcDbCircle
 10
2587.593051833939
 20
812.5757714372998
 30
0.0
 40
2.197439522057772
100
AcDbArc
 50
13.1521401048725
 51
166.8478598951401
  0
ARC
  5
4E8
330
4E3
100
AcDbEntity
  8
0
  6
Continuous
 62
     7
370
    15
100
AcDbCircle
 10
2587.593051833939
 20
812.5757714372998
 30
0.0
 40
2.145679479873544
100
AcDbArc
 50
166.5246847195768
 51
193.4753152804231
  0
ARC
  5
4E9
330
4E3
100
AcDbEntity
  8
0
  6
Continuous
 62
     7
370
    15
100
AcDbCircle
 10
2587.593051833939
 20
812.5757714372998
 30
0.0
 40
2.197439522057744
100
AcDbArc
 50
193.1521401048788
 51
346.8478598951402
  0
ARC
  5
4EA
330
4E3
100
AcDbEntity
  8
0
  6
Continuous
 62
     7
370
    15
100
AcDbCircle
 10
2587.593051833939
 20
812.5757714372998
 30
0.0
 40
2.145679479873544
100
AcDbArc
 50
346.5246847195768
 51
13.47531528042316
  0
CIRCLE
  5
4EB
330
4E3
100
AcDbEntity
  8
0
  6
Continuous
 62
     7
370
    15
100
AcDbCircle
 10
2575.593051833939
 20
812.5757714372998
 30
0.0
 40
2.475000000010339
  0
ARC
  5
4EC
330
4E3
100
AcDbEntity
  8
0
  6
Continuous
 62
     7
370
    15
100
AcDbCircle
 10
2575.593051833939
 20
812.5757714372998
 30
0.0
 40
2.197439522057301
100
AcDbArc
 50
13.15214010487884
 51
166.8478598951401
  0
ARC
  5
4ED
330
4E3
100
AcDbEntity
  8
0
  6
Continuous
 62
     7
370
    15
100
AcDbCircle
 10
2575.593051833939
 20
812.5757714372998
 30
0.0
 40
2.145679479873075
100
AcDbArc
 50
166.5246847195768
 51
193.4753152804231
  0
ARC
  5
4EE
330
4E3
100
AcDbEntity
  8
0
  6
Continuous
 62
     7
370
    15
100
AcDbCircle
 10
2575.593051833939
 20
812.5757714372998
 30
0.0
 40
2.197439522057301
100
AcDbArc
 50
193.1521401048788
 51
346.8478598951402
  0
ARC
  5
4EF
330
4E3
100
AcDbEntity
  8
0
  6
Continuous
 62
     7
370
    15
100
AcDbCircle
 10
2575.593051833939
 20
812.5757714372998
 30
0.0
 40
2.145679479873075
100
AcDbArc
 50
346.5246847195768
 51
13.47531528042316
  0
CIRCLE
  5
4F0
330
4E3
100
AcDbEntity
  8
0
  6
Continuous
 62
     7
370
    15
100
AcDbCircle
 10
2575.593051833939
 20
812.5757714372998
 30
0.0
 40
3.424999999999982
  0
CIRCLE
  5
4F1
330
4E3
100
AcDbEntity
  8
0
  6
Continuous
 62
     7
370
    15
100
AcDbCircle
 10
2551.593051833939
 20
812.5757714372998
 30
0.0
 40
2.475000000010311
  0
CIRCLE
  5
4F2
330
4E3
100
AcDbEntity
  8
0
  6
Continuous
 62
     7
370
    15
100
AcDbCircle
 10
2551.593051833939
 20
812.5757714372998
 30
0.0
 40
3.425000000000011
  0
CIRCLE
  5
4F3
330
4E3
100
AcDbEntity
  8
0
  6
Continuous
 62
     7
370
    15
100
AcDbCircle
 10
2587.593051833939
 20
812.5757714372998
 30
0.0
 40
3.425000000000011
  0
CIRCLE
  5
4F4
330
4E3
100
AcDbEntity
  8
0
  6
Continuous
 62
     7
370
    15
100
AcDbCircle
 10
2563.593051833939
 20
812.5757714372998
 30
0.0
 40
2.475000000010311
  0
ARC
  5
4F5
330
4E3
100
AcDbEntity
  8
0
  6
Continuous
 62
     7
370
    15
100
AcDbCircle
 10
2563.593051833939
 20
812.5757714372998
 30
0.0
 40
2.197439522057301
100
AcDbArc
 50
13.15214010487884
 51
166.8478598951401
  0
ARC
  5
4F6
330
4E3
100
AcDbEntity
  8
0
  6
Continuous
 62
     7
370
    15
100
AcDbCircle
 10
2563.593051833939
 20
812.5757714372998
 30
0.0
 40
2.145679479873102
100
AcDbArc
 50
166.5246847195768
 51
193.4753152804231
  0
ARC
  5
4F7
330
4E3
100
AcDbEntity
  8
0
  6
Continuous
 62
     7
370
    15
100
AcDbCircle
 10
2563.593051833939
 20
812.5757714372998
 30
0.0
 40
2.197439522057301
100
AcDbArc
 50
193.1521401048788
 51
346.8478598951402
  0
ARC
  5
4F8
330
4E3
100
AcDbEntity
  8
0
  6
Continuous
 62
     7
370
    15
100
AcDbCircle
 10
2563.593051833939
 20
812.5757714372998
 30
0.0
 40
2.145679479873102
100
AcDbArc
 50
346.5246847195768
 51
13.47531528042316
  0
ARC
  5
4F9
330
4E3
100
AcDbEntity
  8
0
  6
Continuous
 62
     7
370
    15
100
AcDbCircle
 10
2551.593051833939
 20
812.5757714372998
 30
0.0
 40
2.197439522057301
100
AcDbArc
 50
13.15214010487884
 51
166.8478598951401
  0
ARC
  5
4FA
330
4E3
100
AcDbEntity
  8
0
  6
Continuous
 62
     7
370
    15
100
AcDbCircle
 10
2551.593051833939
 20
812.5757714372998
 30
0.0
 40
2.145679479873075
100
AcDbArc
 50
166.5246847195768
 51
193.4753152804231
  0
ARC
  5
4FB
330
4E3
100
AcDbEntity
  8
0
  6
Continuous
 62
     7
370
    15
100
AcDbCircle
 10
2551.593051833939
 20
812.5757714372998
 30
0.0
 40
2.197439522057329
100
AcDbArc
 50
193.1521401048788
 51
346.8478598951402
  0
ARC
  5
4FC
330
4E3
100
AcDbEntity
  8
0
  6
Continuous
 62
     7
370
    15
100
AcDbCircle
 10
2551.593051833939
 20
812.5757714372998
 30
0.0
 40
2.145679479873102
100
AcDbArc
 50
346.5246847195768
 51
13.47531528042316
  0
CIRCLE
  5
4FD
330
4E3
100
AcDbEntity
  8
0
  6
Continuous
 62
     7
370
    15
100
AcDbCircle
 10
2563.593051833939
 20
812.5757714372998
 30
0.0
 40
3.424999999999982
  0
SPLINE
  5
4FE
330
4E3
100
AcDbEntity
  8
0
  6
Continuous
 62
     7
370
    15
100
AcDbSpline
210
0.0
220
0.0
230
1.0
 70
     8
 71
     3
 72
    14
 73
    10
 74
     0
 42
0.0000000001
 43
0.0000000001
 40
0.0
 40
0.0
 40
0.0
 40
0.0
 40
0.25
 40
0.25
 40
0.5
 40
0.5
 40
0.75
 40
0.75
 40
0.9999999999999998
 40
0.9999999999999998
 40
0.9999999999999998
 40
0.9999999999999998
 10
2585.668094938796
 20
813.0757714372997
 30
0.0
 10
2585.778814184181
 20
813.5020309869583
 30
0.0
 10
2586.027919561314
 20
813.879526004816
 30
0.0
 10
2586.724650768708
 20
814.4184039543905
 30
0.0
 10
2587.152647525407
 20
814.564605027161
 30
0.0
 10
2588.033456142472
 20
814.564605027161
 30
0.0
 10
2588.46145289917
 20
814.4184039543905
 30
0.0
 10
2589.158184106565
 20
813.879526004816
 30
0.0
 10
2589.407289483697
 20
813.5020309869583
 30
0.0
 10
2589.518008729083
 20
813.0757714372997
 30
0.0
  0
LINE
  5
4FF
330
4E3
100
AcDbEntity
  8
0
  6
Continuous
 62
     7
370
    15
100
AcDbLine
 10
2585.668094938796
 20
813.0757714372997
 30
0.0
 11
2589.518008729083
 21
813.0757714372997
 31
0.0
  0
SPLINE
  5
500
330
4E3
100
AcDbEntity
  8
0
  6
Continuous
 62
     7
370
    15
100
AcDbSpline
210
0.0
220
0.0
230
1.0
 70
     8
 71
     3
 72
    14
 73
    10
 74
     0
 42
0.0000000001
 43
0.0000000001
 40
0.0
 40
0.0
 40
0.0
 40
0.0
 40
0.25
 40
0.25
 40
0.5
 40
0.5
 40
0.75
 40
0.75
 40
0.9999999999999998
 40
0.9999999999999998
 40
0.9999999999999998
 40
0.9999999999999998
 10
2573.668094938796
 20
813.0757714372997
 30
0.0
 10
2573.778814184181
 20
813.5020309869583
 30
0.0
 10
2574.027919561313
 20
813.879526004816
 30
0.0
 10
2574.724650768708
 20
814.4184039543905
 30
0.0
 10
2575.152647525407
 20
814.564605027161
 30
0.0
 10
2576.033456142472
 20
814.564605027161
 30
0.0
 10
2576.46145289917
 20
814.4184039543905
 30
0.0
 10
2577.158184106565
 20
813.879526004816
 30
0.0
 10
2577.407289483697
 20
813.5020309869583
 30
0.0
 10
2577.518008729083
 20
813.0757714372997
 30
0.0
  0
LINE
  5
501
330
4E3
100
AcDbEntity
  8
0
  6
Continuous
 62
     7
370
    15
100
AcDbLine
 10
2573.668094938796
 20
813.0757714372997
 30
0.0
 11
2577.518008729083
 21
813.0757714372997
 31
0.0
  0
SPLINE
  5
502
330
4E3
100
AcDbEntity
  8
0
  6
Continuous
 62
     7
370
    15
100
AcDbSpline
210
0.0
220
0.0
230
1.0
 70
     8
 71
     3
 72
    14
 73
    10
 74
     0
 42
0.0000000001
 43
0.0000000001
 40
0.0
 40
0.0
 40
0.0
 40
0.0
 40
0.25
 40
0.25
 40
0.5
 40
0.5
 40
0.75
 40
0.75
 40
0.9999999999999998
 40
0.9999999999999998
 40
0.9999999999999998
 40
0.9999999999999998
 10
2561.668094938795
 20
813.0757714372997
 30
0.0
 10
2561.778814184181
 20
813.5020309869583
 30
0.0
 10
2562.027919561314
 20
813.879526004816
 30
0.0
 10
2562.724650768708
 20
814.4184039543905
 30
0.0
 10
2563.152647525407
 20
814.564605027161
 30
0.0
 10
2564.033456142472
 20
814.564605027161
 30
0.0
 10
2564.46145289917
 20
814.4184039543905
 30
0.0
 10
2565.158184106565
 20
813.879526004816
 30
0.0
 10
2565.407289483697
 20
813.5020309869583
 30
0.0
 10
2565.518008729083
 20
813.0757714372997
 30
0.0
  0
LINE
  5
503
330
4E3
100
AcDbEntity
  8
0
  6
Continuous
 62
     7
370
    15
100
AcDbLine
 10
2561.668094938795
 20
813.0757714372997
 30
0.0
 11
2565.518008729083
 21
813.0757714372997
 31
0.0
  0
SPLINE
  5
504
330
4E3
100
AcDbEntity
  8
0
  6
Continuous
 62
     7
370
    15
100
AcDbSpline
210
0.0
220
0.0
230
1.0
 70
     8
 71
     3
 72
    14
 73
    10
 74
     0
 42
0.0000000001
 43
0.0000000001
 40
0.0
 40
0.0
 40
0.0
 40
0.0
 40
0.25
 40
0.25
 40
0.5
 40
0.5
 40
0.75
 40
0.75
 40
0.9999999999999998
 40
0.9999999999999998
 40
0.9999999999999998
 40
0.9999999999999998
 10
2549.668094938795
 20
813.0757714372997
 30
0.0
 10
2549.778814184181
 20
813.5020309869583
 30
0.0
 10
2550.027919561314
 20
813.879526004816
 30
0.0
 10
2550.724650768708
 20
814.4184039543905
 30
0.0
 10
2551.152647525407
 20
814.564605027161
 30
0.0
 10
2552.033456142472
 20
814.564605027161
 30
0.0
 10
2552.46145289917
 20
814.4184039543905
 30
0.0
 10
2553.158184106565
 20
813.879526004816
 30
0.0
 10
2553.407289483697
 20
813.5020309869583
 30
0.0
 10
2553.518008729083
 20
813.0757714372997
 30
0.0
  0
LINE
  5
505
330
4E3
100
AcDbEntity
  8
0
  6
Continuous
 62
     7
370
    15
100
AcDbLine
 10
2549.668094938795
 20
813.0757714372997
 30
0.0
 11
2553.518008729083
 21
813.0757714372997
 31
0.0
  0
SPLINE
  5
506
330
4E3
100
AcDbEntity
  8
0
  6
Continuous
 62
     7
370
    15
100
AcDbSpline
210
0.0
220
0.0
230
1.0
 70
     8
 71
     3
 72
    10
 73
     6
 74
     0
 42
0.0000000001
 43
0.0000000001
 40
0.0
 40
0.0
 40
0.0
 40
0.0
 40
0.5
 40
0.5
 40
1.0
 40
1.0
 40
1.0
 40
1.0
 10
2565.518008729083
 20
812.0757714372997
 30
0.0
 10
2565.407289483697
 20
811.6495118876411
 30
0.0
 10
2565.158184106565
 20
811.2720168697833
 30
0.0
 10
2564.46145289917
 20
810.7331389202091
 30
0.0
 10
2564.033456142472
 20
810.5869378474384
 30
0.0
 10
2563.593051833939
 20
810.5869378474384
 30
0.0
  0
SPLINE
  5
507
330
4E3
100
AcDbEntity
  8
0
  6
Continuous
 62
     7
370
    15
100
AcDbSpline
210
0.0
220
0.0
230
1.0
 70
     8
 71
     3
 72
    10
 73
     6
 74
     0
 42
0.0000000001
 43
0.0000000001
 40
0.0
 40
0.0
 40
0.0
 40
0.0
 40
0.5
 40
0.5
 40
1.0
 40
1.0
 40
1.0
 40
1.0
 10
2563.593051833939
 20
810.5869378474384
 30
0.0
 10
2563.152647525407
 20
810.5869378474384
 30
0.0
 10
2562.724650768708
 20
810.7331389202091
 30
0.0
 10
2562.027919561314
 20
811.2720168697833
 30
0.0
 10
2561.778814184181
 20
811.6495118876411
 30
0.0
 10
2561.668094938795
 20
812.0757714372997
 30
0.0
  0
LINE
  5
508
330
4E3
100
AcDbEntity
  8
0
  6
Continuous
 62
     7
370
    15
100
AcDbLine
 10
2565.518008729083
 20
812.0757714372997
 30
0.0
 11
2561.668094938795
 21
812.0757714372997
 31
0.0
  0
SPLINE
  5
509
330
4E3
100
AcDbEntity
  8
0
  6
Continuous
 62
     7
370
    15
100
AcDbSpline
210
0.0
220
0.0
230
1.0
 70
     8
 71
     3
 72
    10
 73
     6
 74
     0
 42
0.0000000001
 43
0.0000000001
 40
0.0
 40
0.0
 40
0.0
 40
0.0
 40
0.5
 40
0.5
 40
1.0
 40
1.0
 40
1.0
 40
1.0
 10
2577.518008729083
 20
812.0757714372997
 30
0.0
 10
2577.407289483697
 20
811.6495118876411
 30
0.0
 10
2577.158184106565
 20
811.2720168697833
 30
0.0
 10
2576.46145289917
 20
810.7331389202091
 30
0.0
 10
2576.033456142472
 20
810.5869378474384
 30
0.0
 10
2575.593051833939
 20
810.5869378474384
 30
0.0
  0
SPLINE
  5
50A
330
4E3
100
AcDbEntity
  8
0
  6
Continuous
 62
     7
370
    15
100
AcDbSpline
210
0.0
220
0.0
230
1.0
 70
     8
 71
     3
 72
    10
 73
     6
 74
     0
 42
0.0000000001
 43
0.0000000001
 40
0.0
 40
0.0
 40
0.0
 40
0.0
 40
0.5
 40
0.5
 40
1.0
 40
1.0
 40
1.0
 40
1.0
 10
2575.593051833939
 20
810.5869378474386
 30
0.0
 10
2575.152647525407
 20
810.5869378474386
 30
0.0
 10
2574.724650768708
 20
810.7331389202091
 30
0.0
 10
2574.027919561313
 20
811.2720168697833
 30
0.0
 10
2573.778814184181
 20
811.6495118876411
 30
0.0
 10
2573.668094938796
 20
812.0757714372997
 30
0.0
  0
LINE
  5
50B
330
4E3
100
AcDbEntity
  8
0
  6
Continuous
 62
     7
370
    15
100
AcDbLine
 10
2577.518008729083
 20
812.0757714372997
 30
0.0
 11
2573.668094938796
 21
812.0757714372997
 31
0.0
  0
SPLINE
  5
50C
330
4E3
100
AcDbEntity
  8
0
  6
Continuous
 62
     7
370
    15
100
AcDbSpline
210
0.0
220
0.0
230
1.0
 70
     8
 71
     3
 72
    10
 73
     6
 74
     0
 42
0.0000000001
 43
0.0000000001
 40
0.0
 40
0.0
 40
0.0
 40
0.0
 40
0.5
 40
0.5
 40
1.0
 40
1.0
 40
1.0
 40
1.0
 10
2553.518008729083
 20
812.0757714372997
 30
0.0
 10
2553.407289483697
 20
811.6495118876411
 30
0.0
 10
2553.158184106565
 20
811.2720168697833
 30
0.0
 10
2552.46145289917
 20
810.7331389202091
 30
0.0
 10
2552.033456142472
 20
810.5869378474384
 30
0.0
 10
2551.593051833939
 20
810.5869378474384
 30
0.0
  0
SPLINE
  5
50D
330
4E3
100
AcDbEntity
  8
0
  6
Continuous
 62
     7
370
    15
100
AcDbSpline
210
0.0
220
0.0
230
1.0
 70
     8
 71
     3
 72
    10
 73
     6
 74
     0
 42
0.0000000001
 43
0.0000000001
 40
0.0
 40
0.0
 40
0.0
 40
0.0
 40
0.5
 40
0.5
 40
1.0
 40
1.0
 40
1.0
 40
1.0
 10
2551.593051833939
 20
810.5869378474384
 30
0.0
 10
2551.152647525407
 20
810.5869378474384
 30
0.0
 10
2550.724650768708
 20
810.7331389202091
 30
0.0
 10
2550.027919561314
 20
811.2720168697833
 30
0.0
 10
2549.778814184181
 20
811.6495118876411
 30
0.0
 10
2549.668094938795
 20
812.0757714372997
 30
0.0
  0
LINE
  5
50E
330
4E3
100
AcDbEntity
  8
0
  6
Continuous
 62
     7
370
    15
100
AcDbLine
 10
2553.518008729083
 20
812.0757714372997
 30
0.0
 11
2549.668094938795
 21
812.0757714372997
 31
0.0
  0
SPLINE
  5
50F
330
4E3
100
AcDbEntity
  8
0
  6
Continuous
 62
     7
370
    15
100
AcDbSpline
210
0.0
220
0.0
230
1.0
 70
     8
 71
     3
 72
    10
 73
     6
 74
     0
 42
0.0000000001
 43
0.0000000001
 40
0.0
 40
0.0
 40
0.0
 40
0.0
 40
0.5
 40
0.5
 40
1.0
 40
1.0
 40
1.0
 40
1.0
 10
2589.518008729083
 20
812.0757714372997
 30
0.0
 10
2589.407289483697
 20
811.6495118876411
 30
0.0
 10
2589.158184106565
 20
811.2720168697833
 30
0.0
 10
2588.46145289917
 20
810.7331389202091
 30
0.0
 10
2588.033456142472
 20
810.5869378474384
 30
0.0
 10
2587.593051833939
 20
810.5869378474384
 30
0.0
  0
SPLINE
  5
510
330
4E3
100
AcDbEntity
  8
0
  6
Continuous
 62
     7
370
    15
100
AcDbSpline
210
0.0
220
0.0
230
1.0
 70
     8
 71
     3
 72
    10
 73
     6
 74
     0
 42
0.0000000001
 43
0.0000000001
 40
0.0
 40
0.0
 40
0.0
 40
0.0
 40
0.5
 40
0.5
 40
1.0
 40
1.0
 40
1.0
 40
1.0
 10
2587.593051833939
 20
810.5869378474386
 30
0.0
 10
2587.152647525407
 20
810.5869378474386
 30
0.0
 10
2586.724650768708
 20
810.7331389202091
 30
0.0
 10
2586.027919561314
 20
811.2720168697833
 30
0.0
 10
2585.778814184181
 20
811.6495118876411
 30
0.0
 10
2585.668094938796
 20
812.0757714372997
 30
0.0
  0
LINE
  5
511
330
4E3
100
AcDbEntity
  8
0
  6
Continuous
 62
     7
370
    15
100
AcDbLine
 10
2589.518008729083
 20
812.0757714372997
 30
0.0
 11
2585.668094938796
 21
812.0757714372997
 31
0.0
  0
ARC
  5
512
330
4E3
100
AcDbEntity
  8
0
  6
Continuous
 62
     7
370
    15
100
AcDbCircle
 10
2587.593051833939
 20
812.5757714372998
 30
0.0
 40
2.188421798070006
100
AcDbArc
 50
13.20731410364895
 51
166.792685896351
  0
SPLINE
  5
513
330
4E3
100
AcDbEntity
  8
0
  6
Continuous
 62
     7
370
    15
100
AcDbSpline
210
0.0
220
0.0
230
1.0
 70
    24
 71
     3
 72
    10
 73
     6
 74
     0
 42
0.0000000001
 43
0.0000000001
 40
0.0
 40
0.0
 40
0.0
 40
0.0
 40
0.5
 40
0.5
 40
1.0
 40
1.0
 40
1.0
 40
1.0
 10
2589.518008729083
 20
813.0757714372997
 30
0.0
 10
2589.569475312675
 20
813.0757714372997
 30
0.0
 10
2589.619874554642
 20
813.0757714372997
 30
0.0
 10
2589.695924552935
 20
813.0757714372997
 30
0.0
 10
2589.720195999572
 20
813.0757714372997
 30
0.0
 10
2589.723589316892
 20
813.0757714372997
 30
0.0
  0
SPLINE
  5
514
330
4E3
100
AcDbEntity
  8
0
  6
Continuous
 62
     7
370
    15
100
AcDbSpline
210
0.0
220
0.0
230
1.0
 70
    24
 71
     3
 72
    10
 73
     6
 74
     0
 42
0.0000000001
 43
0.0000000001
 40
0.0
 40
0.0
 40
0.0
 40
0.0
 40
0.5
 40
0.5
 40
1.0
 40
1.0
 40
1.0
 40
1.0
 10
2585.462514350986
 20
813.0757714372997
 30
0.0
 10
2585.465905089272
 20
813.0757714372997
 30
0.0
 10
2585.490281125047
 20
813.0757714372997
 30
0.0
 10
2585.565943702701
 20
813.0757714372997
 30
0.0
 10
2585.616662711874
 20
813.0757714372997
 30
0.0
 10
2585.668094938796
 20
813.0757714372997
 30
0.0
  0
ARC
  5
515
330
4E3
100
AcDbEntity
  8
0
  6
Continuous
 62
     7
370
    15
100
AcDbCircle
 10
2563.593051833939
 20
812.5757714372998
 30
0.0
 40
2.188421798069978
100
AcDbArc
 50
193.2073141036489
 51
346.792685896351
  0
SPLINE
  5
516
330
4E3
100
AcDbEntity
  8
0
  6
Continuous
 62
     7
370
    15
100
AcDbSpline
210
0.0
220
0.0
230
1.0
 70
    24
 71
     3
 72
    10
 73
     6
 74
     0
 42
0.0000000001
 43
0.0000000001
 40
0.0
 40
0.0
 40
0.0
 40
0.0
 40
0.5
 40
0.5
 40
1.0
 40
1.0
 40
1.0
 40
1.0
 10
2565.723589316892
 20
812.0757714372997
 30
0.0
 10
2565.720198578607
 20
812.0757714372997
 30
0.0
 10
2565.695822542832
 20
812.0757714372997
 30
0.0
 10
2565.620159965178
 20
812.0757714372997
 30
0.0
 10
2565.569440956004
 20
812.0757714372997
 30
0.0
 10
2565.518008729083
 20
812.0757714372997
 30
0.0
  0
SPLINE
  5
517
330
4E3
100
AcDbEntity
  8
0
  6
Continuous
 62
     7
370
    15
100
AcDbSpline
210
0.0
220
0.0
230
1.0
 70
    24
 71
     3
 72
    10
 73
     6
 74
     0
 42
0.0000000001
 43
0.0000000001
 40
0.0
 40
0.0
 40
0.0
 40
0.0
 40
0.5
 40
0.5
 40
1.0
 40
1.0
 40
1.0
 40
1.0
 10
2561.668094938795
 20
812.0757714372997
 30
0.0
 10
2561.616628355203
 20
812.0757714372997
 30
0.0
 10
2561.566229113236
 20
812.0757714372997
 30
0.0
 10
2561.490179114944
 20
812.0757714372997
 30
0.0
 10
2561.465907668306
 20
812.0757714372997
 30
0.0
 10
2561.462514350986
 20
812.0757714372997
 30
0.0
  0
ARC
  5
518
330
4E3
100
AcDbEntity
  8
0
  6
Continuous
 62
     7
370
    15
100
AcDbCircle
 10
2551.593051833939
 20
812.5757714372998
 30
0.0
 40
2.188421798069978
100
AcDbArc
 50
193.2073141036489
 51
346.792685896351
  0
SPLINE
  5
519
330
4E3
100
AcDbEntity
  8
0
  6
Continuous
 62
     7
370
    15
100
AcDbSpline
210
0.0
220
0.0
230
1.0
 70
    24
 71
     3
 72
    10
 73
     6
 74
     0
 42
0.0000000001
 43
0.0000000001
 40
0.0
 40
0.0
 40
0.0
 40
0.0
 40
0.5
 40
0.5
 40
1.0
 40
1.0
 40
1.0
 40
1.0
 10
2553.723589316892
 20
812.0757714372997
 30
0.0
 10
2553.720198578607
 20
812.0757714372997
 30
0.0
 10
2553.695822542832
 20
812.0757714372997
 30
0.0
 10
2553.620159965177
 20
812.0757714372997
 30
0.0
 10
2553.569440956005
 20
812.0757714372997
 30
0.0
 10
2553.518008729083
 20
812.0757714372997
 30
0.0
  0
SPLINE
  5
51A
330
4E3
100
AcDbEntity
  8
0
  6
Continuous
 62
     7
370
    15
100
AcDbSpline
210
0.0
220
0.0
230
1.0
 70
    24
 71
     3
 72
    10
 73
     6
 74
     0
 42
0.0000000001
 43
0.0000000001
 40
0.0
 40
0.0
 40
0.0
 40
0.0
 40
0.5
 40
0.5
 40
1.0
 40
1.0
 40
1.0
 40
1.0
 10
2549.668094938795
 20
812.0757714372997
 30
0.0
 10
2549.616628355204
 20
812.0757714372997
 30
0.0
 10
2549.566229113236
 20
812.0757714372997
 30
0.0
 10
2549.490179114944
 20
812.0757714372997
 30
0.0
 10
2549.465907668306
 20
812.0757714372997
 30
0.0
 10
2549.462514350986
 20
812.0757714372997
 30
0.0
  0
ARC
  5
51B
330
4E3
100
AcDbEntity
  8
0
  6
Continuous
 62
     7
370
    15
100
AcDbCircle
 10
2575.593051833939
 20
812.5757714372998
 30
0.0
 40
2.188421798069978
100
AcDbArc
 50
193.2073141036489
 51
346.792685896351
  0
SPLINE
  5
51C
330
4E3
100
AcDbEntity
  8
0
  6
Continuous
 62
     7
370
    15
100
AcDbSpline
210
0.0
220
0.0
230
1.0
 70
    24
 71
     3
 72
    10
 73
     6
 74
     0
 42
0.0000000001
 43
0.0000000001
 40
0.0
 40
0.0
 40
0.0
 40
0.0
 40
0.5
 40
0.5
 40
1.0
 40
1.0
 40
1.0
 40
1.0
 10
2577.723589316892
 20
812.0757714372997
 30
0.0
 10
2577.720198578607
 20
812.0757714372997
 30
0.0
 10
2577.695822542832
 20
812.0757714372997
 30
0.0
 10
2577.620159965178
 20
812.0757714372997
 30
0.0
 10
2577.569440956005
 20
812.0757714372997
 30
0.0
 10
2577.518008729083
 20
812.0757714372997
 30
0.0
  0
SPLINE
  5
51D
330
4E3
100
AcDbEntity
  8
0
  6
Continuous
 62
     7
370
    15
100
AcDbSpline
210
0.0
220
0.0
230
1.0
 70
    24
 71
     3
 72
    10
 73
     6
 74
     0
 42
0.0000000001
 43
0.0000000001
 40
0.0
 40
0.0
 40
0.0
 40
0.0
 40
0.5
 40
0.5
 40
1.0
 40
1.0
 40
1.0
 40
1.0
 10
2573.668094938796
 20
812.0757714372997
 30
0.0
 10
2573.616628355204
 20
812.0757714372997
 30
0.0
 10
2573.566229113236
 20
812.0757714372997
 30
0.0
 10
2573.490179114944
 20
812.0757714372997
 30
0.0
 10
2573.465907668306
 20
812.0757714372997
 30
0.0
 10
2573.462514350986
 20
812.0757714372997
 30
0.0
  0
ARC
  5
51E
330
4E3
100
AcDbEntity
  8
0
  6
Continuous
 62
     7
370
    15
100
AcDbCircle
 10
2575.593051833939
 20
812.5757714372998
 30
0.0
 40
2.188421798069978
100
AcDbArc
 50
13.20731410364895
 51
166.792685896351
  0
SPLINE
  5
51F
330
4E3
100
AcDbEntity
  8
0
  6
Continuous
 62
     7
370
    15
100
AcDbSpline
210
0.0
220
0.0
230
1.0
 70
    24
 71
     3
 72
    10
 73
     6
 74
     0
 42
0.0000000001
 43
0.0000000001
 40
0.0
 40
0.0
 40
0.0
 40
0.0
 40
0.5
 40
0.5
 40
1.0
 40
1.0
 40
1.0
 40
1.0
 10
2577.518008729083
 20
813.0757714372997
 30
0.0
 10
2577.569475312675
 20
813.0757714372997
 30
0.0
 10
2577.619874554642
 20
813.0757714372997
 30
0.0
 10
2577.695924552935
 20
813.0757714372997
 30
0.0
 10
2577.720195999572
 20
813.0757714372997
 30
0.0
 10
2577.723589316892
 20
813.0757714372997
 30
0.0
  0
SPLINE
  5
520
330
4E3
100
AcDbEntity
  8
0
  6
Continuous
 62
     7
370
    15
100
AcDbSpline
210
0.0
220
0.0
230
1.0
 70
    24
 71
     3
 72
    10
 73
     6
 74
     0
 42
0.0000000001
 43
0.0000000001
 40
0.0
 40
0.0
 40
0.0
 40
0.0
 40
0.5
 40
0.5
 40
1.0
 40
1.0
 40
1.0
 40
1.0
 10
2573.462514350986
 20
813.0757714372997
 30
0.0
 10
2573.465905089272
 20
813.0757714372997
 30
0.0
 10
2573.490281125047
 20
813.0757714372997
 30
0.0
 10
2573.565943702701
 20
813.0757714372997
 30
0.0
 10
2573.616662711874
 20
813.0757714372997
 30
0.0
 10
2573.668094938796
 20
813.0757714372997
 30
0.0
  0
ARC
  5
521
330
4E3
100
AcDbEntity
  8
0
  6
Continuous
 62
     7
370
    15
100
AcDbCircle
 10
2551.593051833939
 20
812.5757714372998
 30
0.0
 40
2.188421798069978
100
AcDbArc
 50
13.20731410364895
 51
166.792685896351
  0
SPLINE
  5
522
330
4E3
100
AcDbEntity
  8
0
  6
Continuous
 62
     7
370
    15
100
AcDbSpline
210
0.0
220
0.0
230
1.0
 70
    24
 71
     3
 72
    10
 73
     6
 74
     0
 42
0.0000000001
 43
0.0000000001
 40
0.0
 40
0.0
 40
0.0
 40
0.0
 40
0.5
 40
0.5
 40
1.0
 40
1.0
 40
1.0
 40
1.0
 10
2553.518008729083
 20
813.0757714372997
 30
0.0
 10
2553.569475312675
 20
813.0757714372997
 30
0.0
 10
2553.619874554642
 20
813.0757714372997
 30
0.0
 10
2553.695924552935
 20
813.0757714372997
 30
0.0
 10
2553.720195999572
 20
813.0757714372997
 30
0.0
 10
2553.723589316892
 20
813.0757714372997
 30
0.0
  0
SPLINE
  5
523
330
4E3
100
AcDbEntity
  8
0
  6
Continuous
 62
     7
370
    15
100
AcDbSpline
210
0.0
220
0.0
230
1.0
 70
    24
 71
     3
 72
    10
 73
     6
 74
     0
 42
0.0000000001
 43
0.0000000001
 40
0.0
 40
0.0
 40
0.0
 40
0.0
 40
0.5
 40
0.5
 40
1.0
 40
1.0
 40
1.0
 40
1.0
 10
2549.462514350986
 20
813.0757714372997
 30
0.0
 10
2549.465905089272
 20
813.0757714372997
 30
0.0
 10
2549.490281125047
 20
813.0757714372997
 30
0.0
 10
2549.565943702701
 20
813.0757714372997
 30
0.0
 10
2549.616662711874
 20
813.0757714372997
 30
0.0
 10
2549.668094938795
 20
813.0757714372997
 30
0.0
  0
ARC
  5
524
330
4E3
100
AcDbEntity
  8
0
  6
Continuous
 62
     7
370
    15
100
AcDbCircle
 10
2563.593051833939
 20
812.5757714372998
 30
0.0
 40
2.188421798069978
100
AcDbArc
 50
13.20731410364895
 51
166.792685896351
  0
SPLINE
  5
525
330
4E3
100
AcDbEntity
  8
0
  6
Continuous
 62
     7
370
    15
100
AcDbSpline
210
0.0
220
0.0
230
1.0
 70
    24
 71
     3
 72
    10
 73
     6
 74
     0
 42
0.0000000001
 43
0.0000000001
 40
0.0
 40
0.0
 40
0.0
 40
0.0
 40
0.5
 40
0.5
 40
1.0
 40
1.0
 40
1.0
 40
1.0
 10
2565.518008729083
 20
813.0757714372997
 30
0.0
 10
2565.569475312675
 20
813.0757714372997
 30
0.0
 10
2565.619874554642
 20
813.0757714372997
 30
0.0
 10
2565.695924552935
 20
813.0757714372997
 30
0.0
 10
2565.720195999573
 20
813.0757714372997
 30
0.0
 10
2565.723589316892
 20
813.0757714372997
 30
0.0
  0
SPLINE
  5
526
330
4E3
100
AcDbEntity
  8
0
  6
Continuous
 62
     7
370
    15
100
AcDbSpline
210
0.0
220
0.0
230
1.0
 70
    24
 71
     3
 72
    10
 73
     6
 74
     0
 42
0.0000000001
 43
0.0000000001
 40
0.0
 40
0.0
 40
0.0
 40
0.0
 40
0.5
 40
0.5
 40
1.0
 40
1.0
 40
1.0
 40
1.0
 10
2561.462514350986
 20
813.0757714372997
 30
0.0
 10
2561.465905089272
 20
813.0757714372997
 30
0.0
 10
2561.490281125047
 20
813.0757714372997
 30
0.0
 10
2561.565943702702
 20
813.0757714372997
 30
0.0
 10
2561.616662711874
 20
813.0757714372997
 30
0.0
 10
2561.668094938795
 20
813.0757714372997
 30
0.0
  0
ARC
  5
527
330
4E3
100
AcDbEntity
  8
0
  6
Continuous
 62
     7
370
    15
100
AcDbCircle
 10
2587.593051833939
 20
812.5757714372998
 30
0.0
 40
2.188421798069978
100
AcDbArc
 50
193.2073141036489
 51
346.792685896351
  0
SPLINE
  5
528
330
4E3
100
AcDbEntity
  8
0
  6
Continuous
 62
     7
370
    15
100
AcDbSpline
210
0.0
220
0.0
230
1.0
 70
    24
 71
     3
 72
    10
 73
     6
 74
     0
 42
0.0000000001
 43
0.0000000001
 40
0.0
 40
0.0
 40
0.0
 40
0.0
 40
0.5
 40
0.5
 40
1.0
 40
1.0
 40
1.0
 40
1.0
 10
2589.723589316892
 20
812.0757714372997
 30
0.0
 10
2589.720198578607
 20
812.0757714372997
 30
0.0
 10
2589.695822542832
 20
812.0757714372997
 30
0.0
 10
2589.620159965177
 20
812.0757714372997
 30
0.0
 10
2589.569440956005
 20
812.0757714372997
 30
0.0
 10
2589.518008729083
 20
812.0757714372997
 30
0.0
  0
SPLINE
  5
529
330
4E3
100
AcDbEntity
  8
0
  6
Continuous
 62
     7
370
    15
100
AcDbSpline
210
0.0
220
0.0
230
1.0
 70
    24
 71
     3
 72
    10
 73
     6
 74
     0
 42
0.0000000001
 43
0.0000000001
 40
0.0
 40
0.0
 40
0.0
 40
0.0
 40
0.5
 40
0.5
 40
1.0
 40
1.0
 40
1.0
 40
1.0
 10
2585.668094938796
 20
812.0757714372997
 30
0.0
 10
2585.616628355204
 20
812.0757714372997
 30
0.0
 10
2585.566229113236
 20
812.0757714372997
 30
0.0
 10
2585.490179114944
 20
812.0757714372997
 30
0.0
 10
2585.465907668306
 20
812.0757714372997
 30
0.0
 10
2585.462514350986
 20
812.0757714372997
 30
0.0
  0
LINE
  5
52A
330
4E3
100
AcDbEntity
  8
0
  6
Continuous
 62
     7
370
    15
100
AcDbLine
 10
2584.166318695804
 20
815.9257714372998
 30
0.0
 11
2579.019784972075
 21
815.9257714372998
 31
0.0
  0
ARC
  5
52B
330
4E3
100
AcDbEntity
  8
0
  6
Continuous
 62
     7
370
    15
100
AcDbCircle
 10
2575.593051833939
 20
826.0257714372997
 30
0.0
 40
17.15000000000023
100
AcDbArc
 50
258.4047273409468
 51
281.5952726590532
  0
LINE
  5
52C
330
4E3
100
AcDbEntity
  8
0
  6
Continuous
 62
     7
370
    15
100
AcDbLine
 10
2593.293051833939
 20
815.9257714372998
 30
0.0
 11
2591.019784972075
 21
815.9257714372998
 31
0.0
  0
ARC
  5
52D
330
4E3
100
AcDbEntity
  8
0
  6
Continuous
 62
     7
370
    15
100
AcDbCircle
 10
2551.593051833939
 20
826.0257714372997
 30
0.0
 40
17.15000000000022
100
AcDbArc
 50
258.4047273409468
 51
281.5952726590532
  0
LINE
  5
52E
330
4E3
100
AcDbEntity
  8
0
  6
Continuous
 62
     7
370
    15
100
AcDbLine
 10
2591.040152064569
 20
809.2257714372998
 30
0.0
 11
2593.293051833939
 21
809.2257714372998
 31
0.0
  0
ARC
  5
52F
330
4E3
100
AcDbEntity
  8
0
  6
Continuous
 62
     7
370
    15
100
AcDbCircle
 10
2551.593051833939
 20
799.3257714372994
 30
0.0
 40
16.95000000000021
100
AcDbArc
 50
78.33628343583801
 51
101.663716564162
  0
ARC
  5
530
330
4E3
100
AcDbEntity
  8
0
  6
Continuous
 62
     7
370
    15
100
AcDbCircle
 10
2563.593051833939
 20
826.0257714372997
 30
0.0
 40
17.1500000000002
100
AcDbArc
 50
258.4047273409468
 51
281.5952726590532
  0
LINE
  5
531
330
4E3
100
AcDbEntity
  8
0
  6
Continuous
 62
     7
370
    15
100
AcDbLine
 10
2579.040152064569
 20
809.2257714372998
 30
0.0
 11
2584.14595160331
 21
809.2257714372998
 31
0.0
  0
LINE
  5
532
330
4E3
100
AcDbEntity
  8
0
  6
Continuous
 62
     7
370
    15
100
AcDbLine
 10
2560.166318695804
 20
815.9257714372998
 30
0.0
 11
2555.019784972075
 21
815.9257714372998
 31
0.0
  0
LINE
  5
533
330
4E3
100
AcDbEntity
  8
0
  6
Continuous
 62
     7
370
    15
100
AcDbLine
 10
2593.293051833939
 20
809.2257714372998
 30
0.0
 11
2593.293051833939
 21
815.9257714372998
 31
0.0
  0
LINE
  5
534
330
4E3
100
AcDbEntity
  8
0
  6
Continuous
 62
     7
370
    15
100
AcDbLine
 10
2545.893051833939
 20
809.2257714372998
 30
0.0
 11
2548.14595160331
 21
809.2257714372998
 31
0.0
  0
ARC
  5
535
330
4E3
100
AcDbEntity
  8
0
  6
Continuous
 62
     7
370
    15
100
AcDbCircle
 10
2587.593051833939
 20
826.0257714372997
 30
0.0
 40
17.15000000000023
100
AcDbArc
 50
258.4047273409468
 51
281.5952726590532
  0
LINE
  5
536
330
4E3
100
AcDbEntity
  8
0
  6
Continuous
 62
     7
370
    15
100
AcDbLine
 10
2545.893051833939
 20
815.9257714372998
 30
0.0
 11
2545.893051833939
 21
809.2257714372998
 31
0.0
  0
LINE
  5
537
330
4E3
100
AcDbEntity
  8
0
  6
Continuous
 62
     7
370
    15
100
AcDbLine
 10
2548.166318695804
 20
815.9257714372998
 30
0.0
 11
2545.893051833939
 21
815.9257714372998
 31
0.0
  0
LINE
  5
538
330
4E3
100
AcDbEntity
  8
0
  6
Continuous
 62
     7
370
    15
100
AcDbLine
 10
2567.040152064569
 20
809.2257714372998
 30
0.0
 11
2572.14595160331
 21
809.2257714372998
 31
0.0
  0
LINE
  5
539
330
4E3
100
AcDbEntity
  8
0
  6
Continuous
 62
     7
370
    15
100
AcDbLine
 10
2555.040152064569
 20
809.2257714372998
 30
0.0
 11
2560.14595160331
 21
809.2257714372998
 31
0.0
  0
ARC
  5
53A
330
4E3
100
AcDbEntity
  8
0
  6
Continuous
 62
     7
370
    15
100
AcDbCircle
 10
2575.593051833939
 20
799.3257714372994
 30
0.0
 40
16.9500000000002
100
AcDbArc
 50
78.33628343583801
 51
101.663716564162
  0
ARC
  5
53B
330
4E3
100
AcDbEntity
  8
0
  6
Continuous
 62
     7
370
    15
100
AcDbCircle
 10
2563.593051833939
 20
799.3257714372994
 30
0.0
 40
16.95000000000021
100
AcDbArc
 50
78.33628343583801
 51
101.663716564162
  0
LINE
  5
53C
330
4E3
100
AcDbEntity
  8
0
  6
Continuous
 62
     7
370
    15
100
AcDbLine
 10
2572.166318695804
 20
815.9257714372998
 30
0.0
 11
2567.019784972075
 21
815.9257714372998
 31
0.0
  0
ARC
  5
53D
330
4E3
100
AcDbEntity
  8
0
  6
Continuous
 62
     7
370
    15
100
AcDbCircle
 10
2587.593051833939
 20
799.3257714372994
 30
0.0
 40
16.95000000000021
100
AcDbArc
 50
78.33628343583801
 51
101.663716564162
  0
ENDBLK
  5
4E5
330
4E3
100
AcDbEntity
  8
0
100
AcDbBlockEnd
  0
BLOCK
  5
540
330
53F
100
AcDbEntity
  8
0
100
AcDbBlockBegin
  2
4
 70
     0
 10
0.0
 20
0.0
 30
0.0
  3
4
  1

  0
LINE
  5
542
330
53F
100
AcDbEntity
  8
0
  6
Continuous
 62
     7
370
    15
100
AcDbLine
 10
2650.833413406028
 20
834.037910697962
 30
0.0
 11
2650.906248553475
 21
838.6348165431336
 31
0.0
  0
LINE
  5
543
330
53F
100
AcDbEntity
  8
0
  6
Continuous
 62
     7
370
    15
100
AcDbLine
 10
2644.057108219187
 20
838.7433369616342
 30
0.0
 11
2643.984273071741
 21
834.1464311164624
 31
0.0
  0
SPLINE
  5
544
330
53F
100
AcDbEntity
  8
0
  6
Continuous
 62
     7
370
    15
100
AcDbSpline
210
0.0
220
0.0
230
1.0
 70
     8
 71
     3
 72
    37
 73
    33
 74
     0
 42
0.0000000001
 43
0.0000000001
 40
0.0
 40
0.0
 40
0.0
 40
0.0
 40
0.0134034222684025
 40
0.0492205583821218
 40
0.0777521821112968
 40
0.0990385781959392
 40
0.114943133323426
 40
0.1321886767215915
 40
0.1725433656511937
 40
0.2180867772821235
 40
0.2601616327440907
 40
0.298122839552745
 40
0.3320156360442603
 40
0.364629312753223
 40
0.4003563206381509
 40
0.4392610543314333
 40
0.4813554586954395
 40
0.515039920765566
 40
0.5505368337226911
 40
0.5872568927192481
 40
0.6217346657946772
 40
0.663333707243038
 40
0.6999493929669395
 40
0.7315724994416993
 40
0.7598568857331472
 40
0.7913605531329769
 40
0.826809091671606
 40
0.8590634223547384
 40
0.8991311144606083
 40
0.9302425729243166
 40
0.964876142643668
 40
1.0
 40
1.0
 40
1.0
 40
1.0
 10
2644.003926417564
 20
833.9803000712493
 30
0.0
 10
2644.006135456129
 20
833.9552517492911
 30
0.0
 10
2644.014247571786
 20
833.8632683461998
 30
0.0
 10
2644.074848196217
 20
833.7211830398633
 30
0.0
 10
2644.160776423737
 20
833.5695163863174
 30
0.0
 10
2644.245814098346
 20
833.4575424974044
 30
0.0
 10
2644.325063729477
 20
833.3687461858099
 30
0.0
 10
2644.442308170146
 20
833.2538351698824
 30
0.0
 10
2644.63193090583
 20
833.1027884831437
 30
0.0
 10
2644.91154151546
 20
832.9335487794926
 30
0.0
 10
2645.227277651477
 20
832.7866403006051
 30
0.0
 10
2645.542923367897
 20
832.6713893511458
 30
0.0
 10
2645.852641420203
 20
832.5815968571742
 30
0.0
 10
2646.170922440722
 20
832.5088090040596
 30
0.0
 10
2646.518467983301
 20
832.4491776168628
 30
0.0
 10
2646.908553385012
 20
832.4048554473574
 30
0.0
 10
2647.299175794015
 20
832.383835460504
 30
0.0
 10
2647.679126627466
 20
832.3841858460225
 30
0.0
 10
2648.037896824775
 20
832.4025333176496
 30
0.0
 10
2648.3920607382
 20
832.4397762457625
 30
0.0
 10
2648.754290601591
 20
832.4982323076111
 30
0.0
 10
2649.099122588792
 20
832.5764154504716
 30
0.0
 10
2649.413094359805
 20
832.6714083554552
 30
0.0
 10
2649.669263606623
 20
832.7685580080228
 30
0.0
 10
2649.89401075899
 20
832.8715410801335
 30
0.0
 10
2650.109054968893
 20
832.9905755409257
 30
0.0
 10
2650.306698821296
 20
833.1266167407003
 30
0.0
 10
2650.491894408915
 20
833.288622203562
 30
0.0
 10
2650.636219757688
 20
833.4581677174394
 30
0.0
 10
2650.743961395412
 20
833.6423212086002
 30
0.0
 10
2650.814261994322
 20
833.8251279889785
 30
0.0
 10
2650.825492315667
 20
833.95545798984
 30
0.0
 10
2650.831146942299
 20
834.0210810001977
 30
0.0
  0
LINE
  5
545
330
53F
100
AcDbEntity
  8
0
  6
Continuous
 62
     7
370
    15
100
AcDbLine
 10
2650.393059307916
 20
833.0722213263033
 30
0.0
 11
2650.395241452847
 21
833.2099448724402
 31
0.0
  0
LINE
  5
546
330
53F
100
AcDbEntity
  8
0
  6
Continuous
 62
     7
370
    15
100
AcDbLine
 10
2644.395931755024
 20
833.3010426667025
 30
0.0
 11
2644.39381229978
 21
833.1672757074716
 31
0.0
  0
LINE
  5
547
330
53F
100
AcDbEntity
  8
0
  6
Continuous
 62
     7
370
    15
100
AcDbLine
 10
2650.143465213773
 20
820.0980023278429
 30
0.0
 11
2650.256476663087
 21
827.2305888624426
 31
0.0
  0
LINE
  5
548
330
53F
100
AcDbEntity
  8
0
  6
Continuous
 62
     7
370
    15
100
AcDbLine
 10
2644.279036816562
 20
828.7019769532102
 30
0.0
 11
2644.144218205638
 21
820.1930567090112
 31
0.0
  0
LINE
  5
549
330
53F
100
AcDbEntity
  8
0
  6
Continuous
 62
     7
370
    15
100
AcDbLine
 10
2642.332162317079
 20
838.1003675131028
 30
0.0
 11
2642.404997464525
 21
842.6972733582745
 31
0.0
  0
LINE
  5
54A
330
53F
100
AcDbEntity
  8
0
  6
Continuous
 62
     7
370
    15
100
AcDbLine
 10
2635.555857130237
 20
842.805793776775
 30
0.0
 11
2635.483021982791
 21
838.2088879316034
 31
0.0
  0
SPLINE
  5
54B
330
53F
100
AcDbEntity
  8
0
  6
Continuous
 62
     7
370
    15
100
AcDbSpline
210
0.0
220
0.0
230
1.0
 70
     8
 71
     3
 72
    37
 73
    33
 74
     0
 42
0.0000000001
 43
0.0000000001
 40
0.0
 40
0.0
 40
0.0
 40
0.0
 40
0.0134034222684
 40
0.0492205583821195
 40
0.0777521821112945
 40
0.099038578195937
 40
0.1149431333234237
 40
0.1321886767215896
 40
0.1725433656511923
 40
0.2180867772821235
 40
0.2601616327440912
 40
0.2981228395527455
 40
0.3320156360442603
 40
0.3646293127532225
 40
0.4003563206381501
 40
0.4392610543314318
 40
0.481355458695438
 40
0.5150399207655645
 40
0.5505368337226895
 40
0.5872568927192465
 40
0.6217346657946753
 40
0.6633337072430363
 40
0.6999493929669378
 40
0.7315724994416982
 40
0.7598568857331456
 40
0.7913605531329751
 40
0.8268090916716039
 40
0.8590634223547365
 40
0.8991311144606065
 40
0.9302425729243154
 40
0.9648761426436667
 40
1.0
 40
1.0
 40
1.0
 40
1.0
 10
2635.502675328614
 20
838.0427568863902
 30
0.0
 10
2635.504884367179
 20
838.0177085644319
 30
0.0
 10
2635.512996482836
 20
837.9257251613408
 30
0.0
 10
2635.573597107268
 20
837.7836398550041
 30
0.0
 10
2635.659525334787
 20
837.6319732014582
 30
0.0
 10
2635.744563009395
 20
837.5199993125452
 30
0.0
 10
2635.823812640528
 20
837.4312030009507
 30
0.0
 10
2635.941057081196
 20
837.3162919850233
 30
0.0
 10
2636.13067981688
 20
837.1652452982845
 30
0.0
 10
2636.41029042651
 20
836.9960055946336
 30
0.0
 10
2636.726026562527
 20
836.8490971157461
 30
0.0
 10
2637.041672278947
 20
836.7338461662868
 30
0.0
 10
2637.351390331253
 20
836.644053672315
 30
0.0
 10
2637.669671351772
 20
836.5712658192004
 30
0.0
 10
2638.017216894351
 20
836.5116344320037
 30
0.0
 10
2638.407302296062
 20
836.4673122624983
 30
0.0
 10
2638.797924705065
 20
836.446292275645
 30
0.0
 10
2639.177875538516
 20
836.4466426611635
 30
0.0
 10
2639.536645735825
 20
836.4649901327904
 30
0.0
 10
2639.89080964925
 20
836.5022330609034
 30
0.0
 10
2640.25303951264
 20
836.5606891227521
 30
0.0
 10
2640.597871499842
 20
836.6388722656123
 30
0.0
 10
2640.911843270855
 20
836.733865170596
 30
0.0
 10
2641.168012517674
 20
836.8310148231637
 30
0.0
 10
2641.39275967004
 20
836.9339978952744
 30
0.0
 10
2641.607803879943
 20
837.0530323560664
 30
0.0
 10
2641.805447732346
 20
837.1890735558411
 30
0.0
 10
2641.990643319965
 20
837.3510790187028
 30
0.0
 10
2642.134968668738
 20
837.5206245325804
 30
0.0
 10
2642.242710306462
 20
837.7047780237413
 30
0.0
 10
2642.313010905372
 20
837.8875848041193
 30
0.0
 10
2642.324241226717
 20
838.0179148049808
 30
0.0
 10
2642.32989585335
 20
838.0835378153385
 30
0.0
  0
LINE
  5
54C
330
53F
100
AcDbEntity
  8
0
  6
Continuous
 62
     7
370
    15
100
AcDbLine
 10
2644.585573327086
 20
819.4452035402314
 30
0.0
 11
2644.753323200669
 21
819.3150878678919
 31
0.0
  0
LINE
  5
54D
330
53F
100
AcDbEntity
  8
0
  6
Continuous
 62
     7
370
    15
100
AcDbLine
 10
2649.506851196488
 20
819.239771138743
 30
0.0
 11
2649.678639036675
 21
819.3645070447182
 31
0.0
  0
LINE
  5
54E
330
53F
100
AcDbEntity
  8
0
  6
Continuous
 62
     7
370
    15
100
AcDbLine
 10
2641.891808218966
 20
837.1346781414441
 30
0.0
 11
2641.893990363897
 21
837.272401687581
 31
0.0
  0
LINE
  5
54F
330
53F
100
AcDbEntity
  8
0
  6
Continuous
 62
     7
370
    15
100
AcDbLine
 10
2635.894680666075
 20
837.3634994818434
 30
0.0
 11
2635.892561210831
 21
837.2297325226126
 31
0.0
  0
LINE
  5
550
330
53F
100
AcDbEntity
  8
0
  6
Continuous
 62
     7
370
    15
100
AcDbLine
 10
2641.642214124824
 20
824.1604591429837
 30
0.0
 11
2641.736949431467
 21
830.1395681326011
 31
0.0
  0
LINE
  5
551
330
53F
100
AcDbEntity
  8
0
  6
Continuous
 62
     7
370
    15
100
AcDbLine
 10
2635.777785727612
 20
832.764433768351
 30
0.0
 11
2635.642967116688
 21
824.2555135241522
 31
0.0
  0
LINE
  5
552
330
53F
100
AcDbEntity
  8
0
  6
Continuous
 62
     7
370
    15
100
AcDbLine
 10
2633.830911228129
 20
842.1628243282437
 30
0.0
 11
2633.903746375575
 21
846.7597301734153
 31
0.0
  0
LINE
  5
553
330
53F
100
AcDbEntity
  8
0
  6
Continuous
 62
     7
370
    15
100
AcDbLine
 10
2627.054606041287
 20
846.868250591916
 30
0.0
 11
2626.981770893841
 21
842.2713447467444
 31
0.0
  0
SPLINE
  5
554
330
53F
100
AcDbEntity
  8
0
  6
Continuous
 62
     7
370
    15
100
AcDbSpline
210
0.0
220
0.0
230
1.0
 70
     8
 71
     3
 72
    37
 73
    33
 74
     0
 42
0.0000000001
 43
0.0000000001
 40
0.0
 40
0.0
 40
0.0
 40
0.0
 40
0.0134034222683991
 40
0.0492205583821186
 40
0.0777521821112937
 40
0.0990385781959361
 40
0.1149431333234231
 40
0.1321886767215886
 40
0.172543365651191
 40
0.2180867772821208
 40
0.2601616327440881
 40
0.2981228395527427
 40
0.3320156360442578
 40
0.364629312753221
 40
0.4003563206381491
 40
0.4392610543314317
 40
0.481355458695438
 40
0.5150399207655644
 40
0.5505368337226898
 40
0.5872568927192471
 40
0.6217346657946756
 40
0.6633337072430376
 40
0.6999493929669388
 40
0.7315724994416991
 40
0.7598568857331469
 40
0.7913605531329768
 40
0.826809091671606
 40
0.8590634223547386
 40
0.8991311144606088
 40
0.930242572924317
 40
0.9648761426436685
 40
1.0
 40
1.0
 40
1.0
 40
1.0
 10
2627.001424239664
 20
842.105213701531
 30
0.0
 10
2627.003633278229
 20
842.0801653795729
 30
0.0
 10
2627.011745393887
 20
841.9881819764817
 30
0.0
 10
2627.072346018318
 20
841.846096670145
 30
0.0
 10
2627.158274245837
 20
841.6944300165992
 30
0.0
 10
2627.243311920446
 20
841.5824561276862
 30
0.0
 10
2627.322561551578
 20
841.4936598160917
 30
0.0
 10
2627.439805992246
 20
841.3787488001643
 30
0.0
 10
2627.62942872793
 20
841.2277021134254
 30
0.0
 10
2627.90903933756
 20
841.0584624097745
 30
0.0
 10
2628.224775473577
 20
840.9115539308871
 30
0.0
 10
2628.540421189997
 20
840.7963029814277
 30
0.0
 10
2628.850139242303
 20
840.7065104874559
 30
0.0
 10
2629.168420262822
 20
840.6337226343413
 30
0.0
 10
2629.515965805401
 20
840.5740912471447
 30
0.0
 10
2629.906051207112
 20
840.5297690776391
 30
0.0
 10
2630.296673616115
 20
840.508749090786
 30
0.0
 10
2630.676624449567
 20
840.5090994763042
 30
0.0
 10
2631.035394646876
 20
840.5274469479314
 30
0.0
 10
2631.389558560301
 20
840.5646898760444
 30
0.0
 10
2631.751788423691
 20
840.6231459378929
 30
0.0
 10
2632.096620410892
 20
840.7013290807535
 30
0.0
 10
2632.410592181905
 20
840.796321985737
 30
0.0
 10
2632.666761428724
 20
840.8934716383045
 30
0.0
 10
2632.89150858109
 20
840.9964547104152
 30
0.0
 10
2633.106552790993
 20
841.1154891712074
 30
0.0
 10
2633.304196643396
 20
841.251530370982
 30
0.0
 10
2633.489392231015
 20
841.4135358338437
 30
0.0
 10
2633.633717579788
 20
841.5830813477212
 30
0.0
 10
2633.741459217512
 20
841.7672348388821
 30
0.0
 10
2633.811759816422
 20
841.9500416192603
 30
0.0
 10
2633.822990137767
 20
842.0803716201218
 30
0.0
 10
2633.828644764399
 20
842.1459946304794
 30
0.0
  0
LINE
  5
555
330
53F
100
AcDbEntity
  8
0
  6
Continuous
 62
     7
370
    15
100
AcDbLine
 10
2636.084322238136
 20
823.5076603553723
 30
0.0
 11
2636.252072111719
 21
823.377544683033
 31
0.0
  0
LINE
  5
556
330
53F
100
AcDbEntity
  8
0
  6
Continuous
 62
     7
370
    15
100
AcDbLine
 10
2641.005600107538
 20
823.302227953884
 30
0.0
 11
2641.177387947726
 21
823.426963859859
 31
0.0
  0
LINE
  5
557
330
53F
100
AcDbEntity
  8
0
  6
Continuous
 62
     7
370
    15
100
AcDbLine
 10
2633.390557130016
 20
841.1971349565851
 30
0.0
 11
2633.392739274947
 21
841.334858502722
 31
0.0
  0
LINE
  5
558
330
53F
100
AcDbEntity
  8
0
  6
Continuous
 62
     7
370
    15
100
AcDbLine
 10
2627.393429577124
 20
841.4259562969844
 30
0.0
 11
2627.391310121881
 21
841.2921893377534
 31
0.0
  0
LINE
  5
559
330
53F
100
AcDbEntity
  8
0
  6
Continuous
 62
     7
370
    15
100
AcDbLine
 10
2633.140963035874
 20
828.2229159581246
 30
0.0
 11
2633.235698342517
 21
834.2020249477421
 31
0.0
  0
LINE
  5
55A
330
53F
100
AcDbEntity
  8
0
  6
Continuous
 62
     7
370
    15
100
AcDbLine
 10
2627.276534638662
 20
836.826890583492
 30
0.0
 11
2627.141716027738
 21
828.3179703392931
 31
0.0
  0
LINE
  5
55B
330
53F
100
AcDbEntity
  8
0
  6
Continuous
 62
     7
370
    15
100
AcDbLine
 10
2625.329660139179
 20
846.2252811433847
 30
0.0
 11
2625.402495286625
 21
850.8221869885563
 31
0.0
  0
LINE
  5
55C
330
53F
100
AcDbEntity
  8
0
  6
Continuous
 62
     7
370
    15
100
AcDbLine
 10
2618.553354952337
 20
850.9307074070569
 30
0.0
 11
2618.480519804891
 21
846.3338015618852
 31
0.0
  0
SPLINE
  5
55D
330
53F
100
AcDbEntity
  8
0
  6
Continuous
 62
     7
370
    15
100
AcDbSpline
210
0.0
220
0.0
230
1.0
 70
     8
 71
     3
 72
    37
 73
    33
 74
     0
 42
0.0000000001
 43
0.0000000001
 40
0.0
 40
0.0
 40
0.0
 40
0.0
 40
0.0134034222683996
 40
0.0492205583821192
 40
0.0777521821112939
 40
0.0990385781959363
 40
0.1149431333234234
 40
0.1321886767215894
 40
0.1725433656511923
 40
0.2180867772821231
 40
0.2601616327440912
 40
0.2981228395527453
 40
0.3320156360442604
 40
0.3646293127532223
 40
0.4003563206381501
 40
0.4392610543314315
 40
0.4813554586954375
 40
0.5150399207655641
 40
0.5505368337226892
 40
0.5872568927192465
 40
0.6217346657946753
 40
0.6633337072430358
 40
0.6999493929669376
 40
0.7315724994416977
 40
0.7598568857331454
 40
0.791360553132975
 40
0.826809091671604
 40
0.859063422354737
 40
0.8991311144606068
 40
0.9302425729243152
 40
0.9648761426436664
 40
1.0
 40
1.0
 40
1.0
 40
1.0
 10
2618.500173150714
 20
846.167670516672
 30
0.0
 10
2618.502382189279
 20
846.1426221947137
 30
0.0
 10
2618.510494304937
 20
846.0506387916225
 30
0.0
 10
2618.571094929368
 20
845.9085534852858
 30
0.0
 10
2618.657023156887
 20
845.75688683174
 30
0.0
 10
2618.742060831495
 20
845.6449129428271
 30
0.0
 10
2618.821310462628
 20
845.5561166312325
 30
0.0
 10
2618.938554903296
 20
845.4412056153051
 30
0.0
 10
2619.12817763898
 20
845.2901589285664
 30
0.0
 10
2619.407788248611
 20
845.1209192249153
 30
0.0
 10
2619.723524384627
 20
844.9740107460279
 30
0.0
 10
2620.039170101047
 20
844.8587597965685
 30
0.0
 10
2620.348888153353
 20
844.7689673025967
 30
0.0
 10
2620.667169173872
 20
844.6961794494823
 30
0.0
 10
2621.014714716451
 20
844.6365480622855
 30
0.0
 10
2621.404800118162
 20
844.5922258927801
 30
0.0
 10
2621.795422527165
 20
844.5712059059268
 30
0.0
 10
2622.175373360617
 20
844.5715562914452
 30
0.0
 10
2622.534143557925
 20
844.5899037630724
 30
0.0
 10
2622.888307471351
 20
844.6271466911852
 30
0.0
 10
2623.250537334741
 20
844.6856027530339
 30
0.0
 10
2623.595369321942
 20
844.7637858958943
 30
0.0
 10
2623.909341092955
 20
844.8587788008778
 30
0.0
 10
2624.165510339774
 20
844.9559284534455
 30
0.0
 10
2624.39025749214
 20
845.0589115255562
 30
0.0
 10
2624.605301702044
 20
845.1779459863484
 30
0.0
 10
2624.802945554446
 20
845.313987186123
 30
0.0
 10
2624.988141142065
 20
845.4759926489847
 30
0.0
 10
2625.132466490838
 20
845.6455381628623
 30
0.0
 10
2625.240208128562
 20
845.8296916540231
 30
0.0
 10
2625.310508727473
 20
846.0124984344012
 30
0.0
 10
2625.321739048817
 20
846.1428284352628
 30
0.0
 10
2625.32739367545
 20
846.2084514456204
 30
0.0
  0
LINE
  5
55E
330
53F
100
AcDbEntity
  8
0
  6
Continuous
 62
     7
370
    15
100
AcDbLine
 10
2627.583071149186
 20
827.5701171705133
 30
0.0
 11
2627.75082102277
 21
827.4400014981738
 31
0.0
  0
LINE
  5
55F
330
53F
100
AcDbEntity
  8
0
  6
Continuous
 62
     7
370
    15
100
AcDbLine
 10
2632.504349018588
 20
827.3646847690248
 30
0.0
 11
2632.676136858775
 21
827.4894206749999
 31
0.0
  0
LINE
  5
560
330
53F
100
AcDbEntity
  8
0
  6
Continuous
 62
     7
370
    15
100
AcDbLine
 10
2624.889306041066
 20
845.259591771726
 30
0.0
 11
2624.891488185998
 21
845.3973153178628
 31
0.0
  0
LINE
  5
561
330
53F
100
AcDbEntity
  8
0
  6
Continuous
 62
     7
370
    15
100
AcDbLine
 10
2618.892178488175
 20
845.4884131121252
 30
0.0
 11
2618.89005903293
 21
845.3546461528944
 31
0.0
  0
LINE
  5
562
330
53F
100
AcDbEntity
  8
0
  6
Continuous
 62
     7
370
    15
100
AcDbLine
 10
2624.639711946924
 20
832.2853727732656
 30
0.0
 11
2624.734447253568
 21
838.2644817628829
 31
0.0
  0
LINE
  5
563
330
53F
100
AcDbEntity
  8
0
  6
Continuous
 62
     7
370
    15
100
AcDbLine
 10
2618.775283549712
 20
840.889347398633
 30
0.0
 11
2618.640464938788
 21
832.3804271544341
 31
0.0
  0
LINE
  5
564
330
53F
100
AcDbEntity
  8
0
  6
Continuous
 62
     7
370
    15
100
AcDbLine
 10
2619.081820060236
 20
831.6325739856541
 30
0.0
 11
2619.24956993382
 21
831.5024583133148
 31
0.0
  0
LINE
  5
565
330
53F
100
AcDbEntity
  8
0
  6
Continuous
 62
     7
370
    15
100
AcDbLine
 10
2624.003097929638
 20
831.4271415841657
 30
0.0
 11
2624.174885769826
 21
831.5518774901409
 31
0.0
  0
LWPOLYLINE
  5
566
330
53F
100
AcDbEntity
  8
0
  6
Continuous
 62
     7
370
    15
100
AcDbPolyline
 90
       53
 70
   128
 43
0.0
 10
2649.235061423434
 20
837.8511950342652
 10
2649.011766569721
 20
837.7611424248607
 10
2648.766159584836
 20
837.6846211874779
 10
2648.501821971677
 20
837.6227471740685
 10
2648.222608367881
 20
837.576422647076
 10
2647.932590336524
 20
837.5463231224181
 10
2647.635996993568
 20
837.5328875189421
 10
2647.337153337823
 20
837.5363117580013
 10
2647.040417182728
 20
837.5565459064793
 10
2646.750115609615
 20
837.5932949049282
 10
2646.470481869122
 20
837.6460228701986
 10
2646.205593650866
 20
837.7139609098245
 10
2645.959313621546
 20
837.7961183342048
 10
2645.735233098565
 20
837.8912971030892
 10
2645.536619680529
 20
837.9981092957038
 10
2645.366369598316
 20
838.1149973497601
 10
2645.226965481493
 20
838.2402567742213
 10
2645.120440155994
 20
838.3720610046186
 10
2645.048347000938
 20
838.5084880384756
 10
2645.011737296866
 20
838.647548462432
 10
2645.011144895702
 20
838.7872144623695
 10
2645.046578435988
 20
838.9254493935087
 10
2645.117521216918
 20
839.0602374792756
 10
2645.222938732996
 20
839.1896132058633
 10
2645.361293759458
 20
839.3116899838496
 10
2645.53056876847
 20
839.4246876589182
 10
2645.728295349227
 20
839.5269584705181
 10
2645.95159020294
 20
839.6170110799225
 10
2646.197197187825
 20
839.6935323173053
 10
2646.461534800984
 20
839.7554063307147
 10
2646.740748404781
 20
839.8017308577072
 10
2647.030766436138
 20
839.8318303823652
 10
2647.327359779094
 20
839.8452659858412
 10
2647.626203434839
 20
839.8418417467819
 10
2647.922939589934
 20
839.8216075983039
 10
2648.213241163047
 20
839.7848585998552
 10
2648.49287490354
 20
839.7321306345846
 10
2648.757763121795
 20
839.6641925949586
 10
2649.004043151115
 20
839.5820351705786
 10
2649.228123674097
 20
839.486856401694
 10
2649.426737092132
 20
839.3800442090794
 10
2649.596987174345
 20
839.263156155023
 10
2649.736391291169
 20
839.137896730562
 10
2649.842916616668
 20
839.0060925001646
 10
2649.915009771724
 20
838.8696654663077
 10
2649.951619475795
 20
838.7306050423513
 10
2649.95221187696
 20
838.5909390424137
 10
2649.916778336673
 20
838.4527041112745
 10
2649.845835555745
 20
838.3179160255076
 10
2649.740418039666
 20
838.1885402989198
 10
2649.602063013204
 20
838.0664635209338
 10
2649.432788004192
 20
837.953465845865
 10
2649.235061423434
 20
837.8511950342652
  0
LWPOLYLINE
  5
567
330
53F
100
AcDbEntity
  8
0
  6
Continuous
 62
     7
370
    15
100
AcDbPolyline
 90
       62
 70
   128
 43
0.0
 10
2645.055279638026
 20
839.8485696350387
 10
2645.316637435957
 20
839.9559383640724
 10
2645.60094520656
 20
840.0498780448639
 10
2645.905189216741
 20
840.1293928934277
 10
2646.226144404304
 20
840.1936400325876
 10
2646.560408564417
 20
840.241938426686
 10
2646.904438413827
 20
840.2737761007301
 10
2647.254587150546
 20
840.2888155674547
 10
2647.607143110858
 20
840.2868974047713
 10
2647.958369113878
 20
840.2680419456814
 10
2648.3045420766
 20
840.2324490627421
 10
2648.641992479499
 20
840.180496049367
 10
2648.967143264359
 20
840.1127336204222
 10
2649.276547751972
 20
840.0298800745121
 10
2649.566926177798
 20
839.9328136798345
 10
2649.835200458285
 20
839.8225633643205
 10
2650.078526819322
 20
839.7002978087416
 10
2650.294325940949
 20
839.5673130584031
 10
2650.480310298793
 20
839.4250187847411
 10
2650.634508412392
 20
839.2749233424554
 10
2650.755285743384
 20
839.1186177805732
 10
2650.841362022012
 20
838.9577589769348
 10
2650.891824818311
 20
838.7940520748761
 10
2650.906139214086
 20
838.6292324082841
 10
2650.88415347318
 20
838.4650471066272
 10
2650.826100649918
 20
838.3032365749473
 10
2650.732596118667
 20
838.145516045134
 10
2650.604631050719
 20
837.9935573940395
 10
2650.44356190763
 20
837.8489714211685
 10
2650.251096062385
 20
837.7132907738019
 10
2650.029273700823
 20
837.5879537005555
 10
2649.780446195161
 20
837.4742888055857
 10
2649.507251178857
 20
837.3735009650559
 10
2649.21258458705
 20
837.2866585551484
 10
2648.899569958917
 20
837.2146821270126
 10
2648.571525327384
 20
837.158334648692
 10
2648.231928047153
 20
837.1182134174743
 10
2647.884377933878
 20
837.0947437283918
 10
2647.532559105219
 20
837.0881743659872
 10
2647.180200928282
 20
837.098574967136
 10
2646.8310384874
 20
837.1258352828791
 10
2646.488772991305
 20
837.1696663470878
 10
2646.157032539405
 20
837.2296035395773
 10
2645.839333663014
 20
837.3050115111972
 10
2645.539044049259
 20
837.3950909186888
 10
2645.259346842747
 20
837.4988868979233
 10
2645.003206903448
 20
837.6152991856995
 10
2644.77333937844
 20
837.7430937828073
 10
2644.572180920671
 20
837.8809160347255
 10
2644.401863859835
 20
838.0273049912975
 10
2644.264193599149
 20
838.1807088931669
 10
2644.160629477623
 20
838.3395016208108
 10
2644.092269300709
 20
838.5019999318135
 10
2644.05983770329
 20
838.6664813036537
 10
2644.063678468364
 20
838.8312021928712
 10
2644.103750882867
 20
838.994416517063
 10
2644.179630169237
 20
839.1543941637896
 10
2644.290511988162
 20
839.309439330198
 10
2644.435220964776
 20
839.4579084989533
 10
2644.612223147929
 20
839.5982278599323
 10
2644.819642270445
 20
839.7289099930009
 10
2645.055279638026
 20
839.8485696350387
  0
LINE
  5
568
330
53F
100
AcDbEntity
  8
0
  6
Continuous
 62
     7
370
    15
100
AcDbLine
 10
2643.984723821326
 20
834.1060367672751
 30
0.0
 11
2643.984273071741
 21
834.1464311164624
 31
0.0
  0
LINE
  5
569
330
53F
100
AcDbEntity
  8
0
  6
Continuous
 62
     7
370
    15
100
AcDbLine
 10
2650.833413406028
 20
834.037910697962
 30
0.0
 11
2650.833144896095
 21
834.0264809868967
 31
0.0
  0
LWPOLYLINE
  5
56A
330
53F
100
AcDbEntity
  8
0
  6
Continuous
 62
     7
370
    15
100
AcDbPolyline
 90
       30
 70
   128
 43
0.0
 10
2618.89005903293
 20
845.3546461528944
 10
2618.904497768603
 20
845.2063212790928
 10
2618.955046084084
 20
845.0530625780903
 10
2619.041216910739
 20
844.9028877774384
 10
2619.161964251464
 20
844.7576197957848
 10
2619.31582239711
 20
844.6190219896417
 10
2619.50092371821
 20
844.4887767486255
 10
2619.715021335473
 20
844.368465073528
 10
2619.955516393847
 20
844.259547385106
 10
2620.219489609109
 20
844.1633457965533
 10
2620.503736704011
 20
844.0810280648365
 10
2620.804807303875
 20
844.0135934157083
 10
2621.119046819457
 20
843.9618604144598
 10
2621.44264080872
 20
843.9264570296467
 10
2621.771661278986
 20
843.9078130104018
 10
2622.102114367447
 20
843.9061546698631
 10
2622.429988821255
 20
843.9215021380382
 10
2622.75130468869
 20
843.9536691174536
 10
2623.062161630388
 20
844.0022651445538
 10
2623.358786264175
 20
844.0667003293999
 10
2623.637577968814
 20
844.1461925161338
 10
2623.895152590673
 20
844.2397767772915
 10
2624.128383522762
 20
844.3463171267154
 10
2624.334439657508
 20
844.4645203088869
 10
2624.510819752567
 20
844.5929514972965
 10
2624.655382792516
 20
844.7300517112942
 10
2624.76637397788
 20
844.8741567400036
 10
2624.842446026021
 20
845.0235173435855
 10
2624.882675525324
 20
845.1763204866418
 10
2624.889306041066
 20
845.259591771726
  0
LWPOLYLINE
  5
56B
330
53F
100
AcDbEntity
  8
0
  6
Continuous
 62
     7
370
    15
100
AcDbPolyline
 90
       30
 70
   128
 43
0.0
 10
2627.391310121881
 20
841.2921893377534
 10
2627.405748857553
 20
841.1438644639517
 10
2627.456297173034
 20
840.9906057629493
 10
2627.54246799969
 20
840.8404309622975
 10
2627.663215340414
 20
840.6951629806439
 10
2627.81707348606
 20
840.5565651745005
 10
2628.00217480716
 20
840.4263199334847
 10
2628.216272424423
 20
840.3060082583872
 10
2628.456767482797
 20
840.197090569965
 10
2628.720740698059
 20
840.1008889814121
 10
2629.004987792962
 20
840.0185712496956
 10
2629.306058392825
 20
839.9511366005674
 10
2629.620297908408
 20
839.8994035993188
 10
2629.943891897671
 20
839.8640002145057
 10
2630.272912367936
 20
839.845356195261
 10
2630.603365456397
 20
839.8436978547222
 10
2630.931239910205
 20
839.8590453228973
 10
2631.25255577764
 20
839.8912123023126
 10
2631.563412719338
 20
839.9398083294128
 10
2631.860037353125
 20
840.0042435142589
 10
2632.138829057764
 20
840.0837357009928
 10
2632.396403679623
 20
840.1773199621507
 10
2632.629634611712
 20
840.2838603115746
 10
2632.835690746458
 20
840.4020634937459
 10
2633.012070841518
 20
840.5304946821555
 10
2633.156633881466
 20
840.6675948961535
 10
2633.26762506683
 20
840.8116999248628
 10
2633.343697114971
 20
840.9610605284445
 10
2633.383926614275
 20
841.1138636715008
 10
2633.390557130016
 20
841.1971349565851
  0
LWPOLYLINE
  5
56C
330
53F
100
AcDbEntity
  8
0
  6
Continuous
 62
     7
370
    15
100
AcDbPolyline
 90
       30
 70
   128
 43
0.0
 10
2644.39381229978
 20
833.1672757074716
 10
2644.408251035453
 20
833.0189508336699
 10
2644.458799350934
 20
832.8656921326675
 10
2644.54497017759
 20
832.7155173320157
 10
2644.665717518314
 20
832.5702493503621
 10
2644.819575663959
 20
832.4316515442188
 10
2645.00467698506
 20
832.3014063032028
 10
2645.218774602322
 20
832.1810946281052
 10
2645.459269660697
 20
832.0721769396833
 10
2645.723242875959
 20
831.9759753511304
 10
2646.007489970861
 20
831.8936576194136
 10
2646.308560570725
 20
831.8262229702856
 10
2646.622800086307
 20
831.7744899690371
 10
2646.94639407557
 20
831.739086584224
 10
2647.275414545835
 20
831.7204425649791
 10
2647.605867634297
 20
831.7187842244404
 10
2647.933742088105
 20
831.7341316926155
 10
2648.25505795554
 20
831.7662986720309
 10
2648.565914897238
 20
831.8148946991311
 10
2648.862539531024
 20
831.8793298839771
 10
2649.141331235663
 20
831.958822070711
 10
2649.398905857522
 20
832.0524063318687
 10
2649.632136789611
 20
832.1589466812927
 10
2649.838192924358
 20
832.2771498634642
 10
2650.014573019417
 20
832.4055810518737
 10
2650.159136059366
 20
832.5426812658715
 10
2650.27012724473
 20
832.6867862945809
 10
2650.346199292871
 20
832.8361468981627
 10
2650.386428792174
 20
832.9889500412189
 10
2650.393059307916
 20
833.0722213263033
  0
ARC
  5
56D
330
53F
100
AcDbEntity
  8
0
  6
Continuous
 62
     7
370
    15
100
AcDbCircle
 10
2635.940543739743
 20
826.2627032779782
 30
0.0
 40
13.32086724126927
100
AcDbArc
 50
54.45943523137454
 51
61.41386765540357
  0
LINE
  5
56E
330
53F
100
AcDbEntity
  8
0
  6
Continuous
 62
     7
370
    15
100
AcDbLine
 10
2644.028490750762
 20
836.937178637107
 30
0.0
 11
2643.683686723405
 21
837.1019486757949
 31
0.0
  0
ARC
  5
56F
330
53F
100
AcDbEntity
  8
0
  6
Continuous
 62
     7
370
    15
100
AcDbCircle
 10
2644.441794828699
 20
822.2002464628488
 30
0.0
 40
13.32086724125633
100
AcDbArc
 50
54.45943523137454
 51
61.41386765540357
  0
LINE
  5
570
330
53F
100
AcDbEntity
  8
0
  6
Continuous
 62
     7
370
    15
100
AcDbLine
 10
2653.795405511096
 20
832.2699044893528
 30
0.0
 11
2652.184937812355
 21
833.0394918606542
 31
0.0
  0
LINE
  5
571
330
53F
100
AcDbEntity
  8
0
  6
Continuous
 62
     7
370
    15
100
AcDbLine
 10
2649.067654631102
 20
830.1102585700387
 30
0.0
 11
2653.795405511096
 21
832.2699044893528
 31
0.0
  0
LINE
  5
572
330
53F
100
AcDbEntity
  8
0
  6
Continuous
 62
     7
370
    15
100
AcDbLine
 10
2647.471615746297
 20
830.8729509051973
 30
0.0
 11
2649.067654631102
 21
830.1102585700387
 31
0.0
  0
ARC
  5
573
330
53F
100
AcDbEntity
  8
0
  6
Continuous
 62
     7
370
    15
100
AcDbCircle
 10
2652.535328854551
 20
847.7467811518934
 30
0.0
 40
17.61724546111047
100
AcDbArc
 50
235.6210395231084
 51
253.2958836498253
  0
LINE
  5
574
330
53F
100
AcDbEntity
  8
0
  6
Continuous
 62
     7
370
    15
100
AcDbLine
 10
2638.970364657348
 20
834.9354077203383
 30
0.0
 11
2642.587504981404
 21
833.2069002092632
 31
0.0
  0
ARC
  5
575
330
53F
100
AcDbEntity
  8
0
  6
Continuous
 62
     7
370
    15
100
AcDbCircle
 10
2644.034077765602
 20
851.8092379670358
 30
0.0
 40
17.61724546111195
100
AcDbArc
 50
235.6210395231084
 51
253.2958836498253
  0
LINE
  5
576
330
53F
100
AcDbEntity
  8
0
  6
Continuous
 62
     7
370
    15
100
AcDbLine
 10
2630.469113568397
 20
838.9978645354792
 30
0.0
 11
2634.086253892454
 21
837.2693570244042
 31
0.0
  0
ARC
  5
577
330
53F
100
AcDbEntity
  8
0
  6
Continuous
 62
     7
370
    15
100
AcDbCircle
 10
2635.532826676653
 20
855.8716947821782
 30
0.0
 40
17.61724546111372
100
AcDbArc
 50
235.6210395231121
 51
253.2958836498253
  0
LINE
  5
578
330
53F
100
AcDbEntity
  8
0
  6
Continuous
 62
     7
370
    15
100
AcDbLine
 10
2621.967862479448
 20
843.06032135062
 30
0.0
 11
2625.585002803504
 21
841.3318138395451
 31
0.0
  0
ARC
  5
579
330
53F
100
AcDbEntity
  8
0
  6
Continuous
 62
     7
370
    15
100
AcDbCircle
 10
2627.031575587702
 20
859.9341515973174
 30
0.0
 40
17.61724546111176
100
AcDbArc
 50
235.6210395231084
 51
253.2958836498253
  0
LINE
  5
57A
330
53F
100
AcDbEntity
  8
0
  6
Continuous
 62
     7
370
    15
100
AcDbLine
 10
2615.48771282975
 20
846.1569629898448
 30
0.0
 11
2617.083751714555
 21
845.3942706546859
 31
0.0
  0
LINE
  5
57B
330
53F
100
AcDbEntity
  8
0
  6
Continuous
 62
     7
370
    15
100
AcDbLine
 10
2618.499516578263
 20
847.5327608777529
 30
0.0
 11
2615.48771282975
 21
846.1569629898448
 31
0.0
  0
ARC
  5
57C
330
53F
100
AcDbEntity
  8
0
  6
Continuous
 62
     7
370
    15
100
AcDbCircle
 10
2618.938041561848
 20
834.3876169082678
 30
0.0
 40
13.32086724126046
100
AcDbArc
 50
54.45943523137454
 51
61.41386765540357
  0
LINE
  5
57D
330
53F
100
AcDbEntity
  8
0
  6
Continuous
 62
     7
370
    15
100
AcDbLine
 10
2627.025988572862
 20
845.0620922673888
 30
0.0
 11
2626.681184545505
 21
845.2268623060769
 31
0.0
  0
ARC
  5
57E
330
53F
100
AcDbEntity
  8
0
  6
Continuous
 62
     7
370
    15
100
AcDbCircle
 10
2627.439292650802
 20
830.325160093135
 30
0.0
 40
13.32086724125097
100
AcDbArc
 50
54.45943523137074
 51
61.41386765540357
  0
LINE
  5
57F
330
53F
100
AcDbEntity
  8
0
  6
Continuous
 62
     7
370
    15
100
AcDbLine
 10
2635.527239661812
 20
840.9996354522478
 30
0.0
 11
2635.182435634455
 21
841.1644054909359
 31
0.0
  0
LWPOLYLINE
  5
580
330
53F
100
AcDbEntity
  8
0
  6
Continuous
 62
     7
370
    15
100
AcDbPolyline
 90
       30
 70
   128
 43
0.0
 10
2635.892561210831
 20
837.2297325226126
 10
2635.906999946503
 20
837.0814076488109
 10
2635.957548261984
 20
836.9281489478085
 10
2636.043719088639
 20
836.7779741471567
 10
2636.164466429363
 20
836.6327061655029
 10
2636.31832457501
 20
836.4941083593597
 10
2636.50342589611
 20
836.3638631183437
 10
2636.717523513372
 20
836.2435514432462
 10
2636.958018571747
 20
836.1346337548242
 10
2637.221991787008
 20
836.0384321662714
 10
2637.506238881912
 20
835.9561144345546
 10
2637.807309481775
 20
835.8886797854266
 10
2638.121548997358
 20
835.8369467841781
 10
2638.44514298662
 20
835.8015433993648
 10
2638.774163456885
 20
835.78289938012
 10
2639.104616545347
 20
835.7812410395814
 10
2639.432490999155
 20
835.7965885077563
 10
2639.75380686659
 20
835.8287554871717
 10
2640.064663808288
 20
835.877351514272
 10
2640.361288442074
 20
835.9417866991179
 10
2640.640080146714
 20
836.0212788858518
 10
2640.897654768572
 20
836.1148631470097
 10
2641.130885700662
 20
836.2214034964335
 10
2641.336941835408
 20
836.339606678605
 10
2641.513321930467
 20
836.4680378670145
 10
2641.657884970416
 20
836.6051380810125
 10
2641.76887615578
 20
836.7492431097216
 10
2641.844948203921
 20
836.8986037133035
 10
2641.885177703224
 20
837.0514068563601
 10
2641.891808218966
 20
837.1346781414441
  0
LINE
  5
581
330
53F
100
AcDbEntity
  8
0
  6
Continuous
 62
     7
370
    15
100
AcDbLine
 10
2649.013028270517
 20
826.6625791861599
 30
0.0
 11
2647.416989385713
 21
827.4252715213187
 31
0.0
  0
LINE
  5
582
330
53F
100
AcDbEntity
  8
0
  6
Continuous
 62
     7
370
    15
100
AcDbLine
 10
2647.416989385713
 20
827.4252715213187
 30
0.0
 11
2647.471615746297
 21
830.8729509051973
 31
0.0
  0
LINE
  5
583
330
53F
100
AcDbEntity
  8
0
  6
Continuous
 62
     7
370
    15
100
AcDbLine
 10
2649.067654631102
 20
830.1102585700387
 30
0.0
 11
2649.013028270517
 21
826.6625791861599
 31
0.0
  0
LINE
  5
584
330
53F
100
AcDbEntity
  8
0
  6
Continuous
 62
     7
370
    15
100
AcDbLine
 10
2653.795405511096
 20
832.2699044893528
 30
0.0
 11
2653.740779150512
 21
828.8222251054742
 31
0.0
  0
LINE
  5
585
330
53F
100
AcDbEntity
  8
0
  6
Continuous
 62
     7
370
    15
100
AcDbLine
 10
2653.740779150512
 20
828.8222251054742
 30
0.0
 11
2649.013028270517
 21
826.6625791861599
 31
0.0
  0
ARC
  5
586
330
53F
100
AcDbEntity
  8
0
  6
Continuous
 62
     7
370
    15
100
AcDbCircle
 10
2652.480702493968
 20
844.2991017680183
 30
0.0
 40
17.61724546111442
100
AcDbArc
 50
235.6210395231121
 51
253.2958836498253
  0
LINE
  5
587
330
53F
100
AcDbEntity
  8
0
  6
Continuous
 62
     7
370
    15
100
AcDbLine
 10
2642.587504981404
 20
833.2069002092632
 30
0.0
 11
2642.53287862082
 21
829.7592208253846
 31
0.0
  0
LWPOLYLINE
  5
588
330
53F
100
AcDbEntity
  8
0
  6
Continuous
 62
     7
370
    15
100
AcDbPolyline
 90
       30
 70
   128
 43
0.0
 10
2644.144218205638
 20
820.1930567090112
 10
2644.158656941311
 20
820.0447318352097
 10
2644.209205256792
 20
819.8914731342071
 10
2644.295376083447
 20
819.7412983335553
 10
2644.416123424172
 20
819.5960303519017
 10
2644.569981569818
 20
819.4574325457585
 10
2644.755082890918
 20
819.3271873047425
 10
2644.96918050818
 20
819.206875629645
 10
2645.209675566555
 20
819.0979579412228
 10
2645.473648781817
 20
819.0017563526701
 10
2645.757895876719
 20
818.9194386209534
 10
2646.058966476583
 20
818.8520039718252
 10
2646.373205992165
 20
818.8002709705767
 10
2646.696799981428
 20
818.7648675857637
 10
2647.025820451693
 20
818.7462235665188
 10
2647.356273540155
 20
818.74456522598
 10
2647.684147993962
 20
818.7599126941551
 10
2648.005463861398
 20
818.7920796735706
 10
2648.316320803095
 20
818.8406757006708
 10
2648.612945436882
 20
818.9051108855167
 10
2648.891737141521
 20
818.9846030722506
 10
2649.14931176338
 20
819.0781873334085
 10
2649.382542695469
 20
819.1847276828324
 10
2649.588598830216
 20
819.3029308650038
 10
2649.764978925275
 20
819.4313620534133
 10
2649.909541965224
 20
819.5684622674113
 10
2650.020533150588
 20
819.7125672961204
 10
2650.096605198728
 20
819.8619278997025
 10
2650.136834698032
 20
820.0147310427587
 10
2650.143465213773
 20
820.0980023278429
  0
LINE
  5
589
330
53F
100
AcDbEntity
  8
0
  6
Continuous
 62
     7
370
    15
100
AcDbLine
 10
2638.915738296763
 20
831.4877283364594
 30
0.0
 11
2638.970364657348
 21
834.9354077203383
 31
0.0
  0
LINE
  5
58A
330
53F
100
AcDbEntity
  8
0
  6
Continuous
 62
     7
370
    15
100
AcDbLine
 10
2642.53287862082
 20
829.7592208253846
 30
0.0
 11
2638.915738296763
 21
831.4877283364594
 31
0.0
  0
LWPOLYLINE
  5
58B
330
53F
100
AcDbEntity
  8
0
  6
Continuous
 62
     7
370
    15
100
AcDbPolyline
 90
       53
 70
   128
 43
0.0
 10
2640.733810334484
 20
841.9136518494063
 10
2640.510515480771
 20
841.8235992400019
 10
2640.264908495887
 20
841.7470780026189
 10
2640.000570882727
 20
841.6852039892097
 10
2639.72135727893
 20
841.6388794622172
 10
2639.431339247574
 20
841.608779937559
 10
2639.134745904617
 20
841.5953443340832
 10
2638.835902248873
 20
841.5987685731423
 10
2638.539166093778
 20
841.6190027216204
 10
2638.248864520665
 20
841.6557517200692
 10
2637.969230780172
 20
841.7084796853398
 10
2637.704342561916
 20
841.7764177249656
 10
2637.458062532596
 20
841.8585751493457
 10
2637.233982009615
 20
841.9537539182302
 10
2637.03536859158
 20
842.0605661108449
 10
2636.865118509367
 20
842.1774541649012
 10
2636.725714392543
 20
842.3027135893622
 10
2636.619189067044
 20
842.4345178197595
 10
2636.547095911988
 20
842.5709448536165
 10
2636.510486207916
 20
842.7100052775729
 10
2636.509893806752
 20
842.8496712775103
 10
2636.545327347039
 20
842.9879062086495
 10
2636.616270127968
 20
843.1226942944164
 10
2636.721687644046
 20
843.2520700210041
 10
2636.860042670508
 20
843.3741467989902
 10
2637.02931767952
 20
843.487144474059
 10
2637.227044260278
 20
843.5894152856587
 10
2637.450339113991
 20
843.6794678950631
 10
2637.695946098876
 20
843.7559891324461
 10
2637.960283712035
 20
843.8178631458553
 10
2638.239497315832
 20
843.8641876728478
 10
2638.529515347188
 20
843.894287197506
 10
2638.826108690144
 20
843.9077228009818
 10
2639.124952345889
 20
843.9042985619227
 10
2639.421688500984
 20
843.8840644134446
 10
2639.711990074097
 20
843.8473154149958
 10
2639.99162381459
 20
843.7945874497252
 10
2640.256512032845
 20
843.7266494100994
 10
2640.502792062165
 20
843.6444919857192
 10
2640.726872585148
 20
843.5493132168348
 10
2640.925486003182
 20
843.4425010242202
 10
2641.095736085395
 20
843.3256129701637
 10
2641.235140202218
 20
843.2003535457027
 10
2641.341665527717
 20
843.0685493153054
 10
2641.413758682773
 20
842.9321222814484
 10
2641.450368386845
 20
842.793061857492
 10
2641.450960788009
 20
842.6533958575546
 10
2641.415527247723
 20
842.5151609264155
 10
2641.344584466794
 20
842.3803728406486
 10
2641.239166950716
 20
842.2509971140609
 10
2641.100811924254
 20
842.1289203360748
 10
2640.931536915241
 20
842.0159226610062
 10
2640.733810334484
 20
841.9136518494063
  0
LWPOLYLINE
  5
58C
330
53F
100
AcDbEntity
  8
0
  6
Continuous
 62
     7
370
    15
100
AcDbPolyline
 90
       62
 70
   128
 43
0.0
 10
2636.554028549076
 20
843.9110264501795
 10
2636.815386347007
 20
844.0183951792132
 10
2637.099694117611
 20
844.1123348600049
 10
2637.403938127792
 20
844.1918497085685
 10
2637.724893315354
 20
844.2560968477286
 10
2638.059157475467
 20
844.3043952418269
 10
2638.403187324877
 20
844.3362329158711
 10
2638.753336061596
 20
844.3512723825957
 10
2639.105892021908
 20
844.3493542199123
 10
2639.457118024929
 20
844.3304987608224
 10
2639.803290987649
 20
844.2949058778831
 10
2640.140741390549
 20
844.242952864508
 10
2640.46589217541
 20
844.1751904355633
 10
2640.775296663022
 20
844.092336889653
 10
2641.065675088848
 20
843.9952704949755
 10
2641.333949369335
 20
843.8850201794615
 10
2641.577275730372
 20
843.7627546238825
 10
2641.793074851999
 20
843.629769873544
 10
2641.979059209843
 20
843.4874755998819
 10
2642.133257323442
 20
843.3373801575962
 10
2642.254034654433
 20
843.1810745957141
 10
2642.340110933062
 20
843.0202157920758
 10
2642.390573729361
 20
842.8565088900169
 10
2642.404888125135
 20
842.6916892234251
 10
2642.38290238423
 20
842.527503921768
 10
2642.324849560968
 20
842.3656933900881
 10
2642.231345029717
 20
842.2079728602748
 10
2642.103379961769
 20
842.0560142091805
 10
2641.94231081868
 20
841.9114282363093
 10
2641.749844973435
 20
841.7757475889429
 10
2641.528022611872
 20
841.6504105156963
 10
2641.27919510621
 20
841.5367456207267
 10
2641.006000089908
 20
841.4359577801967
 10
2640.7113334981
 20
841.3491153702894
 10
2640.398318869967
 20
841.2771389421534
 10
2640.070274238434
 20
841.2207914638328
 10
2639.730676958203
 20
841.1806702326153
 10
2639.383126844928
 20
841.1572005435328
 10
2639.031308016269
 20
841.1506311811281
 10
2638.678949839333
 20
841.161031782277
 10
2638.329787398449
 20
841.18829209802
 10
2637.987521902355
 20
841.2321231622286
 10
2637.655781450455
 20
841.2920603547183
 10
2637.338082574065
 20
841.3674683263382
 10
2637.037792960309
 20
841.4575477338296
 10
2636.758095753797
 20
841.5613437130641
 10
2636.501955814499
 20
841.6777560008403
 10
2636.27208828949
 20
841.8055505979483
 10
2636.070929831721
 20
841.9433728498663
 10
2635.900612770885
 20
842.0897618064385
 10
2635.762942510199
 20
842.2431657083077
 10
2635.659378388673
 20
842.4019584359516
 10
2635.591018211759
 20
842.5644567469543
 10
2635.558586614339
 20
842.7289381187945
 10
2635.562427379414
 20
842.8936590080121
 10
2635.602499793918
 20
843.056873332204
 10
2635.678379080288
 20
843.2168509789306
 10
2635.789260899212
 20
843.371896145339
 10
2635.933969875826
 20
843.5203653140943
 10
2636.110972058979
 20
843.6606846750731
 10
2636.318391181495
 20
843.7913668081417
 10
2636.554028549076
 20
843.9110264501795
  0
LINE
  5
58D
330
53F
100
AcDbEntity
  8
0
  6
Continuous
 62
     7
370
    15
100
AcDbLine
 10
2635.483472732376
 20
838.1684935824161
 30
0.0
 11
2635.483021982791
 21
838.2088879316034
 31
0.0
  0
LINE
  5
58E
330
53F
100
AcDbEntity
  8
0
  6
Continuous
 62
     7
370
    15
100
AcDbLine
 10
2642.332162317079
 20
838.1003675131028
 30
0.0
 11
2642.331893807145
 21
838.0889378020377
 31
0.0
  0
LINE
  5
58F
330
53F
100
AcDbEntity
  8
0
  6
Continuous
 62
     7
370
    15
100
AcDbLine
 10
2634.086253892454
 20
837.2693570244042
 30
0.0
 11
2634.03162753187
 21
833.8216776405253
 31
0.0
  0
ARC
  5
590
330
53F
100
AcDbEntity
  8
0
  6
Continuous
 62
     7
370
    15
100
AcDbCircle
 10
2643.979451405017
 20
848.3615585831559
 30
0.0
 40
17.61724546111073
100
AcDbArc
 50
235.6210395231084
 51
253.2958836498253
  0
ARC
  5
591
330
53F
100
AcDbEntity
  8
0
  6
Continuous
 62
     7
370
    15
100
AcDbCircle
 10
2647.161495474602
 20
823.5190218430892
 30
0.0
 40
4.879823772722928
100
AcDbArc
 50
245.8530313420913
 51
298.7261014523152
  0
ARC
  5
592
330
53F
100
AcDbEntity
  8
0
  6
Continuous
 62
     7
370
    15
100
AcDbCircle
 10
2646.081535575719
 20
821.0479907380559
 30
0.0
 40
2.183369064234578
100
AcDbArc
 50
232.5310363955185
 51
245.186903919954
  0
LWPOLYLINE
  5
593
330
53F
100
AcDbEntity
  8
0
  6
Continuous
 62
     7
370
    15
100
AcDbPolyline
 90
       30
 70
   128
 43
0.0
 10
2635.642967116688
 20
824.2555135241522
 10
2635.657405852361
 20
824.1071886503506
 10
2635.707954167842
 20
823.9539299493483
 10
2635.794124994497
 20
823.8037551486963
 10
2635.914872335221
 20
823.6584871670427
 10
2636.068730480867
 20
823.5198893608993
 10
2636.253831801968
 20
823.3896441198833
 10
2636.467929419231
 20
823.2693324447858
 10
2636.708424477605
 20
823.160414756364
 10
2636.972397692867
 20
823.0642131678111
 10
2637.256644787769
 20
822.9818954360943
 10
2637.557715387633
 20
822.9144607869661
 10
2637.871954903215
 20
822.8627277857176
 10
2638.195548892478
 20
822.8273244009045
 10
2638.524569362743
 20
822.8086803816598
 10
2638.855022451205
 20
822.8070220411209
 10
2639.182896905012
 20
822.822369509296
 10
2639.504212772448
 20
822.8545364887114
 10
2639.815069714146
 20
822.9031325158116
 10
2640.111694347932
 20
822.9675677006577
 10
2640.390486052571
 20
823.0470598873916
 10
2640.64806067443
 20
823.1406441485495
 10
2640.881291606519
 20
823.2471844979732
 10
2641.087347741266
 20
823.3653876801447
 10
2641.263727836325
 20
823.4938188685543
 10
2641.408290876274
 20
823.6309190825521
 10
2641.519282061638
 20
823.7750241112614
 10
2641.595354109778
 20
823.9243847148433
 10
2641.635583609082
 20
824.0771878578996
 10
2641.642214124824
 20
824.1604591429837
  0
LINE
  5
594
330
53F
100
AcDbEntity
  8
0
  6
Continuous
 62
     7
370
    15
100
AcDbLine
 10
2630.414487207814
 20
835.5501851516006
 30
0.0
 11
2630.469113568397
 21
838.9978645354792
 31
0.0
  0
LINE
  5
595
330
53F
100
AcDbEntity
  8
0
  6
Continuous
 62
     7
370
    15
100
AcDbLine
 10
2634.03162753187
 20
833.8216776405253
 30
0.0
 11
2630.414487207814
 21
835.5501851516006
 31
0.0
  0
LWPOLYLINE
  5
596
330
53F
100
AcDbEntity
  8
0
  6
Continuous
 62
     7
370
    15
100
AcDbPolyline
 90
       53
 70
   128
 43
0.0
 10
2632.232559245534
 20
845.9761086645471
 10
2632.009264391822
 20
845.8860560551427
 10
2631.763657406936
 20
845.80953481776
 10
2631.499319793777
 20
845.7476608043505
 10
2631.220106189981
 20
845.7013362773581
 10
2630.930088158624
 20
845.6712367527
 10
2630.633494815668
 20
845.657801149224
 10
2630.334651159923
 20
845.6612253882832
 10
2630.037915004828
 20
845.6814595367612
 10
2629.747613431715
 20
845.7182085352101
 10
2629.467979691222
 20
845.7709365004808
 10
2629.203091472967
 20
845.8388745401066
 10
2628.956811443647
 20
845.9210319644867
 10
2628.732730920665
 20
846.0162107333712
 10
2628.53411750263
 20
846.1230229259859
 10
2628.363867420417
 20
846.2399109800422
 10
2628.224463303594
 20
846.365170404503
 10
2628.117937978095
 20
846.4969746349003
 10
2628.045844823038
 20
846.6334016687573
 10
2628.009235118967
 20
846.7724620927137
 10
2628.008642717803
 20
846.9121280926513
 10
2628.044076258089
 20
847.0503630237905
 10
2628.115019039019
 20
847.1851511095573
 10
2628.220436555096
 20
847.3145268361449
 10
2628.358791581558
 20
847.4366036141312
 10
2628.528066590571
 20
847.5496012891998
 10
2628.725793171327
 20
847.6518721007998
 10
2628.949088025041
 20
847.7419247102041
 10
2629.194695009926
 20
847.8184459475869
 10
2629.459032623085
 20
847.8803199609963
 10
2629.738246226882
 20
847.9266444879886
 10
2630.028264258239
 20
847.9567440126468
 10
2630.324857601194
 20
847.9701796161227
 10
2630.623701256939
 20
847.9667553770637
 10
2630.920437412034
 20
847.9465212285855
 10
2631.210738985148
 20
847.9097722301366
 10
2631.49037272564
 20
847.857044264866
 10
2631.755260943896
 20
847.7891062252403
 10
2632.001540973215
 20
847.70694880086
 10
2632.225621496197
 20
847.6117700319756
 10
2632.424234914232
 20
847.504957839361
 10
2632.594484996445
 20
847.3880697853045
 10
2632.733889113268
 20
847.2628103608437
 10
2632.840414438768
 20
847.1310061304464
 10
2632.912507593824
 20
846.9945790965894
 10
2632.949117297895
 20
846.855518672633
 10
2632.949709699059
 20
846.7158526726954
 10
2632.914276158774
 20
846.5776177415564
 10
2632.843333377844
 20
846.4428296557894
 10
2632.737915861766
 20
846.3134539292019
 10
2632.599560835304
 20
846.1913771512156
 10
2632.430285826292
 20
846.0783794761471
 10
2632.232559245534
 20
845.9761086645471
  0
LWPOLYLINE
  5
597
330
53F
100
AcDbEntity
  8
0
  6
Continuous
 62
     7
370
    15
100
AcDbPolyline
 90
       62
 70
   128
 43
0.0
 10
2628.052777460127
 20
847.9734832653205
 10
2628.314135258057
 20
848.0808519943542
 10
2628.598443028661
 20
848.1747916751457
 10
2628.902687038842
 20
848.2543065237095
 10
2629.223642226405
 20
848.3185536628694
 10
2629.557906386517
 20
848.3668520569679
 10
2629.901936235928
 20
848.3986897310119
 10
2630.252084972646
 20
848.4137291977367
 10
2630.604640932958
 20
848.4118110350532
 10
2630.955866935978
 20
848.3929555759633
 10
2631.3020398987
 20
848.357362693024
 10
2631.6394903016
 20
848.3054096796488
 10
2631.964641086459
 20
848.2376472507041
 10
2632.274045574073
 20
848.154793704794
 10
2632.564423999898
 20
848.0577273101165
 10
2632.832698280385
 20
847.9474769946024
 10
2633.076024641423
 20
847.8252114390235
 10
2633.29182376305
 20
847.692226688685
 10
2633.477808120894
 20
847.5499324150231
 10
2633.632006234492
 20
847.3998369727372
 10
2633.752783565484
 20
847.2435314108549
 10
2633.838859844112
 20
847.0826726072168
 10
2633.889322640411
 20
846.9189657051581
 10
2633.903637036186
 20
846.7541460385659
 10
2633.88165129528
 20
846.589960736909
 10
2633.823598472018
 20
846.4281502052291
 10
2633.730093940767
 20
846.2704296754157
 10
2633.60212887282
 20
846.1184710243212
 10
2633.44105972973
 20
845.9738850514503
 10
2633.248593884485
 20
845.8382044040838
 10
2633.026771522923
 20
845.7128673308373
 10
2632.77794401726
 20
845.5992024358675
 10
2632.504749000958
 20
845.4984145953376
 10
2632.21008240915
 20
845.4115721854304
 10
2631.897067781017
 20
845.3395957572944
 10
2631.569023149484
 20
845.2832482789737
 10
2631.229425869254
 20
845.2431270477561
 10
2630.881875755978
 20
845.2196573586736
 10
2630.530056927319
 20
845.2130879962689
 10
2630.177698750382
 20
845.223488597418
 10
2629.8285363095
 20
845.2507489131608
 10
2629.486270813405
 20
845.2945799773695
 10
2629.154530361505
 20
845.3545171698593
 10
2628.836831485115
 20
845.4299251414791
 10
2628.536541871359
 20
845.5200045489705
 10
2628.256844664847
 20
845.6238005282051
 10
2628.000704725549
 20
845.7402128159813
 10
2627.77083720054
 20
845.868007413089
 10
2627.569678742771
 20
846.0058296650071
 10
2627.399361681935
 20
846.1522186215795
 10
2627.261691421248
 20
846.3056225234486
 10
2627.158127299723
 20
846.4644152510924
 10
2627.089767122809
 20
846.6269135620953
 10
2627.05733552539
 20
846.7913949339354
 10
2627.061176290464
 20
846.9561158231531
 10
2627.101248704967
 20
847.119330147345
 10
2627.177127991338
 20
847.2793077940716
 10
2627.288009810262
 20
847.4343529604798
 10
2627.432718786876
 20
847.5828221292351
 10
2627.609720970029
 20
847.7231414902142
 10
2627.817140092545
 20
847.8538236232827
 10
2628.052777460127
 20
847.9734832653205
  0
LINE
  5
598
330
53F
100
AcDbEntity
  8
0
  6
Continuous
 62
     7
370
    15
100
AcDbLine
 10
2626.982221643427
 20
842.2309503975569
 30
0.0
 11
2626.981770893841
 21
842.2713447467444
 31
0.0
  0
LINE
  5
599
330
53F
100
AcDbEntity
  8
0
  6
Continuous
 62
     7
370
    15
100
AcDbLine
 10
2633.830911228129
 20
842.1628243282437
 30
0.0
 11
2633.830642718195
 21
842.1513946171787
 31
0.0
  0
LINE
  5
59A
330
53F
100
AcDbEntity
  8
0
  6
Continuous
 62
     7
370
    15
100
AcDbLine
 10
2625.585002803504
 20
841.3318138395451
 30
0.0
 11
2625.53037644292
 21
837.8841344556663
 31
0.0
  0
ARC
  5
59B
330
53F
100
AcDbEntity
  8
0
  6
Continuous
 62
     7
370
    15
100
AcDbCircle
 10
2635.478200316067
 20
852.4240153982972
 30
0.0
 40
17.61724546111113
100
AcDbArc
 50
235.6210395231084
 51
253.2958836498253
  0
ARC
  5
59C
330
53F
100
AcDbEntity
  8
0
  6
Continuous
 62
     7
370
    15
100
AcDbCircle
 10
2638.660244385652
 20
827.5814786582301
 30
0.0
 40
4.87982377272284
100
AcDbArc
 50
245.8530313420913
 51
298.7261014523152
  0
ARC
  5
59D
330
53F
100
AcDbEntity
  8
0
  6
Continuous
 62
     7
370
    15
100
AcDbCircle
 10
2637.580284486768
 20
825.1104475531956
 30
0.0
 40
2.183369064233114
100
AcDbArc
 50
232.5310363955145
 51
245.186903919954
  0
LWPOLYLINE
  5
59E
330
53F
100
AcDbEntity
  8
0
  6
Continuous
 62
     7
370
    15
100
AcDbPolyline
 90
       30
 70
   128
 43
0.0
 10
2627.141716027738
 20
828.3179703392931
 10
2627.156154763411
 20
828.1696454654914
 10
2627.206703078892
 20
828.016386764489
 10
2627.292873905547
 20
827.8662119638372
 10
2627.413621246271
 20
827.7209439821836
 10
2627.567479391917
 20
827.5823461760403
 10
2627.752580713018
 20
827.4521009350243
 10
2627.96667833028
 20
827.3317892599267
 10
2628.207173388655
 20
827.2228715715048
 10
2628.471146603916
 20
827.1266699829519
 10
2628.755393698819
 20
827.0443522512353
 10
2629.056464298682
 20
826.9769176021071
 10
2629.370703814265
 20
826.9251846008586
 10
2629.694297803528
 20
826.8897812160455
 10
2630.023318273793
 20
826.8711371968006
 10
2630.353771362255
 20
826.8694788562619
 10
2630.681645816063
 20
826.884826324437
 10
2631.002961683498
 20
826.9169933038522
 10
2631.313818625196
 20
826.9655893309526
 10
2631.610443258983
 20
827.0300245157985
 10
2631.889234963621
 20
827.1095167025324
 10
2632.14680958548
 20
827.2031009636902
 10
2632.380040517569
 20
827.3096413131142
 10
2632.586096652316
 20
827.4278444952855
 10
2632.762476747375
 20
827.5562756836951
 10
2632.907039787324
 20
827.6933758976932
 10
2633.018030972687
 20
827.8374809264024
 10
2633.094103020829
 20
827.9868415299841
 10
2633.134332520132
 20
828.1396446730404
 10
2633.140963035874
 20
828.2229159581246
  0
LINE
  5
59F
330
53F
100
AcDbEntity
  8
0
  6
Continuous
 62
     7
370
    15
100
AcDbLine
 10
2621.913236118863
 20
839.6126419667414
 30
0.0
 11
2621.967862479448
 21
843.06032135062
 31
0.0
  0
LINE
  5
5A0
330
53F
100
AcDbEntity
  8
0
  6
Continuous
 62
     7
370
    15
100
AcDbLine
 10
2625.53037644292
 20
837.8841344556663
 30
0.0
 11
2621.913236118863
 21
839.6126419667414
 31
0.0
  0
LWPOLYLINE
  5
5A1
330
53F
100
AcDbEntity
  8
0
  6
Continuous
 62
     7
370
    15
100
AcDbPolyline
 90
       53
 70
   128
 43
0.0
 10
2623.731308156584
 20
850.0385654796881
 10
2623.508013302871
 20
849.9485128702836
 10
2623.262406317987
 20
849.8719916329008
 10
2622.998068704827
 20
849.8101176194914
 10
2622.718855101031
 20
849.7637930924991
 10
2622.428837069674
 20
849.733693567841
 10
2622.132243726718
 20
849.720257964365
 10
2621.833400070974
 20
849.723682203424
 10
2621.536663915878
 20
849.7439163519022
 10
2621.246362342765
 20
849.7806653503509
 10
2620.966728602272
 20
849.8333933156215
 10
2620.701840384017
 20
849.9013313552476
 10
2620.455560354697
 20
849.9834887796275
 10
2620.231479831714
 20
850.078667548512
 10
2620.03286641368
 20
850.1854797411267
 10
2619.862616331467
 20
850.302367795183
 10
2619.723212214644
 20
850.427627219644
 10
2619.616686889144
 20
850.5594314500413
 10
2619.544593734088
 20
850.6958584838983
 10
2619.507984030017
 20
850.8349189078547
 10
2619.507391628852
 20
850.9745849077921
 10
2619.542825169138
 20
851.1128198389313
 10
2619.613767950068
 20
851.2476079246983
 10
2619.719185466146
 20
851.376983651286
 10
2619.857540492608
 20
851.4990604292719
 10
2620.026815501621
 20
851.6120581043406
 10
2620.224542082378
 20
851.7143289159406
 10
2620.447836936091
 20
851.8043815253449
 10
2620.693443920976
 20
851.8809027627279
 10
2620.957781534135
 20
851.9427767761373
 10
2621.236995137932
 20
851.9891013031296
 10
2621.527013169288
 20
852.0192008277877
 10
2621.823606512244
 20
852.0326364312635
 10
2622.122450167989
 20
852.0292121922045
 10
2622.419186323084
 20
852.0089780437265
 10
2622.709487896197
 20
851.9722290452776
 10
2622.98912163669
 20
851.919501080007
 10
2623.254009854945
 20
851.8515630403811
 10
2623.500289884265
 20
851.769405616001
 10
2623.724370407248
 20
851.6742268471165
 10
2623.922983825282
 20
851.567414654502
 10
2624.093233907495
 20
851.4505266004455
 10
2624.232638024319
 20
851.3252671759847
 10
2624.339163349818
 20
851.1934629455874
 10
2624.411256504874
 20
851.0570359117302
 10
2624.447866208945
 20
850.9179754877738
 10
2624.44845861011
 20
850.7783094878364
 10
2624.413025069824
 20
850.6400745566972
 10
2624.342082288894
 20
850.5052864709304
 10
2624.236664772816
 20
850.3759107443427
 10
2624.098309746354
 20
850.2538339663566
 10
2623.929034737341
 20
850.1408362912879
 10
2623.731308156584
 20
850.0385654796881
  0
LWPOLYLINE
  5
5A2
330
53F
100
AcDbEntity
  8
0
  6
Continuous
 62
     7
370
    15
100
AcDbPolyline
 90
       62
 70
   128
 43
0.0
 10
2619.551526371177
 20
852.0359400804613
 10
2619.812884169107
 20
852.1433088094951
 10
2620.097191939711
 20
852.2372484902868
 10
2620.401435949892
 20
852.3167633388505
 10
2620.722391137455
 20
852.3810104780105
 10
2621.056655297568
 20
852.4293088721087
 10
2621.400685146977
 20
852.4611465461529
 10
2621.750833883696
 20
852.4761860128775
 10
2622.103389844009
 20
852.474267850194
 10
2622.454615847029
 20
852.4554123911041
 10
2622.80078880975
 20
852.4198195081648
 10
2623.13823921265
 20
852.3678664947897
 10
2623.46338999751
 20
852.3001040658451
 10
2623.772794485122
 20
852.2172505199348
 10
2624.063172910948
 20
852.1201841252572
 10
2624.331447191436
 20
852.0099338097432
 10
2624.574773552473
 20
851.8876682541643
 10
2624.7905726741
 20
851.7546835038258
 10
2624.976557031943
 20
851.6123892301639
 10
2625.130755145543
 20
851.462293787878
 10
2625.251532476534
 20
851.3059882259959
 10
2625.337608755162
 20
851.1451294223576
 10
2625.388071551461
 20
850.9814225202989
 10
2625.402385947236
 20
850.8166028537068
 10
2625.380400206331
 20
850.6524175520498
 10
2625.322347383068
 20
850.49060702037
 10
2625.228842851817
 20
850.3328864905567
 10
2625.100877783869
 20
850.1809278394622
 10
2624.93980864078
 20
850.0363418665912
 10
2624.747342795535
 20
849.9006612192246
 10
2624.525520433973
 20
849.7753241459783
 10
2624.27669292831
 20
849.6616592510084
 10
2624.003497912008
 20
849.5608714104786
 10
2623.708831320201
 20
849.4740290005712
 10
2623.395816692067
 20
849.4020525724353
 10
2623.067772060534
 20
849.3457050941147
 10
2622.728174780304
 20
849.3055838628972
 10
2622.380624667028
 20
849.2821141738145
 10
2622.02880583837
 20
849.2755448114099
 10
2621.676447661432
 20
849.2859454125587
 10
2621.32728522055
 20
849.3132057283018
 10
2620.985019724456
 20
849.3570367925103
 10
2620.653279272555
 20
849.4169739850001
 10
2620.335580396165
 20
849.4923819566199
 10
2620.035290782409
 20
849.5824613641113
 10
2619.755593575897
 20
849.6862573433459
 10
2619.499453636599
 20
849.8026696311223
 10
2619.26958611159
 20
849.93046422823
 10
2619.068427653821
 20
850.0682864801481
 10
2618.898110592985
 20
850.2146754367203
 10
2618.760440332299
 20
850.3680793385894
 10
2618.656876210773
 20
850.5268720662336
 10
2618.58851603386
 20
850.6893703772362
 10
2618.55608443644
 20
850.8538517490762
 10
2618.559925201514
 20
851.0185726382939
 10
2618.599997616018
 20
851.1817869624858
 10
2618.675876902388
 20
851.3417646092126
 10
2618.786758721312
 20
851.4968097756208
 10
2618.931467697926
 20
851.6452789443761
 10
2619.108469881079
 20
851.785598305355
 10
2619.315889003595
 20
851.9162804384235
 10
2619.551526371177
 20
852.0359400804613
  0
LINE
  5
5A3
330
53F
100
AcDbEntity
  8
0
  6
Continuous
 62
     7
370
    15
100
AcDbLine
 10
2618.480970554476
 20
846.2934072126978
 30
0.0
 11
2618.480519804891
 21
846.3338015618852
 31
0.0
  0
LINE
  5
5A4
330
53F
100
AcDbEntity
  8
0
  6
Continuous
 62
     7
370
    15
100
AcDbLine
 10
2625.329660139179
 20
846.2252811433847
 30
0.0
 11
2625.329391629245
 21
846.2138514323195
 31
0.0
  0
LINE
  5
5A5
330
53F
100
AcDbEntity
  8
0
  6
Continuous
 62
     7
370
    15
100
AcDbLine
 10
2617.083751714555
 20
845.3942706546859
 30
0.0
 11
2617.02912535397
 21
841.9465912708073
 31
0.0
  0
ARC
  5
5A6
330
53F
100
AcDbEntity
  8
0
  6
Continuous
 62
     7
370
    15
100
AcDbCircle
 10
2626.976949227117
 20
856.486472213437
 30
0.0
 40
17.61724546110984
100
AcDbArc
 50
235.6210395231084
 51
253.2958836498253
  0
ARC
  5
5A7
330
53F
100
AcDbEntity
  8
0
  6
Continuous
 62
     7
370
    15
100
AcDbCircle
 10
2630.158993296702
 20
831.6439354733709
 30
0.0
 40
4.87982377272275
100
AcDbArc
 50
245.8530313420913
 51
298.7261014523152
  0
ARC
  5
5A8
330
53F
100
AcDbEntity
  8
0
  6
Continuous
 62
     7
370
    15
100
AcDbCircle
 10
2629.079033397812
 20
829.1729043683258
 30
0.0
 40
2.183369064220487
100
AcDbArc
 50
232.531036395482
 51
245.1869039200095
  0
LWPOLYLINE
  5
5A9
330
53F
100
AcDbEntity
  8
0
  6
Continuous
 62
     7
370
    15
100
AcDbPolyline
 90
       30
 70
   128
 43
0.0
 10
2618.640464938788
 20
832.3804271544341
 10
2618.654903674461
 20
832.2321022806324
 10
2618.705451989942
 20
832.0788435796298
 10
2618.791622816598
 20
831.928668778978
 10
2618.912370157322
 20
831.7834007973244
 10
2619.066228302968
 20
831.6448029911812
 10
2619.251329624068
 20
831.5145577501652
 10
2619.46542724133
 20
831.3942460750677
 10
2619.705922299705
 20
831.2853283866456
 10
2619.969895514967
 20
831.1891267980929
 10
2620.254142609869
 20
831.1068090663761
 10
2620.555213209733
 20
831.0393744172481
 10
2620.869452725315
 20
830.9876414159996
 10
2621.193046714578
 20
830.9522380311864
 10
2621.522067184844
 20
830.9335940119416
 10
2621.852520273305
 20
830.9319356714027
 10
2622.180394727113
 20
830.9472831395778
 10
2622.501710594548
 20
830.9794501189934
 10
2622.812567536246
 20
831.0280461460935
 10
2623.109192170032
 20
831.0924813309394
 10
2623.387983874672
 20
831.1719735176733
 10
2623.645558496531
 20
831.2655577788312
 10
2623.87878942862
 20
831.3720981282552
 10
2624.084845563366
 20
831.4903013104265
 10
2624.261225658425
 20
831.618732498836
 10
2624.405788698374
 20
831.755832712834
 10
2624.516779883738
 20
831.8999377415432
 10
2624.592851931879
 20
832.0492983451252
 10
2624.633081431182
 20
832.2021014881814
 10
2624.639711946924
 20
832.2853727732656
  0
LINE
  5
5AA
330
53F
100
AcDbEntity
  8
0
  6
Continuous
 62
     7
370
    15
100
AcDbLine
 10
2615.48771282975
 20
846.1569629898448
 30
0.0
 11
2615.433086469165
 21
842.7092836059662
 31
0.0
  0
LINE
  5
5AB
330
53F
100
AcDbEntity
  8
0
  6
Continuous
 62
     7
370
    15
100
AcDbLine
 10
2617.02912535397
 20
841.9465912708073
 30
0.0
 11
2615.433086469165
 21
842.7092836059662
 31
0.0
  0
ARC
  5
5AC
330
53F
100
AcDbEntity
  8
0
  6
Continuous
 62
     7
370
    15
100
AcDbCircle
 10
2621.657742207752
 20
835.7063922885119
 30
0.0
 40
4.879823772722891
100
AcDbArc
 50
245.8530313420913
 51
298.7261014523152
  0
ARC
  5
5AD
330
53F
100
AcDbEntity
  8
0
  6
Continuous
 62
     7
370
    15
100
AcDbCircle
 10
2620.577782308868
 20
833.2353611834774
 30
0.0
 40
2.183369064232871
100
AcDbArc
 50
232.5310363955145
 51
245.1869039199567
  0
LWPOLYLINE
  5
5AE
330
53F
100
AcDbEntity
  8
0
  6
Continuous
 62
     8
370
    15
100
AcDbPolyline
 90
       24
 70
   128
 43
0.0
 10
2649.835241987189
 20
832.9326780245574
 10
2649.573884189258
 20
832.8253092955238
 10
2649.289576418655
 20
832.7313696147321
 10
2648.985332408474
 20
832.6518547661684
 10
2648.664377220911
 20
832.5876076270084
 10
2648.330113060798
 20
832.53930923291
 10
2647.986083211388
 20
832.5074715588659
 10
2647.635934474669
 20
832.4924320921413
 10
2647.283378514357
 20
832.4943502548247
 10
2646.932152511337
 20
832.5132057139146
 10
2646.585979548616
 20
832.5487985968539
 10
2646.248529145716
 20
832.600751610229
 10
2645.923378360856
 20
832.6685140391738
 10
2645.613973873243
 20
832.7513675850839
 10
2645.323595447418
 20
832.8484339797615
 10
2645.05532116693
 20
832.9586842952755
 10
2644.811994805893
 20
833.0809498508545
 10
2644.596195684266
 20
833.2139346011929
 10
2644.410211326422
 20
833.3562288748549
 10
2644.256013212823
 20
833.5063243171408
 10
2644.135235881832
 20
833.662629879023
 10
2644.049159603204
 20
833.8234886826612
 10
2643.998696806905
 20
833.9871955847199
 10
2643.984723821326
 20
834.1060367672751
  0
ARC
  5
5AF
330
53F
100
AcDbEntity
  8
0
  6
Continuous
 62
     8
370
    15
100
AcDbCircle
 10
2649.44713634214
 20
834.2888631614101
 30
0.0
 40
1.410625434741507
100
AcDbArc
 50
285.9697728339752
 51
349.280318277234
  0
LWPOLYLINE
  5
5B0
330
53F
100
AcDbEntity
  8
0
  6
Continuous
 62
     8
370
    15
100
AcDbPolyline
 90
       24
 70
   128
 43
0.0
 10
2641.333990898239
 20
836.9951348396984
 10
2641.072633100308
 20
836.8877661106646
 10
2640.788325329705
 20
836.7938264298729
 10
2640.484081319524
 20
836.7143115813094
 10
2640.163126131961
 20
836.6500644421494
 10
2639.828861971848
 20
836.601766048051
 10
2639.484832122438
 20
836.5699283740068
 10
2639.134683385719
 20
836.5548889072822
 10
2638.782127425408
 20
836.5568070699657
 10
2638.430901422387
 20
836.5756625290554
 10
2638.084728459666
 20
836.6112554119949
 10
2637.747278056766
 20
836.66320842537
 10
2637.422127271906
 20
836.7309708543146
 10
2637.112722784293
 20
836.8138244002249
 10
2636.822344358467
 20
836.9108907949025
 10
2636.554070077981
 20
837.0211411104165
 10
2636.310743716943
 20
837.1434066659954
 10
2636.094944595316
 20
837.2763914163339
 10
2635.908960237472
 20
837.4186856899958
 10
2635.754762123873
 20
837.5687811322817
 10
2635.633984792882
 20
837.7250866941638
 10
2635.547908514254
 20
837.8859454978021
 10
2635.497445717955
 20
838.0496523998608
 10
2635.483472732376
 20
838.1684935824161
  0
ARC
  5
5B1
330
53F
100
AcDbEntity
  8
0
  6
Continuous
 62
     8
370
    15
100
AcDbCircle
 10
2640.94588525319
 20
838.3513199765511
 30
0.0
 40
1.410625434741529
100
AcDbArc
 50
285.9697728339752
 51
349.280318277234
  0
LWPOLYLINE
  5
5B2
330
53F
100
AcDbEntity
  8
0
  6
Continuous
 62
     8
370
    15
100
AcDbPolyline
 90
       24
 70
   128
 43
0.0
 10
2632.832739809289
 20
841.0575916548392
 10
2632.571382011358
 20
840.9502229258055
 10
2632.287074240755
 20
840.856283245014
 10
2631.982830230574
 20
840.7767683964502
 10
2631.661875043012
 20
840.7125212572903
 10
2631.327610882899
 20
840.6642228631918
 10
2630.983581033488
 20
840.6323851891478
 10
2630.63343229677
 20
840.617345722423
 10
2630.280876336458
 20
840.6192638851067
 10
2629.929650333437
 20
840.6381193441964
 10
2629.583477370716
 20
840.6737122271357
 10
2629.246026967817
 20
840.7256652405109
 10
2628.920876182956
 20
840.7934276694557
 10
2628.611471695343
 20
840.8762812153659
 10
2628.321093269518
 20
840.9733476100434
 10
2628.05281898903
 20
841.0835979255573
 10
2627.809492627994
 20
841.2058634811362
 10
2627.593693506366
 20
841.3388482314749
 10
2627.407709148523
 20
841.4811425051368
 10
2627.253511034923
 20
841.6312379474225
 10
2627.132733703932
 20
841.7875435093048
 10
2627.046657425304
 20
841.9484023129429
 10
2626.996194629005
 20
842.1121092150016
 10
2626.982221643427
 20
842.2309503975569
  0
ARC
  5
5B3
330
53F
100
AcDbEntity
  8
0
  6
Continuous
 62
     8
370
    15
100
AcDbCircle
 10
2632.44463416424
 20
842.4137767916921
 30
0.0
 40
1.410625434741529
100
AcDbArc
 50
285.9697728339752
 51
349.280318277234
  0
LWPOLYLINE
  5
5B4
330
53F
100
AcDbEntity
  8
0
  6
Continuous
 62
     8
370
    15
100
AcDbPolyline
 90
       24
 70
   128
 43
0.0
 10
2624.331488720339
 20
845.1200484699802
 10
2624.070130922409
 20
845.0126797409463
 10
2623.785823151805
 20
844.9187400601548
 10
2623.481579141624
 20
844.8392252115912
 10
2623.160623954061
 20
844.7749780724311
 10
2622.826359793949
 20
844.7266796783328
 10
2622.482329944539
 20
844.6948420042886
 10
2622.132181207819
 20
844.679802537564
 10
2621.779625247507
 20
844.6817207002474
 10
2621.428399244488
 20
844.7005761593374
 10
2621.082226281766
 20
844.7361690422766
 10
2620.744775878867
 20
844.7881220556517
 10
2620.419625094007
 20
844.8558844845965
 10
2620.110220606393
 20
844.9387380305067
 10
2619.819842180568
 20
845.0358044251842
 10
2619.551567900081
 20
845.1460547406982
 10
2619.308241539043
 20
845.268320296277
 10
2619.092442417417
 20
845.4013050466157
 10
2618.906458059572
 20
845.5435993202778
 10
2618.752259945973
 20
845.6936947625635
 10
2618.631482614982
 20
845.8500003244456
 10
2618.545406336354
 20
846.0108591280839
 10
2618.494943540055
 20
846.1745660301428
 10
2618.480970554476
 20
846.2934072126978
  0
ARC
  5
5B5
330
53F
100
AcDbEntity
  8
0
  6
Continuous
 62
     8
370
    15
100
AcDbCircle
 10
2623.94338307529
 20
846.4762336068329
 30
0.0
 40
1.41062543474155
100
AcDbArc
 50
285.9697728339752
 51
349.2803182772276
  0
ENDBLK
  5
541
330
53F
100
AcDbEntity
  8
0
100
AcDbBlockEnd
  0
ENDSEC
  0
SECTION
  2
ENTITIES
  0
INSERT
  5
4C0
330
1F
100
AcDbEntity
  8
0
100
AcDbBlockReference
  2
1
 10
0.0
 20
0.0
 30
0.0
  0
INSERT
  5
4E2
330
1F
100
AcDbEntity
  8
0
100
AcDbBlockReference
  2
2
 10
0.0
 20
0.0
 30
0.0
  0
INSERT
  5
53E
330
1F
100
AcDbEntity
  8
0
100
AcDbBlockReference
  2
3
 10
0.0
 20
0.0
 30
0.0
  0
INSERT
  5
5B6
330
1F
100
AcDbEntity
  8
0
100
AcDbBlockReference
  2
4
 10
0.0
 20
0.0
 30
0.0
  0
ENDSEC
  0
SECTION
  2
OBJECTS
  0
DICTIONARY
  5
C
330
0
100
AcDbDictionary
281
     1
  3
ACAD_COLOR
350
6B
  3
ACAD_GROUP
350
D
  3
ACAD_LAYOUT
350
1A
  3
ACAD_MATERIAL
350
6A
  3
ACAD_MLEADERSTYLE
350
12D
  3
ACAD_MLINESTYLE
350
17
  3
ACAD_PLOTSETTINGS
350
19
  3
ACAD_PLOTSTYLENAME
350
E
  3
ACAD_SCALELIST
350
10C
  3
ACAD_TABLESTYLE
350
7E
  3
ACAD_VISUALSTYLE
350
EF
  3
ACDB_RECOMPOSE_DATA
350
15D
  3
AcDbVariableDictionary
350
5E
  3
DWGPROPS
350
5C4
  0
DICTIONARY
  5
13C
330
10
100
AcDbDictionary
280
     1
281
     1
  3
ADSK_XREC_LAYER_RECONCILED
360
5B7
  0
DICTIONARY
  5
6B
102
{ACAD_REACTORS
330
C
102
}
330
C
100
AcDbDictionary
281
     1
  0
DICTIONARY
  5
D
102
{ACAD_REACTORS
330
C
102
}
330
C
100
AcDbDictionary
281
     1
  0
DICTIONARY
  5
1A
102
{ACAD_REACTORS
330
C
102
}
330
C
100
AcDbDictionary
281
     1
  3
Layout1
350
D3
  3
Layout2
350
D7
  3
Model
350
22
  0
DICTIONARY
  5
6A
102
{ACAD_REACTORS
330
C
102
}
330
C
100
AcDbDictionary
281
     1
  3
ByBlock
350
ED
  3
ByLayer
350
EC
  3
Global
350
EE
  0
DICTIONARY
  5
12D
102
{ACAD_REACTORS
330
C
102
}
330
C
100
AcDbDictionary
281
     1
  3
Annotative
350
13B
  3
Standard
350
12E
  0
DICTIONARY
  5
17
102
{ACAD_REACTORS
330
C
102
}
330
C
100
AcDbDictionary
281
     1
  3
Standard
350
18
  0
DICTIONARY
  5
19
102
{ACAD_REACTORS
330
C
102
}
330
C
100
AcDbDictionary
281
     1
  0
ACDBDICTIONARYWDFLT
  5
E
102
{ACAD_REACTORS
330
C
102
}
330
C
100
AcDbDictionary
281
     1
  3
Normal
350
F
100
AcDbDictionaryWithDefault
340
F
  0
DICTIONARY
  5
10C
102
{ACAD_REACTORS
330
C
102
}
330
C
100
AcDbDictionary
281
     1
  3
A0
350
10D
  3
A1
350
188
  3
A2
350
189
  3
A3
350
18A
  3
A4
350
18B
  3
A5
350
18C
  3
A6
350
18D
  3
A7
350
18E
  3
A8
350
18F
  3
A9
350
190
  3
B0
350
191
  3
B1
350
192
  3
B2
350
193
  3
B3
350
194
  3
B4
350
195
  3
B5
350
196
  3
B6
350
197
  3
B7
350
198
  3
B8
350
199
  3
B9
350
19A
  3
C0
350
19B
  3
C1
350
19C
  3
C2
350
19D
  3
C3
350
19E
  3
C4
350
19F
  3
C5
350
1A0
  3
C6
350
1A1
  3
C7
350
1A2
  3
C8
350
1A3
  3
C9
350
1A4
  3
D0
350
1A5
  3
D1
350
1A6
  3
D2
350
1A7
  0
DICTIONARY
  5
7E
102
{ACAD_REACTORS
330
C
102
}
330
C
100
AcDbDictionary
281
     1
  3
Standard
350
7F
  0
DICTIONARY
  5
EF
102
{ACAD_REACTORS
330
C
102
}
330
C
100
AcDbDictionary
281
     1
  3
2dWireframe
350
F5
  3
3D Hidden
350
F7
  3
3dWireframe
350
F6
  3
Basic
350
F4
  3
Brighten
350
FB
  3
ColorChange
350
FF
  3
Conceptual
350
F8
  3
Dim
350
FA
  3
Facepattern
350
FE
  3
Flat
350
F0
  3
FlatWithEdges
350
F1
  3
Gouraud
350
F2
  3
GouraudWithEdges
350
F3
  3
Linepattern
350
FD
  3
Realistic
350
F9
  3
Thicken
350
FC
  0
XRECORD
  5
15D
102
{ACAD_REACTORS
330
C
102
}
330
C
100
AcDbXrecord
280
     1
 90
        1
330
7F
  0
DICTIONARY
  5
5E
102
{ACAD_REACTORS
330
C
102
}
330
C
100
AcDbDictionary
281
     1
  3
CANNOSCALE
350
146
  3
CMLEADERSTYLE
350
145
  3
CTABLESTYLE
350
84
  3
DIMASSOC
350
5F
  3
HIDETEXT
350
63
  3
INDEXCTL
350
5C0
  3
LIGHTINGUNITS
350
5BE
  3
MSLTSCALE
350
5BD
  3
PSOLHEIGHT
350
5C2
  3
PSOLWIDTH
350
5C1
  3
SORTENTS
350
5BF
  0
XRECORD
  5
5C4
102
{ACAD_REACTORS
330
C
102
}
330
C
100
AcDbXrecord
280
     1
  1
DWGPROPS COOKIE
  2

  3

  4

  6

  7

  8
orhan kara
  9

300
=
301
=
302
=
303
=
304
=
305
=
306
=
307
=
308
=
309
=
 40
0.0004248032407407
 41
2458935.373748299
 42
2458956.45625022
  1

 90
        0
  0
XRECORD
  5
5B7
102
{ACAD_REACTORS
330
13C
102
}
330
13C
100
AcDbXrecord
280
     1
290
     1
  0
LAYOUT
  5
D3
102
{ACAD_XDICTIONARY
360
5C8
102
}
102
{ACAD_REACTORS
330
1A
102
}
330
1A
100
AcDbPlotSettings
  1

  2
C:\Documents and Settings\basas\Application Data\Autodesk\AutoCAD 2005\R16.1\enu\plotters\Default Windows System Printer.pc3
  4

  6

 40
0.0
 41
0.0
 42
0.0
 43
0.0
 44
0.0
 45
0.0
 46
0.0
 47
0.0
 48
0.0
 49
0.0
140
0.0
141
0.0
142
1.0
143
1.0
 70
   688
 72
     0
 73
     0
 74
     5
  7

 75
    16
147
1.0
148
0.0
149
0.0
100
AcDbLayout
  1
Layout1
 70
     1
 71
     1
 10
0.0
 20
0.0
 11
12.0
 21
9.0
 12
0.0
 22
0.0
 32
0.0
 14
0.0
 24
0.0
 34
0.0
 15
0.0
 25
0.0
 35
0.0
146
0.0
 13
0.0
 23
0.0
 33
0.0
 16
1.0
 26
0.0
 36
0.0
 17
0.0
 27
1.0
 37
0.0
 76
     0
330
D2
  0
LAYOUT
  5
D7
102
{ACAD_XDICTIONARY
360
5CA
102
}
102
{ACAD_REACTORS
330
1A
102
}
330
1A
100
AcDbPlotSettings
  1

  2
C:\Documents and Settings\basas\Application Data\Autodesk\AutoCAD 2005\R16.1\enu\plotters\Default Windows System Printer.pc3
  4

  6

 40
0.0
 41
0.0
 42
0.0
 43
0.0
 44
0.0
 45
0.0
 46
0.0
 47
0.0
 48
0.0
 49
0.0
140
0.0
141
0.0
142
1.0
143
1.0
 70
   688
 72
     0
 73
     0
 74
     5
  7

 75
    16
147
1.0
148
0.0
149
0.0
100
AcDbLayout
  1
Layout2
 70
     1
 71
     2
 10
0.0
 20
0.0
 11
12.0
 21
9.0
 12
0.0
 22
0.0
 32
0.0
 14
0.0
 24
0.0
 34
0.0
 15
0.0
 25
0.0
 35
0.0
146
0.0
 13
0.0
 23
0.0
 33
0.0
 16
1.0
 26
0.0
 36
0.0
 17
0.0
 27
1.0
 37
0.0
 76
     0
330
D6
  0
LAYOUT
  5
22
102
{ACAD_XDICTIONARY
360
5C5
102
}
102
{ACAD_REACTORS
330
1A
102
}
330
1A
100
AcDbPlotSettings
  1

  2
none_device
  4
ISO_A4_(210.00_x_297.00_MM)
  6

 40
7.5
 41
20.0
 42
7.5
 43
20.0
 44
210.0
 45
297.0
 46
11.54999923706054
 47
-13.65000009536743
 48
0.0
 49
0.0
140
0.0
141
0.0
142
1.0
143
8.704084754739808
 70
 11952
 72
     1
 73
     0
 74
     0
  7

 75
     0
147
0.1148885871608098
148
0.0
149
0.0
100
AcDbLayout
  1
Model
 70
     1
 71
     0
 10
0.0
 20
0.0
 11
12.0
 21
9.0
 12
0.0
 22
0.0
 32
0.0
 14
0.0
 24
0.0
 34
0.0
 15
0.0
 25
0.0
 35
0.0
146
0.0
 13
0.0
 23
0.0
 33
0.0
 16
1.0
 26
0.0
 36
0.0
 17
0.0
 27
1.0
 37
0.0
 76
     0
330
1F
331
EA
1001
ACAD_PSEXT
1000
None
1000
None
1000
Not applicable
1000
The layout will not be plotted unless a new plotter configuration name is selected.
1070
     0
  0
MATERIAL
  5
ED
102
{ACAD_XDICTIONARY
360
5CE
102
}
102
{ACAD_REACTORS
330
6A
102
}
330
6A
100
AcDbMaterial
  1
ByBlock
  0
MATERIAL
  5
EC
102
{ACAD_XDICTIONARY
360
5CC
102
}
102
{ACAD_REACTORS
330
6A
102
}
330
6A
100
AcDbMaterial
  1
ByLayer
  0
MATERIAL
  5
EE
102
{ACAD_XDICTIONARY
360
173
102
}
102
{ACAD_REACTORS
330
6A
102
}
330
6A
100
AcDbMaterial
  1
Global
 43
0.0007999999797903
 43
0.0
 43
0.0
 43
0.0
 43
0.0
 43
0.0007999999797903
 43
0.0
 43
0.0
 43
0.0
 43
0.0
 43
1.0
 43
0.0
 43
0.0
 43
0.0
 43
0.0
 43
1.0
 49
0.0007999999797903
 49
0.0
 49
0.0
 49
0.0
 49
0.0
 49
0.0007999999797903
 49
0.0
 49
0.0
 49
0.0
 49
0.0
 49
1.0
 49
0.0
 49
0.0
 49
0.0
 49
0.0
 49
1.0
142
0.0007999999797903
142
0.0
142
0.0
142
0.0
142
0.0
142
0.0007999999797903
142
0.0
142
0.0
142
0.0
142
0.0
142
1.0
142
0.0
142
0.0
142
0.0
142
0.0
142
1.0
144
0.0007999999797903
144
0.0
144
0.0
144
0.0
144
0.0
144
0.0007999999797903
144
0.0
144
0.0
144
0.0
144
0.0
144
1.0
144
0.0
144
0.0
144
0.0
144
0.0
144
1.0
1001
ACAD
1070
    -1
1070
     3
1070
     0
1000

1071
        0
1070
     0
  0
MLEADERSTYLE
  5
13B
102
{ACAD_REACTORS
330
12D
102
}
330
12D
100
AcDbMLeaderStyle
170
     2
171
     1
172
     0
 90
        2
 40
0.0
 41
0.0
173
     1
 91
-1056964608
340
14
 92
       -2
290
     1
 42
2.0
291
     1
 43
8.0
  3
Standard
 44
4.0
300

342
11
174
     1
178
     1
175
     1
176
     0
 93
-1056964608
 45
4.0
292
     0
297
     0
 46
4.0
 94
-1056964608
 47
1.0
 49
1.0
140
1.0
293
     1
141
0.0
294
     1
177
     0
142
1.0
295
     0
296
     1
143
3.75
1001
ACAD_MLEADERVER
1070
     2
  0
MLEADERSTYLE
  5
12E
102
{ACAD_REACTORS
330
12D
102
}
330
12D
100
AcDbMLeaderStyle
170
     2
171
     1
172
     0
 90
        2
 40
0.0
 41
0.0
173
     1
 91
-1056964608
340
14
 92
       -2
290
     1
 42
2.0
291
     1
 43
8.0
  3
Standard
 44
4.0
300

342
11
174
     1
178
     1
175
     1
176
     0
 93
-1056964608
 45
4.0
292
     0
297
     0
 46
4.0
 94
-1056964608
 47
1.0
 49
1.0
140
1.0
293
     1
141
0.0
294
     1
177
     0
142
1.0
295
     0
296
     0
143
3.75
1001
ACAD_MLEADERVER
1070
     2
  0
MLINESTYLE
  5
18
102
{ACAD_REACTORS
330
17
102
}
330
17
100
AcDbMlineStyle
  2
STANDARD
 70
     0
  3

 62
   256
 51
90.0
 52
90.0
 71
     2
 49
0.5
 62
   256
  6
BYLAYER
 49
-0.5
 62
   256
  6
BYLAYER
  0
ACDBPLACEHOLDER
  5
F
102
{ACAD_REACTORS
330
E
102
}
330
E
  0
SCALE
  5
10D
102
{ACAD_REACTORS
330
10C
102
}
330
10C
100
AcDbScale
 70
     0
300
1:1
140
1.0
141
1.0
290
     1
  0
SCALE
  5
188
102
{ACAD_REACTORS
330
10C
102
}
330
10C
100
AcDbScale
 70
     0
300
1:2
140
1.0
141
2.0
290
     0
  0
SCALE
  5
189
102
{ACAD_REACTORS
330
10C
102
}
330
10C
100
AcDbScale
 70
     0
300
1:4
140
1.0
141
4.0
290
     0
  0
SCALE
  5
18A
102
{ACAD_REACTORS
330
10C
102
}
330
10C
100
AcDbScale
 70
     0
300
1:5
140
1.0
141
5.0
290
     0
  0
SCALE
  5
18B
102
{ACAD_REACTORS
330
10C
102
}
330
10C
100
AcDbScale
 70
     0
300
1:8
140
1.0
141
8.0
290
     0
  0
SCALE
  5
18C
102
{ACAD_REACTORS
330
10C
102
}
330
10C
100
AcDbScale
 70
     0
300
1:10
140
1.0
141
10.0
290
     0
  0
SCALE
  5
18D
102
{ACAD_REACTORS
330
10C
102
}
330
10C
100
AcDbScale
 70
     0
300
1:16
140
1.0
141
16.0
290
     0
  0
SCALE
  5
18E
102
{ACAD_REACTORS
330
10C
102
}
330
10C
100
AcDbScale
 70
     0
300
1:20
140
1.0
141
20.0
290
     0
  0
SCALE
  5
18F
102
{ACAD_REACTORS
330
10C
102
}
330
10C
100
AcDbScale
 70
     0
300
1:30
140
1.0
141
30.0
290
     0
  0
SCALE
  5
190
102
{ACAD_REACTORS
330
10C
102
}
330
10C
100
AcDbScale
 70
     0
300
1:40
140
1.0
141
40.0
290
     0
  0
SCALE
  5
191
102
{ACAD_REACTORS
330
10C
102
}
330
10C
100
AcDbScale
 70
     0
300
1:50
140
1.0
141
50.0
290
     0
  0
SCALE
  5
192
102
{ACAD_REACTORS
330
10C
102
}
330
10C
100
AcDbScale
 70
     0
300
1:100
140
1.0
141
100.0
290
     0
  0
SCALE
  5
193
102
{ACAD_REACTORS
330
10C
102
}
330
10C
100
AcDbScale
 70
     0
300
2:1
140
2.0
141
1.0
290
     0
  0
SCALE
  5
194
102
{ACAD_REACTORS
330
10C
102
}
330
10C
100
AcDbScale
 70
     0
300
4:1
140
4.0
141
1.0
290
     0
  0
SCALE
  5
195
102
{ACAD_REACTORS
330
10C
102
}
330
10C
100
AcDbScale
 70
     0
300
8:1
140
8.0
141
1.0
290
     0
  0
SCALE
  5
196
102
{ACAD_REACTORS
330
10C
102
}
330
10C
100
AcDbScale
 70
     0
300
10:1
140
10.0
141
1.0
290
     0
  0
SCALE
  5
197
102
{ACAD_REACTORS
330
10C
102
}
330
10C
100
AcDbScale
 70
     0
300
100:1
140
100.0
141
1.0
290
     0
  0
SCALE
  5
198
102
{ACAD_REACTORS
330
10C
102
}
330
10C
100
AcDbScale
 70
     0
300
1/128" = 1'-0"
140
0.0078125
141
12.0
290
     0
  0
SCALE
  5
199
102
{ACAD_REACTORS
330
10C
102
}
330
10C
100
AcDbScale
 70
     0
300
1/64" = 1'-0"
140
0.015625
141
12.0
290
     0
  0
SCALE
  5
19A
102
{ACAD_REACTORS
330
10C
102
}
330
10C
100
AcDbScale
 70
     0
300
1/32" = 1'-0"
140
0.03125
141
12.0
290
     0
  0
SCALE
  5
19B
102
{ACAD_REACTORS
330
10C
102
}
330
10C
100
AcDbScale
 70
     0
300
1/16" = 1'-0"
140
0.0625
141
12.0
290
     0
  0
SCALE
  5
19C
102
{ACAD_REACTORS
330
10C
102
}
330
10C
100
AcDbScale
 70
     0
300
3/32" = 1'-0"
140
0.09375
141
12.0
290
     0
  0
SCALE
  5
19D
102
{ACAD_REACTORS
330
10C
102
}
330
10C
100
AcDbScale
 70
     0
300
1/8" = 1'-0"
140
0.125
141
12.0
290
     0
  0
SCALE
  5
19E
102
{ACAD_REACTORS
330
10C
102
}
330
10C
100
AcDbScale
 70
     0
300
3/16" = 1'-0"
140
0.1875
141
12.0
290
     0
  0
SCALE
  5
19F
102
{ACAD_REACTORS
330
10C
102
}
330
10C
100
AcDbScale
 70
     0
300
1/4" = 1'-0"
140
0.25
141
12.0
290
     0
  0
SCALE
  5
1A0
102
{ACAD_REACTORS
330
10C
102
}
330
10C
100
AcDbScale
 70
     0
300
3/8" = 1'-0"
140
0.375
141
12.0
290
     0
  0
SCALE
  5
1A1
102
{ACAD_REACTORS
330
10C
102
}
330
10C
100
AcDbScale
 70
     0
300
1/2" = 1'-0"
140
0.5
141
12.0
290
     0
  0
SCALE
  5
1A2
102
{ACAD_REACTORS
330
10C
102
}
330
10C
100
AcDbScale
 70
     0
300
3/4" = 1'-0"
140
0.75
141
12.0
290
     0
  0
SCALE
  5
1A3
102
{ACAD_REACTORS
330
10C
102
}
330
10C
100
AcDbScale
 70
     0
300
1" = 1'-0"
140
1.0
141
12.0
290
     0
  0
SCALE
  5
1A4
102
{ACAD_REACTORS
330
10C
102
}
330
10C
100
AcDbScale
 70
     0
300
1-1/2" = 1'-0"
140
1.5
141
12.0
290
     0
  0
SCALE
  5
1A5
102
{ACAD_REACTORS
330
10C
102
}
330
10C
100
AcDbScale
 70
     0
300
3" = 1'-0"
140
3.0
141
12.0
290
     0
  0
SCALE
  5
1A6
102
{ACAD_REACTORS
330
10C
102
}
330
10C
100
AcDbScale
 70
     0
300
6" = 1'-0"
140
6.0
141
12.0
290
     0
  0
SCALE
  5
1A7
102
{ACAD_REACTORS
330
10C
102
}
330
10C
100
AcDbScale
 70
     0
300
1'-0" = 1'-0"
140
12.0
141
12.0
290
     0
  0
TABLESTYLE
  5
7F
102
{ACAD_XDICTIONARY
360
162
102
}
102
{ACAD_REACTORS
330
7E
102
}
330
7E
100
AcDbTableStyle
  3
Standard
 70
     0
 71
     0
 40
1.5
 41
1.5
280
     0
281
     0
  7
Standard
140
4.5
170
     2
 62
     0
 63
     7
283
     0
274
    -2
284
     1
 64
     0
275
    -2
285
     1
 65
     0
276
    -2
286
     1
 66
     0
277
    -2
287
     1
 67
     0
278
    -2
288
     1
 68
     0
279
    -2
289
     1
 69
     0
  7
Standard
140
6.0
170
     5
 62
     0
 63
     7
283
     0
274
    -2
284
     1
 64
     0
275
    -2
285
     1
 65
     0
276
    -2
286
     1
 66
     0
277
    -2
287
     1
 67
     0
278
    -2
288
     1
 68
     0
279
    -2
289
     1
 69
     0
  7
Standard
140
4.5
170
     5
 62
     0
 63
     7
283
     0
274
    -2
284
     1
 64
     0
275
    -2
285
     1
 65
     0
276
    -2
286
     1
 66
     0
277
    -2
287
     1
 67
     0
278
    -2
288
     1
 68
     0
279
    -2
289
     1
 69
     0
  0
VISUALSTYLE
  5
F5
102
{ACAD_REACTORS
330
EF
102
}
330
EF
100
AcDbVisualStyle
  2
2dWireframe
 70
     4
 71
     0
 72
     2
 73
     1
 90
        0
 40
-0.6
 41
-30.0
 62
     5
 63
     7
 74
     1
 91
        4
 64
     7
 65
   257
 75
     1
175
     1
 42
1.0
 92
        0
 66
   257
 43
1.0
 76
     1
 77
     6
 78
     2
 67
     7
 79
     5
170
     0
171
     0
290
     0
174
     0
 93
        1
 44
0.0
173
     0
291
     0
 45
0.0
1001
ACAD
1000
AcDbSavedByObjectVersion
1070
     0
  0
VISUALSTYLE
  5
F7
102
{ACAD_REACTORS
330
EF
102
}
330
EF
100
AcDbVisualStyle
  2
3D Hidden
 70
     6
 71
     1
 72
     2
 73
     2
 90
        0
 40
-0.6
 41
-30.0
 62
     5
 63
     7
 74
     2
 91
        2
 64
     7
 65
   257
 75
     2
175
     1
 42
40.0
 92
        0
 66
   257
 43
1.0
 76
     1
 77
     6
 78
     2
 67
     7
 79
     3
170
     0
171
     0
290
     0
174
     0
 93
        1
 44
0.0
173
     0
291
     0
 45
0.0
1001
ACAD
1000
AcDbSavedByObjectVersion
1070
     0
  0
VISUALSTYLE
  5
F6
102
{ACAD_REACTORS
330
EF
102
}
330
EF
100
AcDbVisualStyle
  2
3dWireframe
 70
     5
 71
     0
 72
     2
 73
     1
 90
        0
 40
-0.6
 41
-30.0
 62
     5
 63
     7
 74
     1
 91
        4
 64
     7
 65
   257
 75
     1
175
     1
 42
1.0
 92
        0
 66
   257
 43
1.0
 76
     1
 77
     6
 78
     2
 67
     7
 79
     5
170
     0
171
     0
290
     0
174
     0
 93
        1
 44
0.0
173
     0
291
     0
 45
0.0
1001
ACAD
1000
AcDbSavedByObjectVersion
1070
     0
  0
VISUALSTYLE
  5
F4
102
{ACAD_REACTORS
330
EF
102
}
330
EF
100
AcDbVisualStyle
  2
Basic
 70
     7
 71
     1
 72
     0
 73
     1
 90
        0
 40
-0.6
 41
-30.0
 62
     5
 63
     7
 74
     0
 91
        4
 64
     7
 65
   257
 75
     1
175
     1
 42
1.0
 92
        8
 66
     7
 43
1.0
 76
     1
 77
     6
 78
     2
 67
     7
 79
     5
170
     0
171
     0
290
     0
174
     0
 93
        1
 44
0.0
173
     0
291
     1
 45
0.0
1001
ACAD
1000
AcDbSavedByObjectVersion
1070
     0
  0
VISUALSTYLE
  5
FB
102
{ACAD_REACTORS
330
EF
102
}
330
EF
100
AcDbVisualStyle
  2
Brighten
 70
    12
 71
     2
 72
     2
 73
     1
 90
        0
 40
-0.6
 41
-30.0
 62
     5
 63
     7
 74
     1
 91
        4
 64
     7
 65
   257
 75
     1
175
     1
 42
1.0
 92
        8
 66
     7
 43
1.0
 76
     1
 77
     6
 78
     2
 67
     7
 79
     5
170
     0
171
     0
290
     0
174
     0
 93
        1
 44
50.0
173
     0
291
     1
 45
0.0
1001
ACAD
1000
AcDbSavedByObjectVersion
1070
     0
  0
VISUALSTYLE
  5
FF
102
{ACAD_REACTORS
330
EF
102
}
330
EF
100
AcDbVisualStyle
  2
ColorChange
 70
    16
 71
     2
 72
     2
 73
     3
 90
        0
 40
-0.6
 41
-30.0
 62
     5
 63
     8
 74
     1
 91
        4
 64
     7
 65
   257
 75
     1
175
     1
 42
1.0
 92
        8
 66
     8
 43
1.0
 76
     1
 77
     6
 78
     2
 67
     7
 79
     5
170
     0
171
     0
290
     0
174
     0
 93
        1
 44
0.0
173
     0
291
     1
 45
0.0
1001
ACAD
1000
AcDbSavedByObjectVersion
1070
     0
  0
VISUALSTYLE
  5
F8
102
{ACAD_REACTORS
330
EF
102
}
330
EF
100
AcDbVisualStyle
  2
Conceptual
 70
     9
 71
     3
 72
     2
 73
     1
 90
        0
 40
-0.6
 41
-30.0
 62
     5
 63
     7
 74
     2
 91
        2
 64
     7
 65
   257
 75
     1
175
     1
 42
40.0
 92
        8
 66
     7
 43
1.0
 76
     1
 77
     6
 78
     2
 67
     7
 79
     3
170
     0
171
     0
290
     0
174
     0
 93
        1
 44
0.0
173
     0
291
     0
 45
0.0
1001
ACAD
1000
AcDbSavedByObjectVersion
1070
     0
  0
VISUALSTYLE
  5
FA
102
{ACAD_REACTORS
330
EF
102
}
330
EF
100
AcDbVisualStyle
  2
Dim
 70
    11
 71
     2
 72
     2
 73
     1
 90
        0
 40
-0.6
 41
-30.0
 62
     5
 63
     7
 74
     1
 91
        4
 64
     7
 65
   257
 75
     1
175
     1
 42
1.0
 92
        8
 66
     7
 43
1.0
 76
     1
 77
     6
 78
     2
 67
     7
 79
     5
170
     0
171
     0
290
     0
174
     0
 93
        1
 44
-50.0
173
     0
291
     1
 45
0.0
1001
ACAD
1000
AcDbSavedByObjectVersion
1070
     0
  0
VISUALSTYLE
  5
FE
102
{ACAD_REACTORS
330
EF
102
}
330
EF
100
AcDbVisualStyle
  2
Facepattern
 70
    15
 71
     2
 72
     2
 73
     1
 90
        0
 40
-0.6
 41
-30.0
 62
     5
 63
     7
 74
     1
 91
        4
 64
     7
 65
   257
 75
     1
175
     1
 42
1.0
 92
        8
 66
     7
 43
1.0
 76
     1
 77
     6
 78
     2
 67
     7
 79
     5
170
     0
171
     0
290
     0
174
     0
 93
        1
 44
0.0
173
     0
291
     1
 45
0.0
1001
ACAD
1000
AcDbSavedByObjectVersion
1070
     0
  0
VISUALSTYLE
  5
F0
102
{ACAD_REACTORS
330
EF
102
}
330
EF
100
AcDbVisualStyle
  2
Flat
 70
     0
 71
     2
 72
     1
 73
     1
 90
        2
 40
-0.6
 41
30.0
 62
     5
 63
     7
 74
     0
 91
        4
 64
     7
 65
   257
 75
     1
175
     1
 42
1.0
 92
        8
 66
     7
 43
1.0
 76
     1
 77
     6
 78
     2
 67
     7
 79
     5
170
     0
171
     0
290
     0
174
     0
 93
        1
 44
0.0
173
     0
291
     1
 45
0.0
1001
ACAD
1000
AcDbSavedByObjectVersion
1070
     0
  0
VISUALSTYLE
  5
F1
102
{ACAD_REACTORS
330
EF
102
}
330
EF
100
AcDbVisualStyle
  2
FlatWithEdges
 70
     1
 71
     2
 72
     1
 73
     1
 90
        2
 40
-0.6
 41
30.0
 62
     5
 63
     7
 74
     1
 91
        4
 64
     7
 65
   257
 75
     1
175
     1
 42
1.0
 92
        0
 66
   257
 43
1.0
 76
     1
 77
     6
 78
     2
 67
     7
 79
     5
170
     0
171
     0
290
     0
174
     0
 93
        1
 44
0.0
173
     0
291
     1
 45
0.0
1001
ACAD
1000
AcDbSavedByObjectVersion
1070
     0
  0
VISUALSTYLE
  5
F2
102
{ACAD_REACTORS
330
EF
102
}
330
EF
100
AcDbVisualStyle
  2
Gouraud
 70
     2
 71
     2
 72
     2
 73
     1
 90
        2
 40
-0.6
 41
30.0
 62
     5
 63
     7
 74
     0
 91
        4
 64
     7
 65
   257
 75
     1
175
     1
 42
1.0
 92
        0
 66
     7
 43
1.0
 76
     1
 77
     6
 78
     2
 67
     7
 79
     5
170
     0
171
     0
290
     0
174
     0
 93
        1
 44
0.0
173
     0
291
     1
 45
0.0
1001
ACAD
1000
AcDbSavedByObjectVersion
1070
     0
  0
VISUALSTYLE
  5
F3
102
{ACAD_REACTORS
330
EF
102
}
330
EF
100
AcDbVisualStyle
  2
GouraudWithEdges
 70
     3
 71
     2
 72
     2
 73
     1
 90
        2
 40
-0.6
 41
30.0
 62
     5
 63
     7
 74
     1
 91
        4
 64
     7
 65
   257
 75
     1
175
     1
 42
1.0
 92
        0
 66
   257
 43
1.0
 76
     1
 77
     6
 78
     2
 67
     7
 79
     5
170
     0
171
     0
290
     0
174
     0
 93
        1
 44
0.0
173
     0
291
     1
 45
0.0
1001
ACAD
1000
AcDbSavedByObjectVersion
1070
     0
  0
VISUALSTYLE
  5
FD
102
{ACAD_REACTORS
330
EF
102
}
330
EF
100
AcDbVisualStyle
  2
Linepattern
 70
    14
 71
     2
 72
     2
 73
     1
 90
        0
 40
-0.6
 41
-30.0
 62
     5
 63
     7
 74
     1
 91
        4
 64
     7
 65
   257
 75
     7
175
     7
 42
1.0
 92
        8
 66
     7
 43
1.0
 76
     1
 77
     6
 78
     2
 67
     7
 79
     5
170
     0
171
     0
290
     0
174
     0
 93
        1
 44
0.0
173
     0
291
     1
 45
0.0
1001
ACAD
1000
AcDbSavedByObjectVersion
1070
     0
  0
VISUALSTYLE
  5
F9
102
{ACAD_REACTORS
330
EF
102
}
330
EF
100
AcDbVisualStyle
  2
Realistic
 70
     8
 71
     2
 72
     2
 73
     1
 90
        0
 40
-0.6
 41
-30.0
 62
     5
 63
     7
 74
     1
 91
        0
 64
     7
 65
   257
 75
     1
175
     1
 42
1.0
 92
        8
 66
     8
 43
1.0
 76
     1
 77
     6
 78
     2
 67
     7
 79
     5
170
     0
171
     0
290
     0
174
     0
 93
       13
 44
0.0
173
     0
291
     0
 45
0.0
1001
ACAD
1000
AcDbSavedByObjectVersion
1070
     0
  0
VISUALSTYLE
  5
FC
102
{ACAD_REACTORS
330
EF
102
}
330
EF
100
AcDbVisualStyle
  2
Thicken
 70
    13
 71
     2
 72
     2
 73
     1
 90
        0
 40
-0.6
 41
-30.0
 62
     5
 63
     7
 74
     1
 91
        4
 64
     7
 65
   257
 75
     1
175
     1
 42
1.0
 92
       12
 66
     7
 43
1.0
 76
     1
 77
     6
 78
     2
 67
     7
 79
     5
170
     0
171
     0
290
     0
174
     0
 93
        1
 44
0.0
173
     0
291
     1
 45
0.0
1001
ACAD
1000
AcDbSavedByObjectVersion
1070
     0
  0
DICTIONARYVAR
  5
146
102
{ACAD_REACTORS
330
5E
102
}
330
5E
100
DictionaryVariables
280
     0
  1
1:1
  0
DICTIONARYVAR
  5
145
102
{ACAD_REACTORS
330
5E
102
}
330
5E
100
DictionaryVariables
280
     0
  1
STANDARD
  0
DICTIONARYVAR
  5
84
102
{ACAD_REACTORS
330
5E
102
}
330
5E
100
DictionaryVariables
280
     0
  1
STANDARD
  0
DICTIONARYVAR
  5
5F
102
{ACAD_REACTORS
330
5E
102
}
330
5E
100
DictionaryVariables
280
     0
  1
2
  0
DICTIONARYVAR
  5
63
102
{ACAD_REACTORS
330
5E
102
}
330
5E
100
DictionaryVariables
280
     0
  1
1
  0
DICTIONARYVAR
  5
5C0
102
{ACAD_REACTORS
330
5E
102
}
330
5E
100
DictionaryVariables
280
     0
  1
0
  0
DICTIONARYVAR
  5
5BE
102
{ACAD_REACTORS
330
5E
102
}
330
5E
100
DictionaryVariables
280
     0
  1
2
  0
DICTIONARYVAR
  5
5BD
102
{ACAD_REACTORS
330
5E
102
}
330
5E
100
DictionaryVariables
280
     0
  1
1
  0
DICTIONARYVAR
  5
5C2
102
{ACAD_REACTORS
330
5E
102
}
330
5E
100
DictionaryVariables
280
     0
  1
80.000000
  0
DICTIONARYVAR
  5
5C1
102
{ACAD_REACTORS
330
5E
102
}
330
5E
100
DictionaryVariables
280
     0
  1
5.000000
  0
DICTIONARYVAR
  5
5BF
102
{ACAD_REACTORS
330
5E
102
}
330
5E
100
DictionaryVariables
280
     0
  1
127
  0
DICTIONARY
  5
5C8
330
D3
100
AcDbDictionary
280
     1
281
     1
  3
ACAD_XREC_ROUNDTRIP
360
5C9
  0
DICTIONARY
  5
5CA
330
D7
100
AcDbDictionary
280
     1
281
     1
  3
ACAD_XREC_ROUNDTRIP
360
5CB
  0
DICTIONARY
  5
5C5
330
22
100
AcDbDictionary
280
     1
281
     1
  3
ACAD_XREC_ROUNDTRIP
360
5C6
  0
DICTIONARY
  5
5CE
330
ED
100
AcDbDictionary
280
     1
281
     1
  3
ACAD_XREC_ROUNDTRIP
360
5CF
  0
DICTIONARY
  5
5CC
330
EC
100
AcDbDictionary
280
     1
281
     1
  3
ACAD_XREC_ROUNDTRIP
360
5CD
  0
DICTIONARY
  5
173
330
EE
100
AcDbDictionary
280
     1
281
     1
  3
ACAD_XREC_ROUNDTRIP
360
5D0
  3
BUMPTILE
360
175
  3
DIFFUSETILE
360
174
  3
OPACITYTILE
360
176
  3
REFLECTIONTILE
360
177
  0
DICTIONARY
  5
162
330
7F
100
AcDbDictionary
280
     1
281
     1
  3
ACAD_ROUNDTRIP_2008_TABLESTYLE_CELLSTYLEMAP
360
5C3
  3
ACAD_XREC_ROUNDTRIP
360
5C7
  0
XRECORD
  5
5C9
102
{ACAD_REACTORS
330
5C8
102
}
330
5C8
100
AcDbXrecord
280
     1
102
SHADEPLOT
 70
     0
102
SHADEPLOTRESLEVEL
 70
     2
102
SHADEPLOTCUSTOMDPI
 70
   300
  0
XRECORD
  5
5CB
102
{ACAD_REACTORS
330
5CA
102
}
330
5CA
100
AcDbXrecord
280
     1
102
SHADEPLOT
 70
     0
102
SHADEPLOTRESLEVEL
 70
     2
102
SHADEPLOTCUSTOMDPI
 70
   300
  0
XRECORD
  5
5C6
102
{ACAD_REACTORS
330
5C5
102
}
330
5C5
100
AcDbXrecord
280
     1
102
SHADEPLOT
 70
     0
102
SHADEPLOTRESLEVEL
 70
     2
102
SHADEPLOTCUSTOMDPI
 70
   300
  0
XRECORD
  5
5CF
102
{ACAD_REACTORS
330
5CE
102
}
330
5CE
100
AcDbXrecord
280
     1
102
MATERIAL
148
0.0
149
0.0
149
0.0
 93
        0
 94
       63
282
     0
 72
     1
 77
     1
171
     1
175
     1
179
     1
273
     0
  0
XRECORD
  5
5CD
102
{ACAD_REACTORS
330
5CC
102
}
330
5CC
100
AcDbXrecord
280
     1
102
MATERIAL
148
0.0
149
0.0
149
0.0
 93
        0
 94
       63
282
     0
 72
     1
 77
     1
171
     1
175
     1
179
     1
273
     0
  0
XRECORD
  5
5D0
102
{ACAD_REACTORS
330
173
102
}
330
173
100
AcDbXrecord
280
     1
102
MATERIAL
148
0.0
149
0.0
149
0.0
 93
        0
 94
       63
282
     0
 72
     1
 77
     1
171
     1
175
     1
179
     1
273
     0
  0
XRECORD
  5
175
102
{ACAD_REACTORS
330
173
102
}
330
173
100
AcDbXrecord
280
     1
270
     1
271
     1
  0
XRECORD
  5
174
102
{ACAD_REACTORS
330
173
102
}
330
173
100
AcDbXrecord
280
     1
270
     1
271
     1
  0
XRECORD
  5
176
102
{ACAD_REACTORS
330
173
102
}
330
173
100
AcDbXrecord
280
     1
270
     1
271
     1
  0
XRECORD
  5
177
102
{ACAD_REACTORS
330
173
102
}
330
173
100
AcDbXrecord
280
     1
270
     1
271
     1
  0
CELLSTYLEMAP
  5
5C3
102
{ACAD_REACTORS
330
162
102
}
330
162
100
AcDbCellStyleMap
 90
        3
300
CELLSTYLE
  1
TABLEFORMAT_BEGIN
 90
        5
170
     1
 91
        0
 92
    32768
 62
   257
 93
        1
300
CONTENTFORMAT
  1
CONTENTFORMAT_BEGIN
 90
        0
 91
        0
 92
      512
 93
        0
300

 40
0.0
140
1.0
 94
        5
 62
     0
340
11
144
6.0
309
CONTENTFORMAT_END
171
     1
301
MARGIN
  1
CELLMARGIN_BEGIN
 40
1.5
 40
1.5
 40
1.5
 40
1.5
 40
4.5
 40
4.5
309
CELLMARGIN_END
 94
        6
 95
        1
302
GRIDFORMAT
  1
GRIDFORMAT_BEGIN
 90
        0
 91
        1
 62
     0
 92
       -2
340
14
 93
        0
 40
1.125
309
GRIDFORMAT_END
 95
        2
302
GRIDFORMAT
  1
GRIDFORMAT_BEGIN
 90
        0
 91
        1
 62
     0
 92
       -2
340
14
 93
        0
 40
1.125
309
GRIDFORMAT_END
 95
        4
302
GRIDFORMAT
  1
GRIDFORMAT_BEGIN
 90
        0
 91
        1
 62
     0
 92
       -2
340
14
 93
        0
 40
1.125
309
GRIDFORMAT_END
 95
        8
302
GRIDFORMAT
  1
GRIDFORMAT_BEGIN
 90
        0
 91
        1
 62
     0
 92
       -2
340
14
 93
        0
 40
1.125
309
GRIDFORMAT_END
 95
       16
302
GRIDFORMAT
  1
GRIDFORMAT_BEGIN
 90
        0
 91
        1
 62
     0
 92
       -2
340
14
 93
        0
 40
1.125
309
GRIDFORMAT_END
 95
       32
302
GRIDFORMAT
  1
GRIDFORMAT_BEGIN
 90
        0
 91
        1
 62
     0
 92
       -2
340
14
 93
        0
 40
1.125
309
GRIDFORMAT_END
309
TABLEFORMAT_END
  1
CELLSTYLE_BEGIN
 90
        1
 91
        1
300
_TITLE
309
CELLSTYLE_END
300
CELLSTYLE
  1
TABLEFORMAT_BEGIN
 90
        5
170
     1
 91
        0
 92
        0
 62
   257
 93
        1
300
CONTENTFORMAT
  1
CONTENTFORMAT_BEGIN
 90
        0
 91
        0
 92
      512
 93
        0
300

 40
0.0
140
1.0
 94
        5
 62
     0
340
11
144
4.5
309
CONTENTFORMAT_END
171
     1
301
MARGIN
  1
CELLMARGIN_BEGIN
 40
1.5
 40
1.5
 40
1.5
 40
1.5
 40
4.5
 40
4.5
309
CELLMARGIN_END
 94
        6
 95
        1
302
GRIDFORMAT
  1
GRIDFORMAT_BEGIN
 90
        0
 91
        1
 62
     0
 92
       -2
340
14
 93
        0
 40
1.125
309
GRIDFORMAT_END
 95
        2
302
GRIDFORMAT
  1
GRIDFORMAT_BEGIN
 90
        0
 91
        1
 62
     0
 92
       -2
340
14
 93
        0
 40
1.125
309
GRIDFORMAT_END
 95
        4
302
GRIDFORMAT
  1
GRIDFORMAT_BEGIN
 90
        0
 91
        1
 62
     0
 92
       -2
340
14
 93
        0
 40
1.125
309
GRIDFORMAT_END
 95
        8
302
GRIDFORMAT
  1
GRIDFORMAT_BEGIN
 90
        0
 91
        1
 62
     0
 92
       -2
340
14
 93
        0
 40
1.125
309
GRIDFORMAT_END
 95
       16
302
GRIDFORMAT
  1
GRIDFORMAT_BEGIN
 90
        0
 91
        1
 62
     0
 92
       -2
340
14
 93
        0
 40
1.125
309
GRIDFORMAT_END
 95
       32
302
GRIDFORMAT
  1
GRIDFORMAT_BEGIN
 90
        0
 91
        1
 62
     0
 92
       -2
340
14
 93
        0
 40
1.125
309
GRIDFORMAT_END
309
TABLEFORMAT_END
  1
CELLSTYLE_BEGIN
 90
        2
 91
        1
300
_HEADER
309
CELLSTYLE_END
300
CELLSTYLE
  1
TABLEFORMAT_BEGIN
 90
        5
170
     1
 91
        0
 92
        0
 62
   257
 93
        1
300
CONTENTFORMAT
  1
CONTENTFORMAT_BEGIN
 90
        0
 91
        0
 92
      512
 93
        0
300

 40
0.0
140
1.0
 94
        2
 62
     0
340
11
144
4.5
309
CONTENTFORMAT_END
171
     1
301
MARGIN
  1
CELLMARGIN_BEGIN
 40
1.5
 40
1.5
 40
1.5
 40
1.5
 40
4.5
 40
4.5
309
CELLMARGIN_END
 94
        6
 95
        1
302
GRIDFORMAT
  1
GRIDFORMAT_BEGIN
 90
        0
 91
        1
 62
     0
 92
       -2
340
14
 93
        0
 40
1.125
309
GRIDFORMAT_END
 95
        2
302
GRIDFORMAT
  1
GRIDFORMAT_BEGIN
 90
        0
 91
        1
 62
     0
 92
       -2
340
14
 93
        0
 40
1.125
309
GRIDFORMAT_END
 95
        4
302
GRIDFORMAT
  1
GRIDFORMAT_BEGIN
 90
        0
 91
        1
 62
     0
 92
       -2
340
14
 93
        0
 40
1.125
309
GRIDFORMAT_END
 95
        8
302
GRIDFORMAT
  1
GRIDFORMAT_BEGIN
 90
        0
 91
        1
 62
     0
 92
       -2
340
14
 93
        0
 40
1.125
309
GRIDFORMAT_END
 95
       16
302
GRIDFORMAT
  1
GRIDFORMAT_BEGIN
 90
        0
 91
        1
 62
     0
 92
       -2
340
14
 93
        0
 40
1.125
309
GRIDFORMAT_END
 95
       32
302
GRIDFORMAT
  1
GRIDFORMAT_BEGIN
 90
        0
 91
        1
 62
     0
 92
       -2
340
14
 93
        0
 40
1.125
309
GRIDFORMAT_END
309
TABLEFORMAT_END
  1
CELLSTYLE_BEGIN
 90
        3
 91
        2
300
_DATA
309
CELLSTYLE_END
  0
XRECORD
  5
5C7
102
{ACAD_REACTORS
330
162
102
}
330
162
100
AcDbXrecord
280
     1
102
ACAD_ROUNDTRIP_PRE2007_TABLESTYLE
 90
      512
 91
        0
  1

 92
      512
 93
        0
  2

 94
      512
 95
        0
  3

  0
ENDSEC
  0
EOF
