  0
SECTION
  2
HEADER
  9
$ACADVER
  1
AC1015
  9
$ACADMAINTVER
 70
    20
  9
$DWGCODEPAGE
  3
ANSI_1254
  9
$INSBASE
 10
0.0
 20
0.0
 30
0.0
  9
$EXTMIN
 10
1827.240325411743
 20
818.5253128784147
 30
0.0
  9
$EXTMAX
 10
1911.492440569937
 20
867.7154125462248
 30
0.0
  9
$LIMMIN
 10
0.0
 20
0.0
  9
$LIMMAX
 10
420.0
 20
297.0
  9
$ORTHOMODE
 70
     1
  9
$REGENMODE
 70
     1
  9
$FILLMODE
 70
     1
  9
$QTEXTMODE
 70
     0
  9
$MIRRTEXT
 70
     0
  9
$LTSCALE
 40
1.0
  9
$ATTMODE
 70
     1
  9
$TEXTSIZE
 40
2.5
  9
$TRACEWID
 40
1.0
  9
$TEXTSTYLE
  7
Standard
  9
$CLAYER
  8
0
  9
$CELTYPE
  6
ByLayer
  9
$CECOLOR
 62
   256
  9
$CELTSCALE
 40
1.0
  9
$DISPSILH
 70
     0
  9
$DIMSCALE
 40
1.0
  9
$DIMASZ
 40
2.5
  9
$DIMEXO
 40
0.625
  9
$DIMDLI
 40
3.75
  9
$DIMRND
 40
0.0
  9
$DIMDLE
 40
0.0
  9
$DIMEXE
 40
1.25
  9
$DIMTP
 40
0.0
  9
$DIMTM
 40
0.0
  9
$DIMTXT
 40
2.5
  9
$DIMCEN
 40
2.5
  9
$DIMTSZ
 40
0.0
  9
$DIMTOL
 70
     0
  9
$DIMLIM
 70
     0
  9
$DIMTIH
 70
     0
  9
$DIMTOH
 70
     0
  9
$DIMSE1
 70
     0
  9
$DIMSE2
 70
     0
  9
$DIMTAD
 70
     1
  9
$DIMZIN
 70
     8
  9
$DIMBLK
  1

  9
$DIMASO
 70
     1
  9
$DIMSHO
 70
     1
  9
$DIMPOST
  1

  9
$DIMAPOST
  1

  9
$DIMALT
 70
     0
  9
$DIMALTD
 70
     3
  9
$DIMALTF
 40
0.03937007874016
  9
$DIMLFAC
 40
1.0
  9
$DIMTOFL
 70
     1
  9
$DIMTVP
 40
0.0
  9
$DIMTIX
 70
     0
  9
$DIMSOXD
 70
     0
  9
$DIMSAH
 70
     0
  9
$DIMBLK1
  1

  9
$DIMBLK2
  1

  9
$DIMSTYLE
  2
ISO-25
  9
$DIMCLRD
 70
     0
  9
$DIMCLRE
 70
     0
  9
$DIMCLRT
 70
     0
  9
$DIMTFAC
 40
1.0
  9
$DIMGAP
 40
0.625
  9
$DIMJUST
 70
     0
  9
$DIMSD1
 70
     0
  9
$DIMSD2
 70
     0
  9
$DIMTOLJ
 70
     0
  9
$DIMTZIN
 70
     8
  9
$DIMALTZ
 70
     0
  9
$DIMALTTZ
 70
     0
  9
$DIMUPT
 70
     0
  9
$DIMDEC
 70
     2
  9
$DIMTDEC
 70
     2
  9
$DIMALTU
 70
     2
  9
$DIMALTTD
 70
     3
  9
$DIMTXSTY
  7
Standard
  9
$DIMAUNIT
 70
     0
  9
$DIMADEC
 70
     0
  9
$DIMALTRND
 40
0.0
  9
$DIMAZIN
 70
     0
  9
$DIMDSEP
 70
    44
  9
$DIMATFIT
 70
     3
  9
$DIMFRAC
 70
     0
  9
$DIMLDRBLK
  1

  9
$DIMLUNIT
 70
     2
  9
$DIMLWD
 70
    -2
  9
$DIMLWE
 70
    -2
  9
$DIMTMOVE
 70
     0
  9
$LUNITS
 70
     2
  9
$LUPREC
 70
     4
  9
$SKETCHINC
 40
1.0
  9
$FILLETRAD
 40
0.0
  9
$AUNITS
 70
     0
  9
$AUPREC
 70
     0
  9
$MENU
  1
.
  9
$ELEVATION
 40
0.0
  9
$PELEVATION
 40
0.0
  9
$THICKNESS
 40
0.0
  9
$LIMCHECK
 70
     0
  9
$CHAMFERA
 40
0.0
  9
$CHAMFERB
 40
0.0
  9
$CHAMFERC
 40
0.0
  9
$CHAMFERD
 40
0.0
  9
$SKPOLY
 70
     0
  9
$TDCREATE
 40
2458451.638412130
  9
$TDUCREATE
 40
2458451.513412130
  9
$TDUPDATE
 40
2458956.455608761
  9
$TDUUPDATE
 40
2458956.330608761
  9
$TDINDWG
 40
0.0018009375
  9
$TDUSRTIMER
 40
0.0018007523
  9
$USRTIMER
 70
     1
  9
$ANGBASE
 50
0.0
  9
$ANGDIR
 70
     0
  9
$PDMODE
 70
     0
  9
$PDSIZE
 40
0.0
  9
$PLINEWID
 40
0.0
  9
$SPLFRAME
 70
     0
  9
$SPLINETYPE
 70
     6
  9
$SPLINESEGS
 70
     8
  9
$HANDSEED
  5
4A5
  9
$SURFTAB1
 70
     6
  9
$SURFTAB2
 70
     6
  9
$SURFTYPE
 70
     6
  9
$SURFU
 70
     6
  9
$SURFV
 70
     6
  9
$UCSBASE
  2

  9
$UCSNAME
  2

  9
$UCSORG
 10
0.0
 20
0.0
 30
0.0
  9
$UCSXDIR
 10
1.0
 20
0.0
 30
0.0
  9
$UCSYDIR
 10
0.0
 20
1.0
 30
0.0
  9
$UCSORTHOREF
  2

  9
$UCSORTHOVIEW
 70
     0
  9
$UCSORGTOP
 10
0.0
 20
0.0
 30
0.0
  9
$UCSORGBOTTOM
 10
0.0
 20
0.0
 30
0.0
  9
$UCSORGLEFT
 10
0.0
 20
0.0
 30
0.0
  9
$UCSORGRIGHT
 10
0.0
 20
0.0
 30
0.0
  9
$UCSORGFRONT
 10
0.0
 20
0.0
 30
0.0
  9
$UCSORGBACK
 10
0.0
 20
0.0
 30
0.0
  9
$PUCSBASE
  2

  9
$PUCSNAME
  2

  9
$PUCSORG
 10
0.0
 20
0.0
 30
0.0
  9
$PUCSXDIR
 10
1.0
 20
0.0
 30
0.0
  9
$PUCSYDIR
 10
0.0
 20
1.0
 30
0.0
  9
$PUCSORTHOREF
  2

  9
$PUCSORTHOVIEW
 70
     0
  9
$PUCSORGTOP
 10
0.0
 20
0.0
 30
0.0
  9
$PUCSORGBOTTOM
 10
0.0
 20
0.0
 30
0.0
  9
$PUCSORGLEFT
 10
0.0
 20
0.0
 30
0.0
  9
$PUCSORGRIGHT
 10
0.0
 20
0.0
 30
0.0
  9
$PUCSORGFRONT
 10
0.0
 20
0.0
 30
0.0
  9
$PUCSORGBACK
 10
0.0
 20
0.0
 30
0.0
  9
$USERI1
 70
     0
  9
$USERI2
 70
     0
  9
$USERI3
 70
     0
  9
$USERI4
 70
     0
  9
$USERI5
 70
     0
  9
$USERR1
 40
0.0
  9
$USERR2
 40
0.0
  9
$USERR3
 40
0.0
  9
$USERR4
 40
0.0
  9
$USERR5
 40
0.0
  9
$WORLDVIEW
 70
     1
  9
$SHADEDGE
 70
     3
  9
$SHADEDIF
 70
    70
  9
$TILEMODE
 70
     1
  9
$MAXACTVP
 70
    64
  9
$PINSBASE
 10
0.0
 20
0.0
 30
0.0
  9
$PLIMCHECK
 70
     0
  9
$PEXTMIN
 10
0.0
 20
0.0
 30
0.0
  9
$PEXTMAX
 10
0.0
 20
0.0
 30
0.0
  9
$PLIMMIN
 10
0.0
 20
0.0
  9
$PLIMMAX
 10
12.0
 20
9.0
  9
$UNITMODE
 70
     0
  9
$VISRETAIN
 70
     1
  9
$PLINEGEN
 70
     0
  9
$PSLTSCALE
 70
     1
  9
$TREEDEPTH
 70
  3020
  9
$CMLSTYLE
  2
Standard
  9
$CMLJUST
 70
     0
  9
$CMLSCALE
 40
20.0
  9
$PROXYGRAPHICS
 70
     1
  9
$MEASUREMENT
 70
     1
  9
$CELWEIGHT
370
    -1
  9
$ENDCAPS
280
     0
  9
$JOINSTYLE
280
     0
  9
$LWDISPLAY
290
     0
  9
$INSUNITS
 70
     4
  9
$HYPERLINKBASE
  1

  9
$STYLESHEET
  1

  9
$XEDIT
290
     1
  9
$CEPSNTYPE
380
     0
  9
$PSTYLEMODE
290
     1
  9
$FINGERPRINTGUID
  2
{375E69C1-90E5-4EA4-A42A-6942AFFD2E7A}
  9
$VERSIONGUID
  2
{2FA73574-7EB9-4509-A017-DC031D816137}
  9
$EXTNAMES
290
     1
  9
$PSVPSCALE
 40
0.0
  9
$OLESTARTUP
290
     0
  0
ENDSEC
  0
SECTION
  2
CLASSES
  0
CLASS
  1
ACDBDICTIONARYWDFLT
  2
AcDbDictionaryWithDefault
  3
ObjectDBX Classes
 90
        0
280
     0
281
     0
  0
CLASS
  1
ACDBPLACEHOLDER
  2
AcDbPlaceHolder
  3
ObjectDBX Classes
 90
        0
280
     0
281
     0
  0
CLASS
  1
LAYOUT
  2
AcDbLayout
  3
ObjectDBX Classes
 90
        0
280
     0
281
     0
  0
CLASS
  1
DICTIONARYVAR
  2
AcDbDictionaryVar
  3
ObjectDBX Classes
 90
        0
280
     0
281
     0
  0
CLASS
  1
TABLESTYLE
  2
AcDbTableStyle
  3
ObjectDBX Classes
 90
     4095
280
     0
281
     0
  0
CLASS
  1
MATERIAL
  2
AcDbMaterial
  3
ObjectDBX Classes
 90
     1153
280
     0
281
     0
  0
CLASS
  1
VISUALSTYLE
  2
AcDbVisualStyle
  3
ObjectDBX Classes
 90
     4095
280
     0
281
     0
  0
CLASS
  1
SCALE
  2
AcDbScale
  3
ObjectDBX Classes
 90
     1153
280
     0
281
     0
  0
CLASS
  1
MLEADERSTYLE
  2
AcDbMLeaderStyle
  3
ACDB_MLEADERSTYLE_CLASS
 90
     4095
280
     0
281
     0
  0
CLASS
  1
CELLSTYLEMAP
  2
AcDbCellStyleMap
  3
ObjectDBX Classes
 90
     1152
280
     0
281
     0
  0
CLASS
  1
ACAD_EVALUATION_GRAPH
  2
AcDbEvalGraph
  3
ObjectDBX Classes
 90
    33921
280
     0
281
     0
  0
CLASS
  1
ACAECUSTOBJ
  2
AcAeEditorObj
  3
AcAeEditorObj
 90
    33792
280
     0
281
     0
  0
CLASS
  1
ACDB_DYNAMICBLOCKPURGEPREVENTER_VERSION
  2
AcDbDynamicBlockPurgePreventer
  3
ObjectDBX Classes
 90
    33921
280
     0
281
     0
  0
CLASS
  1
SORTENTSTABLE
  2
AcDbSortentsTable
  3
ObjectDBX Classes
 90
        0
280
     0
281
     0
  0
ENDSEC
  0
SECTION
  2
TABLES
  0
TABLE
  2
VPORT
  5
8
330
0
100
AcDbSymbolTable
 70
     1
  0
VPORT
  5
EA
330
8
100
AcDbSymbolTableRecord
100
AcDbViewportTableRecord
  2
*Active
 70
     0
 10
0.0
 20
0.0
 11
1.0
 21
1.0
 12
1872.866610013149
 22
846.8891183400023
 13
0.0
 23
0.0
 14
10.0
 24
10.0
 15
10.0
 25
10.0
 16
0.0
 26
0.0
 36
1.0
 17
0.0
 27
0.0
 37
0.0
 40
69.44053727193045
 41
1.90311004784689
 42
50.0
 43
0.0
 44
0.0
 50
0.0
 51
0.0
 71
     0
 72
  1000
 73
     1
 74
     3
 75
     0
 76
     0
 77
     0
 78
     0
281
     0
 65
     1
110
0.0
120
0.0
130
0.0
111
1.0
121
0.0
131
0.0
112
0.0
122
1.0
132
0.0
 79
     0
146
0.0
  0
ENDTAB
  0
TABLE
  2
LTYPE
  5
5
330
0
100
AcDbSymbolTable
 70
     1
  0
LTYPE
  5
14
330
5
100
AcDbSymbolTableRecord
100
AcDbLinetypeTableRecord
  2
ByBlock
 70
     0
  3

 72
    65
 73
     0
 40
0.0
  0
LTYPE
  5
15
330
5
100
AcDbSymbolTableRecord
100
AcDbLinetypeTableRecord
  2
ByLayer
 70
     0
  3

 72
    65
 73
     0
 40
0.0
  0
LTYPE
  5
16
330
5
100
AcDbSymbolTableRecord
100
AcDbLinetypeTableRecord
  2
Continuous
 70
     0
  3
Solid line
 72
    65
 73
     0
 40
0.0
  0
ENDTAB
  0
TABLE
  2
LAYER
  5
2
330
0
100
AcDbSymbolTable
 70
     1
  0
LAYER
  5
10
102
{ACAD_XDICTIONARY
360
13C
102
}
330
2
100
AcDbSymbolTableRecord
100
AcDbLayerTableRecord
  2
0
 70
     0
 62
     7
  6
Continuous
370
    -3
390
F
  0
ENDTAB
  0
TABLE
  2
STYLE
  5
3
330
0
100
AcDbSymbolTable
 70
     2
  0
STYLE
  5
11
330
3
100
AcDbSymbolTableRecord
100
AcDbTextStyleTableRecord
  2
Standard
 70
     0
 40
0.0
 41
1.0
 50
0.0
 71
     0
 42
2.5
  3
txt
  4

  0
STYLE
  5
132
330
3
100
AcDbSymbolTableRecord
100
AcDbTextStyleTableRecord
  2
Annotative
 70
     0
 40
0.0
 41
1.0
 50
0.0
 71
     0
 42
2.5
  3
txt.shx
  4

1001
AcadAnnotative
1000
AnnotativeData
1002
{
1070
     1
1070
     1
1002
}
  0
ENDTAB
  0
TABLE
  2
VIEW
  5
6
330
0
100
AcDbSymbolTable
 70
     0
  0
ENDTAB
  0
TABLE
  2
UCS
  5
7
330
0
100
AcDbSymbolTable
 70
     0
  0
ENDTAB
  0
TABLE
  2
APPID
  5
9
330
0
100
AcDbSymbolTable
 70
    11
  0
APPID
  5
12
330
9
100
AcDbSymbolTableRecord
100
AcDbRegAppTableRecord
  2
ACAD
 70
     0
  0
APPID
  5
9E
330
9
100
AcDbSymbolTableRecord
100
AcDbRegAppTableRecord
  2
ACAD_PSEXT
 70
     0
  0
APPID
  5
133
330
9
100
AcDbSymbolTableRecord
100
AcDbRegAppTableRecord
  2
AcadAnnoPO
 70
     0
  0
APPID
  5
134
330
9
100
AcDbSymbolTableRecord
100
AcDbRegAppTableRecord
  2
AcadAnnotative
 70
     0
  0
APPID
  5
135
330
9
100
AcDbSymbolTableRecord
100
AcDbRegAppTableRecord
  2
ACAD_DSTYLE_DIMJAG
 70
     0
  0
APPID
  5
136
330
9
100
AcDbSymbolTableRecord
100
AcDbRegAppTableRecord
  2
ACAD_DSTYLE_DIMTALN
 70
     0
  0
APPID
  5
165
330
9
100
AcDbSymbolTableRecord
100
AcDbRegAppTableRecord
  2
ACAD_MLEADERVER
 70
     0
  0
APPID
  5
425
330
9
100
AcDbSymbolTableRecord
100
AcDbRegAppTableRecord
  2
ACAUTHENVIRON
 70
     0
  0
APPID
  5
429
330
9
100
AcDbSymbolTableRecord
100
AcDbRegAppTableRecord
  2
AcDbDynamicBlockTrueName
 70
     0
  0
APPID
  5
42A
330
9
100
AcDbSymbolTableRecord
100
AcDbRegAppTableRecord
  2
AcDbDynamicBlockGUID
 70
     0
  0
APPID
  5
42C
330
9
100
AcDbSymbolTableRecord
100
AcDbRegAppTableRecord
  2
AcDbBlockRepETag
 70
     0
  0
ENDTAB
  0
TABLE
  2
DIMSTYLE
  5
A
330
0
100
AcDbSymbolTable
 70
     2
100
AcDbDimStyleTable
 71
     2
340
27
340
137
  0
DIMSTYLE
105
27
330
A
100
AcDbSymbolTableRecord
100
AcDbDimStyleTableRecord
  2
ISO-25
 70
     0
 41
2.5
 42
0.625
 43
3.75
 44
1.25
 73
     0
 74
     0
 77
     1
 78
     8
140
2.5
141
2.5
143
0.03937007874016
147
0.625
171
     3
172
     1
271
     2
272
     2
274
     3
278
    44
283
     0
284
     8
340
11
  0
DIMSTYLE
105
137
330
A
100
AcDbSymbolTableRecord
100
AcDbDimStyleTableRecord
  2
Annotative
 70
     0
 40
0.0
 41
2.5
 42
0.625
 43
3.75
 44
1.25
 73
     0
 74
     0
 77
     1
 78
     8
140
2.5
141
2.5
143
0.03937007874016
147
0.625
171
     3
172
     1
271
     2
272
     2
274
     3
278
    44
283
     0
284
     8
340
11
1001
AcadAnnotative
1000
AnnotativeData
1002
{
1070
     1
1070
     1
1002
}
1001
ACAD_DSTYLE_DIMJAG
1070
   388
1040
1.5
1001
ACAD_DSTYLE_DIMTALN
1070
   392
1070
     0
  0
ENDTAB
  0
TABLE
  2
BLOCK_RECORD
  5
1
330
0
100
AcDbSymbolTable
 70
     5
  0
BLOCK_RECORD
  5
1F
330
1
100
AcDbSymbolTableRecord
100
AcDbBlockTableRecord
  2
*Model_Space
340
22
  0
BLOCK_RECORD
  5
D2
330
1
100
AcDbSymbolTableRecord
100
AcDbBlockTableRecord
  2
*Paper_Space
340
D3
  0
BLOCK_RECORD
  5
D6
330
1
100
AcDbSymbolTableRecord
100
AcDbBlockTableRecord
  2
*Paper_Space0
340
D7
  0
BLOCK_RECORD
  5
31F
102
{ACAD_XDICTIONARY
360
426
102
}
330
1
100
AcDbSymbolTableRecord
100
AcDbBlockTableRecord
  2
1
340
0
310
2800000020000000200000000100080000000000000400000000000000000000000000000000000000000000000080000080000000808000800000008000800080800000C0C0C000C0DCC000F0CAA6000020400000206000002080000020A0000020C0000020E00000400000004020000040400000406000004080000040A0
310
000040C0000040E00000600000006020000060400000606000006080000060A0000060C0000060E00000800000008020000080400000806000008080000080A0000080C0000080E00000A0000000A0200000A0400000A0600000A0800000A0A00000A0C00000A0E00000C0000000C0200000C0400000C0600000C0800000C0
310
A00000C0C00000C0E00000E0000000E0200000E0400000E0600000E0800000E0A00000E0C00000E0E00040000000400020004000400040006000400080004000A0004000C0004000E00040200000402020004020400040206000402080004020A0004020C0004020E000404000004040200040404000404060004040800040
310
40A0004040C0004040E00040600000406020004060400040606000406080004060A0004060C0004060E00040800000408020004080400040806000408080004080A0004080C0004080E00040A0000040A0200040A0400040A0600040A0800040A0A00040A0C00040A0E00040C0000040C0200040C0400040C0600040C08000
310
40C0A00040C0C00040C0E00040E0000040E0200040E0400040E0600040E0800040E0A00040E0C00040E0E00080000000800020008000400080006000800080008000A0008000C0008000E00080200000802020008020400080206000802080008020A0008020C0008020E00080400000804020008040400080406000804080
310
008040A0008040C0008040E00080600000806020008060400080606000806080008060A0008060C0008060E00080800000808020008080400080806000808080008080A0008080C0008080E00080A0000080A0200080A0400080A0600080A0800080A0A00080A0C00080A0E00080C0000080C0200080C0400080C0600080C0
310
800080C0A00080C0C00080C0E00080E0000080E0200080E0400080E0600080E0800080E0A00080E0C00080E0E000C0000000C0002000C0004000C0006000C0008000C000A000C000C000C000E000C0200000C0202000C0204000C0206000C0208000C020A000C020C000C020E000C0400000C0402000C0404000C0406000C0
310
408000C040A000C040C000C040E000C0600000C0602000C0604000C0606000C0608000C060A000C060C000C060E000C0800000C0802000C0804000C0806000C0808000C080A000C080C000C080E000C0A00000C0A02000C0A04000C0A06000C0A08000C0A0A000C0A0C000C0A0E000C0C00000C0C02000C0C04000C0C06000
310
C0C08000C0C0A000F0FBFF00A4A0A000808080000000FF0000FF000000FFFF00FF000000FF00FF00FFFF0000FFFFFF0000000000000000000000000000000000000000000000000000000000000000000000000000000000000000000000000000000000000000000000000000000000000000000000000000000000000000
310
00000000000000000000000000000000000000000000FFFFFFFFFFFFFFFF000000000000FFFFFFFFFFFFFFFF00000000000000000000FF000000000000FF000000000000FF000000000000FF00000000000000000000FF000000000000FF000000000000FF000000000000FF00000000000000000000FF000000000000FF00
310
0000000000FF000000000000FF00000000000000000000FF000000000000FF000000000000FF000000000000FF00000000000000000000FF000000000000FF000000000000FF000000000000FF00000000000000000000FF000000000000FF000000000000FF000000000000FF00000000000000000000FF000000000000FF
310
000000000000FF000000000000FF00000000000000000000FF000000000000FF000000000000FF000000000000FF00000000000000000000FF000000000000FF000000000000FF000000000000FF00000000000000000000FF000000000000FF000000000000FF000000000000FF00000000000000000000FF000000000000
310
FF000000000000FF000000000000FF00000000000000000000FF000000000000FF000000000000FF000000000000FF000000000000FFFFFFFFFFFFFFFFFFFFFFFFFFFFFFFFFFFFFFFFFFFFFFFFFFFFFFFFFFFF0000FF00000000FF00000000FF0000000000000000FF00000000FF00000000FF0000FF00000000FF00000000
310
FF0000000000000000FF00000000FF00000000FF0000FF00000000FF00000000FF0000000000000000FF00000000FF00000000FF0000FF00000000FF00000000FF0000000000000000FF00000000FF00000000FF0000FFFFFFFFFFFFFFFFFFFFFFFFFFFFFFFFFFFFFFFFFFFFFFFFFFFFFFFFFFFF0000000000FFFFFFFFFFFF
310
FFFFFF000000000000FFFFFFFFFFFFFFFFFF0000000000000000FF00000000000000FF000000000000FF00000000000000FF0000000000000000FF00000000000000FF000000000000FF00000000000000FF0000000000000000FF00000000000000FF000000000000FF00000000000000FF0000000000000000FF00000000
310
000000FF000000000000FF00000000000000FF0000000000000000FF00000000000000FF000000000000FF00000000000000FF0000000000000000FFFFFFFFFFFFFFFFFF000000000000FFFFFFFFFFFFFFFFFF0000000000000000000000000000000000000000000000000000000000000000000000000000000000000000
310
0000000000000000000000000000000000000000000000000000000000000000000000000000000000000000000000000000000000000000
102
{BLKREFS
331
358
102
}
1001
AcDbDynamicBlockGUID
1000
{B1769598-013D-4F45-85A9-70DE601E5C3B}
1001
AcDbBlockRepETag
1070
     1
1071
       54
1001
ACAD
1000
DesignCenter Data
1002
{
1070
     1
1070
     4
1002
}
  0
BLOCK_RECORD
  5
359
102
{ACAD_XDICTIONARY
360
44D
102
}
330
1
100
AcDbSymbolTableRecord
100
AcDbBlockTableRecord
  2
2
340
0
310
2800000020000000200000000100080000000000000400000000000000000000000000000000000000000000000080000080000000808000800000008000800080800000C0C0C000C0DCC000F0CAA6000020400000206000002080000020A0000020C0000020E00000400000004020000040400000406000004080000040A0
310
000040C0000040E00000600000006020000060400000606000006080000060A0000060C0000060E00000800000008020000080400000806000008080000080A0000080C0000080E00000A0000000A0200000A0400000A0600000A0800000A0A00000A0C00000A0E00000C0000000C0200000C0400000C0600000C0800000C0
310
A00000C0C00000C0E00000E0000000E0200000E0400000E0600000E0800000E0A00000E0C00000E0E00040000000400020004000400040006000400080004000A0004000C0004000E00040200000402020004020400040206000402080004020A0004020C0004020E000404000004040200040404000404060004040800040
310
40A0004040C0004040E00040600000406020004060400040606000406080004060A0004060C0004060E00040800000408020004080400040806000408080004080A0004080C0004080E00040A0000040A0200040A0400040A0600040A0800040A0A00040A0C00040A0E00040C0000040C0200040C0400040C0600040C08000
310
40C0A00040C0C00040C0E00040E0000040E0200040E0400040E0600040E0800040E0A00040E0C00040E0E00080000000800020008000400080006000800080008000A0008000C0008000E00080200000802020008020400080206000802080008020A0008020C0008020E00080400000804020008040400080406000804080
310
008040A0008040C0008040E00080600000806020008060400080606000806080008060A0008060C0008060E00080800000808020008080400080806000808080008080A0008080C0008080E00080A0000080A0200080A0400080A0600080A0800080A0A00080A0C00080A0E00080C0000080C0200080C0400080C0600080C0
310
800080C0A00080C0C00080C0E00080E0000080E0200080E0400080E0600080E0800080E0A00080E0C00080E0E000C0000000C0002000C0004000C0006000C0008000C000A000C000C000C000E000C0200000C0202000C0204000C0206000C0208000C020A000C020C000C020E000C0400000C0402000C0404000C0406000C0
310
408000C040A000C040C000C040E000C0600000C0602000C0604000C0606000C0608000C060A000C060C000C060E000C0800000C0802000C0804000C0806000C0808000C080A000C080C000C080E000C0A00000C0A02000C0A04000C0A06000C0A08000C0A0A000C0A0C000C0A0E000C0C00000C0C02000C0C04000C0C06000
310
C0C08000C0C0A000F0FBFF00A4A0A000808080000000FF0000FF000000FFFF00FF000000FF00FF00FFFF0000FFFFFF000000000000000000000000000000000000000000000000000000000000000000000000000000000000000000FFFFFFFFFFFFFFFF000000000000000000000000000000000000000000000000FFFFFF
310
FFFFFFFFFF000000000000000000000000000000000000000000000000FF000000000000FF000000000000000000000000000000000000000000000000FF000000000000FF000000000000000000000000000000000000000000000000FF000000000000FF000000000000000000000000000000000000000000000000FF00
310
0000000000FF000000000000000000000000000000000000000000000000FF000000000000FF000000000000000000000000000000000000000000000000FF000000000000FF000000000000000000000000000000000000000000000000FF000000000000FF000000000000000000000000000000000000000000000000FF
310
000000000000FF000000000000000000000000000000000000000000000000FF000000000000FF000000000000000000000000000000000000000000000000FF000000000000FF000000000000000000000000000000000000000000000000FF000000000000FF000000000000000000000000000000000000000000000000
310
FF000000000000FF000000000000000000000000000000000000000000000000FF000000000000FF0000000000000000000000000000000000000000000000FFFFFFFFFFFFFFFFFFFF00000000000000000000000000000000000000000000FF0000000000000000FF00000000000000000000000000000000000000000000
310
FF0000000000000000FF00000000000000000000000000000000000000000000FF0000000000000000FF00000000000000000000000000000000000000000000FF0000000000000000FF00000000000000000000000000000000000000000000FFFFFFFFFFFFFFFFFFFF000000000000000000000000000000000000000000
310
00FFFFFFFFFFFFFFFFFFFF00000000000000000000000000000000000000000000FFA4A4A4A4A4A4A4A4FF00000000000000000000000000000000000000000000FF0000000000000000FF00000000000000000000000000000000000000000000FF0000000000000000FF0000000000000000000000000000000000000000
310
0000FF0000000000000000FF00000000000000000000000000000000000000000000FF0000000000000000FF00000000000000000000000000000000000000000000FF0000000000000000FF00000000000000000000000000000000000000000000FF0000000000000000FF00000000000000000000000000000000000000
310
000000FFFFFFFFFFFFFFFFFFFF00000000000000000000000000000000000000000000000000000000000000000000000000000000000000
102
{BLKREFS
331
379
102
}
1001
AcDbDynamicBlockGUID
1000
{90CE8BB1-E1BA-4D30-ACA3-6CBD05F7F001}
1001
AcDbBlockRepETag
1070
     1
1071
       29
1001
ACAD
1000
DesignCenter Data
1002
{
1070
     1
1070
     4
1002
}
  0
BLOCK_RECORD
  5
37A
102
{ACAD_XDICTIONARY
360
483
102
}
330
1
100
AcDbSymbolTableRecord
100
AcDbBlockTableRecord
  2
3
340
0
310
2800000020000000200000000100080000000000000400000000000000000000000000000000000000000000000080000080000000808000800000008000800080800000C0C0C000C0DCC000F0CAA6000020400000206000002080000020A0000020C0000020E00000400000004020000040400000406000004080000040A0
310
000040C0000040E00000600000006020000060400000606000006080000060A0000060C0000060E00000800000008020000080400000806000008080000080A0000080C0000080E00000A0000000A0200000A0400000A0600000A0800000A0A00000A0C00000A0E00000C0000000C0200000C0400000C0600000C0800000C0
310
A00000C0C00000C0E00000E0000000E0200000E0400000E0600000E0800000E0A00000E0C00000E0E00040000000400020004000400040006000400080004000A0004000C0004000E00040200000402020004020400040206000402080004020A0004020C0004020E000404000004040200040404000404060004040800040
310
40A0004040C0004040E00040600000406020004060400040606000406080004060A0004060C0004060E00040800000408020004080400040806000408080004080A0004080C0004080E00040A0000040A0200040A0400040A0600040A0800040A0A00040A0C00040A0E00040C0000040C0200040C0400040C0600040C08000
310
40C0A00040C0C00040C0E00040E0000040E0200040E0400040E0600040E0800040E0A00040E0C00040E0E00080000000800020008000400080006000800080008000A0008000C0008000E00080200000802020008020400080206000802080008020A0008020C0008020E00080400000804020008040400080406000804080
310
008040A0008040C0008040E00080600000806020008060400080606000806080008060A0008060C0008060E00080800000808020008080400080806000808080008080A0008080C0008080E00080A0000080A0200080A0400080A0600080A0800080A0A00080A0C00080A0E00080C0000080C0200080C0400080C0600080C0
310
800080C0A00080C0C00080C0E00080E0000080E0200080E0400080E0600080E0800080E0A00080E0C00080E0E000C0000000C0002000C0004000C0006000C0008000C000A000C000C000C000E000C0200000C0202000C0204000C0206000C0208000C020A000C020C000C020E000C0400000C0402000C0404000C0406000C0
310
408000C040A000C040C000C040E000C0600000C0602000C0604000C0606000C0608000C060A000C060C000C060E000C0800000C0802000C0804000C0806000C0808000C080A000C080C000C080E000C0A00000C0A02000C0A04000C0A06000C0A08000C0A0A000C0A0C000C0A0E000C0C00000C0C02000C0C04000C0C06000
310
C0C08000C0C0A000F0FBFF00A4A0A000808080000000FF0000FF000000FFFF00FF000000FF00FF00FFFF0000FFFFFF0000000000000000000000000000000000000000000000000000000000000000000000000000000000000000000000000000000000000000000000000000000000000000000000000000000000000000
310
00000000000000000000000000000000000000000000000000000000000000000000000000000000000000000000000000000000000000000000000000000000000000000000000000000000000000000000000000000000000000000000000000000000000000000000000000000000000000000000000000000000000000
310
00000000000000000000000000000000000000000000000000000000000000000000000000000000000000000000000000000000000000000000000000000000000000000000000000000000000000000000000000000000000000000000000000000000000000000000000000000000000000000000000000000000000000
310
00000000000000000000000000000000000000000000000000000000000000000000000000000000000000000000000000000000FFFFFFFFFFFFFFFFFFFFFFFFFFFFFFFFFFFFFFFFFFFFFFFFFFFFFFFFFFFF0000FF000000FFFFFFFFFF00FF00000000000000FFFFFFFFFF00FF00000000FF0000FF000000FFFFFF0000FFFF
310
00000000000000FFFFFF0000FF00FF000000FF0000FF000000FFFFFFFFFFFFFFFF000000000000FFFFFFFFFFFFFFFF000000FF0000FF000000FFFFFFFFFFFFFFFF000000000000FFFFFFFFFFFFFF00FF0000FF0000FF000000FFFFFF0000FFFF00000000000000FFFFFF0000FFFFFF000000FF0000FF000000FFFFFFFFFFFF
310
FF00000000000000FFFFFFFFFFFFFF00000000FF0000FFFFFFFFFFFFFFFFFFFFFFFFFFFFFFFFFFFFFFFFFFFFFFFFFFFFFFFFFFFF000000000000000000000000000000000000000000000000000000000000000000000000000000000000000000000000000000000000000000000000000000000000000000000000000000
310
00000000000000000000000000000000000000000000000000000000000000000000000000000000000000000000000000000000000000000000000000000000000000000000000000000000000000000000000000000000000000000000000000000000000000000000000000000000000000000000000000000000000000
310
00000000000000000000000000000000000000000000000000000000000000000000000000000000000000000000000000000000000000000000000000000000000000000000000000000000000000000000000000000000000000000000000000000000000000000000000000000000000000000000000000000000000000
310
0000000000000000000000000000000000000000000000000000000000000000000000000000000000000000000000000000000000000000
102
{BLKREFS
331
3A9
102
}
1001
AcDbDynamicBlockGUID
1000
{AEA5A1B6-E9C6-4912-AFFD-CCDD3A655301}
1001
AcDbBlockRepETag
1070
     1
1071
       44
1001
ACAD
1000
DesignCenter Data
1002
{
1070
     1
1070
     4
1002
}
  0
BLOCK_RECORD
  5
3AA
330
1
100
AcDbSymbolTableRecord
100
AcDbBlockTableRecord
  2
4
340
0
310
2800000020000000200000000100080000000000000400000000000000000000000000000000000000000000000080000080000000808000800000008000800080800000C0C0C000C0DCC000F0CAA6000020400000206000002080000020A0000020C0000020E00000400000004020000040400000406000004080000040A0
310
000040C0000040E00000600000006020000060400000606000006080000060A0000060C0000060E00000800000008020000080400000806000008080000080A0000080C0000080E00000A0000000A0200000A0400000A0600000A0800000A0A00000A0C00000A0E00000C0000000C0200000C0400000C0600000C0800000C0
310
A00000C0C00000C0E00000E0000000E0200000E0400000E0600000E0800000E0A00000E0C00000E0E00040000000400020004000400040006000400080004000A0004000C0004000E00040200000402020004020400040206000402080004020A0004020C0004020E000404000004040200040404000404060004040800040
310
40A0004040C0004040E00040600000406020004060400040606000406080004060A0004060C0004060E00040800000408020004080400040806000408080004080A0004080C0004080E00040A0000040A0200040A0400040A0600040A0800040A0A00040A0C00040A0E00040C0000040C0200040C0400040C0600040C08000
310
40C0A00040C0C00040C0E00040E0000040E0200040E0400040E0600040E0800040E0A00040E0C00040E0E00080000000800020008000400080006000800080008000A0008000C0008000E00080200000802020008020400080206000802080008020A0008020C0008020E00080400000804020008040400080406000804080
310
008040A0008040C0008040E00080600000806020008060400080606000806080008060A0008060C0008060E00080800000808020008080400080806000808080008080A0008080C0008080E00080A0000080A0200080A0400080A0600080A0800080A0A00080A0C00080A0E00080C0000080C0200080C0400080C0600080C0
310
800080C0A00080C0C00080C0E00080E0000080E0200080E0400080E0600080E0800080E0A00080E0C00080E0E000C0000000C0002000C0004000C0006000C0008000C000A000C000C000C000E000C0200000C0202000C0204000C0206000C0208000C020A000C020C000C020E000C0400000C0402000C0404000C0406000C0
310
408000C040A000C040C000C040E000C0600000C0602000C0604000C0606000C0608000C060A000C060C000C060E000C0800000C0802000C0804000C0806000C0808000C080A000C080C000C080E000C0A00000C0A02000C0A04000C0A06000C0A08000C0A0A000C0A0C000C0A0E000C0C00000C0C02000C0C04000C0C06000
310
C0C08000C0C0A000F0FBFF00A4A0A000808080000000FF0000FF000000FFFF00FF000000FF00FF00FFFF0000FFFFFF0000000000000000000000000000000000000000000000000000000000000000000000000000000000000000000000000000000000FF0000000000000000000000000000000000000000000000000000
310
0000FFFFFFFFFFFFFF00000000000000000000000000000000000000000000000000FF0000000000FF00000000000000000000000000000000000000000000000000FF0000000000FF00000000000000000000000000000000000000000000000000FF0000000000FF00000000000000000000000000000000000000000000
310
000000FF0000000000FF00000000000000000000000000000000FFFFFFFFFFFF000000FF0000000000FF000000000000000000000000000000FF0000000000FFFF0000FF0000000000FF000000000000000000000000000000FF000000000000FF0000FF0000000000FF000000000000000000000000000000FF0000000000
310
00FF0000FF000000FFFFFFFFFF00000000000000000000000000FF000000000000FF0000FF0000FF0000FF0000FFFF0000000000000000000000FF000000000000FF0000FFFFFFFF0000FF00000000FF00000000000000000000FF000000000000FF00FFFF0000FF00FFFF00000000FF00000000000000000000FF00000000
310
0000FFFFFF000000FFFF0000FFFF0000FF00000000000000000000FF00000000FFFF0000FF00FFFFFFFFFFFF0000FFFFFF00000000000000000000FF0000FFFF00000000FFFFFFFFFFFFFFFFFF0000FFFF00000000000000000000FFFFFFFF000000FFFF00FF000000000000FFFFFF00000000000000000000FFFFFF0000FF
310
00FFFF000000FF000000000000FF00000000000000000000FFFF00FF000000FFFF0000000000FF000000000000FF00000000000000000000FF0000FF00FFFFFFFFFFFF000000FF00FFFFFFFF00FF00000000000000000000FF0000FFFFFFFFFFFFFFFFFF0000FFFFFFFFFFFFFFFF00000000000000000000FFFFFF00FFFF00
310
00000000FFFFFFFFFF00000000FFFF00000000000000000000FF000000FF000000000000FFFF00FFFF000000FFFFFF0000000000000000000000FFFF00FF000000000000FF0000FFFFFFFFFFFFFFFF00000000000000000000000000FFFF0000FFFFFF0000FF00000000FFFF0000000000000000000000000000000000FFFF
310
FFFFFFFFFFFFFF0000000000000000000000000000000000000000000000FFFFFF000000FFFFFF0000000000000000000000000000000000000000000000FFFFFF000000FFFFFF000000000000000000000000000000000000000000000000FFFFFFFFFFFFFF00000000000000000000000000000000000000000000000000
310
0000FFFFFF000000000000000000000000000000000000000000000000000000000000000000000000000000000000000000000000000000
102
{BLKREFS
331
3E5
102
}
1001
ACAD
1000
DesignCenter Data
1002
{
1070
     1
1070
     4
1002
}
  0
ENDTAB
  0
ENDSEC
  0
SECTION
  2
BLOCKS
  0
BLOCK
  5
20
330
1F
100
AcDbEntity
  8
0
100
AcDbBlockBegin
  2
*Model_Space
 70
     0
 10
0.0
 20
0.0
 30
0.0
  3
*Model_Space
  1

  0
ENDBLK
  5
21
330
1F
100
AcDbEntity
  8
0
100
AcDbBlockEnd
  0
BLOCK
  5
D4
330
D2
100
AcDbEntity
 67
     1
  8
0
100
AcDbBlockBegin
  2
*Paper_Space
 70
     0
 10
0.0
 20
0.0
 30
0.0
  3
*Paper_Space
  1

  0
ENDBLK
  5
D5
330
D2
100
AcDbEntity
 67
     1
  8
0
100
AcDbBlockEnd
  0
BLOCK
  5
D8
330
D6
100
AcDbEntity
 67
     1
  8
0
100
AcDbBlockBegin
  2
*Paper_Space0
 70
     0
 10
0.0
 20
0.0
 30
0.0
  3
*Paper_Space0
  1

  0
ENDBLK
  5
D9
330
D6
100
AcDbEntity
 67
     1
  8
0
100
AcDbBlockEnd
  0
BLOCK
  5
320
330
31F
100
AcDbEntity
  8
0
100
AcDbBlockBegin
  2
1
 70
     0
 10
0.0
 20
0.0
 30
0.0
  3
1
  1

  0
ARC
  5
3EF
330
31F
100
AcDbEntity
  8
0
  6
Continuous
 62
     7
370
    15
100
AcDbCircle
 10
1850.277287249568
 20
862.5154125462247
 30
0.0
 40
0.200000000000017
100
AcDbArc
 50
180.0
 51
270.0
1001
AcDbBlockRepETag
1070
     1
1071
        0
1005
3EF
  0
ARC
  5
3F0
330
31F
100
AcDbEntity
  8
0
  6
Continuous
 62
     7
370
    15
100
AcDbCircle
 10
1856.727287249568
 20
862.5154125462247
 30
0.0
 40
0.200000000000017
100
AcDbArc
 50
270.0
 51
0.0
1001
AcDbBlockRepETag
1070
     1
1071
        1
1005
3F0
  0
LINE
  5
3F1
330
31F
100
AcDbEntity
  8
0
  6
Continuous
 62
     7
370
    15
100
AcDbLine
 10
1856.927287249568
 20
862.5154125462247
 30
0.0
 11
1856.927287249568
 21
867.7154125462248
 31
0.0
1001
AcDbBlockRepETag
1070
     1
1071
        2
1005
3F1
  0
LINE
  5
3F2
330
31F
100
AcDbEntity
  8
0
  6
Continuous
 62
     7
370
    15
100
AcDbLine
 10
1850.077287249568
 20
867.7154125462248
 30
0.0
 11
1850.077287249568
 21
862.5154125462247
 31
0.0
1001
AcDbBlockRepETag
1070
     1
1071
        3
1005
3F2
  0
LINE
  5
3F3
330
31F
100
AcDbEntity
  8
0
  6
Continuous
 62
     7
370
    15
100
AcDbLine
 10
1868.927287249568
 20
862.5154125462247
 30
0.0
 11
1868.927287249568
 21
867.7154125462248
 31
0.0
1001
AcDbBlockRepETag
1070
     1
1071
        4
1005
3F3
  0
LINE
  5
3F4
330
31F
100
AcDbEntity
  8
0
  6
Continuous
 62
     7
370
    15
100
AcDbLine
 10
1862.077287249568
 20
867.7154125462248
 30
0.0
 11
1862.077287249568
 21
862.5154125462247
 31
0.0
1001
AcDbBlockRepETag
1070
     1
1071
        5
1005
3F4
  0
ARC
  5
3F5
330
31F
100
AcDbEntity
  8
0
  6
Continuous
 62
     7
370
    15
100
AcDbCircle
 10
1862.277287249568
 20
862.5154125462247
 30
0.0
 40
0.200000000000017
100
AcDbArc
 50
180.0
 51
270.0
1001
AcDbBlockRepETag
1070
     1
1071
        6
1005
3F5
  0
ARC
  5
3F6
330
31F
100
AcDbEntity
  8
0
  6
Continuous
 62
     7
370
    15
100
AcDbCircle
 10
1868.727287249568
 20
862.5154125462247
 30
0.0
 40
0.200000000000017
100
AcDbArc
 50
270.0
 51
0.0
1001
AcDbBlockRepETag
1070
     1
1071
        7
1005
3F6
  0
LINE
  5
3F7
330
31F
100
AcDbEntity
  8
0
  6
Continuous
 62
     7
370
    15
100
AcDbLine
 10
1856.440609642979
 20
846.7154125461442
 30
0.0
 11
1856.440609642979
 21
857.4154125461474
 31
0.0
1001
AcDbBlockRepETag
1070
     1
1071
        8
1005
3F7
  0
LINE
  5
3F8
330
31F
100
AcDbEntity
  8
0
  6
Continuous
 62
     7
370
    15
100
AcDbLine
 10
1850.440609642979
 20
857.4154125461474
 30
0.0
 11
1850.440609642979
 21
846.7154125461442
 31
0.0
1001
AcDbBlockRepETag
1070
     1
1071
        9
1005
3F8
  0
LINE
  5
3F9
330
31F
100
AcDbEntity
  8
0
  6
Continuous
 62
     7
370
    15
100
AcDbLine
 10
1850.440609643067
 20
846.7154125461442
 30
0.0
 11
1850.640609642942
 21
846.5154125462687
 31
0.0
1001
AcDbBlockRepETag
1070
     1
1071
       10
1005
3F9
  0
LINE
  5
3FA
330
31F
100
AcDbEntity
  8
0
  6
Continuous
 62
     7
370
    15
100
AcDbLine
 10
1856.240609643015
 20
846.5154125462687
 30
0.0
 11
1856.440609642891
 21
846.7154125461442
 31
0.0
1001
AcDbBlockRepETag
1070
     1
1071
       11
1005
3FA
  0
LINE
  5
3FB
330
31F
100
AcDbEntity
  8
0
  6
Continuous
 62
     7
370
    15
100
AcDbLine
 10
1856.502287249568
 20
861.4154125462247
 30
0.0
 11
1856.502287249568
 21
862.3154125462248
 31
0.0
1001
AcDbBlockRepETag
1070
     1
1071
       12
1005
3FB
  0
LINE
  5
3FC
330
31F
100
AcDbEntity
  8
0
  6
Continuous
 62
     7
370
    15
100
AcDbLine
 10
1850.502287249568
 20
862.3154125462248
 30
0.0
 11
1850.502287249568
 21
861.4154125462247
 31
0.0
1001
AcDbBlockRepETag
1070
     1
1071
       13
1005
3FC
  0
LINE
  5
3FD
330
31F
100
AcDbEntity
  8
0
  6
Continuous
 62
     7
370
    15
100
AcDbLine
 10
1868.440609642979
 20
846.7154125461442
 30
0.0
 11
1868.440609642979
 21
857.4154125461474
 31
0.0
1001
AcDbBlockRepETag
1070
     1
1071
       14
1005
3FD
  0
LINE
  5
3FE
330
31F
100
AcDbEntity
  8
0
  6
Continuous
 62
     7
370
    15
100
AcDbLine
 10
1862.440609642979
 20
857.4154125461474
 30
0.0
 11
1862.440609642979
 21
846.7154125461442
 31
0.0
1001
AcDbBlockRepETag
1070
     1
1071
       15
1005
3FE
  0
LINE
  5
3FF
330
31F
100
AcDbEntity
  8
0
  6
Continuous
 62
     7
370
    15
100
AcDbLine
 10
1868.502287249568
 20
861.4154125462247
 30
0.0
 11
1868.502287249568
 21
862.3154125462248
 31
0.0
1001
AcDbBlockRepETag
1070
     1
1071
       16
1005
3FF
  0
LINE
  5
400
330
31F
100
AcDbEntity
  8
0
  6
Continuous
 62
     7
370
    15
100
AcDbLine
 10
1862.502287249568
 20
862.3154125462248
 30
0.0
 11
1862.502287249568
 21
861.4154125462247
 31
0.0
1001
AcDbBlockRepETag
1070
     1
1071
       17
1005
400
  0
LINE
  5
401
330
31F
100
AcDbEntity
  8
0
  6
Continuous
 62
     7
370
    15
100
AcDbLine
 10
1862.440609643067
 20
846.7154125461442
 30
0.0
 11
1862.640609642943
 21
846.5154125462687
 31
0.0
1001
AcDbBlockRepETag
1070
     1
1071
       18
1005
401
  0
LINE
  5
402
330
31F
100
AcDbEntity
  8
0
  6
Continuous
 62
     7
370
    15
100
AcDbLine
 10
1868.240609643015
 20
846.5154125462687
 30
0.0
 11
1868.440609642891
 21
846.7154125461442
 31
0.0
1001
AcDbBlockRepETag
1070
     1
1071
       19
1005
402
  0
LINE
  5
403
330
31F
100
AcDbEntity
  8
0
  6
Continuous
 62
     7
370
    15
100
AcDbLine
 10
1856.440609642971
 20
857.4154125461474
 30
0.0
 11
1856.340609642882
 21
857.5154125462359
 31
0.0
1001
AcDbBlockRepETag
1070
     1
1071
       20
1005
403
  0
LINE
  5
404
330
31F
100
AcDbEntity
  8
0
  6
Continuous
 62
     7
370
    15
100
AcDbLine
 10
1850.540609643075
 20
857.5154125462359
 30
0.0
 11
1850.440609642987
 21
857.4154125461474
 31
0.0
1001
AcDbBlockRepETag
1070
     1
1071
       21
1005
404
  0
LINE
  5
405
330
31F
100
AcDbEntity
  8
0
  6
Continuous
 62
     7
370
    15
100
AcDbLine
 10
1868.440609642971
 20
857.4154125461474
 30
0.0
 11
1868.340609642882
 21
857.5154125462359
 31
0.0
1001
AcDbBlockRepETag
1070
     1
1071
       22
1005
405
  0
LINE
  5
406
330
31F
100
AcDbEntity
  8
0
  6
Continuous
 62
     7
370
    15
100
AcDbLine
 10
1862.540609643075
 20
857.5154125462359
 30
0.0
 11
1862.440609642986
 21
857.4154125461474
 31
0.0
1001
AcDbBlockRepETag
1070
     1
1071
       23
1005
406
  0
LINE
  5
407
330
31F
100
AcDbEntity
  8
0
  6
Continuous
 62
     7
370
    15
100
AcDbLine
 10
1855.752287249569
 20
857.5154125462248
 30
0.0
 11
1855.752287249569
 21
861.4154125462247
 31
0.0
1001
AcDbBlockRepETag
1070
     1
1071
       24
1005
407
  0
LINE
  5
408
330
31F
100
AcDbEntity
  8
0
  6
Continuous
 62
     7
370
    15
100
AcDbLine
 10
1851.252287249566
 20
861.4154125462247
 30
0.0
 11
1851.252287249566
 21
857.5154125462248
 31
0.0
1001
AcDbBlockRepETag
1070
     1
1071
       25
1005
408
  0
LINE
  5
409
330
31F
100
AcDbEntity
  8
0
  6
Continuous
 62
     7
370
    15
100
AcDbLine
 10
1855.752287249569
 20
861.4154125462247
 30
0.0
 11
1851.252287249566
 21
861.4154125462247
 31
0.0
1001
AcDbBlockRepETag
1070
     1
1071
       26
1005
409
  0
LINE
  5
40A
330
31F
100
AcDbEntity
  8
0
  6
Continuous
 62
     7
370
    15
100
AcDbLine
 10
1855.752287249569
 20
857.5154125462248
 30
0.0
 11
1851.252287249566
 21
857.5154125462248
 31
0.0
1001
AcDbBlockRepETag
1070
     1
1071
       27
1005
40A
  0
LINE
  5
40B
330
31F
100
AcDbEntity
  8
0
  6
Continuous
 62
     7
370
    15
100
AcDbLine
 10
1867.75228724957
 20
857.5154125462248
 30
0.0
 11
1867.75228724957
 21
861.4154125462247
 31
0.0
1001
AcDbBlockRepETag
1070
     1
1071
       28
1005
40B
  0
LINE
  5
40C
330
31F
100
AcDbEntity
  8
0
  6
Continuous
 62
     7
370
    15
100
AcDbLine
 10
1863.252287249566
 20
861.4154125462247
 30
0.0
 11
1863.252287249566
 21
857.5154125462248
 31
0.0
1001
AcDbBlockRepETag
1070
     1
1071
       29
1005
40C
  0
LINE
  5
40D
330
31F
100
AcDbEntity
  8
0
  6
Continuous
 62
     7
370
    15
100
AcDbLine
 10
1867.75228724957
 20
861.4154125462247
 30
0.0
 11
1863.252287249566
 21
861.4154125462247
 31
0.0
1001
AcDbBlockRepETag
1070
     1
1071
       30
1005
40D
  0
LINE
  5
40E
330
31F
100
AcDbEntity
  8
0
  6
Continuous
 62
     7
370
    15
100
AcDbLine
 10
1867.75228724957
 20
857.5154125462248
 30
0.0
 11
1863.252287249566
 21
857.5154125462248
 31
0.0
1001
AcDbBlockRepETag
1070
     1
1071
       31
1005
40E
  0
LINE
  5
40F
330
31F
100
AcDbEntity
  8
0
  6
Continuous
 62
     7
370
    15
100
AcDbLine
 10
1850.277287251434
 20
862.3154125462248
 30
0.0
 11
1856.727287249568
 21
862.3154125462248
 31
0.0
1001
AcDbBlockRepETag
1070
     1
1071
       32
1005
40F
  0
LINE
  5
410
330
31F
100
AcDbEntity
  8
0
  6
Continuous
 62
     7
370
    15
100
AcDbLine
 10
1856.927287249568
 20
867.7154125462248
 30
0.0
 11
1850.077287249568
 21
867.7154125462248
 31
0.0
1001
AcDbBlockRepETag
1070
     1
1071
       33
1005
410
  0
LINE
  5
411
330
31F
100
AcDbEntity
  8
0
  6
Continuous
 62
     7
370
    15
100
AcDbLine
 10
1868.927287249568
 20
867.7154125462248
 30
0.0
 11
1862.077287249568
 21
867.7154125462248
 31
0.0
1001
AcDbBlockRepETag
1070
     1
1071
       34
1005
411
  0
LINE
  5
412
330
31F
100
AcDbEntity
  8
0
  6
Continuous
 62
     7
370
    15
100
AcDbLine
 10
1862.277287251434
 20
862.3154125462248
 30
0.0
 11
1868.727287249568
 21
862.3154125462248
 31
0.0
1001
AcDbBlockRepETag
1070
     1
1071
       35
1005
412
  0
LINE
  5
413
330
31F
100
AcDbEntity
  8
0
  6
Continuous
 62
     7
370
    15
100
AcDbLine
 10
1855.752287249569
 20
861.4154125462247
 30
0.0
 11
1863.252287249566
 21
861.4154125462247
 31
0.0
1001
AcDbBlockRepETag
1070
     1
1071
       36
1005
413
  0
LINE
  5
414
330
31F
100
AcDbEntity
  8
0
  6
Continuous
 62
     7
370
    15
100
AcDbLine
 10
1863.252287249566
 20
857.5154125462248
 30
0.0
 11
1855.752287249569
 21
857.5154125462248
 31
0.0
1001
AcDbBlockRepETag
1070
     1
1071
       37
1005
414
  0
LINE
  5
415
330
31F
100
AcDbEntity
  8
0
  6
Continuous
 62
     7
370
    15
100
AcDbLine
 10
1871.202287249567
 20
857.5154125462248
 30
0.0
 11
1871.202287249567
 21
861.4154125462247
 31
0.0
1001
AcDbBlockRepETag
1070
     1
1071
       38
1005
415
  0
LINE
  5
416
330
31F
100
AcDbEntity
  8
0
  6
Continuous
 62
     7
370
    15
100
AcDbLine
 10
1867.75228724957
 20
861.4154125462247
 30
0.0
 11
1871.202287249567
 21
861.4154125462247
 31
0.0
1001
AcDbBlockRepETag
1070
     1
1071
       39
1005
416
  0
LINE
  5
417
330
31F
100
AcDbEntity
  8
0
  6
Continuous
 62
     7
370
    15
100
AcDbLine
 10
1871.202287249567
 20
857.5154125462248
 30
0.0
 11
1867.75228724957
 21
857.5154125462248
 31
0.0
1001
AcDbBlockRepETag
1070
     1
1071
       40
1005
417
  0
LINE
  5
418
330
31F
100
AcDbEntity
  8
0
  6
Continuous
 62
     7
370
    15
100
AcDbLine
 10
1847.802287249568
 20
861.4154125462247
 30
0.0
 11
1847.802287249568
 21
857.5154125462248
 31
0.0
1001
AcDbBlockRepETag
1070
     1
1071
       41
1005
418
  0
LINE
  5
419
330
31F
100
AcDbEntity
  8
0
  6
Continuous
 62
     7
370
    15
100
AcDbLine
 10
1847.802287249568
 20
861.4154125462247
 30
0.0
 11
1851.252287249566
 21
861.4154125462247
 31
0.0
1001
AcDbBlockRepETag
1070
     1
1071
       42
1005
419
  0
LINE
  5
41A
330
31F
100
AcDbEntity
  8
0
  6
Continuous
 62
     7
370
    15
100
AcDbLine
 10
1851.252287249566
 20
857.5154125462248
 30
0.0
 11
1847.802287249568
 21
857.5154125462248
 31
0.0
1001
AcDbBlockRepETag
1070
     1
1071
       43
1005
41A
  0
LINE
  5
41B
330
31F
100
AcDbEntity
  8
0
  6
Continuous
 62
     7
370
    15
100
AcDbLine
 10
1850.440609642987
 20
857.4154125461474
 30
0.0
 11
1856.440609642971
 21
857.4154125461474
 31
0.0
1001
AcDbBlockRepETag
1070
     1
1071
       44
1005
41B
  0
LINE
  5
41C
330
31F
100
AcDbEntity
  8
0
  6
Continuous
 62
     7
370
    15
100
AcDbLine
 10
1850.440609642979
 20
846.7154125461442
 30
0.0
 11
1856.440609642979
 21
846.7154125461442
 31
0.0
1001
AcDbBlockRepETag
1070
     1
1071
       45
1005
41C
  0
LINE
  5
41D
330
31F
100
AcDbEntity
  8
0
  6
Continuous
 62
     7
370
    15
100
AcDbLine
 10
1853.440609642978
 20
846.5154125462687
 30
0.0
 11
1856.240609643015
 21
846.5154125462687
 31
0.0
1001
AcDbBlockRepETag
1070
     1
1071
       46
1005
41D
  0
LINE
  5
41E
330
31F
100
AcDbEntity
  8
0
  6
Continuous
 62
     7
370
    15
100
AcDbLine
 10
1850.640609642942
 20
846.5154125462687
 30
0.0
 11
1853.440609642978
 21
846.5154125462687
 31
0.0
1001
AcDbBlockRepETag
1070
     1
1071
       47
1005
41E
  0
LINE
  5
41F
330
31F
100
AcDbEntity
  8
0
  6
Continuous
 62
     7
370
    15
100
AcDbLine
 10
1862.440609642986
 20
857.4154125461474
 30
0.0
 11
1868.440609642971
 21
857.4154125461474
 31
0.0
1001
AcDbBlockRepETag
1070
     1
1071
       48
1005
41F
  0
LINE
  5
420
330
31F
100
AcDbEntity
  8
0
  6
Continuous
 62
     7
370
    15
100
AcDbLine
 10
1862.440609642979
 20
846.7154125461442
 30
0.0
 11
1868.440609642979
 21
846.7154125461442
 31
0.0
1001
AcDbBlockRepETag
1070
     1
1071
       49
1005
420
  0
LINE
  5
421
330
31F
100
AcDbEntity
  8
0
  6
Continuous
 62
     7
370
    15
100
AcDbLine
 10
1865.440609642979
 20
846.5154125462687
 30
0.0
 11
1868.240609643015
 21
846.5154125462687
 31
0.0
1001
AcDbBlockRepETag
1070
     1
1071
       50
1005
421
  0
LINE
  5
422
330
31F
100
AcDbEntity
  8
0
  6
Continuous
 62
     7
370
    15
100
AcDbLine
 10
1862.640609642943
 20
846.5154125462687
 30
0.0
 11
1865.440609642979
 21
846.5154125462687
 31
0.0
1001
AcDbBlockRepETag
1070
     1
1071
       51
1005
422
  0
LINE
  5
423
330
31F
100
AcDbEntity
  8
0
  6
Continuous
 62
     8
370
    15
100
AcDbLine
 10
1856.927287249568
 20
862.5154125462247
 30
0.0
 11
1850.077287249568
 21
862.5154125462247
 31
0.0
1001
AcDbBlockRepETag
1070
     1
1071
       52
1005
423
  0
LINE
  5
424
330
31F
100
AcDbEntity
  8
0
  6
Continuous
 62
     8
370
    15
100
AcDbLine
 10
1868.927287249568
 20
862.5154125462247
 30
0.0
 11
1862.077287249568
 21
862.5154125462247
 31
0.0
1001
AcDbBlockRepETag
1070
     1
1071
       53
1005
424
  0
ENDBLK
  5
321
330
31F
100
AcDbEntity
  8
0
100
AcDbBlockEnd
  0
BLOCK
  5
35A
330
359
100
AcDbEntity
  8
0
100
AcDbBlockBegin
  2
2
 70
     0
 10
0.0
 20
0.0
 30
0.0
  3
2
  1

  0
ARC
  5
430
330
359
100
AcDbEntity
  8
0
  6
Continuous
 62
     7
370
    15
100
AcDbCircle
 10
1827.715325411744
 20
862.5154125462247
 30
0.0
 40
0.200000000000017
100
AcDbArc
 50
180.0
 51
270.0
1001
AcDbBlockRepETag
1070
     1
1071
        0
1005
430
  0
ARC
  5
431
330
359
100
AcDbEntity
  8
0
  6
Continuous
 62
     7
370
    15
100
AcDbCircle
 10
1834.165325411744
 20
862.5154125462247
 30
0.0
 40
0.200000000000017
100
AcDbArc
 50
270.0
 51
0.0
1001
AcDbBlockRepETag
1070
     1
1071
        1
1005
431
  0
LINE
  5
432
330
359
100
AcDbEntity
  8
0
  6
Continuous
 62
     7
370
    15
100
AcDbLine
 10
1834.365325411743
 20
862.5154125462247
 30
0.0
 11
1834.365325411743
 21
867.7154125462248
 31
0.0
1001
AcDbBlockRepETag
1070
     1
1071
        2
1005
432
  0
LINE
  5
433
330
359
100
AcDbEntity
  8
0
  6
Continuous
 62
     7
370
    15
100
AcDbLine
 10
1827.515325411744
 20
867.7154125462248
 30
0.0
 11
1827.515325411744
 21
862.5154125462247
 31
0.0
1001
AcDbBlockRepETag
1070
     1
1071
        3
1005
433
  0
LINE
  5
434
330
359
100
AcDbEntity
  8
0
  6
Continuous
 62
     7
370
    15
100
AcDbLine
 10
1833.940325411744
 20
861.4154125462247
 30
0.0
 11
1833.940325411744
 21
862.3154125462248
 31
0.0
1001
AcDbBlockRepETag
1070
     1
1071
        4
1005
434
  0
LINE
  5
435
330
359
100
AcDbEntity
  8
0
  6
Continuous
 62
     7
370
    15
100
AcDbLine
 10
1827.940325411744
 20
862.3154125462248
 30
0.0
 11
1827.940325411744
 21
861.4154125462247
 31
0.0
1001
AcDbBlockRepETag
1070
     1
1071
        5
1005
435
  0
LINE
  5
436
330
359
100
AcDbEntity
  8
0
  6
Continuous
 62
     7
370
    15
100
AcDbLine
 10
1833.940325411744
 20
846.7154125461442
 30
0.0
 11
1833.940325411744
 21
857.4154125461474
 31
0.0
1001
AcDbBlockRepETag
1070
     1
1071
        6
1005
436
  0
LINE
  5
437
330
359
100
AcDbEntity
  8
0
  6
Continuous
 62
     7
370
    15
100
AcDbLine
 10
1827.940325411744
 20
857.4154125461474
 30
0.0
 11
1827.940325411744
 21
846.7154125461442
 31
0.0
1001
AcDbBlockRepETag
1070
     1
1071
        7
1005
437
  0
LINE
  5
438
330
359
100
AcDbEntity
  8
0
  6
Continuous
 62
     7
370
    15
100
AcDbLine
 10
1827.940325411832
 20
846.7154125461442
 30
0.0
 11
1828.140325411708
 21
846.5154125462687
 31
0.0
1001
AcDbBlockRepETag
1070
     1
1071
        8
1005
438
  0
LINE
  5
439
330
359
100
AcDbEntity
  8
0
  6
Continuous
 62
     7
370
    15
100
AcDbLine
 10
1833.74032541178
 20
846.5154125462687
 30
0.0
 11
1833.940325411655
 21
846.7154125461442
 31
0.0
1001
AcDbBlockRepETag
1070
     1
1071
        9
1005
439
  0
LINE
  5
43A
330
359
100
AcDbEntity
  8
0
  6
Continuous
 62
     7
370
    15
100
AcDbLine
 10
1833.940325411736
 20
857.4154125461474
 30
0.0
 11
1833.840325411647
 21
857.5154125462359
 31
0.0
1001
AcDbBlockRepETag
1070
     1
1071
       10
1005
43A
  0
LINE
  5
43B
330
359
100
AcDbEntity
  8
0
  6
Continuous
 62
     7
370
    15
100
AcDbLine
 10
1828.04032541184
 20
857.5154125462359
 30
0.0
 11
1827.940325411752
 21
857.4154125461474
 31
0.0
1001
AcDbBlockRepETag
1070
     1
1071
       11
1005
43B
  0
LINE
  5
43E
330
359
100
AcDbEntity
  8
0
  6
Continuous
 62
     7
370
    15
100
AcDbLine
 10
1834.290325411744
 20
861.4154125462247
 30
0.0
 11
1834.290325411744
 21
857.5154125462248
 31
0.0
1001
AcDbBlockRepETag
1070
     1
1071
       12
1005
43E
  0
LINE
  5
43F
330
359
100
AcDbEntity
  8
0
  6
Continuous
 62
     7
370
    15
100
AcDbLine
 10
1827.590325411744
 20
857.5154125462248
 30
0.0
 11
1834.290325411744
 21
857.5154125462248
 31
0.0
1001
AcDbBlockRepETag
1070
     1
1071
       13
1005
43F
  0
LINE
  5
440
330
359
100
AcDbEntity
  8
0
  6
Continuous
 62
     7
370
    15
100
AcDbLine
 10
1827.590325411744
 20
857.5154125462248
 30
0.0
 11
1827.590325411744
 21
861.4154125462247
 31
0.0
1001
AcDbBlockRepETag
1070
     1
1071
       14
1005
440
  0
LINE
  5
441
330
359
100
AcDbEntity
  8
0
  6
Continuous
 62
     7
370
    15
100
AcDbLine
 10
1827.590325411744
 20
861.4154125462247
 30
0.0
 11
1834.290325411744
 21
861.4154125462247
 31
0.0
1001
AcDbBlockRepETag
1070
     1
1071
       15
1005
441
  0
LINE
  5
442
330
359
100
AcDbEntity
  8
0
  6
Continuous
 62
     7
370
    15
100
AcDbLine
 10
1830.940325411744
 20
862.3154125462248
 30
0.0
 11
1834.165325411744
 21
862.3154125462248
 31
0.0
1001
AcDbBlockRepETag
1070
     1
1071
       16
1005
442
  0
LINE
  5
443
330
359
100
AcDbEntity
  8
0
  6
Continuous
 62
     7
370
    15
100
AcDbLine
 10
1827.715325411744
 20
862.3154125462248
 30
0.0
 11
1830.940325411744
 21
862.3154125462248
 31
0.0
1001
AcDbBlockRepETag
1070
     1
1071
       17
1005
443
  0
LINE
  5
444
330
359
100
AcDbEntity
  8
0
  6
Continuous
 62
     7
370
    15
100
AcDbLine
 10
1834.365325411743
 20
867.7154125462248
 30
0.0
 11
1827.515325411744
 21
867.7154125462248
 31
0.0
1001
AcDbBlockRepETag
1070
     1
1071
       18
1005
444
  0
LINE
  5
445
330
359
100
AcDbEntity
  8
0
  6
Continuous
 62
     7
370
    15
100
AcDbLine
 10
1827.940325411752
 20
857.4154125461474
 30
0.0
 11
1833.940325411736
 21
857.4154125461474
 31
0.0
1001
AcDbBlockRepETag
1070
     1
1071
       19
1005
445
  0
LINE
  5
446
330
359
100
AcDbEntity
  8
0
  6
Continuous
 62
     7
370
    15
100
AcDbLine
 10
1827.940325411744
 20
846.7154125461442
 30
0.0
 11
1833.940325411744
 21
846.7154125461442
 31
0.0
1001
AcDbBlockRepETag
1070
     1
1071
       20
1005
446
  0
LINE
  5
447
330
359
100
AcDbEntity
  8
0
  6
Continuous
 62
     7
370
    15
100
AcDbLine
 10
1828.140325411708
 20
846.5154125462687
 30
0.0
 11
1833.74032541178
 21
846.5154125462687
 31
0.0
1001
AcDbBlockRepETag
1070
     1
1071
       21
1005
447
  0
LINE
  5
448
330
359
100
AcDbEntity
  8
0
  6
Continuous
 62
     7
370
    15
100
AcDbLine
 10
1827.590325411744
 20
857.5154125462248
 30
0.0
 11
1827.240325411744
 21
857.5154125462248
 31
0.0
1001
AcDbBlockRepETag
1070
     1
1071
       22
1005
448
  0
LINE
  5
449
330
359
100
AcDbEntity
  8
0
  6
Continuous
 62
     7
370
    15
100
AcDbLine
 10
1827.940325411744
 20
861.4154125462247
 30
0.0
 11
1827.240325411743
 21
861.4154125462249
 31
0.0
1001
AcDbBlockRepETag
1070
     1
1071
       23
1005
449
  0
LINE
  5
44A
330
359
100
AcDbEntity
  8
0
  6
Continuous
 62
     7
370
    15
100
AcDbLine
 10
1834.640325411744
 20
857.5154125462248
 30
0.0
 11
1834.290325411744
 21
857.5154125462248
 31
0.0
1001
AcDbBlockRepETag
1070
     1
1071
       24
1005
44A
  0
LINE
  5
44B
330
359
100
AcDbEntity
  8
0
  6
Continuous
 62
     7
370
    15
100
AcDbLine
 10
1834.640325411744
 20
861.4154125462247
 30
0.0
 11
1834.290325411744
 21
861.4154125462247
 31
0.0
1001
AcDbBlockRepETag
1070
     1
1071
       25
1005
44B
  0
LINE
  5
44C
330
359
100
AcDbEntity
  8
0
  6
Continuous
 62
     8
370
    15
100
AcDbLine
 10
1834.365325411743
 20
862.5154125462247
 30
0.0
 11
1827.515325411744
 21
862.5154125462247
 31
0.0
1001
AcDbBlockRepETag
1070
     1
1071
       26
1005
44C
  0
LINE
  5
450
330
359
100
AcDbEntity
  8
0
  6
Continuous
 62
     7
370
    15
100
AcDbLine
 10
1827.240325411744
 20
861.4154125462247
 30
0.0
 11
1827.240325411744
 21
857.5154125462248
 31
0.0
1001
AcDbBlockRepETag
1070
     1
1071
       27
1005
450
  0
LINE
  5
452
330
359
100
AcDbEntity
  8
0
  6
Continuous
 62
     7
370
    15
100
AcDbLine
 10
1834.640325411744
 20
857.5154125462248
 30
0.0
 11
1834.640325411744
 21
861.4154125462247
 31
0.0
1001
AcDbBlockRepETag
1070
     1
1071
       28
1005
452
  0
ENDBLK
  5
35B
330
359
100
AcDbEntity
  8
0
100
AcDbBlockEnd
  0
BLOCK
  5
37B
330
37A
100
AcDbEntity
  8
0
100
AcDbBlockBegin
  2
3
 70
     0
 10
0.0
 20
0.0
 30
0.0
  3
3
  1

  0
CIRCLE
  5
457
330
37A
100
AcDbEntity
  8
0
  6
Continuous
 62
     7
370
    15
100
AcDbCircle
 10
1865.502287249568
 20
822.2253128784149
 30
0.0
 40
3.424999999999982
1001
AcDbBlockRepETag
1070
     1
1071
        0
1005
457
  0
CIRCLE
  5
458
330
37A
100
AcDbEntity
  8
0
  6
Continuous
 62
     7
370
    15
100
AcDbCircle
 10
1865.502287249568
 20
822.2253128784149
 30
0.0
 40
2.475000000006644
1001
AcDbBlockRepETag
1070
     1
1071
        1
1005
458
  0
CIRCLE
  5
459
330
37A
100
AcDbEntity
  8
0
  6
Continuous
 62
     7
370
    15
100
AcDbCircle
 10
1853.502287249568
 20
822.2253128784149
 30
0.0
 40
3.425000000000011
1001
AcDbBlockRepETag
1070
     1
1071
        2
1005
459
  0
CIRCLE
  5
45A
330
37A
100
AcDbEntity
  8
0
  6
Continuous
 62
     7
370
    15
100
AcDbCircle
 10
1853.502287249568
 20
822.2253128784149
 30
0.0
 40
2.475000000006644
1001
AcDbBlockRepETag
1070
     1
1071
        3
1005
45A
  0
ARC
  5
45B
330
37A
100
AcDbEntity
  8
0
  6
Continuous
 62
     7
370
    15
100
AcDbCircle
 10
1865.502287249568
 20
822.2253128784149
 30
0.0
 40
2.197439522055447
100
AcDbArc
 50
13.15214010487884
 51
166.8478598951275
1001
AcDbBlockRepETag
1070
     1
1071
        4
1005
45B
  0
ARC
  5
45C
330
37A
100
AcDbEntity
  8
0
  6
Continuous
 62
     7
370
    15
100
AcDbCircle
 10
1865.502287249568
 20
822.2253128784149
 30
0.0
 40
2.145679479869398
100
AcDbArc
 50
166.5246847195484
 51
193.4753152804515
1001
AcDbBlockRepETag
1070
     1
1071
        5
1005
45C
  0
ARC
  5
45D
330
37A
100
AcDbEntity
  8
0
  6
Continuous
 62
     7
370
    15
100
AcDbCircle
 10
1865.502287249568
 20
822.2253128784149
 30
0.0
 40
2.197439522055474
100
AcDbArc
 50
193.1521401048788
 51
346.8478598951275
1001
AcDbBlockRepETag
1070
     1
1071
        6
1005
45D
  0
ARC
  5
45E
330
37A
100
AcDbEntity
  8
0
  6
Continuous
 62
     7
370
    15
100
AcDbCircle
 10
1865.502287249568
 20
822.2253128784149
 30
0.0
 40
2.145679479869426
100
AcDbArc
 50
346.5246847195485
 51
13.47531528045153
1001
AcDbBlockRepETag
1070
     1
1071
        7
1005
45E
  0
ARC
  5
45F
330
37A
100
AcDbEntity
  8
0
  6
Continuous
 62
     7
370
    15
100
AcDbCircle
 10
1853.502287249568
 20
822.2253128784149
 30
0.0
 40
2.197439522055474
100
AcDbArc
 50
13.15214010487884
 51
166.8478598951275
1001
AcDbBlockRepETag
1070
     1
1071
        8
1005
45F
  0
ARC
  5
460
330
37A
100
AcDbEntity
  8
0
  6
Continuous
 62
     7
370
    15
100
AcDbCircle
 10
1853.502287249568
 20
822.2253128784149
 30
0.0
 40
2.145679479869454
100
AcDbArc
 50
166.5246847195484
 51
193.4753152804515
1001
AcDbBlockRepETag
1070
     1
1071
        9
1005
460
  0
ARC
  5
461
330
37A
100
AcDbEntity
  8
0
  6
Continuous
 62
     7
370
    15
100
AcDbCircle
 10
1853.502287249568
 20
822.2253128784149
 30
0.0
 40
2.197439522055447
100
AcDbArc
 50
193.1521401048788
 51
346.8478598951275
1001
AcDbBlockRepETag
1070
     1
1071
       10
1005
461
  0
ARC
  5
462
330
37A
100
AcDbEntity
  8
0
  6
Continuous
 62
     7
370
    15
100
AcDbCircle
 10
1853.502287249568
 20
822.2253128784149
 30
0.0
 40
2.145679479869426
100
AcDbArc
 50
346.5246847195485
 51
13.47531528045153
1001
AcDbBlockRepETag
1070
     1
1071
       11
1005
462
  0
ARC
  5
463
330
37A
100
AcDbEntity
  8
0
  6
Continuous
 62
     7
370
    15
100
AcDbCircle
 10
1853.502287249568
 20
822.2253128784149
 30
0.0
 40
2.188421798069978
100
AcDbArc
 50
13.20731410364895
 51
166.792685896351
1001
AcDbBlockRepETag
1070
     1
1071
       12
1005
463
  0
SPLINE
  5
464
330
37A
100
AcDbEntity
  8
0
  6
Continuous
 62
     7
370
    15
100
AcDbSpline
210
0.0
220
0.0
230
1.0
 70
    24
 71
     3
 72
    10
 73
     6
 74
     0
 42
0.0000000001
 43
0.0000000001
 40
0.0
 40
0.0
 40
0.0
 40
0.0
 40
0.5
 40
0.5
 40
1.0
 40
1.0
 40
1.0
 40
1.0
 10
1855.427244144711
 20
822.7253128784148
 30
0.0
 10
1855.478710728304
 20
822.7253128784148
 30
0.0
 10
1855.52910997027
 20
822.7253128784148
 30
0.0
 10
1855.605159968564
 20
822.7253128784148
 30
0.0
 10
1855.629431415201
 20
822.7253128784148
 30
0.0
 10
1855.632824732521
 20
822.7253128784148
 30
0.0
1001
AcDbBlockRepETag
1070
     1
1071
       13
1005
464
  0
SPLINE
  5
465
330
37A
100
AcDbEntity
  8
0
  6
Continuous
 62
     7
370
    15
100
AcDbSpline
210
0.0
220
0.0
230
1.0
 70
     8
 71
     3
 72
    30
 73
    26
 74
     0
 42
0.0000000001
 43
0.0000000001
 40
0.0
 40
0.0
 40
0.0
 40
0.0
 40
0.0252132537977505
 40
0.0504260853629673
 40
0.075638916928184
 40
0.1008521707259345
 40
0.1510330133366718
 40
0.2198002430167734
 40
0.2874243037647681
 40
0.3549493332343424
 40
0.3914437623688654
 40
0.4275783893443487
 40
0.5000255042853523
 40
0.5365198954318825
 40
0.5726545181368483
 40
0.6451015991350574
 40
0.6790949178862585
 40
0.7127927615928411
 40
0.7803178337475425
 40
0.8202088460242272
 40
0.9135889664759849
 40
0.9351916714086479
 40
0.9567944804914592
 40
0.9783972909475378
 40
0.9999999999999998
 40
0.9999999999999998
 40
0.9999999999999998
 40
0.9999999999999998
 10
1851.577330354425
 20
822.7253128784148
 30
0.0
 10
1851.589221674068
 20
822.7676660006382
 30
0.0
 10
1851.613004114216
 20
822.8523715358205
 30
0.0
 10
1851.659217507813
 20
822.9760898187446
 30
0.0
 10
1851.712910632082
 20
823.0966768421341
 30
0.0
 10
1851.794945698277
 20
823.2519245629188
 30
0.0
 10
1851.934211563609
 20
823.4621668843931
 30
0.0
 10
1852.155584927649
 20
823.7031564784228
 30
0.0
 10
1852.440032758412
 20
823.9197171564926
 30
0.0
 10
1852.708632909935
 20
824.0557591728105
 30
0.0
 10
1852.93977241479
 20
824.1362647571623
 30
0.0
 10
1853.185878690116
 20
824.1964540064703
 30
0.0
 10
1853.439639181054
 20
824.220074839196
 30
0.0
 10
1853.692680636917
 20
824.2082168600882
 30
0.0
 10
1853.943490317289
 20
824.1723196377446
 30
0.0
 10
1854.183567481925
 20
824.1009059883943
 30
0.0
 10
1854.406379015878
 20
823.9998626244323
 30
0.0
 10
1854.611891503458
 20
823.8836451028365
 30
0.0
 10
1854.808967199349
 20
823.7335753136511
 30
0.0
 10
1855.055560034622
 20
823.4844765038605
 30
0.0
 10
1855.211149063143
 20
823.2593777297619
 30
0.0
 10
1855.315477453566
 20
823.0451831005421
 30
0.0
 10
1855.359046371115
 20
822.9408186620522
 30
0.0
 10
1855.397042517424
 20
822.8342685046255
 30
0.0
 10
1855.417176951367
 20
822.7616313636586
 30
0.0
 10
1855.427244144711
 20
822.7253128784148
 30
0.0
1001
AcDbBlockRepETag
1070
     1
1071
       14
1005
465
  0
SPLINE
  5
466
330
37A
100
AcDbEntity
  8
0
  6
Continuous
 62
     7
370
    15
100
AcDbSpline
210
0.0
220
0.0
230
1.0
 70
    24
 71
     3
 72
    10
 73
     6
 74
     0
 42
0.0000000001
 43
0.0000000001
 40
0.0
 40
0.0
 40
0.0
 40
0.0
 40
0.5
 40
0.5
 40
1.0
 40
1.0
 40
1.0
 40
1.0
 10
1851.371749766615
 20
822.7253128784148
 30
0.0
 10
1851.375140504901
 20
822.7253128784148
 30
0.0
 10
1851.399516540675
 20
822.7253128784148
 30
0.0
 10
1851.475179118329
 20
822.7253128784148
 30
0.0
 10
1851.525898127502
 20
822.7253128784148
 30
0.0
 10
1851.577330354425
 20
822.7253128784148
 30
0.0
1001
AcDbBlockRepETag
1070
     1
1071
       15
1005
466
  0
ARC
  5
467
330
37A
100
AcDbEntity
  8
0
  6
Continuous
 62
     7
370
    15
100
AcDbCircle
 10
1865.502287249568
 20
822.2253128784149
 30
0.0
 40
2.188421798070006
100
AcDbArc
 50
13.20731410364895
 51
166.792685896351
1001
AcDbBlockRepETag
1070
     1
1071
       16
1005
467
  0
SPLINE
  5
468
330
37A
100
AcDbEntity
  8
0
  6
Continuous
 62
     7
370
    15
100
AcDbSpline
210
0.0
220
0.0
230
1.0
 70
     8
 71
     3
 72
    30
 73
    26
 74
     0
 42
0.0000000001
 43
0.0000000001
 40
0.0
 40
0.0
 40
0.0
 40
0.0
 40
0.0252132537977505
 40
0.0504260853629672
 40
0.075638916928184
 40
0.1008521707259345
 40
0.1510330133366718
 40
0.2198002430167732
 40
0.2874243037647682
 40
0.3549493332343423
 40
0.3914437623688656
 40
0.4275783893443489
 40
0.5000255042853525
 40
0.5365198954318826
 40
0.5726545181368483
 40
0.6451015991350574
 40
0.6790949178862585
 40
0.7127927615928408
 40
0.7803178337475423
 40
0.820208846024227
 40
0.9135889664759849
 40
0.9351916714086479
 40
0.9567944804914592
 40
0.9783972909475378
 40
0.9999999999999998
 40
0.9999999999999998
 40
0.9999999999999998
 40
0.9999999999999998
 10
1863.577330354424
 20
822.7253128784148
 30
0.0
 10
1863.589221674067
 20
822.7676660006382
 30
0.0
 10
1863.613004114216
 20
822.8523715358205
 30
0.0
 10
1863.659217507813
 20
822.9760898187446
 30
0.0
 10
1863.712910632083
 20
823.0966768421341
 30
0.0
 10
1863.794945698277
 20
823.2519245629188
 30
0.0
 10
1863.934211563609
 20
823.4621668843931
 30
0.0
 10
1864.155584927649
 20
823.703156478423
 30
0.0
 10
1864.440032758412
 20
823.9197171564926
 30
0.0
 10
1864.708632909935
 20
824.0557591728105
 30
0.0
 10
1864.93977241479
 20
824.1362647571623
 30
0.0
 10
1865.185878690116
 20
824.1964540064703
 30
0.0
 10
1865.439639181055
 20
824.220074839196
 30
0.0
 10
1865.692680636917
 20
824.2082168600882
 30
0.0
 10
1865.943490317289
 20
824.1723196377446
 30
0.0
 10
1866.183567481925
 20
824.1009059883943
 30
0.0
 10
1866.406379015877
 20
823.9998626244323
 30
0.0
 10
1866.611891503458
 20
823.8836451028365
 30
0.0
 10
1866.808967199349
 20
823.7335753136511
 30
0.0
 10
1867.055560034622
 20
823.4844765038605
 30
0.0
 10
1867.211149063143
 20
823.2593777297619
 30
0.0
 10
1867.315477453566
 20
823.0451831005421
 30
0.0
 10
1867.359046371115
 20
822.9408186620522
 30
0.0
 10
1867.397042517423
 20
822.8342685046255
 30
0.0
 10
1867.417176951367
 20
822.7616313636586
 30
0.0
 10
1867.427244144711
 20
822.7253128784148
 30
0.0
1001
AcDbBlockRepETag
1070
     1
1071
       17
1005
468
  0
SPLINE
  5
469
330
37A
100
AcDbEntity
  8
0
  6
Continuous
 62
     7
370
    15
100
AcDbSpline
210
0.0
220
0.0
230
1.0
 70
    24
 71
     3
 72
    10
 73
     6
 74
     0
 42
0.0000000001
 43
0.0000000001
 40
0.0
 40
0.0
 40
0.0
 40
0.0
 40
0.5
 40
0.5
 40
1.0
 40
1.0
 40
1.0
 40
1.0
 10
1863.371749766615
 20
822.7253128784148
 30
0.0
 10
1863.375140504901
 20
822.7253128784148
 30
0.0
 10
1863.399516540675
 20
822.7253128784148
 30
0.0
 10
1863.47517911833
 20
822.7253128784148
 30
0.0
 10
1863.525898127502
 20
822.7253128784148
 30
0.0
 10
1863.577330354424
 20
822.7253128784148
 30
0.0
1001
AcDbBlockRepETag
1070
     1
1071
       18
1005
469
  0
SPLINE
  5
46A
330
37A
100
AcDbEntity
  8
0
  6
Continuous
 62
     7
370
    15
100
AcDbSpline
210
0.0
220
0.0
230
1.0
 70
    24
 71
     3
 72
    10
 73
     6
 74
     0
 42
0.0000000001
 43
0.0000000001
 40
0.0
 40
0.0
 40
0.0
 40
0.0
 40
0.5
 40
0.5
 40
1.0
 40
1.0
 40
1.0
 40
1.0
 10
1867.427244144711
 20
822.7253128784148
 30
0.0
 10
1867.478710728304
 20
822.7253128784148
 30
0.0
 10
1867.52910997027
 20
822.7253128784148
 30
0.0
 10
1867.605159968563
 20
822.7253128784148
 30
0.0
 10
1867.629431415201
 20
822.7253128784148
 30
0.0
 10
1867.632824732521
 20
822.7253128784148
 30
0.0
1001
AcDbBlockRepETag
1070
     1
1071
       19
1005
46A
  0
ARC
  5
46B
330
37A
100
AcDbEntity
  8
0
  6
Continuous
 62
     7
370
    15
100
AcDbCircle
 10
1865.502287249568
 20
822.2253128784149
 30
0.0
 40
1.988833589861233
100
AcDbArc
 50
194.5605878049394
 51
345.4394121950607
1001
AcDbBlockRepETag
1070
     1
1071
       20
1005
46B
  0
SPLINE
  5
46C
330
37A
100
AcDbEntity
  8
0
  6
Continuous
 62
     7
370
    15
100
AcDbSpline
210
0.0
220
0.0
230
1.0
 70
    24
 71
     3
 72
    10
 73
     6
 74
     0
 42
0.0000000001
 43
0.0000000001
 40
0.0
 40
0.0
 40
0.0
 40
0.0
 40
0.5
 40
0.5
 40
1.0
 40
1.0
 40
1.0
 40
1.0
 10
1867.632824732521
 20
821.7253128784149
 30
0.0
 10
1867.629433994235
 20
821.7253128784149
 30
0.0
 10
1867.60505795846
 20
821.7253128784149
 30
0.0
 10
1867.529395380806
 20
821.7253128784149
 30
0.0
 10
1867.478676371633
 20
821.7253128784149
 30
0.0
 10
1867.427244144711
 20
821.7253128784149
 30
0.0
1001
AcDbBlockRepETag
1070
     1
1071
       21
1005
46C
  0
ARC
  5
46D
330
37A
100
AcDbEntity
  8
0
  6
Continuous
 62
     7
370
    15
100
AcDbCircle
 10
1865.502287249568
 20
822.2253128784149
 30
0.0
 40
2.188421798070006
100
AcDbArc
 50
193.2073141036489
 51
346.792685896351
1001
AcDbBlockRepETag
1070
     1
1071
       22
1005
46D
  0
SPLINE
  5
46E
330
37A
100
AcDbEntity
  8
0
  6
Continuous
 62
     7
370
    15
100
AcDbSpline
210
0.0
220
0.0
230
1.0
 70
    24
 71
     3
 72
    10
 73
     6
 74
     0
 42
0.0000000001
 43
0.0000000001
 40
0.0
 40
0.0
 40
0.0
 40
0.0
 40
0.5
 40
0.5
 40
1.0
 40
1.0
 40
1.0
 40
1.0
 10
1863.577330354424
 20
821.7253128784149
 30
0.0
 10
1863.525863770832
 20
821.7253128784149
 30
0.0
 10
1863.475464528865
 20
821.7253128784149
 30
0.0
 10
1863.399414530572
 20
821.7253128784149
 30
0.0
 10
1863.375143083935
 20
821.7253128784149
 30
0.0
 10
1863.371749766615
 20
821.7253128784149
 30
0.0
1001
AcDbBlockRepETag
1070
     1
1071
       23
1005
46E
  0
ARC
  5
46F
330
37A
100
AcDbEntity
  8
0
  6
Continuous
 62
     7
370
    15
100
AcDbCircle
 10
1853.502287249568
 20
822.2253128784149
 30
0.0
 40
1.988833589861233
100
AcDbArc
 50
194.5605878049394
 51
345.4394121950607
1001
AcDbBlockRepETag
1070
     1
1071
       24
1005
46F
  0
ARC
  5
470
330
37A
100
AcDbEntity
  8
0
  6
Continuous
 62
     7
370
    15
100
AcDbCircle
 10
1853.502287249568
 20
822.2253128784149
 30
0.0
 40
2.188421798069978
100
AcDbArc
 50
193.2073141036489
 51
346.792685896351
1001
AcDbBlockRepETag
1070
     1
1071
       25
1005
470
  0
SPLINE
  5
471
330
37A
100
AcDbEntity
  8
0
  6
Continuous
 62
     7
370
    15
100
AcDbSpline
210
0.0
220
0.0
230
1.0
 70
    24
 71
     3
 72
    10
 73
     6
 74
     0
 42
0.0000000001
 43
0.0000000001
 40
0.0
 40
0.0
 40
0.0
 40
0.0
 40
0.5
 40
0.5
 40
1.0
 40
1.0
 40
1.0
 40
1.0
 10
1851.577330354425
 20
821.7253128784149
 30
0.0
 10
1851.525863770832
 20
821.7253128784149
 30
0.0
 10
1851.475464528865
 20
821.7253128784149
 30
0.0
 10
1851.399414530572
 20
821.7253128784149
 30
0.0
 10
1851.375143083935
 20
821.7253128784149
 30
0.0
 10
1851.371749766615
 20
821.7253128784149
 30
0.0
1001
AcDbBlockRepETag
1070
     1
1071
       26
1005
471
  0
SPLINE
  5
472
330
37A
100
AcDbEntity
  8
0
  6
Continuous
 62
     7
370
    15
100
AcDbSpline
210
0.0
220
0.0
230
1.0
 70
    24
 71
     3
 72
    10
 73
     6
 74
     0
 42
0.0000000001
 43
0.0000000001
 40
0.0
 40
0.0
 40
0.0
 40
0.0
 40
0.5
 40
0.5
 40
1.0
 40
1.0
 40
1.0
 40
1.0
 10
1855.632824732521
 20
821.7253128784149
 30
0.0
 10
1855.629433994235
 20
821.7253128784149
 30
0.0
 10
1855.60505795846
 20
821.7253128784149
 30
0.0
 10
1855.529395380806
 20
821.7253128784149
 30
0.0
 10
1855.478676371633
 20
821.7253128784149
 30
0.0
 10
1855.427244144711
 20
821.7253128784149
 30
0.0
1001
AcDbBlockRepETag
1070
     1
1071
       27
1005
472
  0
LINE
  5
473
330
37A
100
AcDbEntity
  8
0
  6
Continuous
 62
     7
370
    15
100
AcDbLine
 10
1855.427244144711
 20
821.7253128784149
 30
0.0
 11
1851.577330354425
 21
821.7253128784149
 31
0.0
1001
AcDbBlockRepETag
1070
     1
1071
       28
1005
473
  0
LINE
  5
474
330
37A
100
AcDbEntity
  8
0
  6
Continuous
 62
     7
370
    15
100
AcDbLine
 10
1867.427244144711
 20
821.7253128784149
 30
0.0
 11
1863.577330354424
 21
821.7253128784149
 31
0.0
1001
AcDbBlockRepETag
1070
     1
1071
       29
1005
474
  0
LINE
  5
475
330
37A
100
AcDbEntity
  8
0
  6
Continuous
 62
     7
370
    15
100
AcDbLine
 10
1863.577330354424
 20
822.7253128784148
 30
0.0
 11
1867.427244144711
 21
822.7253128784148
 31
0.0
1001
AcDbBlockRepETag
1070
     1
1071
       30
1005
475
  0
LINE
  5
476
330
37A
100
AcDbEntity
  8
0
  6
Continuous
 62
     7
370
    15
100
AcDbLine
 10
1851.577330354425
 20
822.7253128784148
 30
0.0
 11
1855.427244144711
 21
822.7253128784148
 31
0.0
1001
AcDbBlockRepETag
1070
     1
1071
       31
1005
476
  0
LINE
  5
477
330
37A
100
AcDbEntity
  8
0
  6
Continuous
 62
     7
370
    15
100
AcDbLine
 10
1868.949387480197
 20
818.8753128784149
 30
0.0
 11
1871.202287249568
 21
818.8753128784151
 31
0.0
1001
AcDbBlockRepETag
1070
     1
1071
       32
1005
477
  0
LINE
  5
478
330
37A
100
AcDbEntity
  8
0
  6
Continuous
 62
     7
370
    15
100
AcDbLine
 10
1847.802287249567
 20
818.8753128784149
 30
0.0
 11
1850.055187018938
 21
818.8753128784149
 31
0.0
1001
AcDbBlockRepETag
1070
     1
1071
       33
1005
478
  0
LINE
  5
479
330
37A
100
AcDbEntity
  8
0
  6
Continuous
 62
     7
370
    15
100
AcDbLine
 10
1847.802287249568
 20
825.5753128784149
 30
0.0
 11
1847.802287249568
 21
818.8753128784149
 31
0.0
1001
AcDbBlockRepETag
1070
     1
1071
       34
1005
479
  0
LINE
  5
47A
330
37A
100
AcDbEntity
  8
0
  6
Continuous
 62
     7
370
    15
100
AcDbLine
 10
1850.05518701894
 20
825.5753128784149
 30
0.0
 11
1847.802287249567
 21
825.5753128784149
 31
0.0
1001
AcDbBlockRepETag
1070
     1
1071
       35
1005
47A
  0
LINE
  5
47C
330
37A
100
AcDbEntity
  8
0
  6
Continuous
 62
     7
370
    15
100
AcDbLine
 10
1871.202287249567
 20
818.8753128784149
 30
0.0
 11
1871.202287249567
 21
825.5753128784149
 31
0.0
1001
AcDbBlockRepETag
1070
     1
1071
       36
1005
47C
  0
LINE
  5
47D
330
37A
100
AcDbEntity
  8
0
  6
Continuous
 62
     7
370
    15
100
AcDbLine
 10
1862.05518701894
 20
825.5753128784148
 30
0.0
 11
1856.949387480195
 21
825.5753128784149
 31
0.0
1001
AcDbBlockRepETag
1070
     1
1071
       37
1005
47D
  0
LINE
  5
47F
330
37A
100
AcDbEntity
  8
0
  6
Continuous
 62
     7
370
    15
100
AcDbLine
 10
1871.202287249567
 20
825.5753128784148
 30
0.0
 11
1868.949387480196
 21
825.5753128784148
 31
0.0
1001
AcDbBlockRepETag
1070
     1
1071
       38
1005
47F
  0
LINE
  5
480
330
37A
100
AcDbEntity
  8
0
  6
Continuous
 62
     7
370
    15
100
AcDbLine
 10
1856.949387480198
 20
818.8753128784149
 30
0.0
 11
1862.055187018938
 21
818.8753128784149
 31
0.0
1001
AcDbBlockRepETag
1070
     1
1071
       39
1005
480
  0
ARC
  5
486
330
37A
100
AcDbEntity
  8
0
  6
Continuous
 62
     7
370
    15
100
AcDbCircle
 10
1853.502287249568
 20
808.7753128784145
 30
0.0
 40
17.15000000000019
100
AcDbArc
 50
78.40472734091898
 51
101.595272659081
1001
AcDbBlockRepETag
1070
     1
1071
       40
1005
486
  0
ARC
  5
488
330
37A
100
AcDbEntity
  8
0
  6
Continuous
 62
     7
370
    15
100
AcDbCircle
 10
1865.502287249568
 20
808.7753128784145
 30
0.0
 40
17.15000000000021
100
AcDbArc
 50
78.40472734091815
 51
101.595272659081
1001
AcDbBlockRepETag
1070
     1
1071
       41
1005
488
  0
ARC
  5
489
330
37A
100
AcDbEntity
  8
0
  6
Continuous
 62
     7
370
    15
100
AcDbCircle
 10
1853.502287249568
 20
835.6753128784148
 30
0.0
 40
17.15000000000023
100
AcDbArc
 50
258.404727340912
 51
281.595272659088
1001
AcDbBlockRepETag
1070
     1
1071
       42
1005
489
  0
ARC
  5
48A
330
37A
100
AcDbEntity
  8
0
  6
Continuous
 62
     7
370
    15
100
AcDbCircle
 10
1865.502287249568
 20
835.6753128784148
 30
0.0
 40
17.15000000000022
100
AcDbArc
 50
258.404727340912
 51
281.595272659088
1001
AcDbBlockRepETag
1070
     1
1071
       43
1005
48A
  0
ENDBLK
  5
37C
330
37A
100
AcDbEntity
  8
0
100
AcDbBlockEnd
  0
BLOCK
  5
3AB
330
3AA
100
AcDbEntity
  8
0
100
AcDbBlockBegin
  2
4
 70
     0
 10
0.0
 20
0.0
 30
0.0
  3
4
  1

  0
LINE
  5
3AD
330
3AA
100
AcDbEntity
  8
0
  6
Continuous
 62
     7
370
    15
100
AcDbLine
 10
1908.251631072787
 20
856.2893572630727
 30
0.0
 11
1908.338322086124
 21
860.6218039671542
 31
0.0
  0
LINE
  5
3AE
330
3AA
100
AcDbEntity
  8
0
  6
Continuous
 62
     7
370
    15
100
AcDbLine
 10
1901.48969300541
 20
860.7588430666579
 30
0.0
 11
1901.403001992073
 21
856.4263963625764
 31
0.0
  0
SPLINE
  5
3AF
330
3AA
100
AcDbEntity
  8
0
  6
Continuous
 62
     7
370
    15
100
AcDbSpline
210
0.0
220
0.0
230
1.0
 70
     8
 71
     3
 72
    39
 73
    35
 74
     0
 42
0.0000000001
 43
0.0000000001
 40
0.0
 40
0.0
 40
0.0
 40
0.0
 40
0.0077044445479066
 40
0.0383478537507035
 40
0.068999175160502
 40
0.099816197688809
 40
0.1309311810381912
 40
0.1624159043920898
 40
0.194275456749842
 40
0.2264596342081173
 40
0.258886802857217
 40
0.2914695855001951
 40
0.3241329725296659
 40
0.3568189791151406
 40
0.3894871926619425
 40
0.4221220552871709
 40
0.454717531431016
 40
0.487273578575238
 40
0.5197936999141732
 40
0.5522833780179012
 40
0.5847491324177062
 40
0.6171979876737526
 40
0.6496371987787083
 40
0.6820741308362289
 40
0.7145152767414481
 40
0.7469666201470809
 40
0.7794357597325139
 40
0.8119303575330151
 40
0.8444580469149187
 40
0.8770262045654781
 40
0.9096414879697654
 40
0.9423089898255813
 40
0.9750307929502886
 40
1.0
 40
1.0
 40
1.0
 40
1.0
 10
1901.404803975424
 20
856.4201909130268
 30
0.0
 10
1901.404037655562
 20
856.4072429421829
 30
0.0
 10
1901.400223399803
 20
856.342796129801
 30
0.0
 10
1901.413493071747
 20
856.226562651515
 30
0.0
 10
1901.445113423081
 20
856.0731847017777
 30
0.0
 10
1901.498074076734
 20
855.9219672231845
 30
0.0
 10
1901.570115791889
 20
855.773549651073
 30
0.0
 10
1901.66163011772
 20
855.6285642217206
 30
0.0
 10
1901.772183882917
 20
855.4878007819485
 30
0.0
 10
1901.901320386885
 20
855.3521575019892
 30
0.0
 10
1902.048271315351
 20
855.2225754096275
 30
0.0
 10
1902.212052058388
 20
855.0999553919144
 30
0.0
 10
1902.391505188596
 20
854.9851065107288
 30
0.0
 10
1902.585366744376
 20
854.8787272180575
 30
0.0
 10
1902.792327006694
 20
854.7814007125962
 30
0.0
 10
1903.011060533387
 20
854.6936139663754
 30
0.0
 10
1903.24023803606
 20
854.6157781562998
 30
0.0
 10
1903.478502441603
 20
854.5482506978251
 30
0.0
 10
1903.724466690156
 20
854.4913402287114
 30
0.0
 10
1903.976713731843
 20
854.4453079960202
 30
0.0
 10
1904.233799020475
 20
854.4103672518994
 30
0.0
 10
1904.494255174471
 20
854.3866818264513
 30
0.0
 10
1904.756598291177
 20
854.3743646292277
 30
0.0
 10
1905.01933282453
 20
854.3734765554132
 30
0.0
 10
1905.280958237868
 20
854.3840253164004
 30
0.0
 10
1905.539981744726
 20
854.4059652400411
 30
0.0
 10
1905.794930263686
 20
854.439198576034
 30
0.0
 10
1906.044357259356
 20
854.4835801353327
 30
0.0
 10
1906.28685527499
 20
854.5389142763685
 30
0.0
 10
1906.521025929476
 20
854.6049801062878
 30
0.0
 10
1906.745617177186
 20
854.6814545135019
 30
0.0
 10
1906.959024601871
 20
854.768217783867
 30
0.0
 10
1907.145088500639
 20
854.8565919748467
 30
0.0
 10
1907.255020883871
 20
854.9188871421792
 30
0.0
 10
1907.30260064422
 20
854.9458490713711
 30
0.0
  0
SPLINE
  5
3B0
330
3AA
100
AcDbEntity
  8
0
  6
Continuous
 62
     7
370
    15
100
AcDbSpline
210
0.0
220
0.0
230
1.0
 70
     8
 71
     3
 72
    18
 73
    14
 74
     0
 42
0.0000000001
 43
0.0000000001
 40
0.0
 40
0.0
 40
0.0
 40
0.0
 40
0.0564698218088735
 40
0.1634070024100569
 40
0.270372930231312
 40
0.3771065140519026
 40
0.4833376014618817
 40
0.5887434018629002
 40
0.6930155113172033
 40
0.7959606165265822
 40
0.8975932416965333
 40
0.9981709398284273
 40
1.0
 40
1.0
 40
1.0
 40
1.0
 10
1907.30260064422
 20
854.9458490713711
 30
0.0
 10
1907.334620969768
 20
854.9651566417505
 30
0.0
 10
1907.427278344035
 20
855.0210270535648
 30
0.0
 10
1907.569127585677
 20
855.1202360081505
 30
0.0
 10
1907.721961047285
 20
855.2457684898396
 30
0.0
 10
1907.85724302586
 20
855.3790523449842
 30
0.0
 10
1907.974045209402
 20
855.5190476622746
 30
0.0
 10
1908.071374395523
 20
855.664743316419
 30
0.0
 10
1908.148246349733
 20
855.8148942589269
 30
0.0
 10
1908.205064853186
 20
855.9681682482283
 30
0.0
 10
1908.238533248242
 20
856.1232417845177
 30
0.0
 10
1908.25332085818
 20
856.2283751124921
 30
0.0
 10
1908.251319638231
 20
856.2812223355042
 30
0.0
 10
1908.251283894968
 20
856.2821662258526
 30
0.0
  0
LINE
  5
3B1
330
3AA
100
AcDbEntity
  8
0
  6
Continuous
 62
     7
370
    15
100
AcDbLine
 10
1907.517907239546
 20
843.1575940589103
 30
0.0
 11
1907.634594220978
 21
848.9891111753793
 31
0.0
  0
LINE
  5
3B2
330
3AA
100
AcDbEntity
  8
0
  6
Continuous
 62
     7
370
    15
100
AcDbLine
 10
1901.677354041248
 20
851.1860875521309
 30
0.0
 11
1901.519108044759
 21
843.2776283066509
 31
0.0
  0
LINE
  5
3B3
330
3AA
100
AcDbEntity
  8
0
  6
Continuous
 62
     7
370
    15
100
AcDbLine
 10
1899.418295987384
 20
860.9018023535398
 30
0.0
 11
1899.504987000721
 21
865.2342490576211
 31
0.0
  0
LINE
  5
3B4
330
3AA
100
AcDbEntity
  8
0
  6
Continuous
 62
     7
370
    15
100
AcDbLine
 10
1892.656357920007
 20
865.3712881571248
 30
0.0
 11
1892.569666906669
 21
861.0388414530435
 31
0.0
  0
SPLINE
  5
3B5
330
3AA
100
AcDbEntity
  8
0
  6
Continuous
 62
     7
370
    15
100
AcDbSpline
210
0.0
220
0.0
230
1.0
 70
     8
 71
     3
 72
    39
 73
    35
 74
     0
 42
0.0000000001
 43
0.0000000001
 40
0.0
 40
0.0
 40
0.0
 40
0.0
 40
0.0077044445479178
 40
0.0383478537507151
 40
0.0689991751605131
 40
0.0998161976888201
 40
0.130931181038201
 40
0.1624159043920995
 40
0.1942754567498519
 40
0.226459634208125
 40
0.2588868028572286
 40
0.2914695855002049
 40
0.3241329725296762
 40
0.3568189791151519
 40
0.3894871926619535
 40
0.4221220552871817
 40
0.4547175314310263
 40
0.4872735785752492
 40
0.5197936999141843
 40
0.5522833780179123
 40
0.5847491324177186
 40
0.6171979876737654
 40
0.6496371987787222
 40
0.6820741308362419
 40
0.7145152767414597
 40
0.7469666201470933
 40
0.7794357597325269
 40
0.8119303575330285
 40
0.8444580469149315
 40
0.8770262045654899
 40
0.9096414879697791
 40
0.9423089898255947
 40
0.9750307929503049
 40
1.0
 40
1.0
 40
1.0
 40
1.0
 10
1892.571468890021
 20
861.0326360034937
 30
0.0
 10
1892.570702570159
 20
861.0196880326498
 30
0.0
 10
1892.5668883144
 20
860.9552412202679
 30
0.0
 10
1892.580157986344
 20
860.8390077419819
 30
0.0
 10
1892.611778337678
 20
860.6856297922446
 30
0.0
 10
1892.664738991331
 20
860.5344123136514
 30
0.0
 10
1892.736780706485
 20
860.3859947415399
 30
0.0
 10
1892.828295032316
 20
860.2410093121873
 30
0.0
 10
1892.938848797513
 20
860.1002458724154
 30
0.0
 10
1893.067985301482
 20
859.9646025924561
 30
0.0
 10
1893.214936229948
 20
859.8350205000944
 30
0.0
 10
1893.378716972985
 20
859.7124004823813
 30
0.0
 10
1893.558170103193
 20
859.5975516011957
 30
0.0
 10
1893.752031658974
 20
859.4911723085244
 30
0.0
 10
1893.958991921291
 20
859.3938458030631
 30
0.0
 10
1894.177725447984
 20
859.3060590568423
 30
0.0
 10
1894.406902950657
 20
859.2282232467667
 30
0.0
 10
1894.6451673562
 20
859.160695788292
 30
0.0
 10
1894.891131604752
 20
859.1037853191783
 30
0.0
 10
1895.14337864644
 20
859.0577530864871
 30
0.0
 10
1895.400463935071
 20
859.0228123423663
 30
0.0
 10
1895.660920089068
 20
858.9991269169182
 30
0.0
 10
1895.923263205774
 20
858.9868097196944
 30
0.0
 10
1896.185997739127
 20
858.9859216458801
 30
0.0
 10
1896.447623152464
 20
858.9964704068675
 30
0.0
 10
1896.706646659323
 20
859.018410330508
 30
0.0
 10
1896.961595178282
 20
859.051643666501
 30
0.0
 10
1897.211022173953
 20
859.0960252257998
 30
0.0
 10
1897.453520189586
 20
859.1513593668354
 30
0.0
 10
1897.687690844073
 20
859.2174251967547
 30
0.0
 10
1897.912282091783
 20
859.293899603969
 30
0.0
 10
1898.125689516469
 20
859.380662874334
 30
0.0
 10
1898.311753415236
 20
859.4690370653136
 30
0.0
 10
1898.421685798468
 20
859.5313322326463
 30
0.0
 10
1898.469265558817
 20
859.5582941618379
 30
0.0
  0
SPLINE
  5
3B6
330
3AA
100
AcDbEntity
  8
0
  6
Continuous
 62
     7
370
    15
100
AcDbSpline
210
0.0
220
0.0
230
1.0
 70
     8
 71
     3
 72
    18
 73
    14
 74
     0
 42
0.0000000001
 43
0.0000000001
 40
0.0
 40
0.0
 40
0.0
 40
0.0
 40
0.0564698218088733
 40
0.1634070024100643
 40
0.2703729302313112
 40
0.377106514051903
 40
0.4833376014618763
 40
0.5887434018628916
 40
0.6930155113172033
 40
0.7959606165265846
 40
0.8975932416965314
 40
0.9981709398284223
 40
1.0
 40
1.0
 40
1.0
 40
1.0
 10
1898.469265558817
 20
859.5582941618379
 30
0.0
 10
1898.501285884365
 20
859.5776017322176
 30
0.0
 10
1898.593943258632
 20
859.6334721440317
 30
0.0
 10
1898.735792500273
 20
859.7326810986176
 30
0.0
 10
1898.888625961882
 20
859.8582135803065
 30
0.0
 10
1899.023907940457
 20
859.9914974354513
 30
0.0
 10
1899.140710123999
 20
860.1314927527415
 30
0.0
 10
1899.23803931012
 20
860.2771884068859
 30
0.0
 10
1899.31491126433
 20
860.4273393493938
 30
0.0
 10
1899.371729767783
 20
860.5806133386952
 30
0.0
 10
1899.405198162839
 20
860.7356868749846
 30
0.0
 10
1899.419985772777
 20
860.8408202029592
 30
0.0
 10
1899.417984552828
 20
860.8936674259711
 30
0.0
 10
1899.417948809565
 20
860.8946113163197
 30
0.0
  0
LINE
  5
3B7
330
3AA
100
AcDbEntity
  8
0
  6
Continuous
 62
     7
370
    15
100
AcDbLine
 10
1902.251981505294
 20
842.162716234147
 30
0.0
 11
1902.39974897792
 21
842.0664099985764
 31
0.0
  0
LINE
  5
3B8
330
3AA
100
AcDbEntity
  8
0
  6
Continuous
 62
     7
370
    15
100
AcDbLine
 10
1906.58951836085
 20
841.9825739174282
 30
0.0
 11
1906.741020129672
 21
842.0728918614921
 31
0.0
  0
LINE
  5
3B9
330
3AA
100
AcDbEntity
  8
0
  6
Continuous
 62
     7
370
    15
100
AcDbLine
 10
1898.684572154142
 20
847.7700391493772
 30
0.0
 11
1898.784979526694
 21
852.7879709226084
 31
0.0
  0
LINE
  5
3BA
330
3AA
100
AcDbEntity
  8
0
  6
Continuous
 62
     7
370
    15
100
AcDbLine
 10
1892.844018955845
 20
855.7985326425979
 30
0.0
 11
1892.685772959356
 21
847.8900733971178
 31
0.0
  0
LINE
  5
3BB
330
3AA
100
AcDbEntity
  8
0
  6
Continuous
 62
     7
370
    15
100
AcDbLine
 10
1893.418646419891
 20
846.7751613246139
 30
0.0
 11
1893.566413892517
 21
846.6788550890433
 31
0.0
  0
LINE
  5
3BC
330
3AA
100
AcDbEntity
  8
0
  6
Continuous
 62
     7
370
    15
100
AcDbLine
 10
1897.756183275447
 20
846.5950190078951
 30
0.0
 11
1897.907685044269
 21
846.685336951959
 31
0.0
  0
LWPOLYLINE
  5
3BD
330
3AA
100
AcDbEntity
  8
0
  6
Continuous
 62
     7
370
    15
100
AcDbPolyline
 90
       78
 70
   128
 43
0.0
 10
1902.392826490141
 20
862.0067922198101
 10
1902.590116872907
 20
862.1134141669106
 10
1902.802872364685
 20
862.2105656805288
 10
1903.029677112781
 20
862.2976002333706
 10
1903.269021769016
 20
862.3739386248459
 10
1903.519313534191
 20
862.4390728355551
 10
1903.778886757905
 20
862.4925694080721
 10
1904.046014023181
 20
862.5340723315328
 10
1904.318917642141
 20
862.5633054108293
 10
1904.595781486226
 20
862.580074104642
 10
1904.874763072234
 20
862.5842668200803
 10
1905.154005823738
 20
862.5758556553147
 10
1905.431651426299
 20
862.5548965852587
 10
1905.705852194241
 20
862.5215290890659
 10
1905.974783366692
 20
862.475975221918
 10
1906.236655251071
 20
862.418538137285
 10
1906.489725133193
 20
862.3496000694888
 10
1906.732308874745
 20
862.2696197899964
 10
1906.962792120951
 20
862.1791295543721
 10
1907.179641043835
 20
862.0787315602042
 10
1907.381412549593
 20
861.9690939395795
 10
1907.566763882144
 20
861.8509463127741
 10
1907.73446155895
 20
861.7250749327514
 10
1907.88338957964
 20
861.5923174527782
 10
1908.012556852809
 20
861.4535573519804
 10
1908.121103791563
 20
861.3097180559348
 10
1908.208308033936
 20
861.1617567914249
 10
1908.273589250081
 20
861.0106582162542
 10
1908.316513004276
 20
860.8574278665107
 10
1908.336793646018
 20
860.7030854648909
 10
1908.334296210984
 20
860.5486581346129
 10
1908.30903731919
 20
860.3951735640809
 10
1908.261185064394
 20
860.2436531677886
 10
1908.191057895458
 20
860.0951052889742
 10
1908.099122497119
 20
859.9505184892626
 10
1907.985990684286
 20
859.8108549699508
 10
1907.852415330508
 20
859.6770441687169
 10
1907.699285357726
 20
859.5499765743658
 10
1907.527619820643
 20
859.4304978007734
 10
1907.338561125087
 20
859.3194029594652
 10
1907.133367425484
 20
859.2174313682807
 10
1906.91340425205
 20
859.1252616313354
 10
1906.680135423412
 20
859.0435071230213
 10
1906.43511330514
 20
858.9727119061032
 10
1906.179968479004
 20
858.9133471110688
 10
1905.916398891726
 20
858.8658078008348
 10
1905.646158555423
 20
858.8304103416675
 10
1905.371045874948
 20
858.8073902978173
 10
1905.092891679798
 20
858.7969008638779
 10
1904.813547040249
 20
858.7990118453017
 10
1904.534870948791
 20
858.8137091938556
 10
1904.258717948831
 20
858.8408951011098
 10
1903.986925793025
 20
858.8803886493369
 10
1903.721303213325
 20
858.9319270154895
 10
1903.463617884175
 20
858.995167220244
 10
1903.215584658925
 20
859.0696884104717
 10
1902.978854157768
 20
859.1549946599467
 10
1902.75500178313
 20
859.2505182696534
 10
1902.545517235631
 20
859.3556235457294
 10
1902.351794600373
 20
859.4696110299034
 10
1902.175123069531
 20
859.5917221542753
 10
1902.016678362994
 20
859.721144289459
 10
1901.877514904143
 20
859.8570161524978
 10
1901.758558802836
 20
859.998433538561
 10
1901.660601692301
 20
860.144455338276
 10
1901.584295460946
 20
860.2941098006581
 10
1901.530147914152
 20
860.446400999951
 10
1901.498519394909
 20
860.60031546335
 10
1901.489620385794
 20
860.754828915495
 10
1901.503510108244
 20
860.9089130948552
 10
1901.540096128449
 20
861.0615425966388
 10
1901.599134972479
 20
861.2117016966935
 10
1901.68023374657
 20
861.3583911109833
 10
1901.782852751759
 20
861.5006346456578
 10
1901.906309075498
 20
861.6374856934623
 10
1902.049781136321
 20
861.7680335332526
 10
1902.212314151335
 20
861.8914093906937
 10
1902.392826490141
 20
862.0067922198101
  0
LWPOLYLINE
  5
3BE
330
3AA
100
AcDbEntity
  8
0
  6
Continuous
 62
     7
370
    15
100
AcDbPolyline
 90
       67
 70
   128
 43
0.0
 10
1906.735882907136
 20
859.7390067170019
 10
1906.568440899503
 20
859.6497695625943
 10
1906.386016087223
 20
859.569955825931
 10
1906.190260537646
 20
859.5002883125701
 10
1905.982947043341
 20
859.4413979423014
 10
1905.765953067417
 20
859.3938180354372
 10
1905.541243740922
 20
859.3579794829823
 10
1905.310854066314
 20
859.3342068444171
 10
1905.076870488162
 20
859.3227154084381
 10
1904.841411997984
 20
859.3236092432686
 10
1904.606610944329
 20
859.3368802542022
 10
1904.374593721897
 20
859.3624082569087
 10
1904.147461514585
 20
859.3999620658427
 10
1903.927271266834
 20
859.449201587895
 10
1903.716017055625
 20
859.5096809023289
 10
1903.515612031808
 20
859.5808522991076
 10
1903.327871094312
 20
859.6620712390405
 10
1903.15449445414
 20
859.7526021908308
 10
1902.997052236993
 20
859.8516252921596
 10
1902.85697026397
 20
859.9582437744876
 10
1902.735517139111
 20
860.0714920843284
 10
1902.633792760723
 20
860.1903446274508
 10
1902.552718360528
 20
860.3137250568202
 10
1902.493028160849
 20
860.4405160201617
 10
1902.455262725378
 20
860.5695692788774
 10
1902.439764063746
 20
860.699716106672
 10
1902.446672534234
 20
860.8297778737194
 10
1902.475925572662
 20
860.9585767205164
 10
1902.527258258985
 20
861.0849462247617
 10
1902.600205716447
 20
861.2077419646558
 10
1902.694107321575
 20
861.325851882963
 10
1902.808112686894
 20
861.438206357973
 10
1902.941189362161
 20
861.5437878901621
 10
1903.092132184397
 20
861.6416403168246
 10
1903.259574192031
 20
861.7308774712322
 10
1903.441999004311
 20
861.8106912078957
 10
1903.637754553889
 20
861.8803587212564
 10
1903.845068048193
 20
861.9392490915252
 10
1904.062062024117
 20
861.9868289983893
 10
1904.286771350612
 20
862.0226675508442
 10
1904.51716102522
 20
862.0464401894095
 10
1904.751144603372
 20
862.0579316253886
 10
1904.98660309355
 20
862.0570377905581
 10
1905.221404147206
 20
862.0437667796243
 10
1905.453421369637
 20
862.0182387769178
 10
1905.680553576949
 20
861.9806849679838
 10
1905.9007438247
 20
861.9314454459315
 10
1906.111998035909
 20
861.8709661314976
 10
1906.312403059726
 20
861.7997947347189
 10
1906.500143997222
 20
861.718575794786
 10
1906.673520637394
 20
861.6280448429957
 10
1906.830962854541
 20
861.5290217416669
 10
1906.971044827564
 20
861.4224032593389
 10
1907.092497952422
 20
861.3091549494983
 10
1907.194222330811
 20
861.1903024063757
 10
1907.275296731006
 20
861.0669219770064
 10
1907.334986930685
 20
860.9401310136648
 10
1907.372752366156
 20
860.8110777549491
 10
1907.388251027788
 20
860.6809309271545
 10
1907.3813425573
 20
860.5508691601071
 10
1907.352089518872
 20
860.4220703133101
 10
1907.300756832549
 20
860.2957008090649
 10
1907.227809375088
 20
860.1729050691709
 10
1907.133907769958
 20
860.0547951508637
 10
1907.019902404639
 20
859.9424406758535
 10
1906.886825729372
 20
859.8368591436646
 10
1906.735882907136
 20
859.7390067170019
  0
LINE
  5
3BF
330
3AA
100
AcDbEntity
  8
0
  6
Continuous
 62
     7
370
    15
100
AcDbLine
 10
1908.251631072787
 20
856.2893572630727
 30
0.0
 11
1908.251483839272
 21
856.2829730323375
 31
0.0
  0
LWPOLYLINE
  5
3C0
330
3AA
100
AcDbEntity
  8
0
  6
Continuous
 62
     7
370
    15
100
AcDbPolyline
 90
       37
 70
   128
 43
0.0
 10
1892.977067353317
 20
860.0525217867151
 10
1892.978712700277
 20
860.0257430933849
 10
1893.001109469497
 20
859.881272126992
 10
1893.046144234677
 20
859.7381145275674
 10
1893.113474254063
 20
859.5973598108828
 10
1893.202587105553
 20
859.4600792053229
 10
1893.312804586537
 20
859.3273174991882
 10
1893.443287875436
 20
859.2000850892256
 10
1893.593043915632
 20
859.0793502909004
 10
1893.760932973235
 20
858.9660319689297
 10
1893.945677311141
 20
858.8609925441666
 10
1894.145870913388
 20
858.7650314300585
 10
1894.359990185783
 20
858.6788789486263
 10
1894.586405551373
 20
858.6031907722745
 10
1894.823393852514
 20
858.5385429337264
 10
1895.069151465136
 20
858.4854274420692
 10
1895.321808025414
 20
858.4442485382663
 10
1895.579440664367
 20
858.4153196186399
 10
1895.84008864205
 20
858.3988608497364
 10
1896.101768269968
 20
858.394997492725
 10
1896.362488008147
 20
858.4037589500855
 10
1896.620263621952
 20
858.4250785418371
 10
1896.873133283314
 20
858.4587940130134
 10
1897.119172501421
 20
858.5046487685207
 10
1897.356508769263
 20
858.5622938259819
 10
1897.583335814532
 20
858.6312904717024
 10
1897.797927346454
 20
858.7111135995471
 10
1897.998650193895
 20
858.8011557073148
 10
1898.183976734787
 20
858.9007315201961
 10
1898.352496522251
 20
859.0090832061298
 10
1898.502927018949
 20
859.125386143361
 10
1898.634123357968
 20
859.2487551963122
 10
1898.745087055951
 20
859.3782514519979
 10
1898.834973612154
 20
859.5128893657204
 10
1898.903098935609
 20
859.6516442616596
 10
1898.948944551469
 20
859.7934601312752
 10
1898.972127930383
 20
859.9368483685239
  0
LWPOLYLINE
  5
3C1
330
3AA
100
AcDbEntity
  8
0
  6
Continuous
 62
     7
370
    15
100
AcDbPolyline
 90
        3
 70
   128
 43
0.0
 10
1908.247344682736
 20
856.2232811975642
 10
1908.363937369058
 20
856.1500209837559
 10
1908.732023355748
 20
855.9085803588724
  0
LINE
  5
3C2
330
3AA
100
AcDbEntity
  8
0
  6
Continuous
 62
     7
370
    15
100
AcDbLine
 10
1911.492440569937
 20
854.467191268101
 30
0.0
 11
1908.732023355748
 21
855.9085803588724
 31
0.0
  0
LINE
  5
3C3
330
3AA
100
AcDbEntity
  8
0
  6
Continuous
 62
     7
370
    15
100
AcDbLine
 10
1906.958850613144
 20
851.8031590461244
 30
0.0
 11
1911.492440569937
 21
854.467191268101
 31
0.0
  0
LINE
  5
3C4
330
3AA
100
AcDbEntity
  8
0
  6
Continuous
 62
     7
370
    15
100
AcDbLine
 10
1904.198433398957
 20
853.2445481368945
 30
0.0
 11
1906.958850613144
 21
851.8031590461244
 31
0.0
  0
ARC
  5
3C5
330
3AA
100
AcDbEntity
  8
0
  6
Continuous
 62
     7
370
    15
100
AcDbCircle
 10
1910.601156121549
 20
869.5431933784693
 30
0.0
 40
17.51115915560997
100
AcDbArc
 50
236.3029326671493
 51
248.5532274730767
  0
LINE
  5
3C6
330
3AA
100
AcDbEntity
  8
0
  6
Continuous
 62
     7
370
    15
100
AcDbLine
 10
1895.365098313554
 20
857.8569932273614
 30
0.0
 11
1900.885932741929
 21
854.9742150458207
 31
0.0
  0
ARC
  5
3C7
330
3AA
100
AcDbEntity
  8
0
  6
Continuous
 62
     7
370
    15
100
AcDbCircle
 10
1901.767821036144
 20
874.1556384689326
 30
0.0
 40
17.51115915560599
100
AcDbArc
 50
236.3029326671493
 51
248.5532274730767
  0
LINE
  5
3C8
330
3AA
100
AcDbEntity
  8
0
  6
Continuous
 62
     7
370
    15
100
AcDbLine
 10
1889.292180442339
 20
861.0280492270581
 30
0.0
 11
1892.052597656526
 21
859.5866601362876
 31
0.0
  0
LINE
  5
3C9
330
3AA
100
AcDbEntity
  8
0
  6
Continuous
 62
     7
370
    15
100
AcDbLine
 10
1892.608443999993
 20
862.9767550117355
 30
0.0
 11
1889.292180442339
 21
861.0280492270581
 31
0.0
  0
LWPOLYLINE
  5
3CA
330
3AA
100
AcDbEntity
  8
0
  6
Continuous
 62
     7
370
    15
100
AcDbPolyline
 90
        3
 70
   128
 43
0.0
 10
1899.414009597333
 20
860.8357262880311
 10
1899.530602283655
 20
860.762466074223
 10
1899.898688270345
 20
860.5210254493393
  0
LINE
  5
3CB
330
3AA
100
AcDbEntity
  8
0
  6
Continuous
 62
     7
370
    15
100
AcDbLine
 10
1901.468532079198
 20
859.7013103248775
 30
0.0
 11
1899.898688270345
 21
860.5210254493393
 31
0.0
  0
LWPOLYLINE
  5
3CC
330
3AA
100
AcDbEntity
  8
0
  6
Continuous
 62
     7
370
    15
100
AcDbPolyline
 90
       37
 70
   128
 43
0.0
 10
1901.81040243872
 20
855.4400766962482
 10
1901.81204778568
 20
855.413298002918
 10
1901.8344445549
 20
855.2688270365253
 10
1901.87947932008
 20
855.1256694371003
 10
1901.946809339467
 20
854.9849147204161
 10
1902.035922190956
 20
854.847634114856
 10
1902.14613967194
 20
854.7148724087213
 10
1902.276622960839
 20
854.5876399987587
 10
1902.426379001035
 20
854.4669052004335
 10
1902.594268058638
 20
854.3535868784626
 10
1902.779012396544
 20
854.2485474536997
 10
1902.979205998791
 20
854.1525863395914
 10
1903.193325271186
 20
854.0664338581594
 10
1903.419740636777
 20
853.9907456818076
 10
1903.656728937917
 20
853.9260978432595
 10
1903.902486550539
 20
853.8729823516023
 10
1904.155143110817
 20
853.8318034477994
 10
1904.41277574977
 20
853.802874528173
 10
1904.673423727453
 20
853.7864157592693
 10
1904.935103355371
 20
853.7825524022581
 10
1905.19582309355
 20
853.7913138596188
 10
1905.453598707356
 20
853.8126334513703
 10
1905.706468368717
 20
853.8463489225463
 10
1905.952507586825
 20
853.8922036780538
 10
1906.189843854666
 20
853.949848735515
 10
1906.416670899936
 20
854.0188453812355
 10
1906.631262431857
 20
854.0986685090802
 10
1906.831985279298
 20
854.1887106168479
 10
1907.01731182019
 20
854.2882864297292
 10
1907.185831607654
 20
854.3966381156627
 10
1907.336262104352
 20
854.5129410528941
 10
1907.467458443372
 20
854.6363101058453
 10
1907.578422141354
 20
854.765806361531
 10
1907.668308697557
 20
854.9004442752535
 10
1907.736434021012
 20
855.0391991711927
 10
1907.782279636873
 20
855.1810150408082
 10
1907.805463015786
 20
855.3244032780568
  0
LINE
  5
3CD
330
3AA
100
AcDbEntity
  8
0
  6
Continuous
 62
     7
370
    15
100
AcDbLine
 10
1904.133415138955
 20
849.9952131088335
 30
0.0
 11
1904.198433398957
 21
853.2445481368945
 31
0.0
  0
LINE
  5
3CE
330
3AA
100
AcDbEntity
  8
0
  6
Continuous
 62
     7
370
    15
100
AcDbLine
 10
1906.893832353142
 20
848.5538240180636
 30
0.0
 11
1906.958850613144
 21
851.8031590461244
 31
0.0
  0
LINE
  5
3CF
330
3AA
100
AcDbEntity
  8
0
  6
Continuous
 62
     7
370
    15
100
AcDbLine
 10
1906.893832353142
 20
848.5538240180636
 30
0.0
 11
1904.133415138955
 21
849.9952131088335
 31
0.0
  0
LINE
  5
3D0
330
3AA
100
AcDbEntity
  8
0
  6
Continuous
 62
     7
370
    15
100
AcDbLine
 10
1911.492440569937
 20
854.467191268101
 30
0.0
 11
1911.427422309935
 21
851.21785624004
 31
0.0
  0
LINE
  5
3D1
330
3AA
100
AcDbEntity
  8
0
  6
Continuous
 62
     7
370
    15
100
AcDbLine
 10
1906.893832353142
 20
848.5538240180636
 30
0.0
 11
1911.427422309935
 21
851.21785624004
 31
0.0
  0
ARC
  5
3D2
330
3AA
100
AcDbEntity
  8
0
  6
Continuous
 62
     7
370
    15
100
AcDbCircle
 10
1910.536137861548
 20
866.2938583504107
 30
0.0
 40
17.51115915561278
100
AcDbArc
 50
236.3029326671493
 51
248.5532274730646
  0
LINE
  5
3D3
330
3AA
100
AcDbEntity
  8
0
  6
Continuous
 62
     7
370
    15
100
AcDbLine
 10
1900.885932741929
 20
854.9742150458207
 30
0.0
 11
1900.820914481926
 21
851.7248800177597
 31
0.0
  0
LWPOLYLINE
  5
3D4
330
3AA
100
AcDbEntity
  8
0
  6
Continuous
 62
     7
370
    15
100
AcDbPolyline
 90
       38
 70
   128
 43
0.0
 10
1901.519108044759
 20
843.2776283066509
 10
1901.521577378993
 20
843.1895114833526
 10
1901.543974148212
 20
843.0450405169599
 10
1901.589008913393
 20
842.9018829175351
 10
1901.656338932779
 20
842.7611282008507
 10
1901.745451784268
 20
842.6238475952908
 10
1901.855669265253
 20
842.4910858891559
 10
1901.986152554152
 20
842.3638534791935
 10
1902.135908594348
 20
842.2431186808683
 10
1902.303797651951
 20
842.1298003588974
 10
1902.488541989857
 20
842.0247609341343
 10
1902.688735592104
 20
841.928799820026
 10
1902.902854864499
 20
841.8426473385942
 10
1903.129270230089
 20
841.7669591622424
 10
1903.36625853123
 20
841.7023113236943
 10
1903.612016143852
 20
841.6491958320371
 10
1903.86467270413
 20
841.608016928234
 10
1904.122305343083
 20
841.5790880086076
 10
1904.382953320766
 20
841.5626292397041
 10
1904.644632948684
 20
841.5587658826927
 10
1904.905352686863
 20
841.5675273400534
 10
1905.163128300668
 20
841.588846931805
 10
1905.415997962029
 20
841.6225624029811
 10
1905.662037180137
 20
841.6684171584885
 10
1905.899373447979
 20
841.7260622159496
 10
1906.126200493248
 20
841.7950588616701
 10
1906.34079202517
 20
841.8748819895149
 10
1906.541514872611
 20
841.9649240972825
 10
1906.726841413503
 20
842.0644999101639
 10
1906.895361200967
 20
842.1728515960975
 10
1907.045791697665
 20
842.2891545333289
 10
1907.176988036684
 20
842.4125235862799
 10
1907.287951734667
 20
842.5420198419656
 10
1907.37783829087
 20
842.6766577556882
 10
1907.445963614325
 20
842.8154126516274
 10
1907.491809230185
 20
842.9572285212429
 10
1907.515026225632
 20
843.1010260601361
 10
1907.517907239546
 20
843.1575940589103
  0
LWPOLYLINE
  5
3D5
330
3AA
100
AcDbEntity
  8
0
  6
Continuous
 62
     7
370
    15
100
AcDbPolyline
 90
       78
 70
   128
 43
0.0
 10
1893.559491404738
 20
866.619237310277
 10
1893.756781787504
 20
866.7258592573775
 10
1893.969537279282
 20
866.8230107709957
 10
1894.196342027378
 20
866.9100453238375
 10
1894.435686683612
 20
866.986383715313
 10
1894.685978448788
 20
867.051517926022
 10
1894.945551672502
 20
867.105014498539
 10
1895.212678937778
 20
867.1465174219997
 10
1895.485582556737
 20
867.1757505012962
 10
1895.762446400823
 20
867.1925191951091
 10
1896.04142798683
 20
867.1967119105474
 10
1896.320670738335
 20
867.1883007457816
 10
1896.598316340896
 20
867.1673416757258
 10
1896.872517108838
 20
867.133974179533
 10
1897.141448281289
 20
867.0884203123849
 10
1897.403320165668
 20
867.0309832277519
 10
1897.656390047789
 20
866.9620451599556
 10
1897.898973789342
 20
866.8820648804633
 10
1898.129457035548
 20
866.7915746448391
 10
1898.346305958432
 20
866.6911766506713
 10
1898.54807746419
 20
866.5815390300464
 10
1898.733428796741
 20
866.4633914032409
 10
1898.901126473546
 20
866.3375200232183
 10
1899.050054494237
 20
866.2047625432451
 10
1899.179221767406
 20
866.0660024424473
 10
1899.28776870616
 20
865.9221631464017
 10
1899.374972948533
 20
865.774201881892
 10
1899.440254164678
 20
865.6231033067211
 10
1899.483177918873
 20
865.4698729569776
 10
1899.503458560615
 20
865.3155305553578
 10
1899.50096112558
 20
865.1611032250798
 10
1899.475702233787
 20
865.0076186545478
 10
1899.427849978991
 20
864.8560982582555
 10
1899.357722810055
 20
864.7075503794411
 10
1899.265787411716
 20
864.5629635797297
 10
1899.152655598883
 20
864.4233000604177
 10
1899.019080245105
 20
864.2894892591838
 10
1898.865950272323
 20
864.1624216648327
 10
1898.69428473524
 20
864.0429428912403
 10
1898.505226039684
 20
863.9318480499321
 10
1898.300032340081
 20
863.8298764587478
 10
1898.080069166647
 20
863.7377067218023
 10
1897.846800338009
 20
863.6559522134884
 10
1897.601778219737
 20
863.58515699657
 10
1897.346633393601
 20
863.5257922015357
 10
1897.083063806323
 20
863.4782528913019
 10
1896.81282347002
 20
863.4428554321344
 10
1896.537710789544
 20
863.419835388284
 10
1896.259556594394
 20
863.4093459543448
 10
1895.980211954846
 20
863.4114569357686
 10
1895.701535863387
 20
863.4261542843226
 10
1895.425382863428
 20
863.4533401915767
 10
1895.153590707622
 20
863.4928337398038
 10
1894.887968127922
 20
863.5443721059564
 10
1894.630282798772
 20
863.6076123107109
 10
1894.382249573522
 20
863.6821335009384
 10
1894.145519072365
 20
863.7674397504136
 10
1893.921666697727
 20
863.8629633601203
 10
1893.712182150228
 20
863.9680686361963
 10
1893.518459514969
 20
864.0820561203705
 10
1893.341787984127
 20
864.2041672447421
 10
1893.183343277591
 20
864.3335893799259
 10
1893.04417981874
 20
864.4694612429647
 10
1892.925223717433
 20
864.6108786290279
 10
1892.827266606897
 20
864.7569004287431
 10
1892.750960375543
 20
864.906554891125
 10
1892.696812828749
 20
865.0588460904179
 10
1892.665184309505
 20
865.2127605538169
 10
1892.656285300391
 20
865.367274005962
 10
1892.670175022841
 20
865.5213581853221
 10
1892.706761043046
 20
865.6739876871057
 10
1892.765799887077
 20
865.8241467871604
 10
1892.846898661167
 20
865.9708362014502
 10
1892.949517666356
 20
866.1130797361247
 10
1893.072973990095
 20
866.2499307839292
 10
1893.216446050918
 20
866.3804786237195
 10
1893.378979065932
 20
866.5038544811606
 10
1893.559491404738
 20
866.619237310277
  0
LWPOLYLINE
  5
3D6
330
3AA
100
AcDbEntity
  8
0
  6
Continuous
 62
     7
370
    15
100
AcDbPolyline
 90
       67
 70
   128
 43
0.0
 10
1897.902547821733
 20
864.3514518074688
 10
1897.7351058141
 20
864.2622146530612
 10
1897.55268100182
 20
864.1824009163977
 10
1897.356925452243
 20
864.112733403037
 10
1897.149611957938
 20
864.0538430327683
 10
1896.932617982014
 20
864.0062631259043
 10
1896.707908655519
 20
863.9704245734492
 10
1896.47751898091
 20
863.9466519348841
 10
1896.243535402759
 20
863.9351604989048
 10
1896.008076912581
 20
863.9360543337355
 10
1895.773275858925
 20
863.9493253446691
 10
1895.541258636494
 20
863.9748533473758
 10
1895.314126429182
 20
864.0124071563096
 10
1895.093936181431
 20
864.0616466783619
 10
1894.882681970222
 20
864.1221259927958
 10
1894.682276946405
 20
864.1932973895746
 10
1894.494536008909
 20
864.2745163295074
 10
1894.321159368737
 20
864.3650472812977
 10
1894.16371715159
 20
864.4640703826267
 10
1894.023635178567
 20
864.5706888649545
 10
1893.902182053708
 20
864.6839371747953
 10
1893.80045767532
 20
864.8027897179179
 10
1893.719383275125
 20
864.926170147287
 10
1893.659693075446
 20
865.0529611106286
 10
1893.621927639975
 20
865.1820143693443
 10
1893.606428978343
 20
865.3121611971391
 10
1893.613337448831
 20
865.4422229641864
 10
1893.642590487259
 20
865.5710218109835
 10
1893.693923173582
 20
865.6973913152286
 10
1893.766870631043
 20
865.8201870551227
 10
1893.860772236172
 20
865.9382969734298
 10
1893.974777601491
 20
866.0506514484399
 10
1894.107854276758
 20
866.1562329806288
 10
1894.258797098995
 20
866.2540854072915
 10
1894.426239106628
 20
866.3433225616993
 10
1894.608663918907
 20
866.4231362983626
 10
1894.804419468485
 20
866.4928038117235
 10
1895.01173296279
 20
866.551694181992
 10
1895.228726938714
 20
866.5992740888562
 10
1895.453436265209
 20
866.6351126413111
 10
1895.683825939817
 20
866.6588852798764
 10
1895.917809517969
 20
866.6703767158555
 10
1896.153268008147
 20
866.6694828810248
 10
1896.388069061802
 20
866.6562118700912
 10
1896.620086284234
 20
866.6306838673847
 10
1896.847218491546
 20
866.5931300584508
 10
1897.067408739297
 20
866.5438905363984
 10
1897.278662950506
 20
866.4834112219645
 10
1897.479067974323
 20
866.4122398251858
 10
1897.666808911819
 20
866.3310208852529
 10
1897.840185551991
 20
866.2404899334628
 10
1897.997627769138
 20
866.1414668321338
 10
1898.137709742161
 20
866.0348483498058
 10
1898.259162867019
 20
865.921600039965
 10
1898.360887245408
 20
865.8027474968426
 10
1898.441961645603
 20
865.6793670674733
 10
1898.501651845282
 20
865.5525761041317
 10
1898.539417280753
 20
865.423522845416
 10
1898.554915942385
 20
865.2933760176214
 10
1898.548007471897
 20
865.163314250574
 10
1898.518754433469
 20
865.034515403777
 10
1898.467421747145
 20
864.9081458995317
 10
1898.394474289684
 20
864.7853501596376
 10
1898.300572684556
 20
864.6672402413305
 10
1898.186567319237
 20
864.5548857663204
 10
1898.053490643969
 20
864.4493042341315
 10
1897.902547821733
 20
864.3514518074688
  0
LINE
  5
3D7
330
3AA
100
AcDbEntity
  8
0
  6
Continuous
 62
     7
370
    15
100
AcDbLine
 10
1899.418295987384
 20
860.9018023535398
 30
0.0
 11
1899.418148753869
 21
860.8954181228044
 31
0.0
  0
LINE
  5
3D8
330
3AA
100
AcDbEntity
  8
0
  6
Continuous
 62
     7
370
    15
100
AcDbLine
 10
1895.300080053551
 20
854.6076581993004
 30
0.0
 11
1895.365098313554
 21
857.8569932273614
 31
0.0
  0
LINE
  5
3D9
330
3AA
100
AcDbEntity
  8
0
  6
Continuous
 62
     7
370
    15
100
AcDbLine
 10
1900.820914481926
 20
851.7248800177597
 30
0.0
 11
1895.300080053551
 21
854.6076581993004
 31
0.0
  0
LINE
  5
3DA
330
3AA
100
AcDbEntity
  8
0
  6
Continuous
 62
     7
370
    15
100
AcDbLine
 10
1892.052597656526
 20
859.5866601362876
 30
0.0
 11
1891.987579396523
 21
856.3373251082268
 31
0.0
  0
ARC
  5
3DB
330
3AA
100
AcDbEntity
  8
0
  6
Continuous
 62
     7
370
    15
100
AcDbCircle
 10
1901.702802776144
 20
870.9063034408762
 30
0.0
 40
17.51115915561102
100
AcDbArc
 50
236.3029326671493
 51
248.5532274730646
  0
ARC
  5
3DC
330
3AA
100
AcDbEntity
  8
0
  6
Continuous
 62
     7
370
    15
100
AcDbCircle
 10
1904.560280939351
 20
845.9136682264581
 30
0.0
 40
4.423946991013841
100
AcDbArc
 50
243.9940708682355
 51
297.3028581976959
  0
LWPOLYLINE
  5
3DD
330
3AA
100
AcDbEntity
  8
0
  6
Continuous
 62
     7
370
    15
100
AcDbPolyline
 90
        3
 70
   128
 43
0.0
 10
1902.39974897792
 20
842.0664099985764
 10
1902.443409393277
 20
842.038606803103
 10
1902.620538763577
 20
841.9376517185918
  0
LWPOLYLINE
  5
3DE
330
3AA
100
AcDbEntity
  8
0
  6
Continuous
 62
     7
370
    15
100
AcDbPolyline
 90
       38
 70
   128
 43
0.0
 10
1892.685772959356
 20
847.8900733971178
 10
1892.68824229359
 20
847.8019565738197
 10
1892.710639062809
 20
847.6574856074268
 10
1892.75567382799
 20
847.514328008002
 10
1892.823003847376
 20
847.3735732913176
 10
1892.912116698865
 20
847.2362926857577
 10
1893.02233417985
 20
847.1035309796228
 10
1893.152817468748
 20
846.9762985696604
 10
1893.302573508945
 20
846.8555637713352
 10
1893.470462566547
 20
846.7422454493643
 10
1893.655206904454
 20
846.6372060246012
 10
1893.855400506701
 20
846.5412449104931
 10
1894.069519779095
 20
846.4550924290611
 10
1894.295935144686
 20
846.3794042527092
 10
1894.532923445827
 20
846.3147564141612
 10
1894.778681058448
 20
846.261640922504
 10
1895.031337618727
 20
846.2204620187009
 10
1895.28897025768
 20
846.1915330990745
 10
1895.549618235363
 20
846.1750743301712
 10
1895.811297863281
 20
846.1712109731598
 10
1896.07201760146
 20
846.1799724305203
 10
1896.329793215265
 20
846.2012920222719
 10
1896.582662876626
 20
846.2350074934482
 10
1896.828702094734
 20
846.2808622489555
 10
1897.066038362575
 20
846.3385073064165
 10
1897.292865407845
 20
846.407503952137
 10
1897.507456939766
 20
846.4873270799818
 10
1897.708179787208
 20
846.5773691877494
 10
1897.8935063281
 20
846.6769450006308
 10
1898.062026115564
 20
846.7852966865644
 10
1898.212456612261
 20
846.9015996237958
 10
1898.343652951281
 20
847.024968676747
 10
1898.454616649264
 20
847.1544649324325
 10
1898.544503205467
 20
847.2891028461551
 10
1898.612628528922
 20
847.4278577420943
 10
1898.658474144782
 20
847.5696736117098
 10
1898.681691140229
 20
847.713471150603
 10
1898.684572154142
 20
847.7700391493772
  0
LINE
  5
3DF
330
3AA
100
AcDbEntity
  8
0
  6
Continuous
 62
     7
370
    15
100
AcDbLine
 10
1889.292180442339
 20
861.0280492270581
 30
0.0
 11
1889.227162182336
 21
857.778714198997
 31
0.0
  0
LINE
  5
3E0
330
3AA
100
AcDbEntity
  8
0
  6
Continuous
 62
     7
370
    15
100
AcDbLine
 10
1891.987579396523
 20
856.3373251082268
 30
0.0
 11
1889.227162182336
 21
857.778714198997
 31
0.0
  0
ARC
  5
3E1
330
3AA
100
AcDbEntity
  8
0
  6
Continuous
 62
     7
370
    15
100
AcDbCircle
 10
1895.726945853948
 20
850.526113316925
 30
0.0
 40
4.423946991013886
100
AcDbArc
 50
243.9940708682355
 51
297.3028581976959
  0
LWPOLYLINE
  5
3E2
330
3AA
100
AcDbEntity
  8
0
  6
Continuous
 62
     7
370
    15
100
AcDbPolyline
 90
        3
 70
   128
 43
0.0
 10
1893.566413892517
 20
846.6788550890433
 10
1893.610074307874
 20
846.6510518935699
 10
1893.787203678174
 20
846.5500968090587
  0
LWPOLYLINE
  5
3E3
330
3AA
100
AcDbEntity
  8
0
  6
Continuous
 62
     8
370
    15
100
AcDbPolyline
 90
       41
 70
   128
 43
0.0
 10
1908.251483839272
 20
856.2829730323375
 10
1908.247605197647
 20
856.2162114305316
 10
1908.222346305853
 20
856.0627268599995
 10
1908.174494051057
 20
855.9112064637073
 10
1908.104366882121
 20
855.7626585848929
 10
1908.012431483783
 20
855.6180717851813
 10
1907.89929967095
 20
855.4784082658695
 10
1907.765724317172
 20
855.3445974646356
 10
1907.612594344389
 20
855.2175298702845
 10
1907.440928807307
 20
855.0980510966921
 10
1907.25187011175
 20
854.9869562553837
 10
1907.046676412147
 20
854.8849846641994
 10
1906.826713238713
 20
854.7928149272541
 10
1906.593444410076
 20
854.71106041894
 10
1906.348422291803
 20
854.6402652020217
 10
1906.093277465667
 20
854.5809004069875
 10
1905.829707878389
 20
854.5333610967535
 10
1905.559467542086
 20
854.4979636375861
 10
1905.284354861611
 20
854.474943593736
 10
1905.006200666461
 20
854.4644541597966
 10
1904.726856026913
 20
854.4665651412204
 10
1904.448179935454
 20
854.4812624897742
 10
1904.172026935494
 20
854.5084483970285
 10
1903.900234779688
 20
854.5479419452556
 10
1903.634612199988
 20
854.5994803114082
 10
1903.376926870838
 20
854.6627205161627
 10
1903.128893645589
 20
854.7372417063904
 10
1902.892163144431
 20
854.8225479558654
 10
1902.668310769793
 20
854.9180715655721
 10
1902.458826222294
 20
855.023176841648
 10
1902.265103587036
 20
855.1371643258221
 10
1902.088432056194
 20
855.259275450194
 10
1901.929987349657
 20
855.3886975853776
 10
1901.790823890806
 20
855.5245694484165
 10
1901.671867789499
 20
855.6659868344794
 10
1901.573910678964
 20
855.8120086341947
 10
1901.497604447609
 20
855.9616630965768
 10
1901.443456900815
 20
856.1139542958697
 10
1901.411828381572
 20
856.2678687592686
 10
1901.402929372457
 20
856.4223822114138
 10
1901.403001992073
 20
856.4263963625764
  0
LWPOLYLINE
  5
3E4
330
3AA
100
AcDbEntity
  8
0
  6
Continuous
 62
     8
370
    15
100
AcDbPolyline
 90
       41
 70
   128
 43
0.0
 10
1899.418148753869
 20
860.8954181228044
 10
1899.414270112244
 20
860.8286565209985
 10
1899.38901122045
 20
860.6751719504664
 10
1899.341158965654
 20
860.5236515541742
 10
1899.271031796718
 20
860.3751036753598
 10
1899.179096398379
 20
860.2305168756483
 10
1899.065964585546
 20
860.0908533563364
 10
1898.932389231768
 20
859.9570425551025
 10
1898.779259258986
 20
859.8299749607514
 10
1898.607593721903
 20
859.710496187159
 10
1898.418535026347
 20
859.5994013458508
 10
1898.213341326744
 20
859.4974297546665
 10
1897.99337815331
 20
859.405260017721
 10
1897.760109324672
 20
859.3235055094069
 10
1897.5150872064
 20
859.2527102924886
 10
1897.259942380264
 20
859.1933454974544
 10
1896.996372792986
 20
859.1458061872204
 10
1896.726132456683
 20
859.110408728053
 10
1896.451019776208
 20
859.0873886842029
 10
1896.172865581058
 20
859.0768992502635
 10
1895.893520941509
 20
859.0790102316873
 10
1895.614844850051
 20
859.0937075802413
 10
1895.338691850091
 20
859.1208934874954
 10
1895.066899694285
 20
859.1603870357225
 10
1894.801277114585
 20
859.2119254018751
 10
1894.543591785435
 20
859.2751656066296
 10
1894.295558560185
 20
859.3496867968573
 10
1894.058828059028
 20
859.4349930463323
 10
1893.83497568439
 20
859.530516656039
 10
1893.625491136891
 20
859.6356219321149
 10
1893.431768501633
 20
859.749609416289
 10
1893.255096970791
 20
859.8717205406609
 10
1893.096652264254
 20
860.0011426758445
 10
1892.957488805403
 20
860.1370145388834
 10
1892.838532704096
 20
860.2784319249465
 10
1892.74057559356
 20
860.4244537246616
 10
1892.664269362206
 20
860.5741081870437
 10
1892.610121815412
 20
860.7263993863366
 10
1892.578493296168
 20
860.8803138497357
 10
1892.569594287054
 20
861.0348273018807
 10
1892.569666906669
 20
861.0388414530435
  0
ENDBLK
  5
3AC
330
3AA
100
AcDbEntity
  8
0
100
AcDbBlockEnd
  0
ENDSEC
  0
SECTION
  2
ENTITIES
  0
INSERT
  5
358
330
1F
100
AcDbEntity
  8
0
100
AcDbBlockReference
  2
1
 10
0.0
 20
0.0
 30
0.0
  0
INSERT
  5
379
330
1F
100
AcDbEntity
  8
0
100
AcDbBlockReference
  2
2
 10
0.0
 20
0.0
 30
0.0
  0
INSERT
  5
3A9
330
1F
100
AcDbEntity
  8
0
100
AcDbBlockReference
  2
3
 10
0.0
 20
0.0
 30
0.0
  0
INSERT
  5
3E5
330
1F
100
AcDbEntity
  8
0
100
AcDbBlockReference
  2
4
 10
0.0
 20
0.0
 30
0.0
  0
ENDSEC
  0
SECTION
  2
OBJECTS
  0
DICTIONARY
  5
C
330
0
100
AcDbDictionary
281
     1
  3
ACAD_COLOR
350
6B
  3
ACAD_GROUP
350
D
  3
ACAD_LAYOUT
350
1A
  3
ACAD_MATERIAL
350
6A
  3
ACAD_MLEADERSTYLE
350
12D
  3
ACAD_MLINESTYLE
350
17
  3
ACAD_PLOTSETTINGS
350
19
  3
ACAD_PLOTSTYLENAME
350
E
  3
ACAD_SCALELIST
350
10C
  3
ACAD_TABLESTYLE
350
7E
  3
ACAD_VISUALSTYLE
350
EF
  3
ACDB_RECOMPOSE_DATA
350
15D
  3
AcDbVariableDictionary
350
5E
  3
DWGPROPS
350
498
  0
DICTIONARY
  5
13C
330
10
100
AcDbDictionary
280
     1
281
     1
  3
ADSK_XREC_LAYER_RECONCILED
360
3E6
  0
DICTIONARY
  5
426
330
31F
100
AcDbDictionary
280
     1
281
     1
  0
DICTIONARY
  5
44D
330
359
100
AcDbDictionary
280
     1
281
     1
  3
ACAD_SORTENTS
360
451
  0
DICTIONARY
  5
483
330
37A
100
AcDbDictionary
280
     1
281
     1
  3
ACAD_SORTENTS
360
487
  0
DICTIONARY
  5
6B
102
{ACAD_REACTORS
330
C
102
}
330
C
100
AcDbDictionary
281
     1
  0
DICTIONARY
  5
D
102
{ACAD_REACTORS
330
C
102
}
330
C
100
AcDbDictionary
281
     1
  0
DICTIONARY
  5
1A
102
{ACAD_REACTORS
330
C
102
}
330
C
100
AcDbDictionary
281
     1
  3
Layout1
350
D3
  3
Layout2
350
D7
  3
Model
350
22
  0
DICTIONARY
  5
6A
102
{ACAD_REACTORS
330
C
102
}
330
C
100
AcDbDictionary
281
     1
  3
ByBlock
350
ED
  3
ByLayer
350
EC
  3
Global
350
EE
  0
DICTIONARY
  5
12D
102
{ACAD_REACTORS
330
C
102
}
330
C
100
AcDbDictionary
281
     1
  3
Annotative
350
13B
  3
Standard
350
12E
  0
DICTIONARY
  5
17
102
{ACAD_REACTORS
330
C
102
}
330
C
100
AcDbDictionary
281
     1
  3
Standard
350
18
  0
DICTIONARY
  5
19
102
{ACAD_REACTORS
330
C
102
}
330
C
100
AcDbDictionary
281
     1
  0
ACDBDICTIONARYWDFLT
  5
E
102
{ACAD_REACTORS
330
C
102
}
330
C
100
AcDbDictionary
281
     1
  3
Normal
350
F
100
AcDbDictionaryWithDefault
340
F
  0
DICTIONARY
  5
10C
102
{ACAD_REACTORS
330
C
102
}
330
C
100
AcDbDictionary
281
     1
  3
A0
350
10D
  3
A1
350
188
  3
A2
350
189
  3
A3
350
18A
  3
A4
350
18B
  3
A5
350
18C
  3
A6
350
18D
  3
A7
350
18E
  3
A8
350
18F
  3
A9
350
190
  3
B0
350
191
  3
B1
350
192
  3
B2
350
193
  3
B3
350
194
  3
B4
350
195
  3
B5
350
196
  3
B6
350
197
  3
B7
350
198
  3
B8
350
199
  3
B9
350
19A
  3
C0
350
19B
  3
C1
350
19C
  3
C2
350
19D
  3
C3
350
19E
  3
C4
350
19F
  3
C5
350
1A0
  3
C6
350
1A1
  3
C7
350
1A2
  3
C8
350
1A3
  3
C9
350
1A4
  3
D0
350
1A5
  3
D1
350
1A6
  3
D2
350
1A7
  0
DICTIONARY
  5
7E
102
{ACAD_REACTORS
330
C
102
}
330
C
100
AcDbDictionary
281
     1
  3
Standard
350
7F
  0
DICTIONARY
  5
EF
102
{ACAD_REACTORS
330
C
102
}
330
C
100
AcDbDictionary
281
     1
  3
2dWireframe
350
F5
  3
3D Hidden
350
F7
  3
3dWireframe
350
F6
  3
Basic
350
F4
  3
Brighten
350
FB
  3
ColorChange
350
FF
  3
Conceptual
350
F8
  3
Dim
350
FA
  3
Facepattern
350
FE
  3
Flat
350
F0
  3
FlatWithEdges
350
F1
  3
Gouraud
350
F2
  3
GouraudWithEdges
350
F3
  3
Linepattern
350
FD
  3
Realistic
350
F9
  3
Thicken
350
FC
  0
XRECORD
  5
15D
102
{ACAD_REACTORS
330
C
102
}
330
C
100
AcDbXrecord
280
     1
 90
        1
330
7F
  0
DICTIONARY
  5
5E
102
{ACAD_REACTORS
330
C
102
}
330
C
100
AcDbDictionary
281
     1
  3
CANNOSCALE
350
146
  3
CMLEADERSTYLE
350
145
  3
CTABLESTYLE
350
84
  3
DIMASSOC
350
5F
  3
HIDETEXT
350
63
  3
INDEXCTL
350
494
  3
LIGHTINGUNITS
350
492
  3
MSLTSCALE
350
491
  3
PSOLHEIGHT
350
496
  3
PSOLWIDTH
350
495
  3
SORTENTS
350
493
  0
XRECORD
  5
498
102
{ACAD_REACTORS
330
C
102
}
330
C
100
AcDbXrecord
280
     1
  1
DWGPROPS COOKIE
  2

  3

  4

  6

  7

  8
orhan kara
  9

300
=
301
=
302
=
303
=
304
=
305
=
306
=
307
=
308
=
309
=
 40
0.0018009375
 41
2458451.63841213
 42
2458956.455608761
  1

 90
        0
  0
XRECORD
  5
3E6
102
{ACAD_REACTORS
330
13C
102
}
330
13C
100
AcDbXrecord
280
     1
290
     1
  0
SORTENTSTABLE
  5
451
102
{ACAD_REACTORS
330
44D
102
}
330
44D
100
AcDbSortentsTable
330
359
331
43F
  5
441
331
447
  5
449
331
430
  5
430
331
438
  5
438
331
440
  5
442
331
450
  5
43D
331
448
  5
44A
331
431
  5
431
331
439
  5
439
331
441
  5
443
331
449
  5
44B
331
432
  5
432
331
43A
  5
43A
331
442
  5
444
331
452
  5
43F
331
44A
  5
44C
331
433
  5
433
331
43B
  5
43B
331
443
  5
445
331
44B
  5
450
331
434
  5
434
331
444
  5
446
331
44C
  5
452
331
435
  5
435
331
445
  5
447
331
436
  5
436
331
43E
  5
440
331
446
  5
448
331
437
  5
437
  0
SORTENTSTABLE
  5
487
102
{ACAD_REACTORS
330
483
102
}
330
483
100
AcDbSortentsTable
330
37A
331
489
  5
47C
331
473
  5
473
331
470
  5
470
331
458
  5
458
331
479
  5
479
331
47C
  5
47D
331
45E
  5
45E
331
45B
  5
45B
331
47F
  5
481
331
467
  5
467
331
464
  5
464
331
46D
  5
46D
331
46A
  5
46A
331
461
  5
461
331
476
  5
476
331
488
  5
480
331
475
  5
475
331
478
  5
478
331
45A
  5
45A
331
457
  5
457
331
460
  5
460
331
45D
  5
45D
331
472
  5
472
331
469
  5
469
331
466
  5
466
331
46F
  5
46F
331
46C
  5
46C
331
463
  5
463
331
471
  5
471
331
48A
  5
48A
331
477
  5
477
331
47A
  5
47A
331
45C
  5
45C
331
459
  5
459
331
47D
  5
47E
331
480
  5
482
331
462
  5
462
331
45F
  5
45F
331
474
  5
474
331
486
  5
488
331
46B
  5
46B
331
468
  5
468
331
46E
  5
46E
331
465
  5
465
  0
LAYOUT
  5
D3
102
{ACAD_XDICTIONARY
360
49C
102
}
102
{ACAD_REACTORS
330
1A
102
}
330
1A
100
AcDbPlotSettings
  1

  2
C:\Documents and Settings\basas\Application Data\Autodesk\AutoCAD 2005\R16.1\enu\plotters\Default Windows System Printer.pc3
  4

  6

 40
0.0
 41
0.0
 42
0.0
 43
0.0
 44
0.0
 45
0.0
 46
0.0
 47
0.0
 48
0.0
 49
0.0
140
0.0
141
0.0
142
1.0
143
1.0
 70
   688
 72
     0
 73
     0
 74
     5
  7

 75
    16
147
1.0
148
0.0
149
0.0
100
AcDbLayout
  1
Layout1
 70
     1
 71
     1
 10
0.0
 20
0.0
 11
12.0
 21
9.0
 12
0.0
 22
0.0
 32
0.0
 14
0.0
 24
0.0
 34
0.0
 15
0.0
 25
0.0
 35
0.0
146
0.0
 13
0.0
 23
0.0
 33
0.0
 16
1.0
 26
0.0
 36
0.0
 17
0.0
 27
1.0
 37
0.0
 76
     0
330
D2
  0
LAYOUT
  5
D7
102
{ACAD_XDICTIONARY
360
49E
102
}
102
{ACAD_REACTORS
330
1A
102
}
330
1A
100
AcDbPlotSettings
  1

  2
C:\Documents and Settings\basas\Application Data\Autodesk\AutoCAD 2005\R16.1\enu\plotters\Default Windows System Printer.pc3
  4

  6

 40
0.0
 41
0.0
 42
0.0
 43
0.0
 44
0.0
 45
0.0
 46
0.0
 47
0.0
 48
0.0
 49
0.0
140
0.0
141
0.0
142
1.0
143
1.0
 70
   688
 72
     0
 73
     0
 74
     5
  7

 75
    16
147
1.0
148
0.0
149
0.0
100
AcDbLayout
  1
Layout2
 70
     1
 71
     2
 10
0.0
 20
0.0
 11
12.0
 21
9.0
 12
0.0
 22
0.0
 32
0.0
 14
0.0
 24
0.0
 34
0.0
 15
0.0
 25
0.0
 35
0.0
146
0.0
 13
0.0
 23
0.0
 33
0.0
 16
1.0
 26
0.0
 36
0.0
 17
0.0
 27
1.0
 37
0.0
 76
     0
330
D6
  0
LAYOUT
  5
22
102
{ACAD_XDICTIONARY
360
499
102
}
102
{ACAD_REACTORS
330
1A
102
}
330
1A
100
AcDbPlotSettings
  1

  2
none_device
  4
ISO_A4_(210.00_x_297.00_MM)
  6

 40
7.5
 41
20.0
 42
7.5
 43
20.0
 44
210.0
 45
297.0
 46
11.54999923706054
 47
-13.65000009536743
 48
0.0
 49
0.0
140
0.0
141
0.0
142
1.0
143
8.704084754739808
 70
 11952
 72
     1
 73
     0
 74
     0
  7

 75
     0
147
0.1148885871608098
148
0.0
149
0.0
100
AcDbLayout
  1
Model
 70
     1
 71
     0
 10
0.0
 20
0.0
 11
12.0
 21
9.0
 12
0.0
 22
0.0
 32
0.0
 14
0.0
 24
0.0
 34
0.0
 15
0.0
 25
0.0
 35
0.0
146
0.0
 13
0.0
 23
0.0
 33
0.0
 16
1.0
 26
0.0
 36
0.0
 17
0.0
 27
1.0
 37
0.0
 76
     0
330
1F
331
EA
1001
ACAD_PSEXT
1000
None
1000
None
1000
Not applicable
1000
The layout will not be plotted unless a new plotter configuration name is selected.
1070
     0
  0
MATERIAL
  5
ED
102
{ACAD_XDICTIONARY
360
4A2
102
}
102
{ACAD_REACTORS
330
6A
102
}
330
6A
100
AcDbMaterial
  1
ByBlock
  0
MATERIAL
  5
EC
102
{ACAD_XDICTIONARY
360
4A0
102
}
102
{ACAD_REACTORS
330
6A
102
}
330
6A
100
AcDbMaterial
  1
ByLayer
  0
MATERIAL
  5
EE
102
{ACAD_XDICTIONARY
360
173
102
}
102
{ACAD_REACTORS
330
6A
102
}
330
6A
100
AcDbMaterial
  1
Global
 43
0.0007999999797903
 43
0.0
 43
0.0
 43
0.0
 43
0.0
 43
0.0007999999797903
 43
0.0
 43
0.0
 43
0.0
 43
0.0
 43
1.0
 43
0.0
 43
0.0
 43
0.0
 43
0.0
 43
1.0
 49
0.0007999999797903
 49
0.0
 49
0.0
 49
0.0
 49
0.0
 49
0.0007999999797903
 49
0.0
 49
0.0
 49
0.0
 49
0.0
 49
1.0
 49
0.0
 49
0.0
 49
0.0
 49
0.0
 49
1.0
142
0.0007999999797903
142
0.0
142
0.0
142
0.0
142
0.0
142
0.0007999999797903
142
0.0
142
0.0
142
0.0
142
0.0
142
1.0
142
0.0
142
0.0
142
0.0
142
0.0
142
1.0
144
0.0007999999797903
144
0.0
144
0.0
144
0.0
144
0.0
144
0.0007999999797903
144
0.0
144
0.0
144
0.0
144
0.0
144
1.0
144
0.0
144
0.0
144
0.0
144
0.0
144
1.0
1001
ACAD
1070
    -1
1070
     3
1070
     0
1000

1071
        0
1070
     0
  0
MLEADERSTYLE
  5
13B
102
{ACAD_REACTORS
330
12D
102
}
330
12D
100
AcDbMLeaderStyle
170
     2
171
     1
172
     0
 90
        2
 40
0.0
 41
0.0
173
     1
 91
-1056964608
340
14
 92
       -2
290
     1
 42
2.0
291
     1
 43
8.0
  3
Standard
 44
4.0
300

342
11
174
     1
178
     1
175
     1
176
     0
 93
-1056964608
 45
4.0
292
     0
297
     0
 46
4.0
 94
-1056964608
 47
1.0
 49
1.0
140
1.0
293
     1
141
0.0
294
     1
177
     0
142
1.0
295
     0
296
     1
143
3.75
1001
ACAD_MLEADERVER
1070
     2
  0
MLEADERSTYLE
  5
12E
102
{ACAD_REACTORS
330
12D
102
}
330
12D
100
AcDbMLeaderStyle
170
     2
171
     1
172
     0
 90
        2
 40
0.0
 41
0.0
173
     1
 91
-1056964608
340
14
 92
       -2
290
     1
 42
2.0
291
     1
 43
8.0
  3
Standard
 44
4.0
300

342
11
174
     1
178
     1
175
     1
176
     0
 93
-1056964608
 45
4.0
292
     0
297
     0
 46
4.0
 94
-1056964608
 47
1.0
 49
1.0
140
1.0
293
     1
141
0.0
294
     1
177
     0
142
1.0
295
     0
296
     0
143
3.75
1001
ACAD_MLEADERVER
1070
     2
  0
MLINESTYLE
  5
18
102
{ACAD_REACTORS
330
17
102
}
330
17
100
AcDbMlineStyle
  2
STANDARD
 70
     0
  3

 62
   256
 51
90.0
 52
90.0
 71
     2
 49
0.5
 62
   256
  6
BYLAYER
 49
-0.5
 62
   256
  6
BYLAYER
  0
ACDBPLACEHOLDER
  5
F
102
{ACAD_REACTORS
330
E
102
}
330
E
  0
SCALE
  5
10D
102
{ACAD_REACTORS
330
10C
102
}
330
10C
100
AcDbScale
 70
     0
300
1:1
140
1.0
141
1.0
290
     1
  0
SCALE
  5
188
102
{ACAD_REACTORS
330
10C
102
}
330
10C
100
AcDbScale
 70
     0
300
1:2
140
1.0
141
2.0
290
     0
  0
SCALE
  5
189
102
{ACAD_REACTORS
330
10C
102
}
330
10C
100
AcDbScale
 70
     0
300
1:4
140
1.0
141
4.0
290
     0
  0
SCALE
  5
18A
102
{ACAD_REACTORS
330
10C
102
}
330
10C
100
AcDbScale
 70
     0
300
1:5
140
1.0
141
5.0
290
     0
  0
SCALE
  5
18B
102
{ACAD_REACTORS
330
10C
102
}
330
10C
100
AcDbScale
 70
     0
300
1:8
140
1.0
141
8.0
290
     0
  0
SCALE
  5
18C
102
{ACAD_REACTORS
330
10C
102
}
330
10C
100
AcDbScale
 70
     0
300
1:10
140
1.0
141
10.0
290
     0
  0
SCALE
  5
18D
102
{ACAD_REACTORS
330
10C
102
}
330
10C
100
AcDbScale
 70
     0
300
1:16
140
1.0
141
16.0
290
     0
  0
SCALE
  5
18E
102
{ACAD_REACTORS
330
10C
102
}
330
10C
100
AcDbScale
 70
     0
300
1:20
140
1.0
141
20.0
290
     0
  0
SCALE
  5
18F
102
{ACAD_REACTORS
330
10C
102
}
330
10C
100
AcDbScale
 70
     0
300
1:30
140
1.0
141
30.0
290
     0
  0
SCALE
  5
190
102
{ACAD_REACTORS
330
10C
102
}
330
10C
100
AcDbScale
 70
     0
300
1:40
140
1.0
141
40.0
290
     0
  0
SCALE
  5
191
102
{ACAD_REACTORS
330
10C
102
}
330
10C
100
AcDbScale
 70
     0
300
1:50
140
1.0
141
50.0
290
     0
  0
SCALE
  5
192
102
{ACAD_REACTORS
330
10C
102
}
330
10C
100
AcDbScale
 70
     0
300
1:100
140
1.0
141
100.0
290
     0
  0
SCALE
  5
193
102
{ACAD_REACTORS
330
10C
102
}
330
10C
100
AcDbScale
 70
     0
300
2:1
140
2.0
141
1.0
290
     0
  0
SCALE
  5
194
102
{ACAD_REACTORS
330
10C
102
}
330
10C
100
AcDbScale
 70
     0
300
4:1
140
4.0
141
1.0
290
     0
  0
SCALE
  5
195
102
{ACAD_REACTORS
330
10C
102
}
330
10C
100
AcDbScale
 70
     0
300
8:1
140
8.0
141
1.0
290
     0
  0
SCALE
  5
196
102
{ACAD_REACTORS
330
10C
102
}
330
10C
100
AcDbScale
 70
     0
300
10:1
140
10.0
141
1.0
290
     0
  0
SCALE
  5
197
102
{ACAD_REACTORS
330
10C
102
}
330
10C
100
AcDbScale
 70
     0
300
100:1
140
100.0
141
1.0
290
     0
  0
SCALE
  5
198
102
{ACAD_REACTORS
330
10C
102
}
330
10C
100
AcDbScale
 70
     0
300
1/128" = 1'-0"
140
0.0078125
141
12.0
290
     0
  0
SCALE
  5
199
102
{ACAD_REACTORS
330
10C
102
}
330
10C
100
AcDbScale
 70
     0
300
1/64" = 1'-0"
140
0.015625
141
12.0
290
     0
  0
SCALE
  5
19A
102
{ACAD_REACTORS
330
10C
102
}
330
10C
100
AcDbScale
 70
     0
300
1/32" = 1'-0"
140
0.03125
141
12.0
290
     0
  0
SCALE
  5
19B
102
{ACAD_REACTORS
330
10C
102
}
330
10C
100
AcDbScale
 70
     0
300
1/16" = 1'-0"
140
0.0625
141
12.0
290
     0
  0
SCALE
  5
19C
102
{ACAD_REACTORS
330
10C
102
}
330
10C
100
AcDbScale
 70
     0
300
3/32" = 1'-0"
140
0.09375
141
12.0
290
     0
  0
SCALE
  5
19D
102
{ACAD_REACTORS
330
10C
102
}
330
10C
100
AcDbScale
 70
     0
300
1/8" = 1'-0"
140
0.125
141
12.0
290
     0
  0
SCALE
  5
19E
102
{ACAD_REACTORS
330
10C
102
}
330
10C
100
AcDbScale
 70
     0
300
3/16" = 1'-0"
140
0.1875
141
12.0
290
     0
  0
SCALE
  5
19F
102
{ACAD_REACTORS
330
10C
102
}
330
10C
100
AcDbScale
 70
     0
300
1/4" = 1'-0"
140
0.25
141
12.0
290
     0
  0
SCALE
  5
1A0
102
{ACAD_REACTORS
330
10C
102
}
330
10C
100
AcDbScale
 70
     0
300
3/8" = 1'-0"
140
0.375
141
12.0
290
     0
  0
SCALE
  5
1A1
102
{ACAD_REACTORS
330
10C
102
}
330
10C
100
AcDbScale
 70
     0
300
1/2" = 1'-0"
140
0.5
141
12.0
290
     0
  0
SCALE
  5
1A2
102
{ACAD_REACTORS
330
10C
102
}
330
10C
100
AcDbScale
 70
     0
300
3/4" = 1'-0"
140
0.75
141
12.0
290
     0
  0
SCALE
  5
1A3
102
{ACAD_REACTORS
330
10C
102
}
330
10C
100
AcDbScale
 70
     0
300
1" = 1'-0"
140
1.0
141
12.0
290
     0
  0
SCALE
  5
1A4
102
{ACAD_REACTORS
330
10C
102
}
330
10C
100
AcDbScale
 70
     0
300
1-1/2" = 1'-0"
140
1.5
141
12.0
290
     0
  0
SCALE
  5
1A5
102
{ACAD_REACTORS
330
10C
102
}
330
10C
100
AcDbScale
 70
     0
300
3" = 1'-0"
140
3.0
141
12.0
290
     0
  0
SCALE
  5
1A6
102
{ACAD_REACTORS
330
10C
102
}
330
10C
100
AcDbScale
 70
     0
300
6" = 1'-0"
140
6.0
141
12.0
290
     0
  0
SCALE
  5
1A7
102
{ACAD_REACTORS
330
10C
102
}
330
10C
100
AcDbScale
 70
     0
300
1'-0" = 1'-0"
140
12.0
141
12.0
290
     0
  0
TABLESTYLE
  5
7F
102
{ACAD_XDICTIONARY
360
162
102
}
102
{ACAD_REACTORS
330
7E
102
}
330
7E
100
AcDbTableStyle
  3
Standard
 70
     0
 71
     0
 40
1.5
 41
1.5
280
     0
281
     0
  7
Standard
140
4.5
170
     2
 62
     0
 63
     7
283
     0
274
    -2
284
     1
 64
     0
275
    -2
285
     1
 65
     0
276
    -2
286
     1
 66
     0
277
    -2
287
     1
 67
     0
278
    -2
288
     1
 68
     0
279
    -2
289
     1
 69
     0
  7
Standard
140
6.0
170
     5
 62
     0
 63
     7
283
     0
274
    -2
284
     1
 64
     0
275
    -2
285
     1
 65
     0
276
    -2
286
     1
 66
     0
277
    -2
287
     1
 67
     0
278
    -2
288
     1
 68
     0
279
    -2
289
     1
 69
     0
  7
Standard
140
4.5
170
     5
 62
     0
 63
     7
283
     0
274
    -2
284
     1
 64
     0
275
    -2
285
     1
 65
     0
276
    -2
286
     1
 66
     0
277
    -2
287
     1
 67
     0
278
    -2
288
     1
 68
     0
279
    -2
289
     1
 69
     0
  0
VISUALSTYLE
  5
F5
102
{ACAD_REACTORS
330
EF
102
}
330
EF
100
AcDbVisualStyle
  2
2dWireframe
 70
     4
 71
     0
 72
     2
 73
     1
 90
        0
 40
-0.6
 41
-30.0
 62
     5
 63
     7
 74
     1
 91
        4
 64
     7
 65
   257
 75
     1
175
     1
 42
1.0
 92
        0
 66
   257
 43
1.0
 76
     1
 77
     6
 78
     2
 67
     7
 79
     5
170
     0
171
     0
290
     0
174
     0
 93
        1
 44
0.0
173
     0
291
     0
 45
0.0
1001
ACAD
1000
AcDbSavedByObjectVersion
1070
     0
  0
VISUALSTYLE
  5
F7
102
{ACAD_REACTORS
330
EF
102
}
330
EF
100
AcDbVisualStyle
  2
3D Hidden
 70
     6
 71
     1
 72
     2
 73
     2
 90
        0
 40
-0.6
 41
-30.0
 62
     5
 63
     7
 74
     2
 91
        2
 64
     7
 65
   257
 75
     2
175
     1
 42
40.0
 92
        0
 66
   257
 43
1.0
 76
     1
 77
     6
 78
     2
 67
     7
 79
     3
170
     0
171
     0
290
     0
174
     0
 93
        1
 44
0.0
173
     0
291
     0
 45
0.0
1001
ACAD
1000
AcDbSavedByObjectVersion
1070
     0
  0
VISUALSTYLE
  5
F6
102
{ACAD_REACTORS
330
EF
102
}
330
EF
100
AcDbVisualStyle
  2
3dWireframe
 70
     5
 71
     0
 72
     2
 73
     1
 90
        0
 40
-0.6
 41
-30.0
 62
     5
 63
     7
 74
     1
 91
        4
 64
     7
 65
   257
 75
     1
175
     1
 42
1.0
 92
        0
 66
   257
 43
1.0
 76
     1
 77
     6
 78
     2
 67
     7
 79
     5
170
     0
171
     0
290
     0
174
     0
 93
        1
 44
0.0
173
     0
291
     0
 45
0.0
1001
ACAD
1000
AcDbSavedByObjectVersion
1070
     0
  0
VISUALSTYLE
  5
F4
102
{ACAD_REACTORS
330
EF
102
}
330
EF
100
AcDbVisualStyle
  2
Basic
 70
     7
 71
     1
 72
     0
 73
     1
 90
        0
 40
-0.6
 41
-30.0
 62
     5
 63
     7
 74
     0
 91
        4
 64
     7
 65
   257
 75
     1
175
     1
 42
1.0
 92
        8
 66
     7
 43
1.0
 76
     1
 77
     6
 78
     2
 67
     7
 79
     5
170
     0
171
     0
290
     0
174
     0
 93
        1
 44
0.0
173
     0
291
     1
 45
0.0
1001
ACAD
1000
AcDbSavedByObjectVersion
1070
     0
  0
VISUALSTYLE
  5
FB
102
{ACAD_REACTORS
330
EF
102
}
330
EF
100
AcDbVisualStyle
  2
Brighten
 70
    12
 71
     2
 72
     2
 73
     1
 90
        0
 40
-0.6
 41
-30.0
 62
     5
 63
     7
 74
     1
 91
        4
 64
     7
 65
   257
 75
     1
175
     1
 42
1.0
 92
        8
 66
     7
 43
1.0
 76
     1
 77
     6
 78
     2
 67
     7
 79
     5
170
     0
171
     0
290
     0
174
     0
 93
        1
 44
50.0
173
     0
291
     1
 45
0.0
1001
ACAD
1000
AcDbSavedByObjectVersion
1070
     0
  0
VISUALSTYLE
  5
FF
102
{ACAD_REACTORS
330
EF
102
}
330
EF
100
AcDbVisualStyle
  2
ColorChange
 70
    16
 71
     2
 72
     2
 73
     3
 90
        0
 40
-0.6
 41
-30.0
 62
     5
 63
     8
 74
     1
 91
        4
 64
     7
 65
   257
 75
     1
175
     1
 42
1.0
 92
        8
 66
     8
 43
1.0
 76
     1
 77
     6
 78
     2
 67
     7
 79
     5
170
     0
171
     0
290
     0
174
     0
 93
        1
 44
0.0
173
     0
291
     1
 45
0.0
1001
ACAD
1000
AcDbSavedByObjectVersion
1070
     0
  0
VISUALSTYLE
  5
F8
102
{ACAD_REACTORS
330
EF
102
}
330
EF
100
AcDbVisualStyle
  2
Conceptual
 70
     9
 71
     3
 72
     2
 73
     1
 90
        0
 40
-0.6
 41
-30.0
 62
     5
 63
     7
 74
     2
 91
        2
 64
     7
 65
   257
 75
     1
175
     1
 42
40.0
 92
        8
 66
     7
 43
1.0
 76
     1
 77
     6
 78
     2
 67
     7
 79
     3
170
     0
171
     0
290
     0
174
     0
 93
        1
 44
0.0
173
     0
291
     0
 45
0.0
1001
ACAD
1000
AcDbSavedByObjectVersion
1070
     0
  0
VISUALSTYLE
  5
FA
102
{ACAD_REACTORS
330
EF
102
}
330
EF
100
AcDbVisualStyle
  2
Dim
 70
    11
 71
     2
 72
     2
 73
     1
 90
        0
 40
-0.6
 41
-30.0
 62
     5
 63
     7
 74
     1
 91
        4
 64
     7
 65
   257
 75
     1
175
     1
 42
1.0
 92
        8
 66
     7
 43
1.0
 76
     1
 77
     6
 78
     2
 67
     7
 79
     5
170
     0
171
     0
290
     0
174
     0
 93
        1
 44
-50.0
173
     0
291
     1
 45
0.0
1001
ACAD
1000
AcDbSavedByObjectVersion
1070
     0
  0
VISUALSTYLE
  5
FE
102
{ACAD_REACTORS
330
EF
102
}
330
EF
100
AcDbVisualStyle
  2
Facepattern
 70
    15
 71
     2
 72
     2
 73
     1
 90
        0
 40
-0.6
 41
-30.0
 62
     5
 63
     7
 74
     1
 91
        4
 64
     7
 65
   257
 75
     1
175
     1
 42
1.0
 92
        8
 66
     7
 43
1.0
 76
     1
 77
     6
 78
     2
 67
     7
 79
     5
170
     0
171
     0
290
     0
174
     0
 93
        1
 44
0.0
173
     0
291
     1
 45
0.0
1001
ACAD
1000
AcDbSavedByObjectVersion
1070
     0
  0
VISUALSTYLE
  5
F0
102
{ACAD_REACTORS
330
EF
102
}
330
EF
100
AcDbVisualStyle
  2
Flat
 70
     0
 71
     2
 72
     1
 73
     1
 90
        2
 40
-0.6
 41
30.0
 62
     5
 63
     7
 74
     0
 91
        4
 64
     7
 65
   257
 75
     1
175
     1
 42
1.0
 92
        8
 66
     7
 43
1.0
 76
     1
 77
     6
 78
     2
 67
     7
 79
     5
170
     0
171
     0
290
     0
174
     0
 93
        1
 44
0.0
173
     0
291
     1
 45
0.0
1001
ACAD
1000
AcDbSavedByObjectVersion
1070
     0
  0
VISUALSTYLE
  5
F1
102
{ACAD_REACTORS
330
EF
102
}
330
EF
100
AcDbVisualStyle
  2
FlatWithEdges
 70
     1
 71
     2
 72
     1
 73
     1
 90
        2
 40
-0.6
 41
30.0
 62
     5
 63
     7
 74
     1
 91
        4
 64
     7
 65
   257
 75
     1
175
     1
 42
1.0
 92
        0
 66
   257
 43
1.0
 76
     1
 77
     6
 78
     2
 67
     7
 79
     5
170
     0
171
     0
290
     0
174
     0
 93
        1
 44
0.0
173
     0
291
     1
 45
0.0
1001
ACAD
1000
AcDbSavedByObjectVersion
1070
     0
  0
VISUALSTYLE
  5
F2
102
{ACAD_REACTORS
330
EF
102
}
330
EF
100
AcDbVisualStyle
  2
Gouraud
 70
     2
 71
     2
 72
     2
 73
     1
 90
        2
 40
-0.6
 41
30.0
 62
     5
 63
     7
 74
     0
 91
        4
 64
     7
 65
   257
 75
     1
175
     1
 42
1.0
 92
        0
 66
     7
 43
1.0
 76
     1
 77
     6
 78
     2
 67
     7
 79
     5
170
     0
171
     0
290
     0
174
     0
 93
        1
 44
0.0
173
     0
291
     1
 45
0.0
1001
ACAD
1000
AcDbSavedByObjectVersion
1070
     0
  0
VISUALSTYLE
  5
F3
102
{ACAD_REACTORS
330
EF
102
}
330
EF
100
AcDbVisualStyle
  2
GouraudWithEdges
 70
     3
 71
     2
 72
     2
 73
     1
 90
        2
 40
-0.6
 41
30.0
 62
     5
 63
     7
 74
     1
 91
        4
 64
     7
 65
   257
 75
     1
175
     1
 42
1.0
 92
        0
 66
   257
 43
1.0
 76
     1
 77
     6
 78
     2
 67
     7
 79
     5
170
     0
171
     0
290
     0
174
     0
 93
        1
 44
0.0
173
     0
291
     1
 45
0.0
1001
ACAD
1000
AcDbSavedByObjectVersion
1070
     0
  0
VISUALSTYLE
  5
FD
102
{ACAD_REACTORS
330
EF
102
}
330
EF
100
AcDbVisualStyle
  2
Linepattern
 70
    14
 71
     2
 72
     2
 73
     1
 90
        0
 40
-0.6
 41
-30.0
 62
     5
 63
     7
 74
     1
 91
        4
 64
     7
 65
   257
 75
     7
175
     7
 42
1.0
 92
        8
 66
     7
 43
1.0
 76
     1
 77
     6
 78
     2
 67
     7
 79
     5
170
     0
171
     0
290
     0
174
     0
 93
        1
 44
0.0
173
     0
291
     1
 45
0.0
1001
ACAD
1000
AcDbSavedByObjectVersion
1070
     0
  0
VISUALSTYLE
  5
F9
102
{ACAD_REACTORS
330
EF
102
}
330
EF
100
AcDbVisualStyle
  2
Realistic
 70
     8
 71
     2
 72
     2
 73
     1
 90
        0
 40
-0.6
 41
-30.0
 62
     5
 63
     7
 74
     1
 91
        0
 64
     7
 65
   257
 75
     1
175
     1
 42
1.0
 92
        8
 66
     8
 43
1.0
 76
     1
 77
     6
 78
     2
 67
     7
 79
     5
170
     0
171
     0
290
     0
174
     0
 93
       13
 44
0.0
173
     0
291
     0
 45
0.0
1001
ACAD
1000
AcDbSavedByObjectVersion
1070
     0
  0
VISUALSTYLE
  5
FC
102
{ACAD_REACTORS
330
EF
102
}
330
EF
100
AcDbVisualStyle
  2
Thicken
 70
    13
 71
     2
 72
     2
 73
     1
 90
        0
 40
-0.6
 41
-30.0
 62
     5
 63
     7
 74
     1
 91
        4
 64
     7
 65
   257
 75
     1
175
     1
 42
1.0
 92
       12
 66
     7
 43
1.0
 76
     1
 77
     6
 78
     2
 67
     7
 79
     5
170
     0
171
     0
290
     0
174
     0
 93
        1
 44
0.0
173
     0
291
     1
 45
0.0
1001
ACAD
1000
AcDbSavedByObjectVersion
1070
     0
  0
DICTIONARYVAR
  5
146
102
{ACAD_REACTORS
330
5E
102
}
330
5E
100
DictionaryVariables
280
     0
  1
1:1
  0
DICTIONARYVAR
  5
145
102
{ACAD_REACTORS
330
5E
102
}
330
5E
100
DictionaryVariables
280
     0
  1
STANDARD
  0
DICTIONARYVAR
  5
84
102
{ACAD_REACTORS
330
5E
102
}
330
5E
100
DictionaryVariables
280
     0
  1
STANDARD
  0
DICTIONARYVAR
  5
5F
102
{ACAD_REACTORS
330
5E
102
}
330
5E
100
DictionaryVariables
280
     0
  1
2
  0
DICTIONARYVAR
  5
63
102
{ACAD_REACTORS
330
5E
102
}
330
5E
100
DictionaryVariables
280
     0
  1
1
  0
DICTIONARYVAR
  5
494
102
{ACAD_REACTORS
330
5E
102
}
330
5E
100
DictionaryVariables
280
     0
  1
0
  0
DICTIONARYVAR
  5
492
102
{ACAD_REACTORS
330
5E
102
}
330
5E
100
DictionaryVariables
280
     0
  1
2
  0
DICTIONARYVAR
  5
491
102
{ACAD_REACTORS
330
5E
102
}
330
5E
100
DictionaryVariables
280
     0
  1
1
  0
DICTIONARYVAR
  5
496
102
{ACAD_REACTORS
330
5E
102
}
330
5E
100
DictionaryVariables
280
     0
  1
80.000000
  0
DICTIONARYVAR
  5
495
102
{ACAD_REACTORS
330
5E
102
}
330
5E
100
DictionaryVariables
280
     0
  1
5.000000
  0
DICTIONARYVAR
  5
493
102
{ACAD_REACTORS
330
5E
102
}
330
5E
100
DictionaryVariables
280
     0
  1
127
  0
DICTIONARY
  5
49C
330
D3
100
AcDbDictionary
280
     1
281
     1
  3
ACAD_XREC_ROUNDTRIP
360
49D
  0
DICTIONARY
  5
49E
330
D7
100
AcDbDictionary
280
     1
281
     1
  3
ACAD_XREC_ROUNDTRIP
360
49F
  0
DICTIONARY
  5
499
330
22
100
AcDbDictionary
280
     1
281
     1
  3
ACAD_XREC_ROUNDTRIP
360
49A
  0
DICTIONARY
  5
4A2
330
ED
100
AcDbDictionary
280
     1
281
     1
  3
ACAD_XREC_ROUNDTRIP
360
4A3
  0
DICTIONARY
  5
4A0
330
EC
100
AcDbDictionary
280
     1
281
     1
  3
ACAD_XREC_ROUNDTRIP
360
4A1
  0
DICTIONARY
  5
173
330
EE
100
AcDbDictionary
280
     1
281
     1
  3
ACAD_XREC_ROUNDTRIP
360
4A4
  3
BUMPTILE
360
175
  3
DIFFUSETILE
360
174
  3
OPACITYTILE
360
176
  3
REFLECTIONTILE
360
177
  0
DICTIONARY
  5
162
330
7F
100
AcDbDictionary
280
     1
281
     1
  3
ACAD_ROUNDTRIP_2008_TABLESTYLE_CELLSTYLEMAP
360
497
  3
ACAD_XREC_ROUNDTRIP
360
49B
  0
XRECORD
  5
49D
102
{ACAD_REACTORS
330
49C
102
}
330
49C
100
AcDbXrecord
280
     1
102
SHADEPLOT
 70
     0
102
SHADEPLOTRESLEVEL
 70
     2
102
SHADEPLOTCUSTOMDPI
 70
   300
  0
XRECORD
  5
49F
102
{ACAD_REACTORS
330
49E
102
}
330
49E
100
AcDbXrecord
280
     1
102
SHADEPLOT
 70
     0
102
SHADEPLOTRESLEVEL
 70
     2
102
SHADEPLOTCUSTOMDPI
 70
   300
  0
XRECORD
  5
49A
102
{ACAD_REACTORS
330
499
102
}
330
499
100
AcDbXrecord
280
     1
102
SHADEPLOT
 70
     0
102
SHADEPLOTRESLEVEL
 70
     2
102
SHADEPLOTCUSTOMDPI
 70
   300
  0
XRECORD
  5
4A3
102
{ACAD_REACTORS
330
4A2
102
}
330
4A2
100
AcDbXrecord
280
     1
102
MATERIAL
148
0.0
149
0.0
149
0.0
 93
        0
 94
       63
282
     0
 72
     1
 77
     1
171
     1
175
     1
179
     1
273
     0
  0
XRECORD
  5
4A1
102
{ACAD_REACTORS
330
4A0
102
}
330
4A0
100
AcDbXrecord
280
     1
102
MATERIAL
148
0.0
149
0.0
149
0.0
 93
        0
 94
       63
282
     0
 72
     1
 77
     1
171
     1
175
     1
179
     1
273
     0
  0
XRECORD
  5
4A4
102
{ACAD_REACTORS
330
173
102
}
330
173
100
AcDbXrecord
280
     1
102
MATERIAL
148
0.0
149
0.0
149
0.0
 93
        0
 94
       63
282
     0
 72
     1
 77
     1
171
     1
175
     1
179
     1
273
     0
  0
XRECORD
  5
175
102
{ACAD_REACTORS
330
173
102
}
330
173
100
AcDbXrecord
280
     1
270
     1
271
     1
  0
XRECORD
  5
174
102
{ACAD_REACTORS
330
173
102
}
330
173
100
AcDbXrecord
280
     1
270
     1
271
     1
  0
XRECORD
  5
176
102
{ACAD_REACTORS
330
173
102
}
330
173
100
AcDbXrecord
280
     1
270
     1
271
     1
  0
XRECORD
  5
177
102
{ACAD_REACTORS
330
173
102
}
330
173
100
AcDbXrecord
280
     1
270
     1
271
     1
  0
CELLSTYLEMAP
  5
497
102
{ACAD_REACTORS
330
162
102
}
330
162
100
AcDbCellStyleMap
 90
        3
300
CELLSTYLE
  1
TABLEFORMAT_BEGIN
 90
        5
170
     1
 91
        0
 92
    32768
 62
   257
 93
        1
300
CONTENTFORMAT
  1
CONTENTFORMAT_BEGIN
 90
        0
 91
        0
 92
      512
 93
        0
300

 40
0.0
140
1.0
 94
        5
 62
     0
340
11
144
6.0
309
CONTENTFORMAT_END
171
     1
301
MARGIN
  1
CELLMARGIN_BEGIN
 40
1.5
 40
1.5
 40
1.5
 40
1.5
 40
4.5
 40
4.5
309
CELLMARGIN_END
 94
        6
 95
        1
302
GRIDFORMAT
  1
GRIDFORMAT_BEGIN
 90
        0
 91
        1
 62
     0
 92
       -2
340
14
 93
        0
 40
1.125
309
GRIDFORMAT_END
 95
        2
302
GRIDFORMAT
  1
GRIDFORMAT_BEGIN
 90
        0
 91
        1
 62
     0
 92
       -2
340
14
 93
        0
 40
1.125
309
GRIDFORMAT_END
 95
        4
302
GRIDFORMAT
  1
GRIDFORMAT_BEGIN
 90
        0
 91
        1
 62
     0
 92
       -2
340
14
 93
        0
 40
1.125
309
GRIDFORMAT_END
 95
        8
302
GRIDFORMAT
  1
GRIDFORMAT_BEGIN
 90
        0
 91
        1
 62
     0
 92
       -2
340
14
 93
        0
 40
1.125
309
GRIDFORMAT_END
 95
       16
302
GRIDFORMAT
  1
GRIDFORMAT_BEGIN
 90
        0
 91
        1
 62
     0
 92
       -2
340
14
 93
        0
 40
1.125
309
GRIDFORMAT_END
 95
       32
302
GRIDFORMAT
  1
GRIDFORMAT_BEGIN
 90
        0
 91
        1
 62
     0
 92
       -2
340
14
 93
        0
 40
1.125
309
GRIDFORMAT_END
309
TABLEFORMAT_END
  1
CELLSTYLE_BEGIN
 90
        1
 91
        1
300
_TITLE
309
CELLSTYLE_END
300
CELLSTYLE
  1
TABLEFORMAT_BEGIN
 90
        5
170
     1
 91
        0
 92
        0
 62
   257
 93
        1
300
CONTENTFORMAT
  1
CONTENTFORMAT_BEGIN
 90
        0
 91
        0
 92
      512
 93
        0
300

 40
0.0
140
1.0
 94
        5
 62
     0
340
11
144
4.5
309
CONTENTFORMAT_END
171
     1
301
MARGIN
  1
CELLMARGIN_BEGIN
 40
1.5
 40
1.5
 40
1.5
 40
1.5
 40
4.5
 40
4.5
309
CELLMARGIN_END
 94
        6
 95
        1
302
GRIDFORMAT
  1
GRIDFORMAT_BEGIN
 90
        0
 91
        1
 62
     0
 92
       -2
340
14
 93
        0
 40
1.125
309
GRIDFORMAT_END
 95
        2
302
GRIDFORMAT
  1
GRIDFORMAT_BEGIN
 90
        0
 91
        1
 62
     0
 92
       -2
340
14
 93
        0
 40
1.125
309
GRIDFORMAT_END
 95
        4
302
GRIDFORMAT
  1
GRIDFORMAT_BEGIN
 90
        0
 91
        1
 62
     0
 92
       -2
340
14
 93
        0
 40
1.125
309
GRIDFORMAT_END
 95
        8
302
GRIDFORMAT
  1
GRIDFORMAT_BEGIN
 90
        0
 91
        1
 62
     0
 92
       -2
340
14
 93
        0
 40
1.125
309
GRIDFORMAT_END
 95
       16
302
GRIDFORMAT
  1
GRIDFORMAT_BEGIN
 90
        0
 91
        1
 62
     0
 92
       -2
340
14
 93
        0
 40
1.125
309
GRIDFORMAT_END
 95
       32
302
GRIDFORMAT
  1
GRIDFORMAT_BEGIN
 90
        0
 91
        1
 62
     0
 92
       -2
340
14
 93
        0
 40
1.125
309
GRIDFORMAT_END
309
TABLEFORMAT_END
  1
CELLSTYLE_BEGIN
 90
        2
 91
        1
300
_HEADER
309
CELLSTYLE_END
300
CELLSTYLE
  1
TABLEFORMAT_BEGIN
 90
        5
170
     1
 91
        0
 92
        0
 62
   257
 93
        1
300
CONTENTFORMAT
  1
CONTENTFORMAT_BEGIN
 90
        0
 91
        0
 92
      512
 93
        0
300

 40
0.0
140
1.0
 94
        2
 62
     0
340
11
144
4.5
309
CONTENTFORMAT_END
171
     1
301
MARGIN
  1
CELLMARGIN_BEGIN
 40
1.5
 40
1.5
 40
1.5
 40
1.5
 40
4.5
 40
4.5
309
CELLMARGIN_END
 94
        6
 95
        1
302
GRIDFORMAT
  1
GRIDFORMAT_BEGIN
 90
        0
 91
        1
 62
     0
 92
       -2
340
14
 93
        0
 40
1.125
309
GRIDFORMAT_END
 95
        2
302
GRIDFORMAT
  1
GRIDFORMAT_BEGIN
 90
        0
 91
        1
 62
     0
 92
       -2
340
14
 93
        0
 40
1.125
309
GRIDFORMAT_END
 95
        4
302
GRIDFORMAT
  1
GRIDFORMAT_BEGIN
 90
        0
 91
        1
 62
     0
 92
       -2
340
14
 93
        0
 40
1.125
309
GRIDFORMAT_END
 95
        8
302
GRIDFORMAT
  1
GRIDFORMAT_BEGIN
 90
        0
 91
        1
 62
     0
 92
       -2
340
14
 93
        0
 40
1.125
309
GRIDFORMAT_END
 95
       16
302
GRIDFORMAT
  1
GRIDFORMAT_BEGIN
 90
        0
 91
        1
 62
     0
 92
       -2
340
14
 93
        0
 40
1.125
309
GRIDFORMAT_END
 95
       32
302
GRIDFORMAT
  1
GRIDFORMAT_BEGIN
 90
        0
 91
        1
 62
     0
 92
       -2
340
14
 93
        0
 40
1.125
309
GRIDFORMAT_END
309
TABLEFORMAT_END
  1
CELLSTYLE_BEGIN
 90
        3
 91
        2
300
_DATA
309
CELLSTYLE_END
  0
XRECORD
  5
49B
102
{ACAD_REACTORS
330
162
102
}
330
162
100
AcDbXrecord
280
     1
102
ACAD_ROUNDTRIP_PRE2007_TABLESTYLE
 90
      512
 91
        0
  1

 92
      512
 93
        0
  2

 94
      512
 95
        0
  3

  0
ENDSEC
  0
EOF
