  0
SECTION
  2
HEADER
  9
$ACADVER
  1
AC1015
  9
$ACADMAINTVER
 70
    20
  9
$DWGCODEPAGE
  3
ANSI_1254
  9
$INSBASE
 10
0.0
 20
0.0
 30
0.0
  9
$EXTMIN
 10
2116.670851345523
 20
1186.120135603218
 30
0.0
  9
$EXTMAX
 10
2193.940747861776
 20
1233.404590653123
 30
0.0
  9
$LIMMIN
 10
0.0
 20
0.0
  9
$LIMMAX
 10
420.0
 20
297.0
  9
$ORTHOMODE
 70
     1
  9
$REGENMODE
 70
     1
  9
$FILLMODE
 70
     1
  9
$QTEXTMODE
 70
     0
  9
$MIRRTEXT
 70
     0
  9
$LTSCALE
 40
1.0
  9
$ATTMODE
 70
     1
  9
$TEXTSIZE
 40
2.5
  9
$TRACEWID
 40
1.0
  9
$TEXTSTYLE
  7
Standard
  9
$CLAYER
  8
0
  9
$CELTYPE
  6
ByLayer
  9
$CECOLOR
 62
   256
  9
$CELTSCALE
 40
1.0
  9
$DISPSILH
 70
     0
  9
$DIMSCALE
 40
1.0
  9
$DIMASZ
 40
2.5
  9
$DIMEXO
 40
0.625
  9
$DIMDLI
 40
3.75
  9
$DIMRND
 40
0.0
  9
$DIMDLE
 40
0.0
  9
$DIMEXE
 40
1.25
  9
$DIMTP
 40
0.0
  9
$DIMTM
 40
0.0
  9
$DIMTXT
 40
2.5
  9
$DIMCEN
 40
2.5
  9
$DIMTSZ
 40
0.0
  9
$DIMTOL
 70
     0
  9
$DIMLIM
 70
     0
  9
$DIMTIH
 70
     0
  9
$DIMTOH
 70
     0
  9
$DIMSE1
 70
     0
  9
$DIMSE2
 70
     0
  9
$DIMTAD
 70
     1
  9
$DIMZIN
 70
     8
  9
$DIMBLK
  1

  9
$DIMASO
 70
     1
  9
$DIMSHO
 70
     1
  9
$DIMPOST
  1

  9
$DIMAPOST
  1

  9
$DIMALT
 70
     0
  9
$DIMALTD
 70
     3
  9
$DIMALTF
 40
0.03937007874016
  9
$DIMLFAC
 40
1.0
  9
$DIMTOFL
 70
     1
  9
$DIMTVP
 40
0.0
  9
$DIMTIX
 70
     0
  9
$DIMSOXD
 70
     0
  9
$DIMSAH
 70
     0
  9
$DIMBLK1
  1

  9
$DIMBLK2
  1

  9
$DIMSTYLE
  2
ISO-25
  9
$DIMCLRD
 70
     0
  9
$DIMCLRE
 70
     0
  9
$DIMCLRT
 70
     0
  9
$DIMTFAC
 40
1.0
  9
$DIMGAP
 40
0.625
  9
$DIMJUST
 70
     0
  9
$DIMSD1
 70
     0
  9
$DIMSD2
 70
     0
  9
$DIMTOLJ
 70
     0
  9
$DIMTZIN
 70
     8
  9
$DIMALTZ
 70
     0
  9
$DIMALTTZ
 70
     0
  9
$DIMUPT
 70
     0
  9
$DIMDEC
 70
     2
  9
$DIMTDEC
 70
     2
  9
$DIMALTU
 70
     2
  9
$DIMALTTD
 70
     3
  9
$DIMTXSTY
  7
Standard
  9
$DIMAUNIT
 70
     0
  9
$DIMADEC
 70
     0
  9
$DIMALTRND
 40
0.0
  9
$DIMAZIN
 70
     0
  9
$DIMDSEP
 70
    44
  9
$DIMATFIT
 70
     3
  9
$DIMFRAC
 70
     0
  9
$DIMLDRBLK
  1

  9
$DIMLUNIT
 70
     2
  9
$DIMLWD
 70
    -2
  9
$DIMLWE
 70
    -2
  9
$DIMTMOVE
 70
     0
  9
$LUNITS
 70
     2
  9
$LUPREC
 70
     4
  9
$SKETCHINC
 40
1.0
  9
$FILLETRAD
 40
0.0
  9
$AUNITS
 70
     0
  9
$AUPREC
 70
     0
  9
$MENU
  1
.
  9
$ELEVATION
 40
0.0
  9
$PELEVATION
 40
0.0
  9
$THICKNESS
 40
0.0
  9
$LIMCHECK
 70
     0
  9
$CHAMFERA
 40
0.0
  9
$CHAMFERB
 40
0.0
  9
$CHAMFERC
 40
0.0
  9
$CHAMFERD
 40
0.0
  9
$SKPOLY
 70
     0
  9
$TDCREATE
 40
2458536.584541968
  9
$TDUCREATE
 40
2458536.459541968
  9
$TDUPDATE
 40
2459089.568751227
  9
$TDUUPDATE
 40
2459089.443751227
  9
$TDINDWG
 40
0.0056553819
  9
$TDUSRTIMER
 40
0.0056553819
  9
$USRTIMER
 70
     1
  9
$ANGBASE
 50
0.0
  9
$ANGDIR
 70
     0
  9
$PDMODE
 70
     0
  9
$PDSIZE
 40
0.0
  9
$PLINEWID
 40
0.0
  9
$SPLFRAME
 70
     0
  9
$SPLINETYPE
 70
     6
  9
$SPLINESEGS
 70
     8
  9
$HANDSEED
  5
72E
  9
$SURFTAB1
 70
     6
  9
$SURFTAB2
 70
     6
  9
$SURFTYPE
 70
     6
  9
$SURFU
 70
     6
  9
$SURFV
 70
     6
  9
$UCSBASE
  2

  9
$UCSNAME
  2

  9
$UCSORG
 10
0.0
 20
0.0
 30
0.0
  9
$UCSXDIR
 10
1.0
 20
0.0
 30
0.0
  9
$UCSYDIR
 10
0.0
 20
1.0
 30
0.0
  9
$UCSORTHOREF
  2

  9
$UCSORTHOVIEW
 70
     0
  9
$UCSORGTOP
 10
0.0
 20
0.0
 30
0.0
  9
$UCSORGBOTTOM
 10
0.0
 20
0.0
 30
0.0
  9
$UCSORGLEFT
 10
0.0
 20
0.0
 30
0.0
  9
$UCSORGRIGHT
 10
0.0
 20
0.0
 30
0.0
  9
$UCSORGFRONT
 10
0.0
 20
0.0
 30
0.0
  9
$UCSORGBACK
 10
0.0
 20
0.0
 30
0.0
  9
$PUCSBASE
  2

  9
$PUCSNAME
  2

  9
$PUCSORG
 10
0.0
 20
0.0
 30
0.0
  9
$PUCSXDIR
 10
1.0
 20
0.0
 30
0.0
  9
$PUCSYDIR
 10
0.0
 20
1.0
 30
0.0
  9
$PUCSORTHOREF
  2

  9
$PUCSORTHOVIEW
 70
     0
  9
$PUCSORGTOP
 10
0.0
 20
0.0
 30
0.0
  9
$PUCSORGBOTTOM
 10
0.0
 20
0.0
 30
0.0
  9
$PUCSORGLEFT
 10
0.0
 20
0.0
 30
0.0
  9
$PUCSORGRIGHT
 10
0.0
 20
0.0
 30
0.0
  9
$PUCSORGFRONT
 10
0.0
 20
0.0
 30
0.0
  9
$PUCSORGBACK
 10
0.0
 20
0.0
 30
0.0
  9
$USERI1
 70
     0
  9
$USERI2
 70
     0
  9
$USERI3
 70
     0
  9
$USERI4
 70
     0
  9
$USERI5
 70
     0
  9
$USERR1
 40
0.0
  9
$USERR2
 40
0.0
  9
$USERR3
 40
0.0
  9
$USERR4
 40
0.0
  9
$USERR5
 40
0.0
  9
$WORLDVIEW
 70
     1
  9
$SHADEDGE
 70
     3
  9
$SHADEDIF
 70
    70
  9
$TILEMODE
 70
     1
  9
$MAXACTVP
 70
    64
  9
$PINSBASE
 10
0.0
 20
0.0
 30
0.0
  9
$PLIMCHECK
 70
     0
  9
$PEXTMIN
 10
0.0
 20
0.0
 30
0.0
  9
$PEXTMAX
 10
0.0
 20
0.0
 30
0.0
  9
$PLIMMIN
 10
0.0
 20
0.0
  9
$PLIMMAX
 10
12.0
 20
9.0
  9
$UNITMODE
 70
     0
  9
$VISRETAIN
 70
     1
  9
$PLINEGEN
 70
     0
  9
$PSLTSCALE
 70
     1
  9
$TREEDEPTH
 70
  3020
  9
$CMLSTYLE
  2
Standard
  9
$CMLJUST
 70
     0
  9
$CMLSCALE
 40
20.0
  9
$PROXYGRAPHICS
 70
     1
  9
$MEASUREMENT
 70
     1
  9
$CELWEIGHT
370
    -1
  9
$ENDCAPS
280
     0
  9
$JOINSTYLE
280
     0
  9
$LWDISPLAY
290
     0
  9
$INSUNITS
 70
     4
  9
$HYPERLINKBASE
  1

  9
$STYLESHEET
  1

  9
$XEDIT
290
     1
  9
$CEPSNTYPE
380
     0
  9
$PSTYLEMODE
290
     1
  9
$FINGERPRINTGUID
  2
{BE52D66E-4D84-4954-88F7-9F4FABF69911}
  9
$VERSIONGUID
  2
{7B37BA21-E360-4785-AC10-C8A834FE3007}
  9
$EXTNAMES
290
     1
  9
$PSVPSCALE
 40
0.0
  9
$OLESTARTUP
290
     0
  0
ENDSEC
  0
SECTION
  2
CLASSES
  0
CLASS
  1
ACDBDICTIONARYWDFLT
  2
AcDbDictionaryWithDefault
  3
ObjectDBX Classes
 90
        0
280
     0
281
     0
  0
CLASS
  1
ACDBPLACEHOLDER
  2
AcDbPlaceHolder
  3
ObjectDBX Classes
 90
        0
280
     0
281
     0
  0
CLASS
  1
LAYOUT
  2
AcDbLayout
  3
ObjectDBX Classes
 90
        0
280
     0
281
     0
  0
CLASS
  1
DICTIONARYVAR
  2
AcDbDictionaryVar
  3
ObjectDBX Classes
 90
        0
280
     0
281
     0
  0
CLASS
  1
TABLESTYLE
  2
AcDbTableStyle
  3
ObjectDBX Classes
 90
     4095
280
     0
281
     0
  0
CLASS
  1
MATERIAL
  2
AcDbMaterial
  3
ObjectDBX Classes
 90
     1153
280
     0
281
     0
  0
CLASS
  1
VISUALSTYLE
  2
AcDbVisualStyle
  3
ObjectDBX Classes
 90
     4095
280
     0
281
     0
  0
CLASS
  1
SCALE
  2
AcDbScale
  3
ObjectDBX Classes
 90
     1153
280
     0
281
     0
  0
CLASS
  1
MLEADERSTYLE
  2
AcDbMLeaderStyle
  3
ACDB_MLEADERSTYLE_CLASS
 90
     4095
280
     0
281
     0
  0
CLASS
  1
CELLSTYLEMAP
  2
AcDbCellStyleMap
  3
ObjectDBX Classes
 90
     1152
280
     0
281
     0
  0
CLASS
  1
DIMASSOC
  2
AcDbDimAssoc
  3
"AcDbDimAssoc|Product Desc:     AcDim ARX App For Dimension|Company:          Autodesk, Inc.|WEB Address:      www.autodesk.com"
 90
    32768
280
     0
281
     0
  0
CLASS
  1
ACAD_EVALUATION_GRAPH
  2
AcDbEvalGraph
  3
ObjectDBX Classes
 90
    33921
280
     0
281
     0
  0
CLASS
  1
ACAECUSTOBJ
  2
AcAeEditorObj
  3
AcAeEditorObj
 90
    33792
280
     0
281
     0
  0
CLASS
  1
ACDB_DYNAMICBLOCKPURGEPREVENTER_VERSION
  2
AcDbDynamicBlockPurgePreventer
  3
ObjectDBX Classes
 90
    33921
280
     0
281
     0
  0
CLASS
  1
SORTENTSTABLE
  2
AcDbSortentsTable
  3
ObjectDBX Classes
 90
        0
280
     0
281
     0
  0
ENDSEC
  0
SECTION
  2
TABLES
  0
TABLE
  2
VPORT
  5
8
330
0
100
AcDbSymbolTable
 70
     1
  0
VPORT
  5
EA
330
8
100
AcDbSymbolTableRecord
100
AcDbViewportTableRecord
  2
*Active
 70
     0
 10
0.0
 20
0.0
 11
1.0
 21
1.0
 12
2193.666629579312
 22
1210.335669380915
 13
0.0
 23
0.0
 14
10.0
 24
10.0
 15
10.0
 25
10.0
 16
0.0
 26
0.0
 36
1.0
 17
0.0
 27
0.0
 37
0.0
 40
112.0456458382308
 41
1.903110047846889
 42
50.0
 43
0.0
 44
0.0
 50
0.0
 51
0.0
 71
     0
 72
  1000
 73
     1
 74
     3
 75
     0
 76
     0
 77
     0
 78
     0
281
     0
 65
     1
110
0.0
120
0.0
130
0.0
111
1.0
121
0.0
131
0.0
112
0.0
122
1.0
132
0.0
 79
     0
146
0.0
  0
ENDTAB
  0
TABLE
  2
LTYPE
  5
5
330
0
100
AcDbSymbolTable
 70
     1
  0
LTYPE
  5
14
330
5
100
AcDbSymbolTableRecord
100
AcDbLinetypeTableRecord
  2
ByBlock
 70
     0
  3

 72
    65
 73
     0
 40
0.0
  0
LTYPE
  5
15
330
5
100
AcDbSymbolTableRecord
100
AcDbLinetypeTableRecord
  2
ByLayer
 70
     0
  3

 72
    65
 73
     0
 40
0.0
  0
LTYPE
  5
16
330
5
100
AcDbSymbolTableRecord
100
AcDbLinetypeTableRecord
  2
Continuous
 70
     0
  3
Solid line
 72
    65
 73
     0
 40
0.0
  0
ENDTAB
  0
TABLE
  2
LAYER
  5
2
330
0
100
AcDbSymbolTable
 70
     2
  0
LAYER
  5
10
102
{ACAD_XDICTIONARY
360
13C
102
}
330
2
100
AcDbSymbolTableRecord
100
AcDbLayerTableRecord
  2
0
 70
     0
 62
     7
  6
Continuous
370
    -3
390
F
  0
LAYER
  5
60F
330
2
100
AcDbSymbolTableRecord
100
AcDbLayerTableRecord
  2
Defpoints
 70
     0
 62
     7
  6
Continuous
290
     0
370
    -3
390
F
  0
ENDTAB
  0
TABLE
  2
STYLE
  5
3
330
0
100
AcDbSymbolTable
 70
     2
  0
STYLE
  5
11
330
3
100
AcDbSymbolTableRecord
100
AcDbTextStyleTableRecord
  2
Standard
 70
     0
 40
0.0
 41
1.0
 50
0.0
 71
     0
 42
2.5
  3
txt
  4

  0
STYLE
  5
132
330
3
100
AcDbSymbolTableRecord
100
AcDbTextStyleTableRecord
  2
Annotative
 70
     0
 40
0.0
 41
1.0
 50
0.0
 71
     0
 42
2.5
  3
txt.shx
  4

1001
AcadAnnotative
1000
AnnotativeData
1002
{
1070
     1
1070
     1
1002
}
  0
ENDTAB
  0
TABLE
  2
VIEW
  5
6
330
0
100
AcDbSymbolTable
 70
     0
  0
ENDTAB
  0
TABLE
  2
UCS
  5
7
330
0
100
AcDbSymbolTable
 70
     0
  0
ENDTAB
  0
TABLE
  2
APPID
  5
9
330
0
100
AcDbSymbolTable
 70
    11
  0
APPID
  5
12
330
9
100
AcDbSymbolTableRecord
100
AcDbRegAppTableRecord
  2
ACAD
 70
     0
  0
APPID
  5
9E
330
9
100
AcDbSymbolTableRecord
100
AcDbRegAppTableRecord
  2
ACAD_PSEXT
 70
     0
  0
APPID
  5
133
330
9
100
AcDbSymbolTableRecord
100
AcDbRegAppTableRecord
  2
AcadAnnoPO
 70
     0
  0
APPID
  5
134
330
9
100
AcDbSymbolTableRecord
100
AcDbRegAppTableRecord
  2
AcadAnnotative
 70
     0
  0
APPID
  5
135
330
9
100
AcDbSymbolTableRecord
100
AcDbRegAppTableRecord
  2
ACAD_DSTYLE_DIMJAG
 70
     0
  0
APPID
  5
136
330
9
100
AcDbSymbolTableRecord
100
AcDbRegAppTableRecord
  2
ACAD_DSTYLE_DIMTALN
 70
     0
  0
APPID
  5
165
330
9
100
AcDbSymbolTableRecord
100
AcDbRegAppTableRecord
  2
ACAD_MLEADERVER
 70
     0
  0
APPID
  5
6B7
330
9
100
AcDbSymbolTableRecord
100
AcDbRegAppTableRecord
  2
ACAUTHENVIRON
 70
     0
  0
APPID
  5
6C1
330
9
100
AcDbSymbolTableRecord
100
AcDbRegAppTableRecord
  2
AcDbDynamicBlockTrueName
 70
     0
  0
APPID
  5
6C2
330
9
100
AcDbSymbolTableRecord
100
AcDbRegAppTableRecord
  2
AcDbDynamicBlockGUID
 70
     0
  0
APPID
  5
6C4
330
9
100
AcDbSymbolTableRecord
100
AcDbRegAppTableRecord
  2
AcDbBlockRepETag
 70
     0
  0
ENDTAB
  0
TABLE
  2
DIMSTYLE
  5
A
330
0
100
AcDbSymbolTable
 70
     2
100
AcDbDimStyleTable
 71
     2
340
27
340
137
  0
DIMSTYLE
105
27
330
A
100
AcDbSymbolTableRecord
100
AcDbDimStyleTableRecord
  2
ISO-25
 70
     0
 41
2.5
 42
0.625
 43
3.75
 44
1.25
 73
     0
 74
     0
 77
     1
 78
     8
140
2.5
141
2.5
143
0.03937007874016
147
0.625
171
     3
172
     1
271
     2
272
     2
274
     3
278
    44
283
     0
284
     8
340
11
  0
DIMSTYLE
105
137
330
A
100
AcDbSymbolTableRecord
100
AcDbDimStyleTableRecord
  2
Annotative
 70
     0
 40
0.0
 41
2.5
 42
0.625
 43
3.75
 44
1.25
 73
     0
 74
     0
 77
     1
 78
     8
140
2.5
141
2.5
143
0.03937007874016
147
0.625
171
     3
172
     1
271
     2
272
     2
274
     3
278
    44
283
     0
284
     8
340
11
1001
AcadAnnotative
1000
AnnotativeData
1002
{
1070
     1
1070
     1
1002
}
1001
ACAD_DSTYLE_DIMJAG
1070
   388
1040
1.5
1001
ACAD_DSTYLE_DIMTALN
1070
   392
1070
     0
  0
ENDTAB
  0
TABLE
  2
BLOCK_RECORD
  5
1
330
0
100
AcDbSymbolTable
 70
     9
  0
BLOCK_RECORD
  5
1F
330
1
100
AcDbSymbolTableRecord
100
AcDbBlockTableRecord
  2
*Model_Space
340
22
  0
BLOCK_RECORD
  5
D2
330
1
100
AcDbSymbolTableRecord
100
AcDbBlockTableRecord
  2
*Paper_Space
340
D3
  0
BLOCK_RECORD
  5
D6
330
1
100
AcDbSymbolTableRecord
100
AcDbBlockTableRecord
  2
*Paper_Space0
340
D7
  0
BLOCK_RECORD
  5
48B
102
{ACAD_XDICTIONARY
360
70E
102
}
330
1
100
AcDbSymbolTableRecord
100
AcDbBlockTableRecord
  2
1
340
0
310
2800000020000000200000000100080000000000000400000000000000000000000000000000000000000000000080000080000000808000800000008000800080800000C0C0C000C0DCC000F0CAA6000020400000206000002080000020A0000020C0000020E00000400000004020000040400000406000004080000040A0
310
000040C0000040E00000600000006020000060400000606000006080000060A0000060C0000060E00000800000008020000080400000806000008080000080A0000080C0000080E00000A0000000A0200000A0400000A0600000A0800000A0A00000A0C00000A0E00000C0000000C0200000C0400000C0600000C0800000C0
310
A00000C0C00000C0E00000E0000000E0200000E0400000E0600000E0800000E0A00000E0C00000E0E00040000000400020004000400040006000400080004000A0004000C0004000E00040200000402020004020400040206000402080004020A0004020C0004020E000404000004040200040404000404060004040800040
310
40A0004040C0004040E00040600000406020004060400040606000406080004060A0004060C0004060E00040800000408020004080400040806000408080004080A0004080C0004080E00040A0000040A0200040A0400040A0600040A0800040A0A00040A0C00040A0E00040C0000040C0200040C0400040C0600040C08000
310
40C0A00040C0C00040C0E00040E0000040E0200040E0400040E0600040E0800040E0A00040E0C00040E0E00080000000800020008000400080006000800080008000A0008000C0008000E00080200000802020008020400080206000802080008020A0008020C0008020E00080400000804020008040400080406000804080
310
008040A0008040C0008040E00080600000806020008060400080606000806080008060A0008060C0008060E00080800000808020008080400080806000808080008080A0008080C0008080E00080A0000080A0200080A0400080A0600080A0800080A0A00080A0C00080A0E00080C0000080C0200080C0400080C0600080C0
310
800080C0A00080C0C00080C0E00080E0000080E0200080E0400080E0600080E0800080E0A00080E0C00080E0E000C0000000C0002000C0004000C0006000C0008000C000A000C000C000C000E000C0200000C0202000C0204000C0206000C0208000C020A000C020C000C020E000C0400000C0402000C0404000C0406000C0
310
408000C040A000C040C000C040E000C0600000C0602000C0604000C0606000C0608000C060A000C060C000C060E000C0800000C0802000C0804000C0806000C0808000C080A000C080C000C080E000C0A00000C0A02000C0A04000C0A06000C0A08000C0A0A000C0A0C000C0A0E000C0C00000C0C02000C0C04000C0C06000
310
C0C08000C0C0A000F0FBFF00A4A0A000808080000000FF0000FF000000FFFF00FF000000FF00FF00FFFF0000FFFFFF0000000000000000000000000000000000000000000000000000000000000000000000000000000000FFFFFF00000000000000000000FFFFFF00000000000000000000000000000000FF00FF00000000
310
000000000000FF00FF00000000000000000000000000000000FF00FF00000000000000000000FF00FF00000000000000000000000000000000FF00FF00000000000000000000FF00FF00000000000000000000000000000000FF00FF00000000000000000000FF00FF00000000000000000000000000000000FF00FF000000
310
00000000000000FF00FF00000000000000000000000000000000FF00FF00000000000000000000FF00FF00000000000000000000000000000000FF00FF00000000000000000000FF00FF00000000000000000000000000000000FF00FF00000000000000000000FF00FF00000000000000000000000000000000FF00FF00FF
310
FFFFFFFFFFFFFF00FF00FF00000000000000000000000000000000FFFFFF00FF000000000000FF00FFFFFF00000000000000000000000000000000FFFFFF00FF000000000000FF00FFFFFF00000000000000000000000000000000FF00FF00FF000000000000FF00FF00FF00000000000000000000000000000000FF00FF00
310
FF000000000000FF00FF00FF00000000000000000000000000000000FF00FF00FF000000000000FF00FF00FF00000000000000000000000000000000FF00FF00FF000000000000FF00FF00FF00000000000000000000000000000000FF00FF00FF000000000000FF00FF00FF00000000000000000000000000000000FF00FF
310
00FF000000000000FF00FF00FF00000000000000000000000000000000FF00FF00FF000000000000FF00FF00FF00000000000000000000000000000000FF00FF00FF000000000000FF00FF00FF00000000000000000000000000000000FF00FFFFFFFFFFFFFFFFFFFFFFFF00FF0000000000000000000000000000000000FF
310
000000000000000000000000FF00000000000000000000000000000000000000FFFFFFFFFFFFFFFFFFFFFFFF00000000000000000000000000000000000000000000FFFFFFFFFFFFFFFF0000000000000000000000000000000000000000000000FFFFFF00000000FFFFFF0000000000000000000000000000000000000000
310
0000FFFFFFFFFFFFFFFFFFFF0000000000000000000000000000000000000000000000FF00000000000000FF0000000000000000000000000000000000000000000000FF000000000000FF000000000000000000000000000000000000000000000000FF000000000000FF0000000000000000000000000000000000000000
310
00000000FFFFFFFFFFFFFFFF0000000000000000000000000000000000000000000000000000000000000000000000000000000000000000
102
{BLKREFS
331
4D4
102
}
1001
AcDbDynamicBlockGUID
1000
{0E24CF77-874A-47E5-AA48-DAF5BB36D7B7}
1001
AcDbBlockRepETag
1070
     1
1071
       72
1001
ACAD
1000
DesignCenter Data
1002
{
1070
     1
1070
     4
1002
}
  0
BLOCK_RECORD
  5
4D5
102
{ACAD_XDICTIONARY
360
6B8
102
}
330
1
100
AcDbSymbolTableRecord
100
AcDbBlockTableRecord
  2
2
340
0
310
2800000020000000200000000100080000000000000400000000000000000000000000000000000000000000000080000080000000808000800000008000800080800000C0C0C000C0DCC000F0CAA6000020400000206000002080000020A0000020C0000020E00000400000004020000040400000406000004080000040A0
310
000040C0000040E00000600000006020000060400000606000006080000060A0000060C0000060E00000800000008020000080400000806000008080000080A0000080C0000080E00000A0000000A0200000A0400000A0600000A0800000A0A00000A0C00000A0E00000C0000000C0200000C0400000C0600000C0800000C0
310
A00000C0C00000C0E00000E0000000E0200000E0400000E0600000E0800000E0A00000E0C00000E0E00040000000400020004000400040006000400080004000A0004000C0004000E00040200000402020004020400040206000402080004020A0004020C0004020E000404000004040200040404000404060004040800040
310
40A0004040C0004040E00040600000406020004060400040606000406080004060A0004060C0004060E00040800000408020004080400040806000408080004080A0004080C0004080E00040A0000040A0200040A0400040A0600040A0800040A0A00040A0C00040A0E00040C0000040C0200040C0400040C0600040C08000
310
40C0A00040C0C00040C0E00040E0000040E0200040E0400040E0600040E0800040E0A00040E0C00040E0E00080000000800020008000400080006000800080008000A0008000C0008000E00080200000802020008020400080206000802080008020A0008020C0008020E00080400000804020008040400080406000804080
310
008040A0008040C0008040E00080600000806020008060400080606000806080008060A0008060C0008060E00080800000808020008080400080806000808080008080A0008080C0008080E00080A0000080A0200080A0400080A0600080A0800080A0A00080A0C00080A0E00080C0000080C0200080C0400080C0600080C0
310
800080C0A00080C0C00080C0E00080E0000080E0200080E0400080E0600080E0800080E0A00080E0C00080E0E000C0000000C0002000C0004000C0006000C0008000C000A000C000C000C000E000C0200000C0202000C0204000C0206000C0208000C020A000C020C000C020E000C0400000C0402000C0404000C0406000C0
310
408000C040A000C040C000C040E000C0600000C0602000C0604000C0606000C0608000C060A000C060C000C060E000C0800000C0802000C0804000C0806000C0808000C080A000C080C000C080E000C0A00000C0A02000C0A04000C0A06000C0A08000C0A0A000C0A0C000C0A0E000C0C00000C0C02000C0C04000C0C06000
310
C0C08000C0C0A000F0FBFF00A4A0A000808080000000FF0000FF000000FFFF00FF000000FF00FF00FFFF0000FFFFFF0000000000000000000000000000000000000000000000000000000000000000000000000000FFFFFFFFFFFFFFFFFFFFFFFFFFFFFFFFFFFFFFFFFFFF00000000000000000000FF000000000000000000
310
0000000000000000000000FF00000000000000000000FF0000000000000000000000000000000000000000FF00000000000000000000FF000000FFFFFFFFFFFFFFFFFFFFFFFFFFFF000000FF00000000000000000000FF0000FF0000000000000000000000000000FF0000FF00000000000000000000FF0000FF0000000000
310
000000000000000000FF0000FF00000000000000000000FF0000FF0000000000000000000000000000FF0000FF00000000000000000000FF0000FF0000000000000000000000000000FF0000FF00000000000000000000FF000000FFFFFFFFFFFFFFFFFFFFFFFFFFFF000000FF00000000000000000000FF00000000000000
310
00000000000000000000000000FF00000000000000000000FF0000000000000000000000000000000000000000FF0000000000000000000000FFFFFF0000000000000000000000000000FFFFFF0000000000000000000000000000FF0000000000000000000000000000FFFFFF0000000000000000000000000000FF000000
310
0000000000000000000000FF00FF0000000000000000000000000000FF0000000000000000000000000000FF00FF0000000000000000000000000000FF0000000000000000000000000000FF00FF0000000000000000000000000000FF0000000000000000000000000000FF00FF0000000000000000000000000000FF0000
310
000000000000000000000000FF00FF0000000000000000000000000000FF0000000000000000000000000000FFFF000000000000000000000000000000FF0000000000000000000000000000FFFF000000000000000000000000000000FFFFFFFFFFFFFFFFFFFFFFFFFFFFFFFFFF000000000000000000000000000000FF00
310
00000000000000000000000000FFFF000000000000000000000000000000FFFFFFFFFFFFFFFFFFFFFFFFFFFFFFFFFF0000000000000000000000000000000000000000FFFFFFFFFFFF00000000FFFF000000000000000000000000000000000000FFFFFFFFFFFFFFFFFFFFFFFFFFFF00000000000000000000000000000000
310
0000FFFFFFFFFFFFFFFFFFFFFFFFFF00000000000000000000000000000000000000FF0000000000000000FF0000000000000000000000000000000000000000000000FF0000FFFF000000FF0000000000000000000000000000000000000000000000FF0000FFFF0000FF0000000000000000000000000000000000000000
310
00000000FFFFFFFFFFFFFFFF0000000000000000000000000000000000000000000000000000000000000000000000000000000000000000
102
{BLKREFS
331
510
102
}
1001
AcDbDynamicBlockGUID
1000
{4CF836C2-1D65-43D6-BF7B-E52C6D96EB3E}
1001
AcDbBlockRepETag
1070
     1
1071
       54
1001
ACAD
1000
DesignCenter Data
1002
{
1070
     1
1070
     4
1002
}
  0
BLOCK_RECORD
  5
511
330
1
100
AcDbSymbolTableRecord
100
AcDbBlockTableRecord
  2
3
340
0
310
2800000020000000200000000100080000000000000400000000000000000000000000000000000000000000000080000080000000808000800000008000800080800000C0C0C000C0DCC000F0CAA6000020400000206000002080000020A0000020C0000020E00000400000004020000040400000406000004080000040A0
310
000040C0000040E00000600000006020000060400000606000006080000060A0000060C0000060E00000800000008020000080400000806000008080000080A0000080C0000080E00000A0000000A0200000A0400000A0600000A0800000A0A00000A0C00000A0E00000C0000000C0200000C0400000C0600000C0800000C0
310
A00000C0C00000C0E00000E0000000E0200000E0400000E0600000E0800000E0A00000E0C00000E0E00040000000400020004000400040006000400080004000A0004000C0004000E00040200000402020004020400040206000402080004020A0004020C0004020E000404000004040200040404000404060004040800040
310
40A0004040C0004040E00040600000406020004060400040606000406080004060A0004060C0004060E00040800000408020004080400040806000408080004080A0004080C0004080E00040A0000040A0200040A0400040A0600040A0800040A0A00040A0C00040A0E00040C0000040C0200040C0400040C0600040C08000
310
40C0A00040C0C00040C0E00040E0000040E0200040E0400040E0600040E0800040E0A00040E0C00040E0E00080000000800020008000400080006000800080008000A0008000C0008000E00080200000802020008020400080206000802080008020A0008020C0008020E00080400000804020008040400080406000804080
310
008040A0008040C0008040E00080600000806020008060400080606000806080008060A0008060C0008060E00080800000808020008080400080806000808080008080A0008080C0008080E00080A0000080A0200080A0400080A0600080A0800080A0A00080A0C00080A0E00080C0000080C0200080C0400080C0600080C0
310
800080C0A00080C0C00080C0E00080E0000080E0200080E0400080E0600080E0800080E0A00080E0C00080E0E000C0000000C0002000C0004000C0006000C0008000C000A000C000C000C000E000C0200000C0202000C0204000C0206000C0208000C020A000C020C000C020E000C0400000C0402000C0404000C0406000C0
310
408000C040A000C040C000C040E000C0600000C0602000C0604000C0606000C0608000C060A000C060C000C060E000C0800000C0802000C0804000C0806000C0808000C080A000C080C000C080E000C0A00000C0A02000C0A04000C0A06000C0A08000C0A0A000C0A0C000C0A0E000C0C00000C0C02000C0C04000C0C06000
310
C0C08000C0C0A000F0FBFF00A4A0A000808080000000FF0000FF000000FFFF00FF000000FF00FF00FFFF0000FFFFFF0000000000000000000000000000000000000000000000000000000000000000000000000000FFFFFF00000000000000000000000000000000FFFFFF00000000000000000000FF00FF00000000000000
310
000000000000000000FF00FF00000000000000000000FF00FF00000000000000000000000000000000FF00FF00000000000000000000FFFFFF00000000000000000000000000000000FFFFFF00000000000000000000FFFFFFFFFFFFFFFFFFFFFFFFFFFFFFFFFFFFFFFFFFFF00000000000000000000FF00FF000000000000
310
00000000000000000000FF00FF00000000000000000000FF00FF00000000000000000000000000000000FF00FF00000000000000000000FF00FF00000000000000000000000000000000FF00FF00000000000000000000FF00FF00000000000000000000000000000000FF00FF00000000000000000000FF00FF0000FFFF00
310
000000FF000000FFFF0000FF00FF00000000000000000000FF00FFFFFF0000FFFFFFFFFFFFFFFF0000FFFFFF00FF00000000000000000000FF00FFFF000000FFFFFFFFFFFFFFFF000000FFFF00FF00000000000000000000FF00FFFF0000FFFF00FF0000FF00FFFF0000FFFF00FF00000000000000000000FF00FFFF0000FF
310
0000FF0000FF0000FF0000FFFF00FF00000000000000000000FF00FFFF00FFFFFFFFFF0000FFFFFFFFFF00FFFF00FF00000000000000000000FF00FFFF00FFFFFFFFFF0000FFFFFFFFFF00FFFF00FF00000000000000000000FF00FFFF00FFFF0000FF0000FF0000FFFF00FFFF00FF00000000000000000000FF00FFFF0000
310
FFFFFFFF0000FF00FFFF0000FFFF00FF00000000000000000000FF00FFFF00000000FFFFFFFFFFFFFF000000FFFF00FF00000000000000000000FF00FFFF0000000000FFFF00FF0000000000FFFF00FF00000000000000000000FF00FFFF00000000000000FF000000000000FFFF00FF00000000000000000000FF00FFFF00
310
00000000000000000000000000FFFF00FF00000000000000000000FF00FFFF0000000000000000000000000000FFFF00FF00000000000000000000FF00FFFF0000000000000000000000000000FFFF00FF00000000000000000000FF00FF00FFFFFFFFFFFFFFFFFFFFFFFFFFFF00FF00FF00000000000000000000FFFFFFFF
310
FFFF00000000000000000000FFFFFFFFFFFF00000000000000000000FFFFFF0000FF00000000000000000000FF0000FFFFFF00000000000000000000FF00FF0000FFFFFFFFFFFFFFFFFFFFFFFF0000FF00FF00000000000000000000FF00FF00000000000000000000000000000000FF00FF00000000000000000000FFFFFF
310
00000000000000000000000000000000FFFFFF00000000000000000000000000000000000000000000000000000000000000000000000000
102
{BLKREFS
331
566
102
}
1001
ACAD
1000
DesignCenter Data
1002
{
1070
     1
1070
     4
1002
}
  0
BLOCK_RECORD
  5
567
330
1
100
AcDbSymbolTableRecord
100
AcDbBlockTableRecord
  2
4
340
0
310
2800000020000000200000000100080000000000000400000000000000000000000000000000000000000000000080000080000000808000800000008000800080800000C0C0C000C0DCC000F0CAA6000020400000206000002080000020A0000020C0000020E00000400000004020000040400000406000004080000040A0
310
000040C0000040E00000600000006020000060400000606000006080000060A0000060C0000060E00000800000008020000080400000806000008080000080A0000080C0000080E00000A0000000A0200000A0400000A0600000A0800000A0A00000A0C00000A0E00000C0000000C0200000C0400000C0600000C0800000C0
310
A00000C0C00000C0E00000E0000000E0200000E0400000E0600000E0800000E0A00000E0C00000E0E00040000000400020004000400040006000400080004000A0004000C0004000E00040200000402020004020400040206000402080004020A0004020C0004020E000404000004040200040404000404060004040800040
310
40A0004040C0004040E00040600000406020004060400040606000406080004060A0004060C0004060E00040800000408020004080400040806000408080004080A0004080C0004080E00040A0000040A0200040A0400040A0600040A0800040A0A00040A0C00040A0E00040C0000040C0200040C0400040C0600040C08000
310
40C0A00040C0C00040C0E00040E0000040E0200040E0400040E0600040E0800040E0A00040E0C00040E0E00080000000800020008000400080006000800080008000A0008000C0008000E00080200000802020008020400080206000802080008020A0008020C0008020E00080400000804020008040400080406000804080
310
008040A0008040C0008040E00080600000806020008060400080606000806080008060A0008060C0008060E00080800000808020008080400080806000808080008080A0008080C0008080E00080A0000080A0200080A0400080A0600080A0800080A0A00080A0C00080A0E00080C0000080C0200080C0400080C0600080C0
310
800080C0A00080C0C00080C0E00080E0000080E0200080E0400080E0600080E0800080E0A00080E0C00080E0E000C0000000C0002000C0004000C0006000C0008000C000A000C000C000C000E000C0200000C0202000C0204000C0206000C0208000C020A000C020C000C020E000C0400000C0402000C0404000C0406000C0
310
408000C040A000C040C000C040E000C0600000C0602000C0604000C0606000C0608000C060A000C060C000C060E000C0800000C0802000C0804000C0806000C0808000C080A000C080C000C080E000C0A00000C0A02000C0A04000C0A06000C0A08000C0A0A000C0A0C000C0A0E000C0C00000C0C02000C0C04000C0C06000
310
C0C08000C0C0A000F0FBFF00A4A0A000808080000000FF0000FF000000FFFF00FF000000FF00FF00FFFF0000FFFFFF0000000000000000000000000000000000000000000000000000000000000000000000000000000000000000000000FF000000000000000000000000000000000000000000000000000000000000FFFF
310
FFFF00000000000000000000000000000000000000000000000000000000FFFF0000FF000000000000000000000000000000000000000000000000000000FFFF000000FFFF00000000000000000000000000000000000000000000000000FFFFFFFF000000FF0000000000000000000000000000000000FF000000000000FF
310
FFFF00FFFF0000FFFF0000000000000000000000000000FFFFFFFF00000000FFFFFFFFFF00FF000000FF00000000000000000000000000FFFF0000FFFF0000FFFF00FF00FFFFFFFF0000FFFF0000000000000000000000FFFF00FF0000FFFFFF00FF00FFFF00FFFFFFFF0000FF00000000000000000000FFFFFF00FFFF0000
310
FFFFFF000000FFFF00FFFFFFFFFF00000000000000000000FFFFFFFFFF00FFFF00FFFF0000000000FF0000FFFFFF00000000000000000000FFFFFF00FFFF000000FFFF000000000000FFFFFFFFFF00000000000000000000FFFF00FFFF00000000FFFF0000000000000000FFFFFF0000000000000000000000FFFF00FF0000
310
0000FFFF00000000000000000000FF0000000000000000000000FFFF00FF000000FFFFFF000000000000000000FFFF0000000000000000000000FFFF00FF000000FFFFFF000000000000000000FFFF0000000000000000000000FFFFFF00000000FFFFFFFFFF00000000000000FF000000000000000000000000FFFFFF0000
310
00FFFFFF000000FFFF0000000000FF000000000000000000000000FFFFFF00FFFFFFFF00FFFF000000FF00000000FF000000000000000000000000FFFFFFFFFFFF0000000000FFFF0000FFFF0000FF000000000000000000000000FFFFFFFF000000000000FF0000FF000000FFFFFF000000000000000000000000FFFF0000
310
00000000FFFFFFFFFF00FFFF000000FF00000000000000000000000000FFFFA4000000FFFFFFFFFFFFFF0000FFFF00FF000000000000000000000000000000FFA4FFFFFFFF000000FFFFFFFF00FFFF0000000000000000000000000000000000FFFFFF00000000FF00FF0000FFFF0000000000000000000000000000000000
310
00FFFFFFFFFFFFFFFFFFFF0000FFFF0000000000000000000000000000000000000000FFFFFFFFFFFFFFFFA4FFFF000000000000000000000000000000000000000000FFFFFFFFFFFFFFFFFF000000000000000000000000000000000000000000000000FFFF00FFFFFF000000000000000000000000000000000000000000
310
00000000000000FFFF0000000000000000000000000000000000000000000000000000000000000000000000000000000000000000000000
102
{BLKREFS
331
607
102
}
1001
ACAD
1000
DesignCenter Data
1002
{
1070
     1
1070
     4
1002
}
  0
ENDTAB
  0
ENDSEC
  0
SECTION
  2
BLOCKS
  0
BLOCK
  5
20
330
1F
100
AcDbEntity
  8
0
100
AcDbBlockBegin
  2
*Model_Space
 70
     0
 10
0.0
 20
0.0
 30
0.0
  3
*Model_Space
  1

  0
ENDBLK
  5
21
330
1F
100
AcDbEntity
  8
0
100
AcDbBlockEnd
  0
BLOCK
  5
D4
330
D2
100
AcDbEntity
 67
     1
  8
0
100
AcDbBlockBegin
  2
*Paper_Space
 70
     0
 10
0.0
 20
0.0
 30
0.0
  3
*Paper_Space
  1

  0
ENDBLK
  5
D5
330
D2
100
AcDbEntity
 67
     1
  8
0
100
AcDbBlockEnd
  0
BLOCK
  5
D8
330
D6
100
AcDbEntity
 67
     1
  8
0
100
AcDbBlockBegin
  2
*Paper_Space0
 70
     0
 10
0.0
 20
0.0
 30
0.0
  3
*Paper_Space0
  1

  0
ENDBLK
  5
D9
330
D6
100
AcDbEntity
 67
     1
  8
0
100
AcDbBlockEnd
  0
BLOCK
  5
48C
330
48B
100
AcDbEntity
  8
0
100
AcDbBlockBegin
  2
1
 70
     0
 10
0.0
 20
0.0
 30
0.0
  3
1
  1

  0
LINE
  5
6C8
330
48B
100
AcDbEntity
  8
0
  6
Continuous
 62
     7
370
    15
100
AcDbLine
 10
2157.439408712196
 20
1230.404590653123
 30
0.0
 11
2157.264431385144
 21
1232.404590653123
 31
0.0
1001
AcDbBlockRepETag
1070
     1
1071
        0
1005
6C8
  0
LINE
  5
6C9
330
48B
100
AcDbEntity
  8
0
  6
Continuous
 62
     7
370
    15
100
AcDbLine
 10
2150.758456051232
 20
1232.404590653123
 30
0.0
 11
2150.583478724179
 21
1230.404590653123
 31
0.0
1001
AcDbBlockRepETag
1070
     1
1071
        1
1005
6C9
  0
LINE
  5
6CA
330
48B
100
AcDbEntity
  8
0
  6
Continuous
 62
     7
370
    15
100
AcDbLine
 10
2156.476443718188
 20
1227.904590634124
 30
0.0
 11
2156.476443718188
 21
1229.104590634124
 31
0.0
1001
AcDbBlockRepETag
1070
     1
1071
        2
1005
6CA
  0
LINE
  5
6CB
330
48B
100
AcDbEntity
  8
0
  6
Continuous
 62
     7
370
    15
100
AcDbLine
 10
2151.546443718188
 20
1229.104590634124
 30
0.0
 11
2151.546443718188
 21
1227.904590634124
 31
0.0
1001
AcDbBlockRepETag
1070
     1
1071
        3
1005
6CB
  0
LINE
  5
6CC
330
48B
100
AcDbEntity
  8
0
  6
Continuous
 62
     7
370
    15
100
AcDbLine
 10
2151.911443718188
 20
1229.604590634124
 30
0.0
 11
2151.911443718188
 21
1229.104590634124
 31
0.0
1001
AcDbBlockRepETag
1070
     1
1071
        4
1005
6CC
  0
LINE
  5
6CD
330
48B
100
AcDbEntity
  8
0
  6
Continuous
 62
     7
370
    15
100
AcDbLine
 10
2156.111443718187
 20
1229.104590634124
 30
0.0
 11
2156.111443718187
 21
1229.604590634124
 31
0.0
1001
AcDbBlockRepETag
1070
     1
1071
        5
1005
6CD
  0
LINE
  5
6CE
330
48B
100
AcDbEntity
  8
0
  6
Continuous
 62
     7
370
    15
100
AcDbLine
 10
2149.261443718188
 20
1218.904590634123
 30
0.0
 11
2147.761443718188
 21
1218.904590634123
 31
0.0
1001
AcDbBlockRepETag
1070
     1
1071
        6
1005
6CE
  0
LINE
  5
6CF
330
48B
100
AcDbEntity
  8
0
  6
Continuous
 62
     7
370
    15
100
AcDbLine
 10
2147.761443718188
 20
1218.904590634123
 30
0.0
 11
2147.761443718188
 21
1220.404590634123
 31
0.0
1001
AcDbBlockRepETag
1070
     1
1071
        7
1005
6CF
  0
LINE
  5
6D0
330
48B
100
AcDbEntity
  8
0
  6
Continuous
 62
     7
370
    15
100
AcDbLine
 10
2149.261443718188
 20
1220.404590634123
 30
0.0
 11
2147.761443718188
 21
1220.404590634123
 31
0.0
1001
AcDbBlockRepETag
1070
     1
1071
        8
1005
6D0
  0
LINE
  5
6D1
330
48B
100
AcDbEntity
  8
0
  6
Continuous
 62
     7
370
    15
100
AcDbLine
 10
2149.261443718188
 20
1220.404590634123
 30
0.0
 11
2149.261443718188
 21
1218.904590634123
 31
0.0
1001
AcDbBlockRepETag
1070
     1
1071
        9
1005
6D1
  0
LINE
  5
6D2
330
48B
100
AcDbEntity
  8
0
  6
Continuous
 62
     7
370
    15
100
AcDbLine
 10
2160.261443718187
 20
1220.404590634123
 30
0.0
 11
2158.761443718187
 21
1220.404590634123
 31
0.0
1001
AcDbBlockRepETag
1070
     1
1071
       10
1005
6D2
  0
LINE
  5
6D3
330
48B
100
AcDbEntity
  8
0
  6
Continuous
 62
     7
370
    15
100
AcDbLine
 10
2160.261443718187
 20
1218.904590634123
 30
0.0
 11
2158.761443718187
 21
1218.904590634123
 31
0.0
1001
AcDbBlockRepETag
1070
     1
1071
       11
1005
6D3
  0
LINE
  5
6D4
330
48B
100
AcDbEntity
  8
0
  6
Continuous
 62
     7
370
    15
100
AcDbLine
 10
2160.261443718187
 20
1220.404590634123
 30
0.0
 11
2160.261443718187
 21
1218.904590634123
 31
0.0
1001
AcDbBlockRepETag
1070
     1
1071
       12
1005
6D4
  0
LINE
  5
6D5
330
48B
100
AcDbEntity
  8
0
  6
Continuous
 62
     7
370
    15
100
AcDbLine
 10
2158.761443718187
 20
1218.904590634123
 30
0.0
 11
2158.761443718187
 21
1220.404590634123
 31
0.0
1001
AcDbBlockRepETag
1070
     1
1071
       13
1005
6D5
  0
LINE
  5
6D6
330
48B
100
AcDbEntity
  8
0
  6
Continuous
 62
     7
370
    15
100
AcDbLine
 10
2160.261443718187
 20
1211.404590634125
 30
0.0
 11
2158.761443718187
 21
1211.404590634125
 31
0.0
1001
AcDbBlockRepETag
1070
     1
1071
       14
1005
6D6
  0
LINE
  5
6D7
330
48B
100
AcDbEntity
  8
0
  6
Continuous
 62
     7
370
    15
100
AcDbLine
 10
2160.261443718187
 20
1218.904590634123
 30
0.0
 11
2160.261443718187
 21
1211.404590634125
 31
0.0
1001
AcDbBlockRepETag
1070
     1
1071
       15
1005
6D7
  0
LINE
  5
6D8
330
48B
100
AcDbEntity
  8
0
  6
Continuous
 62
     7
370
    15
100
AcDbLine
 10
2158.761443718187
 20
1211.404590634125
 30
0.0
 11
2158.761443718187
 21
1218.904590634123
 31
0.0
1001
AcDbBlockRepETag
1070
     1
1071
       16
1005
6D8
  0
LINE
  5
6D9
330
48B
100
AcDbEntity
  8
0
  6
Continuous
 62
     7
370
    15
100
AcDbLine
 10
2149.261443718188
 20
1211.404590634124
 30
0.0
 11
2147.761443718188
 21
1211.404590634124
 31
0.0
1001
AcDbBlockRepETag
1070
     1
1071
       17
1005
6D9
  0
LINE
  5
6DA
330
48B
100
AcDbEntity
  8
0
  6
Continuous
 62
     7
370
    15
100
AcDbLine
 10
2147.761443718188
 20
1211.404590634124
 30
0.0
 11
2147.761443718188
 21
1218.904590634123
 31
0.0
1001
AcDbBlockRepETag
1070
     1
1071
       18
1005
6DA
  0
LINE
  5
6DB
330
48B
100
AcDbEntity
  8
0
  6
Continuous
 62
     7
370
    15
100
AcDbLine
 10
2149.261443718188
 20
1218.904590634123
 30
0.0
 11
2149.261443718188
 21
1211.404590634124
 31
0.0
1001
AcDbBlockRepETag
1070
     1
1071
       19
1005
6DB
  0
LINE
  5
6DC
330
48B
100
AcDbEntity
  8
0
  6
Continuous
 62
     7
370
    15
100
AcDbLine
 10
2150.861443450406
 20
1218.192213746541
 30
0.0
 11
2157.161443450406
 21
1218.192213746541
 31
0.0
1001
AcDbBlockRepETag
1070
     1
1071
       20
1005
6DC
  0
LINE
  5
6DD
330
48B
100
AcDbEntity
  8
0
  6
Continuous
 62
     7
370
    15
100
AcDbLine
 10
2150.861443450406
 20
1218.192213746541
 30
0.0
 11
2150.861443450406
 21
1226.404590634124
 31
0.0
1001
AcDbBlockRepETag
1070
     1
1071
       21
1005
6DD
  0
LINE
  5
6DE
330
48B
100
AcDbEntity
  8
0
  6
Continuous
 62
     7
370
    15
100
AcDbLine
 10
2150.861443450406
 20
1226.404590634124
 30
0.0
 11
2157.161443450406
 21
1226.404590634124
 31
0.0
1001
AcDbBlockRepETag
1070
     1
1071
       22
1005
6DE
  0
LINE
  5
6DF
330
48B
100
AcDbEntity
  8
0
  6
Continuous
 62
     7
370
    15
100
AcDbLine
 10
2157.161443450406
 20
1218.192213746541
 30
0.0
 11
2157.161443450406
 21
1226.404590634124
 31
0.0
1001
AcDbBlockRepETag
1070
     1
1071
       23
1005
6DF
  0
LINE
  5
6E0
330
48B
100
AcDbEntity
  8
0
  6
Continuous
 62
     7
370
    15
100
AcDbLine
 10
2150.861443450406
 20
1226.404590634124
 30
0.0
 11
2149.761443718188
 21
1226.404590634124
 31
0.0
1001
AcDbBlockRepETag
1070
     1
1071
       24
1005
6E0
  0
ARC
  5
6E1
330
48B
100
AcDbEntity
  8
0
  6
Continuous
 62
     7
370
    15
100
AcDbCircle
 10
2149.761443718188
 20
1225.904590634124
 30
0.0
 40
0.5
100
AcDbArc
 50
90.0
 51
180.0
1001
AcDbBlockRepETag
1070
     1
1071
       25
1005
6E1
  0
ARC
  5
6E2
330
48B
100
AcDbEntity
  8
0
  6
Continuous
 62
     7
370
    15
100
AcDbCircle
 10
2158.761443718187
 20
1226.404590634124
 30
0.0
 40
1.500000000000113
100
AcDbArc
 50
359.999999999987
 51
90.0
1001
AcDbBlockRepETag
1070
     1
1071
       26
1005
6E2
  0
ARC
  5
6E3
330
48B
100
AcDbEntity
  8
0
  6
Continuous
 62
     7
370
    15
100
AcDbCircle
 10
2158.261443718187
 20
1225.904590634124
 30
0.0
 40
0.5
100
AcDbArc
 50
0.0
 51
90.0
1001
AcDbBlockRepETag
1070
     1
1071
       27
1005
6E3
  0
LINE
  5
6E4
330
48B
100
AcDbEntity
  8
0
  6
Continuous
 62
     7
370
    15
100
AcDbLine
 10
2158.761443718187
 20
1227.904590634124
 30
0.0
 11
2157.161443450406
 21
1227.904590634123
 31
0.0
1001
AcDbBlockRepETag
1070
     1
1071
       28
1005
6E4
  0
ARC
  5
6E5
330
48B
100
AcDbEntity
  8
0
  6
Continuous
 62
     7
370
    15
100
AcDbCircle
 10
2149.261443718188
 20
1226.404590634124
 30
0.0
 40
1.500000000000056
100
AcDbArc
 50
90.0
 51
180.000000000013
1001
AcDbBlockRepETag
1070
     1
1071
       29
1005
6E5
  0
LINE
  5
6E6
330
48B
100
AcDbEntity
  8
0
  6
Continuous
 62
     7
370
    15
100
AcDbLine
 10
2158.261443718187
 20
1226.404590634124
 30
0.0
 11
2157.161443450406
 21
1226.404590634124
 31
0.0
1001
AcDbBlockRepETag
1070
     1
1071
       30
1005
6E6
  0
LINE
  5
6E7
330
48B
100
AcDbEntity
  8
0
  6
Continuous
 62
     7
370
    15
100
AcDbLine
 10
2147.761443718188
 20
1220.404590634123
 30
0.0
 11
2147.761443718188
 21
1226.404590634124
 31
0.0
1001
AcDbBlockRepETag
1070
     1
1071
       31
1005
6E7
  0
LINE
  5
6E8
330
48B
100
AcDbEntity
  8
0
  6
Continuous
 62
     7
370
    15
100
AcDbLine
 10
2149.261443718188
 20
1225.904590634124
 30
0.0
 11
2149.261443718188
 21
1220.404590634123
 31
0.0
1001
AcDbBlockRepETag
1070
     1
1071
       32
1005
6E8
  0
LINE
  5
6E9
330
48B
100
AcDbEntity
  8
0
  6
Continuous
 62
     7
370
    15
100
AcDbLine
 10
2160.261443718187
 20
1226.404590634124
 30
0.0
 11
2160.261443718187
 21
1220.404590634123
 31
0.0
1001
AcDbBlockRepETag
1070
     1
1071
       33
1005
6E9
  0
LINE
  5
6EA
330
48B
100
AcDbEntity
  8
0
  6
Continuous
 62
     7
370
    15
100
AcDbLine
 10
2158.761443718187
 20
1220.404590634123
 30
0.0
 11
2158.761443718187
 21
1225.904590634124
 31
0.0
1001
AcDbBlockRepETag
1070
     1
1071
       34
1005
6EA
  0
LINE
  5
6EB
330
48B
100
AcDbEntity
  8
0
  6
Continuous
 62
     7
370
    15
100
AcDbLine
 10
2150.861443450406
 20
1229.604590634124
 30
0.0
 11
2151.16144376631
 21
1229.604590634124
 31
0.0
1001
AcDbBlockRepETag
1070
     1
1071
       35
1005
6EB
  0
LINE
  5
6EC
330
48B
100
AcDbEntity
  8
0
  6
Continuous
 62
     7
370
    15
100
AcDbLine
 10
2150.861443450406
 20
1230.404590653123
 30
0.0
 11
2151.16144376631
 21
1230.404590653123
 31
0.0
1001
AcDbBlockRepETag
1070
     1
1071
       36
1005
6EC
  0
LINE
  5
6ED
330
48B
100
AcDbEntity
  8
0
  6
Continuous
 62
     7
370
    15
100
AcDbLine
 10
2151.16144376631
 20
1229.604590634124
 30
0.0
 11
2151.16144376631
 21
1230.404590653123
 31
0.0
1001
AcDbBlockRepETag
1070
     1
1071
       37
1005
6ED
  0
LINE
  5
6EE
330
48B
100
AcDbEntity
  8
0
  6
Continuous
 62
     7
370
    15
100
AcDbLine
 10
2150.861443450406
 20
1229.604590634124
 30
0.0
 11
2150.861443450406
 21
1230.404590653123
 31
0.0
1001
AcDbBlockRepETag
1070
     1
1071
       38
1005
6EE
  0
LINE
  5
6EF
330
48B
100
AcDbEntity
  8
0
  6
Continuous
 62
     7
370
    15
100
AcDbLine
 10
2156.861443766311
 20
1229.604590634124
 30
0.0
 11
2156.861443766311
 21
1230.404590653123
 31
0.0
1001
AcDbBlockRepETag
1070
     1
1071
       39
1005
6EF
  0
LINE
  5
6F0
330
48B
100
AcDbEntity
  8
0
  6
Continuous
 62
     7
370
    15
100
AcDbLine
 10
2156.861443766311
 20
1230.404590653123
 30
0.0
 11
2157.161443450406
 21
1230.404590653123
 31
0.0
1001
AcDbBlockRepETag
1070
     1
1071
       40
1005
6F0
  0
LINE
  5
6F1
330
48B
100
AcDbEntity
  8
0
  6
Continuous
 62
     7
370
    15
100
AcDbLine
 10
2157.161443450406
 20
1229.604590634124
 30
0.0
 11
2157.161443450406
 21
1230.404590653123
 31
0.0
1001
AcDbBlockRepETag
1070
     1
1071
       41
1005
6F1
  0
LINE
  5
6F2
330
48B
100
AcDbEntity
  8
0
  6
Continuous
 62
     7
370
    15
100
AcDbLine
 10
2156.861443766311
 20
1229.604590634124
 30
0.0
 11
2157.161443450406
 21
1229.604590634124
 31
0.0
1001
AcDbBlockRepETag
1070
     1
1071
       42
1005
6F2
  0
LINE
  5
6F3
330
48B
100
AcDbEntity
  8
0
  6
Continuous
 62
     7
370
    15
100
AcDbLine
 10
2156.111443718188
 20
1229.604590634124
 30
0.0
 11
2156.111443718188
 21
1230.404590653123
 31
0.0
1001
AcDbBlockRepETag
1070
     1
1071
       43
1005
6F3
  0
LINE
  5
6F4
330
48B
100
AcDbEntity
  8
0
  6
Continuous
 62
     7
370
    15
100
AcDbLine
 10
2156.861443766311
 20
1230.404590653123
 30
0.0
 11
2156.111443718188
 21
1230.404590653123
 31
0.0
1001
AcDbBlockRepETag
1070
     1
1071
       44
1005
6F4
  0
LINE
  5
6F5
330
48B
100
AcDbEntity
  8
0
  6
Continuous
 62
     7
370
    15
100
AcDbLine
 10
2156.861443766311
 20
1229.604590634124
 30
0.0
 11
2156.111443718188
 21
1229.604590634124
 31
0.0
1001
AcDbBlockRepETag
1070
     1
1071
       45
1005
6F5
  0
LINE
  5
6F6
330
48B
100
AcDbEntity
  8
0
  6
Continuous
 62
     7
370
    15
100
AcDbLine
 10
2151.911443718188
 20
1229.604590634124
 30
0.0
 11
2151.911443718188
 21
1230.404590653123
 31
0.0
1001
AcDbBlockRepETag
1070
     1
1071
       46
1005
6F6
  0
LINE
  5
6F7
330
48B
100
AcDbEntity
  8
0
  6
Continuous
 62
     7
370
    15
100
AcDbLine
 10
2151.911443718188
 20
1230.404590653123
 30
0.0
 11
2151.16144376631
 21
1230.404590653123
 31
0.0
1001
AcDbBlockRepETag
1070
     1
1071
       47
1005
6F7
  0
LINE
  5
6F8
330
48B
100
AcDbEntity
  8
0
  6
Continuous
 62
     7
370
    15
100
AcDbLine
 10
2151.911443718188
 20
1229.604590634124
 30
0.0
 11
2151.16144376631
 21
1229.604590634124
 31
0.0
1001
AcDbBlockRepETag
1070
     1
1071
       48
1005
6F8
  0
LINE
  5
6F9
330
48B
100
AcDbEntity
  8
0
  6
Continuous
 62
     7
370
    15
100
AcDbLine
 10
2158.111443766311
 20
1229.604590634124
 30
0.0
 11
2158.111443766311
 21
1230.404590653123
 31
0.0
1001
AcDbBlockRepETag
1070
     1
1071
       49
1005
6F9
  0
LINE
  5
6FA
330
48B
100
AcDbEntity
  8
0
  6
Continuous
 62
     7
370
    15
100
AcDbLine
 10
2157.161443450406
 20
1230.404590653123
 30
0.0
 11
2158.111443766311
 21
1230.404590653123
 31
0.0
1001
AcDbBlockRepETag
1070
     1
1071
       50
1005
6FA
  0
LINE
  5
6FB
330
48B
100
AcDbEntity
  8
0
  6
Continuous
 62
     7
370
    15
100
AcDbLine
 10
2158.111443766311
 20
1229.604590634124
 30
0.0
 11
2157.161443450406
 21
1229.604590634124
 31
0.0
1001
AcDbBlockRepETag
1070
     1
1071
       51
1005
6FB
  0
LINE
  5
6FC
330
48B
100
AcDbEntity
  8
0
  6
Continuous
 62
     7
370
    15
100
AcDbLine
 10
2149.911442964628
 20
1229.604590634124
 30
0.0
 11
2149.911442964628
 21
1230.404590653123
 31
0.0
1001
AcDbBlockRepETag
1070
     1
1071
       52
1005
6FC
  0
LINE
  5
6FD
330
48B
100
AcDbEntity
  8
0
  6
Continuous
 62
     7
370
    15
100
AcDbLine
 10
2149.911442964628
 20
1230.404590653123
 30
0.0
 11
2150.861443450406
 21
1230.404590653123
 31
0.0
1001
AcDbBlockRepETag
1070
     1
1071
       53
1005
6FD
  0
LINE
  5
6FE
330
48B
100
AcDbEntity
  8
0
  6
Continuous
 62
     7
370
    15
100
AcDbLine
 10
2150.861443450406
 20
1229.604590634124
 30
0.0
 11
2149.911442964628
 21
1229.604590634124
 31
0.0
1001
AcDbBlockRepETag
1070
     1
1071
       54
1005
6FE
  0
LINE
  5
6FF
330
48B
100
AcDbEntity
  8
0
  6
Continuous
 62
     7
370
    15
100
AcDbLine
 10
2151.911443718188
 20
1230.404590653123
 30
0.0
 11
2156.111443718188
 21
1230.404590653123
 31
0.0
1001
AcDbBlockRepETag
1070
     1
1071
       55
1005
6FF
  0
LWPOLYLINE
  5
700
330
48B
100
AcDbEntity
  8
0
  6
Continuous
 62
     7
370
    15
100
AcDbPolyline
 90
        3
 70
   128
 43
0.0
 10
2150.894091646201
 20
1233.404590653123
 10
2150.854336874775
 20
1232.957017816997
 10
2150.805288893266
 20
1232.404590653123
1001
AcDbBlockRepETag
1070
     1
1071
       56
1005
700
  0
LINE
  5
701
330
48B
100
AcDbEntity
  8
0
  6
Continuous
 62
     7
370
    15
100
AcDbLine
 10
2150.894091646201
 20
1233.404590653123
 30
0.0
 11
2157.128795790174
 21
1233.404590653123
 31
0.0
1001
AcDbBlockRepETag
1070
     1
1071
       57
1005
701
  0
LWPOLYLINE
  5
702
330
48B
100
AcDbEntity
  8
0
  6
Continuous
 62
     7
370
    15
100
AcDbPolyline
 90
        3
 70
   128
 43
0.0
 10
2157.217598543109
 20
1232.404590653123
 10
2157.1685505616
 20
1232.957017816997
 10
2157.128795790174
 20
1233.404590653123
1001
AcDbBlockRepETag
1070
     1
1071
       58
1005
702
  0
LINE
  5
703
330
48B
100
AcDbEntity
  8
0
  6
Continuous
 62
     7
370
    15
100
AcDbLine
 10
2157.264431385144
 20
1232.404590653123
 30
0.0
 11
2157.217598543109
 21
1232.404590653123
 31
0.0
1001
AcDbBlockRepETag
1070
     1
1071
       59
1005
703
  0
LINE
  5
704
330
48B
100
AcDbEntity
  8
0
  6
Continuous
 62
     7
370
    15
100
AcDbLine
 10
2150.805288893266
 20
1232.404590653123
 30
0.0
 11
2150.758456051232
 21
1232.404590653123
 31
0.0
1001
AcDbBlockRepETag
1070
     1
1071
       60
1005
704
  0
LINE
  5
705
330
48B
100
AcDbEntity
  8
0
  6
Continuous
 62
     7
370
    15
100
AcDbLine
 10
2158.111443936184
 20
1229.604590634124
 30
0.0
 11
2158.111443936184
 21
1230.404590653123
 31
0.0
1001
AcDbBlockRepETag
1070
     1
1071
       61
1005
705
  0
LINE
  5
706
330
48B
100
AcDbEntity
  8
0
  6
Continuous
 62
     7
370
    15
100
AcDbLine
 10
2154.011443718188
 20
1229.104590634124
 30
0.0
 11
2156.476443718188
 21
1229.104590634124
 31
0.0
1001
AcDbBlockRepETag
1070
     1
1071
       62
1005
706
  0
LINE
  5
707
330
48B
100
AcDbEntity
  8
0
  6
Continuous
 62
     7
370
    15
100
AcDbLine
 10
2151.546443718188
 20
1229.104590634124
 30
0.0
 11
2154.011443718188
 21
1229.104590634124
 31
0.0
1001
AcDbBlockRepETag
1070
     1
1071
       63
1005
707
  0
LINE
  5
708
330
48B
100
AcDbEntity
  8
0
  6
Continuous
 62
     7
370
    15
100
AcDbLine
 10
2150.861443450406
 20
1229.10459072475
 30
0.0
 11
2151.546443718188
 21
1229.104590679437
 31
0.0
1001
AcDbBlockRepETag
1070
     1
1071
       64
1005
708
  0
LINE
  5
709
330
48B
100
AcDbEntity
  8
0
  6
Continuous
 62
     7
370
    15
100
AcDbLine
 10
2156.476443718188
 20
1229.104590679437
 30
0.0
 11
2157.161443450406
 21
1229.10459072475
 31
0.0
1001
AcDbBlockRepETag
1070
     1
1071
       65
1005
709
  0
LINE
  5
70A
330
48B
100
AcDbEntity
  8
0
  6
Continuous
 62
     7
370
    15
100
AcDbLine
 10
2150.861443450406
 20
1229.10459072475
 30
0.0
 11
2150.861443450406
 21
1229.604590634124
 31
0.0
1001
AcDbBlockRepETag
1070
     1
1071
       66
1005
70A
  0
LINE
  5
70B
330
48B
100
AcDbEntity
  8
0
  6
Continuous
 62
     7
370
    15
100
AcDbLine
 10
2157.161443450406
 20
1229.10459072475
 30
0.0
 11
2157.161443450406
 21
1229.604590634124
 31
0.0
1001
AcDbBlockRepETag
1070
     1
1071
       67
1005
70B
  0
LINE
  5
70C
330
48B
100
AcDbEntity
  8
0
  6
Continuous
 62
     7
370
    15
100
AcDbLine
 10
2150.861443450406
 20
1227.904590634124
 30
0.0
 11
2150.861443450406
 21
1229.10459072475
 31
0.0
1001
AcDbBlockRepETag
1070
     1
1071
       68
1005
70C
  0
LINE
  5
70D
330
48B
100
AcDbEntity
  8
0
  6
Continuous
 62
     7
370
    15
100
AcDbLine
 10
2157.161443450406
 20
1227.904590634124
 30
0.0
 11
2157.161443450406
 21
1229.10459072475
 31
0.0
1001
AcDbBlockRepETag
1070
     1
1071
       69
1005
70D
  0
LINE
  5
711
330
48B
100
AcDbEntity
  8
0
  6
Continuous
 62
     7
370
    15
100
AcDbLine
 10
2156.476443718188
 20
1227.904590634123
 30
0.0
 11
2149.261443718188
 21
1227.904590634124
 31
0.0
1001
AcDbBlockRepETag
1070
     1
1071
       70
1005
711
  0
LINE
  5
713
330
48B
100
AcDbEntity
  8
0
100
AcDbLine
 10
2156.476443718188
 20
1227.904590634123
 30
0.0
 11
2157.161443450406
 21
1227.904590634124
 31
0.0
1001
AcDbBlockRepETag
1070
     1
1071
       71
1005
713
  0
ENDBLK
  5
48D
330
48B
100
AcDbEntity
  8
0
100
AcDbBlockEnd
  0
BLOCK
  5
4D6
330
4D5
100
AcDbEntity
  8
0
100
AcDbBlockBegin
  2
2
 70
     0
 10
0.0
 20
0.0
 30
0.0
  3
2
  1

  0
LINE
  5
67F
330
4D5
100
AcDbEntity
  8
0
  6
Continuous
 62
     7
370
    15
100
AcDbLine
 10
2128.34881633953
 20
1230.404590653123
 30
0.0
 11
2128.086350348953
 21
1233.404590653123
 31
0.0
1001
AcDbBlockRepETag
1070
     1
1071
        0
1005
67F
  0
LINE
  5
680
330
4D5
100
AcDbEntity
  8
0
  6
Continuous
 62
     7
370
    15
100
AcDbLine
 10
2121.755352342092
 20
1233.404590653123
 30
0.0
 11
2121.492886351514
 21
1230.404590653123
 31
0.0
1001
AcDbBlockRepETag
1070
     1
1071
        1
1005
680
  0
LINE
  5
681
330
4D5
100
AcDbEntity
  8
0
  6
Continuous
 62
     7
370
    15
100
AcDbLine
 10
2127.385851345522
 20
1227.904590634124
 30
0.0
 11
2127.385851345522
 21
1229.104590634124
 31
0.0
1001
AcDbBlockRepETag
1070
     1
1071
        2
1005
681
  0
LINE
  5
682
330
4D5
100
AcDbEntity
  8
0
  6
Continuous
 62
     7
370
    15
100
AcDbLine
 10
2122.455851345522
 20
1229.104590634124
 30
0.0
 11
2122.455851345522
 21
1227.904590634124
 31
0.0
1001
AcDbBlockRepETag
1070
     1
1071
        3
1005
682
  0
LINE
  5
683
330
4D5
100
AcDbEntity
  8
0
  6
Continuous
 62
     7
370
    15
100
AcDbLine
 10
2122.820851345523
 20
1229.604590634124
 30
0.0
 11
2122.820851345523
 21
1229.104590634124
 31
0.0
1001
AcDbBlockRepETag
1070
     1
1071
        4
1005
683
  0
LINE
  5
684
330
4D5
100
AcDbEntity
  8
0
  6
Continuous
 62
     7
370
    15
100
AcDbLine
 10
2127.020851345521
 20
1229.104590634124
 30
0.0
 11
2127.020851345521
 21
1229.604590634124
 31
0.0
1001
AcDbBlockRepETag
1070
     1
1071
        5
1005
684
  0
ARC
  5
685
330
4D5
100
AcDbEntity
  8
0
  6
Continuous
 62
     7
370
    15
100
AcDbCircle
 10
2119.170851345522
 20
1217.204590634123
 30
0.0
 40
0.5000000000000285
100
AcDbArc
 50
90.0
 51
180.0
1001
AcDbBlockRepETag
1070
     1
1071
        6
1005
685
  0
LINE
  5
686
330
4D5
100
AcDbEntity
  8
0
  6
Continuous
 62
     7
370
    15
100
AcDbLine
 10
2118.670851345522
 20
1217.204590634123
 30
0.0
 11
2118.670851345522
 21
1214.304590634123
 31
0.0
1001
AcDbBlockRepETag
1070
     1
1071
        7
1005
686
  0
ARC
  5
687
330
4D5
100
AcDbEntity
  8
0
  6
Continuous
 62
     7
370
    15
100
AcDbCircle
 10
2119.170851345522
 20
1214.304590634123
 30
0.0
 40
0.5000000000000569
100
AcDbArc
 50
180.0
 51
270.0
1001
AcDbBlockRepETag
1070
     1
1071
        8
1005
687
  0
LINE
  5
688
330
4D5
100
AcDbEntity
  8
0
  6
Continuous
 62
     7
370
    15
100
AcDbLine
 10
2119.170851345522
 20
1213.804590634123
 30
0.0
 11
2130.670851345522
 21
1213.804590634123
 31
0.0
1001
AcDbBlockRepETag
1070
     1
1071
        9
1005
688
  0
ARC
  5
689
330
4D5
100
AcDbEntity
  8
0
  6
Continuous
 62
     7
370
    15
100
AcDbCircle
 10
2130.670851345522
 20
1214.304590634123
 30
0.0
 40
0.5000000000000427
100
AcDbArc
 50
270.0
 51
0.0
1001
AcDbBlockRepETag
1070
     1
1071
       10
1005
689
  0
LINE
  5
68A
330
4D5
100
AcDbEntity
  8
0
  6
Continuous
 62
     7
370
    15
100
AcDbLine
 10
2131.170851345522
 20
1214.304590634123
 30
0.0
 11
2131.170851345522
 21
1217.204590634123
 31
0.0
1001
AcDbBlockRepETag
1070
     1
1071
       11
1005
68A
  0
ARC
  5
68B
330
4D5
100
AcDbEntity
  8
0
  6
Continuous
 62
     7
370
    15
100
AcDbCircle
 10
2130.670851345522
 20
1217.204590634123
 30
0.0
 40
0.5000000000000142
100
AcDbArc
 50
0.0
 51
90.0
1001
AcDbBlockRepETag
1070
     1
1071
       12
1005
68B
  0
LINE
  5
68C
330
4D5
100
AcDbEntity
  8
0
  6
Continuous
 62
     7
370
    15
100
AcDbLine
 10
2130.670851345522
 20
1217.704590634123
 30
0.0
 11
2119.170851345522
 21
1217.704590634123
 31
0.0
1001
AcDbBlockRepETag
1070
     1
1071
       13
1005
68C
  0
LINE
  5
68D
330
4D5
100
AcDbEntity
  8
0
  6
Continuous
 62
     7
370
    15
100
AcDbLine
 10
2118.645851345523
 20
1226.404590634124
 30
0.0
 11
2131.195851345522
 21
1226.404590634124
 31
0.0
1001
AcDbBlockRepETag
1070
     1
1071
       14
1005
68D
  0
LINE
  5
68E
330
4D5
100
AcDbEntity
  8
0
  6
Continuous
 62
     7
370
    15
100
AcDbLine
 10
2131.195851345522
 20
1220.404590634123
 30
0.0
 11
2131.195851345522
 21
1227.604590634124
 31
0.0
1001
AcDbBlockRepETag
1070
     1
1071
       15
1005
68E
  0
LINE
  5
68F
330
4D5
100
AcDbEntity
  8
0
  6
Continuous
 62
     7
370
    15
100
AcDbLine
 10
2131.670851345523
 20
1220.404590634123
 30
0.0
 11
2131.195851345522
 21
1220.404590634123
 31
0.0
1001
AcDbBlockRepETag
1070
     1
1071
       16
1005
68F
  0
LINE
  5
690
330
4D5
100
AcDbEntity
  8
0
  6
Continuous
 62
     7
370
    15
100
AcDbLine
 10
2133.170851345522
 20
1218.904590634123
 30
0.0
 11
2133.170851345522
 21
1211.404590634125
 31
0.0
1001
AcDbBlockRepETag
1070
     1
1071
       17
1005
690
  0
LINE
  5
691
330
4D5
100
AcDbEntity
  8
0
  6
Continuous
 62
     7
370
    15
100
AcDbLine
 10
2116.670851345523
 20
1211.404590634125
 30
0.0
 11
2133.170851345522
 21
1211.404590634125
 31
0.0
1001
AcDbBlockRepETag
1070
     1
1071
       18
1005
691
  0
LINE
  5
692
330
4D5
100
AcDbEntity
  8
0
  6
Continuous
 62
     7
370
    15
100
AcDbLine
 10
2116.670851345523
 20
1218.904590634123
 30
0.0
 11
2116.670851345523
 21
1211.404590634125
 31
0.0
1001
AcDbBlockRepETag
1070
     1
1071
       19
1005
692
  0
ARC
  5
693
330
4D5
100
AcDbEntity
  8
0
  6
Continuous
 62
     7
370
    15
100
AcDbCircle
 10
2118.170851345523
 20
1218.904590634123
 30
0.0
 40
1.500000000000028
100
AcDbArc
 50
90.0
 51
180.0
1001
AcDbBlockRepETag
1070
     1
1071
       20
1005
693
  0
LINE
  5
694
330
4D5
100
AcDbEntity
  8
0
  6
Continuous
 62
     7
370
    15
100
AcDbLine
 10
2118.645851345523
 20
1220.404590634123
 30
0.0
 11
2118.170851345523
 21
1220.404590634123
 31
0.0
1001
AcDbBlockRepETag
1070
     1
1071
       21
1005
694
  0
LINE
  5
695
330
4D5
100
AcDbEntity
  8
0
  6
Continuous
 62
     7
370
    15
100
AcDbLine
 10
2118.645851345523
 20
1227.604590634124
 30
0.0
 11
2118.645851345523
 21
1220.404590634123
 31
0.0
1001
AcDbBlockRepETag
1070
     1
1071
       22
1005
695
  0
ARC
  5
696
330
4D5
100
AcDbEntity
  8
0
  6
Continuous
 62
     7
370
    15
100
AcDbCircle
 10
2131.670851345523
 20
1218.904590634123
 30
0.0
 40
1.500000000000014
100
AcDbArc
 50
0.0
 51
90.0
1001
AcDbBlockRepETag
1070
     1
1071
       23
1005
696
  0
LINE
  5
697
330
4D5
100
AcDbEntity
  8
0
  6
Continuous
 62
     7
370
    15
100
AcDbLine
 10
2118.645851345523
 20
1227.904590634124
 30
0.0
 11
2118.645851345523
 21
1226.404590634124
 31
0.0
1001
AcDbBlockRepETag
1070
     1
1071
       24
1005
697
  0
LINE
  5
698
330
4D5
100
AcDbEntity
  8
0
  6
Continuous
 62
     7
370
    15
100
AcDbLine
 10
2118.645851345523
 20
1227.904590634124
 30
0.0
 11
2131.195851345522
 21
1227.904590634124
 31
0.0
1001
AcDbBlockRepETag
1070
     1
1071
       25
1005
698
  0
LINE
  5
699
330
4D5
100
AcDbEntity
  8
0
  6
Continuous
 62
     7
370
    15
100
AcDbLine
 10
2131.195851345522
 20
1226.404590634124
 30
0.0
 11
2131.195851345522
 21
1227.904590634124
 31
0.0
1001
AcDbBlockRepETag
1070
     1
1071
       26
1005
699
  0
LINE
  5
69A
330
4D5
100
AcDbEntity
  8
0
  6
Continuous
 62
     7
370
    15
100
AcDbLine
 10
2129.703611126505
 20
1229.604590634124
 30
0.0
 11
2129.703611126505
 21
1230.404590653123
 31
0.0
1001
AcDbBlockRepETag
1070
     1
1071
       27
1005
69A
  0
LINE
  5
69B
330
4D5
100
AcDbEntity
  8
0
  6
Continuous
 62
     7
370
    15
100
AcDbLine
 10
2130.703611290417
 20
1229.604590634124
 30
0.0
 11
2130.703611290417
 21
1230.404590653123
 31
0.0
1001
AcDbBlockRepETag
1070
     1
1071
       28
1005
69B
  0
LINE
  5
69C
330
4D5
100
AcDbEntity
  8
0
  6
Continuous
 62
     7
370
    15
100
AcDbLine
 10
2130.703611290417
 20
1229.604590634124
 30
0.0
 11
2129.703611126505
 21
1229.604590634124
 31
0.0
1001
AcDbBlockRepETag
1070
     1
1071
       29
1005
69C
  0
LINE
  5
69D
330
4D5
100
AcDbEntity
  8
0
  6
Continuous
 62
     7
370
    15
100
AcDbLine
 10
2129.703611126505
 20
1230.404590653123
 30
0.0
 11
2130.703611290417
 21
1230.404590653123
 31
0.0
1001
AcDbBlockRepETag
1070
     1
1071
       30
1005
69D
  0
LINE
  5
69E
330
4D5
100
AcDbEntity
  8
0
  6
Continuous
 62
     7
370
    15
100
AcDbLine
 10
2122.4208512974
 20
1229.604590634124
 30
0.0
 11
2122.4208512974
 21
1230.404590653123
 31
0.0
1001
AcDbBlockRepETag
1070
     1
1071
       31
1005
69E
  0
LINE
  5
69F
330
4D5
100
AcDbEntity
  8
0
  6
Continuous
 62
     7
370
    15
100
AcDbLine
 10
2129.703611126505
 20
1229.604590634124
 30
0.0
 11
2122.4208512974
 21
1229.604590634124
 31
0.0
1001
AcDbBlockRepETag
1070
     1
1071
       32
1005
69F
  0
LINE
  5
6A0
330
4D5
100
AcDbEntity
  8
0
  6
Continuous
 62
     7
370
    15
100
AcDbLine
 10
2122.4208512974
 20
1230.404590653123
 30
0.0
 11
2129.703611126505
 21
1230.404590653123
 31
0.0
1001
AcDbBlockRepETag
1070
     1
1071
       33
1005
6A0
  0
LINE
  5
6A1
330
4D5
100
AcDbEntity
  8
0
  6
Continuous
 62
     7
370
    15
100
AcDbLine
 10
2121.422101967567
 20
1229.604590634124
 30
0.0
 11
2121.422101967567
 21
1230.404590653123
 31
0.0
1001
AcDbBlockRepETag
1070
     1
1071
       34
1005
6A1
  0
LINE
  5
6A2
330
4D5
100
AcDbEntity
  8
0
  6
Continuous
 62
     7
370
    15
100
AcDbLine
 10
2122.4208512974
 20
1229.604590634124
 30
0.0
 11
2121.422101967567
 21
1229.604590634124
 31
0.0
1001
AcDbBlockRepETag
1070
     1
1071
       35
1005
6A2
  0
LINE
  5
6A3
330
4D5
100
AcDbEntity
  8
0
  6
Continuous
 62
     7
370
    15
100
AcDbLine
 10
2121.422101967567
 20
1230.404590653123
 30
0.0
 11
2122.4208512974
 21
1230.404590653123
 31
0.0
1001
AcDbBlockRepETag
1070
     1
1071
       36
1005
6A3
  0
LINE
  5
6A4
330
4D5
100
AcDbEntity
  8
0
  6
Continuous
 62
     7
370
    15
100
AcDbLine
 10
2121.755352342092
 20
1233.404590653123
 30
0.0
 11
2124.370851345522
 21
1233.404590653123
 31
0.0
1001
AcDbBlockRepETag
1070
     1
1071
       37
1005
6A4
  0
LINE
  5
6A5
330
4D5
100
AcDbEntity
  8
0
  6
Continuous
 62
     7
370
    15
100
AcDbLine
 10
2124.370851345522
 20
1232.404590653123
 30
0.0
 11
2124.370851345522
 21
1233.404590653123
 31
0.0
1001
AcDbBlockRepETag
1070
     1
1071
       38
1005
6A5
  0
LINE
  5
6A6
330
4D5
100
AcDbEntity
  8
0
  6
Continuous
 62
     7
370
    15
100
AcDbLine
 10
2125.470851345522
 20
1232.404590653123
 30
0.0
 11
2124.370851345522
 21
1232.404590653123
 31
0.0
1001
AcDbBlockRepETag
1070
     1
1071
       39
1005
6A6
  0
LINE
  5
6A7
330
4D5
100
AcDbEntity
  8
0
  6
Continuous
 62
     7
370
    15
100
AcDbLine
 10
2125.470851345522
 20
1233.404590653123
 30
0.0
 11
2125.470851345522
 21
1232.404590653123
 31
0.0
1001
AcDbBlockRepETag
1070
     1
1071
       40
1005
6A7
  0
LINE
  5
6A8
330
4D5
100
AcDbEntity
  8
0
  6
Continuous
 62
     7
370
    15
100
AcDbLine
 10
2125.470851345522
 20
1233.404590653123
 30
0.0
 11
2128.086350348953
 21
1233.404590653123
 31
0.0
1001
AcDbBlockRepETag
1070
     1
1071
       41
1005
6A8
  0
ARC
  5
6AB
330
4D5
100
AcDbEntity
  8
0
  6
Continuous
 62
     7
370
    15
100
AcDbCircle
 10
2130.703611290417
 20
1229.104590653123
 30
0.0
 40
0.4999999810010304
100
AcDbArc
 50
0.000008207865819
 51
90.0
1001
AcDbBlockRepETag
1070
     1
1071
       42
1005
6AB
  0
ARC
  5
6AC
330
4D5
100
AcDbEntity
  8
0
  6
Continuous
 62
     7
370
    15
100
AcDbCircle
 10
2130.703611290417
 20
1229.104590653123
 30
0.0
 40
1.300000000000096
100
AcDbArc
 50
0.0000031568624498
 51
90.0
1001
AcDbBlockRepETag
1070
     1
1071
       43
1005
6AC
  0
LINE
  5
6AD
330
4D5
100
AcDbEntity
  8
0
  6
Continuous
 62
     7
370
    15
100
AcDbLine
 10
2132.003611290418
 20
1229.104590653123
 30
0.0
 11
2132.340442390926
 21
1220.627598607135
 31
0.0
1001
AcDbBlockRepETag
1070
     1
1071
       44
1005
6AD
  0
ARC
  5
6AE
330
4D5
100
AcDbEntity
  8
0
  6
Continuous
 62
     7
370
    15
100
AcDbCircle
 10
2131.045389223242
 20
1220.514296176104
 30
0.0
 40
1.300000056924468
100
AcDbArc
 50
348.5849359821687
 51
4.999998252309253
1001
AcDbBlockRepETag
1070
     1
1071
       45
1005
6AE
  0
LINE
  5
6AF
330
4D5
100
AcDbEntity
  8
0
  6
Continuous
 62
     7
370
    15
100
AcDbLine
 10
2118.645851345522
 20
1225.837269755075
 30
0.0
 11
2118.596217200024
 21
1226.404590634124
 31
0.0
1001
AcDbBlockRepETag
1070
     1
1071
       46
1005
6AF
  0
LINE
  5
6B0
330
4D5
100
AcDbEntity
  8
0
  6
Continuous
 62
     7
370
    15
100
AcDbLine
 10
2118.596217200024
 20
1226.404590634124
 30
0.0
 11
2118.645851345522
 21
1226.404590634124
 31
0.0
1001
AcDbBlockRepETag
1070
     1
1071
       47
1005
6B0
  0
LINE
  5
6B1
330
4D5
100
AcDbEntity
  8
0
  6
Continuous
 62
     7
370
    15
100
AcDbLine
 10
2131.295107982925
 20
1226.480709196207
 30
0.0
 11
2131.195851345522
 21
1226.472025365654
 31
0.0
1001
AcDbBlockRepETag
1070
     1
1071
       48
1005
6B1
  0
LINE
  5
6B2
330
4D5
100
AcDbEntity
  8
0
  6
Continuous
 62
     7
370
    15
100
AcDbLine
 10
2131.295107982925
 20
1226.480709196207
 30
0.0
 11
2131.203611271418
 21
1229.10459072475
 31
0.0
1001
AcDbBlockRepETag
1070
     1
1071
       49
1005
6B2
  0
LINE
  5
6B3
330
4D5
100
AcDbEntity
  8
0
  6
Continuous
 62
     7
370
    15
100
AcDbLine
 10
2121.420851209063
 20
1229.604590634124
 30
0.0
 11
2121.420851209063
 21
1230.404590653123
 31
0.0
1001
AcDbBlockRepETag
1070
     1
1071
       50
1005
6B3
  0
LINE
  5
6B4
330
4D5
100
AcDbEntity
  8
0
  6
Continuous
 62
     7
370
    15
100
AcDbLine
 10
2121.422101967567
 20
1229.604590634124
 30
0.0
 11
2121.420851209063
 21
1229.604590634124
 31
0.0
1001
AcDbBlockRepETag
1070
     1
1071
       51
1005
6B4
  0
LINE
  5
6B5
330
4D5
100
AcDbEntity
  8
0
  6
Continuous
 62
     7
370
    15
100
AcDbLine
 10
2121.420851209063
 20
1230.404590653123
 30
0.0
 11
2121.422101967567
 21
1230.404590653123
 31
0.0
1001
AcDbBlockRepETag
1070
     1
1071
       52
1005
6B5
  0
LINE
  5
6B6
330
4D5
100
AcDbEntity
  8
0
  6
Continuous
 62
     7
370
    15
100
AcDbLine
 10
2122.455851345522
 20
1229.104590634124
 30
0.0
 11
2127.385851345522
 21
1229.104590634124
 31
0.0
1001
AcDbBlockRepETag
1070
     1
1071
       53
1005
6B6
  0
ENDBLK
  5
4D7
330
4D5
100
AcDbEntity
  8
0
100
AcDbBlockEnd
  0
BLOCK
  5
512
330
511
100
AcDbEntity
  8
0
100
AcDbBlockBegin
  2
3
 70
     0
 10
0.0
 20
0.0
 30
0.0
  3
3
  1

  0
LINE
  5
514
330
511
100
AcDbEntity
  8
0
  6
Continuous
 62
     7
370
    15
100
AcDbLine
 10
2157.161443450406
 20
1201.794673537862
 30
0.0
 11
2150.861443450406
 21
1201.794673537862
 31
0.0
  0
ARC
  5
515
330
511
100
AcDbEntity
  8
0
  6
Continuous
 62
     7
370
    15
100
AcDbCircle
 10
2154.011443718188
 20
1194.370135603218
 30
0.0
 40
3.427964994008112
100
AcDbArc
 50
307.7783440000311
 51
232.2216559999689
  0
ARC
  5
516
330
511
100
AcDbEntity
  8
0
  6
Continuous
 62
     7
370
    15
100
AcDbCircle
 10
2154.011443718188
 20
1194.370135603218
 30
0.0
 40
3.427964994008112
100
AcDbArc
 50
232.2216559999689
 51
307.7783440000311
  0
LINE
  5
517
330
511
100
AcDbEntity
  8
0
  6
Continuous
 62
     7
370
    15
100
AcDbLine
 10
2150.894091646201
 20
1193.820135603218
 30
0.0
 11
2150.805288893266
 21
1193.820135603218
 31
0.0
  0
ARC
  5
518
330
511
100
AcDbEntity
  8
0
  6
Continuous
 62
     7
370
    15
100
AcDbCircle
 10
2154.011443718188
 20
1194.370135603218
 30
0.0
 40
3.165499003430347
100
AcDbArc
 50
190.0058238397234
 51
349.9941761602766
  0
LINE
  5
519
330
511
100
AcDbEntity
  8
0
  6
Continuous
 62
     7
370
    15
100
AcDbLine
 10
2157.217598543109
 20
1193.820135603218
 30
0.0
 11
2157.128795790174
 21
1193.820135603218
 31
0.0
  0
ARC
  5
51A
330
511
100
AcDbEntity
  8
0
  6
Continuous
 62
     7
370
    15
100
AcDbCircle
 10
2154.011443718188
 20
1194.370135603218
 30
0.0
 40
3.252987666956275
100
AcDbArc
 50
350.2659381926896
 51
9.734061807310439
  0
LINE
  5
51B
330
511
100
AcDbEntity
  8
0
  6
Continuous
 62
     7
370
    15
100
AcDbLine
 10
2157.128795790174
 20
1194.920135603218
 30
0.0
 11
2157.217598543109
 21
1194.920135603218
 31
0.0
  0
ARC
  5
51C
330
511
100
AcDbEntity
  8
0
  6
Continuous
 62
     7
370
    15
100
AcDbCircle
 10
2154.011443718188
 20
1194.370135603218
 30
0.0
 40
3.165499003430357
100
AcDbArc
 50
10.00582383972342
 51
169.9941761602766
  0
LINE
  5
51D
330
511
100
AcDbEntity
  8
0
  6
Continuous
 62
     7
370
    15
100
AcDbLine
 10
2150.805288893266
 20
1194.920135603218
 30
0.0
 11
2150.894091646201
 21
1194.920135603218
 31
0.0
  0
ARC
  5
51E
330
511
100
AcDbEntity
  8
0
  6
Continuous
 62
     7
370
    15
100
AcDbCircle
 10
2154.011443718188
 20
1194.370135603218
 30
0.0
 40
3.252987666956261
100
AcDbArc
 50
170.2659381926895
 51
189.7340618073104
  0
LINE
  5
51F
330
511
100
AcDbEntity
  8
0
  6
Continuous
 62
     7
370
    15
100
AcDbLine
 10
2157.128795790174
 20
1194.920135603218
 30
0.0
 11
2154.661443718187
 21
1194.920135603218
 31
0.0
  0
LINE
  5
520
330
511
100
AcDbEntity
  8
0
  6
Continuous
 62
     7
370
    15
100
AcDbLine
 10
2154.661443718187
 20
1194.920135603218
 30
0.0
 11
2154.661443718187
 21
1196.47013560322
 31
0.0
  0
LINE
  5
521
330
511
100
AcDbEntity
  8
0
  6
Continuous
 62
     7
370
    15
100
AcDbLine
 10
2154.661443718187
 20
1196.47013560322
 30
0.0
 11
2153.361443718193
 21
1196.47013560322
 31
0.0
  0
LINE
  5
522
330
511
100
AcDbEntity
  8
0
  6
Continuous
 62
     7
370
    15
100
AcDbLine
 10
2153.361443718193
 20
1196.47013560322
 30
0.0
 11
2153.361443718193
 21
1194.920135603218
 31
0.0
  0
LINE
  5
523
330
511
100
AcDbEntity
  8
0
  6
Continuous
 62
     7
370
    15
100
AcDbLine
 10
2153.361443718193
 20
1194.920135603218
 30
0.0
 11
2150.894091646201
 21
1194.920135603218
 31
0.0
  0
LINE
  5
524
330
511
100
AcDbEntity
  8
0
  6
Continuous
 62
     7
370
    15
100
AcDbLine
 10
2154.661443718187
 20
1192.270135603218
 30
0.0
 11
2154.661443718187
 21
1193.820135603218
 31
0.0
  0
LINE
  5
525
330
511
100
AcDbEntity
  8
0
  6
Continuous
 62
     7
370
    15
100
AcDbLine
 10
2154.661443718187
 20
1193.820135603218
 30
0.0
 11
2157.128795790174
 21
1193.820135603218
 31
0.0
  0
LINE
  5
526
330
511
100
AcDbEntity
  8
0
  6
Continuous
 62
     7
370
    15
100
AcDbLine
 10
2150.894091646201
 20
1193.820135603218
 30
0.0
 11
2153.361443718193
 21
1193.820135603218
 31
0.0
  0
LINE
  5
527
330
511
100
AcDbEntity
  8
0
  6
Continuous
 62
     7
370
    15
100
AcDbLine
 10
2153.361443718193
 20
1193.820135603218
 30
0.0
 11
2153.361443718193
 21
1192.270135603218
 31
0.0
  0
LINE
  5
528
330
511
100
AcDbEntity
  8
0
  6
Continuous
 62
     7
370
    15
100
AcDbLine
 10
2153.361443718193
 20
1192.270135603218
 30
0.0
 11
2154.661443718187
 21
1192.270135603218
 31
0.0
  0
ARC
  5
529
330
511
100
AcDbEntity
  8
0
  6
Continuous
 62
     7
370
    15
100
AcDbCircle
 10
2151.16144376631
 20
1191.620135506972
 30
0.0
 40
0.749999951877058
100
AcDbArc
 50
270.0
 51
0.0
  0
LINE
  5
52A
330
511
100
AcDbEntity
  8
0
  6
Continuous
 62
     7
370
    15
100
AcDbLine
 10
2150.861443450406
 20
1190.870135466759
 30
0.0
 11
2151.16144376631
 21
1190.870135555095
 31
0.0
  0
LINE
  5
52B
330
511
100
AcDbEntity
  8
0
  6
Continuous
 62
     7
370
    15
100
AcDbLine
 10
2150.861443450406
 20
1190.870135466759
 30
0.0
 11
2150.861443450406
 21
1190.871386313004
 31
0.0
  0
ARC
  5
52C
330
511
100
AcDbEntity
  8
0
  6
Continuous
 62
     7
370
    15
100
AcDbCircle
 10
2150.911442964628
 20
1191.870135555095
 30
0.0
 40
0.9999999999998458
100
AcDbArc
 50
179.9999961229484
 51
267.1340438852995
  0
LINE
  5
52D
330
511
100
AcDbEntity
  8
0
  6
Continuous
 62
     7
370
    15
100
AcDbLine
 10
2149.911442964628
 20
1199.1528953842
 30
0.0
 11
2149.911442964628
 21
1191.870135622762
 31
0.0
  0
LINE
  5
52E
330
511
100
AcDbEntity
  8
0
  6
Continuous
 62
     7
370
    15
100
AcDbLine
 10
2150.861443450406
 20
1200.152895548113
 30
0.0
 11
2149.911442964628
 21
1199.1528953842
 31
0.0
  0
LINE
  5
52F
330
511
100
AcDbEntity
  8
0
  6
Continuous
 62
     7
370
    15
100
AcDbLine
 10
2150.861443450406
 20
1200.152895548113
 30
0.0
 11
2157.161443450406
 21
1200.152895548113
 31
0.0
  0
LINE
  5
530
330
511
100
AcDbEntity
  8
0
  6
Continuous
 62
     7
370
    15
100
AcDbLine
 10
2158.111443936184
 20
1199.1528953842
 30
0.0
 11
2157.161443450406
 21
1200.152895548113
 31
0.0
  0
LINE
  5
531
330
511
100
AcDbEntity
  8
0
  6
Continuous
 62
     7
370
    15
100
AcDbLine
 10
2158.111443766311
 20
1191.870135555095
 30
0.0
 11
2158.111443936184
 21
1199.1528953842
 31
0.0
  0
ARC
  5
532
330
511
100
AcDbEntity
  8
0
  6
Continuous
 62
     7
370
    15
100
AcDbCircle
 10
2157.111443766311
 20
1191.87013545885
 30
0.0
 40
1.000000000000004
100
AcDbArc
 50
272.8659658599038
 51
0.0000055144845858
  0
LINE
  5
533
330
511
100
AcDbEntity
  8
0
  6
Continuous
 62
     7
370
    15
100
AcDbLine
 10
2157.161443450406
 20
1190.870135466759
 30
0.0
 11
2157.161443450406
 21
1190.871386225262
 31
0.0
  0
LINE
  5
534
330
511
100
AcDbEntity
  8
0
  6
Continuous
 62
     7
370
    15
100
AcDbLine
 10
2156.861443766311
 20
1190.870135555095
 30
0.0
 11
2157.161443450406
 21
1190.870135466759
 31
0.0
  0
ARC
  5
535
330
511
100
AcDbEntity
  8
0
  6
Continuous
 62
     7
370
    15
100
AcDbCircle
 10
2156.861443718188
 20
1191.620135555095
 30
0.0
 40
0.7499999999999732
100
AcDbArc
 50
180.0000073526461
 51
270.0000036763491
  0
LINE
  5
536
330
511
100
AcDbEntity
  8
0
  6
Continuous
 62
     7
370
    15
100
AcDbLine
 10
2156.111443718188
 20
1191.620135458849
 30
0.0
 11
2156.111443718188
 21
1191.660717953584
 31
0.0
  0
LINE
  5
537
330
511
100
AcDbEntity
  8
0
  6
Continuous
 62
     7
370
    15
100
AcDbLine
 10
2151.911443718188
 20
1191.660717953584
 30
0.0
 11
2151.911443718188
 21
1191.620135506972
 31
0.0
  0
LINE
  5
538
330
511
100
AcDbEntity
  8
0
  6
Continuous
 62
     7
370
    15
100
AcDbLine
 10
2150.861443450406
 20
1200.152895548113
 30
0.0
 11
2150.861443450406
 21
1201.452895548113
 31
0.0
  0
LINE
  5
539
330
511
100
AcDbEntity
  8
0
  6
Continuous
 62
     7
370
    15
100
AcDbLine
 10
2150.861443450406
 20
1201.452895548113
 30
0.0
 11
2157.161443450406
 21
1201.452895548113
 31
0.0
  0
LINE
  5
53A
330
511
100
AcDbEntity
  8
0
  6
Continuous
 62
     7
370
    15
100
AcDbLine
 10
2157.161443450406
 20
1200.152895548113
 30
0.0
 11
2157.161443450406
 21
1201.452895548113
 31
0.0
  0
LINE
  5
53B
330
511
100
AcDbEntity
  8
0
  6
Continuous
 62
     7
370
    15
100
AcDbLine
 10
2150.861443450406
 20
1201.789726648621
 30
0.0
 11
2157.161443450406
 21
1201.789726648621
 31
0.0
  0
LINE
  5
53C
330
511
100
AcDbEntity
  8
0
  6
Continuous
 62
     7
370
    15
100
AcDbLine
 10
2150.861443450406
 20
1201.452895548113
 30
0.0
 11
2150.861443450406
 21
1201.789726648621
 31
0.0
  0
LINE
  5
53D
330
511
100
AcDbEntity
  8
0
  6
Continuous
 62
     7
370
    15
100
AcDbLine
 10
2157.161443450406
 20
1201.452895548113
 30
0.0
 11
2157.161443450406
 21
1201.789726648621
 31
0.0
  0
LINE
  5
53E
330
511
100
AcDbEntity
  8
0
  6
Continuous
 62
     7
370
    15
100
AcDbLine
 10
2149.261443718188
 20
1200.645135603218
 30
0.0
 11
2147.761443718188
 21
1200.645135603218
 31
0.0
  0
LINE
  5
53F
330
511
100
AcDbEntity
  8
0
  6
Continuous
 62
     7
370
    15
100
AcDbLine
 10
2149.261443718188
 20
1188.095135603218
 30
0.0
 11
2149.261443718188
 21
1200.645135603218
 31
0.0
  0
LINE
  5
540
330
511
100
AcDbEntity
  8
0
  6
Continuous
 62
     7
370
    15
100
AcDbLine
 10
2147.761443718188
 20
1188.095135603218
 30
0.0
 11
2149.261443718188
 21
1188.095135603218
 31
0.0
  0
LINE
  5
541
330
511
100
AcDbEntity
  8
0
  6
Continuous
 62
     7
370
    15
100
AcDbLine
 10
2147.761443718188
 20
1188.095135603218
 30
0.0
 11
2147.761443718188
 21
1200.645135603218
 31
0.0
  0
LINE
  5
542
330
511
100
AcDbEntity
  8
0
  6
Continuous
 62
     7
370
    15
100
AcDbLine
 10
2149.261443718188
 20
1200.645135603218
 30
0.0
 11
2150.861443450406
 21
1200.645135603218
 31
0.0
  0
LINE
  5
543
330
511
100
AcDbEntity
  8
0
  6
Continuous
 62
     7
370
    15
100
AcDbLine
 10
2157.161443450406
 20
1200.645135603218
 30
0.0
 11
2158.761443718187
 21
1200.645135603218
 31
0.0
  0
LINE
  5
544
330
511
100
AcDbEntity
  8
0
  6
Continuous
 62
     7
370
    15
100
AcDbLine
 10
2158.761443718187
 20
1188.095135603218
 30
0.0
 11
2158.761443718187
 21
1200.645135603218
 31
0.0
  0
LINE
  5
545
330
511
100
AcDbEntity
  8
0
  6
Continuous
 62
     7
370
    15
100
AcDbLine
 10
2158.761443718187
 20
1188.095135603218
 30
0.0
 11
2149.261443718188
 21
1188.095135603218
 31
0.0
  0
LINE
  5
546
330
511
100
AcDbEntity
  8
0
  6
Continuous
 62
     7
370
    15
100
AcDbLine
 10
2160.261443718187
 20
1200.645135603218
 30
0.0
 11
2158.761443718187
 21
1200.645135603218
 31
0.0
  0
LINE
  5
547
330
511
100
AcDbEntity
  8
0
  6
Continuous
 62
     7
370
    15
100
AcDbLine
 10
2160.261443718187
 20
1188.095135603218
 30
0.0
 11
2160.261443718187
 21
1200.645135603218
 31
0.0
  0
LINE
  5
548
330
511
100
AcDbEntity
  8
0
  6
Continuous
 62
     7
370
    15
100
AcDbLine
 10
2158.761443718187
 20
1188.095135603218
 30
0.0
 11
2160.261443718187
 21
1188.095135603218
 31
0.0
  0
LINE
  5
549
330
511
100
AcDbEntity
  8
0
  6
Continuous
 62
     7
370
    15
100
AcDbLine
 10
2150.861443450406
 20
1188.04550145772
 30
0.0
 11
2157.161443450406
 21
1188.04550145772
 31
0.0
  0
LINE
  5
54A
330
511
100
AcDbEntity
  8
0
  6
Continuous
 62
     7
370
    15
100
AcDbLine
 10
2150.861443450406
 20
1188.095135603218
 30
0.0
 11
2150.861443450406
 21
1188.04550145772
 31
0.0
  0
LINE
  5
54B
330
511
100
AcDbEntity
  8
0
  6
Continuous
 62
     7
370
    15
100
AcDbLine
 10
2157.161443450406
 20
1188.04550145772
 30
0.0
 11
2157.161443450406
 21
1188.095135603218
 31
0.0
  0
LINE
  5
54C
330
511
100
AcDbEntity
  8
0
  6
Continuous
 62
     7
370
    15
100
AcDbLine
 10
2150.861443450406
 20
1201.789726648621
 30
0.0
 11
2150.861443450406
 21
1201.794673537862
 31
0.0
  0
LINE
  5
54D
330
511
100
AcDbEntity
  8
0
  6
Continuous
 62
     7
370
    15
100
AcDbLine
 10
2157.161443450406
 20
1201.789726648621
 30
0.0
 11
2157.161443450406
 21
1201.794673537862
 31
0.0
  0
LINE
  5
54E
330
511
100
AcDbEntity
  8
0
  6
Continuous
 62
     7
370
    15
100
AcDbLine
 10
2160.261443718187
 20
1202.620135603218
 30
0.0
 11
2158.761443718187
 21
1202.620135603218
 31
0.0
  0
LINE
  5
54F
330
511
100
AcDbEntity
  8
0
  6
Continuous
 62
     7
370
    15
100
AcDbLine
 10
2160.261443718187
 20
1201.120135603218
 30
0.0
 11
2158.761443718187
 21
1201.120135603218
 31
0.0
  0
LINE
  5
550
330
511
100
AcDbEntity
  8
0
  6
Continuous
 62
     7
370
    15
100
AcDbLine
 10
2158.761443718187
 20
1201.120135603218
 30
0.0
 11
2158.761443718187
 21
1202.620135603218
 31
0.0
  0
LINE
  5
551
330
511
100
AcDbEntity
  8
0
  6
Continuous
 62
     7
370
    15
100
AcDbLine
 10
2160.261443718187
 20
1202.620135603218
 30
0.0
 11
2160.261443718187
 21
1201.120135603218
 31
0.0
  0
LINE
  5
552
330
511
100
AcDbEntity
  8
0
  6
Continuous
 62
     7
370
    15
100
AcDbLine
 10
2149.261443718188
 20
1201.120135603218
 30
0.0
 11
2147.761443718188
 21
1201.120135603218
 31
0.0
  0
LINE
  5
553
330
511
100
AcDbEntity
  8
0
  6
Continuous
 62
     7
370
    15
100
AcDbLine
 10
2149.261443718188
 20
1202.620135603218
 30
0.0
 11
2147.761443718188
 21
1202.620135603218
 31
0.0
  0
LINE
  5
554
330
511
100
AcDbEntity
  8
0
  6
Continuous
 62
     7
370
    15
100
AcDbLine
 10
2149.261443718188
 20
1202.620135603218
 30
0.0
 11
2149.261443718188
 21
1201.120135603218
 31
0.0
  0
LINE
  5
555
330
511
100
AcDbEntity
  8
0
  6
Continuous
 62
     7
370
    15
100
AcDbLine
 10
2147.761443718188
 20
1201.120135603218
 30
0.0
 11
2147.761443718188
 21
1202.620135603218
 31
0.0
  0
LINE
  5
556
330
511
100
AcDbEntity
  8
0
  6
Continuous
 62
     7
370
    15
100
AcDbLine
 10
2149.261443718188
 20
1201.120135603218
 30
0.0
 11
2149.261443718188
 21
1200.645135603218
 31
0.0
  0
LINE
  5
557
330
511
100
AcDbEntity
  8
0
  6
Continuous
 62
     7
370
    15
100
AcDbLine
 10
2147.761443718188
 20
1200.645135603218
 30
0.0
 11
2147.761443718188
 21
1201.120135603218
 31
0.0
  0
LINE
  5
558
330
511
100
AcDbEntity
  8
0
  6
Continuous
 62
     7
370
    15
100
AcDbLine
 10
2158.761443718187
 20
1200.645135603218
 30
0.0
 11
2158.761443718187
 21
1201.120135603218
 31
0.0
  0
LINE
  5
559
330
511
100
AcDbEntity
  8
0
  6
Continuous
 62
     7
370
    15
100
AcDbLine
 10
2160.261443718187
 20
1201.120135603218
 30
0.0
 11
2160.261443718187
 21
1200.645135603218
 31
0.0
  0
LINE
  5
55A
330
511
100
AcDbEntity
  8
0
  6
Continuous
 62
     7
370
    15
100
AcDbLine
 10
2160.261443718187
 20
1187.620135603218
 30
0.0
 11
2158.761443718187
 21
1187.620135603218
 31
0.0
  0
LINE
  5
55B
330
511
100
AcDbEntity
  8
0
  6
Continuous
 62
     7
370
    15
100
AcDbLine
 10
2160.261443718187
 20
1186.120135603218
 30
0.0
 11
2158.761443718187
 21
1186.120135603218
 31
0.0
  0
LINE
  5
55C
330
511
100
AcDbEntity
  8
0
  6
Continuous
 62
     7
370
    15
100
AcDbLine
 10
2158.761443718187
 20
1186.120135603218
 30
0.0
 11
2158.761443718187
 21
1187.620135603218
 31
0.0
  0
LINE
  5
55D
330
511
100
AcDbEntity
  8
0
  6
Continuous
 62
     7
370
    15
100
AcDbLine
 10
2160.261443718187
 20
1187.620135603218
 30
0.0
 11
2160.261443718187
 21
1186.120135603218
 31
0.0
  0
LINE
  5
55E
330
511
100
AcDbEntity
  8
0
  6
Continuous
 62
     7
370
    15
100
AcDbLine
 10
2149.261443718188
 20
1186.120135603218
 30
0.0
 11
2147.761443718188
 21
1186.120135603218
 31
0.0
  0
LINE
  5
55F
330
511
100
AcDbEntity
  8
0
  6
Continuous
 62
     7
370
    15
100
AcDbLine
 10
2149.261443718188
 20
1187.620135603218
 30
0.0
 11
2147.761443718188
 21
1187.620135603218
 31
0.0
  0
LINE
  5
560
330
511
100
AcDbEntity
  8
0
  6
Continuous
 62
     7
370
    15
100
AcDbLine
 10
2149.261443718188
 20
1187.620135603218
 30
0.0
 11
2149.261443718188
 21
1186.120135603218
 31
0.0
  0
LINE
  5
561
330
511
100
AcDbEntity
  8
0
  6
Continuous
 62
     7
370
    15
100
AcDbLine
 10
2147.761443718188
 20
1186.120135603218
 30
0.0
 11
2147.761443718188
 21
1187.620135603218
 31
0.0
  0
LINE
  5
562
330
511
100
AcDbEntity
  8
0
  6
Continuous
 62
     7
370
    15
100
AcDbLine
 10
2149.261443718188
 20
1188.095135603218
 30
0.0
 11
2149.261443718188
 21
1187.620135603218
 31
0.0
  0
LINE
  5
563
330
511
100
AcDbEntity
  8
0
  6
Continuous
 62
     7
370
    15
100
AcDbLine
 10
2147.761443718188
 20
1187.620135603218
 30
0.0
 11
2147.761443718188
 21
1188.095135603218
 31
0.0
  0
LINE
  5
564
330
511
100
AcDbEntity
  8
0
  6
Continuous
 62
     7
370
    15
100
AcDbLine
 10
2158.761443718187
 20
1187.620135603218
 30
0.0
 11
2158.761443718187
 21
1188.095135603218
 31
0.0
  0
LINE
  5
565
330
511
100
AcDbEntity
  8
0
  6
Continuous
 62
     7
370
    15
100
AcDbLine
 10
2160.261443718187
 20
1188.095135603218
 30
0.0
 11
2160.261443718187
 21
1187.620135603218
 31
0.0
  0
ENDBLK
  5
513
330
511
100
AcDbEntity
  8
0
100
AcDbBlockEnd
  0
BLOCK
  5
568
330
567
100
AcDbEntity
  8
0
100
AcDbBlockBegin
  2
4
 70
     0
 10
0.0
 20
0.0
 30
0.0
  3
4
  1

  0
LINE
  5
56A
330
567
100
AcDbEntity
  8
0
  6
Continuous
 62
     7
370
    15
100
AcDbLine
 10
2187.101259546848
 20
1225.035332423577
 30
0.0
 11
2186.839296120331
 21
1227.475582874989
 31
0.0
  0
LINE
  5
56B
330
567
100
AcDbEntity
  8
0
  6
Continuous
 62
     7
370
    15
100
AcDbLine
 10
2180.520420568113
 20
1227.475582874989
 30
0.0
 11
2180.258457141596
 21
1225.035332423577
 31
0.0
  0
LINE
  5
56C
330
567
100
AcDbEntity
  8
0
  6
Continuous
 62
     7
370
    15
100
AcDbLine
 10
2183.000568988313
 20
1222.626985893507
 30
0.0
 11
2183.000568988313
 21
1221.973753228484
 31
0.0
  0
LINE
  5
56D
330
567
100
AcDbEntity
  8
0
  6
Continuous
 62
     7
370
    15
100
AcDbLine
 10
2181.214858344223
 20
1223.537732963627
 30
0.0
 11
2181.214858344223
 21
1222.871576581026
 31
0.0
  0
LINE
  5
56E
330
567
100
AcDbEntity
  8
0
  6
Continuous
 62
     7
370
    15
100
AcDbLine
 10
2178.720059802703
 20
1225.157851347763
 30
0.0
 11
2178.720059802703
 21
1224.504618682741
 31
0.0
  0
LINE
  5
56F
330
567
100
AcDbEntity
  8
0
  6
Continuous
 62
     7
370
    15
100
AcDbLine
 10
2178.735808534113
 20
1224.402568582688
 30
0.0
 11
2175.134067032164
 21
1222.323327471504
 31
0.0
  0
LINE
  5
570
330
567
100
AcDbEntity
  8
0
  6
Continuous
 62
     7
370
    15
100
AcDbLine
 10
2190.646220462832
 20
1226.051992488954
 30
0.0
 11
2186.191447741357
 21
1228.623678041196
 31
0.0
  0
LINE
  5
571
330
567
100
AcDbEntity
  8
0
  6
Continuous
 62
     7
370
    15
100
AcDbLine
 10
2193.622185549124
 20
1216.046035621318
 30
0.0
 11
2192.561525377344
 21
1216.658341705185
 31
0.0
  0
ARC
  5
572
330
567
100
AcDbEntity
  8
0
  6
Continuous
 62
     7
370
    15
100
AcDbCircle
 10
2184.447466394906
 20
1208.017259794563
 30
0.0
 40
0.7684024037863495
100
AcDbArc
 50
122.6054783400301
 51
177.3945215143371
  0
LINE
  5
573
330
567
100
AcDbEntity
  8
0
  6
Continuous
 62
     7
370
    15
100
AcDbLine
 10
2183.679858344222
 20
1208.052190220693
 30
0.0
 11
2183.679858344222
 21
1205.684221866224
 31
0.0
  0
ARC
  5
574
330
567
100
AcDbEntity
  8
0
  6
Continuous
 62
     7
370
    15
100
AcDbCircle
 10
2183.895395527935
 20
1205.649258267774
 30
0.0
 40
0.218354598714271
100
AcDbArc
 50
170.7859630095436
 51
309.2032852357276
  0
LINE
  5
575
330
567
100
AcDbEntity
  8
0
  6
Continuous
 62
     7
370
    15
100
AcDbLine
 10
2184.033411734815
 20
1205.480053488237
 30
0.0
 11
2192.16513971846
 21
1210.174400131218
 31
0.0
  0
ARC
  5
576
330
567
100
AcDbEntity
  8
0
  6
Continuous
 62
     7
370
    15
100
AcDbCircle
 10
2191.75108505837
 20
1210.821702991247
 30
0.0
 40
0.7684024037863409
100
AcDbArc
 50
302.6054783400301
 51
357.3945215143371
  0
LINE
  5
577
330
567
100
AcDbEntity
  8
0
  6
Continuous
 62
     7
370
    15
100
AcDbLine
 10
2192.518693109054
 20
1210.786772565116
 30
0.0
 11
2192.518693109054
 21
1213.154740919585
 31
0.0
  0
ARC
  5
578
330
567
100
AcDbEntity
  8
0
  6
Continuous
 62
     7
370
    15
100
AcDbCircle
 10
2192.30315592534
 20
1213.189704518035
 30
0.0
 40
0.2183545987142049
100
AcDbArc
 50
350.7859630095179
 51
129.2032852357358
  0
LINE
  5
579
330
567
100
AcDbEntity
  8
0
  6
Continuous
 62
     7
370
    15
100
AcDbLine
 10
2192.16513971846
 20
1213.358909297572
 30
0.0
 11
2184.033411734815
 21
1208.664562654592
 31
0.0
  0
LINE
  5
57A
330
567
100
AcDbEntity
  8
0
  6
Continuous
 62
     7
370
    15
100
AcDbLine
 10
2183.662180674692
 20
1216.534009562908
 30
0.0
 11
2192.536370778584
 21
1221.656970464595
 31
0.0
  0
LINE
  5
57B
330
567
100
AcDbEntity
  8
0
  6
Continuous
 62
     7
370
    15
100
AcDbLine
 10
2192.536370778584
 20
1215.777876619017
 30
0.0
 11
2192.536370778584
 21
1221.656970464595
 31
0.0
  0
LINE
  5
57C
330
567
100
AcDbEntity
  8
0
  6
Continuous
 62
     7
370
    15
100
AcDbLine
 10
2192.872246499647
 20
1215.971773545575
 30
0.0
 11
2192.536370778584
 21
1215.777876619017
 31
0.0
  0
ARC
  5
57D
330
567
100
AcDbEntity
  8
0
  6
Continuous
 62
     7
370
    15
100
AcDbCircle
 10
2193.284147053833
 20
1215.460439452782
 30
0.0
 40
0.6566008079430869
100
AcDbArc
 50
351.1363811896049
 51
128.8528670556454
  0
LINE
  5
57E
330
567
100
AcDbEntity
  8
0
  6
Continuous
 62
     7
370
    15
100
AcDbLine
 10
2193.932906671427
 20
1215.359268411614
 30
0.0
 11
2193.932906671427
 21
1209.235212322472
 31
0.0
  0
LINE
  5
57F
330
567
100
AcDbEntity
  8
0
  6
Continuous
 62
     7
370
    15
100
AcDbLine
 10
2182.265644781849
 20
1202.499845399935
 30
0.0
 11
2193.932906671427
 21
1209.235212322472
 31
0.0
  0
LINE
  5
580
330
567
100
AcDbEntity
  8
0
  6
Continuous
 62
     7
370
    15
100
AcDbLine
 10
2182.265644781849
 20
1208.623901489076
 30
0.0
 11
2182.265644781849
 21
1202.499845399935
 31
0.0
  0
ARC
  5
581
330
567
100
AcDbEntity
  8
0
  6
Continuous
 62
     7
370
    15
100
AcDbCircle
 10
2184.562026130683
 20
1208.522829964868
 30
0.0
 40
2.298604522809531
100
AcDbArc
 50
122.520154761412
 51
177.4798450929733
  0
LINE
  5
582
330
567
100
AcDbEntity
  8
0
  6
Continuous
 62
     7
370
    15
100
AcDbLine
 10
2183.662180674692
 20
1210.65491571733
 30
0.0
 11
2183.326304953629
 21
1210.461018790772
 31
0.0
  0
LINE
  5
583
330
567
100
AcDbEntity
  8
0
  6
Continuous
 62
     7
370
    15
100
AcDbLine
 10
2183.662180674692
 20
1216.534009562908
 30
0.0
 11
2183.662180674692
 21
1210.65491571733
 31
0.0
  0
LINE
  5
584
330
567
100
AcDbEntity
  8
0
  6
Continuous
 62
     7
370
    15
100
AcDbLine
 10
2177.015376742188
 20
1220.371127797784
 30
0.0
 11
2181.470149463664
 21
1217.799442245542
 31
0.0
  0
LINE
  5
585
330
567
100
AcDbEntity
  8
0
  6
Continuous
 62
     7
370
    15
100
AcDbLine
 10
2177.015376742188
 20
1220.371127797784
 30
0.0
 11
2176.237559472234
 21
1220.820152149977
 31
0.0
  0
ARC
  5
586
330
567
100
AcDbEntity
  8
0
  6
Continuous
 62
     7
370
    15
100
AcDbCircle
 10
2176.099543265354
 20
1220.65094737044
 30
0.0
 40
0.2183545987142351
100
AcDbArc
 50
50.79671476429261
 51
189.2140369904564
  0
LINE
  5
587
330
567
100
AcDbEntity
  8
0
  6
Continuous
 62
     7
370
    15
100
AcDbLine
 10
2175.884006081641
 20
1220.61598377199
 30
0.0
 11
2175.884006081641
 21
1215.145160332355
 31
0.0
  0
LINE
  5
588
330
567
100
AcDbEntity
  8
0
  6
Continuous
 62
     7
370
    15
100
AcDbLine
 10
2175.884006081641
 20
1215.145160332355
 30
0.0
 11
2174.823345909861
 21
1215.757466416222
 31
0.0
  0
LINE
  5
589
330
567
100
AcDbEntity
  8
0
  6
Continuous
 62
     7
370
    15
100
AcDbLine
 10
2174.823345909861
 20
1215.757466416222
 30
0.0
 11
2174.823345909861
 21
1221.6365602618
 31
0.0
  0
ARC
  5
58A
330
567
100
AcDbEntity
  8
0
  6
Continuous
 62
     7
370
    15
100
AcDbCircle
 10
2175.472105527454
 20
1221.737731302968
 30
0.0
 40
0.6566008079430938
100
AcDbArc
 50
51.14713294435456
 51
188.8636188104208
  0
LINE
  5
58B
330
567
100
AcDbEntity
  8
0
  6
Continuous
 62
     7
370
    15
100
AcDbLine
 10
2182.601520502913
 20
1218.371126864604
 30
0.0
 11
2175.88400608164
 21
1222.249065395761
 31
0.0
  0
ARC
  5
58C
330
567
100
AcDbEntity
  8
0
  6
Continuous
 62
     7
370
    15
100
AcDbCircle
 10
2181.365799325858
 20
1216.4329380387
 30
0.0
 40
2.298604522809524
100
AcDbArc
 50
2.520154907026666
 51
57.47984523860989
  0
LINE
  5
58D
330
567
100
AcDbEntity
  8
0
  6
Continuous
 62
     7
370
    15
100
AcDbLine
 10
2183.662180674692
 20
1210.65491571733
 30
0.0
 11
2182.601520502913
 21
1211.267221801197
 31
0.0
  0
LINE
  5
58E
330
567
100
AcDbEntity
  8
0
  6
Continuous
 62
     7
370
    15
100
AcDbLine
 10
2182.601520502913
 20
1211.267221801197
 30
0.0
 11
2182.601520502913
 21
1216.738045240832
 31
0.0
  0
ARC
  5
58F
330
567
100
AcDbEntity
  8
0
  6
Continuous
 62
     7
370
    15
100
AcDbCircle
 10
2181.833912452229
 20
1216.703114814702
 30
0.0
 40
0.7684024037860562
100
AcDbArc
 50
2.60547848564986
 51
57.39452165996985
  0
LINE
  5
590
330
567
100
AcDbEntity
  8
0
  6
Continuous
 62
     7
370
    15
100
AcDbLine
 10
2182.247967112319
 20
1217.35041767473
 30
0.0
 11
2181.470149463664
 21
1217.799442245542
 31
0.0
  0
ARC
  5
591
330
567
100
AcDbEntity
  8
0
  6
Continuous
 62
     7
370
    15
100
AcDbCircle
 10
2190.23999433582
 20
1221.555901772908
 30
0.0
 40
2.298599496937602
100
AcDbArc
 50
2.520089748013403
 51
57.4799103976118
  0
LINE
  5
592
330
567
100
AcDbEntity
  8
0
  6
Continuous
 62
     7
370
    15
100
AcDbLine
 10
2182.601520502913
 20
1218.371126864604
 30
0.0
 11
2191.475710606804
 21
1223.494087766291
 31
0.0
  0
LWPOLYLINE
  5
593
330
567
100
AcDbEntity
  8
0
  6
Continuous
 62
     7
370
    15
100
AcDbPolyline
 90
       24
 70
   128
 43
0.0
 10
2183.248934991592
 20
1222.949704835102
 10
2183.517979698452
 20
1222.936214295013
 10
2183.788029090288
 20
1222.934992051202
 10
2184.057407130304
 20
1222.946045689411
 10
2184.324441948392
 20
1222.96930660625
 10
2184.587476217435
 20
1223.004630434969
 10
2184.844877439356
 20
1223.051797941466
 10
2185.095048077069
 20
1223.110516384933
 10
2185.336435469445
 20
1223.180421334737
 10
2185.567541467765
 20
1223.261078932213
 10
2185.786931733835
 20
1223.351988583378
 10
2185.993244642084
 20
1223.452586065816
 10
2186.185199730361
 20
1223.562247030476
 10
2186.361605647007
 20
1223.680290876633
 10
2186.521367544874
 20
1223.805984975977
 10
2186.663493876389
 20
1223.938549219606
 10
2186.787102547506
 20
1224.077160859694
 10
2186.891426392339
 20
1224.220959615804
 10
2186.975817934509
 20
1224.369053014139
 10
2187.039753405647
 20
1224.520521926599
 10
2187.082835996112
 20
1224.674426275267
 10
2187.104798317757
 20
1224.829810866911
 10
2187.105504063445
 20
1224.985711321307
 10
2187.101259546848
 20
1225.035332423577
  0
ARC
  5
594
330
567
100
AcDbEntity
  8
0
  6
Continuous
 62
     7
370
    15
100
AcDbCircle
 10
2181.402310745359
 20
1224.91274835314
 30
0.0
 40
1.150403373241918
100
AcDbArc
 50
173.8830936290012
 51
192.4792697483557
  0
ARC
  5
595
330
567
100
AcDbEntity
  8
0
  6
Continuous
 62
     7
370
    15
100
AcDbCircle
 10
2183.041173288238
 20
1226.019283469105
 30
0.0
 40
3.076601682978924
100
AcDbArc
 50
206.1332682707208
 51
273.8721082619899
  0
LWPOLYLINE
  5
596
330
567
100
AcDbEntity
  8
0
  6
Continuous
 62
     7
370
    15
100
AcDbPolyline
 90
       35
 70
   128
 43
0.0
 10
2181.086648825122
 20
1228.410554590649
 10
2180.946463889799
 20
1228.28421375537
 10
2180.82470498655
 20
1228.151659917674
 10
2180.722192901946
 20
1228.013786633653
 10
2180.6396186782
 20
1227.871523318214
 10
2180.577538954804
 20
1227.725828979818
 10
2180.53637221617
 20
1227.577685755733
 10
2180.516395970598
 20
1227.428092291356
 10
2180.517744879567
 20
1227.278057008275
 10
2180.540409849974
 20
1227.128591306412
 10
2180.584238095428
 20
1226.980702746096
 10
2180.648934166198
 20
1226.835388256019
 10
2180.734061940862
 20
1226.693627412856
 10
2180.83904756624
 20
1226.556375837864
 10
2180.963183325776
 20
1226.424558754961
 10
2181.105632410323
 20
1226.299064753713
 10
2181.265434559133
 20
1226.180739799288
 10
2181.441512533057
 20
1226.070381529728
 10
2181.632679376297
 20
1225.968733879013
 10
2181.837646417771
 20
1225.876482062139
 10
2182.055031958152
 20
1225.794247956033
 10
2182.283370584012
 20
1225.722585907422
 10
2182.52112304629
 20
1225.661978995946
 10
2182.766686636499
 20
1225.612835777675
 10
2183.018405990705
 20
1225.575487530999
 10
2183.274584248478
 20
1225.550186023456
 10
2183.533494491558
 20
1225.537101814546
 10
2183.793391385151
 20
1225.536323105973
 10
2184.052522943376
 20
1225.547855147076
 10
2184.309142339537
 20
1225.571620199436
 10
2184.561519681623
 20
1225.607458060922
 10
2184.807953673653
 20
1225.655127145625
 10
2185.046783084248
 20
1225.714306112408
 10
2185.276397945123
 20
1225.78459603109
 10
2185.495250404017
 20
1225.865523071672
  0
LWPOLYLINE
  5
597
330
567
100
AcDbEntity
  8
0
  6
Continuous
 62
     7
370
    15
100
AcDbPolyline
 90
        3
 70
   128
 43
0.0
 10
2185.558043432806
 20
1225.012732615861
 10
2185.523361272477
 20
1225.483833525746
 10
2185.495250404017
 20
1225.865523071672
  0
ARC
  5
598
330
567
100
AcDbEntity
  8
0
  6
Continuous
 62
     7
370
    15
100
AcDbCircle
 10
2184.435638160645
 20
1227.855201144961
 30
0.0
 40
3.056046618410154
100
AcDbArc
 50
291.5475716650258
 51
308.447051802275
  0
LWPOLYLINE
  5
599
330
567
100
AcDbEntity
  8
0
  6
Continuous
 62
     7
370
    15
100
AcDbPolyline
 90
        3
 70
   128
 43
0.0
 10
2186.273067863322
 20
1226.314547533174
 10
2186.301178731782
 20
1225.932857987248
 10
2186.335860892111
 20
1225.461757077364
  0
LWPOLYLINE
  5
59A
330
567
100
AcDbEntity
  8
0
  6
Continuous
 62
     7
370
    15
100
AcDbPolyline
 90
       35
 70
   128
 43
0.0
 10
2186.273067863322
 20
1226.314547533174
 10
2186.413252798645
 20
1226.440888368453
 10
2186.535011701893
 20
1226.573442206149
 10
2186.637523786498
 20
1226.71131549017
 10
2186.720098010244
 20
1226.853578805609
 10
2186.78217773364
 20
1226.999273144004
 10
2186.823344472274
 20
1227.14741636809
 10
2186.843320717846
 20
1227.297009832467
 10
2186.841971808877
 20
1227.447045115548
 10
2186.81930683847
 20
1227.596510817411
 10
2186.775478593017
 20
1227.744399377727
 10
2186.710782522246
 20
1227.889713867804
 10
2186.625654747581
 20
1228.031474710967
 10
2186.520669122205
 20
1228.168726285958
 10
2186.396533362668
 20
1228.300543368862
 10
2186.254084278122
 20
1228.426037370109
 10
2186.094282129311
 20
1228.544362324535
 10
2185.918204155387
 20
1228.654720594095
 10
2185.727037312148
 20
1228.75636824481
 10
2185.522070270673
 20
1228.848620061683
 10
2185.304684730292
 20
1228.93085416779
 10
2185.076346104432
 20
1229.002516216401
 10
2184.838593642154
 20
1229.063123127877
 10
2184.593030051945
 20
1229.112266346148
 10
2184.341310697739
 20
1229.149614592823
 10
2184.085132439966
 20
1229.174916100366
 10
2183.826222196886
 20
1229.188000309277
 10
2183.566325303292
 20
1229.188779017849
 10
2183.307193745067
 20
1229.177246976747
 10
2183.050574348908
 20
1229.153481924387
 10
2182.798197006822
 20
1229.117644062901
 10
2182.551763014791
 20
1229.069974978197
 10
2182.312933604196
 20
1229.010796011415
 10
2182.083318743321
 20
1228.940506092733
 10
2181.864466284427
 20
1228.859579052151
  0
LWPOLYLINE
  5
59B
330
567
100
AcDbEntity
  8
0
  6
Continuous
 62
     7
370
    15
100
AcDbPolyline
 90
        3
 70
   128
 43
0.0
 10
2181.801673255638
 20
1228.07928788419
 10
2181.836355415967
 20
1228.510345624101
 10
2181.864466284427
 20
1228.859579052151
  0
LINE
  5
59C
330
567
100
AcDbEntity
  8
0
  6
Continuous
 62
     7
370
    15
100
AcDbLine
 10
2181.720092923837
 20
1228.044875096167
 30
0.0
 11
2181.801673255638
 21
1228.07928788419
 31
0.0
  0
ARC
  5
59D
330
567
100
AcDbEntity
  8
0
  6
Continuous
 62
     7
370
    15
100
AcDbCircle
 10
2190.134289488902
 20
1225.165194596318
 30
0.0
 40
0.2183545821963164
100
AcDbArc
 50
350.7859752464235
 51
129.2032872144851
  0
LINE
  5
59E
330
567
100
AcDbEntity
  8
0
  6
Continuous
 62
     7
370
    15
100
AcDbLine
 10
2189.996273286618
 20
1225.334399358289
 30
0.0
 11
2189.996273286618
 21
1225.987632023311
 31
0.0
  0
ARC
  5
59F
330
567
100
AcDbEntity
  8
0
  6
Continuous
 62
     7
370
    15
100
AcDbCircle
 10
2190.355115425154
 20
1225.547699607652
 30
0.0
 40
0.5677219484361697
100
AcDbArc
 50
350.7859677160395
 51
129.2032859967694
  0
LINE
  5
5A0
330
567
100
AcDbEntity
  8
0
  6
Continuous
 62
     7
370
    15
100
AcDbLine
 10
2190.915512102161
 20
1225.45679429903
 30
0.0
 11
2190.966706647099
 21
1223.787929497632
 31
0.0
  0
LINE
  5
5A1
330
567
100
AcDbEntity
  8
0
  6
Continuous
 62
     7
370
    15
100
AcDbLine
 10
2181.982798756649
 20
1210.865688421536
 30
0.0
 11
2181.435052822804
 21
1217.779181386039
 31
0.0
  0
LINE
  5
5A2
330
567
100
AcDbEntity
  8
0
  6
Continuous
 62
     7
370
    15
100
AcDbLine
 10
2181.435052822804
 20
1217.779181386039
 30
0.0
 11
2181.470149463664
 21
1217.799442245542
 31
0.0
  0
LINE
  5
5A3
330
567
100
AcDbEntity
  8
0
  6
Continuous
 62
     7
370
    15
100
AcDbLine
 10
2190.380682578877
 20
1224.126233991203
 30
0.0
 11
2190.349826663778
 21
1225.130231046546
 31
0.0
  0
LINE
  5
5A4
330
567
100
AcDbEntity
  8
0
  6
Continuous
 62
     7
370
    15
100
AcDbLine
 10
2182.654553511501
 20
1226.239989908155
 30
0.0
 11
2183.75056902234
 21
1226.872706194818
 31
0.0
  0
LINE
  5
5A5
330
567
100
AcDbEntity
  8
0
  6
Continuous
 62
     7
370
    15
100
AcDbLine
 10
2183.75056902234
 20
1226.872706194818
 30
0.0
 11
2185.495250404017
 21
1225.865523071672
 31
0.0
  0
LINE
  5
5A6
330
567
100
AcDbEntity
  8
0
  6
Continuous
 62
     7
370
    15
100
AcDbLine
 10
2181.086648825122
 20
1228.410554590649
 30
0.0
 11
2182.831330206802
 21
1227.403371467501
 31
0.0
  0
LINE
  5
5A7
330
567
100
AcDbEntity
  8
0
  6
Continuous
 62
     7
370
    15
100
AcDbLine
 10
2182.831330206802
 20
1227.403371467501
 30
0.0
 11
2181.735314695963
 21
1226.770655180838
 31
0.0
  0
LINE
  5
5A8
330
567
100
AcDbEntity
  8
0
  6
Continuous
 62
     7
370
    15
100
AcDbLine
 10
2181.735314695963
 20
1226.770655180838
 30
0.0
 11
2182.654553511501
 21
1226.239989908155
 31
0.0
  0
ARC
  5
5A9
330
567
100
AcDbEntity
  8
0
  6
Continuous
 62
     7
370
    15
100
AcDbCircle
 10
2183.618105454517
 20
1225.041991867567
 30
0.0
 40
3.594117956580901
100
AcDbArc
 50
242.1095530047371
 51
271.129311842524
  0
ARC
  5
5AA
330
567
100
AcDbEntity
  8
0
  6
Continuous
 62
     7
370
    15
100
AcDbCircle
 10
2184.259002404218
 20
1223.828151814151
 30
0.0
 40
2.282469170402462
100
AcDbArc
 50
288.3680249713011
 51
311.6265961813484
  0
ARC
  5
5AB
330
567
100
AcDbEntity
  8
0
  6
Continuous
 62
     7
370
    15
100
AcDbCircle
 10
2182.444522613936
 20
1222.991752719651
 30
0.0
 40
1.235522772152215
100
AcDbArc
 50
185.5818391636416
 51
245.7383017939741
  0
LINE
  5
5AC
330
567
100
AcDbEntity
  8
0
  6
Continuous
 62
     7
370
    15
100
AcDbLine
 10
2189.813814433796
 20
1224.45348000573
 30
0.0
 11
2191.475710606804
 21
1223.494087766291
 31
0.0
  0
ARC
  5
5AD
330
567
100
AcDbEntity
  8
0
  6
Continuous
 62
     7
370
    15
100
AcDbCircle
 10
2179.720060335549
 20
1225.665506206656
 30
0.0
 40
1.147776656516322
100
AcDbArc
 50
242.4805390039322
 51
297.5194609960677
  0
LINE
  5
5AE
330
567
100
AcDbEntity
  8
0
  6
Continuous
 62
     7
370
    15
100
AcDbLine
 10
2178.97759796349
 20
1224.770057260291
 30
0.0
 11
2179.189730283688
 21
1224.647595950624
 31
0.0
  0
LINE
  5
5AF
330
567
100
AcDbEntity
  8
0
  6
Continuous
 62
     7
370
    15
100
AcDbLine
 10
2178.97759796349
 20
1224.770057260291
 30
0.0
 11
2178.978482445352
 21
1224.770567860802
 31
0.0
  0
LWPOLYLINE
  5
5B0
330
567
100
AcDbEntity
  8
0
  6
Continuous
 62
     7
370
    15
100
AcDbPolyline
 90
       11
 70
   128
 43
0.0
 10
2179.012953069364
 20
1225.566055431296
 10
2178.913993076647
 20
1225.49950445411
 10
2178.833639568669
 20
1225.425067078561
 10
2178.77374735009
 20
1225.344461546882
 10
2178.735698916447
 20
1225.259548481212
 10
2178.720372541929
 20
1225.172287934743
 10
2178.728122006121
 20
1225.084694147704
 10
2178.758768427696
 20
1224.998789052534
 10
2178.811604393537
 20
1224.916555601502
 10
2178.885410287996
 20
1224.8398919941
 10
2178.978482445352
 20
1224.770567860802
  0
LINE
  5
5B1
330
567
100
AcDbEntity
  8
0
  6
Continuous
 62
     7
370
    15
100
AcDbLine
 10
2180.401481286337
 20
1226.367635708839
 30
0.0
 11
2179.012953069364
 21
1225.566055431296
 31
0.0
  0
LINE
  5
5B2
330
567
100
AcDbEntity
  8
0
  6
Continuous
 62
     7
370
    15
100
AcDbLine
 10
2189.960918175152
 20
1225.191633849077
 30
0.0
 11
2189.996273286618
 21
1225.987632023311
 31
0.0
  0
LINE
  5
5B3
330
567
100
AcDbEntity
  8
0
  6
Continuous
 62
     7
370
    15
100
AcDbLine
 10
2184.811229194121
 20
1222.218781817951
 30
0.0
 11
2189.960918175152
 21
1225.191633849077
 31
0.0
  0
ARC
  5
5B4
330
567
100
AcDbEntity
  8
0
  6
Continuous
 62
     7
370
    15
100
AcDbCircle
 10
2184.1024043106
 20
1223.582533184945
 30
0.0
 40
1.53696145250207
100
AcDbArc
 50
244.1910649445708
 51
297.4636551467796
  0
LINE
  5
5B5
330
567
100
AcDbEntity
  8
0
  6
Continuous
 62
     7
370
    15
100
AcDbLine
 10
2183.432370684966
 20
1222.19837170805
 30
0.0
 11
2183.433255104785
 21
1222.198882272744
 31
0.0
  0
LINE
  5
5B6
330
567
100
AcDbEntity
  8
0
  6
Continuous
 62
     7
370
    15
100
AcDbLine
 10
2183.220238936451
 20
1222.320832831929
 30
0.0
 11
2183.432370684966
 21
1222.19837170805
 31
0.0
  0
ARC
  5
5B7
330
567
100
AcDbEntity
  8
0
  6
Continuous
 62
     7
370
    15
100
AcDbCircle
 10
2183.339680248569
 20
1222.626985883954
 30
0.0
 40
0.3286273243427619
100
AcDbArc
 50
111.3125634750093
 51
248.6874556298357
  0
LINE
  5
5B8
330
567
100
AcDbEntity
  8
0
  6
Continuous
 62
     7
370
    15
100
AcDbLine
 10
2183.220238834367
 20
1222.933138896152
 30
0.0
 11
2183.248934991592
 21
1222.949704835102
 31
0.0
  0
LINE
  5
5B9
330
567
100
AcDbEntity
  8
0
  6
Continuous
 62
     7
370
    15
100
AcDbLine
 10
2180.279086510608
 20
1224.66416186993
 30
0.0
 11
2180.250390387411
 21
1224.647595950624
 31
0.0
  0
LINE
  5
5BA
330
567
100
AcDbEntity
  8
0
  6
Continuous
 62
     7
370
    15
100
AcDbLine
 10
2184.811229194121
 20
1221.565549152929
 30
0.0
 11
2184.811229194121
 21
1222.218781817951
 31
0.0
  0
ARC
  5
5BB
330
567
100
AcDbEntity
  8
0
  6
Continuous
 62
     7
370
    15
100
AcDbCircle
 10
2184.1024043106
 20
1222.929300519923
 30
0.0
 40
1.536961452501917
100
AcDbArc
 50
244.1910649445708
 51
297.4636551467796
  0
LINE
  5
5BC
330
567
100
AcDbEntity
  8
0
  6
Continuous
 62
     7
370
    15
100
AcDbLine
 10
2183.433255104785
 20
1221.545649607722
 30
0.0
 11
2183.433255104785
 21
1222.198882272744
 31
0.0
  0
LINE
  5
5BD
330
567
100
AcDbEntity
  8
0
  6
Continuous
 62
     7
370
    15
100
AcDbLine
 10
2182.831330206802
 20
1226.586830655615
 30
0.0
 11
2182.442536411228
 21
1226.362384774895
 31
0.0
  0
LINE
  5
5BE
330
567
100
AcDbEntity
  8
0
  6
Continuous
 62
     7
370
    15
100
AcDbLine
 10
2183.609147666107
 20
1227.035855117117
 30
0.0
 11
2181.801673255638
 21
1228.07928788419
 31
0.0
  0
LINE
  5
5BF
330
567
100
AcDbEntity
  8
0
  6
Continuous
 62
     7
370
    15
100
AcDbLine
 10
2184.705163176948
 20
1227.668571403781
 30
0.0
 11
2183.609147666107
 21
1227.035855117117
 31
0.0
  0
LINE
  5
5C0
330
567
100
AcDbEntity
  8
0
  6
Continuous
 62
     7
370
    15
100
AcDbLine
 10
2184.917180277221
 20
1227.546176537041
 30
0.0
 11
2184.705163176948
 21
1227.668571403781
 31
0.0
  0
LINE
  5
5C1
330
567
100
AcDbEntity
  8
0
  6
Continuous
 62
     7
370
    15
100
AcDbLine
 10
2186.335860892111
 20
1225.461757077364
 30
0.0
 11
2184.528386481646
 21
1226.505189844435
 31
0.0
  0
LINE
  5
5C2
330
567
100
AcDbEntity
  8
0
  6
Continuous
 62
     7
370
    15
100
AcDbLine
 10
2183.432370684966
 20
1221.545139043028
 30
0.0
 11
2183.432370684966
 21
1222.19837170805
 31
0.0
  0
LINE
  5
5C3
330
567
100
AcDbEntity
  8
0
  6
Continuous
 62
     7
370
    15
100
AcDbLine
 10
2183.433255104785
 20
1221.545649607722
 30
0.0
 11
2183.432370684966
 21
1221.545139043028
 31
0.0
  0
LINE
  5
5C4
330
567
100
AcDbEntity
  8
0
  6
Continuous
 62
     7
370
    15
100
AcDbLine
 10
2183.220238936451
 20
1221.667600166907
 30
0.0
 11
2183.220238936451
 21
1222.320832831929
 31
0.0
  0
LINE
  5
5C5
330
567
100
AcDbEntity
  8
0
  6
Continuous
 62
     7
370
    15
100
AcDbLine
 10
2183.220238936451
 20
1221.667600166907
 30
0.0
 11
2183.432370684966
 21
1221.545139043028
 31
0.0
  0
LINE
  5
5C6
330
567
100
AcDbEntity
  8
0
  6
Continuous
 62
     7
370
    15
100
AcDbLine
 10
2189.960918175152
 20
1224.538401184055
 30
0.0
 11
2189.960918175152
 21
1225.191633849077
 31
0.0
  0
LINE
  5
5C7
330
567
100
AcDbEntity
  8
0
  6
Continuous
 62
     7
370
    15
100
AcDbLine
 10
2189.960918175152
 20
1224.538401184055
 30
0.0
 11
2184.811229194121
 21
1221.565549152929
 31
0.0
  0
ARC
  5
5C8
330
567
100
AcDbEntity
  8
0
  6
Continuous
 62
     7
370
    15
100
AcDbCircle
 10
2183.366401198483
 20
1222.004359001208
 30
0.0
 40
0.3671102277541096
100
AcDbArc
 50
184.7822676141647
 51
246.5378782687105
  0
LINE
  5
5C9
330
567
100
AcDbEntity
  8
0
  6
Continuous
 62
     7
370
    15
100
AcDbLine
 10
2184.528386481646
 20
1227.32173065632
 30
0.0
 11
2184.528386481646
 21
1226.505189844435
 31
0.0
  0
LINE
  5
5CA
330
567
100
AcDbEntity
  8
0
  6
Continuous
 62
     7
370
    15
100
AcDbLine
 10
2186.273067863322
 20
1226.314547533174
 30
0.0
 11
2184.528386481646
 21
1227.32173065632
 31
0.0
  0
LINE
  5
5CB
330
567
100
AcDbEntity
  8
0
  6
Continuous
 62
     7
370
    15
100
AcDbLine
 10
2184.528386481646
 20
1227.32173065632
 30
0.0
 11
2185.624401992486
 21
1227.954446942984
 31
0.0
  0
LINE
  5
5CC
330
567
100
AcDbEntity
  8
0
  6
Continuous
 62
     7
370
    15
100
AcDbLine
 10
2185.624401992486
 20
1227.954446942984
 30
0.0
 11
2184.705163176948
 21
1228.485112215666
 31
0.0
  0
LINE
  5
5CD
330
567
100
AcDbEntity
  8
0
  6
Continuous
 62
     7
370
    15
100
AcDbLine
 10
2184.705163176948
 20
1228.485112215666
 30
0.0
 11
2183.609147666107
 21
1227.852395929003
 31
0.0
  0
LINE
  5
5CE
330
567
100
AcDbEntity
  8
0
  6
Continuous
 62
     7
370
    15
100
AcDbLine
 10
2183.609147666107
 20
1227.852395929003
 30
0.0
 11
2181.864466284427
 21
1228.859579052151
 31
0.0
  0
LINE
  5
5CF
330
567
100
AcDbEntity
  8
0
  6
Continuous
 62
     7
370
    15
100
AcDbLine
 10
2177.562565759171
 20
1213.001423427916
 30
0.0
 11
2181.729547577782
 21
1210.595876027548
 31
0.0
  0
LINE
  5
5D0
330
567
100
AcDbEntity
  8
0
  6
Continuous
 62
     7
370
    15
100
AcDbLine
 10
2177.562565759171
 20
1213.001423427916
 30
0.0
 11
2176.980280101329
 21
1220.35086693828
 31
0.0
  0
LINE
  5
5D1
330
567
100
AcDbEntity
  8
0
  6
Continuous
 62
     7
370
    15
100
AcDbLine
 10
2176.980280101329
 20
1220.35086693828
 30
0.0
 11
2181.435052822804
 21
1217.779181386039
 31
0.0
  0
LINE
  5
5D2
330
567
100
AcDbEntity
  8
0
  6
Continuous
 62
     7
370
    15
100
AcDbLine
 10
2177.015376742188
 20
1220.371127797784
 30
0.0
 11
2176.980280101329
 21
1220.35086693828
 31
0.0
  0
LINE
  5
5D3
330
567
100
AcDbEntity
  8
0
  6
Continuous
 62
     7
370
    15
100
AcDbLine
 10
2182.831330206802
 20
1227.403371467501
 30
0.0
 11
2182.831330206802
 21
1226.586830655615
 31
0.0
  0
ARC
  5
5D4
330
567
100
AcDbEntity
  8
0
  6
Continuous
 62
     7
370
    15
100
AcDbCircle
 10
2183.496726770021
 20
1225.346478179027
 30
0.0
 40
2.688473677205647
100
AcDbArc
 50
241.0391069922131
 51
259.6114524142728
  0
ARC
  5
5D5
330
567
100
AcDbEntity
  8
0
  6
Continuous
 62
     7
370
    15
100
AcDbCircle
 10
2182.981776740707
 20
1224.388572791946
 30
0.0
 40
1.601063733554509
100
AcDbArc
 50
226.3638291687012
 51
240.5640750454636
  0
ARC
  5
5D6
330
567
100
AcDbEntity
  8
0
  6
Continuous
 62
     7
370
    15
100
AcDbCircle
 10
2183.486041731656
 20
1225.656324654429
 30
0.0
 40
3.209740340112052
100
AcDbArc
 50
241.1409624453117
 51
261.3006358942306
  0
ARC
  5
5D7
330
567
100
AcDbEntity
  8
0
  6
Continuous
 62
     7
370
    15
100
AcDbCircle
 10
2182.625874437565
 20
1224.171333741828
 30
0.0
 40
1.494453812289819
100
AcDbArc
 50
207.0638621040112
 51
242.5444094919821
  0
LINE
  5
5D8
330
567
100
AcDbEntity
  8
0
  6
Continuous
 62
     7
370
    15
100
AcDbLine
 10
2183.326304953629
 20
1210.461018790772
 30
0.0
 11
2182.265644781849
 21
1211.073324874639
 31
0.0
  0
LINE
  5
5D9
330
567
100
AcDbEntity
  8
0
  6
Continuous
 62
     7
370
    15
100
AcDbLine
 10
2182.265644781849
 20
1208.623901489076
 30
0.0
 11
2181.204984610069
 21
1209.236207572944
 31
0.0
  0
ARC
  5
5DA
330
567
100
AcDbEntity
  8
0
  6
Continuous
 62
     7
370
    15
100
AcDbCircle
 10
2183.501361052833
 20
1209.135138881256
 30
0.0
 40
2.29859949693707
100
AcDbArc
 50
122.5200896023882
 51
177.4799102519866
  0
LINE
  5
5DB
330
567
100
AcDbEntity
  8
0
  6
Continuous
 62
     7
370
    15
100
AcDbLine
 10
2182.265644781849
 20
1202.499845399935
 30
0.0
 11
2181.204984610069
 21
1203.112151483802
 31
0.0
  0
LINE
  5
5DC
330
567
100
AcDbEntity
  8
0
  6
Continuous
 62
     7
370
    15
100
AcDbLine
 10
2181.204984610069
 20
1203.112151483802
 30
0.0
 11
2181.204984610069
 21
1209.236207572944
 31
0.0
  0
LINE
  5
5DD
330
567
100
AcDbEntity
  8
0
  6
Continuous
 62
     7
370
    15
100
AcDbLine
 10
2182.265644781849
 20
1211.073324874639
 30
0.0
 11
2182.601520502913
 21
1211.267221801197
 31
0.0
  0
LINE
  5
5DE
330
567
100
AcDbEntity
  8
0
  6
Continuous
 62
     7
370
    15
100
AcDbLine
 10
2183.609147666107
 20
1227.035855117117
 30
0.0
 11
2183.609147666107
 21
1227.852395929003
 31
0.0
  0
LINE
  5
5DF
330
567
100
AcDbEntity
  8
0
  6
Continuous
 62
     7
370
    15
100
AcDbLine
 10
2184.705163176948
 20
1227.668571403781
 30
0.0
 11
2184.705163176948
 21
1228.485112215666
 31
0.0
  0
LINE
  5
5E0
330
567
100
AcDbEntity
  8
0
  6
Continuous
 62
     7
370
    15
100
AcDbLine
 10
2179.189730283688
 20
1223.994363285602
 30
0.0
 11
2179.189730283688
 21
1224.647595950624
 31
0.0
  0
LINE
  5
5E1
330
567
100
AcDbEntity
  8
0
  6
Continuous
 62
     7
370
    15
100
AcDbLine
 10
2180.250390387411
 20
1223.994363285602
 30
0.0
 11
2180.250390387411
 21
1224.647595950624
 31
0.0
  0
ARC
  5
5E2
330
567
100
AcDbEntity
  8
0
  6
Continuous
 62
     7
370
    15
100
AcDbCircle
 10
2179.720060335549
 20
1225.012273541634
 30
0.0
 40
1.147776656516422
100
AcDbArc
 50
242.4805390039322
 51
297.5194609960677
  0
LINE
  5
5E3
330
567
100
AcDbEntity
  8
0
  6
Continuous
 62
     7
370
    15
100
AcDbLine
 10
2178.97759796349
 20
1224.116824595269
 30
0.0
 11
2178.97759796349
 21
1224.770057260291
 31
0.0
  0
LINE
  5
5E4
330
567
100
AcDbEntity
  8
0
  6
Continuous
 62
     7
370
    15
100
AcDbLine
 10
2178.97759796349
 20
1224.116824595269
 30
0.0
 11
2179.189730283688
 21
1223.994363285602
 31
0.0
  0
LINE
  5
5E5
330
567
100
AcDbEntity
  8
0
  6
Continuous
 62
     7
370
    15
100
AcDbLine
 10
2180.517802427624
 20
1224.14873697048
 30
0.0
 11
2180.250390387411
 21
1223.994363285602
 31
0.0
  0
ARC
  5
5E6
330
567
100
AcDbEntity
  8
0
  6
Continuous
 62
     7
370
    15
100
AcDbCircle
 10
2179.195521067487
 20
1224.542019130366
 30
0.0
 40
0.4769299820659511
100
AcDbArc
 50
184.4977046653544
 51
242.9302790872322
  0
LINE
  5
5E7
330
567
100
AcDbEntity
  8
0
  6
Continuous
 62
     7
370
    15
100
AcDbLine
 10
2189.996273286618
 20
1225.334399358289
 30
0.0
 11
2189.960918175152
 21
1224.538401184055
 31
0.0
  0
ARC
  5
5E8
330
567
100
AcDbEntity
  8
0
  6
Continuous
 62
     7
370
    15
100
AcDbCircle
 10
2176.669291801854
 20
1212.507504409588
 30
0.0
 40
0.7684024037862557
100
AcDbArc
 50
122.6054783400301
 51
177.3945215143371
  0
LINE
  5
5E9
330
567
100
AcDbEntity
  8
0
  6
Continuous
 62
     7
370
    15
100
AcDbLine
 10
2175.90168375117
 20
1212.542434835718
 30
0.0
 11
2175.90168375117
 21
1210.174466481249
 31
0.0
  0
ARC
  5
5EA
330
567
100
AcDbEntity
  8
0
  6
Continuous
 62
     7
370
    15
100
AcDbCircle
 10
2176.117220934884
 20
1210.139502882799
 30
0.0
 40
0.2183545987142771
100
AcDbArc
 50
170.7859630095436
 51
309.2032852357276
  0
LINE
  5
5EB
330
567
100
AcDbEntity
  8
0
  6
Continuous
 62
     7
370
    15
100
AcDbLine
 10
2176.255237141763
 20
1209.970298103262
 30
0.0
 11
2179.534217442127
 21
1211.863213138832
 31
0.0
  0
LINE
  5
5EC
330
567
100
AcDbEntity
  8
0
  6
Continuous
 62
     7
370
    15
100
AcDbLine
 10
2177.493765970189
 20
1213.869794743331
 30
0.0
 11
2176.255237141763
 21
1213.154807269616
 31
0.0
  0
LINE
  5
5ED
330
567
100
AcDbEntity
  8
0
  6
Continuous
 62
     7
370
    15
100
AcDbLine
 10
2174.487470188797
 20
1206.990090014959
 30
0.0
 11
2181.231549558764
 21
1210.88336416457
 31
0.0
  0
LINE
  5
5EE
330
567
100
AcDbEntity
  8
0
  6
Continuous
 62
     7
370
    15
100
AcDbLine
 10
2174.487470188797
 20
1213.114146104101
 30
0.0
 11
2174.487470188797
 21
1206.990090014959
 31
0.0
  0
ARC
  5
5EF
330
567
100
AcDbEntity
  8
0
  6
Continuous
 62
     7
370
    15
100
AcDbCircle
 10
2176.783851537631
 20
1213.013074579893
 30
0.0
 40
2.298604522809382
100
AcDbArc
 50
122.5201547613901
 51
177.4798450929733
  0
LINE
  5
5F0
330
567
100
AcDbEntity
  8
0
  6
Continuous
 62
     7
370
    15
100
AcDbLine
 10
2175.884006081641
 20
1215.145160332355
 30
0.0
 11
2175.548130360577
 21
1214.951263405797
 31
0.0
  0
ARC
  5
5F1
330
567
100
AcDbEntity
  8
0
  6
Continuous
 62
     7
370
    15
100
AcDbCircle
 10
2185.949249705958
 20
1228.175812444185
 30
0.0
 40
0.5091595833698107
100
AcDbArc
 50
61.59623746129363
 51
98.44015625060341
  0
LINE
  5
5F2
330
567
100
AcDbEntity
  8
0
  6
Continuous
 62
     7
370
    15
100
AcDbLine
 10
2189.996270415818
 20
1225.334334724024
 30
0.0
 11
2190.349826663778
 21
1225.130231046546
 31
0.0
  0
LINE
  5
5F3
330
567
100
AcDbEntity
  8
0
  6
Continuous
 62
     7
370
    15
100
AcDbLine
 10
2192.16513971846
 20
1210.174400131218
 30
0.0
 11
2191.10447954668
 21
1210.786706215085
 31
0.0
  0
LINE
  5
5F4
330
567
100
AcDbEntity
  8
0
  6
Continuous
 62
     7
370
    15
100
AcDbLine
 10
2191.10447954668
 20
1210.786706215085
 30
0.0
 11
2183.679858344222
 21
1206.500563628016
 31
0.0
  0
LINE
  5
5F5
330
567
100
AcDbEntity
  8
0
  6
Continuous
 62
     7
370
    15
100
AcDbLine
 10
2174.487470188797
 20
1213.114146104101
 30
0.0
 11
2173.426810017017
 21
1213.726452187968
 31
0.0
  0
LINE
  5
5F6
330
567
100
AcDbEntity
  8
0
  6
Continuous
 62
     7
370
    15
100
AcDbLine
 10
2175.548130360577
 20
1214.951263405797
 30
0.0
 11
2174.487470188797
 21
1215.563569489664
 31
0.0
  0
ARC
  5
5F7
330
567
100
AcDbEntity
  8
0
  6
Continuous
 62
     7
370
    15
100
AcDbCircle
 10
2175.723186459781
 20
1213.625383496281
 30
0.0
 40
2.298599496937312
100
AcDbArc
 50
122.5200896023882
 51
177.4799102519866
  0
LINE
  5
5F8
330
567
100
AcDbEntity
  8
0
  6
Continuous
 62
     7
370
    15
100
AcDbLine
 10
2174.487470188797
 20
1206.990090014959
 30
0.0
 11
2173.426810017017
 21
1207.602396098826
 31
0.0
  0
LINE
  5
5F9
330
567
100
AcDbEntity
  8
0
  6
Continuous
 62
     7
370
    15
100
AcDbLine
 10
2173.426810017017
 20
1207.602396098826
 30
0.0
 11
2173.426810017017
 21
1213.726452187968
 31
0.0
  0
LINE
  5
5FA
330
567
100
AcDbEntity
  8
0
  6
Continuous
 62
     7
370
    15
100
AcDbLine
 10
2174.487470188797
 20
1215.563569489664
 30
0.0
 11
2174.823345909861
 21
1215.757466416222
 31
0.0
  0
LINE
  5
5FB
330
567
100
AcDbEntity
  8
0
  6
Continuous
 62
     7
370
    15
100
AcDbLine
 10
2192.536370778584
 20
1216.671920245806
 30
0.0
 11
2192.561525377344
 21
1216.658341705185
 31
0.0
  0
LINE
  5
5FC
330
567
100
AcDbEntity
  8
0
  6
Continuous
 62
     7
370
    15
100
AcDbLine
 10
2192.518693109054
 20
1210.786772565116
 30
0.0
 11
2191.458032937274
 21
1211.399078648983
 31
0.0
  0
LINE
  5
5FD
330
567
100
AcDbEntity
  8
0
  6
Continuous
 62
     7
370
    15
100
AcDbLine
 10
2191.458032937274
 20
1212.950705241661
 30
0.0
 11
2191.458032937274
 21
1211.399078648983
 31
0.0
  0
LINE
  5
5FE
330
567
100
AcDbEntity
  8
0
  6
Continuous
 62
     7
370
    15
100
AcDbLine
 10
2178.473557270347
 20
1212.4755192227
 30
0.0
 11
2175.90168375117
 21
1210.99080824304
 31
0.0
  0
ARC
  5
5FF
330
567
100
AcDbEntity
  8
0
  6
Continuous
 62
     7
370
    15
100
AcDbCircle
 10
2190.69042488659
 20
1211.434009075114
 30
0.0
 40
0.7684024037858958
100
AcDbArc
 50
302.6054783400231
 51
357.3945215143501
  0
LINE
  5
600
330
567
100
AcDbEntity
  8
0
  6
Continuous
 62
     8
370
    15
100
AcDbLine
 10
2175.88400608164
 20
1222.249065395761
 30
0.0
 11
2179.048504239772
 21
1224.075891297368
 31
0.0
  0
LINE
  5
601
330
567
100
AcDbEntity
  8
0
  6
Continuous
 62
     8
370
    15
100
AcDbLine
 10
2186.714776341141
 20
1227.881999887181
 30
0.0
 11
2189.996273286618
 21
1225.987632023311
 31
0.0
  0
LINE
  5
602
330
567
100
AcDbEntity
  8
0
  6
Continuous
 62
     8
370
    15
100
AcDbLine
 10
2176.237616939273
 20
1220.820118974961
 30
0.0
 11
2175.884006081641
 21
1220.61598377199
 31
0.0
  0
LINE
  5
603
330
567
100
AcDbEntity
  8
0
  6
Continuous
 62
     8
370
    15
100
AcDbLine
 10
2184.033411734815
 20
1205.480053488237
 30
0.0
 11
2183.679858348892
 21
1205.684155513497
 31
0.0
  0
LINE
  5
604
330
567
100
AcDbEntity
  8
0
  6
Continuous
 62
     8
370
    15
100
AcDbLine
 10
2192.872246499647
 20
1215.971773545575
 30
0.0
 11
2192.536370778584
 21
1216.165670472133
 31
0.0
  0
LINE
  5
605
330
567
100
AcDbEntity
  8
0
  6
Continuous
 62
     8
370
    15
100
AcDbLine
 10
2192.518693109054
 20
1213.154740919585
 30
0.0
 11
2192.165082251421
 21
1213.358876122557
 31
0.0
  0
LINE
  5
606
330
567
100
AcDbEntity
  8
0
  6
Continuous
 62
     8
370
    15
100
AcDbLine
 10
2176.255237141763
 20
1209.970298103262
 30
0.0
 11
2175.90168375584
 21
1210.174400128522
 31
0.0
  0
ENDBLK
  5
569
330
567
100
AcDbEntity
  8
0
100
AcDbBlockEnd
  0
ENDSEC
  0
SECTION
  2
ENTITIES
  0
INSERT
  5
4D4
330
1F
100
AcDbEntity
  8
0
100
AcDbBlockReference
  2
1
 10
0.0
 20
0.0
 30
0.0
  0
INSERT
  5
510
330
1F
100
AcDbEntity
  8
0
100
AcDbBlockReference
  2
2
 10
0.0
 20
0.0
 30
0.0
  0
INSERT
  5
566
330
1F
100
AcDbEntity
  8
0
100
AcDbBlockReference
  2
3
 10
0.0
 20
0.0
 30
0.0
  0
INSERT
  5
607
330
1F
100
AcDbEntity
  8
0
100
AcDbBlockReference
  2
4
 10
0.0
 20
0.0
 30
0.0
  0
ENDSEC
  0
SECTION
  2
OBJECTS
  0
DICTIONARY
  5
C
330
0
100
AcDbDictionary
281
     1
  3
ACAD_COLOR
350
6B
  3
ACAD_GROUP
350
D
  3
ACAD_LAYOUT
350
1A
  3
ACAD_MATERIAL
350
6A
  3
ACAD_MLEADERSTYLE
350
12D
  3
ACAD_MLINESTYLE
350
17
  3
ACAD_PLOTSETTINGS
350
19
  3
ACAD_PLOTSTYLENAME
350
E
  3
ACAD_SCALELIST
350
10C
  3
ACAD_TABLESTYLE
350
7E
  3
ACAD_VISUALSTYLE
350
EF
  3
ACDB_RECOMPOSE_DATA
350
15D
  3
AcDbVariableDictionary
350
5E
  3
DWGPROPS
350
721
  0
DICTIONARY
  5
13C
330
10
100
AcDbDictionary
280
     1
281
     1
  3
ADSK_XREC_LAYER_RECONCILED
360
608
  0
DICTIONARY
  5
70E
330
48B
100
AcDbDictionary
280
     1
281
     1
  3
ACAD_SORTENTS
360
712
  0
DICTIONARY
  5
6B8
330
4D5
100
AcDbDictionary
280
     1
281
     1
  0
DICTIONARY
  5
6B
102
{ACAD_REACTORS
330
C
102
}
330
C
100
AcDbDictionary
281
     1
  0
DICTIONARY
  5
D
102
{ACAD_REACTORS
330
C
102
}
330
C
100
AcDbDictionary
281
     1
  0
DICTIONARY
  5
1A
102
{ACAD_REACTORS
330
C
102
}
330
C
100
AcDbDictionary
281
     1
  3
Layout1
350
D3
  3
Layout2
350
D7
  3
Model
350
22
  0
DICTIONARY
  5
6A
102
{ACAD_REACTORS
330
C
102
}
330
C
100
AcDbDictionary
281
     1
  3
ByBlock
350
ED
  3
ByLayer
350
EC
  3
Global
350
EE
  0
DICTIONARY
  5
12D
102
{ACAD_REACTORS
330
C
102
}
330
C
100
AcDbDictionary
281
     1
  3
Annotative
350
13B
  3
Standard
350
12E
  0
DICTIONARY
  5
17
102
{ACAD_REACTORS
330
C
102
}
330
C
100
AcDbDictionary
281
     1
  3
Standard
350
18
  0
DICTIONARY
  5
19
102
{ACAD_REACTORS
330
C
102
}
330
C
100
AcDbDictionary
281
     1
  0
ACDBDICTIONARYWDFLT
  5
E
102
{ACAD_REACTORS
330
C
102
}
330
C
100
AcDbDictionary
281
     1
  3
Normal
350
F
100
AcDbDictionaryWithDefault
340
F
  0
DICTIONARY
  5
10C
102
{ACAD_REACTORS
330
C
102
}
330
C
100
AcDbDictionary
281
     1
  3
A0
350
10D
  3
A1
350
188
  3
A2
350
189
  3
A3
350
18A
  3
A4
350
18B
  3
A5
350
18C
  3
A6
350
18D
  3
A7
350
18E
  3
A8
350
18F
  3
A9
350
190
  3
B0
350
191
  3
B1
350
192
  3
B2
350
193
  3
B3
350
194
  3
B4
350
195
  3
B5
350
196
  3
B6
350
197
  3
B7
350
198
  3
B8
350
199
  3
B9
350
19A
  3
C0
350
19B
  3
C1
350
19C
  3
C2
350
19D
  3
C3
350
19E
  3
C4
350
19F
  3
C5
350
1A0
  3
C6
350
1A1
  3
C7
350
1A2
  3
C8
350
1A3
  3
C9
350
1A4
  3
D0
350
1A5
  3
D1
350
1A6
  3
D2
350
1A7
  0
DICTIONARY
  5
7E
102
{ACAD_REACTORS
330
C
102
}
330
C
100
AcDbDictionary
281
     1
  3
Standard
350
7F
  0
DICTIONARY
  5
EF
102
{ACAD_REACTORS
330
C
102
}
330
C
100
AcDbDictionary
281
     1
  3
2dWireframe
350
F5
  3
3D Hidden
350
F7
  3
3dWireframe
350
F6
  3
Basic
350
F4
  3
Brighten
350
FB
  3
ColorChange
350
FF
  3
Conceptual
350
F8
  3
Dim
350
FA
  3
Facepattern
350
FE
  3
Flat
350
F0
  3
FlatWithEdges
350
F1
  3
Gouraud
350
F2
  3
GouraudWithEdges
350
F3
  3
Linepattern
350
FD
  3
Realistic
350
F9
  3
Thicken
350
FC
  0
XRECORD
  5
15D
102
{ACAD_REACTORS
330
C
102
}
330
C
100
AcDbXrecord
280
     1
 90
        1
330
7F
  0
DICTIONARY
  5
5E
102
{ACAD_REACTORS
330
C
102
}
330
C
100
AcDbDictionary
281
     1
  3
CANNOSCALE
350
146
  3
CMLEADERSTYLE
350
145
  3
CTABLESTYLE
350
84
  3
DIMASSOC
350
5F
  3
HIDETEXT
350
63
  3
INDEXCTL
350
71D
  3
LIGHTINGUNITS
350
71B
  3
MSLTSCALE
350
71A
  3
PSOLHEIGHT
350
71F
  3
PSOLWIDTH
350
71E
  3
SORTENTS
350
71C
  0
XRECORD
  5
721
102
{ACAD_REACTORS
330
C
102
}
330
C
100
AcDbXrecord
280
     1
  1
DWGPROPS COOKIE
  2

  3

  4

  6

  7

  8
orhan kara
  9

300
=
301
=
302
=
303
=
304
=
305
=
306
=
307
=
308
=
309
=
 40
0.0056553125
 41
2458536.584541968
 42
2459089.568751227
  1

 90
        0
  0
XRECORD
  5
608
102
{ACAD_REACTORS
330
13C
102
}
330
13C
100
AcDbXrecord
280
     1
290
     1
  0
SORTENTSTABLE
  5
712
102
{ACAD_REACTORS
330
70E
102
}
330
70E
100
AcDbSortentsTable
330
48B
331
6D5
  5
6D5
331
702
  5
703
331
70B
  5
70C
331
6E4
  5
6E4
331
6F5
  5
6F6
331
6D7
  5
6D7
331
704
  5
705
331
70D
  5
711
331
6E6
  5
6E7
331
6F7
  5
6F8
331
6C8
  5
6C8
331
6D9
  5
6D9
331
706
  5
707
331
6E8
  5
6E9
331
6F9
  5
6FA
331
6CA
  5
6CA
331
6DB
  5
6DB
331
711
  5
6E5
331
6EA
  5
6EB
331
6FB
  5
6FC
331
6CC
  5
6CC
331
6DD
  5
6DD
331
6EC
  5
6ED
331
6D0
  5
6D0
331
6FD
  5
6FE
331
6CE
  5
6CE
331
6DF
  5
6DF
331
6F0
  5
6F1
331
6EE
  5
6EF
331
6D2
  5
6D2
331
6FF
  5
700
331
708
  5
709
331
6E1
  5
6E1
331
6F2
  5
6F3
331
6D4
  5
6D4
331
701
  5
702
331
70A
  5
70B
331
6E3
  5
6E3
331
6F4
  5
6F5
331
6D6
  5
6D6
331
703
  5
704
331
70C
  5
70D
331
6E5
  5
6E6
331
6F6
  5
6F7
331
6D8
  5
6D8
331
705
  5
706
331
6E7
  5
6E8
331
6F8
  5
6F9
331
6C9
  5
6C9
331
6DA
  5
6DA
331
707
  5
708
331
6E9
  5
6EA
331
6FA
  5
6FB
331
6CB
  5
6CB
331
6DC
  5
6DC
331
6EB
  5
6EC
331
6FC
  5
6FD
331
6CD
  5
6CD
331
6DE
  5
6DE
331
6ED
  5
6EE
331
6D1
  5
6D1
331
6FE
  5
6FF
331
6CF
  5
6CF
331
6E0
  5
6E0
331
6F1
  5
6F2
331
6EF
  5
6F0
331
6D3
  5
6D3
331
700
  5
701
331
709
  5
70A
331
6E2
  5
6E2
331
6F3
  5
6F4
  0
LAYOUT
  5
D3
102
{ACAD_XDICTIONARY
360
725
102
}
102
{ACAD_REACTORS
330
1A
102
}
330
1A
100
AcDbPlotSettings
  1

  2
C:\Documents and Settings\basas\Application Data\Autodesk\AutoCAD 2005\R16.1\enu\plotters\Default Windows System Printer.pc3
  4

  6

 40
0.0
 41
0.0
 42
0.0
 43
0.0
 44
0.0
 45
0.0
 46
0.0
 47
0.0
 48
0.0
 49
0.0
140
0.0
141
0.0
142
1.0
143
1.0
 70
   688
 72
     0
 73
     0
 74
     5
  7

 75
    16
147
1.0
148
0.0
149
0.0
100
AcDbLayout
  1
Layout1
 70
     1
 71
     1
 10
0.0
 20
0.0
 11
12.0
 21
9.0
 12
0.0
 22
0.0
 32
0.0
 14
0.0
 24
0.0
 34
0.0
 15
0.0
 25
0.0
 35
0.0
146
0.0
 13
0.0
 23
0.0
 33
0.0
 16
1.0
 26
0.0
 36
0.0
 17
0.0
 27
1.0
 37
0.0
 76
     0
330
D2
  0
LAYOUT
  5
D7
102
{ACAD_XDICTIONARY
360
727
102
}
102
{ACAD_REACTORS
330
1A
102
}
330
1A
100
AcDbPlotSettings
  1

  2
C:\Documents and Settings\basas\Application Data\Autodesk\AutoCAD 2005\R16.1\enu\plotters\Default Windows System Printer.pc3
  4

  6

 40
0.0
 41
0.0
 42
0.0
 43
0.0
 44
0.0
 45
0.0
 46
0.0
 47
0.0
 48
0.0
 49
0.0
140
0.0
141
0.0
142
1.0
143
1.0
 70
   688
 72
     0
 73
     0
 74
     5
  7

 75
    16
147
1.0
148
0.0
149
0.0
100
AcDbLayout
  1
Layout2
 70
     1
 71
     2
 10
0.0
 20
0.0
 11
12.0
 21
9.0
 12
0.0
 22
0.0
 32
0.0
 14
0.0
 24
0.0
 34
0.0
 15
0.0
 25
0.0
 35
0.0
146
0.0
 13
0.0
 23
0.0
 33
0.0
 16
1.0
 26
0.0
 36
0.0
 17
0.0
 27
1.0
 37
0.0
 76
     0
330
D6
  0
LAYOUT
  5
22
102
{ACAD_XDICTIONARY
360
722
102
}
102
{ACAD_REACTORS
330
1A
102
}
330
1A
100
AcDbPlotSettings
  1

  2
none_device
  4
ISO_A4_(210.00_x_297.00_MM)
  6

 40
7.5
 41
20.0
 42
7.5
 43
20.0
 44
210.0
 45
297.0
 46
11.54999923706054
 47
-13.65000009536743
 48
0.0
 49
0.0
140
0.0
141
0.0
142
1.0
143
8.704084754739808
 70
 11952
 72
     1
 73
     0
 74
     0
  7

 75
     0
147
0.1148885871608098
148
0.0
149
0.0
100
AcDbLayout
  1
Model
 70
     1
 71
     0
 10
0.0
 20
0.0
 11
12.0
 21
9.0
 12
0.0
 22
0.0
 32
0.0
 14
0.0
 24
0.0
 34
0.0
 15
0.0
 25
0.0
 35
0.0
146
0.0
 13
0.0
 23
0.0
 33
0.0
 16
1.0
 26
0.0
 36
0.0
 17
0.0
 27
1.0
 37
0.0
 76
     0
330
1F
331
EA
1001
ACAD_PSEXT
1000
None
1000
None
1000
Not applicable
1000
The layout will not be plotted unless a new plotter configuration name is selected.
1070
     0
  0
MATERIAL
  5
ED
102
{ACAD_XDICTIONARY
360
72B
102
}
102
{ACAD_REACTORS
330
6A
102
}
330
6A
100
AcDbMaterial
  1
ByBlock
  0
MATERIAL
  5
EC
102
{ACAD_XDICTIONARY
360
729
102
}
102
{ACAD_REACTORS
330
6A
102
}
330
6A
100
AcDbMaterial
  1
ByLayer
  0
MATERIAL
  5
EE
102
{ACAD_XDICTIONARY
360
173
102
}
102
{ACAD_REACTORS
330
6A
102
}
330
6A
100
AcDbMaterial
  1
Global
 43
0.0007999999797903
 43
0.0
 43
0.0
 43
0.0
 43
0.0
 43
0.0007999999797903
 43
0.0
 43
0.0
 43
0.0
 43
0.0
 43
1.0
 43
0.0
 43
0.0
 43
0.0
 43
0.0
 43
1.0
 49
0.0007999999797903
 49
0.0
 49
0.0
 49
0.0
 49
0.0
 49
0.0007999999797903
 49
0.0
 49
0.0
 49
0.0
 49
0.0
 49
1.0
 49
0.0
 49
0.0
 49
0.0
 49
0.0
 49
1.0
142
0.0007999999797903
142
0.0
142
0.0
142
0.0
142
0.0
142
0.0007999999797903
142
0.0
142
0.0
142
0.0
142
0.0
142
1.0
142
0.0
142
0.0
142
0.0
142
0.0
142
1.0
144
0.0007999999797903
144
0.0
144
0.0
144
0.0
144
0.0
144
0.0007999999797903
144
0.0
144
0.0
144
0.0
144
0.0
144
1.0
144
0.0
144
0.0
144
0.0
144
0.0
144
1.0
1001
ACAD
1070
    -1
1070
     3
1070
     0
1000

1071
        0
1070
     0
  0
MLEADERSTYLE
  5
13B
102
{ACAD_REACTORS
330
12D
102
}
330
12D
100
AcDbMLeaderStyle
170
     2
171
     1
172
     0
 90
        2
 40
0.0
 41
0.0
173
     1
 91
-1056964608
340
14
 92
       -2
290
     1
 42
2.0
291
     1
 43
8.0
  3
Standard
 44
4.0
300

342
11
174
     1
178
     1
175
     1
176
     0
 93
-1056964608
 45
4.0
292
     0
297
     0
 46
4.0
 94
-1056964608
 47
1.0
 49
1.0
140
1.0
293
     1
141
0.0
294
     1
177
     0
142
1.0
295
     0
296
     1
143
3.75
1001
ACAD_MLEADERVER
1070
     2
  0
MLEADERSTYLE
  5
12E
102
{ACAD_REACTORS
330
12D
102
}
330
12D
100
AcDbMLeaderStyle
170
     2
171
     1
172
     0
 90
        2
 40
0.0
 41
0.0
173
     1
 91
-1056964608
340
14
 92
       -2
290
     1
 42
2.0
291
     1
 43
8.0
  3
Standard
 44
4.0
300

342
11
174
     1
178
     1
175
     1
176
     0
 93
-1056964608
 45
4.0
292
     0
297
     0
 46
4.0
 94
-1056964608
 47
1.0
 49
1.0
140
1.0
293
     1
141
0.0
294
     1
177
     0
142
1.0
295
     0
296
     0
143
3.75
1001
ACAD_MLEADERVER
1070
     2
  0
MLINESTYLE
  5
18
102
{ACAD_REACTORS
330
17
102
}
330
17
100
AcDbMlineStyle
  2
STANDARD
 70
     0
  3

 62
   256
 51
90.0
 52
90.0
 71
     2
 49
0.5
 62
   256
  6
BYLAYER
 49
-0.5
 62
   256
  6
BYLAYER
  0
ACDBPLACEHOLDER
  5
F
102
{ACAD_REACTORS
330
E
102
}
330
E
  0
SCALE
  5
10D
102
{ACAD_REACTORS
330
10C
102
}
330
10C
100
AcDbScale
 70
     0
300
1:1
140
1.0
141
1.0
290
     1
  0
SCALE
  5
188
102
{ACAD_REACTORS
330
10C
102
}
330
10C
100
AcDbScale
 70
     0
300
1:2
140
1.0
141
2.0
290
     0
  0
SCALE
  5
189
102
{ACAD_REACTORS
330
10C
102
}
330
10C
100
AcDbScale
 70
     0
300
1:4
140
1.0
141
4.0
290
     0
  0
SCALE
  5
18A
102
{ACAD_REACTORS
330
10C
102
}
330
10C
100
AcDbScale
 70
     0
300
1:5
140
1.0
141
5.0
290
     0
  0
SCALE
  5
18B
102
{ACAD_REACTORS
330
10C
102
}
330
10C
100
AcDbScale
 70
     0
300
1:8
140
1.0
141
8.0
290
     0
  0
SCALE
  5
18C
102
{ACAD_REACTORS
330
10C
102
}
330
10C
100
AcDbScale
 70
     0
300
1:10
140
1.0
141
10.0
290
     0
  0
SCALE
  5
18D
102
{ACAD_REACTORS
330
10C
102
}
330
10C
100
AcDbScale
 70
     0
300
1:16
140
1.0
141
16.0
290
     0
  0
SCALE
  5
18E
102
{ACAD_REACTORS
330
10C
102
}
330
10C
100
AcDbScale
 70
     0
300
1:20
140
1.0
141
20.0
290
     0
  0
SCALE
  5
18F
102
{ACAD_REACTORS
330
10C
102
}
330
10C
100
AcDbScale
 70
     0
300
1:30
140
1.0
141
30.0
290
     0
  0
SCALE
  5
190
102
{ACAD_REACTORS
330
10C
102
}
330
10C
100
AcDbScale
 70
     0
300
1:40
140
1.0
141
40.0
290
     0
  0
SCALE
  5
191
102
{ACAD_REACTORS
330
10C
102
}
330
10C
100
AcDbScale
 70
     0
300
1:50
140
1.0
141
50.0
290
     0
  0
SCALE
  5
192
102
{ACAD_REACTORS
330
10C
102
}
330
10C
100
AcDbScale
 70
     0
300
1:100
140
1.0
141
100.0
290
     0
  0
SCALE
  5
193
102
{ACAD_REACTORS
330
10C
102
}
330
10C
100
AcDbScale
 70
     0
300
2:1
140
2.0
141
1.0
290
     0
  0
SCALE
  5
194
102
{ACAD_REACTORS
330
10C
102
}
330
10C
100
AcDbScale
 70
     0
300
4:1
140
4.0
141
1.0
290
     0
  0
SCALE
  5
195
102
{ACAD_REACTORS
330
10C
102
}
330
10C
100
AcDbScale
 70
     0
300
8:1
140
8.0
141
1.0
290
     0
  0
SCALE
  5
196
102
{ACAD_REACTORS
330
10C
102
}
330
10C
100
AcDbScale
 70
     0
300
10:1
140
10.0
141
1.0
290
     0
  0
SCALE
  5
197
102
{ACAD_REACTORS
330
10C
102
}
330
10C
100
AcDbScale
 70
     0
300
100:1
140
100.0
141
1.0
290
     0
  0
SCALE
  5
198
102
{ACAD_REACTORS
330
10C
102
}
330
10C
100
AcDbScale
 70
     0
300
1/128" = 1'-0"
140
0.0078125
141
12.0
290
     0
  0
SCALE
  5
199
102
{ACAD_REACTORS
330
10C
102
}
330
10C
100
AcDbScale
 70
     0
300
1/64" = 1'-0"
140
0.015625
141
12.0
290
     0
  0
SCALE
  5
19A
102
{ACAD_REACTORS
330
10C
102
}
330
10C
100
AcDbScale
 70
     0
300
1/32" = 1'-0"
140
0.03125
141
12.0
290
     0
  0
SCALE
  5
19B
102
{ACAD_REACTORS
330
10C
102
}
330
10C
100
AcDbScale
 70
     0
300
1/16" = 1'-0"
140
0.0625
141
12.0
290
     0
  0
SCALE
  5
19C
102
{ACAD_REACTORS
330
10C
102
}
330
10C
100
AcDbScale
 70
     0
300
3/32" = 1'-0"
140
0.09375
141
12.0
290
     0
  0
SCALE
  5
19D
102
{ACAD_REACTORS
330
10C
102
}
330
10C
100
AcDbScale
 70
     0
300
1/8" = 1'-0"
140
0.125
141
12.0
290
     0
  0
SCALE
  5
19E
102
{ACAD_REACTORS
330
10C
102
}
330
10C
100
AcDbScale
 70
     0
300
3/16" = 1'-0"
140
0.1875
141
12.0
290
     0
  0
SCALE
  5
19F
102
{ACAD_REACTORS
330
10C
102
}
330
10C
100
AcDbScale
 70
     0
300
1/4" = 1'-0"
140
0.25
141
12.0
290
     0
  0
SCALE
  5
1A0
102
{ACAD_REACTORS
330
10C
102
}
330
10C
100
AcDbScale
 70
     0
300
3/8" = 1'-0"
140
0.375
141
12.0
290
     0
  0
SCALE
  5
1A1
102
{ACAD_REACTORS
330
10C
102
}
330
10C
100
AcDbScale
 70
     0
300
1/2" = 1'-0"
140
0.5
141
12.0
290
     0
  0
SCALE
  5
1A2
102
{ACAD_REACTORS
330
10C
102
}
330
10C
100
AcDbScale
 70
     0
300
3/4" = 1'-0"
140
0.75
141
12.0
290
     0
  0
SCALE
  5
1A3
102
{ACAD_REACTORS
330
10C
102
}
330
10C
100
AcDbScale
 70
     0
300
1" = 1'-0"
140
1.0
141
12.0
290
     0
  0
SCALE
  5
1A4
102
{ACAD_REACTORS
330
10C
102
}
330
10C
100
AcDbScale
 70
     0
300
1-1/2" = 1'-0"
140
1.5
141
12.0
290
     0
  0
SCALE
  5
1A5
102
{ACAD_REACTORS
330
10C
102
}
330
10C
100
AcDbScale
 70
     0
300
3" = 1'-0"
140
3.0
141
12.0
290
     0
  0
SCALE
  5
1A6
102
{ACAD_REACTORS
330
10C
102
}
330
10C
100
AcDbScale
 70
     0
300
6" = 1'-0"
140
6.0
141
12.0
290
     0
  0
SCALE
  5
1A7
102
{ACAD_REACTORS
330
10C
102
}
330
10C
100
AcDbScale
 70
     0
300
1'-0" = 1'-0"
140
12.0
141
12.0
290
     0
  0
TABLESTYLE
  5
7F
102
{ACAD_XDICTIONARY
360
162
102
}
102
{ACAD_REACTORS
330
7E
102
}
330
7E
100
AcDbTableStyle
  3
Standard
 70
     0
 71
     0
 40
1.5
 41
1.5
280
     0
281
     0
  7
Standard
140
4.5
170
     2
 62
     0
 63
     7
283
     0
274
    -2
284
     1
 64
     0
275
    -2
285
     1
 65
     0
276
    -2
286
     1
 66
     0
277
    -2
287
     1
 67
     0
278
    -2
288
     1
 68
     0
279
    -2
289
     1
 69
     0
  7
Standard
140
6.0
170
     5
 62
     0
 63
     7
283
     0
274
    -2
284
     1
 64
     0
275
    -2
285
     1
 65
     0
276
    -2
286
     1
 66
     0
277
    -2
287
     1
 67
     0
278
    -2
288
     1
 68
     0
279
    -2
289
     1
 69
     0
  7
Standard
140
4.5
170
     5
 62
     0
 63
     7
283
     0
274
    -2
284
     1
 64
     0
275
    -2
285
     1
 65
     0
276
    -2
286
     1
 66
     0
277
    -2
287
     1
 67
     0
278
    -2
288
     1
 68
     0
279
    -2
289
     1
 69
     0
  0
VISUALSTYLE
  5
F5
102
{ACAD_REACTORS
330
EF
102
}
330
EF
100
AcDbVisualStyle
  2
2dWireframe
 70
     4
 71
     0
 72
     2
 73
     1
 90
        0
 40
-0.6
 41
-30.0
 62
     5
 63
     7
 74
     1
 91
        4
 64
     7
 65
   257
 75
     1
175
     1
 42
1.0
 92
        0
 66
   257
 43
1.0
 76
     1
 77
     6
 78
     2
 67
     7
 79
     5
170
     0
171
     0
290
     0
174
     0
 93
        1
 44
0.0
173
     0
291
     0
 45
0.0
1001
ACAD
1000
AcDbSavedByObjectVersion
1070
     0
  0
VISUALSTYLE
  5
F7
102
{ACAD_REACTORS
330
EF
102
}
330
EF
100
AcDbVisualStyle
  2
3D Hidden
 70
     6
 71
     1
 72
     2
 73
     2
 90
        0
 40
-0.6
 41
-30.0
 62
     5
 63
     7
 74
     2
 91
        2
 64
     7
 65
   257
 75
     2
175
     1
 42
40.0
 92
        0
 66
   257
 43
1.0
 76
     1
 77
     6
 78
     2
 67
     7
 79
     3
170
     0
171
     0
290
     0
174
     0
 93
        1
 44
0.0
173
     0
291
     0
 45
0.0
1001
ACAD
1000
AcDbSavedByObjectVersion
1070
     0
  0
VISUALSTYLE
  5
F6
102
{ACAD_REACTORS
330
EF
102
}
330
EF
100
AcDbVisualStyle
  2
3dWireframe
 70
     5
 71
     0
 72
     2
 73
     1
 90
        0
 40
-0.6
 41
-30.0
 62
     5
 63
     7
 74
     1
 91
        4
 64
     7
 65
   257
 75
     1
175
     1
 42
1.0
 92
        0
 66
   257
 43
1.0
 76
     1
 77
     6
 78
     2
 67
     7
 79
     5
170
     0
171
     0
290
     0
174
     0
 93
        1
 44
0.0
173
     0
291
     0
 45
0.0
1001
ACAD
1000
AcDbSavedByObjectVersion
1070
     0
  0
VISUALSTYLE
  5
F4
102
{ACAD_REACTORS
330
EF
102
}
330
EF
100
AcDbVisualStyle
  2
Basic
 70
     7
 71
     1
 72
     0
 73
     1
 90
        0
 40
-0.6
 41
-30.0
 62
     5
 63
     7
 74
     0
 91
        4
 64
     7
 65
   257
 75
     1
175
     1
 42
1.0
 92
        8
 66
     7
 43
1.0
 76
     1
 77
     6
 78
     2
 67
     7
 79
     5
170
     0
171
     0
290
     0
174
     0
 93
        1
 44
0.0
173
     0
291
     1
 45
0.0
1001
ACAD
1000
AcDbSavedByObjectVersion
1070
     0
  0
VISUALSTYLE
  5
FB
102
{ACAD_REACTORS
330
EF
102
}
330
EF
100
AcDbVisualStyle
  2
Brighten
 70
    12
 71
     2
 72
     2
 73
     1
 90
        0
 40
-0.6
 41
-30.0
 62
     5
 63
     7
 74
     1
 91
        4
 64
     7
 65
   257
 75
     1
175
     1
 42
1.0
 92
        8
 66
     7
 43
1.0
 76
     1
 77
     6
 78
     2
 67
     7
 79
     5
170
     0
171
     0
290
     0
174
     0
 93
        1
 44
50.0
173
     0
291
     1
 45
0.0
1001
ACAD
1000
AcDbSavedByObjectVersion
1070
     0
  0
VISUALSTYLE
  5
FF
102
{ACAD_REACTORS
330
EF
102
}
330
EF
100
AcDbVisualStyle
  2
ColorChange
 70
    16
 71
     2
 72
     2
 73
     3
 90
        0
 40
-0.6
 41
-30.0
 62
     5
 63
     8
 74
     1
 91
        4
 64
     7
 65
   257
 75
     1
175
     1
 42
1.0
 92
        8
 66
     8
 43
1.0
 76
     1
 77
     6
 78
     2
 67
     7
 79
     5
170
     0
171
     0
290
     0
174
     0
 93
        1
 44
0.0
173
     0
291
     1
 45
0.0
1001
ACAD
1000
AcDbSavedByObjectVersion
1070
     0
  0
VISUALSTYLE
  5
F8
102
{ACAD_REACTORS
330
EF
102
}
330
EF
100
AcDbVisualStyle
  2
Conceptual
 70
     9
 71
     3
 72
     2
 73
     1
 90
        0
 40
-0.6
 41
-30.0
 62
     5
 63
     7
 74
     2
 91
        2
 64
     7
 65
   257
 75
     1
175
     1
 42
40.0
 92
        8
 66
     7
 43
1.0
 76
     1
 77
     6
 78
     2
 67
     7
 79
     3
170
     0
171
     0
290
     0
174
     0
 93
        1
 44
0.0
173
     0
291
     0
 45
0.0
1001
ACAD
1000
AcDbSavedByObjectVersion
1070
     0
  0
VISUALSTYLE
  5
FA
102
{ACAD_REACTORS
330
EF
102
}
330
EF
100
AcDbVisualStyle
  2
Dim
 70
    11
 71
     2
 72
     2
 73
     1
 90
        0
 40
-0.6
 41
-30.0
 62
     5
 63
     7
 74
     1
 91
        4
 64
     7
 65
   257
 75
     1
175
     1
 42
1.0
 92
        8
 66
     7
 43
1.0
 76
     1
 77
     6
 78
     2
 67
     7
 79
     5
170
     0
171
     0
290
     0
174
     0
 93
        1
 44
-50.0
173
     0
291
     1
 45
0.0
1001
ACAD
1000
AcDbSavedByObjectVersion
1070
     0
  0
VISUALSTYLE
  5
FE
102
{ACAD_REACTORS
330
EF
102
}
330
EF
100
AcDbVisualStyle
  2
Facepattern
 70
    15
 71
     2
 72
     2
 73
     1
 90
        0
 40
-0.6
 41
-30.0
 62
     5
 63
     7
 74
     1
 91
        4
 64
     7
 65
   257
 75
     1
175
     1
 42
1.0
 92
        8
 66
     7
 43
1.0
 76
     1
 77
     6
 78
     2
 67
     7
 79
     5
170
     0
171
     0
290
     0
174
     0
 93
        1
 44
0.0
173
     0
291
     1
 45
0.0
1001
ACAD
1000
AcDbSavedByObjectVersion
1070
     0
  0
VISUALSTYLE
  5
F0
102
{ACAD_REACTORS
330
EF
102
}
330
EF
100
AcDbVisualStyle
  2
Flat
 70
     0
 71
     2
 72
     1
 73
     1
 90
        2
 40
-0.6
 41
30.0
 62
     5
 63
     7
 74
     0
 91
        4
 64
     7
 65
   257
 75
     1
175
     1
 42
1.0
 92
        8
 66
     7
 43
1.0
 76
     1
 77
     6
 78
     2
 67
     7
 79
     5
170
     0
171
     0
290
     0
174
     0
 93
        1
 44
0.0
173
     0
291
     1
 45
0.0
1001
ACAD
1000
AcDbSavedByObjectVersion
1070
     0
  0
VISUALSTYLE
  5
F1
102
{ACAD_REACTORS
330
EF
102
}
330
EF
100
AcDbVisualStyle
  2
FlatWithEdges
 70
     1
 71
     2
 72
     1
 73
     1
 90
        2
 40
-0.6
 41
30.0
 62
     5
 63
     7
 74
     1
 91
        4
 64
     7
 65
   257
 75
     1
175
     1
 42
1.0
 92
        0
 66
   257
 43
1.0
 76
     1
 77
     6
 78
     2
 67
     7
 79
     5
170
     0
171
     0
290
     0
174
     0
 93
        1
 44
0.0
173
     0
291
     1
 45
0.0
1001
ACAD
1000
AcDbSavedByObjectVersion
1070
     0
  0
VISUALSTYLE
  5
F2
102
{ACAD_REACTORS
330
EF
102
}
330
EF
100
AcDbVisualStyle
  2
Gouraud
 70
     2
 71
     2
 72
     2
 73
     1
 90
        2
 40
-0.6
 41
30.0
 62
     5
 63
     7
 74
     0
 91
        4
 64
     7
 65
   257
 75
     1
175
     1
 42
1.0
 92
        0
 66
     7
 43
1.0
 76
     1
 77
     6
 78
     2
 67
     7
 79
     5
170
     0
171
     0
290
     0
174
     0
 93
        1
 44
0.0
173
     0
291
     1
 45
0.0
1001
ACAD
1000
AcDbSavedByObjectVersion
1070
     0
  0
VISUALSTYLE
  5
F3
102
{ACAD_REACTORS
330
EF
102
}
330
EF
100
AcDbVisualStyle
  2
GouraudWithEdges
 70
     3
 71
     2
 72
     2
 73
     1
 90
        2
 40
-0.6
 41
30.0
 62
     5
 63
     7
 74
     1
 91
        4
 64
     7
 65
   257
 75
     1
175
     1
 42
1.0
 92
        0
 66
   257
 43
1.0
 76
     1
 77
     6
 78
     2
 67
     7
 79
     5
170
     0
171
     0
290
     0
174
     0
 93
        1
 44
0.0
173
     0
291
     1
 45
0.0
1001
ACAD
1000
AcDbSavedByObjectVersion
1070
     0
  0
VISUALSTYLE
  5
FD
102
{ACAD_REACTORS
330
EF
102
}
330
EF
100
AcDbVisualStyle
  2
Linepattern
 70
    14
 71
     2
 72
     2
 73
     1
 90
        0
 40
-0.6
 41
-30.0
 62
     5
 63
     7
 74
     1
 91
        4
 64
     7
 65
   257
 75
     7
175
     7
 42
1.0
 92
        8
 66
     7
 43
1.0
 76
     1
 77
     6
 78
     2
 67
     7
 79
     5
170
     0
171
     0
290
     0
174
     0
 93
        1
 44
0.0
173
     0
291
     1
 45
0.0
1001
ACAD
1000
AcDbSavedByObjectVersion
1070
     0
  0
VISUALSTYLE
  5
F9
102
{ACAD_REACTORS
330
EF
102
}
330
EF
100
AcDbVisualStyle
  2
Realistic
 70
     8
 71
     2
 72
     2
 73
     1
 90
        0
 40
-0.6
 41
-30.0
 62
     5
 63
     7
 74
     1
 91
        0
 64
     7
 65
   257
 75
     1
175
     1
 42
1.0
 92
        8
 66
     8
 43
1.0
 76
     1
 77
     6
 78
     2
 67
     7
 79
     5
170
     0
171
     0
290
     0
174
     0
 93
       13
 44
0.0
173
     0
291
     0
 45
0.0
1001
ACAD
1000
AcDbSavedByObjectVersion
1070
     0
  0
VISUALSTYLE
  5
FC
102
{ACAD_REACTORS
330
EF
102
}
330
EF
100
AcDbVisualStyle
  2
Thicken
 70
    13
 71
     2
 72
     2
 73
     1
 90
        0
 40
-0.6
 41
-30.0
 62
     5
 63
     7
 74
     1
 91
        4
 64
     7
 65
   257
 75
     1
175
     1
 42
1.0
 92
       12
 66
     7
 43
1.0
 76
     1
 77
     6
 78
     2
 67
     7
 79
     5
170
     0
171
     0
290
     0
174
     0
 93
        1
 44
0.0
173
     0
291
     1
 45
0.0
1001
ACAD
1000
AcDbSavedByObjectVersion
1070
     0
  0
DICTIONARYVAR
  5
146
102
{ACAD_REACTORS
330
5E
102
}
330
5E
100
DictionaryVariables
280
     0
  1
1:1
  0
DICTIONARYVAR
  5
145
102
{ACAD_REACTORS
330
5E
102
}
330
5E
100
DictionaryVariables
280
     0
  1
STANDARD
  0
DICTIONARYVAR
  5
84
102
{ACAD_REACTORS
330
5E
102
}
330
5E
100
DictionaryVariables
280
     0
  1
STANDARD
  0
DICTIONARYVAR
  5
5F
102
{ACAD_REACTORS
330
5E
102
}
330
5E
100
DictionaryVariables
280
     0
  1
2
  0
DICTIONARYVAR
  5
63
102
{ACAD_REACTORS
330
5E
102
}
330
5E
100
DictionaryVariables
280
     0
  1
1
  0
DICTIONARYVAR
  5
71D
102
{ACAD_REACTORS
330
5E
102
}
330
5E
100
DictionaryVariables
280
     0
  1
0
  0
DICTIONARYVAR
  5
71B
102
{ACAD_REACTORS
330
5E
102
}
330
5E
100
DictionaryVariables
280
     0
  1
2
  0
DICTIONARYVAR
  5
71A
102
{ACAD_REACTORS
330
5E
102
}
330
5E
100
DictionaryVariables
280
     0
  1
1
  0
DICTIONARYVAR
  5
71F
102
{ACAD_REACTORS
330
5E
102
}
330
5E
100
DictionaryVariables
280
     0
  1
80.000000
  0
DICTIONARYVAR
  5
71E
102
{ACAD_REACTORS
330
5E
102
}
330
5E
100
DictionaryVariables
280
     0
  1
5.000000
  0
DICTIONARYVAR
  5
71C
102
{ACAD_REACTORS
330
5E
102
}
330
5E
100
DictionaryVariables
280
     0
  1
127
  0
DICTIONARY
  5
725
330
D3
100
AcDbDictionary
280
     1
281
     1
  3
ACAD_XREC_ROUNDTRIP
360
726
  0
DICTIONARY
  5
727
330
D7
100
AcDbDictionary
280
     1
281
     1
  3
ACAD_XREC_ROUNDTRIP
360
728
  0
DICTIONARY
  5
722
330
22
100
AcDbDictionary
280
     1
281
     1
  3
ACAD_XREC_ROUNDTRIP
360
723
  0
DICTIONARY
  5
72B
330
ED
100
AcDbDictionary
280
     1
281
     1
  3
ACAD_XREC_ROUNDTRIP
360
72C
  0
DICTIONARY
  5
729
330
EC
100
AcDbDictionary
280
     1
281
     1
  3
ACAD_XREC_ROUNDTRIP
360
72A
  0
DICTIONARY
  5
173
330
EE
100
AcDbDictionary
280
     1
281
     1
  3
ACAD_XREC_ROUNDTRIP
360
72D
  3
BUMPTILE
360
175
  3
DIFFUSETILE
360
174
  3
OPACITYTILE
360
176
  3
REFLECTIONTILE
360
177
  0
DICTIONARY
  5
162
330
7F
100
AcDbDictionary
280
     1
281
     1
  3
ACAD_ROUNDTRIP_2008_TABLESTYLE_CELLSTYLEMAP
360
720
  3
ACAD_XREC_ROUNDTRIP
360
724
  0
XRECORD
  5
726
102
{ACAD_REACTORS
330
725
102
}
330
725
100
AcDbXrecord
280
     1
102
SHADEPLOT
 70
     0
102
SHADEPLOTRESLEVEL
 70
     2
102
SHADEPLOTCUSTOMDPI
 70
   300
  0
XRECORD
  5
728
102
{ACAD_REACTORS
330
727
102
}
330
727
100
AcDbXrecord
280
     1
102
SHADEPLOT
 70
     0
102
SHADEPLOTRESLEVEL
 70
     2
102
SHADEPLOTCUSTOMDPI
 70
   300
  0
XRECORD
  5
723
102
{ACAD_REACTORS
330
722
102
}
330
722
100
AcDbXrecord
280
     1
102
SHADEPLOT
 70
     0
102
SHADEPLOTRESLEVEL
 70
     2
102
SHADEPLOTCUSTOMDPI
 70
   300
  0
XRECORD
  5
72C
102
{ACAD_REACTORS
330
72B
102
}
330
72B
100
AcDbXrecord
280
     1
102
MATERIAL
148
0.0
149
0.0
149
0.0
 93
        0
 94
       63
282
     0
 72
     1
 77
     1
171
     1
175
     1
179
     1
273
     0
  0
XRECORD
  5
72A
102
{ACAD_REACTORS
330
729
102
}
330
729
100
AcDbXrecord
280
     1
102
MATERIAL
148
0.0
149
0.0
149
0.0
 93
        0
 94
       63
282
     0
 72
     1
 77
     1
171
     1
175
     1
179
     1
273
     0
  0
XRECORD
  5
72D
102
{ACAD_REACTORS
330
173
102
}
330
173
100
AcDbXrecord
280
     1
102
MATERIAL
148
0.0
149
0.0
149
0.0
 93
        0
 94
       63
282
     0
 72
     1
 77
     1
171
     1
175
     1
179
     1
273
     0
  0
XRECORD
  5
175
102
{ACAD_REACTORS
330
173
102
}
330
173
100
AcDbXrecord
280
     1
270
     1
271
     1
  0
XRECORD
  5
174
102
{ACAD_REACTORS
330
173
102
}
330
173
100
AcDbXrecord
280
     1
270
     1
271
     1
  0
XRECORD
  5
176
102
{ACAD_REACTORS
330
173
102
}
330
173
100
AcDbXrecord
280
     1
270
     1
271
     1
  0
XRECORD
  5
177
102
{ACAD_REACTORS
330
173
102
}
330
173
100
AcDbXrecord
280
     1
270
     1
271
     1
  0
CELLSTYLEMAP
  5
720
102
{ACAD_REACTORS
330
162
102
}
330
162
100
AcDbCellStyleMap
 90
        3
300
CELLSTYLE
  1
TABLEFORMAT_BEGIN
 90
        5
170
     1
 91
        0
 92
    32768
 62
   257
 93
        1
300
CONTENTFORMAT
  1
CONTENTFORMAT_BEGIN
 90
        0
 91
        0
 92
      512
 93
        0
300

 40
0.0
140
1.0
 94
        5
 62
     0
340
11
144
6.0
309
CONTENTFORMAT_END
171
     1
301
MARGIN
  1
CELLMARGIN_BEGIN
 40
1.5
 40
1.5
 40
1.5
 40
1.5
 40
4.5
 40
4.5
309
CELLMARGIN_END
 94
        6
 95
        1
302
GRIDFORMAT
  1
GRIDFORMAT_BEGIN
 90
        0
 91
        1
 62
     0
 92
       -2
340
14
 93
        0
 40
1.125
309
GRIDFORMAT_END
 95
        2
302
GRIDFORMAT
  1
GRIDFORMAT_BEGIN
 90
        0
 91
        1
 62
     0
 92
       -2
340
14
 93
        0
 40
1.125
309
GRIDFORMAT_END
 95
        4
302
GRIDFORMAT
  1
GRIDFORMAT_BEGIN
 90
        0
 91
        1
 62
     0
 92
       -2
340
14
 93
        0
 40
1.125
309
GRIDFORMAT_END
 95
        8
302
GRIDFORMAT
  1
GRIDFORMAT_BEGIN
 90
        0
 91
        1
 62
     0
 92
       -2
340
14
 93
        0
 40
1.125
309
GRIDFORMAT_END
 95
       16
302
GRIDFORMAT
  1
GRIDFORMAT_BEGIN
 90
        0
 91
        1
 62
     0
 92
       -2
340
14
 93
        0
 40
1.125
309
GRIDFORMAT_END
 95
       32
302
GRIDFORMAT
  1
GRIDFORMAT_BEGIN
 90
        0
 91
        1
 62
     0
 92
       -2
340
14
 93
        0
 40
1.125
309
GRIDFORMAT_END
309
TABLEFORMAT_END
  1
CELLSTYLE_BEGIN
 90
        1
 91
        1
300
_TITLE
309
CELLSTYLE_END
300
CELLSTYLE
  1
TABLEFORMAT_BEGIN
 90
        5
170
     1
 91
        0
 92
        0
 62
   257
 93
        1
300
CONTENTFORMAT
  1
CONTENTFORMAT_BEGIN
 90
        0
 91
        0
 92
      512
 93
        0
300

 40
0.0
140
1.0
 94
        5
 62
     0
340
11
144
4.5
309
CONTENTFORMAT_END
171
     1
301
MARGIN
  1
CELLMARGIN_BEGIN
 40
1.5
 40
1.5
 40
1.5
 40
1.5
 40
4.5
 40
4.5
309
CELLMARGIN_END
 94
        6
 95
        1
302
GRIDFORMAT
  1
GRIDFORMAT_BEGIN
 90
        0
 91
        1
 62
     0
 92
       -2
340
14
 93
        0
 40
1.125
309
GRIDFORMAT_END
 95
        2
302
GRIDFORMAT
  1
GRIDFORMAT_BEGIN
 90
        0
 91
        1
 62
     0
 92
       -2
340
14
 93
        0
 40
1.125
309
GRIDFORMAT_END
 95
        4
302
GRIDFORMAT
  1
GRIDFORMAT_BEGIN
 90
        0
 91
        1
 62
     0
 92
       -2
340
14
 93
        0
 40
1.125
309
GRIDFORMAT_END
 95
        8
302
GRIDFORMAT
  1
GRIDFORMAT_BEGIN
 90
        0
 91
        1
 62
     0
 92
       -2
340
14
 93
        0
 40
1.125
309
GRIDFORMAT_END
 95
       16
302
GRIDFORMAT
  1
GRIDFORMAT_BEGIN
 90
        0
 91
        1
 62
     0
 92
       -2
340
14
 93
        0
 40
1.125
309
GRIDFORMAT_END
 95
       32
302
GRIDFORMAT
  1
GRIDFORMAT_BEGIN
 90
        0
 91
        1
 62
     0
 92
       -2
340
14
 93
        0
 40
1.125
309
GRIDFORMAT_END
309
TABLEFORMAT_END
  1
CELLSTYLE_BEGIN
 90
        2
 91
        1
300
_HEADER
309
CELLSTYLE_END
300
CELLSTYLE
  1
TABLEFORMAT_BEGIN
 90
        5
170
     1
 91
        0
 92
        0
 62
   257
 93
        1
300
CONTENTFORMAT
  1
CONTENTFORMAT_BEGIN
 90
        0
 91
        0
 92
      512
 93
        0
300

 40
0.0
140
1.0
 94
        2
 62
     0
340
11
144
4.5
309
CONTENTFORMAT_END
171
     1
301
MARGIN
  1
CELLMARGIN_BEGIN
 40
1.5
 40
1.5
 40
1.5
 40
1.5
 40
4.5
 40
4.5
309
CELLMARGIN_END
 94
        6
 95
        1
302
GRIDFORMAT
  1
GRIDFORMAT_BEGIN
 90
        0
 91
        1
 62
     0
 92
       -2
340
14
 93
        0
 40
1.125
309
GRIDFORMAT_END
 95
        2
302
GRIDFORMAT
  1
GRIDFORMAT_BEGIN
 90
        0
 91
        1
 62
     0
 92
       -2
340
14
 93
        0
 40
1.125
309
GRIDFORMAT_END
 95
        4
302
GRIDFORMAT
  1
GRIDFORMAT_BEGIN
 90
        0
 91
        1
 62
     0
 92
       -2
340
14
 93
        0
 40
1.125
309
GRIDFORMAT_END
 95
        8
302
GRIDFORMAT
  1
GRIDFORMAT_BEGIN
 90
        0
 91
        1
 62
     0
 92
       -2
340
14
 93
        0
 40
1.125
309
GRIDFORMAT_END
 95
       16
302
GRIDFORMAT
  1
GRIDFORMAT_BEGIN
 90
        0
 91
        1
 62
     0
 92
       -2
340
14
 93
        0
 40
1.125
309
GRIDFORMAT_END
 95
       32
302
GRIDFORMAT
  1
GRIDFORMAT_BEGIN
 90
        0
 91
        1
 62
     0
 92
       -2
340
14
 93
        0
 40
1.125
309
GRIDFORMAT_END
309
TABLEFORMAT_END
  1
CELLSTYLE_BEGIN
 90
        3
 91
        2
300
_DATA
309
CELLSTYLE_END
  0
XRECORD
  5
724
102
{ACAD_REACTORS
330
162
102
}
330
162
100
AcDbXrecord
280
     1
102
ACAD_ROUNDTRIP_PRE2007_TABLESTYLE
 90
      512
 91
        0
  1

 92
      512
 93
        0
  2

 94
      512
 95
        0
  3

  0
ENDSEC
  0
EOF
