  0
SECTION
  2
HEADER
  9
$ACADVER
  1
AC1015
  9
$ACADMAINTVER
 70
    20
  9
$DWGCODEPAGE
  3
ANSI_1254
  9
$INSBASE
 10
0.0
 20
0.0
 30
0.0
  9
$EXTMIN
 10
1598.212546565653
 20
1743.983443600992
 30
0.0
  9
$EXTMAX
 10
1668.544584972034
 20
1795.536469670593
 30
0.0
  9
$LIMMIN
 10
0.0
 20
0.0
  9
$LIMMAX
 10
420.0
 20
297.0
  9
$ORTHOMODE
 70
     1
  9
$REGENMODE
 70
     1
  9
$FILLMODE
 70
     1
  9
$QTEXTMODE
 70
     0
  9
$MIRRTEXT
 70
     0
  9
$LTSCALE
 40
1.0
  9
$ATTMODE
 70
     1
  9
$TEXTSIZE
 40
2.5
  9
$TRACEWID
 40
1.0
  9
$TEXTSTYLE
  7
Standard
  9
$CLAYER
  8
0
  9
$CELTYPE
  6
ByLayer
  9
$CECOLOR
 62
   256
  9
$CELTSCALE
 40
1.0
  9
$DISPSILH
 70
     0
  9
$DIMSCALE
 40
1.0
  9
$DIMASZ
 40
2.5
  9
$DIMEXO
 40
0.625
  9
$DIMDLI
 40
3.75
  9
$DIMRND
 40
0.0
  9
$DIMDLE
 40
0.0
  9
$DIMEXE
 40
1.25
  9
$DIMTP
 40
0.0
  9
$DIMTM
 40
0.0
  9
$DIMTXT
 40
2.5
  9
$DIMCEN
 40
2.5
  9
$DIMTSZ
 40
0.0
  9
$DIMTOL
 70
     0
  9
$DIMLIM
 70
     0
  9
$DIMTIH
 70
     0
  9
$DIMTOH
 70
     0
  9
$DIMSE1
 70
     0
  9
$DIMSE2
 70
     0
  9
$DIMTAD
 70
     1
  9
$DIMZIN
 70
     8
  9
$DIMBLK
  1

  9
$DIMASO
 70
     1
  9
$DIMSHO
 70
     1
  9
$DIMPOST
  1

  9
$DIMAPOST
  1

  9
$DIMALT
 70
     0
  9
$DIMALTD
 70
     3
  9
$DIMALTF
 40
0.03937007874016
  9
$DIMLFAC
 40
1.0
  9
$DIMTOFL
 70
     1
  9
$DIMTVP
 40
0.0
  9
$DIMTIX
 70
     0
  9
$DIMSOXD
 70
     0
  9
$DIMSAH
 70
     0
  9
$DIMBLK1
  1

  9
$DIMBLK2
  1

  9
$DIMSTYLE
  2
ISO-25
  9
$DIMCLRD
 70
     0
  9
$DIMCLRE
 70
     0
  9
$DIMCLRT
 70
     0
  9
$DIMTFAC
 40
1.0
  9
$DIMGAP
 40
0.625
  9
$DIMJUST
 70
     0
  9
$DIMSD1
 70
     0
  9
$DIMSD2
 70
     0
  9
$DIMTOLJ
 70
     0
  9
$DIMTZIN
 70
     8
  9
$DIMALTZ
 70
     0
  9
$DIMALTTZ
 70
     0
  9
$DIMUPT
 70
     0
  9
$DIMDEC
 70
     2
  9
$DIMTDEC
 70
     2
  9
$DIMALTU
 70
     2
  9
$DIMALTTD
 70
     3
  9
$DIMTXSTY
  7
Standard
  9
$DIMAUNIT
 70
     0
  9
$DIMADEC
 70
     0
  9
$DIMALTRND
 40
0.0
  9
$DIMAZIN
 70
     0
  9
$DIMDSEP
 70
    44
  9
$DIMATFIT
 70
     3
  9
$DIMFRAC
 70
     0
  9
$DIMLDRBLK
  1

  9
$DIMLUNIT
 70
     2
  9
$DIMLWD
 70
    -2
  9
$DIMLWE
 70
    -2
  9
$DIMTMOVE
 70
     0
  9
$LUNITS
 70
     2
  9
$LUPREC
 70
     4
  9
$SKETCHINC
 40
1.0
  9
$FILLETRAD
 40
0.0
  9
$AUNITS
 70
     0
  9
$AUPREC
 70
     0
  9
$MENU
  1
.
  9
$ELEVATION
 40
0.0
  9
$PELEVATION
 40
0.0
  9
$THICKNESS
 40
0.0
  9
$LIMCHECK
 70
     0
  9
$CHAMFERA
 40
0.0
  9
$CHAMFERB
 40
0.0
  9
$CHAMFERC
 40
0.0
  9
$CHAMFERD
 40
0.0
  9
$SKPOLY
 70
     0
  9
$TDCREATE
 40
2458480.452266227
  9
$TDUCREATE
 40
2458480.327266227
  9
$TDUPDATE
 40
2459089.568551898
  9
$TDUUPDATE
 40
2459089.443551898
  9
$TDINDWG
 40
0.0025179745
  9
$TDUSRTIMER
 40
0.0025179745
  9
$USRTIMER
 70
     1
  9
$ANGBASE
 50
0.0
  9
$ANGDIR
 70
     0
  9
$PDMODE
 70
     0
  9
$PDSIZE
 40
0.0
  9
$PLINEWID
 40
0.0
  9
$SPLFRAME
 70
     0
  9
$SPLINETYPE
 70
     6
  9
$SPLINESEGS
 70
     8
  9
$HANDSEED
  5
691
  9
$SURFTAB1
 70
     6
  9
$SURFTAB2
 70
     6
  9
$SURFTYPE
 70
     6
  9
$SURFU
 70
     6
  9
$SURFV
 70
     6
  9
$UCSBASE
  2

  9
$UCSNAME
  2

  9
$UCSORG
 10
0.0
 20
0.0
 30
0.0
  9
$UCSXDIR
 10
1.0
 20
0.0
 30
0.0
  9
$UCSYDIR
 10
0.0
 20
1.0
 30
0.0
  9
$UCSORTHOREF
  2

  9
$UCSORTHOVIEW
 70
     0
  9
$UCSORGTOP
 10
0.0
 20
0.0
 30
0.0
  9
$UCSORGBOTTOM
 10
0.0
 20
0.0
 30
0.0
  9
$UCSORGLEFT
 10
0.0
 20
0.0
 30
0.0
  9
$UCSORGRIGHT
 10
0.0
 20
0.0
 30
0.0
  9
$UCSORGFRONT
 10
0.0
 20
0.0
 30
0.0
  9
$UCSORGBACK
 10
0.0
 20
0.0
 30
0.0
  9
$PUCSBASE
  2

  9
$PUCSNAME
  2

  9
$PUCSORG
 10
0.0
 20
0.0
 30
0.0
  9
$PUCSXDIR
 10
1.0
 20
0.0
 30
0.0
  9
$PUCSYDIR
 10
0.0
 20
1.0
 30
0.0
  9
$PUCSORTHOREF
  2

  9
$PUCSORTHOVIEW
 70
     0
  9
$PUCSORGTOP
 10
0.0
 20
0.0
 30
0.0
  9
$PUCSORGBOTTOM
 10
0.0
 20
0.0
 30
0.0
  9
$PUCSORGLEFT
 10
0.0
 20
0.0
 30
0.0
  9
$PUCSORGRIGHT
 10
0.0
 20
0.0
 30
0.0
  9
$PUCSORGFRONT
 10
0.0
 20
0.0
 30
0.0
  9
$PUCSORGBACK
 10
0.0
 20
0.0
 30
0.0
  9
$USERI1
 70
     0
  9
$USERI2
 70
     0
  9
$USERI3
 70
     0
  9
$USERI4
 70
     0
  9
$USERI5
 70
     0
  9
$USERR1
 40
0.0
  9
$USERR2
 40
0.0
  9
$USERR3
 40
0.0
  9
$USERR4
 40
0.0
  9
$USERR5
 40
0.0
  9
$WORLDVIEW
 70
     1
  9
$SHADEDGE
 70
     3
  9
$SHADEDIF
 70
    70
  9
$TILEMODE
 70
     1
  9
$MAXACTVP
 70
    64
  9
$PINSBASE
 10
0.0
 20
0.0
 30
0.0
  9
$PLIMCHECK
 70
     0
  9
$PEXTMIN
 10
0.0
 20
0.0
 30
0.0
  9
$PEXTMAX
 10
0.0
 20
0.0
 30
0.0
  9
$PLIMMIN
 10
0.0
 20
0.0
  9
$PLIMMAX
 10
12.0
 20
9.0
  9
$UNITMODE
 70
     0
  9
$VISRETAIN
 70
     1
  9
$PLINEGEN
 70
     0
  9
$PSLTSCALE
 70
     1
  9
$TREEDEPTH
 70
  3020
  9
$CMLSTYLE
  2
Standard
  9
$CMLJUST
 70
     0
  9
$CMLSCALE
 40
20.0
  9
$PROXYGRAPHICS
 70
     1
  9
$MEASUREMENT
 70
     1
  9
$CELWEIGHT
370
    -1
  9
$ENDCAPS
280
     0
  9
$JOINSTYLE
280
     0
  9
$LWDISPLAY
290
     0
  9
$INSUNITS
 70
     4
  9
$HYPERLINKBASE
  1

  9
$STYLESHEET
  1

  9
$XEDIT
290
     1
  9
$CEPSNTYPE
380
     0
  9
$PSTYLEMODE
290
     1
  9
$FINGERPRINTGUID
  2
{26F49695-DF34-49EE-A89F-58AD8B9EEDDE}
  9
$VERSIONGUID
  2
{71ED937B-EC88-440C-A9A3-AF4CB068415D}
  9
$EXTNAMES
290
     1
  9
$PSVPSCALE
 40
0.0
  9
$OLESTARTUP
290
     0
  0
ENDSEC
  0
SECTION
  2
CLASSES
  0
CLASS
  1
ACDBDICTIONARYWDFLT
  2
AcDbDictionaryWithDefault
  3
ObjectDBX Classes
 90
        0
280
     0
281
     0
  0
CLASS
  1
ACDBPLACEHOLDER
  2
AcDbPlaceHolder
  3
ObjectDBX Classes
 90
        0
280
     0
281
     0
  0
CLASS
  1
LAYOUT
  2
AcDbLayout
  3
ObjectDBX Classes
 90
        0
280
     0
281
     0
  0
CLASS
  1
DICTIONARYVAR
  2
AcDbDictionaryVar
  3
ObjectDBX Classes
 90
        0
280
     0
281
     0
  0
CLASS
  1
TABLESTYLE
  2
AcDbTableStyle
  3
ObjectDBX Classes
 90
     4095
280
     0
281
     0
  0
CLASS
  1
MATERIAL
  2
AcDbMaterial
  3
ObjectDBX Classes
 90
     1153
280
     0
281
     0
  0
CLASS
  1
VISUALSTYLE
  2
AcDbVisualStyle
  3
ObjectDBX Classes
 90
     4095
280
     0
281
     0
  0
CLASS
  1
SCALE
  2
AcDbScale
  3
ObjectDBX Classes
 90
     1153
280
     0
281
     0
  0
CLASS
  1
MLEADERSTYLE
  2
AcDbMLeaderStyle
  3
ACDB_MLEADERSTYLE_CLASS
 90
     4095
280
     0
281
     0
  0
CLASS
  1
CELLSTYLEMAP
  2
AcDbCellStyleMap
  3
ObjectDBX Classes
 90
     1152
280
     0
281
     0
  0
CLASS
  1
ACAD_EVALUATION_GRAPH
  2
AcDbEvalGraph
  3
ObjectDBX Classes
 90
    33921
280
     0
281
     0
  0
CLASS
  1
ACAECUSTOBJ
  2
AcAeEditorObj
  3
AcAeEditorObj
 90
    33792
280
     0
281
     0
  0
CLASS
  1
ACDB_DYNAMICBLOCKPURGEPREVENTER_VERSION
  2
AcDbDynamicBlockPurgePreventer
  3
ObjectDBX Classes
 90
    33921
280
     0
281
     0
  0
ENDSEC
  0
SECTION
  2
TABLES
  0
TABLE
  2
VPORT
  5
8
330
0
100
AcDbSymbolTable
 70
     1
  0
VPORT
  5
EA
330
8
100
AcDbSymbolTableRecord
100
AcDbViewportTableRecord
  2
*Active
 70
     0
 10
0.0
 20
0.0
 11
1.0
 21
1.0
 12
1643.182416053084
 22
1774.191573081773
 13
0.0
 23
0.0
 14
10.0
 24
10.0
 15
10.0
 25
10.0
 16
0.0
 26
0.0
 36
1.0
 17
0.0
 27
0.0
 37
0.0
 40
87.28113711387175
 41
1.903110047846889
 42
50.0
 43
0.0
 44
0.0
 50
0.0
 51
0.0
 71
     0
 72
  1000
 73
     1
 74
     3
 75
     0
 76
     0
 77
     0
 78
     0
281
     0
 65
     1
110
0.0
120
0.0
130
0.0
111
1.0
121
0.0
131
0.0
112
0.0
122
1.0
132
0.0
 79
     0
146
0.0
  0
ENDTAB
  0
TABLE
  2
LTYPE
  5
5
330
0
100
AcDbSymbolTable
 70
     1
  0
LTYPE
  5
14
330
5
100
AcDbSymbolTableRecord
100
AcDbLinetypeTableRecord
  2
ByBlock
 70
     0
  3

 72
    65
 73
     0
 40
0.0
  0
LTYPE
  5
15
330
5
100
AcDbSymbolTableRecord
100
AcDbLinetypeTableRecord
  2
ByLayer
 70
     0
  3

 72
    65
 73
     0
 40
0.0
  0
LTYPE
  5
16
330
5
100
AcDbSymbolTableRecord
100
AcDbLinetypeTableRecord
  2
Continuous
 70
     0
  3
Solid line
 72
    65
 73
     0
 40
0.0
  0
ENDTAB
  0
TABLE
  2
LAYER
  5
2
330
0
100
AcDbSymbolTable
 70
     1
  0
LAYER
  5
10
102
{ACAD_XDICTIONARY
360
13C
102
}
330
2
100
AcDbSymbolTableRecord
100
AcDbLayerTableRecord
  2
0
 70
     0
 62
     7
  6
Continuous
370
    -3
390
F
  0
ENDTAB
  0
TABLE
  2
STYLE
  5
3
330
0
100
AcDbSymbolTable
 70
     2
  0
STYLE
  5
11
330
3
100
AcDbSymbolTableRecord
100
AcDbTextStyleTableRecord
  2
Standard
 70
     0
 40
0.0
 41
1.0
 50
0.0
 71
     0
 42
2.5
  3
txt
  4

  0
STYLE
  5
132
330
3
100
AcDbSymbolTableRecord
100
AcDbTextStyleTableRecord
  2
Annotative
 70
     0
 40
0.0
 41
1.0
 50
0.0
 71
     0
 42
2.5
  3
txt.shx
  4

1001
AcadAnnotative
1000
AnnotativeData
1002
{
1070
     1
1070
     1
1002
}
  0
ENDTAB
  0
TABLE
  2
VIEW
  5
6
330
0
100
AcDbSymbolTable
 70
     0
  0
ENDTAB
  0
TABLE
  2
UCS
  5
7
330
0
100
AcDbSymbolTable
 70
     0
  0
ENDTAB
  0
TABLE
  2
APPID
  5
9
330
0
100
AcDbSymbolTable
 70
    11
  0
APPID
  5
12
330
9
100
AcDbSymbolTableRecord
100
AcDbRegAppTableRecord
  2
ACAD
 70
     0
  0
APPID
  5
9E
330
9
100
AcDbSymbolTableRecord
100
AcDbRegAppTableRecord
  2
ACAD_PSEXT
 70
     0
  0
APPID
  5
133
330
9
100
AcDbSymbolTableRecord
100
AcDbRegAppTableRecord
  2
AcadAnnoPO
 70
     0
  0
APPID
  5
134
330
9
100
AcDbSymbolTableRecord
100
AcDbRegAppTableRecord
  2
AcadAnnotative
 70
     0
  0
APPID
  5
135
330
9
100
AcDbSymbolTableRecord
100
AcDbRegAppTableRecord
  2
ACAD_DSTYLE_DIMJAG
 70
     0
  0
APPID
  5
136
330
9
100
AcDbSymbolTableRecord
100
AcDbRegAppTableRecord
  2
ACAD_DSTYLE_DIMTALN
 70
     0
  0
APPID
  5
165
330
9
100
AcDbSymbolTableRecord
100
AcDbRegAppTableRecord
  2
ACAD_MLEADERVER
 70
     0
  0
APPID
  5
670
330
9
100
AcDbSymbolTableRecord
100
AcDbRegAppTableRecord
  2
ACAUTHENVIRON
 70
     0
  0
APPID
  5
674
330
9
100
AcDbSymbolTableRecord
100
AcDbRegAppTableRecord
  2
AcDbDynamicBlockTrueName
 70
     0
  0
APPID
  5
675
330
9
100
AcDbSymbolTableRecord
100
AcDbRegAppTableRecord
  2
AcDbDynamicBlockGUID
 70
     0
  0
APPID
  5
677
330
9
100
AcDbSymbolTableRecord
100
AcDbRegAppTableRecord
  2
AcDbBlockRepETag
 70
     0
  0
ENDTAB
  0
TABLE
  2
DIMSTYLE
  5
A
330
0
100
AcDbSymbolTable
 70
     2
100
AcDbDimStyleTable
 71
     2
340
27
340
137
  0
DIMSTYLE
105
27
330
A
100
AcDbSymbolTableRecord
100
AcDbDimStyleTableRecord
  2
ISO-25
 70
     0
 41
2.5
 42
0.625
 43
3.75
 44
1.25
 73
     0
 74
     0
 77
     1
 78
     8
140
2.5
141
2.5
143
0.03937007874016
147
0.625
171
     3
172
     1
271
     2
272
     2
274
     3
278
    44
283
     0
284
     8
340
11
  0
DIMSTYLE
105
137
330
A
100
AcDbSymbolTableRecord
100
AcDbDimStyleTableRecord
  2
Annotative
 70
     0
 40
0.0
 41
2.5
 42
0.625
 43
3.75
 44
1.25
 73
     0
 74
     0
 77
     1
 78
     8
140
2.5
141
2.5
143
0.03937007874016
147
0.625
171
     3
172
     1
271
     2
272
     2
274
     3
278
    44
283
     0
284
     8
340
11
1001
AcadAnnotative
1000
AnnotativeData
1002
{
1070
     1
1070
     1
1002
}
1001
ACAD_DSTYLE_DIMJAG
1070
   388
1040
1.5
1001
ACAD_DSTYLE_DIMTALN
1070
   392
1070
     0
  0
ENDTAB
  0
TABLE
  2
BLOCK_RECORD
  5
1
330
0
100
AcDbSymbolTable
 70
     5
  0
BLOCK_RECORD
  5
1F
330
1
100
AcDbSymbolTableRecord
100
AcDbBlockTableRecord
  2
*Model_Space
340
22
  0
BLOCK_RECORD
  5
D2
330
1
100
AcDbSymbolTableRecord
100
AcDbBlockTableRecord
  2
*Paper_Space
340
D3
  0
BLOCK_RECORD
  5
D6
330
1
100
AcDbSymbolTableRecord
100
AcDbBlockTableRecord
  2
*Paper_Space0
340
D7
  0
BLOCK_RECORD
  5
49B
330
1
100
AcDbSymbolTableRecord
100
AcDbBlockTableRecord
  2
1
340
0
310
2800000020000000200000000100080000000000000400000000000000000000000000000000000000000000000080000080000000808000800000008000800080800000C0C0C000C0DCC000F0CAA6000020400000206000002080000020A0000020C0000020E00000400000004020000040400000406000004080000040A0
310
000040C0000040E00000600000006020000060400000606000006080000060A0000060C0000060E00000800000008020000080400000806000008080000080A0000080C0000080E00000A0000000A0200000A0400000A0600000A0800000A0A00000A0C00000A0E00000C0000000C0200000C0400000C0600000C0800000C0
310
A00000C0C00000C0E00000E0000000E0200000E0400000E0600000E0800000E0A00000E0C00000E0E00040000000400020004000400040006000400080004000A0004000C0004000E00040200000402020004020400040206000402080004020A0004020C0004020E000404000004040200040404000404060004040800040
310
40A0004040C0004040E00040600000406020004060400040606000406080004060A0004060C0004060E00040800000408020004080400040806000408080004080A0004080C0004080E00040A0000040A0200040A0400040A0600040A0800040A0A00040A0C00040A0E00040C0000040C0200040C0400040C0600040C08000
310
40C0A00040C0C00040C0E00040E0000040E0200040E0400040E0600040E0800040E0A00040E0C00040E0E00080000000800020008000400080006000800080008000A0008000C0008000E00080200000802020008020400080206000802080008020A0008020C0008020E00080400000804020008040400080406000804080
310
008040A0008040C0008040E00080600000806020008060400080606000806080008060A0008060C0008060E00080800000808020008080400080806000808080008080A0008080C0008080E00080A0000080A0200080A0400080A0600080A0800080A0A00080A0C00080A0E00080C0000080C0200080C0400080C0600080C0
310
800080C0A00080C0C00080C0E00080E0000080E0200080E0400080E0600080E0800080E0A00080E0C00080E0E000C0000000C0002000C0004000C0006000C0008000C000A000C000C000C000E000C0200000C0202000C0204000C0206000C0208000C020A000C020C000C020E000C0400000C0402000C0404000C0406000C0
310
408000C040A000C040C000C040E000C0600000C0602000C0604000C0606000C0608000C060A000C060C000C060E000C0800000C0802000C0804000C0806000C0808000C080A000C080C000C080E000C0A00000C0A02000C0A04000C0A06000C0A08000C0A0A000C0A0C000C0A0E000C0C00000C0C02000C0C04000C0C06000
310
C0C08000C0C0A000F0FBFF00A4A0A000808080000000FF0000FF000000FFFF00FF000000FF00FF00FFFF0000FFFFFF000000000000000000000000000000000000000000000000000000000000000000000000000000000000FFFFFF0000000000000000FFFFFF000000000000000000000000000000000000FF00FF000000
310
0000000000FF00FF000000000000000000000000000000000000FF00FF0000000000000000FF00FF000000000000000000000000000000000000FF00FF0000000000000000FF00FF000000000000000000000000000000000000FF00FF0000000000000000FF00FF000000000000000000000000000000000000FF00FF0000
310
000000000000FF00FF000000000000000000000000000000000000FF00FF0000000000000000FF00FF000000000000000000000000000000000000FF00FFFFFFFFFFFFFFFFFFFF00FF000000000000000000000000000000000000FF00FF0000000000000000FF00FF000000000000000000000000000000000000FF00FF00
310
00000000000000FF00FF000000000000000000000000000000000000FFFFFF0000000000000000FFFFFF000000000000000000000000000000000000FF00FF0000000000000000FF00FF000000000000000000000000000000000000FFFFFF0000000000000000FFFFFF000000000000000000000000000000000000FF00FF
310
0000000000000000FF00FF000000000000000000000000000000000000FF00FF0000000000000000FF00FF000000000000000000000000000000000000FF00FF0000000000000000FF00FF000000000000000000000000000000000000FF00FF0000000000000000FF00FF000000000000000000000000000000000000FF00
310
FF0000000000000000FF00FF000000000000000000000000000000000000FF00FFFFFFFFFFFFFFFFFFFF00FF00000000000000000000000000000000000000FF00000000000000000000FF000000000000000000000000000000000000000000FFFFFFFFFFFFFFFFFFFF000000000000000000000000000000000000000000
310
00FFFF000000000000FFFF00000000000000000000000000000000000000000000FFFFFFFFFFFFFFFFFFFF00000000000000000000000000000000000000000000FFFFFF00000000FFFFFF000000000000000000000000000000000000000000FFFFFFFF00000000FFFFFFFF00000000000000000000000000000000000000
310
00FFFFFFFFFFFFFFFFFFFFFFFF000000000000000000000000000000000000000000FF0000000000000000FF00000000000000000000000000000000000000000000FF0000000000000000FF00000000000000000000000000000000000000000000FF0000000000000000FF00000000000000000000000000000000000000
310
000000FFFFFFFFFFFFFFFFFFFF00000000000000000000000000000000000000000000000000000000000000000000000000000000000000
102
{BLKREFS
331
4E2
102
}
1001
ACAD
1000
DesignCenter Data
1002
{
1070
     1
1070
     4
1002
}
  0
BLOCK_RECORD
  5
4E3
102
{ACAD_XDICTIONARY
360
671
102
}
330
1
100
AcDbSymbolTableRecord
100
AcDbBlockTableRecord
  2
2
340
0
310
2800000020000000200000000100080000000000000400000000000000000000000000000000000000000000000080000080000000808000800000008000800080800000C0C0C000C0DCC000F0CAA6000020400000206000002080000020A0000020C0000020E00000400000004020000040400000406000004080000040A0
310
000040C0000040E00000600000006020000060400000606000006080000060A0000060C0000060E00000800000008020000080400000806000008080000080A0000080C0000080E00000A0000000A0200000A0400000A0600000A0800000A0A00000A0C00000A0E00000C0000000C0200000C0400000C0600000C0800000C0
310
A00000C0C00000C0E00000E0000000E0200000E0400000E0600000E0800000E0A00000E0C00000E0E00040000000400020004000400040006000400080004000A0004000C0004000E00040200000402020004020400040206000402080004020A0004020C0004020E000404000004040200040404000404060004040800040
310
40A0004040C0004040E00040600000406020004060400040606000406080004060A0004060C0004060E00040800000408020004080400040806000408080004080A0004080C0004080E00040A0000040A0200040A0400040A0600040A0800040A0A00040A0C00040A0E00040C0000040C0200040C0400040C0600040C08000
310
40C0A00040C0C00040C0E00040E0000040E0200040E0400040E0600040E0800040E0A00040E0C00040E0E00080000000800020008000400080006000800080008000A0008000C0008000E00080200000802020008020400080206000802080008020A0008020C0008020E00080400000804020008040400080406000804080
310
008040A0008040C0008040E00080600000806020008060400080606000806080008060A0008060C0008060E00080800000808020008080400080806000808080008080A0008080C0008080E00080A0000080A0200080A0400080A0600080A0800080A0A00080A0C00080A0E00080C0000080C0200080C0400080C0600080C0
310
800080C0A00080C0C00080C0E00080E0000080E0200080E0400080E0600080E0800080E0A00080E0C00080E0E000C0000000C0002000C0004000C0006000C0008000C000A000C000C000C000E000C0200000C0202000C0204000C0206000C0208000C020A000C020C000C020E000C0400000C0402000C0404000C0406000C0
310
408000C040A000C040C000C040E000C0600000C0602000C0604000C0606000C0608000C060A000C060C000C060E000C0800000C0802000C0804000C0806000C0808000C080A000C080C000C080E000C0A00000C0A02000C0A04000C0A06000C0A08000C0A0A000C0A0C000C0A0E000C0C00000C0C02000C0C04000C0C06000
310
C0C08000C0C0A000F0FBFF00A4A0A000808080000000FF0000FF000000FFFF00FF000000FF00FF00FFFF0000FFFFFF0000000000000000000000000000000000000000000000000000000000000000000000000000FFFFFFFFFFFFFFFFFFFFFFFFFFFFFFFFFFFFFFFFFFFF00000000000000000000FF000000000000000000
310
0000000000000000000000FF00000000000000000000FF0000000000000000000000000000000000000000FF00000000000000000000FF0000000000000000000000000000000000000000FF00000000000000000000FF00FFFFFFFFFFFFFFFFFFFFFFFFFFFFFFFFFFFF00FF00000000000000000000FF00FF000000000000
310
00000000000000000000FF00FF00000000000000000000FF00FF00000000000000000000000000000000FF00FF00000000000000000000FF00FFFFFF0000000000000000000000000000FF00FF00000000000000000000FF00FFFF00FFFFFFFFFFFFFFFFFFFFFFFF0000FF00FF00000000000000000000FF0000FFFFFFFFFF
310
FFFFFFFFFFFFFFFFFFFFFF0000FF00000000000000000000FF0000000000000000000000000000000000000000FF0000000000000000000000FF000000000000000000000000000000000000FF00000000000000000000000000FF00000000000000000000000000000000FFFF00000000000000000000000000FF00000000
310
000000000000000000000000FFFF00000000000000000000000000FF00000000000000000000000000000000FFFF00000000000000000000000000FF00000000000000000000000000000000FFFF00000000000000000000000000FF00000000000000000000000000000000FFFF00000000000000000000000000FF000000
310
00000000000000000000000000FFFF00000000000000000000000000FFFFFFFFFFFFFFFFFFFFFFFFFFFFFFFFFFFFFF00000000000000000000000000FF00000000000000000000000000000000FFFF00000000000000000000000000FFFFFFFFFFFFFFFFFFFFFFFFFFFFFFFFFFFFFF00000000000000000000000000000000
310
0000FF000000000000FF00000000FFFF000000000000000000000000000000000000FFFFFFFFFFFFFFFF00000000FFFF00000000000000000000000000000000000000FF00000000FF0000000000FFFF0000000000000000000000000000000000FFFFFFFFFFFFFFFFFFFFFFFFFFFF00000000000000000000000000000000
310
0000FFFFFFFFFFFFFFFFFFFFFFFFFF00000000000000000000000000000000000000FF0000000000000000FF00000000000000000000000000000000000000000000FF000000FFFF000000FF00000000000000000000000000000000000000000000FF000000FFFF000000FF00000000000000000000000000000000000000
310
000000FFFFFFFFFFFFFFFFFFFF00000000000000000000000000000000000000000000000000000000000000000000000000000000000000
102
{BLKREFS
331
52D
102
}
1001
AcDbDynamicBlockGUID
1000
{19DB525A-49B9-4AA6-9E03-8CD5AF981772}
1001
AcDbBlockRepETag
1070
     1
1071
       71
1001
ACAD
1000
DesignCenter Data
1002
{
1070
     1
1070
     4
1002
}
  0
BLOCK_RECORD
  5
52E
330
1
100
AcDbSymbolTableRecord
100
AcDbBlockTableRecord
  2
3
340
0
310
2800000020000000200000000100080000000000000400000000000000000000000000000000000000000000000080000080000000808000800000008000800080800000C0C0C000C0DCC000F0CAA6000020400000206000002080000020A0000020C0000020E00000400000004020000040400000406000004080000040A0
310
000040C0000040E00000600000006020000060400000606000006080000060A0000060C0000060E00000800000008020000080400000806000008080000080A0000080C0000080E00000A0000000A0200000A0400000A0600000A0800000A0A00000A0C00000A0E00000C0000000C0200000C0400000C0600000C0800000C0
310
A00000C0C00000C0E00000E0000000E0200000E0400000E0600000E0800000E0A00000E0C00000E0E00040000000400020004000400040006000400080004000A0004000C0004000E00040200000402020004020400040206000402080004020A0004020C0004020E000404000004040200040404000404060004040800040
310
40A0004040C0004040E00040600000406020004060400040606000406080004060A0004060C0004060E00040800000408020004080400040806000408080004080A0004080C0004080E00040A0000040A0200040A0400040A0600040A0800040A0A00040A0C00040A0E00040C0000040C0200040C0400040C0600040C08000
310
40C0A00040C0C00040C0E00040E0000040E0200040E0400040E0600040E0800040E0A00040E0C00040E0E00080000000800020008000400080006000800080008000A0008000C0008000E00080200000802020008020400080206000802080008020A0008020C0008020E00080400000804020008040400080406000804080
310
008040A0008040C0008040E00080600000806020008060400080606000806080008060A0008060C0008060E00080800000808020008080400080806000808080008080A0008080C0008080E00080A0000080A0200080A0400080A0600080A0800080A0A00080A0C00080A0E00080C0000080C0200080C0400080C0600080C0
310
800080C0A00080C0C00080C0E00080E0000080E0200080E0400080E0600080E0800080E0A00080E0C00080E0E000C0000000C0002000C0004000C0006000C0008000C000A000C000C000C000E000C0200000C0202000C0204000C0206000C0208000C020A000C020C000C020E000C0400000C0402000C0404000C0406000C0
310
408000C040A000C040C000C040E000C0600000C0602000C0604000C0606000C0608000C060A000C060C000C060E000C0800000C0802000C0804000C0806000C0808000C080A000C080C000C080E000C0A00000C0A02000C0A04000C0A06000C0A08000C0A0A000C0A0C000C0A0E000C0C00000C0C02000C0C04000C0C06000
310
C0C08000C0C0A000F0FBFF00A4A0A000808080000000FF0000FF000000FFFF00FF000000FF00FF00FFFF0000FFFFFF00000000000000000000000000000000000000000000000000000000000000000000000000000000FFFFFFFF00000000000000000000FFFFFFFF0000000000000000000000000000FF0000FF00000000
310
000000000000FF0000FF0000000000000000000000000000FF0000FF00000000000000000000FF0000FF0000000000000000000000000000FFFFFFFF00000000000000000000FFFFFFFF0000000000000000000000000000FFFFFFFFFFFFFFFFFFFFFFFFFFFFFFFFFFFF0000000000000000000000000000FF0000A4000000
310
00000000000000A40000FF0000000000000000000000000000FF0000A400000000000000000000A40000FF0000000000000000000000000000FF0000A400000000000000000000A40000FF0000000000000000000000000000FF0000A400000000000000000000A40000FF0000000000000000000000000000FF0000FFFF00
310
0000FF00000000FFFF0000FF0000000000000000000000000000FFFFFF0000FFFFFFFFFFFFFFFF0000FFFFFF0000000000000000000000000000FFFF000000FFFFFFFFFFFF00FF000000FFFF0000000000000000000000000000FFFF0000FFFF00FF0000FFFFFFFF0000FFFF0000000000000000000000000000FFFF0000FF
310
0000FF0000FF0000FF0000FFFF0000000000000000000000000000FFFF00FFFFFFFFFF0000FFFFFFFFFF00FFFF0000000000000000000000000000FFFF00FFFFFFFFFF0000FFFFFFFFFF00FFFF0000000000000000000000000000FFFF00FFFF0000FF0000FF0000FFFF00FFFF0000000000000000000000000000FFFF0000
310
FFFF00FF0000FF00FFFF0000FFFF0000000000000000000000000000FFFF000000FFFFFFFFFFFFFF00000000FFFF0000000000000000000000000000FFFF0000000000FF00FFFF0000000000FFFF0000000000000000000000000000FFFF000000000000FF00000000000000FFFF0000000000000000000000000000FFFF00
310
00000000000000000000000000FFFF0000000000000000000000000000FFFF0000000000000000000000000000FFFF0000000000000000000000000000FFFF0000000000000000000000000000FFFF0000000000000000000000000000FF00FFFFFFFFFFFFFFFFFFFFFFFFFFFF00FF0000000000000000000000000000FFFF
310
FFFF00000000000000000000FFFFFFFF0000000000000000000000000000FFFFFFFF00000000000000000000FFFFFFFF0000000000000000000000000000FF0000FFFFFFFFFFFFFFFFFFFFFFFF0000FF0000000000000000000000000000FF0000FF00000000000000000000FF0000FF0000000000000000000000000000FF
310
FFFFFF00000000000000000000FFFFFFFF000000000000000000000000000000000000000000000000000000000000000000000000000000
102
{BLKREFS
331
582
102
}
1001
ACAD
1000
DesignCenter Data
1002
{
1070
     1
1070
     4
1002
}
  0
BLOCK_RECORD
  5
583
330
1
100
AcDbSymbolTableRecord
100
AcDbBlockTableRecord
  2
4
340
0
310
2800000020000000200000000100080000000000000400000000000000000000000000000000000000000000000080000080000000808000800000008000800080800000C0C0C000C0DCC000F0CAA6000020400000206000002080000020A0000020C0000020E00000400000004020000040400000406000004080000040A0
310
000040C0000040E00000600000006020000060400000606000006080000060A0000060C0000060E00000800000008020000080400000806000008080000080A0000080C0000080E00000A0000000A0200000A0400000A0600000A0800000A0A00000A0C00000A0E00000C0000000C0200000C0400000C0600000C0800000C0
310
A00000C0C00000C0E00000E0000000E0200000E0400000E0600000E0800000E0A00000E0C00000E0E00040000000400020004000400040006000400080004000A0004000C0004000E00040200000402020004020400040206000402080004020A0004020C0004020E000404000004040200040404000404060004040800040
310
40A0004040C0004040E00040600000406020004060400040606000406080004060A0004060C0004060E00040800000408020004080400040806000408080004080A0004080C0004080E00040A0000040A0200040A0400040A0600040A0800040A0A00040A0C00040A0E00040C0000040C0200040C0400040C0600040C08000
310
40C0A00040C0C00040C0E00040E0000040E0200040E0400040E0600040E0800040E0A00040E0C00040E0E00080000000800020008000400080006000800080008000A0008000C0008000E00080200000802020008020400080206000802080008020A0008020C0008020E00080400000804020008040400080406000804080
310
008040A0008040C0008040E00080600000806020008060400080606000806080008060A0008060C0008060E00080800000808020008080400080806000808080008080A0008080C0008080E00080A0000080A0200080A0400080A0600080A0800080A0A00080A0C00080A0E00080C0000080C0200080C0400080C0600080C0
310
800080C0A00080C0C00080C0E00080E0000080E0200080E0400080E0600080E0800080E0A00080E0C00080E0E000C0000000C0002000C0004000C0006000C0008000C000A000C000C000C000E000C0200000C0202000C0204000C0206000C0208000C020A000C020C000C020E000C0400000C0402000C0404000C0406000C0
310
408000C040A000C040C000C040E000C0600000C0602000C0604000C0606000C0608000C060A000C060C000C060E000C0800000C0802000C0804000C0806000C0808000C080A000C080C000C080E000C0A00000C0A02000C0A04000C0A06000C0A08000C0A0A000C0A0C000C0A0E000C0C00000C0C02000C0C04000C0C06000
310
C0C08000C0C0A000F0FBFF00A4A0A000808080000000FF0000FF000000FFFF00FF000000FF00FF00FFFF0000FFFFFF00000000000000000000000000000000000000000000000000000000000000000000000000000000000000000000FF000000000000000000000000000000000000000000000000000000000000FFFFFF
310
FF00000000000000000000000000000000000000000000000000000000FFFF0000FFFF0000000000000000000000000000000000000000000000000000FFFF00000000FF00000000000000000000000000000000000000FF0000000000FFFFFFFF000000FFFF00000000000000000000000000000000FFFFFFFF000000FFFF
310
FF00FFFF000000FF000000000000000000000000000000FFFF0000FFFF00FFFFFFFFFF00FFFF0000FFFF00000000000000000000000000FFFF00000000FFFFFFFFFF00FFFF00FFFF0000FFFF0000000000000000000000FFFF00FFFF0000FF00FF00FFFF00FFFF00FFFF0000FF00000000000000000000FFFF00FF00FFFF00
310
FFFF000000FF0000FFFF00FF00FF00000000000000000000FFFF00FFFFFF0000FFFF00000000FFFF0000FFFF00FF00000000000000000000FFFF00FFFF000000FFFF000000000000FF00FFFF00FF00000000000000000000FF00FF00FF000000FFFF00000000000000FFFFFF00FF0000000000000000000000FFFFFFFF0000
310
00FFFF000000000000000000FF00FF0000000000000000000000FFFFFFFF000000FFFF0000000000000000000000FF000000000000000000000000FFFF00000000FFFFFFFF00000000000000FF00FF000000000000000000000000FFFF0000FFFFFF000000FFFF0000000000FFFFFF000000000000000000000000FFFFFFFF
310
FFFF00FFFF000000FF00000000FF0000000000000000000000000000FFFFFFFF0000000000FFFF0000FFFF0000FF0000000000000000000000000000FFFF0000000000FFFFFFFFFF000000FFFFFF000000000000000000000000000000FFFFA40000FFFFFFFFFFFFFFFF000000FF0000000000000000000000000000000000
310
FFFFA4FFFFFFFFFFFFFF00FFFF00FF00000000000000000000000000000000000000FFFFFFFFFFFFFFFFFFFF00FFFF0000000000000000000000000000000000FFFFFFFF0000000000FFFFFFFFFFFF0000000000000000000000000000000000FF00FF0000FFFF00FFFF0000FFFFFF00000000000000000000000000000000
310
0000FFFFFFFFFF00FFFFFF000000FF0000000000000000000000000000000000000000FFFF00FFFFFF00FF00FFFF000000000000000000000000000000000000000000FFFFFFFFFFFFFFFFFF0000000000000000000000000000000000000000000000FFFFFF00FFFFFFFF0000000000000000000000000000000000000000
310
000000000000FFFFFF0000000000000000000000000000000000000000000000000000000000000000000000000000000000000000000000
102
{BLKREFS
331
61F
102
}
1001
ACAD
1000
DesignCenter Data
1002
{
1070
     1
1070
     4
1002
}
  0
ENDTAB
  0
ENDSEC
  0
SECTION
  2
BLOCKS
  0
BLOCK
  5
20
330
1F
100
AcDbEntity
  8
0
100
AcDbBlockBegin
  2
*Model_Space
 70
     0
 10
0.0
 20
0.0
 30
0.0
  3
*Model_Space
  1

  0
ENDBLK
  5
21
330
1F
100
AcDbEntity
  8
0
100
AcDbBlockEnd
  0
BLOCK
  5
D4
330
D2
100
AcDbEntity
 67
     1
  8
0
100
AcDbBlockBegin
  2
*Paper_Space
 70
     0
 10
0.0
 20
0.0
 30
0.0
  3
*Paper_Space
  1

  0
ENDBLK
  5
D5
330
D2
100
AcDbEntity
 67
     1
  8
0
100
AcDbBlockEnd
  0
BLOCK
  5
D8
330
D6
100
AcDbEntity
 67
     1
  8
0
100
AcDbBlockBegin
  2
*Paper_Space0
 70
     0
 10
0.0
 20
0.0
 30
0.0
  3
*Paper_Space0
  1

  0
ENDBLK
  5
D9
330
D6
100
AcDbEntity
 67
     1
  8
0
100
AcDbBlockEnd
  0
BLOCK
  5
49C
330
49B
100
AcDbEntity
  8
0
100
AcDbBlockBegin
  2
1
 70
     0
 10
0.0
 20
0.0
 30
0.0
  3
1
  1

  0
LINE
  5
49E
330
49B
100
AcDbEntity
  8
0
  6
Continuous
 62
     7
370
    15
100
AcDbLine
 10
1635.189835509307
 20
1792.515090356386
 30
0.0
 11
1635.014858182256
 21
1794.515090356386
 31
0.0
  0
LINE
  5
49F
330
49B
100
AcDbEntity
  8
0
  6
Continuous
 62
     7
370
    15
100
AcDbLine
 10
1628.508882848343
 20
1794.515090356386
 30
0.0
 11
1628.333905521291
 21
1792.515090356386
 31
0.0
  0
LINE
  5
4A0
330
49B
100
AcDbEntity
  8
0
  6
Continuous
 62
     7
370
    15
100
AcDbLine
 10
1634.226870515299
 20
1788.895090337387
 30
0.0
 11
1634.226870515299
 21
1790.095090337387
 31
0.0
  0
LINE
  5
4A1
330
49B
100
AcDbEntity
  8
0
  6
Continuous
 62
     7
370
    15
100
AcDbLine
 10
1629.2968705153
 20
1790.095090337387
 30
0.0
 11
1629.2968705153
 21
1788.895090337387
 31
0.0
  0
LINE
  5
4A2
330
49B
100
AcDbEntity
  8
0
  6
Continuous
 62
     7
370
    15
100
AcDbLine
 10
1629.6618705153
 20
1791.715090337387
 30
0.0
 11
1629.6618705153
 21
1790.095090337387
 31
0.0
  0
LINE
  5
4A3
330
49B
100
AcDbEntity
  8
0
  6
Continuous
 62
     7
370
    15
100
AcDbLine
 10
1633.861870515299
 20
1790.095090337387
 30
0.0
 11
1633.861870515299
 21
1791.715090337387
 31
0.0
  0
LINE
  5
4A4
330
49B
100
AcDbEntity
  8
0
  6
Continuous
 62
     7
370
    15
100
AcDbLine
 10
1628.3118705153
 20
1781.295090337386
 30
0.0
 11
1627.011870515299
 21
1781.295090337386
 31
0.0
  0
LINE
  5
4A5
330
49B
100
AcDbEntity
  8
0
  6
Continuous
 62
     7
370
    15
100
AcDbLine
 10
1628.3118705153
 20
1782.795090337386
 30
0.0
 11
1627.011870515299
 21
1782.795090337386
 31
0.0
  0
LINE
  5
4A6
330
49B
100
AcDbEntity
  8
0
  6
Continuous
 62
     7
370
    15
100
AcDbLine
 10
1628.3118705153
 20
1782.795090337386
 30
0.0
 11
1628.3118705153
 21
1781.295090337386
 31
0.0
  0
LINE
  5
4A7
330
49B
100
AcDbEntity
  8
0
  6
Continuous
 62
     7
370
    15
100
AcDbLine
 10
1627.011870515299
 20
1781.295090337386
 30
0.0
 11
1627.011870515299
 21
1782.795090337386
 31
0.0
  0
LINE
  5
4A8
330
49B
100
AcDbEntity
  8
0
  6
Continuous
 62
     7
370
    15
100
AcDbLine
 10
1635.211870515299
 20
1781.295090337386
 30
0.0
 11
1635.211870515299
 21
1782.795090337386
 31
0.0
  0
LINE
  5
4A9
330
49B
100
AcDbEntity
  8
0
  6
Continuous
 62
     7
370
    15
100
AcDbLine
 10
1636.511870515299
 20
1782.795090337386
 30
0.0
 11
1635.211870515299
 21
1782.795090337386
 31
0.0
  0
LINE
  5
4AA
330
49B
100
AcDbEntity
  8
0
  6
Continuous
 62
     7
370
    15
100
AcDbLine
 10
1636.511870515299
 20
1781.295090337386
 30
0.0
 11
1635.211870515299
 21
1781.295090337386
 31
0.0
  0
LINE
  5
4AB
330
49B
100
AcDbEntity
  8
0
  6
Continuous
 62
     7
370
    15
100
AcDbLine
 10
1636.511870515299
 20
1782.795090337386
 30
0.0
 11
1636.511870515299
 21
1781.295090337386
 31
0.0
  0
LINE
  5
4AC
330
49B
100
AcDbEntity
  8
0
  6
Continuous
 62
     7
370
    15
100
AcDbLine
 10
1636.511870515299
 20
1773.795090337388
 30
0.0
 11
1635.211870515299
 21
1773.795090337388
 31
0.0
  0
LINE
  5
4AD
330
49B
100
AcDbEntity
  8
0
  6
Continuous
 62
     7
370
    15
100
AcDbLine
 10
1635.211870515299
 20
1773.795090337388
 30
0.0
 11
1635.211870515299
 21
1781.295090337386
 31
0.0
  0
LINE
  5
4AE
330
49B
100
AcDbEntity
  8
0
  6
Continuous
 62
     7
370
    15
100
AcDbLine
 10
1636.511870515299
 20
1781.295090337386
 30
0.0
 11
1636.511870515299
 21
1773.795090337388
 31
0.0
  0
LINE
  5
4AF
330
49B
100
AcDbEntity
  8
0
  6
Continuous
 62
     7
370
    15
100
AcDbLine
 10
1628.3118705153
 20
1773.795090337387
 30
0.0
 11
1627.011870515299
 21
1773.795090337387
 31
0.0
  0
LINE
  5
4B0
330
49B
100
AcDbEntity
  8
0
  6
Continuous
 62
     7
370
    15
100
AcDbLine
 10
1628.3118705153
 20
1781.295090337386
 30
0.0
 11
1628.3118705153
 21
1773.795090337387
 31
0.0
  0
LINE
  5
4B1
330
49B
100
AcDbEntity
  8
0
  6
Continuous
 62
     7
370
    15
100
AcDbLine
 10
1627.011870515299
 20
1773.795090337387
 30
0.0
 11
1627.011870515299
 21
1781.295090337386
 31
0.0
  0
ARC
  5
4B2
330
49B
100
AcDbEntity
  8
0
  6
Continuous
 62
     7
370
    15
100
AcDbCircle
 10
1635.011870515299
 20
1787.395090337386
 30
0.0
 40
1.500000000000113
100
AcDbArc
 50
359.999999999987
 51
90.0
  0
ARC
  5
4B3
330
49B
100
AcDbEntity
  8
0
  6
Continuous
 62
     7
370
    15
100
AcDbCircle
 10
1635.011870515299
 20
1787.395090337386
 30
0.0
 40
0.200000000000017
100
AcDbArc
 50
359.9999999999218
 51
90.0
  0
ARC
  5
4B4
330
49B
100
AcDbEntity
  8
0
  6
Continuous
 62
     7
370
    15
100
AcDbCircle
 10
1628.511870515299
 20
1787.395090337386
 30
0.0
 40
0.1999999999999318
100
AcDbArc
 50
90.0
 51
180.0000000000651
  0
ARC
  5
4B5
330
49B
100
AcDbEntity
  8
0
  6
Continuous
 62
     7
370
    15
100
AcDbCircle
 10
1628.511870515299
 20
1787.395090337386
 30
0.0
 40
1.500000000000056
100
AcDbArc
 50
90.0
 51
180.000000000013
  0
LINE
  5
4B6
330
49B
100
AcDbEntity
  8
0
  6
Continuous
 62
     7
370
    15
100
AcDbLine
 10
1635.011870515299
 20
1787.595090337386
 30
0.0
 11
1628.511870515299
 21
1787.595090337386
 31
0.0
  0
LINE
  5
4B7
330
49B
100
AcDbEntity
  8
0
  6
Continuous
 62
     7
370
    15
100
AcDbLine
 10
1635.011870515299
 20
1788.895090337387
 30
0.0
 11
1628.511870515299
 21
1788.895090337387
 31
0.0
  0
LINE
  5
4B8
330
49B
100
AcDbEntity
  8
0
  6
Continuous
 62
     7
370
    15
100
AcDbLine
 10
1635.211870515299
 20
1782.795090337386
 30
0.0
 11
1635.211870515299
 21
1787.395090337386
 31
0.0
  0
LINE
  5
4B9
330
49B
100
AcDbEntity
  8
0
  6
Continuous
 62
     7
370
    15
100
AcDbLine
 10
1628.3118705153
 20
1787.395090337386
 30
0.0
 11
1628.3118705153
 21
1782.795090337386
 31
0.0
  0
LINE
  5
4BA
330
49B
100
AcDbEntity
  8
0
  6
Continuous
 62
     7
370
    15
100
AcDbLine
 10
1636.511870515299
 20
1787.395090337386
 30
0.0
 11
1636.511870515299
 21
1782.795090337386
 31
0.0
  0
LINE
  5
4BB
330
49B
100
AcDbEntity
  8
0
  6
Continuous
 62
     7
370
    15
100
AcDbLine
 10
1627.011870515299
 20
1782.795090337386
 30
0.0
 11
1627.011870515299
 21
1787.395090337386
 31
0.0
  0
LINE
  5
4BC
330
49B
100
AcDbEntity
  8
0
  6
Continuous
 62
     7
370
    15
100
AcDbLine
 10
1628.611870247518
 20
1779.102713449804
 30
0.0
 11
1634.911870247518
 21
1779.102713449804
 31
0.0
  0
LINE
  5
4BD
330
49B
100
AcDbEntity
  8
0
  6
Continuous
 62
     7
370
    15
100
AcDbLine
 10
1628.611870247518
 20
1779.102713449804
 30
0.0
 11
1628.611870247518
 21
1787.595090337386
 31
0.0
  0
LINE
  5
4BE
330
49B
100
AcDbEntity
  8
0
  6
Continuous
 62
     7
370
    15
100
AcDbLine
 10
1634.911870247518
 20
1779.102713449804
 30
0.0
 11
1634.911870247518
 21
1787.595090337386
 31
0.0
  0
LINE
  5
4BF
330
49B
100
AcDbEntity
  8
0
  6
Continuous
 62
     7
370
    15
100
AcDbLine
 10
1634.911870247518
 20
1791.715090337387
 30
0.0
 11
1634.911870247518
 21
1792.515090356386
 31
0.0
  0
LINE
  5
4C0
330
49B
100
AcDbEntity
  8
0
  6
Continuous
 62
     7
370
    15
100
AcDbLine
 10
1634.611870563423
 20
1791.715090337387
 30
0.0
 11
1634.611870563423
 21
1792.515090356386
 31
0.0
  0
LINE
  5
4C1
330
49B
100
AcDbEntity
  8
0
  6
Continuous
 62
     7
370
    15
100
AcDbLine
 10
1634.611870563423
 20
1792.515090356386
 30
0.0
 11
1634.911870247518
 21
1792.515090356386
 31
0.0
  0
LINE
  5
4C2
330
49B
100
AcDbEntity
  8
0
  6
Continuous
 62
     7
370
    15
100
AcDbLine
 10
1634.611870563423
 20
1791.715090337387
 30
0.0
 11
1634.911870247518
 21
1791.715090337387
 31
0.0
  0
LINE
  5
4C3
330
49B
100
AcDbEntity
  8
0
  6
Continuous
 62
     7
370
    15
100
AcDbLine
 10
1628.611870247518
 20
1792.515090356386
 30
0.0
 11
1628.911870563422
 21
1792.515090356386
 31
0.0
  0
LINE
  5
4C4
330
49B
100
AcDbEntity
  8
0
  6
Continuous
 62
     7
370
    15
100
AcDbLine
 10
1628.911870563422
 20
1791.715090337387
 30
0.0
 11
1628.911870563422
 21
1792.515090356386
 31
0.0
  0
LINE
  5
4C5
330
49B
100
AcDbEntity
  8
0
  6
Continuous
 62
     7
370
    15
100
AcDbLine
 10
1628.611870247518
 20
1791.715090337387
 30
0.0
 11
1628.611870247518
 21
1792.515090356386
 31
0.0
  0
LINE
  5
4C6
330
49B
100
AcDbEntity
  8
0
  6
Continuous
 62
     7
370
    15
100
AcDbLine
 10
1628.611870247518
 20
1791.715090337387
 30
0.0
 11
1628.911870563422
 21
1791.715090337387
 31
0.0
  0
LINE
  5
4C7
330
49B
100
AcDbEntity
  8
0
  6
Continuous
 62
     7
370
    15
100
AcDbLine
 10
1633.861870515299
 20
1791.715090337387
 30
0.0
 11
1633.861870515299
 21
1792.515090356386
 31
0.0
  0
LINE
  5
4C8
330
49B
100
AcDbEntity
  8
0
  6
Continuous
 62
     7
370
    15
100
AcDbLine
 10
1634.611870563423
 20
1792.515090356386
 30
0.0
 11
1633.861870515299
 21
1792.515090356386
 31
0.0
  0
LINE
  5
4C9
330
49B
100
AcDbEntity
  8
0
  6
Continuous
 62
     7
370
    15
100
AcDbLine
 10
1634.611870563423
 20
1791.715090337387
 30
0.0
 11
1633.861870515299
 21
1791.715090337387
 31
0.0
  0
LINE
  5
4CA
330
49B
100
AcDbEntity
  8
0
  6
Continuous
 62
     7
370
    15
100
AcDbLine
 10
1629.6618705153
 20
1791.715090337387
 30
0.0
 11
1629.6618705153
 21
1792.515090356386
 31
0.0
  0
LINE
  5
4CB
330
49B
100
AcDbEntity
  8
0
  6
Continuous
 62
     7
370
    15
100
AcDbLine
 10
1629.6618705153
 20
1792.515090356386
 30
0.0
 11
1628.911870563422
 21
1792.515090356386
 31
0.0
  0
LINE
  5
4CC
330
49B
100
AcDbEntity
  8
0
  6
Continuous
 62
     7
370
    15
100
AcDbLine
 10
1629.6618705153
 20
1791.715090337387
 30
0.0
 11
1628.911870563422
 21
1791.715090337387
 31
0.0
  0
LINE
  5
4CD
330
49B
100
AcDbEntity
  8
0
  6
Continuous
 62
     7
370
    15
100
AcDbLine
 10
1635.861870563423
 20
1791.715090337387
 30
0.0
 11
1635.861870563423
 21
1792.515090356386
 31
0.0
  0
LINE
  5
4CE
330
49B
100
AcDbEntity
  8
0
  6
Continuous
 62
     7
370
    15
100
AcDbLine
 10
1634.911870247518
 20
1792.515090356386
 30
0.0
 11
1635.861870563423
 21
1792.515090356386
 31
0.0
  0
LINE
  5
4CF
330
49B
100
AcDbEntity
  8
0
  6
Continuous
 62
     7
370
    15
100
AcDbLine
 10
1635.861870563423
 20
1791.715090337387
 30
0.0
 11
1634.911870247518
 21
1791.715090337387
 31
0.0
  0
LINE
  5
4D0
330
49B
100
AcDbEntity
  8
0
  6
Continuous
 62
     7
370
    15
100
AcDbLine
 10
1627.66186976174
 20
1791.715090337387
 30
0.0
 11
1627.66186976174
 21
1792.515090356386
 31
0.0
  0
LINE
  5
4D1
330
49B
100
AcDbEntity
  8
0
  6
Continuous
 62
     7
370
    15
100
AcDbLine
 10
1627.66186976174
 20
1792.515090356386
 30
0.0
 11
1628.611870247518
 21
1792.515090356386
 31
0.0
  0
LINE
  5
4D2
330
49B
100
AcDbEntity
  8
0
  6
Continuous
 62
     7
370
    15
100
AcDbLine
 10
1628.611870247518
 20
1791.715090337387
 30
0.0
 11
1627.66186976174
 21
1791.715090337387
 31
0.0
  0
LWPOLYLINE
  5
4D3
330
49B
100
AcDbEntity
  8
0
  6
Continuous
 62
     7
370
    15
100
AcDbPolyline
 90
        3
 70
   128
 43
0.0
 10
1628.644518443313
 20
1795.515090356386
 10
1628.604763671887
 20
1795.06751752026
 10
1628.555715690378
 20
1794.515090356386
  0
LINE
  5
4D4
330
49B
100
AcDbEntity
  8
0
  6
Continuous
 62
     7
370
    15
100
AcDbLine
 10
1628.644518443313
 20
1795.515090356386
 30
0.0
 11
1634.879222587286
 21
1795.515090356386
 31
0.0
  0
LWPOLYLINE
  5
4D5
330
49B
100
AcDbEntity
  8
0
  6
Continuous
 62
     7
370
    15
100
AcDbPolyline
 90
        3
 70
   128
 43
0.0
 10
1634.968025340221
 20
1794.515090356386
 10
1634.918977358712
 20
1795.06751752026
 10
1634.879222587286
 20
1795.515090356386
  0
LINE
  5
4D6
330
49B
100
AcDbEntity
  8
0
  6
Continuous
 62
     7
370
    15
100
AcDbLine
 10
1635.014858182256
 20
1794.515090356386
 30
0.0
 11
1634.968025340221
 21
1794.515090356386
 31
0.0
  0
LINE
  5
4D7
330
49B
100
AcDbEntity
  8
0
  6
Continuous
 62
     7
370
    15
100
AcDbLine
 10
1628.555715690378
 20
1794.515090356386
 30
0.0
 11
1628.508882848343
 21
1794.515090356386
 31
0.0
  0
LINE
  5
4D8
330
49B
100
AcDbEntity
  8
0
  6
Continuous
 62
     7
370
    15
100
AcDbLine
 10
1629.6618705153
 20
1792.515090356386
 30
0.0
 11
1633.861870515299
 21
1792.515090356386
 31
0.0
  0
LINE
  5
4D9
330
49B
100
AcDbEntity
  8
0
  6
Continuous
 62
     7
370
    15
100
AcDbLine
 10
1635.861870733296
 20
1791.715090337387
 30
0.0
 11
1635.861870733296
 21
1792.515090356386
 31
0.0
  0
LINE
  5
4DA
330
49B
100
AcDbEntity
  8
0
  6
Continuous
 62
     7
370
    15
100
AcDbLine
 10
1631.761870515299
 20
1790.095090337387
 30
0.0
 11
1634.226870515299
 21
1790.095090337387
 31
0.0
  0
LINE
  5
4DB
330
49B
100
AcDbEntity
  8
0
  6
Continuous
 62
     7
370
    15
100
AcDbLine
 10
1629.2968705153
 20
1790.095090337387
 30
0.0
 11
1631.761870515299
 21
1790.095090337387
 31
0.0
  0
LINE
  5
4DC
330
49B
100
AcDbEntity
  8
0
  6
Continuous
 62
     7
370
    15
100
AcDbLine
 10
1628.611870247518
 20
1791.215090428013
 30
0.0
 11
1629.6618705153
 21
1791.215090428013
 31
0.0
  0
LINE
  5
4DD
330
49B
100
AcDbEntity
  8
0
  6
Continuous
 62
     7
370
    15
100
AcDbLine
 10
1633.861870515299
 20
1791.215090428013
 30
0.0
 11
1634.911870247518
 21
1791.215090428013
 31
0.0
  0
LINE
  5
4DE
330
49B
100
AcDbEntity
  8
0
  6
Continuous
 62
     7
370
    15
100
AcDbLine
 10
1628.611870247518
 20
1791.215090428013
 30
0.0
 11
1628.611870247518
 21
1791.715090337387
 31
0.0
  0
LINE
  5
4DF
330
49B
100
AcDbEntity
  8
0
  6
Continuous
 62
     7
370
    15
100
AcDbLine
 10
1634.911870247518
 20
1791.215090428013
 30
0.0
 11
1634.911870247518
 21
1791.715090337387
 31
0.0
  0
LINE
  5
4E0
330
49B
100
AcDbEntity
  8
0
  6
Continuous
 62
     7
370
    15
100
AcDbLine
 10
1628.611870247518
 20
1788.895090337387
 30
0.0
 11
1628.611870247518
 21
1791.215090428013
 31
0.0
  0
LINE
  5
4E1
330
49B
100
AcDbEntity
  8
0
  6
Continuous
 62
     7
370
    15
100
AcDbLine
 10
1634.911870247518
 20
1788.895090337387
 30
0.0
 11
1634.911870247518
 21
1791.215090428013
 31
0.0
  0
ENDBLK
  5
49D
330
49B
100
AcDbEntity
  8
0
100
AcDbBlockEnd
  0
BLOCK
  5
4E4
330
4E3
100
AcDbEntity
  8
0
100
AcDbBlockBegin
  2
2
 70
     0
 10
0.0
 20
0.0
 30
0.0
  3
2
  1

  0
LINE
  5
629
330
4E3
100
AcDbEntity
  8
0
  6
Continuous
 62
     7
370
    15
100
AcDbLine
 10
1602.463158961018
 20
1792.515090356386
 30
0.0
 11
1602.200692970441
 21
1795.515090356386
 31
0.0
1001
AcDbBlockRepETag
1070
     1
1071
        0
1005
629
  0
LINE
  5
62A
330
4E3
100
AcDbEntity
  8
0
  6
Continuous
 62
     7
370
    15
100
AcDbLine
 10
1595.86969496358
 20
1795.515090356386
 30
0.0
 11
1595.607228973002
 21
1792.515090356386
 31
0.0
1001
AcDbBlockRepETag
1070
     1
1071
        1
1005
62A
  0
LINE
  5
62B
330
4E3
100
AcDbEntity
  8
0
  6
Continuous
 62
     7
370
    15
100
AcDbLine
 10
1601.500193967011
 20
1788.895090337387
 30
0.0
 11
1601.500193967011
 21
1790.095090337387
 31
0.0
1001
AcDbBlockRepETag
1070
     1
1071
        2
1005
62B
  0
LINE
  5
62C
330
4E3
100
AcDbEntity
  8
0
  6
Continuous
 62
     7
370
    15
100
AcDbLine
 10
1596.570193967011
 20
1790.095090337387
 30
0.0
 11
1596.570193967011
 21
1788.895090337387
 31
0.0
1001
AcDbBlockRepETag
1070
     1
1071
        3
1005
62C
  0
LINE
  5
62D
330
4E3
100
AcDbEntity
  8
0
  6
Continuous
 62
     7
370
    15
100
AcDbLine
 10
1596.935193967011
 20
1791.715090337387
 30
0.0
 11
1596.935193967011
 21
1790.095090337387
 31
0.0
1001
AcDbBlockRepETag
1070
     1
1071
        4
1005
62D
  0
LINE
  5
62E
330
4E3
100
AcDbEntity
  8
0
  6
Continuous
 62
     7
370
    15
100
AcDbLine
 10
1601.13519396701
 20
1790.095090337387
 30
0.0
 11
1601.13519396701
 21
1791.715090337387
 31
0.0
1001
AcDbBlockRepETag
1070
     1
1071
        5
1005
62E
  0
ARC
  5
62F
330
4E3
100
AcDbEntity
  8
0
  6
Continuous
 62
     7
370
    15
100
AcDbCircle
 10
1593.285193967011
 20
1779.595090337386
 30
0.0
 40
0.5000000000000569
100
AcDbArc
 50
90.0
 51
180.0
1001
AcDbBlockRepETag
1070
     1
1071
        6
1005
62F
  0
LINE
  5
630
330
4E3
100
AcDbEntity
  8
0
  6
Continuous
 62
     7
370
    15
100
AcDbLine
 10
1592.785193967011
 20
1779.595090337386
 30
0.0
 11
1592.785193967011
 21
1776.695090337386
 31
0.0
1001
AcDbBlockRepETag
1070
     1
1071
        7
1005
630
  0
ARC
  5
631
330
4E3
100
AcDbEntity
  8
0
  6
Continuous
 62
     7
370
    15
100
AcDbCircle
 10
1593.285193967011
 20
1776.695090337386
 30
0.0
 40
0.5000000000000569
100
AcDbArc
 50
180.0
 51
270.0
1001
AcDbBlockRepETag
1070
     1
1071
        8
1005
631
  0
LINE
  5
632
330
4E3
100
AcDbEntity
  8
0
  6
Continuous
 62
     7
370
    15
100
AcDbLine
 10
1593.285193967011
 20
1776.195090337386
 30
0.0
 11
1604.785193967011
 21
1776.195090337386
 31
0.0
1001
AcDbBlockRepETag
1070
     1
1071
        9
1005
632
  0
ARC
  5
633
330
4E3
100
AcDbEntity
  8
0
  6
Continuous
 62
     7
370
    15
100
AcDbCircle
 10
1604.785193967011
 20
1776.695090337386
 30
0.0
 40
0.5000000000000569
100
AcDbArc
 50
270.0
 51
0.0
1001
AcDbBlockRepETag
1070
     1
1071
       10
1005
633
  0
LINE
  5
634
330
4E3
100
AcDbEntity
  8
0
  6
Continuous
 62
     7
370
    15
100
AcDbLine
 10
1605.28519396701
 20
1776.695090337386
 30
0.0
 11
1605.28519396701
 21
1779.595090337386
 31
0.0
1001
AcDbBlockRepETag
1070
     1
1071
       11
1005
634
  0
ARC
  5
635
330
4E3
100
AcDbEntity
  8
0
  6
Continuous
 62
     7
370
    15
100
AcDbCircle
 10
1604.785193967011
 20
1779.595090337386
 30
0.0
 40
0.5000000000000285
100
AcDbArc
 50
0.0
 51
90.0
1001
AcDbBlockRepETag
1070
     1
1071
       12
1005
635
  0
LINE
  5
636
330
4E3
100
AcDbEntity
  8
0
  6
Continuous
 62
     7
370
    15
100
AcDbLine
 10
1604.785193967011
 20
1780.095090337386
 30
0.0
 11
1593.285193967011
 21
1780.095090337386
 31
0.0
1001
AcDbBlockRepETag
1070
     1
1071
       13
1005
636
  0
LINE
  5
637
330
4E3
100
AcDbEntity
  8
0
  6
Continuous
 62
     7
370
    15
100
AcDbLine
 10
1592.760193967011
 20
1787.395090337386
 30
0.0
 11
1605.31019396701
 21
1787.395090337386
 31
0.0
1001
AcDbBlockRepETag
1070
     1
1071
       14
1005
637
  0
LINE
  5
638
330
4E3
100
AcDbEntity
  8
0
  6
Continuous
 62
     7
370
    15
100
AcDbLine
 10
1605.31019396701
 20
1782.795090337386
 30
0.0
 11
1605.31019396701
 21
1787.395090337386
 31
0.0
1001
AcDbBlockRepETag
1070
     1
1071
       15
1005
638
  0
LINE
  5
639
330
4E3
100
AcDbEntity
  8
0
  6
Continuous
 62
     7
370
    15
100
AcDbLine
 10
1605.785193967011
 20
1782.795090337386
 30
0.0
 11
1605.31019396701
 21
1782.795090337386
 31
0.0
1001
AcDbBlockRepETag
1070
     1
1071
       16
1005
639
  0
ARC
  5
63A
330
4E3
100
AcDbEntity
  8
0
  6
Continuous
 62
     7
370
    15
100
AcDbCircle
 10
1605.785193967011
 20
1781.295090337386
 30
0.0
 40
1.5
100
AcDbArc
 50
0.0
 51
90.0
1001
AcDbBlockRepETag
1070
     1
1071
       17
1005
63A
  0
LINE
  5
63B
330
4E3
100
AcDbEntity
  8
0
  6
Continuous
 62
     7
370
    15
100
AcDbLine
 10
1590.78519396701
 20
1773.795090337388
 30
0.0
 11
1607.28519396701
 21
1773.795090337388
 31
0.0
1001
AcDbBlockRepETag
1070
     1
1071
       18
1005
63B
  0
LINE
  5
63C
330
4E3
100
AcDbEntity
  8
0
  6
Continuous
 62
     7
370
    15
100
AcDbLine
 10
1590.78519396701
 20
1781.295090337386
 30
0.0
 11
1590.78519396701
 21
1773.795090337388
 31
0.0
1001
AcDbBlockRepETag
1070
     1
1071
       19
1005
63C
  0
ARC
  5
63D
330
4E3
100
AcDbEntity
  8
0
  6
Continuous
 62
     7
370
    15
100
AcDbCircle
 10
1592.285193967011
 20
1781.295090337386
 30
0.0
 40
1.500000000000028
100
AcDbArc
 50
90.0
 51
180.0
1001
AcDbBlockRepETag
1070
     1
1071
       20
1005
63D
  0
LINE
  5
63E
330
4E3
100
AcDbEntity
  8
0
  6
Continuous
 62
     7
370
    15
100
AcDbLine
 10
1592.760193967011
 20
1782.795090337386
 30
0.0
 11
1592.285193967011
 21
1782.795090337386
 31
0.0
1001
AcDbBlockRepETag
1070
     1
1071
       21
1005
63E
  0
LINE
  5
63F
330
4E3
100
AcDbEntity
  8
0
  6
Continuous
 62
     7
370
    15
100
AcDbLine
 10
1592.760193967011
 20
1787.395090337386
 30
0.0
 11
1592.760193967011
 21
1782.795090337386
 31
0.0
1001
AcDbBlockRepETag
1070
     1
1071
       22
1005
63F
  0
LINE
  5
640
330
4E3
100
AcDbEntity
  8
0
  6
Continuous
 62
     7
370
    15
100
AcDbLine
 10
1607.28519396701
 20
1781.295090337386
 30
0.0
 11
1607.28519396701
 21
1773.795090337388
 31
0.0
1001
AcDbBlockRepETag
1070
     1
1071
       23
1005
640
  0
LINE
  5
641
330
4E3
100
AcDbEntity
  8
0
  6
Continuous
 62
     7
370
    15
100
AcDbLine
 10
1605.31019396701
 20
1787.395090337386
 30
0.0
 11
1605.31019396701
 21
1788.895090337387
 31
0.0
1001
AcDbBlockRepETag
1070
     1
1071
       24
1005
641
  0
LINE
  5
642
330
4E3
100
AcDbEntity
  8
0
  6
Continuous
 62
     7
370
    15
100
AcDbLine
 10
1592.760193967011
 20
1788.895090337387
 30
0.0
 11
1592.760193967011
 21
1787.395090337386
 31
0.0
1001
AcDbBlockRepETag
1070
     1
1071
       25
1005
642
  0
LINE
  5
643
330
4E3
100
AcDbEntity
  8
0
  6
Continuous
 62
     7
370
    15
100
AcDbLine
 10
1592.760193967011
 20
1788.895090337387
 30
0.0
 11
1605.31019396701
 21
1788.895090337387
 31
0.0
1001
AcDbBlockRepETag
1070
     1
1071
       26
1005
643
  0
LINE
  5
644
330
4E3
100
AcDbEntity
  8
0
  6
Continuous
 62
     7
370
    15
100
AcDbLine
 10
1603.817953747993
 20
1791.715090337387
 30
0.0
 11
1603.817953747993
 21
1792.515090356386
 31
0.0
1001
AcDbBlockRepETag
1070
     1
1071
       27
1005
644
  0
LINE
  5
645
330
4E3
100
AcDbEntity
  8
0
  6
Continuous
 62
     7
370
    15
100
AcDbLine
 10
1604.817953911905
 20
1791.715090337387
 30
0.0
 11
1604.817953911905
 21
1792.515090356386
 31
0.0
1001
AcDbBlockRepETag
1070
     1
1071
       28
1005
645
  0
LINE
  5
646
330
4E3
100
AcDbEntity
  8
0
  6
Continuous
 62
     7
370
    15
100
AcDbLine
 10
1603.817953747993
 20
1792.515090356386
 30
0.0
 11
1604.817953911905
 21
1792.515090356386
 31
0.0
1001
AcDbBlockRepETag
1070
     1
1071
       29
1005
646
  0
LINE
  5
647
330
4E3
100
AcDbEntity
  8
0
  6
Continuous
 62
     7
370
    15
100
AcDbLine
 10
1604.817953911905
 20
1791.715090337387
 30
0.0
 11
1603.817953747993
 21
1791.715090337387
 31
0.0
1001
AcDbBlockRepETag
1070
     1
1071
       30
1005
647
  0
LINE
  5
648
330
4E3
100
AcDbEntity
  8
0
  6
Continuous
 62
     7
370
    15
100
AcDbLine
 10
1596.535193918888
 20
1791.715090337387
 30
0.0
 11
1596.535193918888
 21
1792.515090356386
 31
0.0
1001
AcDbBlockRepETag
1070
     1
1071
       31
1005
648
  0
LINE
  5
649
330
4E3
100
AcDbEntity
  8
0
  6
Continuous
 62
     7
370
    15
100
AcDbLine
 10
1596.535193918888
 20
1792.515090356386
 30
0.0
 11
1603.817953747993
 21
1792.515090356386
 31
0.0
1001
AcDbBlockRepETag
1070
     1
1071
       32
1005
649
  0
LINE
  5
64A
330
4E3
100
AcDbEntity
  8
0
  6
Continuous
 62
     7
370
    15
100
AcDbLine
 10
1603.817953747993
 20
1791.715090337387
 30
0.0
 11
1596.535193918888
 21
1791.715090337387
 31
0.0
1001
AcDbBlockRepETag
1070
     1
1071
       33
1005
64A
  0
LINE
  5
64B
330
4E3
100
AcDbEntity
  8
0
  6
Continuous
 62
     7
370
    15
100
AcDbLine
 10
1595.536444589055
 20
1791.715090337387
 30
0.0
 11
1595.536444589055
 21
1792.515090356386
 31
0.0
1001
AcDbBlockRepETag
1070
     1
1071
       34
1005
64B
  0
LINE
  5
64C
330
4E3
100
AcDbEntity
  8
0
  6
Continuous
 62
     7
370
    15
100
AcDbLine
 10
1595.536444589055
 20
1792.515090356386
 30
0.0
 11
1596.535193918888
 21
1792.515090356386
 31
0.0
1001
AcDbBlockRepETag
1070
     1
1071
       35
1005
64C
  0
LINE
  5
64D
330
4E3
100
AcDbEntity
  8
0
  6
Continuous
 62
     7
370
    15
100
AcDbLine
 10
1596.535193918888
 20
1791.715090337387
 30
0.0
 11
1595.536444589055
 21
1791.715090337387
 31
0.0
1001
AcDbBlockRepETag
1070
     1
1071
       36
1005
64D
  0
LINE
  5
64E
330
4E3
100
AcDbEntity
  8
0
  6
Continuous
 62
     7
370
    15
100
AcDbLine
 10
1595.86969496358
 20
1795.515090356386
 30
0.0
 11
1598.485193967011
 21
1795.515090356386
 31
0.0
1001
AcDbBlockRepETag
1070
     1
1071
       37
1005
64E
  0
LINE
  5
64F
330
4E3
100
AcDbEntity
  8
0
  6
Continuous
 62
     7
370
    15
100
AcDbLine
 10
1598.485193967011
 20
1794.515090356386
 30
0.0
 11
1598.485193967011
 21
1795.515090356386
 31
0.0
1001
AcDbBlockRepETag
1070
     1
1071
       38
1005
64F
  0
LINE
  5
650
330
4E3
100
AcDbEntity
  8
0
  6
Continuous
 62
     7
370
    15
100
AcDbLine
 10
1599.58519396701
 20
1794.515090356386
 30
0.0
 11
1598.485193967011
 21
1794.515090356386
 31
0.0
1001
AcDbBlockRepETag
1070
     1
1071
       39
1005
650
  0
LINE
  5
651
330
4E3
100
AcDbEntity
  8
0
  6
Continuous
 62
     7
370
    15
100
AcDbLine
 10
1599.58519396701
 20
1795.515090356386
 30
0.0
 11
1599.58519396701
 21
1794.515090356386
 31
0.0
1001
AcDbBlockRepETag
1070
     1
1071
       40
1005
651
  0
LINE
  5
652
330
4E3
100
AcDbEntity
  8
0
  6
Continuous
 62
     7
370
    15
100
AcDbLine
 10
1599.58519396701
 20
1795.515090356386
 30
0.0
 11
1602.200692970441
 21
1795.515090356386
 31
0.0
1001
AcDbBlockRepETag
1070
     1
1071
       41
1005
652
  0
ARC
  5
653
330
4E3
100
AcDbEntity
  8
0
  6
Continuous
 62
     7
370
    15
100
AcDbCircle
 10
1604.817953911905
 20
1791.215090356385
 30
0.0
 40
0.4999999810010536
100
AcDbArc
 50
0.0000082078658189
 51
90.0
1001
AcDbBlockRepETag
1070
     1
1071
       42
1005
653
  0
ARC
  5
654
330
4E3
100
AcDbEntity
  8
0
  6
Continuous
 62
     7
370
    15
100
AcDbCircle
 10
1604.817953911905
 20
1791.215090356385
 30
0.0
 40
1.300000000000125
100
AcDbArc
 50
0.0000031568754773
 51
90.0
1001
AcDbBlockRepETag
1070
     1
1071
       43
1005
654
  0
LINE
  5
655
330
4E3
100
AcDbEntity
  8
0
  6
Continuous
 62
     7
370
    15
100
AcDbLine
 10
1604.841108316868
 20
1780.091954086798
 30
0.0
 11
1602.971624881928
 21
1779.928395479592
 31
0.0
1001
AcDbBlockRepETag
1070
     1
1071
       44
1005
655
  0
LINE
  5
656
330
4E3
100
AcDbEntity
  8
0
  6
Continuous
 62
     7
370
    15
100
AcDbLine
 10
1602.971624881928
 20
1779.928395479592
 30
0.0
 11
1602.750540634658
 21
1779.974264739061
 31
0.0
1001
AcDbBlockRepETag
1070
     1
1071
       45
1005
656
  0
LINE
  5
657
330
4E3
100
AcDbEntity
  8
0
  6
Continuous
 62
     7
370
    15
100
AcDbLine
 10
1602.750540634658
 20
1779.974264739061
 30
0.0
 11
1602.561296467566
 21
1779.892496395012
 31
0.0
1001
AcDbBlockRepETag
1070
     1
1071
       46
1005
657
  0
LINE
  5
658
330
4E3
100
AcDbEntity
  8
0
  6
Continuous
 62
     7
370
    15
100
AcDbLine
 10
1602.561296467566
 20
1779.892496395012
 30
0.0
 11
1601.756880635372
 21
1779.822119128935
 31
0.0
1001
AcDbBlockRepETag
1070
     1
1071
       47
1005
658
  0
LINE
  5
659
330
4E3
100
AcDbEntity
  8
0
  6
Continuous
 62
     7
370
    15
100
AcDbLine
 10
1601.756880635372
 20
1779.822119128935
 30
0.0
 11
1601.535796156158
 21
1779.867988368112
 31
0.0
1001
AcDbBlockRepETag
1070
     1
1071
       48
1005
659
  0
LINE
  5
65A
330
4E3
100
AcDbEntity
  8
0
  6
Continuous
 62
     7
370
    15
100
AcDbLine
 10
1601.535796156158
 20
1779.867988368112
 30
0.0
 11
1601.346551989066
 21
1779.786220024063
 31
0.0
1001
AcDbBlockRepETag
1070
     1
1071
       49
1005
65A
  0
LINE
  5
65B
330
4E3
100
AcDbEntity
  8
0
  6
Continuous
 62
     7
370
    15
100
AcDbLine
 10
1601.346551989066
 20
1779.786220024063
 30
0.0
 11
1600.451639471427
 21
1779.707925323922
 31
0.0
1001
AcDbBlockRepETag
1070
     1
1071
       50
1005
65B
  0
LINE
  5
65C
330
4E3
100
AcDbEntity
  8
0
  6
Continuous
 62
     7
370
    15
100
AcDbLine
 10
1600.451639471427
 20
1779.707925323922
 30
0.0
 11
1600.184393077489
 21
1779.749755918874
 31
0.0
1001
AcDbBlockRepETag
1070
     1
1071
       51
1005
65C
  0
LINE
  5
65D
330
4E3
100
AcDbEntity
  8
0
  6
Continuous
 62
     7
370
    15
100
AcDbLine
 10
1600.184393077489
 20
1779.749755918874
 30
0.0
 11
1599.995148910397
 21
1779.667987574825
 31
0.0
1001
AcDbBlockRepETag
1070
     1
1071
       52
1005
65D
  0
LINE
  5
65E
330
4E3
100
AcDbEntity
  8
0
  6
Continuous
 62
     7
370
    15
100
AcDbLine
 10
1599.995148910397
 20
1779.667987574825
 30
0.0
 11
1599.100236363766
 21
1779.589692872148
 31
0.0
1001
AcDbBlockRepETag
1070
     1
1071
       53
1005
65E
  0
LINE
  5
65F
330
4E3
100
AcDbEntity
  8
0
  6
Continuous
 62
     7
370
    15
100
AcDbLine
 10
1599.100236363766
 20
1779.589692872148
 30
0.0
 11
1598.832989940835
 21
1779.631523464564
 31
0.0
1001
AcDbBlockRepETag
1070
     1
1071
       54
1005
65F
  0
LINE
  5
660
330
4E3
100
AcDbEntity
  8
0
  6
Continuous
 62
     7
370
    15
100
AcDbLine
 10
1598.832989940835
 20
1779.631523464564
 30
0.0
 11
1598.643745773743
 21
1779.549755120515
 31
0.0
1001
AcDbBlockRepETag
1070
     1
1071
       55
1005
660
  0
LINE
  5
661
330
4E3
100
AcDbEntity
  8
0
  6
Continuous
 62
     7
370
    15
100
AcDbLine
 10
1598.643745773743
 20
1779.549755120515
 30
0.0
 11
1597.748833198118
 21
1779.471460415301
 31
0.0
1001
AcDbBlockRepETag
1070
     1
1071
       56
1005
661
  0
LINE
  5
662
330
4E3
100
AcDbEntity
  8
0
  6
Continuous
 62
     7
370
    15
100
AcDbLine
 10
1597.748833198118
 20
1779.471460415301
 30
0.0
 11
1597.481586862166
 21
1779.513291015326
 31
0.0
1001
AcDbBlockRepETag
1070
     1
1071
       57
1005
662
  0
LINE
  5
663
330
4E3
100
AcDbEntity
  8
0
  6
Continuous
 62
     7
370
    15
100
AcDbLine
 10
1597.481586862166
 20
1779.513291015326
 30
0.0
 11
1597.292342695074
 21
1779.431522671277
 31
0.0
1001
AcDbBlockRepETag
1070
     1
1071
       58
1005
663
  0
LINE
  5
664
330
4E3
100
AcDbEntity
  8
0
  6
Continuous
 62
     7
370
    15
100
AcDbLine
 10
1597.292342695074
 20
1779.431522671277
 30
0.0
 11
1596.487926862881
 21
1779.3611454052
 31
0.0
1001
AcDbBlockRepETag
1070
     1
1071
       59
1005
664
  0
LINE
  5
665
330
4E3
100
AcDbEntity
  8
0
  6
Continuous
 62
     7
370
    15
100
AcDbLine
 10
1596.487926862881
 20
1779.3611454052
 30
0.0
 11
1596.266842383666
 21
1779.407014644377
 31
0.0
1001
AcDbBlockRepETag
1070
     1
1071
       60
1005
665
  0
LINE
  5
666
330
4E3
100
AcDbEntity
  8
0
  6
Continuous
 62
     7
370
    15
100
AcDbLine
 10
1596.266842383666
 20
1779.407014644377
 30
0.0
 11
1596.077598216574
 21
1779.325246300327
 31
0.0
1001
AcDbBlockRepETag
1070
     1
1071
       61
1005
666
  0
LINE
  5
667
330
4E3
100
AcDbEntity
  8
0
  6
Continuous
 62
     7
370
    15
100
AcDbLine
 10
1596.077598216574
 20
1779.325246300327
 30
0.0
 11
1593.534036096009
 21
1779.102713449804
 31
0.0
1001
AcDbBlockRepETag
1070
     1
1071
       62
1005
667
  0
LINE
  5
668
330
4E3
100
AcDbEntity
  8
0
  6
Continuous
 62
     7
370
    15
100
AcDbLine
 10
1593.534036096009
 20
1779.102713449804
 30
0.0
 11
1593.447214368401
 21
1780.095090337385
 31
0.0
1001
AcDbBlockRepETag
1070
     1
1071
       63
1005
668
  0
LINE
  5
669
330
4E3
100
AcDbEntity
  8
0
  6
Continuous
 62
     7
370
    15
100
AcDbLine
 10
1605.441678927731
 20
1787.666986587458
 30
0.0
 11
1605.31019396701
 21
1787.655483143971
 31
0.0
1001
AcDbBlockRepETag
1070
     1
1071
       64
1005
669
  0
LINE
  5
66A
330
4E3
100
AcDbEntity
  8
0
  6
Continuous
 62
     7
370
    15
100
AcDbLine
 10
1605.441678927731
 20
1787.666986587458
 30
0.0
 11
1605.317953892906
 21
1791.215090428013
 31
0.0
1001
AcDbBlockRepETag
1070
     1
1071
       65
1005
66A
  0
LINE
  5
66B
330
4E3
100
AcDbEntity
  8
0
  6
Continuous
 62
     7
370
    15
100
AcDbLine
 10
1606.117953911905
 20
1791.215090428013
 30
0.0
 11
1606.415871559618
 21
1782.656062700876
 31
0.0
1001
AcDbBlockRepETag
1070
     1
1071
       66
1005
66B
  0
LINE
  5
66C
330
4E3
100
AcDbEntity
  8
0
  6
Continuous
 62
     7
370
    15
100
AcDbLine
 10
1595.535193830551
 20
1791.715090337387
 30
0.0
 11
1595.535193830551
 21
1792.515090356386
 31
0.0
1001
AcDbBlockRepETag
1070
     1
1071
       67
1005
66C
  0
LINE
  5
66D
330
4E3
100
AcDbEntity
  8
0
  6
Continuous
 62
     7
370
    15
100
AcDbLine
 10
1595.535193830551
 20
1792.515090356386
 30
0.0
 11
1595.536444589055
 21
1792.515090356386
 31
0.0
1001
AcDbBlockRepETag
1070
     1
1071
       68
1005
66D
  0
LINE
  5
66E
330
4E3
100
AcDbEntity
  8
0
  6
Continuous
 62
     7
370
    15
100
AcDbLine
 10
1595.536444589055
 20
1791.715090337387
 30
0.0
 11
1595.535193830551
 21
1791.715090337387
 31
0.0
1001
AcDbBlockRepETag
1070
     1
1071
       69
1005
66E
  0
LINE
  5
66F
330
4E3
100
AcDbEntity
  8
0
  6
Continuous
 62
     7
370
    15
100
AcDbLine
 10
1596.570193967011
 20
1790.095090337387
 30
0.0
 11
1601.500193967011
 21
1790.095090337387
 31
0.0
1001
AcDbBlockRepETag
1070
     1
1071
       70
1005
66F
  0
ENDBLK
  5
4E5
330
4E3
100
AcDbEntity
  8
0
100
AcDbBlockEnd
  0
BLOCK
  5
52F
330
52E
100
AcDbEntity
  8
0
100
AcDbBlockBegin
  2
3
 70
     0
 10
0.0
 20
0.0
 30
0.0
  3
3
  1

  0
LINE
  5
531
330
52E
100
AcDbEntity
  8
0
  6
Continuous
 62
     7
370
    15
100
AcDbLine
 10
1634.911870247518
 20
1753.834711338009
 30
0.0
 11
1628.611870247518
 21
1753.834711338009
 31
0.0
  0
ARC
  5
532
330
52E
100
AcDbEntity
  8
0
  6
Continuous
 62
     7
370
    15
100
AcDbCircle
 10
1631.761870515299
 20
1746.410173403365
 30
0.0
 40
3.427964994008112
100
AcDbArc
 50
307.7783440000493
 51
232.2216559999689
  0
ARC
  5
533
330
52E
100
AcDbEntity
  8
0
  6
Continuous
 62
     7
370
    15
100
AcDbCircle
 10
1631.761870515299
 20
1746.410173403365
 30
0.0
 40
3.427964994008112
100
AcDbArc
 50
232.2216559999689
 51
307.7783440000493
  0
LINE
  5
534
330
52E
100
AcDbEntity
  8
0
  6
Continuous
 62
     7
370
    15
100
AcDbLine
 10
1628.644518443313
 20
1745.860173403364
 30
0.0
 11
1628.555715690378
 21
1745.860173403364
 31
0.0
  0
ARC
  5
535
330
52E
100
AcDbEntity
  8
0
  6
Continuous
 62
     7
370
    15
100
AcDbCircle
 10
1631.761870515299
 20
1746.410173403365
 30
0.0
 40
3.165499003430338
100
AcDbArc
 50
190.0058238397257
 51
349.9941761602743
  0
LINE
  5
536
330
52E
100
AcDbEntity
  8
0
  6
Continuous
 62
     7
370
    15
100
AcDbLine
 10
1634.968025340221
 20
1745.860173403364
 30
0.0
 11
1634.879222587286
 21
1745.860173403364
 31
0.0
  0
ARC
  5
537
330
52E
100
AcDbEntity
  8
0
  6
Continuous
 62
     7
370
    15
100
AcDbCircle
 10
1631.761870515299
 20
1746.410173403365
 30
0.0
 40
3.25298766695627
100
AcDbArc
 50
350.2659381926896
 51
9.734061807310439
  0
LINE
  5
538
330
52E
100
AcDbEntity
  8
0
  6
Continuous
 62
     7
370
    15
100
AcDbLine
 10
1634.879222587286
 20
1746.960173403365
 30
0.0
 11
1634.968025340221
 21
1746.960173403365
 31
0.0
  0
ARC
  5
539
330
52E
100
AcDbEntity
  8
0
  6
Continuous
 62
     7
370
    15
100
AcDbCircle
 10
1631.761870515299
 20
1746.410173403365
 30
0.0
 40
3.165499003430338
100
AcDbArc
 50
10.00582383972568
 51
169.9941761602743
  0
LINE
  5
53A
330
52E
100
AcDbEntity
  8
0
  6
Continuous
 62
     7
370
    15
100
AcDbLine
 10
1628.555715690378
 20
1746.960173403365
 30
0.0
 11
1628.644518443313
 21
1746.960173403365
 31
0.0
  0
ARC
  5
53B
330
52E
100
AcDbEntity
  8
0
  6
Continuous
 62
     7
370
    15
100
AcDbCircle
 10
1631.761870515299
 20
1746.410173403365
 30
0.0
 40
3.252987666956242
100
AcDbArc
 50
170.2659381926895
 51
189.7340618073104
  0
LINE
  5
53C
330
52E
100
AcDbEntity
  8
0
  6
Continuous
 62
     7
370
    15
100
AcDbLine
 10
1634.879222587286
 20
1746.960173403365
 30
0.0
 11
1632.411870515299
 21
1746.960173403365
 31
0.0
  0
LINE
  5
53D
330
52E
100
AcDbEntity
  8
0
  6
Continuous
 62
     7
370
    15
100
AcDbLine
 10
1632.411870515299
 20
1746.960173403365
 30
0.0
 11
1632.411870515299
 21
1748.510173403366
 31
0.0
  0
LINE
  5
53E
330
52E
100
AcDbEntity
  8
0
  6
Continuous
 62
     7
370
    15
100
AcDbLine
 10
1632.411870515299
 20
1748.510173403366
 30
0.0
 11
1631.111870515304
 21
1748.510173403366
 31
0.0
  0
LINE
  5
53F
330
52E
100
AcDbEntity
  8
0
  6
Continuous
 62
     7
370
    15
100
AcDbLine
 10
1631.111870515304
 20
1748.510173403366
 30
0.0
 11
1631.111870515304
 21
1746.960173403365
 31
0.0
  0
LINE
  5
540
330
52E
100
AcDbEntity
  8
0
  6
Continuous
 62
     7
370
    15
100
AcDbLine
 10
1631.111870515304
 20
1746.960173403365
 30
0.0
 11
1628.644518443313
 21
1746.960173403365
 31
0.0
  0
LINE
  5
541
330
52E
100
AcDbEntity
  8
0
  6
Continuous
 62
     7
370
    15
100
AcDbLine
 10
1632.411870515299
 20
1744.310173403365
 30
0.0
 11
1632.411870515299
 21
1745.860173403364
 31
0.0
  0
LINE
  5
542
330
52E
100
AcDbEntity
  8
0
  6
Continuous
 62
     7
370
    15
100
AcDbLine
 10
1632.411870515299
 20
1745.860173403364
 30
0.0
 11
1634.879222587286
 21
1745.860173403364
 31
0.0
  0
LINE
  5
543
330
52E
100
AcDbEntity
  8
0
  6
Continuous
 62
     7
370
    15
100
AcDbLine
 10
1628.644518443313
 20
1745.860173403364
 30
0.0
 11
1631.111870515304
 21
1745.860173403364
 31
0.0
  0
LINE
  5
544
330
52E
100
AcDbEntity
  8
0
  6
Continuous
 62
     7
370
    15
100
AcDbLine
 10
1631.111870515304
 20
1744.310173403365
 30
0.0
 11
1632.411870515299
 21
1744.310173403365
 31
0.0
  0
LINE
  5
545
330
52E
100
AcDbEntity
  8
0
  6
Continuous
 62
     7
370
    15
100
AcDbLine
 10
1631.111870515304
 20
1745.860173403364
 30
0.0
 11
1631.111870515304
 21
1744.310173403365
 31
0.0
  0
ARC
  5
546
330
52E
100
AcDbEntity
  8
0
  6
Continuous
 62
     7
370
    15
100
AcDbCircle
 10
1628.911870563422
 20
1743.660173307119
 30
0.0
 40
0.7499999518770438
100
AcDbArc
 50
270.0
 51
0.0
  0
LINE
  5
547
330
52E
100
AcDbEntity
  8
0
  6
Continuous
 62
     7
370
    15
100
AcDbLine
 10
1628.611870247518
 20
1742.910173266906
 30
0.0
 11
1628.911870563422
 21
1742.910173355242
 31
0.0
  0
LINE
  5
548
330
52E
100
AcDbEntity
  8
0
  6
Continuous
 62
     7
370
    15
100
AcDbLine
 10
1628.611870247518
 20
1742.910173266906
 30
0.0
 11
1628.611870247518
 21
1742.911424113151
 31
0.0
  0
ARC
  5
549
330
52E
100
AcDbEntity
  8
0
  6
Continuous
 62
     7
370
    15
100
AcDbCircle
 10
1628.66186976174
 20
1743.910173355242
 30
0.0
 40
0.9999999999998316
100
AcDbArc
 50
179.9999961229484
 51
267.1340438852864
  0
LINE
  5
54A
330
52E
100
AcDbEntity
  8
0
  6
Continuous
 62
     7
370
    15
100
AcDbLine
 10
1627.66186976174
 20
1751.192933184347
 30
0.0
 11
1627.66186976174
 21
1743.910173422909
 31
0.0
  0
LINE
  5
54B
330
52E
100
AcDbEntity
  8
0
  6
Continuous
 62
     7
370
    15
100
AcDbLine
 10
1628.611870247518
 20
1752.192933348259
 30
0.0
 11
1627.66186976174
 21
1751.192933184347
 31
0.0
  0
LINE
  5
54C
330
52E
100
AcDbEntity
  8
0
  6
Continuous
 62
     7
370
    15
100
AcDbLine
 10
1628.611870247518
 20
1752.192933348259
 30
0.0
 11
1634.911870247518
 21
1752.192933348259
 31
0.0
  0
LINE
  5
54D
330
52E
100
AcDbEntity
  8
0
  6
Continuous
 62
     7
370
    15
100
AcDbLine
 10
1635.861870733296
 20
1751.192933184347
 30
0.0
 11
1634.911870247518
 21
1752.192933348259
 31
0.0
  0
LINE
  5
54E
330
52E
100
AcDbEntity
  8
0
  6
Continuous
 62
     7
370
    15
100
AcDbLine
 10
1635.861870563423
 20
1743.910173355242
 30
0.0
 11
1635.861870733296
 21
1751.192933184347
 31
0.0
  0
ARC
  5
54F
330
52E
100
AcDbEntity
  8
0
  6
Continuous
 62
     7
370
    15
100
AcDbCircle
 10
1634.861870563423
 20
1743.910173258996
 30
0.0
 40
1.000000000000007
100
AcDbArc
 50
272.8659658599168
 51
0.0000055144845858
  0
LINE
  5
550
330
52E
100
AcDbEntity
  8
0
  6
Continuous
 62
     7
370
    15
100
AcDbLine
 10
1634.911870247518
 20
1742.910173266906
 30
0.0
 11
1634.911870247518
 21
1742.911424025409
 31
0.0
  0
LINE
  5
551
330
52E
100
AcDbEntity
  8
0
  6
Continuous
 62
     7
370
    15
100
AcDbLine
 10
1634.611870563423
 20
1742.910173355242
 30
0.0
 11
1634.911870247518
 21
1742.910173266906
 31
0.0
  0
ARC
  5
552
330
52E
100
AcDbEntity
  8
0
  6
Continuous
 62
     7
370
    15
100
AcDbCircle
 10
1634.611870515299
 20
1743.660173355242
 30
0.0
 40
0.7499999999999732
100
AcDbArc
 50
180.0000073526461
 51
270.000003676336
  0
LINE
  5
553
330
52E
100
AcDbEntity
  8
0
  6
Continuous
 62
     7
370
    15
100
AcDbLine
 10
1633.861870515299
 20
1743.660173258996
 30
0.0
 11
1633.861870515299
 21
1743.700755753731
 31
0.0
  0
LINE
  5
554
330
52E
100
AcDbEntity
  8
0
  6
Continuous
 62
     7
370
    15
100
AcDbLine
 10
1629.6618705153
 20
1743.700755753731
 30
0.0
 11
1629.6618705153
 21
1743.660173307119
 31
0.0
  0
LINE
  5
555
330
52E
100
AcDbEntity
  8
0
  6
Continuous
 62
     7
370
    15
100
AcDbLine
 10
1628.611870247518
 20
1752.192933348259
 30
0.0
 11
1628.611870247518
 21
1753.49293334826
 31
0.0
  0
LINE
  5
556
330
52E
100
AcDbEntity
  8
0
  6
Continuous
 62
     7
370
    15
100
AcDbLine
 10
1628.611870247518
 20
1753.49293334826
 30
0.0
 11
1634.911870247518
 21
1753.49293334826
 31
0.0
  0
LINE
  5
557
330
52E
100
AcDbEntity
  8
0
  6
Continuous
 62
     7
370
    15
100
AcDbLine
 10
1634.911870247518
 20
1752.192933348259
 30
0.0
 11
1634.911870247518
 21
1753.49293334826
 31
0.0
  0
LINE
  5
558
330
52E
100
AcDbEntity
  8
0
  6
Continuous
 62
     7
370
    15
100
AcDbLine
 10
1628.611870247518
 20
1753.829764448768
 30
0.0
 11
1634.911870247518
 21
1753.829764448768
 31
0.0
  0
LINE
  5
559
330
52E
100
AcDbEntity
  8
0
  6
Continuous
 62
     7
370
    15
100
AcDbLine
 10
1628.611870247518
 20
1753.49293334826
 30
0.0
 11
1628.611870247518
 21
1753.829764448768
 31
0.0
  0
LINE
  5
55A
330
52E
100
AcDbEntity
  8
0
  6
Continuous
 62
     7
370
    15
100
AcDbLine
 10
1634.911870247518
 20
1753.49293334826
 30
0.0
 11
1634.911870247518
 21
1753.829764448768
 31
0.0
  0
LINE
  5
55B
330
52E
100
AcDbEntity
  8
0
  6
Continuous
 62
     7
370
    15
100
AcDbLine
 10
1628.511870515299
 20
1752.685173403364
 30
0.0
 11
1628.611870247518
 21
1752.685173403364
 31
0.0
  0
LINE
  5
55C
330
52E
100
AcDbEntity
  8
0
  6
Continuous
 62
     7
370
    15
100
AcDbLine
 10
1634.911870247518
 20
1752.685173403365
 30
0.0
 11
1635.011870515299
 21
1752.685173403365
 31
0.0
  0
LINE
  5
55D
330
52E
100
AcDbEntity
  8
0
  6
Continuous
 62
     7
370
    15
100
AcDbLine
 10
1635.011870515299
 20
1740.135173403365
 30
0.0
 11
1628.511870515299
 21
1740.135173403364
 31
0.0
  0
LINE
  5
55E
330
52E
100
AcDbEntity
  8
0
  6
Continuous
 62
     7
370
    15
100
AcDbLine
 10
1636.511870515299
 20
1752.685173403365
 30
0.0
 11
1635.011870515299
 21
1752.685173403365
 31
0.0
  0
LINE
  5
55F
330
52E
100
AcDbEntity
  8
0
  6
Continuous
 62
     7
370
    15
100
AcDbLine
 10
1636.511870515299
 20
1740.135173403365
 30
0.0
 11
1636.511870515299
 21
1752.685173403365
 31
0.0
  0
LINE
  5
560
330
52E
100
AcDbEntity
  8
0
  6
Continuous
 62
     7
370
    15
100
AcDbLine
 10
1635.011870515299
 20
1740.135173403365
 30
0.0
 11
1636.511870515299
 21
1740.135173403365
 31
0.0
  0
LINE
  5
561
330
52E
100
AcDbEntity
  8
0
  6
Continuous
 62
     7
370
    15
100
AcDbLine
 10
1627.011870515299
 20
1740.135173403365
 30
0.0
 11
1628.511870515299
 21
1740.135173403364
 31
0.0
  0
LINE
  5
562
330
52E
100
AcDbEntity
  8
0
  6
Continuous
 62
     7
370
    15
100
AcDbLine
 10
1627.011870515299
 20
1740.135173403365
 30
0.0
 11
1627.011870515299
 21
1752.685173403365
 31
0.0
  0
LINE
  5
563
330
52E
100
AcDbEntity
  8
0
  6
Continuous
 62
     7
370
    15
100
AcDbLine
 10
1628.511870515299
 20
1752.685173403364
 30
0.0
 11
1627.011870515299
 21
1752.685173403365
 31
0.0
  0
LINE
  5
564
330
52E
100
AcDbEntity
  8
0
  6
Continuous
 62
     7
370
    15
100
AcDbLine
 10
1636.511870515299
 20
1754.660173403365
 30
0.0
 11
1635.211870515299
 21
1754.660173403365
 31
0.0
  0
LINE
  5
565
330
52E
100
AcDbEntity
  8
0
  6
Continuous
 62
     7
370
    15
100
AcDbLine
 10
1636.511870515299
 20
1753.160173403365
 30
0.0
 11
1635.211870515299
 21
1753.160173403365
 31
0.0
  0
LINE
  5
566
330
52E
100
AcDbEntity
  8
0
  6
Continuous
 62
     7
370
    15
100
AcDbLine
 10
1636.511870515299
 20
1754.660173403365
 30
0.0
 11
1636.511870515299
 21
1753.160173403365
 31
0.0
  0
LINE
  5
567
330
52E
100
AcDbEntity
  8
0
  6
Continuous
 62
     7
370
    15
100
AcDbLine
 10
1635.211870515299
 20
1753.160173403365
 30
0.0
 11
1635.211870515299
 21
1754.660173403365
 31
0.0
  0
LINE
  5
568
330
52E
100
AcDbEntity
  8
0
  6
Continuous
 62
     7
370
    15
100
AcDbLine
 10
1628.3118705153
 20
1753.160173403365
 30
0.0
 11
1627.011870515299
 21
1753.160173403365
 31
0.0
  0
LINE
  5
569
330
52E
100
AcDbEntity
  8
0
  6
Continuous
 62
     7
370
    15
100
AcDbLine
 10
1628.3118705153
 20
1754.660173403365
 30
0.0
 11
1627.011870515299
 21
1754.660173403365
 31
0.0
  0
LINE
  5
56A
330
52E
100
AcDbEntity
  8
0
  6
Continuous
 62
     7
370
    15
100
AcDbLine
 10
1627.011870515299
 20
1753.160173403365
 30
0.0
 11
1627.011870515299
 21
1754.660173403365
 31
0.0
  0
LINE
  5
56B
330
52E
100
AcDbEntity
  8
0
  6
Continuous
 62
     7
370
    15
100
AcDbLine
 10
1628.3118705153
 20
1754.660173403365
 30
0.0
 11
1628.3118705153
 21
1753.160173403365
 31
0.0
  0
LINE
  5
56C
330
52E
100
AcDbEntity
  8
0
  6
Continuous
 62
     7
370
    15
100
AcDbLine
 10
1636.511870515299
 20
1753.160173403365
 30
0.0
 11
1636.511870515299
 21
1752.685173403365
 31
0.0
  0
LINE
  5
56D
330
52E
100
AcDbEntity
  8
0
  6
Continuous
 62
     7
370
    15
100
AcDbLine
 10
1635.211870515299
 20
1752.685173403365
 30
0.0
 11
1635.211870515299
 21
1753.160173403365
 31
0.0
  0
LINE
  5
56E
330
52E
100
AcDbEntity
  8
0
  6
Continuous
 62
     7
370
    15
100
AcDbLine
 10
1627.011870515299
 20
1752.685173403365
 30
0.0
 11
1627.011870515299
 21
1753.160173403365
 31
0.0
  0
LINE
  5
56F
330
52E
100
AcDbEntity
  8
0
  6
Continuous
 62
     7
370
    15
100
AcDbLine
 10
1628.3118705153
 20
1753.160173403365
 30
0.0
 11
1628.3118705153
 21
1752.685173403365
 31
0.0
  0
LINE
  5
570
330
52E
100
AcDbEntity
  8
0
  6
Continuous
 62
     7
370
    15
100
AcDbLine
 10
1636.511870515299
 20
1739.660173403365
 30
0.0
 11
1635.211870515299
 21
1739.660173403365
 31
0.0
  0
LINE
  5
571
330
52E
100
AcDbEntity
  8
0
  6
Continuous
 62
     7
370
    15
100
AcDbLine
 10
1636.511870515299
 20
1738.160173403365
 30
0.0
 11
1635.211870515299
 21
1738.160173403365
 31
0.0
  0
LINE
  5
572
330
52E
100
AcDbEntity
  8
0
  6
Continuous
 62
     7
370
    15
100
AcDbLine
 10
1636.511870515299
 20
1739.660173403365
 30
0.0
 11
1636.511870515299
 21
1738.160173403365
 31
0.0
  0
LINE
  5
573
330
52E
100
AcDbEntity
  8
0
  6
Continuous
 62
     7
370
    15
100
AcDbLine
 10
1635.211870515299
 20
1738.160173403365
 30
0.0
 11
1635.211870515299
 21
1739.660173403365
 31
0.0
  0
LINE
  5
574
330
52E
100
AcDbEntity
  8
0
  6
Continuous
 62
     7
370
    15
100
AcDbLine
 10
1628.3118705153
 20
1738.160173403365
 30
0.0
 11
1627.011870515299
 21
1738.160173403365
 31
0.0
  0
LINE
  5
575
330
52E
100
AcDbEntity
  8
0
  6
Continuous
 62
     7
370
    15
100
AcDbLine
 10
1628.3118705153
 20
1739.660173403365
 30
0.0
 11
1627.011870515299
 21
1739.660173403365
 31
0.0
  0
LINE
  5
576
330
52E
100
AcDbEntity
  8
0
  6
Continuous
 62
     7
370
    15
100
AcDbLine
 10
1627.011870515299
 20
1738.160173403365
 30
0.0
 11
1627.011870515299
 21
1739.660173403365
 31
0.0
  0
LINE
  5
577
330
52E
100
AcDbEntity
  8
0
  6
Continuous
 62
     7
370
    15
100
AcDbLine
 10
1628.3118705153
 20
1739.660173403365
 30
0.0
 11
1628.3118705153
 21
1738.160173403365
 31
0.0
  0
LINE
  5
578
330
52E
100
AcDbEntity
  8
0
  6
Continuous
 62
     7
370
    15
100
AcDbLine
 10
1627.011870515299
 20
1739.660173403365
 30
0.0
 11
1627.011870515299
 21
1740.135173403365
 31
0.0
  0
LINE
  5
579
330
52E
100
AcDbEntity
  8
0
  6
Continuous
 62
     7
370
    15
100
AcDbLine
 10
1628.3118705153
 20
1740.135173403365
 30
0.0
 11
1628.3118705153
 21
1739.660173403365
 31
0.0
  0
LINE
  5
57A
330
52E
100
AcDbEntity
  8
0
  6
Continuous
 62
     7
370
    15
100
AcDbLine
 10
1636.511870515299
 20
1740.135173403365
 30
0.0
 11
1636.511870515299
 21
1739.660173403365
 31
0.0
  0
LINE
  5
57B
330
52E
100
AcDbEntity
  8
0
  6
Continuous
 62
     7
370
    15
100
AcDbLine
 10
1635.211870515299
 20
1739.660173403365
 30
0.0
 11
1635.211870515299
 21
1740.135173403365
 31
0.0
  0
LINE
  5
57C
330
52E
100
AcDbEntity
  8
0
  6
Continuous
 62
     7
370
    15
100
AcDbLine
 10
1628.611870247518
 20
1753.829764448768
 30
0.0
 11
1628.611870247518
 21
1753.834711338009
 31
0.0
  0
LINE
  5
57D
330
52E
100
AcDbEntity
  8
0
  6
Continuous
 62
     7
370
    15
100
AcDbLine
 10
1634.911870247518
 20
1753.829764448768
 30
0.0
 11
1634.911870247518
 21
1753.834711338009
 31
0.0
  0
LINE
  5
57E
330
52E
100
AcDbEntity
  8
0
  6
Continuous
 62
     8
370
    15
100
AcDbLine
 10
1628.511870515299
 20
1740.135173403364
 30
0.0
 11
1628.511870515299
 21
1742.921487244251
 31
0.0
  0
LINE
  5
57F
330
52E
100
AcDbEntity
  8
0
  6
Continuous
 62
     8
370
    15
100
AcDbLine
 10
1628.511870515299
 20
1752.087670508812
 30
0.0
 11
1628.511870515299
 21
1752.685173403364
 31
0.0
  0
LINE
  5
580
330
52E
100
AcDbEntity
  8
0
  6
Continuous
 62
     8
370
    15
100
AcDbLine
 10
1635.011870515299
 20
1740.135173403365
 30
0.0
 11
1635.011870515299
 21
1742.921487255031
 31
0.0
  0
LINE
  5
581
330
52E
100
AcDbEntity
  8
0
  6
Continuous
 62
     8
370
    15
100
AcDbLine
 10
1635.011870515299
 20
1752.087669945061
 30
0.0
 11
1635.011870515299
 21
1752.685173403365
 31
0.0
  0
ENDBLK
  5
530
330
52E
100
AcDbEntity
  8
0
100
AcDbBlockEnd
  0
BLOCK
  5
584
330
583
100
AcDbEntity
  8
0
100
AcDbBlockBegin
  2
4
 70
     0
 10
0.0
 20
0.0
 30
0.0
  3
4
  1

  0
LINE
  5
586
330
583
100
AcDbEntity
  8
0
  6
Continuous
 62
     7
370
    15
100
AcDbLine
 10
1672.576222941767
 20
1789.584153048075
 30
0.0
 11
1672.31425951525
 21
1792.024403499487
 31
0.0
  0
LINE
  5
587
330
583
100
AcDbEntity
  8
0
  6
Continuous
 62
     7
370
    15
100
AcDbLine
 10
1665.995383963032
 20
1792.024403499487
 30
0.0
 11
1665.733420536516
 21
1789.584153048075
 31
0.0
  0
LINE
  5
588
330
583
100
AcDbEntity
  8
0
  6
Continuous
 62
     7
370
    15
100
AcDbLine
 10
1668.475532383232
 20
1787.175806518005
 30
0.0
 11
1668.475532383232
 21
1786.522573852983
 31
0.0
  0
LINE
  5
589
330
583
100
AcDbEntity
  8
0
  6
Continuous
 62
     7
370
    15
100
AcDbLine
 10
1667.054821739142
 20
1787.897635734711
 30
0.0
 11
1667.054821739142
 21
1787.485720470475
 31
0.0
  0
LINE
  5
58A
330
583
100
AcDbEntity
  8
0
  6
Continuous
 62
     7
370
    15
100
AcDbLine
 10
1671.619821739141
 20
1786.505871496213
 30
0.0
 11
1671.619821739141
 21
1786.884257462344
 31
0.0
  0
LINE
  5
58B
330
583
100
AcDbEntity
  8
0
  6
Continuous
 62
     7
370
    15
100
AcDbLine
 10
1666.689821739141
 20
1787.485720470475
 30
0.0
 11
1666.689821739141
 21
1786.505871496213
 31
0.0
  0
LINE
  5
58C
330
583
100
AcDbEntity
  8
0
  6
Continuous
 62
     7
370
    15
100
AcDbLine
 10
1664.195023197622
 20
1789.706671972261
 30
0.0
 11
1664.195023197622
 21
1789.053439307239
 31
0.0
  0
LINE
  5
58D
330
583
100
AcDbEntity
  8
0
  6
Continuous
 62
     7
370
    15
100
AcDbLine
 10
1666.560129608713
 20
1788.168506649913
 30
0.0
 11
1661.669690598862
 21
1785.345316302823
 31
0.0
  0
LINE
  5
58E
330
583
100
AcDbEntity
  8
0
  6
Continuous
 62
     7
370
    15
100
AcDbLine
 10
1676.121183857751
 20
1790.600813113452
 30
0.0
 11
1671.666411136276
 21
1793.172498665694
 31
0.0
  0
LINE
  5
58F
330
583
100
AcDbEntity
  8
0
  6
Continuous
 62
     7
370
    15
100
AcDbLine
 10
1678.036488772264
 20
1782.415642731274
 30
0.0
 11
1677.117249956721
 21
1782.946308003959
 31
0.0
  0
LWPOLYLINE
  5
590
330
583
100
AcDbEntity
  8
0
  6
Continuous
 62
     7
370
    15
100
AcDbPolyline
 90
       25
 70
   128
 43
0.0
 10
1668.723898386511
 20
1787.4985254596
 10
1668.984641232243
 20
1787.48526731472
 10
1669.246376321245
 20
1787.483533115404
 10
1669.507577598122
 20
1787.49333297296
 10
1669.766722119892
 20
1787.514609748983
 10
1670.022298935553
 20
1787.547239388502
 10
1670.272817895735
 20
1787.591031643288
 10
1670.516818341068
 20
1787.6457311811
 10
1670.752877618606
 20
1787.711019074412
 10
1670.979619376653
 20
1787.786514659927
 10
1671.195721589629
 20
1787.871777758051
 10
1671.399924266188
 20
1787.966311239373
 10
1671.591036795635
 20
1788.069563923193
 10
1671.767944889827
 20
1788.180933791207
 10
1671.929617080067
 20
1788.299771497587
 10
1672.075110731119
 20
1788.425384155021
 10
1672.20357753727
 20
1788.557039374609
 10
1672.314268468411
 20
1788.69396953609
 10
1672.406538137281
 20
1788.83537626347
 10
1672.479848562417
 20
1788.980435079987
 10
1672.533772304876
 20
1789.128300215248
 10
1672.567994960435
 20
1789.278109536521
 10
1672.582316992727
 20
1789.428989575432
 10
1672.576654896654
 20
1789.58006062075
 10
1672.576222941767
 20
1789.584153048075
  0
ARC
  5
591
330
583
100
AcDbEntity
  8
0
  6
Continuous
 62
     7
370
    15
100
AcDbCircle
 10
1666.8773936633
 20
1789.461575620634
 30
0.0
 40
1.150521508065921
100
AcDbArc
 50
173.8840568197758
 51
192.4783065575787
  0
ARC
  5
592
330
583
100
AcDbEntity
  8
0
  6
Continuous
 62
     7
370
    15
100
AcDbCircle
 10
1668.526581200932
 20
1790.586196489399
 30
0.0
 40
3.09396936959314
100
AcDbArc
 50
206.3488698610193
 51
273.6565066716737
  0
LWPOLYLINE
  5
593
330
583
100
AcDbEntity
  8
0
  6
Continuous
 62
     7
370
    15
100
AcDbPolyline
 90
       36
 70
   128
 43
0.0
 10
1666.561612220041
 20
1792.959375215147
 10
1666.425181071097
 20
1792.836734495374
 10
1666.306114750325
 20
1792.708207005828
 10
1666.205170707681
 20
1792.574610384449
 10
1666.122991106793
 20
1792.436794516866
 10
1666.060098739787
 20
1792.295636129779
 10
1666.016893701504
 20
1792.152033213598
 10
1665.99365084426
 20
1792.006899309797
 10
1665.990518029359
 20
1791.861157699354
 10
1666.007515186454
 20
1791.715735529219
 10
1666.044534186766
 20
1791.571557914199
 10
1666.101339530953
 20
1791.429542051762
 10
1666.177569847259
 20
1791.290591387214
 10
1666.27274019041
 20
1791.15558986636
 10
1666.38624512663
 20
1791.025396312207
 10
1666.517362585158
 20
1790.9008389615
 10
1666.665258451759
 20
1790.782710195821
 10
1666.828991875008
 20
1790.671761500793
 10
1667.007521251593
 20
1790.568698685444
 10
1667.199710852559
 20
1790.474177392145
 10
1667.404338048333
 20
1790.388798925687
 10
1667.620101086589
 20
1790.31310642804
 10
1667.845627373441
 20
1790.247581423099
 10
1668.079482205319
 20
1790.192640753443
 10
1668.320177895941
 20
1790.148633928551
 10
1668.566183240354
 20
1790.115840901371
 10
1668.815933255818
 20
1790.094470287377
 10
1669.067839137565
 20
1790.084658037446
 10
1669.320298366113
 20
1790.086466572992
 10
1669.571704901818
 20
1790.099884388872
 10
1669.820459401827
 20
1790.124826126574
 10
1670.064979394426
 20
1790.16113311723
 10
1670.303709346057
 20
1790.208574391007
 10
1670.535130556975
 20
1790.266848146434
 10
1670.757770822574
 20
1790.335583670338
 10
1670.970213798937
 20
1790.41434369617
  0
LWPOLYLINE
  5
594
330
583
100
AcDbEntity
  8
0
  6
Continuous
 62
     7
370
    15
100
AcDbPolyline
 90
        3
 70
   128
 43
0.0
 10
1671.033006827725
 20
1789.56155324036
 10
1670.998324667396
 20
1790.032654150244
 10
1670.970213798937
 20
1790.41434369617
  0
ARC
  5
595
330
583
100
AcDbEntity
  8
0
  6
Continuous
 62
     7
370
    15
100
AcDbCircle
 10
1669.910601555564
 20
1792.40402176946
 30
0.0
 40
3.056046618410896
100
AcDbArc
 50
291.5475716650379
 51
308.4470518022648
  0
LWPOLYLINE
  5
596
330
583
100
AcDbEntity
  8
0
  6
Continuous
 62
     7
370
    15
100
AcDbPolyline
 90
        3
 70
   128
 43
0.0
 10
1671.748031258242
 20
1790.863368157673
 10
1671.776142126701
 20
1790.481678611747
 10
1671.81082428703
 20
1790.010577701863
  0
LWPOLYLINE
  5
597
330
583
100
AcDbEntity
  8
0
  6
Continuous
 62
     7
370
    15
100
AcDbPolyline
 90
       36
 70
   128
 43
0.0
 10
1671.748031258242
 20
1790.863368157673
 10
1671.884462407186
 20
1790.986008877445
 10
1672.003528727958
 20
1791.114536366991
 10
1672.104472770602
 20
1791.24813298837
 10
1672.18665237149
 20
1791.385948855953
 10
1672.249544738496
 20
1791.52710724304
 10
1672.29274977678
 20
1791.670710159221
 10
1672.315992634023
 20
1791.815844063022
 10
1672.319125448924
 20
1791.961585673465
 10
1672.302128291829
 20
1792.1070078436
 10
1672.265109291517
 20
1792.25118545862
 10
1672.20830394733
 20
1792.393201321057
 10
1672.132073631024
 20
1792.532151985605
 10
1672.036903287873
 20
1792.66715350646
 10
1671.923398351653
 20
1792.797347060612
 10
1671.792280893125
 20
1792.921904411319
 10
1671.644385026524
 20
1793.040033176999
 10
1671.480651603275
 20
1793.150981872026
 10
1671.302122226689
 20
1793.254044687375
 10
1671.109932625724
 20
1793.348565980675
 10
1670.90530542995
 20
1793.433944447132
 10
1670.689542391694
 20
1793.50963694478
 10
1670.464016104841
 20
1793.575161949721
 10
1670.230161272964
 20
1793.630102619377
 10
1669.989465582341
 20
1793.674109444269
 10
1669.743460237929
 20
1793.706902471449
 10
1669.493710222465
 20
1793.728273085443
 10
1669.241804340718
 20
1793.738085335374
 10
1668.989345112171
 20
1793.736276799827
 10
1668.737938576465
 20
1793.722858983947
 10
1668.489184076456
 20
1793.697917246246
 10
1668.244664083857
 20
1793.661610255589
 10
1668.005934132226
 20
1793.614168981812
 10
1667.774512921308
 20
1793.555895226385
 10
1667.551872655709
 20
1793.487159702481
 10
1667.339429679347
 20
1793.408399676649
  0
LWPOLYLINE
  5
598
330
583
100
AcDbEntity
  8
0
  6
Continuous
 62
     7
370
    15
100
AcDbPolyline
 90
        3
 70
   128
 43
0.0
 10
1667.276636650558
 20
1792.628108508688
 10
1667.311318810886
 20
1793.0591662486
 10
1667.339429679347
 20
1793.408399676649
  0
LINE
  5
599
330
583
100
AcDbEntity
  8
0
  6
Continuous
 62
     7
370
    15
100
AcDbLine
 10
1667.195056318756
 20
1792.593695720666
 30
0.0
 11
1667.276636650558
 21
1792.628108508688
 31
0.0
  0
ARC
  5
59A
330
583
100
AcDbEntity
  8
0
  6
Continuous
 62
     7
370
    15
100
AcDbCircle
 10
1675.609252883821
 20
1789.714015220816
 30
0.0
 40
0.2183545821963604
100
AcDbArc
 50
350.7859752464384
 51
129.2032872144768
  0
LINE
  5
59B
330
583
100
AcDbEntity
  8
0
  6
Continuous
 62
     7
370
    15
100
AcDbLine
 10
1675.471236681538
 20
1789.883219982787
 30
0.0
 11
1675.471236681538
 21
1790.536452647809
 31
0.0
  0
ARC
  5
59C
330
583
100
AcDbEntity
  8
0
  6
Continuous
 62
     7
370
    15
100
AcDbCircle
 10
1675.830078820073
 20
1790.09652023215
 30
0.0
 40
0.5677219484361742
100
AcDbArc
 50
350.7859677160266
 51
129.2032859967795
  0
LINE
  5
59D
330
583
100
AcDbEntity
  8
0
  6
Continuous
 62
     7
370
    15
100
AcDbLine
 10
1676.39047549708
 20
1790.005614923529
 30
0.0
 11
1676.47661214126
 21
1787.197690490214
 31
0.0
  0
LINE
  5
59E
330
583
100
AcDbEntity
  8
0
  6
Continuous
 62
     7
370
    15
100
AcDbLine
 10
1667.15724508229
 20
1779.207549789554
 30
0.0
 11
1666.969022413887
 21
1781.583242630628
 31
0.0
  0
LINE
  5
59F
330
583
100
AcDbEntity
  8
0
  6
Continuous
 62
     7
370
    15
100
AcDbLine
 10
1675.884259821352
 20
1787.7440104838
 30
0.0
 11
1675.824790058697
 21
1789.679051671044
 31
0.0
  0
LINE
  5
5A0
330
583
100
AcDbEntity
  8
0
  6
Continuous
 62
     7
370
    15
100
AcDbLine
 10
1668.129516906421
 20
1790.788810532654
 30
0.0
 11
1669.22553241726
 21
1791.421526819316
 31
0.0
  0
LINE
  5
5A1
330
583
100
AcDbEntity
  8
0
  6
Continuous
 62
     7
370
    15
100
AcDbLine
 10
1669.22553241726
 20
1791.421526819316
 30
0.0
 11
1670.970213798937
 21
1790.41434369617
 31
0.0
  0
LINE
  5
5A2
330
583
100
AcDbEntity
  8
0
  6
Continuous
 62
     7
370
    15
100
AcDbLine
 10
1666.561612220041
 20
1792.959375215147
 30
0.0
 11
1668.306293601721
 21
1791.952192091999
 31
0.0
  0
LINE
  5
5A3
330
583
100
AcDbEntity
  8
0
  6
Continuous
 62
     7
370
    15
100
AcDbLine
 10
1668.306293601721
 20
1791.952192091999
 30
0.0
 11
1667.210278090882
 21
1791.319475805336
 31
0.0
  0
LINE
  5
5A4
330
583
100
AcDbEntity
  8
0
  6
Continuous
 62
     7
370
    15
100
AcDbLine
 10
1667.210278090882
 20
1791.319475805336
 30
0.0
 11
1668.129516906421
 21
1790.788810532654
 31
0.0
  0
ARC
  5
5A5
330
583
100
AcDbEntity
  8
0
  6
Continuous
 62
     7
370
    15
100
AcDbCircle
 10
1668.861769618046
 20
1774.468520985708
 30
0.0
 40
0.768402403786295
100
AcDbArc
 50
122.6054783400301
 51
177.3945215143371
  0
LINE
  5
5A6
330
583
100
AcDbEntity
  8
0
  6
Continuous
 62
     7
370
    15
100
AcDbLine
 10
1668.094161567362
 20
1774.503451411838
 30
0.0
 11
1668.094161567362
 21
1772.053828976181
 31
0.0
  0
ARC
  5
5A7
330
583
100
AcDbEntity
  8
0
  6
Continuous
 62
     7
370
    15
100
AcDbCircle
 10
1668.309698751075
 20
1772.01886537773
 30
0.0
 40
0.2183545987142771
100
AcDbArc
 50
170.7859630095436
 51
309.2032852357175
  0
LINE
  5
5A8
330
583
100
AcDbEntity
  8
0
  6
Continuous
 62
     7
370
    15
100
AcDbLine
 10
1668.447714957955
 20
1771.849660598193
 30
0.0
 11
1676.5794429416
 21
1776.544007241174
 31
0.0
  0
ARC
  5
5A9
330
583
100
AcDbEntity
  8
0
  6
Continuous
 62
     7
370
    15
100
AcDbCircle
 10
1676.16538828151
 20
1777.191310101203
 30
0.0
 40
0.7684024037862941
100
AcDbArc
 50
302.6054783400301
 51
357.3945215143371
  0
LINE
  5
5AA
330
583
100
AcDbEntity
  8
0
  6
Continuous
 62
     7
370
    15
100
AcDbLine
 10
1676.932996332193
 20
1777.156379675073
 30
0.0
 11
1676.932996332193
 21
1779.60600211073
 31
0.0
  0
ARC
  5
5AB
330
583
100
AcDbEntity
  8
0
  6
Continuous
 62
     7
370
    15
100
AcDbCircle
 10
1676.71745914848
 20
1779.64096570918
 30
0.0
 40
0.2183545987142301
100
AcDbArc
 50
350.7859630095308
 51
129.2032852357175
  0
LINE
  5
5AC
330
583
100
AcDbEntity
  8
0
  6
Continuous
 62
     7
370
    15
100
AcDbLine
 10
1676.5794429416
 20
1779.810170488717
 30
0.0
 11
1668.447714957955
 21
1775.115823845737
 31
0.0
  0
LINE
  5
5AD
330
583
100
AcDbEntity
  8
0
  6
Continuous
 62
     7
370
    15
100
AcDbLine
 10
1668.076483897832
 20
1780.780610561961
 30
0.0
 11
1676.950674001723
 21
1785.903571463649
 31
0.0
  0
LINE
  5
5AE
330
583
100
AcDbEntity
  8
0
  6
Continuous
 62
     7
370
    15
100
AcDbLine
 10
1676.950674001723
 20
1782.147483728974
 30
0.0
 11
1676.950674001723
 21
1785.903571463649
 31
0.0
  0
LINE
  5
5AF
330
583
100
AcDbEntity
  8
0
  6
Continuous
 62
     7
370
    15
100
AcDbLine
 10
1677.286549722787
 20
1782.341380655532
 30
0.0
 11
1676.950674001723
 21
1782.147483728974
 31
0.0
  0
ARC
  5
5B0
330
583
100
AcDbEntity
  8
0
  6
Continuous
 62
     7
370
    15
100
AcDbCircle
 10
1677.698450276973
 20
1781.830046562738
 30
0.0
 40
0.6566008079430535
100
AcDbArc
 50
351.136381189594
 51
128.8528670556556
  0
LINE
  5
5B1
330
583
100
AcDbEntity
  8
0
  6
Continuous
 62
     7
370
    15
100
AcDbLine
 10
1678.347209894567
 20
1781.72887552157
 30
0.0
 11
1678.347209894567
 21
1775.604819432428
 31
0.0
  0
LINE
  5
5B2
330
583
100
AcDbEntity
  8
0
  6
Continuous
 62
     7
370
    15
100
AcDbLine
 10
1666.679948004988
 20
1768.869452509891
 30
0.0
 11
1678.347209894567
 21
1775.604819432428
 31
0.0
  0
LINE
  5
5B3
330
583
100
AcDbEntity
  8
0
  6
Continuous
 62
     7
370
    15
100
AcDbLine
 10
1666.679948004988
 20
1774.993508599033
 30
0.0
 11
1666.679948004988
 21
1768.869452509891
 31
0.0
  0
ARC
  5
5B4
330
583
100
AcDbEntity
  8
0
  6
Continuous
 62
     7
370
    15
100
AcDbCircle
 10
1668.976329353823
 20
1774.892437074825
 30
0.0
 40
2.298604522809196
100
AcDbArc
 50
122.5201547614011
 51
177.4798450929733
  0
LINE
  5
5B5
330
583
100
AcDbEntity
  8
0
  6
Continuous
 62
     7
370
    15
100
AcDbLine
 10
1668.076483897832
 20
1777.024522827287
 30
0.0
 11
1667.740608176768
 21
1776.830625900728
 31
0.0
  0
LINE
  5
5B6
330
583
100
AcDbEntity
  8
0
  6
Continuous
 62
     7
370
    15
100
AcDbLine
 10
1668.076483897832
 20
1780.780610561961
 30
0.0
 11
1668.076483897832
 21
1777.024522827287
 31
0.0
  0
ARC
  5
5B7
330
583
100
AcDbEntity
  8
0
  6
Continuous
 62
     7
370
    15
100
AcDbCircle
 10
1665.195023730469
 20
1790.214326831154
 30
0.0
 40
1.147776656516347
100
AcDbArc
 50
242.4805390039322
 51
297.5194609960677
  0
LINE
  5
5B8
330
583
100
AcDbEntity
  8
0
  6
Continuous
 62
     7
370
    15
100
AcDbLine
 10
1664.45256135841
 20
1789.31887788479
 30
0.0
 11
1664.664693678607
 21
1789.196416575122
 31
0.0
  0
LINE
  5
5B9
330
583
100
AcDbEntity
  8
0
  6
Continuous
 62
     7
370
    15
100
AcDbLine
 10
1664.45256135841
 20
1789.31887788479
 30
0.0
 11
1664.453445840272
 21
1789.319388485301
 31
0.0
  0
LWPOLYLINE
  5
5BA
330
583
100
AcDbEntity
  8
0
  6
Continuous
 62
     7
370
    15
100
AcDbPolyline
 90
       11
 70
   128
 43
0.0
 10
1664.487916464283
 20
1790.114876055795
 10
1664.388956471567
 20
1790.048325078609
 10
1664.308602963589
 20
1789.97388770306
 10
1664.24871074501
 20
1789.89328217138
 10
1664.210662311367
 20
1789.80836910571
 10
1664.195335936848
 20
1789.721108559241
 10
1664.203085401041
 20
1789.633514772202
 10
1664.233731822616
 20
1789.547609677033
 10
1664.286567788457
 20
1789.465376226
 10
1664.360373682915
 20
1789.388712618598
 10
1664.453445840272
 20
1789.319388485301
  0
LINE
  5
5BB
330
583
100
AcDbEntity
  8
0
  6
Continuous
 62
     7
370
    15
100
AcDbLine
 10
1665.876444681256
 20
1790.916456333337
 30
0.0
 11
1664.487916464283
 21
1790.114876055795
 31
0.0
  0
LINE
  5
5BC
330
583
100
AcDbEntity
  8
0
  6
Continuous
 62
     7
370
    15
100
AcDbLine
 10
1675.435881570072
 20
1789.740454473576
 30
0.0
 11
1675.471236681538
 21
1790.536452647809
 31
0.0
  0
LINE
  5
5BD
330
583
100
AcDbEntity
  8
0
  6
Continuous
 62
     7
370
    15
100
AcDbLine
 10
1670.28619258904
 20
1786.76760244245
 30
0.0
 11
1675.435881570072
 21
1789.740454473576
 31
0.0
  0
ARC
  5
5BE
330
583
100
AcDbEntity
  8
0
  6
Continuous
 62
     7
370
    15
100
AcDbCircle
 10
1669.577367705519
 20
1788.131353809443
 30
0.0
 40
1.536961452501607
100
AcDbArc
 50
244.1910649445591
 51
297.4636551467856
  0
LINE
  5
5BF
330
583
100
AcDbEntity
  8
0
  6
Continuous
 62
     7
370
    15
100
AcDbLine
 10
1668.907334079885
 20
1786.747192332548
 30
0.0
 11
1668.908218499705
 21
1786.747702897242
 31
0.0
  0
LINE
  5
5C0
330
583
100
AcDbEntity
  8
0
  6
Continuous
 62
     7
370
    15
100
AcDbLine
 10
1668.69520233137
 20
1786.869653456427
 30
0.0
 11
1668.907334079885
 21
1786.747192332548
 31
0.0
  0
ARC
  5
5C1
330
583
100
AcDbEntity
  8
0
  6
Continuous
 62
     7
370
    15
100
AcDbCircle
 10
1668.814643643488
 20
1787.175806508452
 30
0.0
 40
0.3286273243427716
100
AcDbArc
 50
111.3125634750046
 51
248.6874556298357
  0
LINE
  5
5C2
330
583
100
AcDbEntity
  8
0
  6
Continuous
 62
     7
370
    15
100
AcDbLine
 10
1668.695202229286
 20
1787.481959520651
 30
0.0
 11
1668.723898386511
 21
1787.4985254596
 31
0.0
  0
LINE
  5
5C3
330
583
100
AcDbEntity
  8
0
  6
Continuous
 62
     7
370
    15
100
AcDbLine
 10
1665.754049905527
 20
1789.212982494428
 30
0.0
 11
1665.725353782331
 21
1789.196416575122
 31
0.0
  0
LINE
  5
5C4
330
583
100
AcDbEntity
  8
0
  6
Continuous
 62
     7
370
    15
100
AcDbLine
 10
1670.28619258904
 20
1786.114369777427
 30
0.0
 11
1670.28619258904
 21
1786.76760244245
 31
0.0
  0
ARC
  5
5C5
330
583
100
AcDbEntity
  8
0
  6
Continuous
 62
     7
370
    15
100
AcDbCircle
 10
1669.577367705519
 20
1787.478121144421
 30
0.0
 40
1.536961452501786
100
AcDbArc
 50
244.1910649445591
 51
297.4636551467796
  0
LINE
  5
5C6
330
583
100
AcDbEntity
  8
0
  6
Continuous
 62
     7
370
    15
100
AcDbLine
 10
1668.908218499705
 20
1786.094470232221
 30
0.0
 11
1668.908218499705
 21
1786.747702897242
 31
0.0
  0
LINE
  5
5C7
330
583
100
AcDbEntity
  8
0
  6
Continuous
 62
     7
370
    15
100
AcDbLine
 10
1662.278208292103
 20
1780.371796085759
 30
0.0
 11
1661.35896947656
 21
1780.902461358444
 31
0.0
  0
LINE
  5
5C8
330
583
100
AcDbEntity
  8
0
  6
Continuous
 62
     7
370
    15
100
AcDbLine
 10
1661.35896947656
 20
1780.902461358444
 30
0.0
 11
1661.35896947656
 21
1784.658549093119
 31
0.0
  0
ARC
  5
5C9
330
583
100
AcDbEntity
  8
0
  6
Continuous
 62
     7
370
    15
100
AcDbCircle
 10
1662.007729094154
 20
1784.759720134287
 30
0.0
 40
0.6566008079430511
100
AcDbArc
 50
51.14713294435456
 51
188.8636188104208
  0
LINE
  5
5CA
330
583
100
AcDbEntity
  8
0
  6
Continuous
 62
     7
370
    15
100
AcDbLine
 10
1667.015823726052
 20
1782.617727863657
 30
0.0
 11
1662.41962964834
 21
1785.271054227081
 31
0.0
  0
ARC
  5
5CB
330
583
100
AcDbEntity
  8
0
  6
Continuous
 62
     7
370
    15
100
AcDbCircle
 10
1665.780102548997
 20
1780.679539037753
 30
0.0
 40
2.298604522809474
100
AcDbArc
 50
2.520154907013651
 51
57.47984523859891
  0
LINE
  5
5CC
330
583
100
AcDbEntity
  8
0
  6
Continuous
 62
     7
370
    15
100
AcDbLine
 10
1668.076483897832
 20
1777.024522827287
 30
0.0
 11
1667.15724508229
 21
1777.555188099971
 31
0.0
  0
LINE
  5
5CD
330
583
100
AcDbEntity
  8
0
  6
Continuous
 62
     7
370
    15
100
AcDbLine
 10
1667.15724508229
 20
1777.555188099971
 30
0.0
 11
1667.15724508229
 21
1781.311275834646
 31
0.0
  0
ARC
  5
5CE
330
583
100
AcDbEntity
  8
0
  6
Continuous
 62
     7
370
    15
100
AcDbCircle
 10
1666.850201862015
 20
1781.297303664194
 30
0.0
 40
0.3073609615148017
100
AcDbArc
 50
2.60547848564986
 51
57.39452165994087
  0
LINE
  5
5CF
330
583
100
AcDbEntity
  8
0
  6
Continuous
 62
     7
370
    15
100
AcDbLine
 10
1667.015823726052
 20
1781.556224808205
 30
0.0
 11
1662.41962964834
 21
1784.209551171629
 31
0.0
  0
ARC
  5
5D0
330
583
100
AcDbEntity
  8
0
  6
Continuous
 62
     7
370
    15
100
AcDbCircle
 10
1662.364423165588
 20
1784.141869259815
 30
0.0
 40
0.0873418394856073
100
AcDbArc
 50
50.79671476426418
 51
189.2140369905742
  0
LINE
  5
5D1
330
583
100
AcDbEntity
  8
0
  6
Continuous
 62
     7
370
    15
100
AcDbLine
 10
1662.278208292103
 20
1784.127883820434
 30
0.0
 11
1662.278208292103
 21
1780.371796085759
 31
0.0
  0
ARC
  5
5D2
330
583
100
AcDbEntity
  8
0
  6
Continuous
 62
     7
370
    15
100
AcDbCircle
 10
1674.654297558959
 20
1785.802502771961
 30
0.0
 40
2.298599496937382
100
AcDbArc
 50
2.520089748013976
 51
57.4799103976118
  0
LINE
  5
5D3
330
583
100
AcDbEntity
  8
0
  6
Continuous
 62
     7
370
    15
100
AcDbLine
 10
1667.015823726052
 20
1782.617727863657
 30
0.0
 11
1675.890013829943
 21
1787.740688765344
 31
0.0
  0
LINE
  5
5D4
330
583
100
AcDbEntity
  8
0
  6
Continuous
 62
     7
370
    15
100
AcDbLine
 10
1668.306293601721
 20
1791.135651280113
 30
0.0
 11
1667.917499806147
 21
1790.911205399394
 31
0.0
  0
LINE
  5
5D5
330
583
100
AcDbEntity
  8
0
  6
Continuous
 62
     7
370
    15
100
AcDbLine
 10
1669.084111061026
 20
1791.584675741616
 30
0.0
 11
1667.276636650558
 21
1792.628108508688
 31
0.0
  0
LINE
  5
5D6
330
583
100
AcDbEntity
  8
0
  6
Continuous
 62
     7
370
    15
100
AcDbLine
 10
1670.180126571867
 20
1792.217392028279
 30
0.0
 11
1669.084111061026
 21
1791.584675741616
 31
0.0
  0
LINE
  5
5D7
330
583
100
AcDbEntity
  8
0
  6
Continuous
 62
     7
370
    15
100
AcDbLine
 10
1670.39214367214
 20
1792.094997161539
 30
0.0
 11
1670.180126571867
 21
1792.217392028279
 31
0.0
  0
LINE
  5
5D8
330
583
100
AcDbEntity
  8
0
  6
Continuous
 62
     7
370
    15
100
AcDbLine
 10
1671.81082428703
 20
1790.010577701863
 30
0.0
 11
1670.003349876565
 21
1791.054010468933
 31
0.0
  0
LINE
  5
5D9
330
583
100
AcDbEntity
  8
0
  6
Continuous
 62
     7
370
    15
100
AcDbLine
 10
1668.907334079885
 20
1786.093959667526
 30
0.0
 11
1668.907334079885
 21
1786.747192332548
 31
0.0
  0
LINE
  5
5DA
330
583
100
AcDbEntity
  8
0
  6
Continuous
 62
     7
370
    15
100
AcDbLine
 10
1668.69520233137
 20
1786.216420791405
 30
0.0
 11
1668.69520233137
 21
1786.869653456427
 31
0.0
  0
LINE
  5
5DB
330
583
100
AcDbEntity
  8
0
  6
Continuous
 62
     7
370
    15
100
AcDbLine
 10
1668.69520233137
 20
1786.216420791405
 30
0.0
 11
1668.907334079885
 21
1786.093959667526
 31
0.0
  0
LINE
  5
5DC
330
583
100
AcDbEntity
  8
0
  6
Continuous
 62
     7
370
    15
100
AcDbLine
 10
1668.908218499705
 20
1786.094470232221
 30
0.0
 11
1668.907334079885
 21
1786.093959667526
 31
0.0
  0
LINE
  5
5DD
330
583
100
AcDbEntity
  8
0
  6
Continuous
 62
     7
370
    15
100
AcDbLine
 10
1675.435881570072
 20
1789.087221808554
 30
0.0
 11
1675.435881570072
 21
1789.740454473576
 31
0.0
  0
LINE
  5
5DE
330
583
100
AcDbEntity
  8
0
  6
Continuous
 62
     7
370
    15
100
AcDbLine
 10
1675.435881570072
 20
1789.087221808554
 30
0.0
 11
1670.28619258904
 21
1786.114369777427
 31
0.0
  0
ARC
  5
5DF
330
583
100
AcDbEntity
  8
0
  6
Continuous
 62
     7
370
    15
100
AcDbCircle
 10
1668.841364593402
 20
1786.553179625706
 30
0.0
 40
0.3671102277540784
100
AcDbArc
 50
184.7822676141766
 51
246.5378782687224
  0
LWPOLYLINE
  5
5E0
330
583
100
AcDbEntity
  8
0
  6
Continuous
 62
     7
370
    15
100
AcDbPolyline
 90
       28
 70
   128
 43
0.0
 10
1667.411803523517
 20
1785.499648498391
 10
1667.575063350668
 20
1785.413502122228
 10
1667.751042463481
 20
1785.336150861962
 10
1667.938323981613
 20
1785.268217504458
 10
1668.135400024399
 20
1785.210249009167
 10
1668.340683851422
 20
1785.162712104327
 10
1668.552522638011
 20
1785.125989529146
 10
1668.769210782818
 20
1785.100376952207
 10
1668.989003640308
 20
1785.086080590919
 10
1669.210131567631
 20
1785.083215551176
 10
1669.430814172736
 20
1785.091804900595
 10
1669.649274649047
 20
1785.111779482784
 10
1669.863754081261
 20
1785.142978474152
 10
1670.072525607102
 20
1785.185150678766
 10
1670.273908321
 20
1785.237956550831
 10
1670.466280807752
 20
1785.300970928513
 10
1670.648094197209
 20
1785.373686457097
 10
1670.817884634864
 20
1785.455517673902
 10
1670.974285067948
 20
1785.545805722087
 10
1671.116036252135
 20
1785.643823655374
 10
1671.241996890239
 20
1785.748782291
 10
1671.351152821266
 20
1785.859836563746
 10
1671.442625185841
 20
1785.976092329905
 10
1671.51567750227
 20
1786.096613566407
 10
1671.569721596255
 20
1786.220429907119
 10
1671.604322336528
 20
1786.34654445567
 10
1671.619201138275
 20
1786.473941811868
 10
1671.619821739141
 20
1786.505871496213
  0
ARC
  5
5E1
330
583
100
AcDbEntity
  8
0
  6
Continuous
 62
     7
370
    15
100
AcDbCircle
 10
1667.92777541834
 20
1786.631995424407
 30
0.0
 40
1.244361907607956
100
AcDbArc
 50
185.8172780419348
 51
245.5028629156815
  0
LINE
  5
5E2
330
583
100
AcDbEntity
  8
0
  6
Continuous
 62
     7
370
    15
100
AcDbLine
 10
1674.496689489142
 20
1788.545037786238
 30
0.0
 11
1675.890013829943
 21
1787.740688765344
 31
0.0
  0
LINE
  5
5E3
330
583
100
AcDbEntity
  8
0
  6
Continuous
 62
     7
370
    15
100
AcDbLine
 10
1670.003349876565
 20
1791.870551280819
 30
0.0
 11
1670.003349876565
 21
1791.054010468933
 31
0.0
  0
LINE
  5
5E4
330
583
100
AcDbEntity
  8
0
  6
Continuous
 62
     7
370
    15
100
AcDbLine
 10
1671.748031258242
 20
1790.863368157673
 30
0.0
 11
1670.003349876565
 21
1791.870551280819
 31
0.0
  0
LINE
  5
5E5
330
583
100
AcDbEntity
  8
0
  6
Continuous
 62
     7
370
    15
100
AcDbLine
 10
1670.003349876565
 20
1791.870551280819
 30
0.0
 11
1671.099365387405
 21
1792.503267567482
 31
0.0
  0
LINE
  5
5E6
330
583
100
AcDbEntity
  8
0
  6
Continuous
 62
     7
370
    15
100
AcDbLine
 10
1671.099365387405
 20
1792.503267567482
 30
0.0
 11
1670.180126571867
 21
1793.033932840164
 31
0.0
  0
LINE
  5
5E7
330
583
100
AcDbEntity
  8
0
  6
Continuous
 62
     7
370
    15
100
AcDbLine
 10
1670.180126571867
 20
1793.033932840164
 30
0.0
 11
1669.084111061026
 21
1792.401216553501
 31
0.0
  0
LINE
  5
5E8
330
583
100
AcDbEntity
  8
0
  6
Continuous
 62
     7
370
    15
100
AcDbLine
 10
1669.084111061026
 20
1792.401216553501
 30
0.0
 11
1667.339429679347
 21
1793.408399676649
 31
0.0
  0
LINE
  5
5E9
330
583
100
AcDbEntity
  8
0
  6
Continuous
 62
     7
370
    15
100
AcDbLine
 10
1663.037529154091
 20
1777.550244052414
 30
0.0
 11
1665.815974772789
 21
1775.946281538041
 31
0.0
  0
LINE
  5
5EA
330
583
100
AcDbEntity
  8
0
  6
Continuous
 62
     7
370
    15
100
AcDbLine
 10
1663.037529154091
 20
1777.550244052414
 30
0.0
 11
1662.514249692411
 21
1784.15492818287
 31
0.0
  0
LINE
  5
5EB
330
583
100
AcDbEntity
  8
0
  6
Continuous
 62
     7
370
    15
100
AcDbLine
 10
1668.306293601721
 20
1791.952192091999
 30
0.0
 11
1668.306293601721
 21
1791.135651280113
 31
0.0
  0
ARC
  5
5EC
330
583
100
AcDbEntity
  8
0
  6
Continuous
 62
     7
370
    15
100
AcDbCircle
 10
1668.990792633324
 20
1789.02824604847
 30
0.0
 40
2.739266995974614
100
AcDbArc
 50
241.170322093321
 51
260.9493628887251
  0
ARC
  5
5ED
330
583
100
AcDbEntity
  8
0
  6
Continuous
 62
     7
370
    15
100
AcDbCircle
 10
1668.105781570369
 20
1787.590523861961
 30
0.0
 40
1.056172484832791
100
AcDbArc
 50
185.6947992510406
 51
245.6253417064922
  0
LINE
  5
5EE
330
583
100
AcDbEntity
  8
0
  6
Continuous
 62
     7
370
    15
100
AcDbLine
 10
1667.740608176768
 20
1776.830625900728
 30
0.0
 11
1666.821369361226
 21
1777.361291173414
 31
0.0
  0
LINE
  5
5EF
330
583
100
AcDbEntity
  8
0
  6
Continuous
 62
     7
370
    15
100
AcDbLine
 10
1666.679948004988
 20
1774.993508599033
 30
0.0
 11
1665.760709189446
 21
1775.524173871717
 31
0.0
  0
ARC
  5
5F0
330
583
100
AcDbEntity
  8
0
  6
Continuous
 62
     7
370
    15
100
AcDbCircle
 10
1668.05708563221
 20
1775.423105180031
 30
0.0
 40
2.298599496937093
100
AcDbArc
 50
122.5200896023882
 51
177.479910251986
  0
ARC
  5
5F1
330
583
100
AcDbEntity
  8
0
  6
Continuous
 62
     7
370
    15
100
AcDbCircle
 10
1669.054977764339
 20
1789.535626139405
 30
0.0
 40
3.469862247041255
100
AcDbArc
 50
241.734624197813
 51
268.5150568618559
  0
ARC
  5
5F2
330
583
100
AcDbEntity
  8
0
  6
Continuous
 62
     7
370
    15
100
AcDbCircle
 10
1667.773093349912
 20
1787.47341949739
 30
0.0
 40
1.057549682006484
100
AcDbArc
 50
150.4360649889484
 51
250.0238366084361
  0
LINE
  5
5F3
330
583
100
AcDbEntity
  8
0
  6
Continuous
 62
     7
370
    15
100
AcDbLine
 10
1669.084111061026
 20
1791.584675741616
 30
0.0
 11
1669.084111061026
 21
1792.401216553501
 31
0.0
  0
LINE
  5
5F4
330
583
100
AcDbEntity
  8
0
  6
Continuous
 62
     7
370
    15
100
AcDbLine
 10
1670.180126571867
 20
1792.217392028279
 30
0.0
 11
1670.180126571867
 21
1793.033932840164
 31
0.0
  0
LINE
  5
5F5
330
583
100
AcDbEntity
  8
0
  6
Continuous
 62
     7
370
    15
100
AcDbLine
 10
1666.679948004988
 20
1768.869452509891
 30
0.0
 11
1665.760709189446
 21
1769.400117782576
 31
0.0
  0
LINE
  5
5F6
330
583
100
AcDbEntity
  8
0
  6
Continuous
 62
     7
370
    15
100
AcDbLine
 10
1665.760709189446
 20
1769.400117782576
 30
0.0
 11
1665.760709189446
 21
1775.524173871717
 31
0.0
  0
LINE
  5
5F7
330
583
100
AcDbEntity
  8
0
  6
Continuous
 62
     7
370
    15
100
AcDbLine
 10
1666.821369361226
 20
1777.361291173414
 30
0.0
 11
1667.15724508229
 21
1777.555188099971
 31
0.0
  0
LINE
  5
5F8
330
583
100
AcDbEntity
  8
0
  6
Continuous
 62
     7
370
    15
100
AcDbLine
 10
1664.664693678607
 20
1788.5431839101
 30
0.0
 11
1664.664693678607
 21
1789.196416575122
 31
0.0
  0
LINE
  5
5F9
330
583
100
AcDbEntity
  8
0
  6
Continuous
 62
     7
370
    15
100
AcDbLine
 10
1665.725353782331
 20
1788.5431839101
 30
0.0
 11
1665.725353782331
 21
1789.196416575122
 31
0.0
  0
ARC
  5
5FA
330
583
100
AcDbEntity
  8
0
  6
Continuous
 62
     7
370
    15
100
AcDbCircle
 10
1665.195023730469
 20
1789.561094166133
 30
0.0
 40
1.147776656516297
100
AcDbArc
 50
242.4805390039322
 51
297.5194609960677
  0
LINE
  5
5FB
330
583
100
AcDbEntity
  8
0
  6
Continuous
 62
     7
370
    15
100
AcDbLine
 10
1664.45256135841
 20
1788.665645219768
 30
0.0
 11
1664.45256135841
 21
1789.31887788479
 31
0.0
  0
LINE
  5
5FC
330
583
100
AcDbEntity
  8
0
  6
Continuous
 62
     7
370
    15
100
AcDbLine
 10
1664.45256135841
 20
1788.665645219768
 30
0.0
 11
1664.664693678607
 21
1788.5431839101
 31
0.0
  0
LINE
  5
5FD
330
583
100
AcDbEntity
  8
0
  6
Continuous
 62
     7
370
    15
100
AcDbLine
 10
1665.992765822543
 20
1788.697557594979
 30
0.0
 11
1665.725353782331
 21
1788.5431839101
 31
0.0
  0
ARC
  5
5FE
330
583
100
AcDbEntity
  8
0
  6
Continuous
 62
     7
370
    15
100
AcDbCircle
 10
1664.670484462407
 20
1789.090839754864
 30
0.0
 40
0.47692998206587
100
AcDbArc
 50
184.4977046653544
 51
242.9302790872438
  0
ARC
  5
5FF
330
583
100
AcDbEntity
  8
0
  6
Continuous
 62
     7
370
    15
100
AcDbCircle
 10
1663.063494012316
 20
1777.815794244181
 30
0.0
 40
0.7684024037861751
100
AcDbArc
 50
122.6054783400301
 51
177.3945215143371
  0
LINE
  5
600
330
583
100
AcDbEntity
  8
0
  6
Continuous
 62
     7
370
    15
100
AcDbLine
 10
1662.295885961632
 20
1777.850724670311
 30
0.0
 11
1662.295885961632
 21
1775.401102234654
 31
0.0
  0
ARC
  5
601
330
583
100
AcDbEntity
  8
0
  6
Continuous
 62
     7
370
    15
100
AcDbCircle
 10
1662.511423145345
 20
1775.366138636204
 30
0.0
 40
0.2183545987142536
100
AcDbArc
 50
170.7859630095307
 51
309.2032852357359
  0
LINE
  5
602
330
583
100
AcDbEntity
  8
0
  6
Continuous
 62
     7
370
    15
100
AcDbLine
 10
1662.649439352225
 20
1775.196933856667
 30
0.0
 11
1664.881731513996
 21
1776.485608691442
 31
0.0
  0
LINE
  5
603
330
583
100
AcDbEntity
  8
0
  6
Continuous
 62
     7
370
    15
100
AcDbLine
 10
1662.951394423544
 20
1778.637412056484
 30
0.0
 11
1662.649439352225
 21
1778.46309710421
 31
0.0
  0
LINE
  5
604
330
583
100
AcDbEntity
  8
0
  6
Continuous
 62
     7
370
    15
100
AcDbLine
 10
1660.881672399259
 20
1772.216725768363
 30
0.0
 11
1665.760709189446
 21
1775.033333754151
 31
0.0
  0
LINE
  5
605
330
583
100
AcDbEntity
  8
0
  6
Continuous
 62
     7
370
    15
100
AcDbLine
 10
1660.881672399259
 20
1778.340781857506
 30
0.0
 11
1660.881672399259
 21
1772.216725768363
 31
0.0
  0
ARC
  5
606
330
583
100
AcDbEntity
  8
0
  6
Continuous
 62
     7
370
    15
100
AcDbCircle
 10
1663.178053748093
 20
1778.239710333297
 30
0.0
 40
2.298604522809487
100
AcDbArc
 50
122.5201547614011
 51
177.4798450929733
  0
LINE
  5
607
330
583
100
AcDbEntity
  8
0
  6
Continuous
 62
     7
370
    15
100
AcDbLine
 10
1662.278208292103
 20
1780.371796085759
 30
0.0
 11
1661.942332571039
 21
1780.177899159201
 31
0.0
  0
LINE
  5
608
330
583
100
AcDbEntity
  8
0
  6
Continuous
 62
     7
370
    15
100
AcDbLine
 10
1675.471236681538
 20
1789.883219982787
 30
0.0
 11
1675.435881570072
 21
1789.087221808554
 31
0.0
  0
ARC
  5
609
330
583
100
AcDbEntity
  8
0
  6
Continuous
 62
     7
370
    15
100
AcDbCircle
 10
1671.424213100876
 20
1792.724633068681
 30
0.0
 40
0.5091595833711757
100
AcDbArc
 50
61.59623746135186
 51
98.44015625056284
  0
LINE
  5
60A
330
583
100
AcDbEntity
  8
0
  6
Continuous
 62
     7
370
    15
100
AcDbLine
 10
1675.471233810738
 20
1789.883155348522
 30
0.0
 11
1675.824790058697
 21
1789.679051671044
 31
0.0
  0
LINE
  5
60B
330
583
100
AcDbEntity
  8
0
  6
Continuous
 62
     7
370
    15
100
AcDbLine
 10
1660.881672399259
 20
1778.340781857506
 30
0.0
 11
1659.962433583716
 21
1778.871447130191
 31
0.0
  0
LINE
  5
60C
330
583
100
AcDbEntity
  8
0
  6
Continuous
 62
     7
370
    15
100
AcDbLine
 10
1661.942332571039
 20
1780.177899159201
 30
0.0
 11
1661.023093755496
 21
1780.708564431886
 31
0.0
  0
ARC
  5
60D
330
583
100
AcDbEntity
  8
0
  6
Continuous
 62
     7
370
    15
100
AcDbCircle
 10
1662.25881002648
 20
1778.770378438504
 30
0.0
 40
2.298599496936976
100
AcDbArc
 50
122.5200896023882
 51
177.479910251986
  0
LINE
  5
60E
330
583
100
AcDbEntity
  8
0
  6
Continuous
 62
     7
370
    15
100
AcDbLine
 10
1676.5794429416
 20
1776.544007241174
 30
0.0
 11
1675.660204126058
 21
1777.074672513859
 31
0.0
  0
LINE
  5
60F
330
583
100
AcDbEntity
  8
0
  6
Continuous
 62
     7
370
    15
100
AcDbLine
 10
1675.660204126058
 20
1777.074672513859
 30
0.0
 11
1668.094161567362
 21
1772.706889115607
 31
0.0
  0
LINE
  5
610
330
583
100
AcDbEntity
  8
0
  6
Continuous
 62
     7
370
    15
100
AcDbLine
 10
1660.881672399259
 20
1772.216725768363
 30
0.0
 11
1659.962433583716
 21
1772.747391041048
 31
0.0
  0
LINE
  5
611
330
583
100
AcDbEntity
  8
0
  6
Continuous
 62
     7
370
    15
100
AcDbLine
 10
1659.962433583716
 20
1772.747391041048
 30
0.0
 11
1659.962433583716
 21
1778.871447130191
 31
0.0
  0
LINE
  5
612
330
583
100
AcDbEntity
  8
0
  6
Continuous
 62
     7
370
    15
100
AcDbLine
 10
1661.023093755496
 20
1780.708564431886
 30
0.0
 11
1661.35896947656
 21
1780.902461358444
 31
0.0
  0
ARC
  5
613
330
583
100
AcDbEntity
  8
0
  6
Continuous
 62
     7
370
    15
100
AcDbCircle
 10
1676.858446886634
 20
1782.494275148292
 30
0.0
 40
0.5208768872672243
100
AcDbArc
 50
60.20750139952985
 51
79.80136724506896
  0
LINE
  5
614
330
583
100
AcDbEntity
  8
0
  6
Continuous
 62
     7
370
    15
100
AcDbLine
 10
1663.962492698453
 20
1777.016273964126
 30
0.0
 11
1662.295885961632
 21
1776.05416237408
 31
0.0
  0
LINE
  5
615
330
583
100
AcDbEntity
  8
0
  6
Continuous
 62
     7
370
    15
100
AcDbLine
 10
1676.932996332193
 20
1777.156379675073
 30
0.0
 11
1676.013757516651
 21
1777.687044947757
 31
0.0
  0
LINE
  5
616
330
583
100
AcDbEntity
  8
0
  6
Continuous
 62
     7
370
    15
100
AcDbLine
 10
1676.013757516651
 20
1779.483607243988
 30
0.0
 11
1676.013757516651
 21
1777.687044947757
 31
0.0
  0
ARC
  5
617
330
583
100
AcDbEntity
  8
0
  6
Continuous
 62
     7
370
    15
100
AcDbCircle
 10
1675.246149465967
 20
1777.721975373888
 30
0.0
 40
0.7684024037860137
100
AcDbArc
 50
302.6054783400301
 51
357.3945215143501
  0
LINE
  5
618
330
583
100
AcDbEntity
  8
0
  6
Continuous
 62
     8
370
    15
100
AcDbLine
 10
1672.189739736061
 20
1792.430820511679
 30
0.0
 11
1675.471236681538
 21
1790.536452647809
 31
0.0
  0
LINE
  5
619
330
583
100
AcDbEntity
  8
0
  6
Continuous
 62
     8
370
    15
100
AcDbLine
 10
1662.41962964834
 20
1785.271054227081
 30
0.0
 11
1666.737267660719
 21
1787.763573596861
 31
0.0
  0
LINE
  5
61A
330
583
100
AcDbEntity
  8
0
  6
Continuous
 62
     8
370
    15
100
AcDbLine
 10
1662.278208292103
 20
1784.127883820434
 30
0.0
 11
1662.419652635156
 21
1784.209537901623
 31
0.0
  0
LINE
  5
61B
330
583
100
AcDbEntity
  8
0
  6
Continuous
 62
     8
370
    15
100
AcDbLine
 10
1668.447714957955
 20
1771.849660598193
 30
0.0
 11
1668.094161572031
 21
1772.053762623453
 31
0.0
  0
LINE
  5
61C
330
583
100
AcDbEntity
  8
0
  6
Continuous
 62
     8
370
    15
100
AcDbLine
 10
1677.286549722787
 20
1782.341380655532
 30
0.0
 11
1676.950674001723
 21
1782.53527758209
 31
0.0
  0
LINE
  5
61D
330
583
100
AcDbEntity
  8
0
  6
Continuous
 62
     8
370
    15
100
AcDbLine
 10
1662.649439352225
 20
1775.196933856667
 30
0.0
 11
1662.295885966302
 21
1775.401035881927
 31
0.0
  0
LINE
  5
61E
330
583
100
AcDbEntity
  8
0
  6
Continuous
 62
     8
370
    15
100
AcDbLine
 10
1676.932996332193
 20
1779.60600211073
 30
0.0
 11
1676.579385474561
 21
1779.810137313701
 31
0.0
  0
ENDBLK
  5
585
330
583
100
AcDbEntity
  8
0
100
AcDbBlockEnd
  0
ENDSEC
  0
SECTION
  2
ENTITIES
  0
INSERT
  5
4E2
330
1F
100
AcDbEntity
  8
0
100
AcDbBlockReference
  2
1
 10
0.0
 20
0.0
 30
0.0
  0
INSERT
  5
52D
330
1F
100
AcDbEntity
  8
0
100
AcDbBlockReference
  2
2
 10
7.427352598642528
 20
0.0
 30
0.0
  0
INSERT
  5
582
330
1F
100
AcDbEntity
  8
0
100
AcDbBlockReference
  2
3
 10
0.0
 20
5.82327019762738
 30
0.0
  0
INSERT
  5
61F
330
1F
100
AcDbEntity
  8
0
100
AcDbBlockReference
  2
4
 10
-9.810466112881613
 20
1.798384335219225
 30
0.0
  0
ENDSEC
  0
SECTION
  2
OBJECTS
  0
DICTIONARY
  5
C
330
0
100
AcDbDictionary
281
     1
  3
ACAD_COLOR
350
6B
  3
ACAD_GROUP
350
D
  3
ACAD_LAYOUT
350
1A
  3
ACAD_MATERIAL
350
6A
  3
ACAD_MLEADERSTYLE
350
12D
  3
ACAD_MLINESTYLE
350
17
  3
ACAD_PLOTSETTINGS
350
19
  3
ACAD_PLOTSTYLENAME
350
E
  3
ACAD_SCALELIST
350
10C
  3
ACAD_TABLESTYLE
350
7E
  3
ACAD_VISUALSTYLE
350
EF
  3
ACDB_RECOMPOSE_DATA
350
15D
  3
AcDbVariableDictionary
350
5E
  3
DWGPROPS
350
684
  0
DICTIONARY
  5
13C
330
10
100
AcDbDictionary
280
     1
281
     1
  3
ADSK_XREC_LAYER_RECONCILED
360
620
  0
DICTIONARY
  5
671
330
4E3
100
AcDbDictionary
280
     1
281
     1
  0
DICTIONARY
  5
6B
102
{ACAD_REACTORS
330
C
102
}
330
C
100
AcDbDictionary
281
     1
  0
DICTIONARY
  5
D
102
{ACAD_REACTORS
330
C
102
}
330
C
100
AcDbDictionary
281
     1
  0
DICTIONARY
  5
1A
102
{ACAD_REACTORS
330
C
102
}
330
C
100
AcDbDictionary
281
     1
  3
Layout1
350
D3
  3
Layout2
350
D7
  3
Model
350
22
  0
DICTIONARY
  5
6A
102
{ACAD_REACTORS
330
C
102
}
330
C
100
AcDbDictionary
281
     1
  3
ByBlock
350
ED
  3
ByLayer
350
EC
  3
Global
350
EE
  0
DICTIONARY
  5
12D
102
{ACAD_REACTORS
330
C
102
}
330
C
100
AcDbDictionary
281
     1
  3
Annotative
350
13B
  3
Standard
350
12E
  0
DICTIONARY
  5
17
102
{ACAD_REACTORS
330
C
102
}
330
C
100
AcDbDictionary
281
     1
  3
Standard
350
18
  0
DICTIONARY
  5
19
102
{ACAD_REACTORS
330
C
102
}
330
C
100
AcDbDictionary
281
     1
  0
ACDBDICTIONARYWDFLT
  5
E
102
{ACAD_REACTORS
330
C
102
}
330
C
100
AcDbDictionary
281
     1
  3
Normal
350
F
100
AcDbDictionaryWithDefault
340
F
  0
DICTIONARY
  5
10C
102
{ACAD_REACTORS
330
C
102
}
330
C
100
AcDbDictionary
281
     1
  3
A0
350
10D
  3
A1
350
188
  3
A2
350
189
  3
A3
350
18A
  3
A4
350
18B
  3
A5
350
18C
  3
A6
350
18D
  3
A7
350
18E
  3
A8
350
18F
  3
A9
350
190
  3
B0
350
191
  3
B1
350
192
  3
B2
350
193
  3
B3
350
194
  3
B4
350
195
  3
B5
350
196
  3
B6
350
197
  3
B7
350
198
  3
B8
350
199
  3
B9
350
19A
  3
C0
350
19B
  3
C1
350
19C
  3
C2
350
19D
  3
C3
350
19E
  3
C4
350
19F
  3
C5
350
1A0
  3
C6
350
1A1
  3
C7
350
1A2
  3
C8
350
1A3
  3
C9
350
1A4
  3
D0
350
1A5
  3
D1
350
1A6
  3
D2
350
1A7
  0
DICTIONARY
  5
7E
102
{ACAD_REACTORS
330
C
102
}
330
C
100
AcDbDictionary
281
     1
  3
Standard
350
7F
  0
DICTIONARY
  5
EF
102
{ACAD_REACTORS
330
C
102
}
330
C
100
AcDbDictionary
281
     1
  3
2dWireframe
350
F5
  3
3D Hidden
350
F7
  3
3dWireframe
350
F6
  3
Basic
350
F4
  3
Brighten
350
FB
  3
ColorChange
350
FF
  3
Conceptual
350
F8
  3
Dim
350
FA
  3
Facepattern
350
FE
  3
Flat
350
F0
  3
FlatWithEdges
350
F1
  3
Gouraud
350
F2
  3
GouraudWithEdges
350
F3
  3
Linepattern
350
FD
  3
Realistic
350
F9
  3
Thicken
350
FC
  0
XRECORD
  5
15D
102
{ACAD_REACTORS
330
C
102
}
330
C
100
AcDbXrecord
280
     1
 90
        1
330
7F
  0
DICTIONARY
  5
5E
102
{ACAD_REACTORS
330
C
102
}
330
C
100
AcDbDictionary
281
     1
  3
CANNOSCALE
350
146
  3
CMLEADERSTYLE
350
145
  3
CTABLESTYLE
350
84
  3
DIMASSOC
350
5F
  3
HIDETEXT
350
63
  3
INDEXCTL
350
680
  3
LIGHTINGUNITS
350
67E
  3
MSLTSCALE
350
67D
  3
PSOLHEIGHT
350
682
  3
PSOLWIDTH
350
681
  3
SORTENTS
350
67F
  0
XRECORD
  5
684
102
{ACAD_REACTORS
330
C
102
}
330
C
100
AcDbXrecord
280
     1
  1
DWGPROPS COOKIE
  2

  3

  4

  6

  7

  8
orhan kara
  9

300
=
301
=
302
=
303
=
304
=
305
=
306
=
307
=
308
=
309
=
 40
0.0025179282407407
 41
2458480.452266227
 42
2459089.568551898
  1

 90
        0
  0
XRECORD
  5
620
102
{ACAD_REACTORS
330
13C
102
}
330
13C
100
AcDbXrecord
280
     1
290
     1
  0
LAYOUT
  5
D3
102
{ACAD_XDICTIONARY
360
688
102
}
102
{ACAD_REACTORS
330
1A
102
}
330
1A
100
AcDbPlotSettings
  1

  2
C:\Documents and Settings\basas\Application Data\Autodesk\AutoCAD 2005\R16.1\enu\plotters\Default Windows System Printer.pc3
  4

  6

 40
0.0
 41
0.0
 42
0.0
 43
0.0
 44
0.0
 45
0.0
 46
0.0
 47
0.0
 48
0.0
 49
0.0
140
0.0
141
0.0
142
1.0
143
1.0
 70
   688
 72
     0
 73
     0
 74
     5
  7

 75
    16
147
1.0
148
0.0
149
0.0
100
AcDbLayout
  1
Layout1
 70
     1
 71
     1
 10
0.0
 20
0.0
 11
12.0
 21
9.0
 12
0.0
 22
0.0
 32
0.0
 14
0.0
 24
0.0
 34
0.0
 15
0.0
 25
0.0
 35
0.0
146
0.0
 13
0.0
 23
0.0
 33
0.0
 16
1.0
 26
0.0
 36
0.0
 17
0.0
 27
1.0
 37
0.0
 76
     0
330
D2
  0
LAYOUT
  5
D7
102
{ACAD_XDICTIONARY
360
68A
102
}
102
{ACAD_REACTORS
330
1A
102
}
330
1A
100
AcDbPlotSettings
  1

  2
C:\Documents and Settings\basas\Application Data\Autodesk\AutoCAD 2005\R16.1\enu\plotters\Default Windows System Printer.pc3
  4

  6

 40
0.0
 41
0.0
 42
0.0
 43
0.0
 44
0.0
 45
0.0
 46
0.0
 47
0.0
 48
0.0
 49
0.0
140
0.0
141
0.0
142
1.0
143
1.0
 70
   688
 72
     0
 73
     0
 74
     5
  7

 75
    16
147
1.0
148
0.0
149
0.0
100
AcDbLayout
  1
Layout2
 70
     1
 71
     2
 10
0.0
 20
0.0
 11
12.0
 21
9.0
 12
0.0
 22
0.0
 32
0.0
 14
0.0
 24
0.0
 34
0.0
 15
0.0
 25
0.0
 35
0.0
146
0.0
 13
0.0
 23
0.0
 33
0.0
 16
1.0
 26
0.0
 36
0.0
 17
0.0
 27
1.0
 37
0.0
 76
     0
330
D6
  0
LAYOUT
  5
22
102
{ACAD_XDICTIONARY
360
685
102
}
102
{ACAD_REACTORS
330
1A
102
}
330
1A
100
AcDbPlotSettings
  1

  2
none_device
  4
ISO_A4_(210.00_x_297.00_MM)
  6

 40
7.5
 41
20.0
 42
7.5
 43
20.0
 44
210.0
 45
297.0
 46
11.54999923706054
 47
-13.65000009536743
 48
0.0
 49
0.0
140
0.0
141
0.0
142
1.0
143
8.704084754739808
 70
 11952
 72
     1
 73
     0
 74
     0
  7

 75
     0
147
0.1148885871608098
148
0.0
149
0.0
100
AcDbLayout
  1
Model
 70
     1
 71
     0
 10
0.0
 20
0.0
 11
12.0
 21
9.0
 12
0.0
 22
0.0
 32
0.0
 14
0.0
 24
0.0
 34
0.0
 15
0.0
 25
0.0
 35
0.0
146
0.0
 13
0.0
 23
0.0
 33
0.0
 16
1.0
 26
0.0
 36
0.0
 17
0.0
 27
1.0
 37
0.0
 76
     0
330
1F
331
EA
1001
ACAD_PSEXT
1000
None
1000
None
1000
Not applicable
1000
The layout will not be plotted unless a new plotter configuration name is selected.
1070
     0
  0
MATERIAL
  5
ED
102
{ACAD_XDICTIONARY
360
68E
102
}
102
{ACAD_REACTORS
330
6A
102
}
330
6A
100
AcDbMaterial
  1
ByBlock
  0
MATERIAL
  5
EC
102
{ACAD_XDICTIONARY
360
68C
102
}
102
{ACAD_REACTORS
330
6A
102
}
330
6A
100
AcDbMaterial
  1
ByLayer
  0
MATERIAL
  5
EE
102
{ACAD_XDICTIONARY
360
173
102
}
102
{ACAD_REACTORS
330
6A
102
}
330
6A
100
AcDbMaterial
  1
Global
 43
0.0007999999797903
 43
0.0
 43
0.0
 43
0.0
 43
0.0
 43
0.0007999999797903
 43
0.0
 43
0.0
 43
0.0
 43
0.0
 43
1.0
 43
0.0
 43
0.0
 43
0.0
 43
0.0
 43
1.0
 49
0.0007999999797903
 49
0.0
 49
0.0
 49
0.0
 49
0.0
 49
0.0007999999797903
 49
0.0
 49
0.0
 49
0.0
 49
0.0
 49
1.0
 49
0.0
 49
0.0
 49
0.0
 49
0.0
 49
1.0
142
0.0007999999797903
142
0.0
142
0.0
142
0.0
142
0.0
142
0.0007999999797903
142
0.0
142
0.0
142
0.0
142
0.0
142
1.0
142
0.0
142
0.0
142
0.0
142
0.0
142
1.0
144
0.0007999999797903
144
0.0
144
0.0
144
0.0
144
0.0
144
0.0007999999797903
144
0.0
144
0.0
144
0.0
144
0.0
144
1.0
144
0.0
144
0.0
144
0.0
144
0.0
144
1.0
1001
ACAD
1070
    -1
1070
     3
1070
     0
1000

1071
        0
1070
     0
  0
MLEADERSTYLE
  5
13B
102
{ACAD_REACTORS
330
12D
102
}
330
12D
100
AcDbMLeaderStyle
170
     2
171
     1
172
     0
 90
        2
 40
0.0
 41
0.0
173
     1
 91
-1056964608
340
14
 92
       -2
290
     1
 42
2.0
291
     1
 43
8.0
  3
Standard
 44
4.0
300

342
11
174
     1
178
     1
175
     1
176
     0
 93
-1056964608
 45
4.0
292
     0
297
     0
 46
4.0
 94
-1056964608
 47
1.0
 49
1.0
140
1.0
293
     1
141
0.0
294
     1
177
     0
142
1.0
295
     0
296
     1
143
3.75
1001
ACAD_MLEADERVER
1070
     2
  0
MLEADERSTYLE
  5
12E
102
{ACAD_REACTORS
330
12D
102
}
330
12D
100
AcDbMLeaderStyle
170
     2
171
     1
172
     0
 90
        2
 40
0.0
 41
0.0
173
     1
 91
-1056964608
340
14
 92
       -2
290
     1
 42
2.0
291
     1
 43
8.0
  3
Standard
 44
4.0
300

342
11
174
     1
178
     1
175
     1
176
     0
 93
-1056964608
 45
4.0
292
     0
297
     0
 46
4.0
 94
-1056964608
 47
1.0
 49
1.0
140
1.0
293
     1
141
0.0
294
     1
177
     0
142
1.0
295
     0
296
     0
143
3.75
1001
ACAD_MLEADERVER
1070
     2
  0
MLINESTYLE
  5
18
102
{ACAD_REACTORS
330
17
102
}
330
17
100
AcDbMlineStyle
  2
STANDARD
 70
     0
  3

 62
   256
 51
90.0
 52
90.0
 71
     2
 49
0.5
 62
   256
  6
BYLAYER
 49
-0.5
 62
   256
  6
BYLAYER
  0
ACDBPLACEHOLDER
  5
F
102
{ACAD_REACTORS
330
E
102
}
330
E
  0
SCALE
  5
10D
102
{ACAD_REACTORS
330
10C
102
}
330
10C
100
AcDbScale
 70
     0
300
1:1
140
1.0
141
1.0
290
     1
  0
SCALE
  5
188
102
{ACAD_REACTORS
330
10C
102
}
330
10C
100
AcDbScale
 70
     0
300
1:2
140
1.0
141
2.0
290
     0
  0
SCALE
  5
189
102
{ACAD_REACTORS
330
10C
102
}
330
10C
100
AcDbScale
 70
     0
300
1:4
140
1.0
141
4.0
290
     0
  0
SCALE
  5
18A
102
{ACAD_REACTORS
330
10C
102
}
330
10C
100
AcDbScale
 70
     0
300
1:5
140
1.0
141
5.0
290
     0
  0
SCALE
  5
18B
102
{ACAD_REACTORS
330
10C
102
}
330
10C
100
AcDbScale
 70
     0
300
1:8
140
1.0
141
8.0
290
     0
  0
SCALE
  5
18C
102
{ACAD_REACTORS
330
10C
102
}
330
10C
100
AcDbScale
 70
     0
300
1:10
140
1.0
141
10.0
290
     0
  0
SCALE
  5
18D
102
{ACAD_REACTORS
330
10C
102
}
330
10C
100
AcDbScale
 70
     0
300
1:16
140
1.0
141
16.0
290
     0
  0
SCALE
  5
18E
102
{ACAD_REACTORS
330
10C
102
}
330
10C
100
AcDbScale
 70
     0
300
1:20
140
1.0
141
20.0
290
     0
  0
SCALE
  5
18F
102
{ACAD_REACTORS
330
10C
102
}
330
10C
100
AcDbScale
 70
     0
300
1:30
140
1.0
141
30.0
290
     0
  0
SCALE
  5
190
102
{ACAD_REACTORS
330
10C
102
}
330
10C
100
AcDbScale
 70
     0
300
1:40
140
1.0
141
40.0
290
     0
  0
SCALE
  5
191
102
{ACAD_REACTORS
330
10C
102
}
330
10C
100
AcDbScale
 70
     0
300
1:50
140
1.0
141
50.0
290
     0
  0
SCALE
  5
192
102
{ACAD_REACTORS
330
10C
102
}
330
10C
100
AcDbScale
 70
     0
300
1:100
140
1.0
141
100.0
290
     0
  0
SCALE
  5
193
102
{ACAD_REACTORS
330
10C
102
}
330
10C
100
AcDbScale
 70
     0
300
2:1
140
2.0
141
1.0
290
     0
  0
SCALE
  5
194
102
{ACAD_REACTORS
330
10C
102
}
330
10C
100
AcDbScale
 70
     0
300
4:1
140
4.0
141
1.0
290
     0
  0
SCALE
  5
195
102
{ACAD_REACTORS
330
10C
102
}
330
10C
100
AcDbScale
 70
     0
300
8:1
140
8.0
141
1.0
290
     0
  0
SCALE
  5
196
102
{ACAD_REACTORS
330
10C
102
}
330
10C
100
AcDbScale
 70
     0
300
10:1
140
10.0
141
1.0
290
     0
  0
SCALE
  5
197
102
{ACAD_REACTORS
330
10C
102
}
330
10C
100
AcDbScale
 70
     0
300
100:1
140
100.0
141
1.0
290
     0
  0
SCALE
  5
198
102
{ACAD_REACTORS
330
10C
102
}
330
10C
100
AcDbScale
 70
     0
300
1/128" = 1'-0"
140
0.0078125
141
12.0
290
     0
  0
SCALE
  5
199
102
{ACAD_REACTORS
330
10C
102
}
330
10C
100
AcDbScale
 70
     0
300
1/64" = 1'-0"
140
0.015625
141
12.0
290
     0
  0
SCALE
  5
19A
102
{ACAD_REACTORS
330
10C
102
}
330
10C
100
AcDbScale
 70
     0
300
1/32" = 1'-0"
140
0.03125
141
12.0
290
     0
  0
SCALE
  5
19B
102
{ACAD_REACTORS
330
10C
102
}
330
10C
100
AcDbScale
 70
     0
300
1/16" = 1'-0"
140
0.0625
141
12.0
290
     0
  0
SCALE
  5
19C
102
{ACAD_REACTORS
330
10C
102
}
330
10C
100
AcDbScale
 70
     0
300
3/32" = 1'-0"
140
0.09375
141
12.0
290
     0
  0
SCALE
  5
19D
102
{ACAD_REACTORS
330
10C
102
}
330
10C
100
AcDbScale
 70
     0
300
1/8" = 1'-0"
140
0.125
141
12.0
290
     0
  0
SCALE
  5
19E
102
{ACAD_REACTORS
330
10C
102
}
330
10C
100
AcDbScale
 70
     0
300
3/16" = 1'-0"
140
0.1875
141
12.0
290
     0
  0
SCALE
  5
19F
102
{ACAD_REACTORS
330
10C
102
}
330
10C
100
AcDbScale
 70
     0
300
1/4" = 1'-0"
140
0.25
141
12.0
290
     0
  0
SCALE
  5
1A0
102
{ACAD_REACTORS
330
10C
102
}
330
10C
100
AcDbScale
 70
     0
300
3/8" = 1'-0"
140
0.375
141
12.0
290
     0
  0
SCALE
  5
1A1
102
{ACAD_REACTORS
330
10C
102
}
330
10C
100
AcDbScale
 70
     0
300
1/2" = 1'-0"
140
0.5
141
12.0
290
     0
  0
SCALE
  5
1A2
102
{ACAD_REACTORS
330
10C
102
}
330
10C
100
AcDbScale
 70
     0
300
3/4" = 1'-0"
140
0.75
141
12.0
290
     0
  0
SCALE
  5
1A3
102
{ACAD_REACTORS
330
10C
102
}
330
10C
100
AcDbScale
 70
     0
300
1" = 1'-0"
140
1.0
141
12.0
290
     0
  0
SCALE
  5
1A4
102
{ACAD_REACTORS
330
10C
102
}
330
10C
100
AcDbScale
 70
     0
300
1-1/2" = 1'-0"
140
1.5
141
12.0
290
     0
  0
SCALE
  5
1A5
102
{ACAD_REACTORS
330
10C
102
}
330
10C
100
AcDbScale
 70
     0
300
3" = 1'-0"
140
3.0
141
12.0
290
     0
  0
SCALE
  5
1A6
102
{ACAD_REACTORS
330
10C
102
}
330
10C
100
AcDbScale
 70
     0
300
6" = 1'-0"
140
6.0
141
12.0
290
     0
  0
SCALE
  5
1A7
102
{ACAD_REACTORS
330
10C
102
}
330
10C
100
AcDbScale
 70
     0
300
1'-0" = 1'-0"
140
12.0
141
12.0
290
     0
  0
TABLESTYLE
  5
7F
102
{ACAD_XDICTIONARY
360
162
102
}
102
{ACAD_REACTORS
330
7E
102
}
330
7E
100
AcDbTableStyle
  3
Standard
 70
     0
 71
     0
 40
1.5
 41
1.5
280
     0
281
     0
  7
Standard
140
4.5
170
     2
 62
     0
 63
     7
283
     0
274
    -2
284
     1
 64
     0
275
    -2
285
     1
 65
     0
276
    -2
286
     1
 66
     0
277
    -2
287
     1
 67
     0
278
    -2
288
     1
 68
     0
279
    -2
289
     1
 69
     0
  7
Standard
140
6.0
170
     5
 62
     0
 63
     7
283
     0
274
    -2
284
     1
 64
     0
275
    -2
285
     1
 65
     0
276
    -2
286
     1
 66
     0
277
    -2
287
     1
 67
     0
278
    -2
288
     1
 68
     0
279
    -2
289
     1
 69
     0
  7
Standard
140
4.5
170
     5
 62
     0
 63
     7
283
     0
274
    -2
284
     1
 64
     0
275
    -2
285
     1
 65
     0
276
    -2
286
     1
 66
     0
277
    -2
287
     1
 67
     0
278
    -2
288
     1
 68
     0
279
    -2
289
     1
 69
     0
  0
VISUALSTYLE
  5
F5
102
{ACAD_REACTORS
330
EF
102
}
330
EF
100
AcDbVisualStyle
  2
2dWireframe
 70
     4
 71
     0
 72
     2
 73
     1
 90
        0
 40
-0.6
 41
-30.0
 62
     5
 63
     7
 74
     1
 91
        4
 64
     7
 65
   257
 75
     1
175
     1
 42
1.0
 92
        0
 66
   257
 43
1.0
 76
     1
 77
     6
 78
     2
 67
     7
 79
     5
170
     0
171
     0
290
     0
174
     0
 93
        1
 44
0.0
173
     0
291
     0
 45
0.0
1001
ACAD
1000
AcDbSavedByObjectVersion
1070
     0
  0
VISUALSTYLE
  5
F7
102
{ACAD_REACTORS
330
EF
102
}
330
EF
100
AcDbVisualStyle
  2
3D Hidden
 70
     6
 71
     1
 72
     2
 73
     2
 90
        0
 40
-0.6
 41
-30.0
 62
     5
 63
     7
 74
     2
 91
        2
 64
     7
 65
   257
 75
     2
175
     1
 42
40.0
 92
        0
 66
   257
 43
1.0
 76
     1
 77
     6
 78
     2
 67
     7
 79
     3
170
     0
171
     0
290
     0
174
     0
 93
        1
 44
0.0
173
     0
291
     0
 45
0.0
1001
ACAD
1000
AcDbSavedByObjectVersion
1070
     0
  0
VISUALSTYLE
  5
F6
102
{ACAD_REACTORS
330
EF
102
}
330
EF
100
AcDbVisualStyle
  2
3dWireframe
 70
     5
 71
     0
 72
     2
 73
     1
 90
        0
 40
-0.6
 41
-30.0
 62
     5
 63
     7
 74
     1
 91
        4
 64
     7
 65
   257
 75
     1
175
     1
 42
1.0
 92
        0
 66
   257
 43
1.0
 76
     1
 77
     6
 78
     2
 67
     7
 79
     5
170
     0
171
     0
290
     0
174
     0
 93
        1
 44
0.0
173
     0
291
     0
 45
0.0
1001
ACAD
1000
AcDbSavedByObjectVersion
1070
     0
  0
VISUALSTYLE
  5
F4
102
{ACAD_REACTORS
330
EF
102
}
330
EF
100
AcDbVisualStyle
  2
Basic
 70
     7
 71
     1
 72
     0
 73
     1
 90
        0
 40
-0.6
 41
-30.0
 62
     5
 63
     7
 74
     0
 91
        4
 64
     7
 65
   257
 75
     1
175
     1
 42
1.0
 92
        8
 66
     7
 43
1.0
 76
     1
 77
     6
 78
     2
 67
     7
 79
     5
170
     0
171
     0
290
     0
174
     0
 93
        1
 44
0.0
173
     0
291
     1
 45
0.0
1001
ACAD
1000
AcDbSavedByObjectVersion
1070
     0
  0
VISUALSTYLE
  5
FB
102
{ACAD_REACTORS
330
EF
102
}
330
EF
100
AcDbVisualStyle
  2
Brighten
 70
    12
 71
     2
 72
     2
 73
     1
 90
        0
 40
-0.6
 41
-30.0
 62
     5
 63
     7
 74
     1
 91
        4
 64
     7
 65
   257
 75
     1
175
     1
 42
1.0
 92
        8
 66
     7
 43
1.0
 76
     1
 77
     6
 78
     2
 67
     7
 79
     5
170
     0
171
     0
290
     0
174
     0
 93
        1
 44
50.0
173
     0
291
     1
 45
0.0
1001
ACAD
1000
AcDbSavedByObjectVersion
1070
     0
  0
VISUALSTYLE
  5
FF
102
{ACAD_REACTORS
330
EF
102
}
330
EF
100
AcDbVisualStyle
  2
ColorChange
 70
    16
 71
     2
 72
     2
 73
     3
 90
        0
 40
-0.6
 41
-30.0
 62
     5
 63
     8
 74
     1
 91
        4
 64
     7
 65
   257
 75
     1
175
     1
 42
1.0
 92
        8
 66
     8
 43
1.0
 76
     1
 77
     6
 78
     2
 67
     7
 79
     5
170
     0
171
     0
290
     0
174
     0
 93
        1
 44
0.0
173
     0
291
     1
 45
0.0
1001
ACAD
1000
AcDbSavedByObjectVersion
1070
     0
  0
VISUALSTYLE
  5
F8
102
{ACAD_REACTORS
330
EF
102
}
330
EF
100
AcDbVisualStyle
  2
Conceptual
 70
     9
 71
     3
 72
     2
 73
     1
 90
        0
 40
-0.6
 41
-30.0
 62
     5
 63
     7
 74
     2
 91
        2
 64
     7
 65
   257
 75
     1
175
     1
 42
40.0
 92
        8
 66
     7
 43
1.0
 76
     1
 77
     6
 78
     2
 67
     7
 79
     3
170
     0
171
     0
290
     0
174
     0
 93
        1
 44
0.0
173
     0
291
     0
 45
0.0
1001
ACAD
1000
AcDbSavedByObjectVersion
1070
     0
  0
VISUALSTYLE
  5
FA
102
{ACAD_REACTORS
330
EF
102
}
330
EF
100
AcDbVisualStyle
  2
Dim
 70
    11
 71
     2
 72
     2
 73
     1
 90
        0
 40
-0.6
 41
-30.0
 62
     5
 63
     7
 74
     1
 91
        4
 64
     7
 65
   257
 75
     1
175
     1
 42
1.0
 92
        8
 66
     7
 43
1.0
 76
     1
 77
     6
 78
     2
 67
     7
 79
     5
170
     0
171
     0
290
     0
174
     0
 93
        1
 44
-50.0
173
     0
291
     1
 45
0.0
1001
ACAD
1000
AcDbSavedByObjectVersion
1070
     0
  0
VISUALSTYLE
  5
FE
102
{ACAD_REACTORS
330
EF
102
}
330
EF
100
AcDbVisualStyle
  2
Facepattern
 70
    15
 71
     2
 72
     2
 73
     1
 90
        0
 40
-0.6
 41
-30.0
 62
     5
 63
     7
 74
     1
 91
        4
 64
     7
 65
   257
 75
     1
175
     1
 42
1.0
 92
        8
 66
     7
 43
1.0
 76
     1
 77
     6
 78
     2
 67
     7
 79
     5
170
     0
171
     0
290
     0
174
     0
 93
        1
 44
0.0
173
     0
291
     1
 45
0.0
1001
ACAD
1000
AcDbSavedByObjectVersion
1070
     0
  0
VISUALSTYLE
  5
F0
102
{ACAD_REACTORS
330
EF
102
}
330
EF
100
AcDbVisualStyle
  2
Flat
 70
     0
 71
     2
 72
     1
 73
     1
 90
        2
 40
-0.6
 41
30.0
 62
     5
 63
     7
 74
     0
 91
        4
 64
     7
 65
   257
 75
     1
175
     1
 42
1.0
 92
        8
 66
     7
 43
1.0
 76
     1
 77
     6
 78
     2
 67
     7
 79
     5
170
     0
171
     0
290
     0
174
     0
 93
        1
 44
0.0
173
     0
291
     1
 45
0.0
1001
ACAD
1000
AcDbSavedByObjectVersion
1070
     0
  0
VISUALSTYLE
  5
F1
102
{ACAD_REACTORS
330
EF
102
}
330
EF
100
AcDbVisualStyle
  2
FlatWithEdges
 70
     1
 71
     2
 72
     1
 73
     1
 90
        2
 40
-0.6
 41
30.0
 62
     5
 63
     7
 74
     1
 91
        4
 64
     7
 65
   257
 75
     1
175
     1
 42
1.0
 92
        0
 66
   257
 43
1.0
 76
     1
 77
     6
 78
     2
 67
     7
 79
     5
170
     0
171
     0
290
     0
174
     0
 93
        1
 44
0.0
173
     0
291
     1
 45
0.0
1001
ACAD
1000
AcDbSavedByObjectVersion
1070
     0
  0
VISUALSTYLE
  5
F2
102
{ACAD_REACTORS
330
EF
102
}
330
EF
100
AcDbVisualStyle
  2
Gouraud
 70
     2
 71
     2
 72
     2
 73
     1
 90
        2
 40
-0.6
 41
30.0
 62
     5
 63
     7
 74
     0
 91
        4
 64
     7
 65
   257
 75
     1
175
     1
 42
1.0
 92
        0
 66
     7
 43
1.0
 76
     1
 77
     6
 78
     2
 67
     7
 79
     5
170
     0
171
     0
290
     0
174
     0
 93
        1
 44
0.0
173
     0
291
     1
 45
0.0
1001
ACAD
1000
AcDbSavedByObjectVersion
1070
     0
  0
VISUALSTYLE
  5
F3
102
{ACAD_REACTORS
330
EF
102
}
330
EF
100
AcDbVisualStyle
  2
GouraudWithEdges
 70
     3
 71
     2
 72
     2
 73
     1
 90
        2
 40
-0.6
 41
30.0
 62
     5
 63
     7
 74
     1
 91
        4
 64
     7
 65
   257
 75
     1
175
     1
 42
1.0
 92
        0
 66
   257
 43
1.0
 76
     1
 77
     6
 78
     2
 67
     7
 79
     5
170
     0
171
     0
290
     0
174
     0
 93
        1
 44
0.0
173
     0
291
     1
 45
0.0
1001
ACAD
1000
AcDbSavedByObjectVersion
1070
     0
  0
VISUALSTYLE
  5
FD
102
{ACAD_REACTORS
330
EF
102
}
330
EF
100
AcDbVisualStyle
  2
Linepattern
 70
    14
 71
     2
 72
     2
 73
     1
 90
        0
 40
-0.6
 41
-30.0
 62
     5
 63
     7
 74
     1
 91
        4
 64
     7
 65
   257
 75
     7
175
     7
 42
1.0
 92
        8
 66
     7
 43
1.0
 76
     1
 77
     6
 78
     2
 67
     7
 79
     5
170
     0
171
     0
290
     0
174
     0
 93
        1
 44
0.0
173
     0
291
     1
 45
0.0
1001
ACAD
1000
AcDbSavedByObjectVersion
1070
     0
  0
VISUALSTYLE
  5
F9
102
{ACAD_REACTORS
330
EF
102
}
330
EF
100
AcDbVisualStyle
  2
Realistic
 70
     8
 71
     2
 72
     2
 73
     1
 90
        0
 40
-0.6
 41
-30.0
 62
     5
 63
     7
 74
     1
 91
        0
 64
     7
 65
   257
 75
     1
175
     1
 42
1.0
 92
        8
 66
     8
 43
1.0
 76
     1
 77
     6
 78
     2
 67
     7
 79
     5
170
     0
171
     0
290
     0
174
     0
 93
       13
 44
0.0
173
     0
291
     0
 45
0.0
1001
ACAD
1000
AcDbSavedByObjectVersion
1070
     0
  0
VISUALSTYLE
  5
FC
102
{ACAD_REACTORS
330
EF
102
}
330
EF
100
AcDbVisualStyle
  2
Thicken
 70
    13
 71
     2
 72
     2
 73
     1
 90
        0
 40
-0.6
 41
-30.0
 62
     5
 63
     7
 74
     1
 91
        4
 64
     7
 65
   257
 75
     1
175
     1
 42
1.0
 92
       12
 66
     7
 43
1.0
 76
     1
 77
     6
 78
     2
 67
     7
 79
     5
170
     0
171
     0
290
     0
174
     0
 93
        1
 44
0.0
173
     0
291
     1
 45
0.0
1001
ACAD
1000
AcDbSavedByObjectVersion
1070
     0
  0
DICTIONARYVAR
  5
146
102
{ACAD_REACTORS
330
5E
102
}
330
5E
100
DictionaryVariables
280
     0
  1
1:1
  0
DICTIONARYVAR
  5
145
102
{ACAD_REACTORS
330
5E
102
}
330
5E
100
DictionaryVariables
280
     0
  1
STANDARD
  0
DICTIONARYVAR
  5
84
102
{ACAD_REACTORS
330
5E
102
}
330
5E
100
DictionaryVariables
280
     0
  1
STANDARD
  0
DICTIONARYVAR
  5
5F
102
{ACAD_REACTORS
330
5E
102
}
330
5E
100
DictionaryVariables
280
     0
  1
2
  0
DICTIONARYVAR
  5
63
102
{ACAD_REACTORS
330
5E
102
}
330
5E
100
DictionaryVariables
280
     0
  1
1
  0
DICTIONARYVAR
  5
680
102
{ACAD_REACTORS
330
5E
102
}
330
5E
100
DictionaryVariables
280
     0
  1
0
  0
DICTIONARYVAR
  5
67E
102
{ACAD_REACTORS
330
5E
102
}
330
5E
100
DictionaryVariables
280
     0
  1
2
  0
DICTIONARYVAR
  5
67D
102
{ACAD_REACTORS
330
5E
102
}
330
5E
100
DictionaryVariables
280
     0
  1
1
  0
DICTIONARYVAR
  5
682
102
{ACAD_REACTORS
330
5E
102
}
330
5E
100
DictionaryVariables
280
     0
  1
80.000000
  0
DICTIONARYVAR
  5
681
102
{ACAD_REACTORS
330
5E
102
}
330
5E
100
DictionaryVariables
280
     0
  1
5.000000
  0
DICTIONARYVAR
  5
67F
102
{ACAD_REACTORS
330
5E
102
}
330
5E
100
DictionaryVariables
280
     0
  1
127
  0
DICTIONARY
  5
688
330
D3
100
AcDbDictionary
280
     1
281
     1
  3
ACAD_XREC_ROUNDTRIP
360
689
  0
DICTIONARY
  5
68A
330
D7
100
AcDbDictionary
280
     1
281
     1
  3
ACAD_XREC_ROUNDTRIP
360
68B
  0
DICTIONARY
  5
685
330
22
100
AcDbDictionary
280
     1
281
     1
  3
ACAD_XREC_ROUNDTRIP
360
686
  0
DICTIONARY
  5
68E
330
ED
100
AcDbDictionary
280
     1
281
     1
  3
ACAD_XREC_ROUNDTRIP
360
68F
  0
DICTIONARY
  5
68C
330
EC
100
AcDbDictionary
280
     1
281
     1
  3
ACAD_XREC_ROUNDTRIP
360
68D
  0
DICTIONARY
  5
173
330
EE
100
AcDbDictionary
280
     1
281
     1
  3
ACAD_XREC_ROUNDTRIP
360
690
  3
BUMPTILE
360
175
  3
DIFFUSETILE
360
174
  3
OPACITYTILE
360
176
  3
REFLECTIONTILE
360
177
  0
DICTIONARY
  5
162
330
7F
100
AcDbDictionary
280
     1
281
     1
  3
ACAD_ROUNDTRIP_2008_TABLESTYLE_CELLSTYLEMAP
360
683
  3
ACAD_XREC_ROUNDTRIP
360
687
  0
XRECORD
  5
689
102
{ACAD_REACTORS
330
688
102
}
330
688
100
AcDbXrecord
280
     1
102
SHADEPLOT
 70
     0
102
SHADEPLOTRESLEVEL
 70
     2
102
SHADEPLOTCUSTOMDPI
 70
   300
  0
XRECORD
  5
68B
102
{ACAD_REACTORS
330
68A
102
}
330
68A
100
AcDbXrecord
280
     1
102
SHADEPLOT
 70
     0
102
SHADEPLOTRESLEVEL
 70
     2
102
SHADEPLOTCUSTOMDPI
 70
   300
  0
XRECORD
  5
686
102
{ACAD_REACTORS
330
685
102
}
330
685
100
AcDbXrecord
280
     1
102
SHADEPLOT
 70
     0
102
SHADEPLOTRESLEVEL
 70
     2
102
SHADEPLOTCUSTOMDPI
 70
   300
  0
XRECORD
  5
68F
102
{ACAD_REACTORS
330
68E
102
}
330
68E
100
AcDbXrecord
280
     1
102
MATERIAL
148
0.0
149
0.0
149
0.0
 93
        0
 94
       63
282
     0
 72
     1
 77
     1
171
     1
175
     1
179
     1
273
     0
  0
XRECORD
  5
68D
102
{ACAD_REACTORS
330
68C
102
}
330
68C
100
AcDbXrecord
280
     1
102
MATERIAL
148
0.0
149
0.0
149
0.0
 93
        0
 94
       63
282
     0
 72
     1
 77
     1
171
     1
175
     1
179
     1
273
     0
  0
XRECORD
  5
690
102
{ACAD_REACTORS
330
173
102
}
330
173
100
AcDbXrecord
280
     1
102
MATERIAL
148
0.0
149
0.0
149
0.0
 93
        0
 94
       63
282
     0
 72
     1
 77
     1
171
     1
175
     1
179
     1
273
     0
  0
XRECORD
  5
175
102
{ACAD_REACTORS
330
173
102
}
330
173
100
AcDbXrecord
280
     1
270
     1
271
     1
  0
XRECORD
  5
174
102
{ACAD_REACTORS
330
173
102
}
330
173
100
AcDbXrecord
280
     1
270
     1
271
     1
  0
XRECORD
  5
176
102
{ACAD_REACTORS
330
173
102
}
330
173
100
AcDbXrecord
280
     1
270
     1
271
     1
  0
XRECORD
  5
177
102
{ACAD_REACTORS
330
173
102
}
330
173
100
AcDbXrecord
280
     1
270
     1
271
     1
  0
CELLSTYLEMAP
  5
683
102
{ACAD_REACTORS
330
162
102
}
330
162
100
AcDbCellStyleMap
 90
        3
300
CELLSTYLE
  1
TABLEFORMAT_BEGIN
 90
        5
170
     1
 91
        0
 92
    32768
 62
   257
 93
        1
300
CONTENTFORMAT
  1
CONTENTFORMAT_BEGIN
 90
        0
 91
        0
 92
      512
 93
        0
300

 40
0.0
140
1.0
 94
        5
 62
     0
340
11
144
6.0
309
CONTENTFORMAT_END
171
     1
301
MARGIN
  1
CELLMARGIN_BEGIN
 40
1.5
 40
1.5
 40
1.5
 40
1.5
 40
4.5
 40
4.5
309
CELLMARGIN_END
 94
        6
 95
        1
302
GRIDFORMAT
  1
GRIDFORMAT_BEGIN
 90
        0
 91
        1
 62
     0
 92
       -2
340
14
 93
        0
 40
1.125
309
GRIDFORMAT_END
 95
        2
302
GRIDFORMAT
  1
GRIDFORMAT_BEGIN
 90
        0
 91
        1
 62
     0
 92
       -2
340
14
 93
        0
 40
1.125
309
GRIDFORMAT_END
 95
        4
302
GRIDFORMAT
  1
GRIDFORMAT_BEGIN
 90
        0
 91
        1
 62
     0
 92
       -2
340
14
 93
        0
 40
1.125
309
GRIDFORMAT_END
 95
        8
302
GRIDFORMAT
  1
GRIDFORMAT_BEGIN
 90
        0
 91
        1
 62
     0
 92
       -2
340
14
 93
        0
 40
1.125
309
GRIDFORMAT_END
 95
       16
302
GRIDFORMAT
  1
GRIDFORMAT_BEGIN
 90
        0
 91
        1
 62
     0
 92
       -2
340
14
 93
        0
 40
1.125
309
GRIDFORMAT_END
 95
       32
302
GRIDFORMAT
  1
GRIDFORMAT_BEGIN
 90
        0
 91
        1
 62
     0
 92
       -2
340
14
 93
        0
 40
1.125
309
GRIDFORMAT_END
309
TABLEFORMAT_END
  1
CELLSTYLE_BEGIN
 90
        1
 91
        1
300
_TITLE
309
CELLSTYLE_END
300
CELLSTYLE
  1
TABLEFORMAT_BEGIN
 90
        5
170
     1
 91
        0
 92
        0
 62
   257
 93
        1
300
CONTENTFORMAT
  1
CONTENTFORMAT_BEGIN
 90
        0
 91
        0
 92
      512
 93
        0
300

 40
0.0
140
1.0
 94
        5
 62
     0
340
11
144
4.5
309
CONTENTFORMAT_END
171
     1
301
MARGIN
  1
CELLMARGIN_BEGIN
 40
1.5
 40
1.5
 40
1.5
 40
1.5
 40
4.5
 40
4.5
309
CELLMARGIN_END
 94
        6
 95
        1
302
GRIDFORMAT
  1
GRIDFORMAT_BEGIN
 90
        0
 91
        1
 62
     0
 92
       -2
340
14
 93
        0
 40
1.125
309
GRIDFORMAT_END
 95
        2
302
GRIDFORMAT
  1
GRIDFORMAT_BEGIN
 90
        0
 91
        1
 62
     0
 92
       -2
340
14
 93
        0
 40
1.125
309
GRIDFORMAT_END
 95
        4
302
GRIDFORMAT
  1
GRIDFORMAT_BEGIN
 90
        0
 91
        1
 62
     0
 92
       -2
340
14
 93
        0
 40
1.125
309
GRIDFORMAT_END
 95
        8
302
GRIDFORMAT
  1
GRIDFORMAT_BEGIN
 90
        0
 91
        1
 62
     0
 92
       -2
340
14
 93
        0
 40
1.125
309
GRIDFORMAT_END
 95
       16
302
GRIDFORMAT
  1
GRIDFORMAT_BEGIN
 90
        0
 91
        1
 62
     0
 92
       -2
340
14
 93
        0
 40
1.125
309
GRIDFORMAT_END
 95
       32
302
GRIDFORMAT
  1
GRIDFORMAT_BEGIN
 90
        0
 91
        1
 62
     0
 92
       -2
340
14
 93
        0
 40
1.125
309
GRIDFORMAT_END
309
TABLEFORMAT_END
  1
CELLSTYLE_BEGIN
 90
        2
 91
        1
300
_HEADER
309
CELLSTYLE_END
300
CELLSTYLE
  1
TABLEFORMAT_BEGIN
 90
        5
170
     1
 91
        0
 92
        0
 62
   257
 93
        1
300
CONTENTFORMAT
  1
CONTENTFORMAT_BEGIN
 90
        0
 91
        0
 92
      512
 93
        0
300

 40
0.0
140
1.0
 94
        2
 62
     0
340
11
144
4.5
309
CONTENTFORMAT_END
171
     1
301
MARGIN
  1
CELLMARGIN_BEGIN
 40
1.5
 40
1.5
 40
1.5
 40
1.5
 40
4.5
 40
4.5
309
CELLMARGIN_END
 94
        6
 95
        1
302
GRIDFORMAT
  1
GRIDFORMAT_BEGIN
 90
        0
 91
        1
 62
     0
 92
       -2
340
14
 93
        0
 40
1.125
309
GRIDFORMAT_END
 95
        2
302
GRIDFORMAT
  1
GRIDFORMAT_BEGIN
 90
        0
 91
        1
 62
     0
 92
       -2
340
14
 93
        0
 40
1.125
309
GRIDFORMAT_END
 95
        4
302
GRIDFORMAT
  1
GRIDFORMAT_BEGIN
 90
        0
 91
        1
 62
     0
 92
       -2
340
14
 93
        0
 40
1.125
309
GRIDFORMAT_END
 95
        8
302
GRIDFORMAT
  1
GRIDFORMAT_BEGIN
 90
        0
 91
        1
 62
     0
 92
       -2
340
14
 93
        0
 40
1.125
309
GRIDFORMAT_END
 95
       16
302
GRIDFORMAT
  1
GRIDFORMAT_BEGIN
 90
        0
 91
        1
 62
     0
 92
       -2
340
14
 93
        0
 40
1.125
309
GRIDFORMAT_END
 95
       32
302
GRIDFORMAT
  1
GRIDFORMAT_BEGIN
 90
        0
 91
        1
 62
     0
 92
       -2
340
14
 93
        0
 40
1.125
309
GRIDFORMAT_END
309
TABLEFORMAT_END
  1
CELLSTYLE_BEGIN
 90
        3
 91
        2
300
_DATA
309
CELLSTYLE_END
  0
XRECORD
  5
687
102
{ACAD_REACTORS
330
162
102
}
330
162
100
AcDbXrecord
280
     1
102
ACAD_ROUNDTRIP_PRE2007_TABLESTYLE
 90
      512
 91
        0
  1

 92
      512
 93
        0
  2

 94
      512
 95
        0
  3

  0
ENDSEC
  0
EOF
