  0
SECTION
  2
HEADER
  9
$ACADVER
  1
AC1015
  9
$ACADMAINTVER
 70
    20
  9
$DWGCODEPAGE
  3
ANSI_1254
  9
$INSBASE
 10
0.0
 20
0.0
 30
0.0
  9
$EXTMIN
 10
1858.275208280377
 20
1193.35993458696
 30
0.0
  9
$EXTMAX
 10
1976.780715154086
 20
1272.749674964141
 30
0.0
  9
$LIMMIN
 10
0.0
 20
0.0
  9
$LIMMAX
 10
420.0
 20
297.0
  9
$ORTHOMODE
 70
     0
  9
$REGENMODE
 70
     1
  9
$FILLMODE
 70
     1
  9
$QTEXTMODE
 70
     0
  9
$MIRRTEXT
 70
     0
  9
$LTSCALE
 40
1.0
  9
$ATTMODE
 70
     1
  9
$TEXTSIZE
 40
2.5
  9
$TRACEWID
 40
1.0
  9
$TEXTSTYLE
  7
Standard
  9
$CLAYER
  8
0
  9
$CELTYPE
  6
ByLayer
  9
$CECOLOR
 62
   256
  9
$CELTSCALE
 40
1.0
  9
$DISPSILH
 70
     0
  9
$DIMSCALE
 40
1.0
  9
$DIMASZ
 40
2.5
  9
$DIMEXO
 40
0.625
  9
$DIMDLI
 40
3.75
  9
$DIMRND
 40
0.0
  9
$DIMDLE
 40
0.0
  9
$DIMEXE
 40
1.25
  9
$DIMTP
 40
0.0
  9
$DIMTM
 40
0.0
  9
$DIMTXT
 40
2.5
  9
$DIMCEN
 40
2.5
  9
$DIMTSZ
 40
0.0
  9
$DIMTOL
 70
     0
  9
$DIMLIM
 70
     0
  9
$DIMTIH
 70
     0
  9
$DIMTOH
 70
     0
  9
$DIMSE1
 70
     0
  9
$DIMSE2
 70
     0
  9
$DIMTAD
 70
     1
  9
$DIMZIN
 70
     8
  9
$DIMBLK
  1

  9
$DIMASO
 70
     1
  9
$DIMSHO
 70
     1
  9
$DIMPOST
  1

  9
$DIMAPOST
  1

  9
$DIMALT
 70
     0
  9
$DIMALTD
 70
     3
  9
$DIMALTF
 40
0.03937007874016
  9
$DIMLFAC
 40
1.0
  9
$DIMTOFL
 70
     1
  9
$DIMTVP
 40
0.0
  9
$DIMTIX
 70
     0
  9
$DIMSOXD
 70
     0
  9
$DIMSAH
 70
     0
  9
$DIMBLK1
  1

  9
$DIMBLK2
  1

  9
$DIMSTYLE
  2
ISO-25
  9
$DIMCLRD
 70
     0
  9
$DIMCLRE
 70
     0
  9
$DIMCLRT
 70
     0
  9
$DIMTFAC
 40
1.0
  9
$DIMGAP
 40
0.625
  9
$DIMJUST
 70
     0
  9
$DIMSD1
 70
     0
  9
$DIMSD2
 70
     0
  9
$DIMTOLJ
 70
     0
  9
$DIMTZIN
 70
     8
  9
$DIMALTZ
 70
     0
  9
$DIMALTTZ
 70
     0
  9
$DIMUPT
 70
     0
  9
$DIMDEC
 70
     2
  9
$DIMTDEC
 70
     2
  9
$DIMALTU
 70
     2
  9
$DIMALTTD
 70
     3
  9
$DIMTXSTY
  7
Standard
  9
$DIMAUNIT
 70
     0
  9
$DIMADEC
 70
     0
  9
$DIMALTRND
 40
0.0
  9
$DIMAZIN
 70
     0
  9
$DIMDSEP
 70
    44
  9
$DIMATFIT
 70
     3
  9
$DIMFRAC
 70
     0
  9
$DIMLDRBLK
  1

  9
$DIMLUNIT
 70
     2
  9
$DIMLWD
 70
    -2
  9
$DIMLWE
 70
    -2
  9
$DIMTMOVE
 70
     0
  9
$LUNITS
 70
     2
  9
$LUPREC
 70
     4
  9
$SKETCHINC
 40
1.0
  9
$FILLETRAD
 40
0.0
  9
$AUNITS
 70
     0
  9
$AUPREC
 70
     0
  9
$MENU
  1
.
  9
$ELEVATION
 40
0.0
  9
$PELEVATION
 40
0.0
  9
$THICKNESS
 40
0.0
  9
$LIMCHECK
 70
     0
  9
$CHAMFERA
 40
0.0
  9
$CHAMFERB
 40
0.0
  9
$CHAMFERC
 40
0.0
  9
$CHAMFERD
 40
0.0
  9
$SKPOLY
 70
     0
  9
$TDCREATE
 40
2458536.459129178
  9
$TDUCREATE
 40
2458536.334129179
  9
$TDUPDATE
 40
2459089.545046030
  9
$TDUUPDATE
 40
2459089.420046030
  9
$TDINDWG
 40
0.0002665972
  9
$TDUSRTIMER
 40
0.0002665972
  9
$USRTIMER
 70
     1
  9
$ANGBASE
 50
0.0
  9
$ANGDIR
 70
     0
  9
$PDMODE
 70
     0
  9
$PDSIZE
 40
0.0
  9
$PLINEWID
 40
0.0
  9
$SPLFRAME
 70
     0
  9
$SPLINETYPE
 70
     6
  9
$SPLINESEGS
 70
     8
  9
$HANDSEED
  5
C16
  9
$SURFTAB1
 70
     6
  9
$SURFTAB2
 70
     6
  9
$SURFTYPE
 70
     6
  9
$SURFU
 70
     6
  9
$SURFV
 70
     6
  9
$UCSBASE
  2

  9
$UCSNAME
  2

  9
$UCSORG
 10
0.0
 20
0.0
 30
0.0
  9
$UCSXDIR
 10
1.0
 20
0.0
 30
0.0
  9
$UCSYDIR
 10
0.0
 20
1.0
 30
0.0
  9
$UCSORTHOREF
  2

  9
$UCSORTHOVIEW
 70
     0
  9
$UCSORGTOP
 10
0.0
 20
0.0
 30
0.0
  9
$UCSORGBOTTOM
 10
0.0
 20
0.0
 30
0.0
  9
$UCSORGLEFT
 10
0.0
 20
0.0
 30
0.0
  9
$UCSORGRIGHT
 10
0.0
 20
0.0
 30
0.0
  9
$UCSORGFRONT
 10
0.0
 20
0.0
 30
0.0
  9
$UCSORGBACK
 10
0.0
 20
0.0
 30
0.0
  9
$PUCSBASE
  2

  9
$PUCSNAME
  2

  9
$PUCSORG
 10
0.0
 20
0.0
 30
0.0
  9
$PUCSXDIR
 10
1.0
 20
0.0
 30
0.0
  9
$PUCSYDIR
 10
0.0
 20
1.0
 30
0.0
  9
$PUCSORTHOREF
  2

  9
$PUCSORTHOVIEW
 70
     0
  9
$PUCSORGTOP
 10
0.0
 20
0.0
 30
0.0
  9
$PUCSORGBOTTOM
 10
0.0
 20
0.0
 30
0.0
  9
$PUCSORGLEFT
 10
0.0
 20
0.0
 30
0.0
  9
$PUCSORGRIGHT
 10
0.0
 20
0.0
 30
0.0
  9
$PUCSORGFRONT
 10
0.0
 20
0.0
 30
0.0
  9
$PUCSORGBACK
 10
0.0
 20
0.0
 30
0.0
  9
$USERI1
 70
     0
  9
$USERI2
 70
     0
  9
$USERI3
 70
     0
  9
$USERI4
 70
     0
  9
$USERI5
 70
     0
  9
$USERR1
 40
0.0
  9
$USERR2
 40
0.0
  9
$USERR3
 40
0.0
  9
$USERR4
 40
0.0
  9
$USERR5
 40
0.0
  9
$WORLDVIEW
 70
     1
  9
$SHADEDGE
 70
     3
  9
$SHADEDIF
 70
    70
  9
$TILEMODE
 70
     1
  9
$MAXACTVP
 70
    64
  9
$PINSBASE
 10
0.0
 20
0.0
 30
0.0
  9
$PLIMCHECK
 70
     0
  9
$PEXTMIN
 10
0.0
 20
0.0
 30
0.0
  9
$PEXTMAX
 10
0.0
 20
0.0
 30
0.0
  9
$PLIMMIN
 10
0.0
 20
0.0
  9
$PLIMMAX
 10
12.0
 20
9.0
  9
$UNITMODE
 70
     0
  9
$VISRETAIN
 70
     1
  9
$PLINEGEN
 70
     0
  9
$PSLTSCALE
 70
     1
  9
$TREEDEPTH
 70
  3020
  9
$CMLSTYLE
  2
Standard
  9
$CMLJUST
 70
     0
  9
$CMLSCALE
 40
20.0
  9
$PROXYGRAPHICS
 70
     1
  9
$MEASUREMENT
 70
     1
  9
$CELWEIGHT
370
    -1
  9
$ENDCAPS
280
     0
  9
$JOINSTYLE
280
     0
  9
$LWDISPLAY
290
     0
  9
$INSUNITS
 70
     4
  9
$HYPERLINKBASE
  1

  9
$STYLESHEET
  1

  9
$XEDIT
290
     1
  9
$CEPSNTYPE
380
     0
  9
$PSTYLEMODE
290
     1
  9
$FINGERPRINTGUID
  2
{B88460BD-C727-4461-A646-71417BBB42BF}
  9
$VERSIONGUID
  2
{AD1A065E-EB0B-4A5D-BFD7-E7C9E19209C1}
  9
$EXTNAMES
290
     1
  9
$PSVPSCALE
 40
0.0
  9
$OLESTARTUP
290
     0
  0
ENDSEC
  0
SECTION
  2
CLASSES
  0
CLASS
  1
ACDBDICTIONARYWDFLT
  2
AcDbDictionaryWithDefault
  3
ObjectDBX Classes
 90
        0
280
     0
281
     0
  0
CLASS
  1
ACDBPLACEHOLDER
  2
AcDbPlaceHolder
  3
ObjectDBX Classes
 90
        0
280
     0
281
     0
  0
CLASS
  1
LAYOUT
  2
AcDbLayout
  3
ObjectDBX Classes
 90
        0
280
     0
281
     0
  0
CLASS
  1
DICTIONARYVAR
  2
AcDbDictionaryVar
  3
ObjectDBX Classes
 90
        0
280
     0
281
     0
  0
CLASS
  1
TABLESTYLE
  2
AcDbTableStyle
  3
ObjectDBX Classes
 90
     4095
280
     0
281
     0
  0
CLASS
  1
MATERIAL
  2
AcDbMaterial
  3
ObjectDBX Classes
 90
     1153
280
     0
281
     0
  0
CLASS
  1
VISUALSTYLE
  2
AcDbVisualStyle
  3
ObjectDBX Classes
 90
     4095
280
     0
281
     0
  0
CLASS
  1
SCALE
  2
AcDbScale
  3
ObjectDBX Classes
 90
     1153
280
     0
281
     0
  0
CLASS
  1
MLEADERSTYLE
  2
AcDbMLeaderStyle
  3
ACDB_MLEADERSTYLE_CLASS
 90
     4095
280
     0
281
     0
  0
CLASS
  1
CELLSTYLEMAP
  2
AcDbCellStyleMap
  3
ObjectDBX Classes
 90
     1152
280
     0
281
     0
  0
ENDSEC
  0
SECTION
  2
TABLES
  0
TABLE
  2
VPORT
  5
8
330
0
100
AcDbSymbolTable
 70
     1
  0
VPORT
  5
EA
330
8
100
AcDbSymbolTableRecord
100
AcDbViewportTableRecord
  2
*Active
 70
     0
 10
0.0
 20
0.0
 11
1.0
 21
1.0
 12
1925.32470852823
 22
1238.502575340683
 13
0.0
 23
0.0
 14
10.0
 24
10.0
 15
10.0
 25
10.0
 16
0.0
 26
0.0
 36
1.0
 17
0.0
 27
0.0
 37
0.0
 40
134.2413447248577
 41
1.903110047846889
 42
50.0
 43
0.0
 44
0.0
 50
0.0
 51
0.0
 71
     0
 72
  1000
 73
     1
 74
     3
 75
     0
 76
     0
 77
     0
 78
     0
281
     0
 65
     1
110
0.0
120
0.0
130
0.0
111
1.0
121
0.0
131
0.0
112
0.0
122
1.0
132
0.0
 79
     0
146
0.0
  0
ENDTAB
  0
TABLE
  2
LTYPE
  5
5
330
0
100
AcDbSymbolTable
 70
     1
  0
LTYPE
  5
14
330
5
100
AcDbSymbolTableRecord
100
AcDbLinetypeTableRecord
  2
ByBlock
 70
     0
  3

 72
    65
 73
     0
 40
0.0
  0
LTYPE
  5
15
330
5
100
AcDbSymbolTableRecord
100
AcDbLinetypeTableRecord
  2
ByLayer
 70
     0
  3

 72
    65
 73
     0
 40
0.0
  0
LTYPE
  5
16
330
5
100
AcDbSymbolTableRecord
100
AcDbLinetypeTableRecord
  2
Continuous
 70
     0
  3
Solid line
 72
    65
 73
     0
 40
0.0
  0
ENDTAB
  0
TABLE
  2
LAYER
  5
2
330
0
100
AcDbSymbolTable
 70
     1
  0
LAYER
  5
10
102
{ACAD_XDICTIONARY
360
13C
102
}
330
2
100
AcDbSymbolTableRecord
100
AcDbLayerTableRecord
  2
0
 70
     0
 62
     7
  6
Continuous
370
    -3
390
F
  0
ENDTAB
  0
TABLE
  2
STYLE
  5
3
330
0
100
AcDbSymbolTable
 70
     2
  0
STYLE
  5
11
330
3
100
AcDbSymbolTableRecord
100
AcDbTextStyleTableRecord
  2
Standard
 70
     0
 40
0.0
 41
1.0
 50
0.0
 71
     0
 42
2.5
  3
txt
  4

  0
STYLE
  5
132
330
3
100
AcDbSymbolTableRecord
100
AcDbTextStyleTableRecord
  2
Annotative
 70
     0
 40
0.0
 41
1.0
 50
0.0
 71
     0
 42
2.5
  3
txt.shx
  4

1001
AcadAnnotative
1000
AnnotativeData
1002
{
1070
     1
1070
     1
1002
}
  0
ENDTAB
  0
TABLE
  2
VIEW
  5
6
330
0
100
AcDbSymbolTable
 70
     0
  0
ENDTAB
  0
TABLE
  2
UCS
  5
7
330
0
100
AcDbSymbolTable
 70
     0
  0
ENDTAB
  0
TABLE
  2
APPID
  5
9
330
0
100
AcDbSymbolTable
 70
     7
  0
APPID
  5
12
330
9
100
AcDbSymbolTableRecord
100
AcDbRegAppTableRecord
  2
ACAD
 70
     0
  0
APPID
  5
9E
330
9
100
AcDbSymbolTableRecord
100
AcDbRegAppTableRecord
  2
ACAD_PSEXT
 70
     0
  0
APPID
  5
133
330
9
100
AcDbSymbolTableRecord
100
AcDbRegAppTableRecord
  2
AcadAnnoPO
 70
     0
  0
APPID
  5
134
330
9
100
AcDbSymbolTableRecord
100
AcDbRegAppTableRecord
  2
AcadAnnotative
 70
     0
  0
APPID
  5
135
330
9
100
AcDbSymbolTableRecord
100
AcDbRegAppTableRecord
  2
ACAD_DSTYLE_DIMJAG
 70
     0
  0
APPID
  5
136
330
9
100
AcDbSymbolTableRecord
100
AcDbRegAppTableRecord
  2
ACAD_DSTYLE_DIMTALN
 70
     0
  0
APPID
  5
165
330
9
100
AcDbSymbolTableRecord
100
AcDbRegAppTableRecord
  2
ACAD_MLEADERVER
 70
     0
  0
ENDTAB
  0
TABLE
  2
DIMSTYLE
  5
A
330
0
100
AcDbSymbolTable
 70
     2
100
AcDbDimStyleTable
 71
     2
340
27
340
137
  0
DIMSTYLE
105
27
330
A
100
AcDbSymbolTableRecord
100
AcDbDimStyleTableRecord
  2
ISO-25
 70
     0
 41
2.5
 42
0.625
 43
3.75
 44
1.25
 73
     0
 74
     0
 77
     1
 78
     8
140
2.5
141
2.5
143
0.03937007874016
147
0.625
171
     3
172
     1
271
     2
272
     2
274
     3
278
    44
283
     0
284
     8
340
11
  0
DIMSTYLE
105
137
330
A
100
AcDbSymbolTableRecord
100
AcDbDimStyleTableRecord
  2
Annotative
 70
     0
 40
0.0
 41
2.5
 42
0.625
 43
3.75
 44
1.25
 73
     0
 74
     0
 77
     1
 78
     8
140
2.5
141
2.5
143
0.03937007874016
147
0.625
171
     3
172
     1
271
     2
272
     2
274
     3
278
    44
283
     0
284
     8
340
11
1001
AcadAnnotative
1000
AnnotativeData
1002
{
1070
     1
1070
     1
1002
}
1001
ACAD_DSTYLE_DIMJAG
1070
   388
1040
1.5
1001
ACAD_DSTYLE_DIMTALN
1070
   392
1070
     0
  0
ENDTAB
  0
TABLE
  2
BLOCK_RECORD
  5
1
330
0
100
AcDbSymbolTable
 70
     5
  0
BLOCK_RECORD
  5
1F
330
1
100
AcDbSymbolTableRecord
100
AcDbBlockTableRecord
  2
*Model_Space
340
22
  0
BLOCK_RECORD
  5
D2
330
1
100
AcDbSymbolTableRecord
100
AcDbBlockTableRecord
  2
*Paper_Space
340
D3
  0
BLOCK_RECORD
  5
D6
330
1
100
AcDbSymbolTableRecord
100
AcDbBlockTableRecord
  2
*Paper_Space0
340
D7
  0
BLOCK_RECORD
  5
883
330
1
100
AcDbSymbolTableRecord
100
AcDbBlockTableRecord
  2
1
340
0
310
2800000020000000200000000100080000000000000400000000000000000000000000000000000000000000000080000080000000808000800000008000800080800000C0C0C000C0DCC000F0CAA6000020400000206000002080000020A0000020C0000020E00000400000004020000040400000406000004080000040A0
310
000040C0000040E00000600000006020000060400000606000006080000060A0000060C0000060E00000800000008020000080400000806000008080000080A0000080C0000080E00000A0000000A0200000A0400000A0600000A0800000A0A00000A0C00000A0E00000C0000000C0200000C0400000C0600000C0800000C0
310
A00000C0C00000C0E00000E0000000E0200000E0400000E0600000E0800000E0A00000E0C00000E0E00040000000400020004000400040006000400080004000A0004000C0004000E00040200000402020004020400040206000402080004020A0004020C0004020E000404000004040200040404000404060004040800040
310
40A0004040C0004040E00040600000406020004060400040606000406080004060A0004060C0004060E00040800000408020004080400040806000408080004080A0004080C0004080E00040A0000040A0200040A0400040A0600040A0800040A0A00040A0C00040A0E00040C0000040C0200040C0400040C0600040C08000
310
40C0A00040C0C00040C0E00040E0000040E0200040E0400040E0600040E0800040E0A00040E0C00040E0E00080000000800020008000400080006000800080008000A0008000C0008000E00080200000802020008020400080206000802080008020A0008020C0008020E00080400000804020008040400080406000804080
310
008040A0008040C0008040E00080600000806020008060400080606000806080008060A0008060C0008060E00080800000808020008080400080806000808080008080A0008080C0008080E00080A0000080A0200080A0400080A0600080A0800080A0A00080A0C00080A0E00080C0000080C0200080C0400080C0600080C0
310
800080C0A00080C0C00080C0E00080E0000080E0200080E0400080E0600080E0800080E0A00080E0C00080E0E000C0000000C0002000C0004000C0006000C0008000C000A000C000C000C000E000C0200000C0202000C0204000C0206000C0208000C020A000C020C000C020E000C0400000C0402000C0404000C0406000C0
310
408000C040A000C040C000C040E000C0600000C0602000C0604000C0606000C0608000C060A000C060C000C060E000C0800000C0802000C0804000C0806000C0808000C080A000C080C000C080E000C0A00000C0A02000C0A04000C0A06000C0A08000C0A0A000C0A0C000C0A0E000C0C00000C0C02000C0C04000C0C06000
310
C0C08000C0C0A000F0FBFF00A4A0A000808080000000FF0000FF000000FFFF00FF000000FF00FF00FFFF0000FFFFFF00000000000000000000000000000000000000000000000000000000000000000000000000000000000000FFFFFFFFFFFFFFFFFFFFFFFF0000000000000000000000000000000000000000FF00FFFFFF
310
FFFFFFFFFF00FF0000000000000000000000000000000000000000FFFFFFFFFFFFFFFFFFFFFFFF0000000000000000000000000000000000000000FFFFFF000000000000FFFFFF0000000000000000000000000000000000000000FF00FF000000000000FF00FF0000000000000000000000000000000000000000FF00FFFF
310
FFFFFFFFFFFF00FF0000000000000000000000000000000000000000FFFFFFFFFFFFFFFFFFFFFFFF0000000000000000000000000000000000000000FF00FFFF00000000FFFF00FF0000000000000000000000000000000000000000FF00FFFFFFFFFFFFFFFF00FF0000000000000000000000000000000000000000FF00FF
310
FFFFFFFFFFFFFF00FF0000000000000000000000000000000000000000FF00FFFFFFFFFFFFFFFF00FF0000000000000000000000000000000000000000FF00FF000000000000FF00FF0000000000000000000000000000000000000000FF00FF000000000000FF00FF0000000000000000000000000000000000000000FF00
310
FF000000000000FF00FF0000000000000000000000000000000000000000FF00FF000000000000FF00FF0000000000000000000000000000000000000000FF00FF000000000000FF00FF0000000000000000000000000000000000000000FF00FF000000000000FF00FF0000000000000000000000000000000000000000FF
310
00FF000000000000FF00FF0000000000000000000000000000000000000000FF00FF000000000000FF00FF0000000000000000000000000000000000000000FF00FF000000000000FF00FF0000000000000000000000000000000000000000FF00FF000000000000FF00FF0000000000000000000000000000000000000000
310
FF00FF000000000000FF00FF0000000000000000000000000000000000000000FF00FF000000000000FF00FF0000000000000000000000000000000000000000FFFFFF000000000000FFFFFF0000000000000000000000000000000000000000FF00000000000000000000FF00000000000000000000000000000000000000
310
00FFFFFFFFFFFFFFFFFFFFFFFF00000000000000000000000000000000000000000000FF0000FFFF0000FF000000000000000000000000000000000000000000000000FF0000FFFF0000FF000000000000000000000000000000000000000000000000FFFFFFFFFFFFFFFF0000000000000000000000000000000000000000
310
00000000FFFFFFFFFFFFFFFF0000000000000000000000000000000000000000000000000000000000000000000000000000000000000000
102
{BLKREFS
331
915
102
}
1001
ACAD
1000
DesignCenter Data
1002
{
1070
     1
1070
     4
1002
}
  0
BLOCK_RECORD
  5
916
330
1
100
AcDbSymbolTableRecord
100
AcDbBlockTableRecord
  2
2
340
0
310
2800000020000000200000000100080000000000000400000000000000000000000000000000000000000000000080000080000000808000800000008000800080800000C0C0C000C0DCC000F0CAA6000020400000206000002080000020A0000020C0000020E00000400000004020000040400000406000004080000040A0
310
000040C0000040E00000600000006020000060400000606000006080000060A0000060C0000060E00000800000008020000080400000806000008080000080A0000080C0000080E00000A0000000A0200000A0400000A0600000A0800000A0A00000A0C00000A0E00000C0000000C0200000C0400000C0600000C0800000C0
310
A00000C0C00000C0E00000E0000000E0200000E0400000E0600000E0800000E0A00000E0C00000E0E00040000000400020004000400040006000400080004000A0004000C0004000E00040200000402020004020400040206000402080004020A0004020C0004020E000404000004040200040404000404060004040800040
310
40A0004040C0004040E00040600000406020004060400040606000406080004060A0004060C0004060E00040800000408020004080400040806000408080004080A0004080C0004080E00040A0000040A0200040A0400040A0600040A0800040A0A00040A0C00040A0E00040C0000040C0200040C0400040C0600040C08000
310
40C0A00040C0C00040C0E00040E0000040E0200040E0400040E0600040E0800040E0A00040E0C00040E0E00080000000800020008000400080006000800080008000A0008000C0008000E00080200000802020008020400080206000802080008020A0008020C0008020E00080400000804020008040400080406000804080
310
008040A0008040C0008040E00080600000806020008060400080606000806080008060A0008060C0008060E00080800000808020008080400080806000808080008080A0008080C0008080E00080A0000080A0200080A0400080A0600080A0800080A0A00080A0C00080A0E00080C0000080C0200080C0400080C0600080C0
310
800080C0A00080C0C00080C0E00080E0000080E0200080E0400080E0600080E0800080E0A00080E0C00080E0E000C0000000C0002000C0004000C0006000C0008000C000A000C000C000C000E000C0200000C0202000C0204000C0206000C0208000C020A000C020C000C020E000C0400000C0402000C0404000C0406000C0
310
408000C040A000C040C000C040E000C0600000C0602000C0604000C0606000C0608000C060A000C060C000C060E000C0800000C0802000C0804000C0806000C0808000C080A000C080C000C080E000C0A00000C0A02000C0A04000C0A06000C0A08000C0A0A000C0A0C000C0A0E000C0C00000C0C02000C0C04000C0C06000
310
C0C08000C0C0A000F0FBFF00A4A0A000808080000000FF0000FF000000FFFF00FF000000FF00FF00FFFF0000FFFFFF00000000000000000000000000000000000000000000000000000000000000000000000000000000FFFFFFFFFF00FFFFFFFFFFFFFFFFFFFFFFFF0000000000000000000000000000FF000000FFFFFF00
310
000000000000000000FF00000000000000000000000000FF00000000000000000000000000000000FFFF0000000000000000000000000000FF000000000000000000000000000000FFFF0000000000000000000000000000FF00000000000000000000000000000000FF00000000000000000000000000FF000000000000FF
310
FFFFFFFFFFFFFFFFFFFFFF00000000000000000000000000FF000000000000FFFFFFFFFFFFFFFFFFFFFF0000000000000000000000000000FF000000000000FF000000FFFFFFFFFFFF000000000000000000000000000000FF000000000000FFFFFFFFFFFFFF000000000000000000000000000000000000FF000000000000
310
FFFFFFFFFFFFFFFFFFFFFF0000000000000000000000000000FF000000000000FF000000000000000000FF0000000000000000000000000000FF000000000000FF000000000000000000FF0000000000000000000000000000FF000000000000FF00000000000000000000FF00000000000000000000000000FF0000000000
310
00FFFFFFFFFFFF0000000000FF00000000000000000000000000FF000000000000000000000000FFFFFFFFFFFF00000000000000000000000000FF0000000000000000000000000000000000FF00000000000000000000000000FF0000000000000000000000000000000000FF00000000000000000000000000FF00000000
310
00000000000000000000000000FF00000000000000000000000000FF0000000000000000000000000000000000FF00000000000000000000000000FF000000000000000000000000000000000000FF000000000000000000000000FF000000000000000000000000000000000000FF000000000000000000000000FF000000
310
000000000000000000000000000000FF000000000000000000000000FF000000000000000000000000000000000000FF000000000000000000000000FFFFFF0000000000000000000000000000FFFFFF00000000000000000000000000FFFFFFFFFFFFFFFFFFFFFFFFFFFFFFFFFFFFFF000000000000000000000000FFFFFF
310
FFFFFFFFFFFFFFFFFFFFFFFFFFFFFFFFFF000000000000000000000000000000000000FF00FF0000FFFF00FF0000000000000000000000000000000000000000000000FF00FF0000FFFF00FF0000000000000000000000000000000000000000000000FFFFFFFFFFFFFFFFFF00000000000000000000000000000000000000
310
00000000FFFFFFFFFFFFFFFF0000000000000000000000000000000000000000000000000000000000000000000000000000000000000000
102
{BLKREFS
331
9D0
102
}
1001
ACAD
1000
DesignCenter Data
1002
{
1070
     1
1070
     4
1002
}
  0
BLOCK_RECORD
  5
9D1
330
1
100
AcDbSymbolTableRecord
100
AcDbBlockTableRecord
  2
3
340
0
310
2800000020000000200000000100080000000000000400000000000000000000000000000000000000000000000080000080000000808000800000008000800080800000C0C0C000C0DCC000F0CAA6000020400000206000002080000020A0000020C0000020E00000400000004020000040400000406000004080000040A0
310
000040C0000040E00000600000006020000060400000606000006080000060A0000060C0000060E00000800000008020000080400000806000008080000080A0000080C0000080E00000A0000000A0200000A0400000A0600000A0800000A0A00000A0C00000A0E00000C0000000C0200000C0400000C0600000C0800000C0
310
A00000C0C00000C0E00000E0000000E0200000E0400000E0600000E0800000E0A00000E0C00000E0E00040000000400020004000400040006000400080004000A0004000C0004000E00040200000402020004020400040206000402080004020A0004020C0004020E000404000004040200040404000404060004040800040
310
40A0004040C0004040E00040600000406020004060400040606000406080004060A0004060C0004060E00040800000408020004080400040806000408080004080A0004080C0004080E00040A0000040A0200040A0400040A0600040A0800040A0A00040A0C00040A0E00040C0000040C0200040C0400040C0600040C08000
310
40C0A00040C0C00040C0E00040E0000040E0200040E0400040E0600040E0800040E0A00040E0C00040E0E00080000000800020008000400080006000800080008000A0008000C0008000E00080200000802020008020400080206000802080008020A0008020C0008020E00080400000804020008040400080406000804080
310
008040A0008040C0008040E00080600000806020008060400080606000806080008060A0008060C0008060E00080800000808020008080400080806000808080008080A0008080C0008080E00080A0000080A0200080A0400080A0600080A0800080A0A00080A0C00080A0E00080C0000080C0200080C0400080C0600080C0
310
800080C0A00080C0C00080C0E00080E0000080E0200080E0400080E0600080E0800080E0A00080E0C00080E0E000C0000000C0002000C0004000C0006000C0008000C000A000C000C000C000E000C0200000C0202000C0204000C0206000C0208000C020A000C020C000C020E000C0400000C0402000C0404000C0406000C0
310
408000C040A000C040C000C040E000C0600000C0602000C0604000C0606000C0608000C060A000C060C000C060E000C0800000C0802000C0804000C0806000C0808000C080A000C080C000C080E000C0A00000C0A02000C0A04000C0A06000C0A08000C0A0A000C0A0C000C0A0E000C0C00000C0C02000C0C04000C0C06000
310
C0C08000C0C0A000F0FBFF00A4A0A000808080000000FF0000FF000000FFFF00FF000000FF00FF00FFFF0000FFFFFF0000000000000000000000000000000000000000000000000000000000000000000000000000000000FFFFFF00000000000000000000FFFFFF00000000000000000000000000000000FFFFFF00000000
310
000000000000FFFFFF00000000000000000000000000000000FFFFFFFFFFFFFFFFFFFFFFFFFFFFFFFF00000000000000000000000000000000FFFFFFFFFFFFFFFFFFFFFFFFFFFFFFFF00000000000000000000000000000000FFFFFFFFFFFFFFFFFFFFFFFFFFFFFFFF00000000000000000000000000000000FF00FF000000
310
00000000000000FF00FF00000000000000000000000000000000FF00FF00000000000000000000FF00FF00000000000000000000000000000000FF00FF00000000000000000000FF00FF00000000000000000000000000000000FF00FF00000000000000000000FF00FF00000000000000000000000000000000FF00FF0000
310
0000FFFF00000000FF00FF00000000000000000000000000000000FF00FF0000FFFF00FFFF000000FF00FF00000000000000000000000000000000FF00FF00FF0000FF00FFFFFF00FF00FF00000000000000000000000000000000FF00FFFF00FFFF000000FF00FFFF00FF00000000000000000000000000000000FF00FFFF
310
FF0000FFFF0000FFFFFF00FF00000000000000000000000000000000FF00FFFFFFFFFFFFFFFFFFFFFFFF00FF00000000000000000000000000000000FF00FFFFFFFFFFFFFFFFFFFFFFFF00FF00000000000000000000000000000000FF00FFFFFF0000FFFF0000FFFFFF00FF00000000000000000000000000000000FF00FF
310
FF00FFFFFFFF00FF00FFFF00FF00000000000000000000000000000000FF00FFFFFF0000FF00FF00FFFFFF00FF00000000000000000000000000000000FF00FF0000FF0000FF00FF0000FF00FF00000000000000000000000000000000FF00FF000000FFFFFFFF000000FF00FF00000000000000000000000000000000FF00
310
FF00000000000000000000FF00FF00000000000000000000000000000000FF00FF00000000000000000000FF00FF00000000000000000000000000000000FF00FF00000000000000000000FF00FF00000000000000000000000000000000FF00FF00000000000000000000FF00FF00000000000000000000000000000000FF
310
00FF00000000000000000000FF00FF00000000000000000000000000000000FFFFFFFFFFFFFFFFFFFFFFFFFFFFFFFF00000000000000000000000000000000FFFFFFFFFFFFFFFFFFFFFFFFFFFFFFFF00000000000000000000000000000000FFFFFFFFFFFFFFFFFFFFFFFFFFFFFFFF00000000000000000000000000000000
310
FFFFFF00000000000000000000FFFFFF00000000000000000000000000000000000000000000000000000000000000000000000000000000
102
{BLKREFS
331
A40
102
}
1001
ACAD
1000
DesignCenter Data
1002
{
1070
     1
1070
     4
1002
}
  0
BLOCK_RECORD
  5
A41
330
1
100
AcDbSymbolTableRecord
100
AcDbBlockTableRecord
  2
4
340
0
310
2800000020000000200000000100080000000000000400000000000000000000000000000000000000000000000080000080000000808000800000008000800080800000C0C0C000C0DCC000F0CAA6000020400000206000002080000020A0000020C0000020E00000400000004020000040400000406000004080000040A0
310
000040C0000040E00000600000006020000060400000606000006080000060A0000060C0000060E00000800000008020000080400000806000008080000080A0000080C0000080E00000A0000000A0200000A0400000A0600000A0800000A0A00000A0C00000A0E00000C0000000C0200000C0400000C0600000C0800000C0
310
A00000C0C00000C0E00000E0000000E0200000E0400000E0600000E0800000E0A00000E0C00000E0E00040000000400020004000400040006000400080004000A0004000C0004000E00040200000402020004020400040206000402080004020A0004020C0004020E000404000004040200040404000404060004040800040
310
40A0004040C0004040E00040600000406020004060400040606000406080004060A0004060C0004060E00040800000408020004080400040806000408080004080A0004080C0004080E00040A0000040A0200040A0400040A0600040A0800040A0A00040A0C00040A0E00040C0000040C0200040C0400040C0600040C08000
310
40C0A00040C0C00040C0E00040E0000040E0200040E0400040E0600040E0800040E0A00040E0C00040E0E00080000000800020008000400080006000800080008000A0008000C0008000E00080200000802020008020400080206000802080008020A0008020C0008020E00080400000804020008040400080406000804080
310
008040A0008040C0008040E00080600000806020008060400080606000806080008060A0008060C0008060E00080800000808020008080400080806000808080008080A0008080C0008080E00080A0000080A0200080A0400080A0600080A0800080A0A00080A0C00080A0E00080C0000080C0200080C0400080C0600080C0
310
800080C0A00080C0C00080C0E00080E0000080E0200080E0400080E0600080E0800080E0A00080E0C00080E0E000C0000000C0002000C0004000C0006000C0008000C000A000C000C000C000E000C0200000C0202000C0204000C0206000C0208000C020A000C020C000C020E000C0400000C0402000C0404000C0406000C0
310
408000C040A000C040C000C040E000C0600000C0602000C0604000C0606000C0608000C060A000C060C000C060E000C0800000C0802000C0804000C0806000C0808000C080A000C080C000C080E000C0A00000C0A02000C0A04000C0A06000C0A08000C0A0A000C0A0C000C0A0E000C0C00000C0C02000C0C04000C0C06000
310
C0C08000C0C0A000F0FBFF00A4A0A000808080000000FF0000FF000000FFFF00FF000000FF00FF00FFFF0000FFFFFF000000000000000000000000000000000000000000000000000000000000000000000000000000000000000000000000000000FF00000000000000000000000000000000000000000000000000000000
310
00FFFFFFFF0000000000000000000000000000000000000000000000000000FFFF00FFFFFF000000000000000000000000000000000000000000000000FFFF000000FFFFFFFFFF000000000000000000000000000000000000000000FF000000000000FFFF0000FFFFFF00000000000000000000000000000000FFFF000000
310
00FFFFFFFF00000000FFFFFF0000000000000000000000000000FF00000000FFFFFFFFFFFFFFFF0000FFFF0000000000000000000000000000FF00000000FFFFFFFFFFFF000000FFFFFFFFFF000000000000000000000000FFFF0000FFFFFFFFFFFFFF00FF000000FFFF00FF00000000000000000000000000FF0000FFFFFF
310
00FFFFFFFFFFFFFFFFFFFFFF00000000000000000000000000FF000000FFFF00FFFFFF00FFFF0000FFFF000000000000000000000000000000FF000000FFFFFFFFFFFFFFFFFFFF000000FF0000000000000000000000000000FF000000FFFFFFFFFF0000FF00FF000000FF0000000000000000000000000000FF000000FFFF
310
FF00000000FF00FF000000FF0000000000000000000000000000FF000000FFFF000000000000FFFF000000FFFF00000000000000000000000000FF0000000000000000000000FFFF000000FFFF00000000000000000000000000FF0000000000000000000000FFFF000000FFFF00000000000000000000000000FF00000000
310
000000000000FFFFFF00000000FF00000000000000000000000000FF00000000000000000000FFFFFF00000000FFFF000000000000000000000000FF0000000000000000FFFF00FFFFFF000000FFFF000000000000000000000000FF000000000000FFFF00FFFF00FFFFFFFF00FFFF000000000000000000000000FF000000
310
00FFFF00FFFF0000000000FFFFFFFFFF000000000000000000000000FF0000FFFF0000FFFFFFFFFFFF00000000FFFFFF000000000000000000000000FFFFFF0000FFFFFF00FF0000FFFF0000FFFF0000000000000000000000000000FFFFFFFFFF00FFFFFFFFFFFFFFFFFFFF00000000000000000000000000000000FF00FF
310
FF0000FFFFFFFFFFFFFFFF00000000000000000000000000000000000000FFFFFFFFFFFFFFFFFFFFFFFFFF000000000000000000000000000000000000000000FFFFFFFFFFFFFF00FFFFFF0000000000000000000000000000000000000000000000FFFFFFFFFFFFFF00000000000000000000000000000000000000000000
310
0000000000FF0000000000000000000000000000000000000000000000000000000000000000000000000000000000000000000000000000
102
{BLKREFS
331
BFB
102
}
1001
ACAD
1000
DesignCenter Data
1002
{
1070
     1
1070
     4
1002
}
  0
ENDTAB
  0
ENDSEC
  0
SECTION
  2
BLOCKS
  0
BLOCK
  5
20
330
1F
100
AcDbEntity
  8
0
100
AcDbBlockBegin
  2
*Model_Space
 70
     0
 10
0.0
 20
0.0
 30
0.0
  3
*Model_Space
  1

  0
ENDBLK
  5
21
330
1F
100
AcDbEntity
  8
0
100
AcDbBlockEnd
  0
BLOCK
  5
D4
330
D2
100
AcDbEntity
 67
     1
  8
0
100
AcDbBlockBegin
  2
*Paper_Space
 70
     0
 10
0.0
 20
0.0
 30
0.0
  3
*Paper_Space
  1

  0
ENDBLK
  5
D5
330
D2
100
AcDbEntity
 67
     1
  8
0
100
AcDbBlockEnd
  0
BLOCK
  5
D8
330
D6
100
AcDbEntity
 67
     1
  8
0
100
AcDbBlockBegin
  2
*Paper_Space0
 70
     0
 10
0.0
 20
0.0
 30
0.0
  3
*Paper_Space0
  1

  0
ENDBLK
  5
D9
330
D6
100
AcDbEntity
 67
     1
  8
0
100
AcDbBlockEnd
  0
BLOCK
  5
884
330
883
100
AcDbEntity
  8
0
100
AcDbBlockBegin
  2
1
 70
     0
 10
0.0
 20
0.0
 30
0.0
  3
1
  1

  0
LINE
  5
886
330
883
100
AcDbEntity
  8
0
  6
Continuous
 62
     7
370
    15
100
AcDbLine
 10
1921.914274420129
 20
1243.083787843428
 30
0.0
 11
1921.914274420129
 21
1243.383787843429
 31
0.0
  0
LINE
  5
887
330
883
100
AcDbEntity
  8
0
  6
Continuous
 62
     7
370
    15
100
AcDbLine
 10
1911.740826223082
 20
1243.383787843429
 30
0.0
 11
1911.740826223082
 21
1243.083787843428
 31
0.0
  0
LINE
  5
888
330
883
100
AcDbEntity
  8
0
  6
Continuous
 62
     7
370
    15
100
AcDbLine
 10
1922.077346305523
 20
1233.373452189747
 30
0.0
 11
1911.577346305523
 21
1233.373452189747
 31
0.0
  0
LINE
  5
889
330
883
100
AcDbEntity
  8
0
  6
Continuous
 62
     7
370
    15
100
AcDbLine
 10
1924.827346305523
 20
1235.438421680253
 30
0.0
 11
1922.327346305523
 21
1235.438421680253
 31
0.0
  0
LINE
  5
88A
330
883
100
AcDbEntity
  8
0
  6
Continuous
 62
     7
370
    15
100
AcDbLine
 10
1922.327346305523
 20
1235.438421680253
 30
0.0
 11
1922.327346305523
 21
1239.890333956545
 31
0.0
  0
LINE
  5
88B
330
883
100
AcDbEntity
  8
0
  6
Continuous
 62
     7
370
    15
100
AcDbLine
 10
1922.327346305523
 20
1239.890333956545
 30
0.0
 11
1924.827346305523
 21
1239.890333956545
 31
0.0
  0
LINE
  5
88C
330
883
100
AcDbEntity
  8
0
  6
Continuous
 62
     7
370
    15
100
AcDbLine
 10
1924.827346305523
 20
1235.438421680253
 30
0.0
 11
1924.827346305523
 21
1239.890333956545
 31
0.0
  0
LINE
  5
88D
330
883
100
AcDbEntity
  8
0
  6
Continuous
 62
     7
370
    15
100
AcDbLine
 10
1922.327346305523
 20
1239.890333956545
 30
0.0
 11
1922.327346305523
 21
1264.840625518662
 31
0.0
  0
LINE
  5
88E
330
883
100
AcDbEntity
  8
0
  6
Continuous
 62
     7
370
    15
100
AcDbLine
 10
1922.327346305523
 20
1264.840625518662
 30
0.0
 11
1924.827346305523
 21
1264.840625518662
 31
0.0
  0
LINE
  5
88F
330
883
100
AcDbEntity
  8
0
  6
Continuous
 62
     7
370
    15
100
AcDbLine
 10
1924.827346305523
 20
1239.890333956545
 30
0.0
 11
1924.827346305523
 21
1264.840625518662
 31
0.0
  0
LINE
  5
890
330
883
100
AcDbEntity
  8
0
  6
Continuous
 62
     7
370
    15
100
AcDbLine
 10
1911.327346305523
 20
1235.438421680253
 30
0.0
 11
1908.827346305523
 21
1235.438421680253
 31
0.0
  0
LINE
  5
891
330
883
100
AcDbEntity
  8
0
  6
Continuous
 62
     7
370
    15
100
AcDbLine
 10
1908.827346305523
 20
1239.890333956545
 30
0.0
 11
1908.827346305523
 21
1235.438421680253
 31
0.0
  0
LINE
  5
892
330
883
100
AcDbEntity
  8
0
  6
Continuous
 62
     7
370
    15
100
AcDbLine
 10
1908.827346305523
 20
1239.890333956545
 30
0.0
 11
1911.327346305523
 21
1239.890333956545
 31
0.0
  0
LINE
  5
893
330
883
100
AcDbEntity
  8
0
  6
Continuous
 62
     7
370
    15
100
AcDbLine
 10
1911.327346305523
 20
1235.438421680253
 30
0.0
 11
1911.327346305523
 21
1239.890333956545
 31
0.0
  0
LINE
  5
894
330
883
100
AcDbEntity
  8
0
  6
Continuous
 62
     7
370
    15
100
AcDbLine
 10
1908.827346305523
 20
1264.840625518662
 30
0.0
 11
1908.827346305523
 21
1239.890333956545
 31
0.0
  0
LINE
  5
895
330
883
100
AcDbEntity
  8
0
  6
Continuous
 62
     7
370
    15
100
AcDbLine
 10
1908.827346305523
 20
1264.840625518662
 30
0.0
 11
1911.327346305523
 21
1264.840625518662
 31
0.0
  0
LINE
  5
896
330
883
100
AcDbEntity
  8
0
  6
Continuous
 62
     7
370
    15
100
AcDbLine
 10
1911.327346305523
 20
1239.890333956545
 30
0.0
 11
1911.327346305523
 21
1264.840625518662
 31
0.0
  0
LINE
  5
897
330
883
100
AcDbEntity
  8
0
  6
Continuous
 62
     7
370
    15
100
AcDbLine
 10
1911.327346305523
 20
1265.249674964147
 30
0.0
 11
1908.827346305523
 21
1265.249674964147
 31
0.0
  0
LINE
  5
898
330
883
100
AcDbEntity
  8
0
  6
Continuous
 62
     7
370
    15
100
AcDbLine
 10
1911.327346305523
 20
1265.249674964147
 30
0.0
 11
1911.327346305523
 21
1264.840625518662
 31
0.0
  0
LINE
  5
899
330
883
100
AcDbEntity
  8
0
  6
Continuous
 62
     7
370
    15
100
AcDbLine
 10
1908.827346305523
 20
1265.249674964147
 30
0.0
 11
1908.827346305523
 21
1264.840625518662
 31
0.0
  0
LINE
  5
89A
330
883
100
AcDbEntity
  8
0
  6
Continuous
 62
     7
370
    15
100
AcDbLine
 10
1924.827346305523
 20
1265.249674964147
 30
0.0
 11
1922.327346305523
 21
1265.249674964147
 31
0.0
  0
LINE
  5
89B
330
883
100
AcDbEntity
  8
0
  6
Continuous
 62
     7
370
    15
100
AcDbLine
 10
1924.827346305523
 20
1265.249674964147
 30
0.0
 11
1924.827346305523
 21
1264.840625518662
 31
0.0
  0
LINE
  5
89C
330
883
100
AcDbEntity
  8
0
  6
Continuous
 62
     7
370
    15
100
AcDbLine
 10
1922.327346305523
 20
1264.840625518662
 30
0.0
 11
1922.327346305523
 21
1265.249674964147
 31
0.0
  0
LINE
  5
89D
330
883
100
AcDbEntity
  8
0
  6
Continuous
 62
     7
370
    15
100
AcDbLine
 10
1911.777346305523
 20
1265.247254769227
 30
0.0
 11
1911.327346305523
 21
1265.247254769227
 31
0.0
  0
LINE
  5
89E
330
883
100
AcDbEntity
  8
0
  6
Continuous
 62
     7
370
    15
100
AcDbLine
 10
1909.027346305523
 20
1265.249674964147
 30
0.0
 11
1909.027346305523
 21
1267.23706781387
 31
0.0
  0
LINE
  5
89F
330
883
100
AcDbEntity
  8
0
  6
Continuous
 62
     7
370
    15
100
AcDbLine
 10
1909.027346305523
 20
1267.23706781387
 30
0.0
 11
1924.627346305523
 21
1267.23706781387
 31
0.0
  0
LINE
  5
8A0
330
883
100
AcDbEntity
  8
0
  6
Continuous
 62
     7
370
    15
100
AcDbLine
 10
1922.327346305523
 20
1265.247254769227
 30
0.0
 11
1921.877346305523
 21
1265.247254769227
 31
0.0
  0
LINE
  5
8A1
330
883
100
AcDbEntity
  8
0
  6
Continuous
 62
     7
370
    15
100
AcDbLine
 10
1921.877346305523
 20
1265.247254769227
 30
0.0
 11
1921.877346305523
 21
1245.708340380192
 31
0.0
  0
LINE
  5
8A2
330
883
100
AcDbEntity
  8
0
  6
Continuous
 62
     7
370
    15
100
AcDbLine
 10
1911.777346305523
 20
1245.708340380192
 30
0.0
 11
1921.877346305523
 21
1245.708340380192
 31
0.0
  0
LINE
  5
8A3
330
883
100
AcDbEntity
  8
0
  6
Continuous
 62
     7
370
    15
100
AcDbLine
 10
1911.777346305523
 20
1245.708340380192
 30
0.0
 11
1911.777346305523
 21
1265.247254769227
 31
0.0
  0
LINE
  5
8A4
330
883
100
AcDbEntity
  8
0
  6
Continuous
 62
     7
370
    15
100
AcDbLine
 10
1924.627346305523
 20
1267.23706781387
 30
0.0
 11
1924.627346305523
 21
1265.249674964147
 31
0.0
  0
LINE
  5
8A5
330
883
100
AcDbEntity
  8
0
  6
Continuous
 62
     7
370
    15
100
AcDbLine
 10
1924.627346305523
 20
1267.337869658311
 30
0.0
 11
1909.027346305523
 21
1267.337869658311
 31
0.0
  0
LINE
  5
8A6
330
883
100
AcDbEntity
  8
0
  6
Continuous
 62
     7
370
    15
100
AcDbLine
 10
1909.027346305523
 20
1267.337869658311
 30
0.0
 11
1909.027346305523
 21
1267.23706781387
 31
0.0
  0
LINE
  5
8A7
330
883
100
AcDbEntity
  8
0
  6
Continuous
 62
     7
370
    15
100
AcDbLine
 10
1924.627346305523
 20
1267.337869658311
 30
0.0
 11
1924.627346305523
 21
1267.23706781387
 31
0.0
  0
LINE
  5
8A8
330
883
100
AcDbEntity
  8
0
  6
Continuous
 62
     7
370
    15
100
AcDbLine
 10
1924.827346305523
 20
1234.738152624953
 30
0.0
 11
1922.327346305523
 21
1234.738152624953
 31
0.0
  0
LINE
  5
8A9
330
883
100
AcDbEntity
  8
0
  6
Continuous
 62
     7
370
    15
100
AcDbLine
 10
1922.327346305523
 20
1234.234908338038
 30
0.0
 11
1924.827346305523
 21
1234.234908338038
 31
0.0
  0
LINE
  5
8AA
330
883
100
AcDbEntity
  8
0
  6
Continuous
 62
     7
370
    15
100
AcDbLine
 10
1924.827346305523
 20
1234.234908338038
 30
0.0
 11
1924.827346305523
 21
1234.738152624953
 31
0.0
  0
LINE
  5
8AB
330
883
100
AcDbEntity
  8
0
  6
Continuous
 62
     7
370
    15
100
AcDbLine
 10
1922.327346305523
 20
1234.738152624953
 30
0.0
 11
1922.327346305523
 21
1234.234908338038
 31
0.0
  0
LINE
  5
8AC
330
883
100
AcDbEntity
  8
0
  6
Continuous
 62
     7
370
    15
100
AcDbLine
 10
1924.827346305523
 20
1231.752341553227
 30
0.0
 11
1922.327346305523
 21
1231.752341553227
 31
0.0
  0
LINE
  5
8AD
330
883
100
AcDbEntity
  8
0
  6
Continuous
 62
     7
370
    15
100
AcDbLine
 10
1924.827346305523
 20
1231.752341553227
 30
0.0
 11
1924.827346305523
 21
1234.234908338038
 31
0.0
  0
LINE
  5
8AE
330
883
100
AcDbEntity
  8
0
  6
Continuous
 62
     7
370
    15
100
AcDbLine
 10
1922.327346305523
 20
1231.752341553227
 30
0.0
 11
1922.327346305523
 21
1234.234908338038
 31
0.0
  0
LINE
  5
8AF
330
883
100
AcDbEntity
  8
0
  6
Continuous
 62
     7
370
    15
100
AcDbLine
 10
1908.827346305523
 20
1234.234908338038
 30
0.0
 11
1911.327346305523
 21
1234.234908338038
 31
0.0
  0
LINE
  5
8B0
330
883
100
AcDbEntity
  8
0
  6
Continuous
 62
     7
370
    15
100
AcDbLine
 10
1911.327346305523
 20
1234.738152624953
 30
0.0
 11
1908.827346305523
 21
1234.738152624953
 31
0.0
  0
LINE
  5
8B1
330
883
100
AcDbEntity
  8
0
  6
Continuous
 62
     7
370
    15
100
AcDbLine
 10
1911.327346305523
 20
1234.234908338038
 30
0.0
 11
1911.327346305523
 21
1234.738152624953
 31
0.0
  0
LINE
  5
8B2
330
883
100
AcDbEntity
  8
0
  6
Continuous
 62
     7
370
    15
100
AcDbLine
 10
1908.827346305523
 20
1234.738152624953
 30
0.0
 11
1908.827346305523
 21
1234.234908338038
 31
0.0
  0
LINE
  5
8B3
330
883
100
AcDbEntity
  8
0
  6
Continuous
 62
     7
370
    15
100
AcDbLine
 10
1911.327346305523
 20
1235.438421680253
 30
0.0
 11
1911.327346305523
 21
1234.738152624953
 31
0.0
  0
LINE
  5
8B4
330
883
100
AcDbEntity
  8
0
  6
Continuous
 62
     7
370
    15
100
AcDbLine
 10
1908.827346305523
 20
1234.738152624953
 30
0.0
 11
1908.827346305523
 21
1235.438421680253
 31
0.0
  0
LINE
  5
8B5
330
883
100
AcDbEntity
  8
0
  6
Continuous
 62
     7
370
    15
100
AcDbLine
 10
1924.827346305523
 20
1235.438421680253
 30
0.0
 11
1924.827346305523
 21
1234.738152624953
 31
0.0
  0
LINE
  5
8B6
330
883
100
AcDbEntity
  8
0
  6
Continuous
 62
     7
370
    15
100
AcDbLine
 10
1922.327346305523
 20
1235.438421680253
 30
0.0
 11
1922.327346305523
 21
1234.738152624953
 31
0.0
  0
LINE
  5
8B7
330
883
100
AcDbEntity
  8
0
  6
Continuous
 62
     7
370
    15
100
AcDbLine
 10
1908.827346305523
 20
1231.752341553227
 30
0.0
 11
1911.327346305523
 21
1231.752341553227
 31
0.0
  0
LINE
  5
8B8
330
883
100
AcDbEntity
  8
0
  6
Continuous
 62
     7
370
    15
100
AcDbLine
 10
1911.327346305523
 20
1231.752341553227
 30
0.0
 11
1911.327346305523
 21
1234.234908338038
 31
0.0
  0
LINE
  5
8B9
330
883
100
AcDbEntity
  8
0
  6
Continuous
 62
     7
370
    15
100
AcDbLine
 10
1908.827346305523
 20
1234.234908338038
 30
0.0
 11
1908.827346305523
 21
1231.752341553227
 31
0.0
  0
ARC
  5
8BA
330
883
100
AcDbEntity
  8
0
  6
Continuous
 62
     7
370
    15
100
AcDbCircle
 10
1910.977346305523
 20
1265.599674964147
 30
0.0
 40
2.149999999999982
100
AcDbArc
 50
90.0
 51
126.0540011827338
  0
ARC
  5
8BB
330
883
100
AcDbEntity
  8
0
  6
Continuous
 62
     7
370
    15
100
AcDbCircle
 10
1910.977346305523
 20
1265.599674964147
 30
0.0
 40
2.150000000000005
100
AcDbArc
 50
155.0908472630475
 51
180.0
  0
LINE
  5
8BC
330
883
100
AcDbEntity
  8
0
  6
Continuous
 62
     7
370
    15
100
AcDbLine
 10
1910.977346305523
 20
1267.749674964147
 30
0.0
 11
1922.677346305523
 21
1267.749674964147
 31
0.0
  0
ARC
  5
8BD
330
883
100
AcDbEntity
  8
0
  6
Continuous
 62
     7
370
    15
100
AcDbCircle
 10
1922.677346305523
 20
1265.599674964147
 30
0.0
 40
2.150000000000005
100
AcDbArc
 50
53.94599881726618
 51
90.0
  0
ARC
  5
8BE
330
883
100
AcDbEntity
  8
0
  6
Continuous
 62
     7
370
    15
100
AcDbCircle
 10
1922.677346305523
 20
1265.599674964147
 30
0.0
 40
2.149999999999994
100
AcDbArc
 50
0.0
 51
24.90915273695241
  0
LINE
  5
8BF
330
883
100
AcDbEntity
  8
0
  6
Continuous
 62
     7
370
    15
100
AcDbLine
 10
1924.827346305523
 20
1265.249674964147
 30
0.0
 11
1924.827346305523
 21
1265.599674964147
 31
0.0
  0
LINE
  5
8C0
330
883
100
AcDbEntity
  8
0
  6
Continuous
 62
     7
370
    15
100
AcDbLine
 10
1908.827346305523
 20
1265.599674964147
 30
0.0
 11
1908.827346305523
 21
1265.249674964147
 31
0.0
  0
LINE
  5
8C1
330
883
100
AcDbEntity
  8
0
  6
Continuous
 62
     7
370
    15
100
AcDbLine
 10
1921.877346305523
 20
1244.809142224633
 30
0.0
 11
1911.777346305523
 21
1244.809142224633
 31
0.0
  0
LINE
  5
8C2
330
883
100
AcDbEntity
  8
0
  6
Continuous
 62
     7
370
    15
100
AcDbLine
 10
1921.877346305523
 20
1245.708340380192
 30
0.0
 11
1921.877346305523
 21
1244.809142224633
 31
0.0
  0
LINE
  5
8C3
330
883
100
AcDbEntity
  8
0
  6
Continuous
 62
     7
370
    15
100
AcDbLine
 10
1911.777346305523
 20
1244.809142224633
 30
0.0
 11
1911.777346305523
 21
1245.708340380192
 31
0.0
  0
LINE
  5
8C4
330
883
100
AcDbEntity
  8
0
  6
Continuous
 62
     7
370
    15
100
AcDbLine
 10
1914.897346305522
 20
1244.490142224633
 30
0.0
 11
1914.897346305522
 21
1244.809142224633
 31
0.0
  0
LINE
  5
8C5
330
883
100
AcDbEntity
  8
0
  6
Continuous
 62
     7
370
    15
100
AcDbLine
 10
1916.518074993701
 20
1244.809142224633
 30
0.0
 11
1916.518074993701
 21
1244.490142224633
 31
0.0
  0
SPLINE
  5
8C6
330
883
100
AcDbEntity
  8
0
  6
Continuous
 62
     7
370
    15
100
AcDbSpline
210
0.0
220
0.0
230
1.0
 70
    24
 71
     3
 72
     8
 73
     4
 74
     0
 42
0.0000000001
 43
0.0000000001
 40
0.0
 40
0.0
 40
0.0
 40
0.0
 40
1.0
 40
1.0
 40
1.0
 40
1.0
 10
1914.897346305522
 20
1244.490142224633
 30
0.0
 10
1915.428020373649
 20
1244.490142224633
 30
0.0
 10
1915.971570995162
 20
1244.490142224633
 30
0.0
 10
1916.518074993701
 20
1244.490142224633
 30
0.0
  0
LINE
  5
8C7
330
883
100
AcDbEntity
  8
0
  6
Continuous
 62
     7
370
    15
100
AcDbLine
 10
1917.130239173107
 20
1244.490142224633
 30
0.0
 11
1917.130239173107
 21
1244.809142224633
 31
0.0
  0
LINE
  5
8C8
330
883
100
AcDbEntity
  8
0
  6
Continuous
 62
     7
370
    15
100
AcDbLine
 10
1918.750967861265
 20
1244.490142224633
 30
0.0
 11
1918.750967861265
 21
1244.809142224633
 31
0.0
  0
SPLINE
  5
8C9
330
883
100
AcDbEntity
  8
0
  6
Continuous
 62
     7
370
    15
100
AcDbSpline
210
0.0
220
0.0
230
1.0
 70
    24
 71
     3
 72
     8
 73
     4
 74
     0
 42
0.0000000001
 43
0.0000000001
 40
0.0
 40
0.0
 40
0.0
 40
0.0
 40
1.0
 40
1.0
 40
1.0
 40
1.0
 10
1917.130239173107
 20
1244.490142224633
 30
0.0
 10
1917.676719007128
 20
1244.490142224633
 30
0.0
 10
1918.220158285333
 20
1244.490142224633
 30
0.0
 10
1918.750967861265
 20
1244.490142224633
 30
0.0
  0
LINE
  5
8CA
330
883
100
AcDbEntity
  8
0
  6
Continuous
 62
     7
370
    15
100
AcDbLine
 10
1917.130239173107
 20
1244.490142224633
 30
0.0
 11
1916.518074993701
 21
1244.490142224633
 31
0.0
  0
LINE
  5
8CB
330
883
100
AcDbEntity
  8
0
  6
Continuous
 62
     7
370
    15
100
AcDbLine
 10
1922.327346305523
 20
1231.783787843429
 30
0.0
 11
1911.327346305523
 21
1231.783787843429
 31
0.0
  0
LINE
  5
8CC
330
883
100
AcDbEntity
  8
0
  6
Continuous
 62
     7
370
    15
100
AcDbLine
 10
1922.327346305523
 20
1232.060951703181
 30
0.0
 11
1911.327346305523
 21
1232.060951703181
 31
0.0
  0
LINE
  5
8CD
330
883
100
AcDbEntity
  8
0
  6
Continuous
 62
     7
370
    15
100
AcDbLine
 10
1911.327346305523
 20
1232.907161408473
 30
0.0
 11
1911.577346305523
 21
1232.907161408473
 31
0.0
  0
LINE
  5
8CE
330
883
100
AcDbEntity
  8
0
  6
Continuous
 62
     7
370
    15
100
AcDbLine
 10
1911.577346305523
 20
1232.907161408473
 30
0.0
 11
1911.577346305523
 21
1233.335391956003
 31
0.0
  0
LINE
  5
8CF
330
883
100
AcDbEntity
  8
0
  6
Continuous
 62
     7
370
    15
100
AcDbLine
 10
1911.577346305523
 20
1233.335391956003
 30
0.0
 11
1922.077346305523
 21
1233.335391956003
 31
0.0
  0
LINE
  5
8D0
330
883
100
AcDbEntity
  8
0
  6
Continuous
 62
     7
370
    15
100
AcDbLine
 10
1922.077346305523
 20
1233.335391956003
 30
0.0
 11
1922.077346305523
 21
1232.907161408473
 31
0.0
  0
LINE
  5
8D1
330
883
100
AcDbEntity
  8
0
  6
Continuous
 62
     7
370
    15
100
AcDbLine
 10
1922.077346305523
 20
1232.907161408473
 30
0.0
 11
1922.327346305523
 21
1232.907161408473
 31
0.0
  0
LINE
  5
8D2
330
883
100
AcDbEntity
  8
0
  6
Continuous
 62
     7
370
    15
100
AcDbLine
 10
1917.000550951923
 20
1272.25611277508
 30
0.0
 11
1917.000551386281
 21
1267.749674964147
 31
0.0
  0
LINE
  5
8D3
330
883
100
AcDbEntity
  8
0
  6
Continuous
 62
     7
370
    15
100
AcDbLine
 10
1916.654141224769
 20
1267.749674964147
 30
0.0
 11
1916.654141224769
 21
1272.256112785022
 31
0.0
  0
SPLINE
  5
8D4
330
883
100
AcDbEntity
  8
0
  6
Continuous
 62
     7
370
    15
100
AcDbSpline
210
0.0
220
0.0
230
1.0
 70
     8
 71
     3
 72
     9
 73
     5
 74
     0
 42
0.0000000001
 43
0.0000000001
 40
0.0
 40
0.0
 40
0.0
 40
0.0
 40
0.4999936838962756
 40
1.0
 40
1.0
 40
1.0
 40
1.0
 10
1917.000550623433
 20
1272.256112798549
 30
0.0
 10
1916.94281645303
 20
1272.256875838084
 30
0.0
 10
1916.827346653586
 20
1272.258401936434
 30
0.0
 10
1916.711876853921
 20
1272.256875841921
 30
0.0
 10
1916.654141224769
 20
1272.256112785026
 30
0.0
  0
SPLINE
  5
8D5
330
883
100
AcDbEntity
  8
0
  6
Continuous
 62
     7
370
    15
100
AcDbSpline
210
0.0
220
0.0
230
1.0
 70
     8
 71
     3
 72
     9
 73
     5
 74
     0
 42
0.0000000001
 43
0.0000000001
 40
0.0
 40
0.0
 40
0.0
 40
0.0
 40
0.5002180795336392
 40
1.0
 40
1.0
 40
1.0
 40
1.0
 10
1921.827345924093
 20
1272.256112814568
 30
0.0
 10
1921.794008659742
 20
1272.258403249341
 30
0.0
 10
1921.727363199062
 20
1272.262982121771
 30
0.0
 10
1921.660675574557
 20
1272.264014409828
 30
0.0
 10
1921.62734630551
 20
1272.264530328734
 30
0.0
  0
SPLINE
  5
8D6
330
883
100
AcDbEntity
  8
0
  6
Continuous
 62
     7
370
    15
100
AcDbSpline
210
0.0
220
0.0
230
1.0
 70
     8
 71
     3
 72
    12
 73
     8
 74
     0
 42
0.0000000001
 43
0.0000000001
 40
0.0
 40
0.0
 40
0.0
 40
0.0
 40
0.5000000000000004
 40
0.5000000000000004
 40
0.7500000000000001
 40
0.7500000000000001
 40
1.0
 40
1.0
 40
1.0
 40
1.0
 10
1921.62734630552
 20
1272.264530328728
 30
0.0
 10
1920.869977658757
 20
1272.501382116794
 30
0.0
 10
1920.102947577219
 20
1272.647329120642
 30
0.0
 10
1918.929000359434
 20
1272.646058475719
 30
0.0
 10
1918.535106942815
 20
1272.609122753061
 30
0.0
 10
1917.761921273696
 20
1272.473722767926
 30
0.0
 10
1917.379679322267
 20
1272.375750597718
 30
0.0
 10
1917.000551280413
 20
1272.25611275161
 30
0.0
  0
SPLINE
  5
8D7
330
883
100
AcDbEntity
  8
0
  6
Continuous
 62
     7
370
    15
100
AcDbSpline
210
0.0
220
0.0
230
1.0
 70
     8
 71
     3
 72
    12
 73
     8
 74
     0
 42
0.0000000001
 43
0.0000000001
 40
0.0
 40
0.0
 40
0.0
 40
0.0
 40
0.4999999999999999
 40
0.4999999999999999
 40
0.75
 40
0.75
 40
1.0
 40
1.0
 40
1.0
 40
1.0
 10
1916.654141224768
 20
1272.256112785018
 30
0.0
 10
1915.89728627638
 20
1272.494946325796
 30
0.0
 10
1915.130663162916
 20
1272.643951143086
 30
0.0
 10
1913.956831872706
 20
1272.647703393971
 30
0.0
 10
1913.562769834103
 20
1272.612441732193
 30
0.0
 10
1912.789201076108
 20
1272.47992079161
 30
0.0
 10
1912.406726117754
 20
1272.383173722889
 30
0.0
 10
1912.027346305523
 20
1272.264530328728
 30
0.0
  0
SPLINE
  5
8D8
330
883
100
AcDbEntity
  8
0
  6
Continuous
 62
     7
370
    15
100
AcDbSpline
210
0.0
220
0.0
230
1.0
 70
     8
 71
     3
 72
     8
 73
     4
 74
     0
 42
0.0000000001
 43
0.0000000001
 40
0.0000000000000005
 40
0.0000000000000005
 40
0.0000000000000005
 40
0.0000000000000005
 40
0.0003736204088524
 40
0.0003736204088524
 40
0.0003736204088524
 40
0.0003736204088524
 10
1912.027346305524
 20
1272.264530328728
 30
0.0
 10
1911.960663125731
 20
1272.26409209066
 30
0.0
 10
1911.89397254088
 20
1272.261277135693
 30
0.0
 10
1911.827346305523
 20
1272.256112785018
 30
0.0
  0
SPLINE
  5
8D9
330
883
100
AcDbEntity
  8
0
  6
Continuous
 62
     7
370
    15
100
AcDbSpline
210
0.0
220
0.0
230
1.0
 70
    24
 71
     3
 72
     8
 73
     4
 74
     0
 42
0.0000000001
 43
0.0000000001
 40
0.0
 40
0.0
 40
0.0
 40
0.0
 40
1.0
 40
1.0
 40
1.0
 40
1.0
 10
1911.827346305523
 20
1272.256112785018
 30
0.0
 10
1911.827346305523
 20
1272.438676087514
 30
0.0
 10
1911.827346305523
 20
1272.570719858616
 30
0.0
 10
1911.827346305523
 20
1272.622194978658
 30
0.0
  0
SPLINE
  5
8DA
330
883
100
AcDbEntity
  8
0
  6
Continuous
 62
     7
370
    15
100
AcDbSpline
210
0.0
220
0.0
230
1.0
 70
     8
 71
     3
 72
     8
 73
     4
 74
     0
 42
0.0000000001
 43
0.0000000001
 40
0.0000000000000007
 40
0.0000000000000007
 40
0.0000000000000007
 40
0.0000000000000007
 40
0.0002566455321258
 40
0.0002566455321258
 40
0.0002566455321258
 40
0.0002566455321258
 10
1912.050092309893
 20
1272.749674964141
 30
0.0
 10
1911.975836222385
 20
1272.707194602179
 30
0.0
 10
1911.901587878441
 20
1272.664700702221
 30
0.0
 10
1911.827346305526
 20
1272.62219497866
 30
0.0
  0
LINE
  5
8DB
330
883
100
AcDbEntity
  8
0
  6
Continuous
 62
     7
370
    15
100
AcDbLine
 10
1921.604600301153
 20
1272.749674964141
 30
0.0
 11
1912.050092309893
 21
1272.749674964141
 31
0.0
  0
SPLINE
  5
8DC
330
883
100
AcDbEntity
  8
0
  6
Continuous
 62
     7
370
    15
100
AcDbSpline
210
0.0
220
0.0
230
1.0
 70
     8
 71
     3
 72
     8
 73
     4
 74
     0
 42
0.0000000001
 43
0.0000000001
 40
0.0000000000000015
 40
0.0000000000000015
 40
0.0000000000000015
 40
0.0000000000000015
 40
0.0002566455321249
 40
0.0002566455321249
 40
0.0002566455321249
 40
0.0002566455321249
 10
1921.82734630552
 20
1272.62219497866
 30
0.0
 10
1921.753104732604
 20
1272.664700702221
 30
0.0
 10
1921.67885638866
 20
1272.707194602179
 30
0.0
 10
1921.604600301152
 20
1272.749674964141
 30
0.0
  0
SPLINE
  5
8DD
330
883
100
AcDbEntity
  8
0
  6
Continuous
 62
     7
370
    15
100
AcDbSpline
210
0.0
220
0.0
230
1.0
 70
    24
 71
     3
 72
     8
 73
     4
 74
     0
 42
0.0000000001
 43
0.0000000001
 40
0.0
 40
0.0
 40
0.0
 40
0.0
 40
1.0
 40
1.0
 40
1.0
 40
1.0
 10
1921.827346305523
 20
1272.622194978659
 30
0.0
 10
1921.827346305523
 20
1272.570719855752
 30
0.0
 10
1921.827346305523
 20
1272.438676072859
 30
0.0
 10
1921.827346305523
 20
1272.256112754827
 30
0.0
  0
LINE
  5
8DE
330
883
100
AcDbEntity
  8
0
  6
Continuous
 62
     7
370
    15
100
AcDbLine
 10
1912.027346305523
 20
1272.264530328728
 30
0.0
 11
1912.027346305524
 21
1267.749674964147
 31
0.0
  0
LINE
  5
8DF
330
883
100
AcDbEntity
  8
0
  6
Continuous
 62
     7
370
    15
100
AcDbLine
 10
1921.62734630552
 20
1267.749674964147
 30
0.0
 11
1921.627346305515
 21
1272.264530328731
 31
0.0
  0
LINE
  5
8E0
330
883
100
AcDbEntity
  8
0
  6
Continuous
 62
     7
370
    15
100
AcDbLine
 10
1921.415276259272
 20
1243.383787843429
 30
0.0
 11
1920.054625591376
 21
1243.383787843429
 31
0.0
  0
LINE
  5
8E1
330
883
100
AcDbEntity
  8
0
  6
Continuous
 62
     7
370
    15
100
AcDbLine
 10
1921.415276259272
 20
1243.383787843429
 30
0.0
 11
1921.415276259272
 21
1243.083787843428
 31
0.0
  0
LINE
  5
8E2
330
883
100
AcDbEntity
  8
0
  6
Continuous
 62
     7
370
    15
100
AcDbLine
 10
1920.054625591376
 20
1243.083787843428
 30
0.0
 11
1921.415276259272
 21
1243.083787843428
 31
0.0
  0
LINE
  5
8E3
330
883
100
AcDbEntity
  8
0
  6
Continuous
 62
     7
370
    15
100
AcDbLine
 10
1920.054625591376
 20
1243.083787843428
 30
0.0
 11
1920.054625591376
 21
1243.383787843429
 31
0.0
  0
LINE
  5
8E4
330
883
100
AcDbEntity
  8
0
  6
Continuous
 62
     7
370
    15
100
AcDbLine
 10
1912.239416351769
 20
1243.083787843428
 30
0.0
 11
1912.239416351769
 21
1243.383787843429
 31
0.0
  0
LINE
  5
8E5
330
883
100
AcDbEntity
  8
0
  6
Continuous
 62
     7
370
    15
100
AcDbLine
 10
1913.60006701967
 20
1243.383787843429
 30
0.0
 11
1913.60006701967
 21
1243.083787843428
 31
0.0
  0
LINE
  5
8E6
330
883
100
AcDbEntity
  8
0
  6
Continuous
 62
     7
370
    15
100
AcDbLine
 10
1913.60006701967
 20
1243.383787843429
 30
0.0
 11
1912.239416351769
 21
1243.383787843429
 31
0.0
  0
LINE
  5
8E7
330
883
100
AcDbEntity
  8
0
  6
Continuous
 62
     7
370
    15
100
AcDbLine
 10
1912.239416351769
 20
1243.083787843428
 30
0.0
 11
1913.60006701967
 21
1243.083787843428
 31
0.0
  0
LINE
  5
8E8
330
883
100
AcDbEntity
  8
0
  6
Continuous
 62
     7
370
    15
100
AcDbLine
 10
1921.914274420129
 20
1243.383787843429
 30
0.0
 11
1921.415276259272
 21
1243.383787843429
 31
0.0
  0
LINE
  5
8E9
330
883
100
AcDbEntity
  8
0
  6
Continuous
 62
     7
370
    15
100
AcDbLine
 10
1921.415276259272
 20
1243.083787843428
 30
0.0
 11
1921.914274420129
 21
1243.083787843428
 31
0.0
  0
LINE
  5
8EA
330
883
100
AcDbEntity
  8
0
  6
Continuous
 62
     7
370
    15
100
AcDbLine
 10
1912.239416351769
 20
1243.383787843429
 30
0.0
 11
1911.740826223082
 21
1243.383787843429
 31
0.0
  0
LINE
  5
8EB
330
883
100
AcDbEntity
  8
0
  6
Continuous
 62
     7
370
    15
100
AcDbLine
 10
1911.740826223082
 20
1243.083787843428
 30
0.0
 11
1912.239416351769
 21
1243.083787843428
 31
0.0
  0
LINE
  5
8EC
330
883
100
AcDbEntity
  8
0
  6
Continuous
 62
     7
370
    15
100
AcDbLine
 10
1911.577346305523
 20
1233.335391956003
 30
0.0
 11
1911.577346305523
 21
1233.373452189747
 31
0.0
  0
LINE
  5
8ED
330
883
100
AcDbEntity
  8
0
  6
Continuous
 62
     7
370
    15
100
AcDbLine
 10
1922.077346305523
 20
1233.373452189747
 30
0.0
 11
1922.077346305523
 21
1233.335391956003
 31
0.0
  0
LINE
  5
8EE
330
883
100
AcDbEntity
  8
0
  6
Continuous
 62
     7
370
    15
100
AcDbLine
 10
1921.827346114808
 20
1272.256112784697
 30
0.0
 11
1921.827346305523
 21
1267.749674964147
 31
0.0
  0
LINE
  5
8EF
330
883
100
AcDbEntity
  8
0
  6
Continuous
 62
     7
370
    15
100
AcDbLine
 10
1911.827346305523
 20
1267.749674964147
 30
0.0
 11
1911.827346305523
 21
1272.256112785018
 31
0.0
  0
LINE
  5
8F0
330
883
100
AcDbEntity
  8
0
  6
Continuous
 62
     7
370
    15
100
AcDbLine
 10
1912.46588314612
 20
1242.949813247214
 30
0.0
 11
1921.188809464934
 21
1242.949813247214
 31
0.0
  0
SPLINE
  5
8F1
330
883
100
AcDbEntity
  8
0
  6
Continuous
 62
     7
370
    15
100
AcDbSpline
210
0.0
220
0.0
230
1.0
 70
     8
 71
     3
 72
     8
 73
     4
 74
     0
 42
0.0000000001
 43
0.0000000001
 40
0.0
 40
0.0
 40
0.0
 40
0.0
 40
1.0
 40
1.0
 40
1.0
 40
1.0
 10
1921.266557257049
 20
1243.083787843428
 30
0.0
 10
1921.236880518909
 20
1243.083787843428
 30
0.0
 10
1921.210455304236
 20
1243.038020575555
 30
0.0
 10
1921.188809464934
 20
1242.949813247214
 30
0.0
  0
SPLINE
  5
8F2
330
883
100
AcDbEntity
  8
0
  6
Continuous
 62
     7
370
    15
100
AcDbSpline
210
0.0
220
0.0
230
1.0
 70
     8
 71
     3
 72
     8
 73
     4
 74
     0
 42
0.0000000001
 43
0.0000000001
 40
0.0
 40
0.0
 40
0.0
 40
0.0
 40
1.0
 40
1.0
 40
1.0
 40
1.0
 10
1912.46588314612
 20
1242.949813247214
 30
0.0
 10
1912.444235411726
 20
1243.038028298101
 30
0.0
 10
1912.417814557371
 20
1243.083787843429
 30
0.0
 10
1912.388135354003
 20
1243.083787843429
 30
0.0
  0
LWPOLYLINE
  5
8F3
330
883
100
AcDbEntity
  8
0
  6
Continuous
 62
     7
370
    15
100
AcDbPolyline
 90
        4
 70
   128
 43
0.0
 10
1921.009491085283
 20
1242.298907192656
 10
1921.008704250249
 20
1242.2165940518
 10
1921.007872954818
 20
1242.128775208255
 10
1921.007005979106
 20
1242.040956392717
  0
ELLIPSE
  5
8F4
330
883
100
AcDbEntity
  8
0
  6
Continuous
 62
     7
370
    15
100
AcDbEllipse
 10
1936.281677165993
 20
1242.142348602967
 30
0.0
 11
15.27838025620818
 21
0.0
 31
0.0
210
0.0
220
0.0
230
1.0
 40
0.3011929621103529
 41
3.163627884297671
 42
3.525833483977045
  0
LINE
  5
8F5
330
883
100
AcDbEntity
  8
0
  6
Continuous
 62
     7
370
    15
100
AcDbLine
 10
1922.117346305524
 20
1240.417361143135
 30
0.0
 11
1922.117346305524
 21
1239.343262883578
 31
0.0
  0
LINE
  5
8F6
330
883
100
AcDbEntity
  8
0
  6
Continuous
 62
     7
370
    15
100
AcDbLine
 10
1911.537346305524
 20
1239.343262883578
 30
0.0
 11
1922.117346305524
 21
1239.343262883578
 31
0.0
  0
LINE
  5
8F7
330
883
100
AcDbEntity
  8
0
  6
Continuous
 62
     7
370
    15
100
AcDbLine
 10
1911.537346305524
 20
1240.417361143136
 30
0.0
 11
1911.537346305524
 21
1239.343262883578
 31
0.0
  0
ELLIPSE
  5
8F8
330
883
100
AcDbEntity
  8
0
  6
Continuous
 62
     7
370
    15
100
AcDbEllipse
 10
1897.39752822813
 20
1242.140831084253
 30
0.0
 11
15.25376687713935
 21
0.0
 31
0.0
210
0.0
220
0.0
230
1.0
 40
0.3011929621103522
 41
5.898648302724071
 42
6.261434858498895
  0
SPLINE
  5
8F9
330
883
100
AcDbEntity
  8
0
  6
Continuous
 62
     7
370
    15
100
AcDbSpline
210
0.0
220
0.0
230
1.0
 70
     8
 71
     3
 72
    14
 73
    10
 74
     0
 42
0.0000000001
 43
0.0000000001
 40
0.0
 40
0.0
 40
0.0
 40
0.0
 40
0.0002854418097196
 40
0.0002854418097196
 40
0.0002854418097196
 40
0.000590019406643
 40
0.000590019406643
 40
0.000590019406643
 40
0.0008945970035519
 40
0.0008945970035519
 40
0.0008945970035519
 40
0.0008945970035519
 10
1912.647687106106
 20
1242.040910284525
 30
0.0
 10
1912.647404912194
 20
1242.068350224687
 30
0.0
 10
1912.647136317044
 20
1242.095790176483
 30
0.0
 10
1912.646872829251
 20
1242.123230132115
 30
0.0
 10
1912.646591677449
 20
1242.152509640179
 30
0.0
 10
1912.646316663191
 20
1242.181789153121
 30
0.0
 10
1912.646040491889
 20
1242.211068665128
 30
0.0
 10
1912.645764320588
 20
1242.240348177118
 30
0.0
 10
1912.645487263008
 20
1242.269627688491
 30
0.0
 10
1912.645201525762
 20
1242.298907192847
 30
0.0
  0
ELLIPSE
  5
8FA
330
883
100
AcDbEntity
  8
0
  6
Continuous
 62
     7
370
    15
100
AcDbEllipse
 10
1939.722101952423
 20
1242.158940639636
 30
0.0
 11
18.7183802262069
 21
0.0
 31
0.0
210
0.0
220
0.0
230
1.0
 40
0.3011929621103518
 41
3.000849201144499
 42
3.116763849295622
  0
ELLIPSE
  5
8FB
330
883
100
AcDbEntity
  8
0
  6
Continuous
 62
     7
370
    15
100
AcDbEllipse
 10
1893.932590658639
 20
1242.15894063962
 30
0.0
 11
18.71838022620577
 21
0.0
 31
0.0
210
0.0
220
0.0
230
1.0
 40
0.3011929621103535
 41
0.0248288043308829
 42
0.1407434524481779
  0
LINE
  5
8FC
330
883
100
AcDbEntity
  8
0
  6
Continuous
 62
     7
370
    15
100
AcDbLine
 10
1922.117346305524
 20
1240.726990948898
 30
0.0
 11
1922.117346305524
 21
1240.417361143135
 31
0.0
  0
ELLIPSE
  5
8FD
330
883
100
AcDbEntity
  8
0
  6
Continuous
 62
     7
370
    15
100
AcDbEllipse
 10
1936.281677165993
 20
1242.448758202988
 30
0.0
 11
15.27838025620818
 21
0.0
 31
0.0
210
0.0
220
0.0
230
1.0
 40
0.3006306952367849
 41
3.172004327386141
 42
3.52583348397705
  0
LINE
  5
8FE
330
883
100
AcDbEntity
  8
0
  6
Continuous
 62
     7
370
    15
100
AcDbLine
 10
1911.537346305524
 20
1240.417361143136
 30
0.0
 11
1911.537346305524
 21
1240.726990948899
 31
0.0
  0
ELLIPSE
  5
8FF
330
883
100
AcDbEntity
  8
0
  6
Continuous
 62
     7
370
    15
100
AcDbEllipse
 10
1897.39752822813
 20
1242.447243517178
 30
0.0
 11
15.25376687713935
 21
0.0
 31
0.0
210
0.0
220
0.0
230
1.0
 40
0.3006306952367828
 41
5.898648302724069
 42
6.25300796805525
  0
LINE
  5
900
330
883
100
AcDbEntity
  8
0
  6
Continuous
 62
     7
370
    15
100
AcDbLine
 10
1911.537346305524
 20
1239.151760618699
 30
0.0
 11
1922.117346305524
 21
1239.151760618699
 31
0.0
  0
LINE
  5
901
330
883
100
AcDbEntity
  8
0
  6
Continuous
 62
     7
370
    15
100
AcDbLine
 10
1922.117346305524
 20
1239.343262883578
 30
0.0
 11
1922.117346305524
 21
1239.151760618699
 31
0.0
  0
LINE
  5
902
330
883
100
AcDbEntity
  8
0
  6
Continuous
 62
     7
370
    15
100
AcDbLine
 10
1911.537346305524
 20
1239.151760618699
 30
0.0
 11
1911.537346305524
 21
1239.343262883578
 31
0.0
  0
LINE
  5
903
330
883
100
AcDbEntity
  8
0
  6
Continuous
 62
     7
370
    15
100
AcDbLine
 10
1922.327346305523
 20
1233.897341553228
 30
0.0
 11
1922.077346305523
 21
1233.897341553228
 31
0.0
  0
LINE
  5
904
330
883
100
AcDbEntity
  8
0
  6
Continuous
 62
     7
370
    15
100
AcDbLine
 10
1911.577346305523
 20
1233.897341553228
 30
0.0
 11
1911.327346305523
 21
1233.897341553228
 31
0.0
  0
LINE
  5
905
330
883
100
AcDbEntity
  8
0
  6
Continuous
 62
     7
370
    15
100
AcDbLine
 10
1911.327346305523
 20
1235.923787843429
 30
0.0
 11
1911.537346305524
 21
1235.923787843429
 31
0.0
  0
LINE
  5
906
330
883
100
AcDbEntity
  8
0
  6
Continuous
 62
     7
370
    15
100
AcDbLine
 10
1922.117346305524
 20
1235.923787843429
 30
0.0
 11
1922.327346305523
 21
1235.923787843429
 31
0.0
  0
LINE
  5
907
330
883
100
AcDbEntity
  8
0
  6
Continuous
 62
     7
370
    15
100
AcDbLine
 10
1922.117346305524
 20
1239.151760618699
 30
0.0
 11
1922.117346305524
 21
1235.923787843429
 31
0.0
  0
LINE
  5
908
330
883
100
AcDbEntity
  8
0
  6
Continuous
 62
     7
370
    15
100
AcDbLine
 10
1911.537346305524
 20
1235.923787843429
 30
0.0
 11
1911.537346305524
 21
1239.151760618699
 31
0.0
  0
LINE
  5
909
330
883
100
AcDbEntity
  8
0
  6
Continuous
 62
     7
370
    15
100
AcDbLine
 10
1911.577346305523
 20
1233.373452189747
 30
0.0
 11
1911.577346305523
 21
1233.897341553228
 31
0.0
  0
LINE
  5
90A
330
883
100
AcDbEntity
  8
0
  6
Continuous
 62
     7
370
    15
100
AcDbLine
 10
1922.077346305523
 20
1233.897341553228
 30
0.0
 11
1922.077346305523
 21
1233.373452189747
 31
0.0
  0
LINE
  5
90B
330
883
100
AcDbEntity
  8
0
  6
Continuous
 62
     7
370
    15
100
AcDbLine
 10
1911.327346305523
 20
1265.198907968487
 30
0.0
 11
1911.777346305523
 21
1265.198907968487
 31
0.0
  0
LINE
  5
90C
330
883
100
AcDbEntity
  8
0
  6
Continuous
 62
     7
370
    15
100
AcDbLine
 10
1921.877346305523
 20
1265.198907968487
 30
0.0
 11
1922.327346305523
 21
1265.198907968487
 31
0.0
  0
LINE
  5
90D
330
883
100
AcDbEntity
  8
0
  6
Continuous
 62
     7
370
    15
100
AcDbLine
 10
1919.967346305523
 20
1243.383787843429
 30
0.0
 11
1919.967346305523
 21
1243.083787843428
 31
0.0
  0
LINE
  5
90E
330
883
100
AcDbEntity
  8
0
  6
Continuous
 62
     7
370
    15
100
AcDbLine
 10
1913.687346305523
 20
1243.083787843428
 30
0.0
 11
1919.967346305523
 21
1243.083787843428
 31
0.0
  0
LINE
  5
90F
330
883
100
AcDbEntity
  8
0
  6
Continuous
 62
     7
370
    15
100
AcDbLine
 10
1913.687346305523
 20
1243.083787843428
 30
0.0
 11
1913.687346305523
 21
1243.383787843429
 31
0.0
  0
LINE
  5
910
330
883
100
AcDbEntity
  8
0
  6
Continuous
 62
     7
370
    15
100
AcDbLine
 10
1919.967346305523
 20
1243.383787843429
 30
0.0
 11
1913.687346305523
 21
1243.383787843429
 31
0.0
  0
LINE
  5
911
330
883
100
AcDbEntity
  8
0
  6
Continuous
 62
     7
370
    15
100
AcDbLine
 10
1919.967346305523
 20
1243.083787843428
 30
0.0
 11
1920.054625591376
 21
1243.083787843428
 31
0.0
  0
LINE
  5
912
330
883
100
AcDbEntity
  8
0
  6
Continuous
 62
     7
370
    15
100
AcDbLine
 10
1920.054625591376
 20
1243.383787843429
 30
0.0
 11
1919.967346305523
 21
1243.383787843429
 31
0.0
  0
LINE
  5
913
330
883
100
AcDbEntity
  8
0
  6
Continuous
 62
     7
370
    15
100
AcDbLine
 10
1913.60006701967
 20
1243.083787843428
 30
0.0
 11
1913.687346305523
 21
1243.083787843428
 31
0.0
  0
LINE
  5
914
330
883
100
AcDbEntity
  8
0
  6
Continuous
 62
     7
370
    15
100
AcDbLine
 10
1913.687346305523
 20
1243.383787843429
 30
0.0
 11
1913.60006701967
 21
1243.383787843429
 31
0.0
  0
ENDBLK
  5
885
330
883
100
AcDbEntity
  8
0
100
AcDbBlockEnd
  0
BLOCK
  5
917
330
916
100
AcDbEntity
  8
0
100
AcDbBlockBegin
  2
2
 70
     0
 10
0.0
 20
0.0
 30
0.0
  3
2
  1

  0
LINE
  5
919
330
916
100
AcDbEntity
  8
0
  6
Continuous
 62
     7
370
    15
100
AcDbLine
 10
1868.173937105805
 20
1272.74967496414
 30
0.0
 11
1867.319062334861
 21
1272.256112785026
 31
0.0
  0
LINE
  5
91A
330
916
100
AcDbEntity
  8
0
  6
Continuous
 62
     7
370
    15
100
AcDbLine
 10
1878.671354225894
 20
1272.256112785026
 30
0.0
 11
1877.81647945495
 21
1272.74967496414
 31
0.0
  0
LINE
  5
91B
330
916
100
AcDbEntity
  8
0
  6
Continuous
 62
     7
370
    15
100
AcDbLine
 10
1870.724208280379
 20
1250.232341553243
 30
0.0
 11
1870.328417606108
 21
1250.628132227514
 31
0.0
  0
SPLINE
  5
91C
330
916
100
AcDbEntity
  8
0
  6
Continuous
 62
     7
370
    15
100
AcDbSpline
210
0.0
220
0.0
230
1.0
 70
     8
 71
     3
 72
    14
 73
    10
 74
     0
 42
0.0000000001
 43
0.0000000001
 40
0.0
 40
0.0
 40
0.0
 40
0.0
 40
0.0714806996664819
 40
0.1429613993329635
 40
0.2858665614231849
 40
0.5000837556961701
 40
0.7498972673873135
 40
0.849957648766982
 40
1.0
 40
1.0
 40
1.0
 40
1.0
 10
1870.075626931835
 20
1250.732841553239
 30
0.0
 10
1870.082312240628
 20
1250.732732833144
 30
0.0
 10
1870.095682858214
 20
1250.732515392953
 30
0.0
 10
1870.122332918704
 20
1250.730190943094
 30
0.0
 10
1870.161928131203
 20
1250.72350401131
 30
0.0
 10
1870.216278504237
 20
1250.706198554879
 30
0.0
 10
1870.263058055988
 20
1250.681073606011
 30
0.0
 10
1870.301058081822
 20
1250.653729740575
 30
0.0
 10
1870.318158608764
 20
1250.637730523733
 30
0.0
 10
1870.328417606108
 20
1250.628132227514
 30
0.0
  0
LINE
  5
91D
330
916
100
AcDbEntity
  8
0
  6
Continuous
 62
     7
370
    15
100
AcDbLine
 10
1870.075626931835
 20
1250.732841553239
 30
0.0
 11
1869.151208280377
 21
1250.732841553239
 31
0.0
  0
SPLINE
  5
91E
330
916
100
AcDbEntity
  8
0
  6
Continuous
 62
     7
370
    15
100
AcDbSpline
210
0.0
220
0.0
230
1.0
 70
     8
 71
     3
 72
    18
 73
    14
 74
     0
 42
0.0000000001
 43
0.0000000001
 40
0.0
 40
0.0
 40
0.0
 40
0.0
 40
0.0357536851217858
 40
0.0715073702435791
 40
0.1429866113742786
 40
0.2501351724186618
 40
0.3750885329460141
 40
0.5000418934733696
 40
0.6249952540007239
 40
0.7499486145280767
 40
0.8749019750554326
 40
0.9249508327989492
 40
0.9999999999999998
 40
0.9999999999999998
 40
0.9999999999999998
 40
0.9999999999999998
 10
1868.793708280378
 20
1250.37534155324
 30
0.0
 10
1868.793816977006
 20
1250.382026872624
 30
0.0
 10
1868.794034370261
 20
1250.395397511392
 30
0.0
 10
1868.796359289385
 20
1250.422047360105
 30
0.0
 10
1868.803041860334
 20
1250.461644540628
 30
0.0
 10
1868.820375491511
 20
1250.515982198536
 30
0.0
 10
1868.852040820657
 20
1250.575239177278
 30
0.0
 10
1868.896787602472
 20
1250.629763450334
 30
0.0
 10
1868.951314406076
 20
1250.674500386469
 30
0.0
 10
1869.013506305664
 20
1250.707786641615
 30
0.0
 10
1869.067556699599
 20
1250.724060162137
 30
0.0
 10
1869.113762048163
 20
1250.731595727637
 30
0.0
 10
1869.137167071443
 20
1250.732374406172
 30
0.0
 10
1869.151208280377
 20
1250.732841553239
 30
0.0
  0
LINE
  5
91F
330
916
100
AcDbEntity
  8
0
  6
Continuous
 62
     7
370
    15
100
AcDbLine
 10
1868.793708280378
 20
1238.960844429797
 30
0.0
 11
1868.963708280378
 21
1238.960844429797
 31
0.0
  0
LINE
  5
920
330
916
100
AcDbEntity
  8
0
  6
Continuous
 62
     7
370
    15
100
AcDbLine
 10
1868.963708280378
 20
1238.960844429797
 30
0.0
 11
1868.963708280378
 21
1238.961296652816
 31
0.0
  0
ARC
  5
921
330
916
100
AcDbEntity
  8
0
  6
Continuous
 62
     7
370
    15
100
AcDbCircle
 10
1868.975071874775
 20
1239.103844429799
 30
0.0
 40
0.1430000000017206
100
AcDbArc
 50
265.4421454574643
 51
314.9999999999908
  0
LINE
  5
922
330
916
100
AcDbEntity
  8
0
  6
Continuous
 62
     7
370
    15
100
AcDbLine
 10
1869.350446874776
 20
1239.276986890378
 30
0.0
 11
1869.076188144486
 21
1239.002728160088
 31
0.0
  0
ARC
  5
923
330
916
100
AcDbEntity
  8
0
  6
Continuous
 62
     7
370
    15
100
AcDbCircle
 10
1869.476842211912
 20
1239.150591553241
 30
0.0
 40
0.1787499999991789
100
AcDbArc
 50
45.00000000000921
 51
134.9999999999908
  0
LINE
  5
924
330
916
100
AcDbEntity
  8
0
  6
Continuous
 62
     7
370
    15
100
AcDbLine
 10
1869.87749627934
 20
1239.002728160087
 30
0.0
 11
1869.603237549049
 21
1239.276986890378
 31
0.0
  0
ARC
  5
925
330
916
100
AcDbEntity
  8
0
  6
Continuous
 62
     7
370
    15
100
AcDbCircle
 10
1869.978612549048
 20
1239.103844429795
 30
0.0
 40
0.142999999998093
100
AcDbArc
 50
224.9999999999908
 51
315.0000000000092
  0
LINE
  5
926
330
916
100
AcDbEntity
  8
0
  6
Continuous
 62
     7
370
    15
100
AcDbLine
 10
1870.353987549046
 20
1239.276986890377
 30
0.0
 11
1870.079728818756
 21
1239.002728160087
 31
0.0
  0
ARC
  5
927
330
916
100
AcDbEntity
  8
0
  6
Continuous
 62
     7
370
    15
100
AcDbCircle
 10
1870.480382886185
 20
1239.150591553237
 30
0.0
 40
0.1787500000028466
100
AcDbArc
 50
45.00000000000921
 51
134.9999999999908
  0
LINE
  5
928
330
916
100
AcDbEntity
  8
0
  6
Continuous
 62
     7
370
    15
100
AcDbLine
 10
1870.881036953615
 20
1239.002728160085
 30
0.0
 11
1870.606778223324
 21
1239.276986890377
 31
0.0
  0
ARC
  5
929
330
916
100
AcDbEntity
  8
0
  6
Continuous
 62
     7
370
    15
100
AcDbCircle
 10
1870.982153223324
 20
1239.103844429793
 30
0.0
 40
0.1429999999980934
100
AcDbArc
 50
224.9999999999908
 51
269.2906612557796
  0
ARC
  5
92A
330
916
100
AcDbEntity
  8
0
  6
Continuous
 62
     7
370
    15
100
AcDbCircle
 10
1870.978612549048
 20
1239.103844429795
 30
0.0
 40
0.142999999998078
100
AcDbArc
 50
270.7093387032456
 51
315.0000000000092
  0
LINE
  5
92B
330
916
100
AcDbEntity
  8
0
  6
Continuous
 62
     7
370
    15
100
AcDbLine
 10
1871.353987549046
 20
1239.276986890376
 30
0.0
 11
1871.079728818757
 21
1239.002728160086
 31
0.0
  0
ARC
  5
92C
330
916
100
AcDbEntity
  8
0
  6
Continuous
 62
     7
370
    15
100
AcDbCircle
 10
1871.480382886185
 20
1239.150591553237
 30
0.0
 40
0.1787500000028366
100
AcDbArc
 50
45.00000000000921
 51
135.0000000000092
  0
LINE
  5
92D
330
916
100
AcDbEntity
  8
0
  6
Continuous
 62
     7
370
    15
100
AcDbLine
 10
1871.881036953616
 20
1239.002728160085
 30
0.0
 11
1871.606778223324
 21
1239.276986890376
 31
0.0
  0
ARC
  5
92E
330
916
100
AcDbEntity
  8
0
  6
Continuous
 62
     7
370
    15
100
AcDbCircle
 10
1871.982153223324
 20
1239.103844429793
 30
0.0
 40
0.1429999999981232
100
AcDbArc
 50
225.0000000000092
 51
269.2906612557926
  0
ARC
  5
92F
330
916
100
AcDbEntity
  8
0
  6
Continuous
 62
     7
370
    15
100
AcDbCircle
 10
1871.978612549048
 20
1239.103844429795
 30
0.0
 40
0.142999999998093
100
AcDbArc
 50
270.7093387032586
 51
315.0000000000092
  0
LINE
  5
930
330
916
100
AcDbEntity
  8
0
  6
Continuous
 62
     7
370
    15
100
AcDbLine
 10
1872.353987549047
 20
1239.276986890376
 30
0.0
 11
1872.079728818756
 21
1239.002728160086
 31
0.0
  0
ARC
  5
931
330
916
100
AcDbEntity
  8
0
  6
Continuous
 62
     7
370
    15
100
AcDbCircle
 10
1872.480382886185
 20
1239.150591553237
 30
0.0
 40
0.1787500000028366
100
AcDbArc
 50
45.00000000000921
 51
135.0000000000092
  0
LINE
  5
932
330
916
100
AcDbEntity
  8
0
  6
Continuous
 62
     7
370
    15
100
AcDbLine
 10
1872.881036953615
 20
1239.002728160085
 30
0.0
 11
1872.606778223324
 21
1239.276986890376
 31
0.0
  0
ARC
  5
933
330
916
100
AcDbEntity
  8
0
  6
Continuous
 62
     7
370
    15
100
AcDbCircle
 10
1872.982153223324
 20
1239.103844429793
 30
0.0
 40
0.1429999999981232
100
AcDbArc
 50
225.0000000000092
 51
269.2906612557926
  0
ARC
  5
934
330
916
100
AcDbEntity
  8
0
  6
Continuous
 62
     7
370
    15
100
AcDbCircle
 10
1872.978612549048
 20
1239.103844429794
 30
0.0
 40
0.1429999999981131
100
AcDbArc
 50
270.7093387032586
 51
315.0000000000092
  0
LINE
  5
935
330
916
100
AcDbEntity
  8
0
  6
Continuous
 62
     7
370
    15
100
AcDbLine
 10
1873.353987549046
 20
1239.276986890376
 30
0.0
 11
1873.079728818757
 21
1239.002728160086
 31
0.0
  0
ARC
  5
936
330
916
100
AcDbEntity
  8
0
  6
Continuous
 62
     7
370
    15
100
AcDbCircle
 10
1873.480382886185
 20
1239.150591553237
 30
0.0
 40
0.1787500000028567
100
AcDbArc
 50
45.00000000000921
 51
135.0
  0
LINE
  5
937
330
916
100
AcDbEntity
  8
0
  6
Continuous
 62
     7
370
    15
100
AcDbLine
 10
1873.881036953616
 20
1239.002728160085
 30
0.0
 11
1873.606778223324
 21
1239.276986890376
 31
0.0
  0
ARC
  5
938
330
916
100
AcDbEntity
  8
0
  6
Continuous
 62
     7
370
    15
100
AcDbCircle
 10
1873.982153223324
 20
1239.103844429793
 30
0.0
 40
0.1429999999981031
100
AcDbArc
 50
224.9999999999908
 51
269.2906612557796
  0
ARC
  5
939
330
916
100
AcDbEntity
  8
0
  6
Continuous
 62
     7
370
    15
100
AcDbCircle
 10
1873.978612549048
 20
1239.103844429794
 30
0.0
 40
0.142999999998093
100
AcDbArc
 50
270.7093387032586
 51
315.0000000000092
  0
LINE
  5
93A
330
916
100
AcDbEntity
  8
0
  6
Continuous
 62
     7
370
    15
100
AcDbLine
 10
1874.353987549046
 20
1239.276986890375
 30
0.0
 11
1874.079728818756
 21
1239.002728160086
 31
0.0
  0
ARC
  5
93B
330
916
100
AcDbEntity
  8
0
  6
Continuous
 62
     7
370
    15
100
AcDbCircle
 10
1874.480382886185
 20
1239.150591553237
 30
0.0
 40
0.1787500000028567
100
AcDbArc
 50
45.00000000000921
 51
135.0
  0
LINE
  5
93C
330
916
100
AcDbEntity
  8
0
  6
Continuous
 62
     7
370
    15
100
AcDbLine
 10
1874.881036953615
 20
1239.002728160084
 30
0.0
 11
1874.606778223324
 21
1239.276986890375
 31
0.0
  0
ARC
  5
93D
330
916
100
AcDbEntity
  8
0
  6
Continuous
 62
     7
370
    15
100
AcDbCircle
 10
1874.982153223324
 20
1239.103844429793
 30
0.0
 40
0.1429999999981224
100
AcDbArc
 50
225.0000000000092
 51
269.2906612557666
  0
ARC
  5
93E
330
916
100
AcDbEntity
  8
0
  6
Continuous
 62
     7
370
    15
100
AcDbCircle
 10
1874.978612549048
 20
1239.103844429794
 30
0.0
 40
0.1429999999981061
100
AcDbArc
 50
270.7093387032326
 51
315.0000000000092
  0
LINE
  5
93F
330
916
100
AcDbEntity
  8
0
  6
Continuous
 62
     7
370
    15
100
AcDbLine
 10
1875.353987549046
 20
1239.276986890375
 30
0.0
 11
1875.079728818757
 21
1239.002728160086
 31
0.0
  0
ARC
  5
940
330
916
100
AcDbEntity
  8
0
  6
Continuous
 62
     7
370
    15
100
AcDbCircle
 10
1875.480382886185
 20
1239.150591553236
 30
0.0
 40
0.1787500000028767
100
AcDbArc
 50
45.00000000000921
 51
134.9999999999908
  0
LINE
  5
941
330
916
100
AcDbEntity
  8
0
  6
Continuous
 62
     7
370
    15
100
AcDbLine
 10
1875.881036953616
 20
1239.002728160084
 30
0.0
 11
1875.606778223324
 21
1239.276986890375
 31
0.0
  0
ARC
  5
942
330
916
100
AcDbEntity
  8
0
  6
Continuous
 62
     7
370
    15
100
AcDbCircle
 10
1875.982153223324
 20
1239.103844429793
 30
0.0
 40
0.1429999999980934
100
AcDbArc
 50
224.9999999999908
 51
269.2906612557796
  0
ARC
  5
943
330
916
100
AcDbEntity
  8
0
  6
Continuous
 62
     7
370
    15
100
AcDbCircle
 10
1875.978612549048
 20
1239.103844429793
 30
0.0
 40
0.142999999998083
100
AcDbArc
 50
270.7093387032586
 51
315.0000000000276
  0
LINE
  5
944
330
916
100
AcDbEntity
  8
0
  6
Continuous
 62
     7
370
    15
100
AcDbLine
 10
1876.353987549046
 20
1239.276986890375
 30
0.0
 11
1876.079728818757
 21
1239.002728160085
 31
0.0
  0
ARC
  5
945
330
916
100
AcDbEntity
  8
0
  6
Continuous
 62
     7
370
    15
100
AcDbCircle
 10
1876.480382886185
 20
1239.150591553236
 30
0.0
 40
0.1787500000028466
100
AcDbArc
 50
45.00000000000921
 51
135.0000000000092
  0
LINE
  5
946
330
916
100
AcDbEntity
  8
0
  6
Continuous
 62
     7
370
    15
100
AcDbLine
 10
1876.881036953616
 20
1239.002728160085
 30
0.0
 11
1876.606778223324
 21
1239.276986890375
 31
0.0
  0
ARC
  5
947
330
916
100
AcDbEntity
  8
0
  6
Continuous
 62
     7
370
    15
100
AcDbCircle
 10
1876.982153223324
 20
1239.103844429793
 30
0.0
 40
0.1429999999985452
100
AcDbArc
 50
225.0000000001658
 51
314.9999999999908
  0
LINE
  5
948
330
916
100
AcDbEntity
  8
0
  6
Continuous
 62
     7
370
    15
100
AcDbLine
 10
1877.357528223314
 20
1239.276986890367
 30
0.0
 11
1877.083269493033
 21
1239.002728160085
 31
0.0
  0
ARC
  5
949
330
916
100
AcDbEntity
  8
0
  6
Continuous
 62
     7
370
    15
100
AcDbCircle
 10
1877.483923560451
 20
1239.15059155323
 30
0.0
 40
0.1787500000000028
100
AcDbArc
 50
45.00000000000921
 51
135.0
  0
LINE
  5
94A
330
916
100
AcDbEntity
  8
0
  6
Continuous
 62
     7
370
    15
100
AcDbLine
 10
1877.884577627883
 20
1239.002728160072
 30
0.0
 11
1877.610318897588
 21
1239.276986890367
 31
0.0
  0
ARC
  5
94B
330
916
100
AcDbEntity
  8
0
  6
Continuous
 62
     7
370
    15
100
AcDbCircle
 10
1877.985693897593
 20
1239.103844429782
 30
0.0
 40
0.1430000000000525
100
AcDbArc
 50
224.9999999999908
 51
314.9999999999908
  0
LINE
  5
94C
330
916
100
AcDbEntity
  8
0
  6
Continuous
 62
     7
370
    15
100
AcDbLine
 10
1878.361068897593
 20
1239.276986890362
 30
0.0
 11
1878.086810167303
 21
1239.002728160072
 31
0.0
  0
ARC
  5
94D
330
916
100
AcDbEntity
  8
0
  6
Continuous
 62
     7
370
    15
100
AcDbCircle
 10
1878.48746423473
 20
1239.150591553225
 30
0.0
 40
0.178750000000033
100
AcDbArc
 50
44.99999999999078
 51
134.9999999999908
  0
LINE
  5
94E
330
916
100
AcDbEntity
  8
0
  6
Continuous
 62
     7
370
    15
100
AcDbLine
 10
1878.888118302158
 20
1239.002728160071
 30
0.0
 11
1878.613859571867
 21
1239.276986890361
 31
0.0
  0
ARC
  5
94F
330
916
100
AcDbEntity
  8
0
  6
Continuous
 62
     7
370
    15
100
AcDbCircle
 10
1878.989234571868
 20
1239.10384442978
 30
0.0
 40
0.1429999999999721
100
AcDbArc
 50
225.0000000000092
 51
314.9999999999908
  0
LINE
  5
950
330
916
100
AcDbEntity
  8
0
  6
Continuous
 62
     7
370
    15
100
AcDbLine
 10
1879.364609571864
 20
1239.276986890358
 30
0.0
 11
1879.090350841577
 21
1239.002728160071
 31
0.0
  0
ARC
  5
951
330
916
100
AcDbEntity
  8
0
  6
Continuous
 62
     7
370
    15
100
AcDbCircle
 10
1879.491004909002
 20
1239.150591553221
 30
0.0
 40
0.1787500000000028
100
AcDbArc
 50
45.0
 51
134.9999999999908
  0
LINE
  5
952
330
916
100
AcDbEntity
  8
0
  6
Continuous
 62
     7
370
    15
100
AcDbLine
 10
1879.891658976426
 20
1239.00272816007
 30
0.0
 11
1879.617400246139
 21
1239.276986890358
 31
0.0
  0
ARC
  5
953
330
916
100
AcDbEntity
  8
0
  6
Continuous
 62
     7
370
    15
100
AcDbCircle
 10
1879.992775246136
 20
1239.10384442978
 30
0.0
 40
0.1430000000000827
100
AcDbArc
 50
225.0000000000092
 51
314.9999999999908
  0
LINE
  5
954
330
916
100
AcDbEntity
  8
0
  6
Continuous
 62
     7
370
    15
100
AcDbLine
 10
1880.368150246139
 20
1239.276986890364
 30
0.0
 11
1880.093891515845
 21
1239.00272816007
 31
0.0
  0
ARC
  5
955
330
916
100
AcDbEntity
  8
0
  6
Continuous
 62
     7
370
    15
100
AcDbCircle
 10
1880.494545583276
 20
1239.150591553227
 30
0.0
 40
0.178750000000033
100
AcDbArc
 50
45.00000000000921
 51
134.9999999999908
  0
LINE
  5
956
330
916
100
AcDbEntity
  8
0
  6
Continuous
 62
     7
370
    15
100
AcDbLine
 10
1880.895199650701
 20
1239.002728160076
 30
0.0
 11
1880.620940920413
 21
1239.276986890364
 31
0.0
  0
ARC
  5
957
330
916
100
AcDbEntity
  8
0
  6
Continuous
 62
     7
370
    15
100
AcDbCircle
 10
1880.996315920411
 20
1239.103844429785
 30
0.0
 40
0.1430000000000324
100
AcDbArc
 50
225.0000000000092
 51
314.9999999999908
  0
LINE
  5
958
330
916
100
AcDbEntity
  8
0
  6
Continuous
 62
     7
370
    15
100
AcDbLine
 10
1881.371690920412
 20
1239.276986890367
 30
0.0
 11
1881.097432190121
 21
1239.002728160076
 31
0.0
  0
ARC
  5
959
330
916
100
AcDbEntity
  8
0
  6
Continuous
 62
     7
370
    15
100
AcDbCircle
 10
1881.498086257549
 20
1239.15059155323
 30
0.0
 40
0.178750000000043
100
AcDbArc
 50
45.0
 51
135.0
  0
LINE
  5
95A
330
916
100
AcDbEntity
  8
0
  6
Continuous
 62
     7
370
    15
100
AcDbLine
 10
1881.898740324977
 20
1239.002728160076
 30
0.0
 11
1881.624481594686
 21
1239.276986890367
 31
0.0
  0
ARC
  5
95B
330
916
100
AcDbEntity
  8
0
  6
Continuous
 62
     7
370
    15
100
AcDbCircle
 10
1881.999856594687
 20
1239.103844429785
 30
0.0
 40
0.1430000000000224
100
AcDbArc
 50
224.9999999999908
 51
315.0000000000092
  0
LINE
  5
95C
330
916
100
AcDbEntity
  8
0
  6
Continuous
 62
     7
370
    15
100
AcDbLine
 10
1882.375231594687
 20
1239.276986890365
 30
0.0
 11
1882.100972864397
 21
1239.002728160076
 31
0.0
  0
ARC
  5
95D
330
916
100
AcDbEntity
  8
0
  6
Continuous
 62
     7
370
    15
100
AcDbCircle
 10
1882.501626931824
 20
1239.150591553228
 30
0.0
 40
0.1787500000001347
100
AcDbArc
 50
74.99999999997702
 51
134.9999999999908
  0
LINE
  5
95E
330
916
100
AcDbEntity
  8
0
  6
Continuous
 62
     7
370
    15
100
AcDbLine
 10
1882.547890836136
 20
1239.323250794677
 30
0.0
 11
1885.795708280372
 21
1238.45300073333
 31
0.0
  0
LINE
  5
95F
330
916
100
AcDbEntity
  8
0
  6
Continuous
 62
     7
370
    15
100
AcDbLine
 10
1885.795708280372
 20
1238.45300073333
 30
0.0
 11
1885.795708280372
 21
1236.415722817246
 31
0.0
  0
LINE
  5
960
330
916
100
AcDbEntity
  8
0
  6
Continuous
 62
     7
370
    15
100
AcDbLine
 10
1885.439568675801
 20
1235.991292164038
 30
0.0
 11
1885.795708280372
 21
1236.415722817246
 31
0.0
  0
LINE
  5
961
330
916
100
AcDbEntity
  8
0
  6
Continuous
 62
     7
370
    15
100
AcDbLine
 10
1884.365708280371
 20
1235.897341553228
 30
0.0
 11
1885.439568675801
 21
1235.991292164038
 31
0.0
  0
LINE
  5
962
330
916
100
AcDbEntity
  8
0
  6
Continuous
 62
     7
370
    15
100
AcDbLine
 10
1884.365708280371
 20
1235.897341553228
 30
0.0
 11
1884.365708280371
 21
1233.897341553228
 31
0.0
  0
LINE
  5
963
330
916
100
AcDbEntity
  8
0
  6
Continuous
 62
     7
370
    15
100
AcDbLine
 10
1885.403932325694
 20
1233.806508719061
 30
0.0
 11
1884.365708280371
 21
1233.897341553228
 31
0.0
  0
LINE
  5
964
330
916
100
AcDbEntity
  8
0
  6
Continuous
 62
     7
370
    15
100
AcDbLine
 10
1885.795708280371
 20
1233.414732764385
 30
0.0
 11
1885.403932325694
 21
1233.806508719061
 31
0.0
  0
LINE
  5
965
330
916
100
AcDbEntity
  8
0
  6
Continuous
 62
     7
370
    15
100
AcDbLine
 10
1885.795708280371
 20
1232.109841553227
 30
0.0
 11
1885.795708280371
 21
1233.414732764385
 31
0.0
  0
LINE
  5
966
330
916
100
AcDbEntity
  8
0
  6
Continuous
 62
     7
370
    15
100
AcDbLine
 10
1885.438208280371
 20
1231.752341553227
 30
0.0
 11
1885.795708280371
 21
1232.109841553227
 31
0.0
  0
LINE
  5
967
330
916
100
AcDbEntity
  8
0
  6
Continuous
 62
     7
370
    15
100
AcDbLine
 10
1885.438208280371
 20
1231.752341553227
 30
0.0
 11
1869.689633557558
 21
1231.752341553227
 31
0.0
  0
LINE
  5
968
330
916
100
AcDbEntity
  8
0
  6
Continuous
 62
     7
370
    15
100
AcDbLine
 10
1868.878070499942
 20
1232.91151885884
 30
0.0
 11
1869.689633557558
 21
1231.752341553227
 31
0.0
  0
LINE
  5
969
330
916
100
AcDbEntity
  8
0
  6
Continuous
 62
     7
370
    15
100
AcDbLine
 10
1868.878070499942
 20
1232.91151885884
 30
0.0
 11
1866.400669061333
 21
1231.752341553227
 31
0.0
  0
LINE
  5
96A
330
916
100
AcDbEntity
  8
0
  6
Continuous
 62
     7
370
    15
100
AcDbLine
 10
1866.400669061333
 20
1231.752341553227
 30
0.0
 11
1861.065930050247
 21
1231.752341553227
 31
0.0
  0
LINE
  5
96B
330
916
100
AcDbEntity
  8
0
  6
Continuous
 62
     7
370
    15
100
AcDbLine
 10
1861.065930050247
 20
1231.752341553227
 30
0.0
 11
1859.632619448756
 21
1234.234908338038
 31
0.0
  0
LINE
  5
96C
330
916
100
AcDbEntity
  8
0
  6
Continuous
 62
     7
370
    15
100
AcDbLine
 10
1859.632619448756
 20
1234.234908338038
 30
0.0
 11
1859.632619448756
 21
1234.738152624953
 31
0.0
  0
LINE
  5
96D
330
916
100
AcDbEntity
  8
0
  6
Continuous
 62
     7
370
    15
100
AcDbLine
 10
1860.845521031503
 20
1235.438421680253
 30
0.0
 11
1859.632619448756
 21
1234.738152624953
 31
0.0
  0
LINE
  5
96E
330
916
100
AcDbEntity
  8
0
  6
Continuous
 62
     7
370
    15
100
AcDbLine
 10
1860.845521031503
 20
1235.438421680253
 30
0.0
 11
1858.275208280377
 21
1239.890333956545
 31
0.0
  0
LINE
  5
96F
330
916
100
AcDbEntity
  8
0
  6
Continuous
 62
     7
370
    15
100
AcDbLine
 10
1858.275208280377
 20
1239.890333956545
 30
0.0
 11
1858.275208280377
 21
1264.840625518662
 31
0.0
  0
LINE
  5
970
330
916
100
AcDbEntity
  8
0
  6
Continuous
 62
     7
370
    15
100
AcDbLine
 10
1858.684257725862
 20
1265.249674964147
 30
0.0
 11
1858.275208280377
 21
1264.840625518662
 31
0.0
  0
LINE
  5
971
330
916
100
AcDbEntity
  8
0
  6
Continuous
 62
     7
370
    15
100
AcDbLine
 10
1858.684257725862
 20
1265.249674964147
 30
0.0
 11
1861.715208280378
 21
1265.249674964147
 31
0.0
  0
LINE
  5
972
330
916
100
AcDbEntity
  8
0
  6
Continuous
 62
     7
370
    15
100
AcDbLine
 10
1861.715208280378
 20
1265.249674964147
 30
0.0
 11
1861.715208280378
 21
1265.599674964147
 31
0.0
  0
LINE
  5
973
330
916
100
AcDbEntity
  8
0
  6
Continuous
 62
     7
370
    15
100
AcDbLine
 10
1861.715208280378
 20
1265.599674964147
 30
0.0
 11
1884.275208280377
 21
1265.599674964147
 31
0.0
  0
LINE
  5
974
330
916
100
AcDbEntity
  8
0
  6
Continuous
 62
     7
370
    15
100
AcDbLine
 10
1884.275208280377
 20
1265.599674964147
 30
0.0
 11
1884.275208280377
 21
1265.249674964147
 31
0.0
  0
LINE
  5
975
330
916
100
AcDbEntity
  8
0
  6
Continuous
 62
     7
370
    15
100
AcDbLine
 10
1884.275208280377
 20
1265.249674964147
 30
0.0
 11
1886.763157294431
 21
1265.249674964147
 31
0.0
  0
LINE
  5
976
330
916
100
AcDbEntity
  8
0
  6
Continuous
 62
     7
370
    15
100
AcDbLine
 10
1887.276384875971
 20
1264.516710016581
 30
0.0
 11
1886.763157294431
 21
1265.249674964147
 31
0.0
  0
LINE
  5
977
330
916
100
AcDbEntity
  8
0
  6
Continuous
 62
     7
370
    15
100
AcDbLine
 10
1887.276384875971
 20
1264.516710016581
 30
0.0
 11
1885.27907628438
 21
1250.893819616034
 31
0.0
  0
LINE
  5
978
330
916
100
AcDbEntity
  8
0
  6
Continuous
 62
     7
370
    15
100
AcDbLine
 10
1885.25425992164
 20
1250.866737308409
 30
0.0
 11
1885.27907628438
 21
1250.893819616034
 31
0.0
  0
LINE
  5
979
330
916
100
AcDbEntity
  8
0
  6
Continuous
 62
     7
370
    15
100
AcDbLine
 10
1885.25425992164
 20
1250.866737308409
 30
0.0
 11
1870.724208280379
 21
1250.232341553243
 31
0.0
  0
LINE
  5
97A
330
916
100
AcDbEntity
  8
0
  6
Continuous
 62
     7
370
    15
100
AcDbLine
 10
1868.793708280378
 20
1250.37534155324
 30
0.0
 11
1868.793708280378
 21
1238.960844429797
 31
0.0
  0
LINE
  5
97B
330
916
100
AcDbEntity
  8
0
  6
Continuous
 62
     7
370
    15
100
AcDbLine
 10
1861.715208280378
 20
1267.749674964147
 30
0.0
 11
1861.715208280378
 21
1265.599674964147
 31
0.0
  0
LINE
  5
97C
330
916
100
AcDbEntity
  8
0
  6
Continuous
 62
     7
370
    15
100
AcDbLine
 10
1884.275208280377
 20
1267.749674964147
 30
0.0
 11
1861.715208280378
 21
1267.749674964147
 31
0.0
  0
LINE
  5
97D
330
916
100
AcDbEntity
  8
0
  6
Continuous
 62
     7
370
    15
100
AcDbLine
 10
1884.275208280377
 20
1265.599674964147
 30
0.0
 11
1884.275208280377
 21
1267.749674964147
 31
0.0
  0
LINE
  5
97E
330
916
100
AcDbEntity
  8
0
  6
Continuous
 62
     7
370
    15
100
AcDbLine
 10
1885.448930199535
 20
1267.28952285757
 30
0.0
 11
1886.443836721856
 21
1267.18872101313
 31
0.0
  0
LINE
  5
97F
330
916
100
AcDbEntity
  8
0
  6
Continuous
 62
     7
370
    15
100
AcDbLine
 10
1886.247376638614
 20
1265.249674964147
 30
0.0
 11
1886.443836721856
 21
1267.18872101313
 31
0.0
  0
LINE
  5
980
330
916
100
AcDbEntity
  8
0
  6
Continuous
 62
     7
370
    15
100
AcDbLine
 10
1885.247326510653
 20
1265.299709812928
 30
0.0
 11
1885.741166654869
 21
1265.249674964147
 31
0.0
  0
LINE
  5
981
330
916
100
AcDbEntity
  8
0
  6
Continuous
 62
     7
370
    15
100
AcDbLine
 10
1885.448930199535
 20
1267.28952285757
 30
0.0
 11
1885.247326510653
 21
1265.299709812928
 31
0.0
  0
LINE
  5
982
330
916
100
AcDbEntity
  8
0
  6
Continuous
 62
     7
370
    15
100
AcDbLine
 10
1860.745526601503
 20
1265.348056613668
 30
0.0
 11
1860.543922912621
 21
1267.337869658311
 31
0.0
  0
LINE
  5
983
330
916
100
AcDbEntity
  8
0
  6
Continuous
 62
     7
370
    15
100
AcDbLine
 10
1859.774507218588
 20
1265.249674964147
 30
0.0
 11
1860.745526601503
 21
1265.348056613668
 31
0.0
  0
LINE
  5
984
330
916
100
AcDbEntity
  8
0
  6
Continuous
 62
     7
370
    15
100
AcDbLine
 10
1859.5490163903
 20
1267.23706781387
 30
0.0
 11
1859.750374870102
 21
1265.249674964147
 31
0.0
  0
LINE
  5
985
330
916
100
AcDbEntity
  8
0
  6
Continuous
 62
     7
370
    15
100
AcDbLine
 10
1860.543922912621
 20
1267.337869658311
 30
0.0
 11
1859.5490163903
 21
1267.23706781387
 31
0.0
  0
LINE
  5
986
330
916
100
AcDbEntity
  8
0
  6
Continuous
 62
     7
370
    15
100
AcDbLine
 10
1866.946876699877
 20
1231.783787843429
 30
0.0
 11
1868.875002617296
 21
1232.582443748386
 31
0.0
  0
LINE
  5
987
330
916
100
AcDbEntity
  8
0
  6
Continuous
 62
     7
370
    15
100
AcDbLine
 10
1866.869112767012
 20
1231.971526584816
 30
0.0
 11
1866.946876699877
 21
1231.783787843429
 31
0.0
  0
LINE
  5
988
330
916
100
AcDbEntity
  8
0
  6
Continuous
 62
     7
370
    15
100
AcDbLine
 10
1868.875002617296
 20
1232.907161408473
 30
0.0
 11
1868.820576192373
 21
1232.884617245118
 31
0.0
  0
LINE
  5
989
330
916
100
AcDbEntity
  8
0
  6
Continuous
 62
     7
370
    15
100
AcDbLine
 10
1868.875002617296
 20
1232.582443748386
 30
0.0
 11
1868.875002617296
 21
1232.907161408473
 31
0.0
  0
LINE
  5
98A
330
916
100
AcDbEntity
  8
0
  6
Continuous
 62
     7
370
    15
100
AcDbLine
 10
1884.665708280372
 20
1233.897341553228
 30
0.0
 11
1884.665708280372
 21
1235.923588152286
 31
0.0
  0
LINE
  5
98B
330
916
100
AcDbEntity
  8
0
  6
Continuous
 62
     7
370
    15
100
AcDbLine
 10
1884.665708280372
 20
1233.897341553228
 30
0.0
 11
1884.365708280371
 21
1233.897341553228
 31
0.0
  0
ARC
  5
98C
330
916
100
AcDbEntity
  8
0
  6
Continuous
 62
     7
370
    15
100
AcDbCircle
 10
1884.165708280372
 20
1239.151760618699
 30
0.0
 40
0.200000000000017
100
AcDbArc
 50
0.0
 51
73.23806839749796
  0
LINE
  5
98D
330
916
100
AcDbEntity
  8
0
  6
Continuous
 62
     7
370
    15
100
AcDbLine
 10
1880.65724080886
 20
1240.417361143135
 30
0.0
 11
1884.223387414781
 21
1239.343262883578
 31
0.0
  0
LINE
  5
98E
330
916
100
AcDbEntity
  8
0
  6
Continuous
 62
     7
370
    15
100
AcDbLine
 10
1880.65724080886
 20
1240.726990948898
 30
0.0
 11
1880.65724080886
 21
1240.417361143135
 31
0.0
  0
LINE
  5
98F
330
916
100
AcDbEntity
  8
0
  6
Continuous
 62
     7
370
    15
100
AcDbLine
 10
1884.309659259447
 20
1239.628961850803
 30
0.0
 11
1880.65724080886
 21
1240.726990948898
 31
0.0
  0
ARC
  5
990
330
916
100
AcDbEntity
  8
0
  6
Continuous
 62
     7
370
    15
100
AcDbCircle
 10
1884.165708280372
 20
1239.150131906435
 30
0.0
 40
0.5000000000000146
100
AcDbArc
 50
0.0
 51
73.26760906916091
  0
LINE
  5
991
330
916
100
AcDbEntity
  8
0
  6
Continuous
 62
     7
370
    15
100
AcDbLine
 10
1884.365708280371
 20
1239.151760618699
 30
0.0
 11
1884.365708280371
 21
1238.836168078507
 31
0.0
  0
LINE
  5
992
330
916
100
AcDbEntity
  8
0
  6
Continuous
 62
     7
370
    15
100
AcDbLine
 10
1884.665708280372
 20
1238.755783320777
 30
0.0
 11
1884.665708280372
 21
1239.150131906435
 31
0.0
  0
LINE
  5
993
330
916
100
AcDbEntity
  8
0
  6
Continuous
 62
     7
370
    15
100
AcDbLine
 10
1875.266692377029
 20
1242.040956392717
 30
0.0
 11
1875.266692377029
 21
1242.347555271667
 31
0.0
  0
LINE
  5
994
330
916
100
AcDbEntity
  8
0
  6
Continuous
 62
     7
370
    15
100
AcDbLine
 10
1880.65724080886
 20
1240.726990948898
 30
0.0
 11
1875.266692377029
 21
1242.347555271667
 31
0.0
  0
LINE
  5
995
330
916
100
AcDbEntity
  8
0
  6
Continuous
 62
     7
370
    15
100
AcDbLine
 10
1875.266692377029
 20
1242.040956392717
 30
0.0
 11
1880.65724080886
 21
1240.417361143135
 31
0.0
  0
LINE
  5
996
330
916
100
AcDbEntity
  8
0
  6
Continuous
 62
     7
370
    15
100
AcDbLine
 10
1884.665708280372
 20
1233.87109495417
 30
0.0
 11
1884.665708280372
 21
1233.897341553228
 31
0.0
  0
LINE
  5
997
330
916
100
AcDbEntity
  8
0
  6
Continuous
 62
     7
370
    15
100
AcDbLine
 10
1868.875002617296
 20
1232.582443748386
 30
0.0
 11
1869.055979407482
 21
1232.657406789356
 31
0.0
  0
LINE
  5
998
330
916
100
AcDbEntity
  8
0
  6
Continuous
 62
     7
370
    15
100
AcDbLine
 10
1868.879745736885
 20
1232.909126072935
 30
0.0
 11
1868.875002617296
 21
1232.907161408473
 31
0.0
  0
LINE
  5
999
330
916
100
AcDbEntity
  8
0
  6
Continuous
 62
     7
370
    15
100
AcDbLine
 10
1868.793708280378
 20
1243.083787843428
 30
0.0
 11
1869.240511877621
 21
1243.083787843428
 31
0.0
  0
LINE
  5
99A
330
916
100
AcDbEntity
  8
0
  6
Continuous
 62
     7
370
    15
100
AcDbLine
 10
1869.240511877621
 20
1243.383787843429
 30
0.0
 11
1868.793708280378
 21
1243.383787843429
 31
0.0
  0
LINE
  5
99B
330
916
100
AcDbEntity
  8
0
  6
Continuous
 62
     7
370
    15
100
AcDbLine
 10
1869.240511877621
 20
1243.083787843428
 30
0.0
 11
1869.240511877621
 21
1243.383787843429
 31
0.0
  0
ARC
  5
99C
330
916
100
AcDbEntity
  8
0
  6
Continuous
 62
     7
370
    15
100
AcDbCircle
 10
1883.272583036748
 20
1245.809142224633
 30
0.0
 40
1.0
100
AcDbArc
 50
270.0
 51
354.2146538965557
  0
LINE
  5
99D
330
916
100
AcDbEntity
  8
0
  6
Continuous
 62
     7
370
    15
100
AcDbLine
 10
1868.793708280378
 20
1244.809142224633
 30
0.0
 11
1883.272583036748
 21
1244.809142224633
 31
0.0
  0
LINE
  5
99E
330
916
100
AcDbEntity
  8
0
  6
Continuous
 62
     7
370
    15
100
AcDbLine
 10
1860.755494424115
 20
1265.249674964147
 30
0.0
 11
1860.745526601503
 21
1265.348056613668
 31
0.0
  0
LINE
  5
99F
330
916
100
AcDbEntity
  8
0
  6
Continuous
 62
     7
370
    15
100
AcDbLine
 10
1885.247326510653
 20
1265.299709812928
 30
0.0
 11
1885.242257084602
 21
1265.249674964147
 31
0.0
  0
LINE
  5
9A0
330
916
100
AcDbEntity
  8
0
  6
Continuous
 62
     7
370
    15
100
AcDbLine
 10
1884.267489559069
 20
1245.708340380192
 30
0.0
 11
1884.78806525345
 21
1250.846382809617
 31
0.0
  0
SPLINE
  5
9A1
330
916
100
AcDbEntity
  8
0
  6
Continuous
 62
     7
370
    15
100
AcDbSpline
210
0.0
220
0.0
230
1.0
 70
     8
 71
     3
 72
    10
 73
     6
 74
     0
 42
0.0000000001
 43
0.0000000001
 40
0.0
 40
0.0
 40
0.0
 40
0.0
 40
0.5
 40
0.5
 40
1.0
 40
1.0
 40
1.0
 40
1.0
 10
1871.749168832893
 20
1243.383787843429
 30
0.0
 10
1871.862998912421
 20
1243.383787843429
 30
0.0
 10
1871.97454683523
 20
1243.369088317465
 30
0.0
 10
1872.193130749499
 20
1243.310853599246
 30
0.0
 10
1872.299831705799
 20
1243.266973185417
 30
0.0
 10
1872.399168832894
 20
1243.209620868349
 30
0.0
  0
LINE
  5
9A2
330
916
100
AcDbEntity
  8
0
  6
Continuous
 62
     7
370
    15
100
AcDbLine
 10
1874.410262007172
 20
1242.298907192656
 30
0.0
 11
1874.410262007172
 21
1242.605024529179
 31
0.0
  0
SPLINE
  5
9A3
330
916
100
AcDbEntity
  8
0
  6
Continuous
 62
     7
370
    15
100
AcDbSpline
210
0.0
220
0.0
230
1.0
 70
     8
 71
     3
 72
     8
 73
     4
 74
     0
 42
0.0000000001
 43
0.0000000001
 40
0.0
 40
0.0
 40
0.0
 40
0.0
 40
1.0
 40
1.0
 40
1.0
 40
1.0
 10
1871.749168832893
 20
1243.083787843428
 30
0.0
 10
1871.924388070496
 20
1243.083787843428
 30
0.0
 10
1872.096389258604
 20
1243.038020575555
 30
0.0
 10
1872.249168832891
 20
1242.949813247214
 30
0.0
  0
LINE
  5
9A4
330
916
100
AcDbEntity
  8
0
  6
Continuous
 62
     7
370
    15
100
AcDbLine
 10
1869.240511877621
 20
1243.383787843429
 30
0.0
 11
1871.749168832893
 21
1243.383787843429
 31
0.0
  0
LINE
  5
9A5
330
916
100
AcDbEntity
  8
0
  6
Continuous
 62
     7
370
    15
100
AcDbLine
 10
1871.749168832893
 20
1243.083787843428
 30
0.0
 11
1869.240511877621
 21
1243.083787843428
 31
0.0
  0
LINE
  5
9A6
330
916
100
AcDbEntity
  8
0
  6
Continuous
 62
     7
370
    15
100
AcDbLine
 10
1874.410262007172
 20
1242.605024529179
 30
0.0
 11
1872.399168832894
 21
1243.209620868349
 31
0.0
  0
LINE
  5
9A7
330
916
100
AcDbEntity
  8
0
  6
Continuous
 62
     7
370
    15
100
AcDbLine
 10
1872.249168832891
 20
1242.949813247214
 30
0.0
 11
1874.410262007172
 21
1242.298907192656
 31
0.0
  0
LINE
  5
9A8
330
916
100
AcDbEntity
  8
0
  6
Continuous
 62
     7
370
    15
100
AcDbLine
 10
1870.308456578338
 20
1272.256112784697
 30
0.0
 11
1870.30845693443
 21
1267.749674964147
 31
0.0
  0
SPLINE
  5
9A9
330
916
100
AcDbEntity
  8
0
  6
Continuous
 62
     7
370
    15
100
AcDbSpline
210
0.0
220
0.0
230
1.0
 70
     8
 71
     3
 72
     8
 73
     4
 74
     0
 42
0.0000000001
 43
0.0000000001
 40
0.0
 40
0.0
 40
0.0
 40
0.0
 40
1.0
 40
1.0
 40
1.0
 40
1.0
 10
1872.345208280384
 20
1272.622194978659
 30
0.0
 10
1871.653610181176
 20
1272.570719855752
 30
0.0
 10
1870.976493355137
 20
1272.438676072859
 30
0.0
 10
1870.308456823953
 20
1272.256112754827
 30
0.0
  0
LINE
  5
9AA
330
916
100
AcDbEntity
  8
0
  6
Continuous
 62
     7
370
    15
100
AcDbLine
 10
1872.345208280383
 20
1271.249674964149
 30
0.0
 11
1872.345208280383
 21
1272.62219497866
 31
0.0
  0
LINE
  5
9AB
330
916
100
AcDbEntity
  8
0
  6
Continuous
 62
     7
370
    15
100
AcDbLine
 10
1873.645208280384
 20
1271.249674964149
 30
0.0
 11
1872.345208280383
 21
1271.249674964149
 31
0.0
  0
LINE
  5
9AC
330
916
100
AcDbEntity
  8
0
  6
Continuous
 62
     7
370
    15
100
AcDbLine
 10
1873.645208280383
 20
1272.622194978658
 30
0.0
 11
1873.645208280384
 21
1271.249674964149
 31
0.0
  0
SPLINE
  5
9AD
330
916
100
AcDbEntity
  8
0
  6
Continuous
 62
     7
370
    15
100
AcDbSpline
210
0.0
220
0.0
230
1.0
 70
     8
 71
     3
 72
     8
 73
     4
 74
     0
 42
0.0000000001
 43
0.0000000001
 40
0.0
 40
0.0
 40
0.0
 40
0.0
 40
1.0
 40
1.0
 40
1.0
 40
1.0
 10
1875.681959626328
 20
1272.256112785018
 30
0.0
 10
1875.013923130683
 20
1272.438676087513
 30
0.0
 10
1874.336806341109
 20
1272.570719858615
 30
0.0
 10
1873.645208280383
 20
1272.622194978658
 30
0.0
  0
LINE
  5
9AE
330
916
100
AcDbEntity
  8
0
  6
Continuous
 62
     7
370
    15
100
AcDbLine
 10
1875.681959626328
 20
1267.749674964147
 30
0.0
 11
1875.681959626325
 21
1272.256112785022
 31
0.0
  0
LINE
  5
9AF
330
916
100
AcDbEntity
  8
0
  6
Continuous
 62
     7
370
    15
100
AcDbLine
 10
1875.997429297761
 20
1272.264530308792
 30
0.0
 11
1875.997429680164
 21
1267.749674964147
 31
0.0
  0
SPLINE
  5
9B0
330
916
100
AcDbEntity
  8
0
  6
Continuous
 62
     7
370
    15
100
AcDbSpline
210
0.0
220
0.0
230
1.0
 70
     8
 71
     3
 72
     9
 73
     5
 74
     0
 42
0.0000000001
 43
0.0000000001
 40
0.0
 40
0.0
 40
0.0
 40
0.0
 40
0.4997848813356201
 40
1.0
 40
1.0
 40
1.0
 40
1.0
 10
1875.997428983526
 20
1272.26453032578
 30
0.0
 10
1875.944856472383
 20
1272.264014333706
 30
0.0
 10
1875.839666193313
 20
1272.262981905369
 30
0.0
 10
1875.734543557879
 20
1272.258403148457
 30
0.0
 10
1875.681959626321
 20
1272.256112785026
 30
0.0
  0
LINE
  5
9B1
330
916
100
AcDbEntity
  8
0
  6
Continuous
 62
     7
370
    15
100
AcDbLine
 10
1869.992986880589
 20
1267.749674964147
 30
0.0
 11
1869.992986880592
 21
1272.264530328731
 31
0.0
  0
SPLINE
  5
9B2
330
916
100
AcDbEntity
  8
0
  6
Continuous
 62
     7
370
    15
100
AcDbSpline
210
0.0
220
0.0
230
1.0
 70
     8
 71
     3
 72
     9
 73
     5
 74
     0
 42
0.0000000001
 43
0.0000000001
 40
0.0
 40
0.0
 40
0.0
 40
0.0
 40
0.5002180795336392
 40
1.0
 40
1.0
 40
1.0
 40
1.0
 10
1870.308456332722
 20
1272.256112814568
 30
0.0
 10
1870.255872134045
 20
1272.258403249341
 30
0.0
 10
1870.150749586843
 20
1272.262982121771
 30
0.0
 10
1870.045559156091
 20
1272.264014409828
 30
0.0
 10
1869.992986880594
 20
1272.264530328734
 30
0.0
  0
SPLINE
  5
9B3
330
916
100
AcDbEntity
  8
0
  6
Continuous
 62
     7
370
    15
100
AcDbSpline
210
0.0
220
0.0
230
1.0
 70
     8
 71
     3
 72
    12
 73
     8
 74
     0
 42
0.0000000001
 43
0.0000000001
 40
0.0
 40
0.0
 40
0.0
 40
0.0
 40
0.5000000000000004
 40
0.5000000000000004
 40
0.7500000000000001
 40
0.7500000000000001
 40
1.0
 40
1.0
 40
1.0
 40
1.0
 10
1869.992986880589
 20
1272.264530328728
 30
0.0
 10
1869.555719888504
 20
1272.501382116794
 30
0.0
 10
1869.112874864452
 20
1272.647329120642
 30
0.0
 10
1868.435096122249
 20
1272.646058475719
 30
0.0
 10
1868.207681652133
 20
1272.609122753061
 30
0.0
 10
1867.761282697933
 20
1272.473722767926
 30
0.0
 10
1867.54059520438
 20
1272.375750597718
 30
0.0
 10
1867.321705527358
 20
1272.25611275161
 30
0.0
  0
LINE
  5
9B4
330
916
100
AcDbEntity
  8
0
  6
Continuous
 62
     7
370
    15
100
AcDbLine
 10
1872.345208280383
 20
1272.749674964141
 30
0.0
 11
1868.173937105805
 21
1272.74967496414
 31
0.0
  0
SPLINE
  5
9B5
330
916
100
AcDbEntity
  8
0
  6
Continuous
 62
     7
370
    15
100
AcDbSpline
210
0.0
220
0.0
230
1.0
 70
    24
 71
     3
 72
     8
 73
     4
 74
     0
 42
0.0000000001
 43
0.0000000001
 40
0.0000000000000015
 40
0.0000000000000015
 40
0.0000000000000015
 40
0.0000000000000015
 40
0.0002566455321249
 40
0.0002566455321249
 40
0.0002566455321249
 40
0.0002566455321249
 10
1872.345208280383
 20
1272.62219497866
 30
0.0
 10
1872.345208280383
 20
1272.664700702221
 30
0.0
 10
1872.345208280383
 20
1272.707194602179
 30
0.0
 10
1872.345208280383
 20
1272.749674964141
 30
0.0
  0
SPLINE
  5
9B6
330
916
100
AcDbEntity
  8
0
  6
Continuous
 62
     7
370
    15
100
AcDbSpline
210
0.0
220
0.0
230
1.0
 70
     8
 71
     3
 72
    12
 73
     8
 74
     0
 42
0.0000000001
 43
0.0000000001
 40
0.0
 40
0.0
 40
0.0
 40
0.0
 40
0.5
 40
0.5
 40
0.7500000000000002
 40
0.7500000000000002
 40
1.0
 40
1.0
 40
1.0
 40
1.0
 10
1878.668710972274
 20
1272.256112785018
 30
0.0
 10
1878.23174055261
 20
1272.494946332067
 30
0.0
 10
1877.789130479898
 20
1272.643951150641
 30
0.0
 10
1877.111418650019
 20
1272.647703390488
 30
0.0
 10
1876.883906820425
 20
1272.612441723059
 30
0.0
 10
1876.437286679109
 20
1272.47992076952
 30
0.0
 10
1876.216464653787
 20
1272.383173693463
 30
0.0
 10
1875.997429611996
 20
1272.264530291803
 30
0.0
  0
LINE
  5
9B7
330
916
100
AcDbEntity
  8
0
  6
Continuous
 62
     7
370
    15
100
AcDbLine
 10
1877.81647945495
 20
1272.74967496414
 30
0.0
 11
1873.645208280384
 21
1272.749674964141
 31
0.0
  0
SPLINE
  5
9B8
330
916
100
AcDbEntity
  8
0
  6
Continuous
 62
     7
370
    15
100
AcDbSpline
210
0.0
220
0.0
230
1.0
 70
    24
 71
     3
 72
     8
 73
     4
 74
     0
 42
0.0000000001
 43
0.0000000001
 40
0.0000000000000007
 40
0.0000000000000007
 40
0.0000000000000007
 40
0.0000000000000007
 40
0.0002566455321271
 40
0.0002566455321271
 40
0.0002566455321271
 40
0.0002566455321271
 10
1873.645208280384
 20
1272.749674964141
 30
0.0
 10
1873.645208280384
 20
1272.707194602178
 30
0.0
 10
1873.645208280384
 20
1272.664700702221
 30
0.0
 10
1873.645208280384
 20
1272.622194978659
 30
0.0
  0
LINE
  5
9B9
330
916
100
AcDbEntity
  8
0
  6
Continuous
 62
     7
370
    15
100
AcDbLine
 10
1878.668710972274
 20
1267.749674964147
 30
0.0
 11
1878.668710972267
 21
1272.256112785022
 31
0.0
  0
LINE
  5
9BA
330
916
100
AcDbEntity
  8
0
  6
Continuous
 62
     7
370
    15
100
AcDbLine
 10
1867.321705557998
 20
1272.25611277508
 30
0.0
 11
1867.32170558848
 21
1267.749674964147
 31
0.0
  0
SPLINE
  5
9BB
330
916
100
AcDbEntity
  8
0
  6
Continuous
 62
     7
370
    15
100
AcDbSpline
210
0.0
220
0.0
230
1.0
 70
    24
 71
     3
 72
    14
 73
    10
 74
     0
 42
0.0000000001
 43
0.0000000001
 40
0.0
 40
0.0
 40
0.0
 40
0.0
 40
0.0002854184788765
 40
0.0002854184788765
 40
0.0002854184788765
 40
0.0005898584237432
 40
0.0005898584237432
 40
0.0005898584237432
 40
0.0008942983685956
 40
0.0008942983685956
 40
0.0008942983685956
 40
0.0008942983685956
 10
1875.266692377029
 20
1242.347555271667
 30
0.0
 10
1875.175581501592
 20
1242.374945997494
 30
0.0
 10
1875.084470587528
 20
1242.402336734932
 30
0.0
 10
1874.993359660735
 20
1242.429727476198
 30
0.0
 10
1874.89617672529
 20
1242.458943649646
 30
0.0
 10
1874.798993773665
 20
1242.488159827958
 30
0.0
 10
1874.701810825151
 20
1242.517376005335
 30
0.0
 10
1874.604627876692
 20
1242.546592182695
 30
0.0
 10
1874.507444930286
 20
1242.575808359439
 30
0.0
 10
1874.410262007172
 20
1242.605024529179
 30
0.0
  0
LINE
  5
9BC
330
916
100
AcDbEntity
  8
0
  6
Continuous
 62
     7
370
    15
100
AcDbLine
 10
1874.410262007172
 20
1242.298907192656
 30
0.0
 11
1875.266692377029
 21
1242.040956392717
 31
0.0
  0
LINE
  5
9BD
330
916
100
AcDbEntity
  8
0
  6
Continuous
 62
     7
370
    15
100
AcDbLine
 10
1873.309359079551
 20
1244.490142224633
 30
0.0
 11
1873.309359079551
 21
1244.809142224633
 31
0.0
  0
LINE
  5
9BE
330
916
100
AcDbEntity
  8
0
  6
Continuous
 62
     7
370
    15
100
AcDbLine
 10
1874.386855343881
 20
1244.490142224633
 30
0.0
 11
1874.386855343881
 21
1244.809142224633
 31
0.0
  0
SPLINE
  5
9BF
330
916
100
AcDbEntity
  8
0
  6
Continuous
 62
     7
370
    15
100
AcDbSpline
210
0.0
220
0.0
230
1.0
 70
    24
 71
     3
 72
     8
 73
     4
 74
     0
 42
0.0000000001
 43
0.0000000001
 40
0.0
 40
0.0
 40
0.0
 40
0.0
 40
1.0
 40
1.0
 40
1.0
 40
1.0
 10
1873.309359079551
 20
1244.490142224633
 30
0.0
 10
1873.663518682801
 20
1244.490142224633
 30
0.0
 10
1874.024824892119
 20
1244.490142224633
 30
0.0
 10
1874.386855343881
 20
1244.490142224633
 30
0.0
  0
LINE
  5
9C0
330
916
100
AcDbEntity
  8
0
  6
Continuous
 62
     7
370
    15
100
AcDbLine
 10
1877.04523549518
 20
1244.490142224633
 30
0.0
 11
1877.04523549518
 21
1244.809142224633
 31
0.0
  0
LINE
  5
9C1
330
916
100
AcDbEntity
  8
0
  6
Continuous
 62
     7
370
    15
100
AcDbLine
 10
1878.12273175953
 20
1244.490142224633
 30
0.0
 11
1878.12273175953
 21
1244.809142224633
 31
0.0
  0
SPLINE
  5
9C2
330
916
100
AcDbEntity
  8
0
  6
Continuous
 62
     7
370
    15
100
AcDbSpline
210
0.0
220
0.0
230
1.0
 70
    24
 71
     3
 72
     8
 73
     4
 74
     0
 42
0.0000000001
 43
0.0000000001
 40
0.0
 40
0.0
 40
0.0
 40
0.0
 40
1.0
 40
1.0
 40
1.0
 40
1.0
 10
1877.04523549518
 20
1244.490142224633
 30
0.0
 10
1877.407265946952
 20
1244.490142224633
 30
0.0
 10
1877.768572156261
 20
1244.490142224633
 30
0.0
 10
1878.12273175953
 20
1244.490142224633
 30
0.0
  0
LINE
  5
9C3
330
916
100
AcDbEntity
  8
0
  6
Continuous
 62
     7
370
    15
100
AcDbLine
 10
1868.886855343892
 20
1244.490142224633
 30
0.0
 11
1868.886855343892
 21
1244.809142224633
 31
0.0
  0
LINE
  5
9C4
330
916
100
AcDbEntity
  8
0
  6
Continuous
 62
     7
370
    15
100
AcDbLine
 10
1868.793708280378
 20
1244.490142224633
 30
0.0
 11
1868.886855343892
 21
1244.490142224633
 31
0.0
  0
LINE
  5
9C5
330
916
100
AcDbEntity
  8
0
  6
Continuous
 62
     7
370
    15
100
AcDbLine
 10
1878.809359079562
 20
1244.490142224633
 30
0.0
 11
1878.809359079562
 21
1244.809142224633
 31
0.0
  0
LINE
  5
9C6
330
916
100
AcDbEntity
  8
0
  6
Continuous
 62
     7
370
    15
100
AcDbLine
 10
1879.886855343892
 20
1244.490142224633
 30
0.0
 11
1879.886855343892
 21
1244.809142224633
 31
0.0
  0
SPLINE
  5
9C7
330
916
100
AcDbEntity
  8
0
  6
Continuous
 62
     7
370
    15
100
AcDbSpline
210
0.0
220
0.0
230
1.0
 70
    24
 71
     3
 72
     8
 73
     4
 74
     0
 42
0.0000000001
 43
0.0000000001
 40
0.0
 40
0.0
 40
0.0
 40
0.0
 40
1.0
 40
1.0
 40
1.0
 40
1.0
 10
1878.809359079562
 20
1244.490142224633
 30
0.0
 10
1879.16351917248
 20
1244.490142224633
 30
0.0
 10
1879.524838035443
 20
1244.490142224633
 30
0.0
 10
1879.886855343892
 20
1244.490142224633
 30
0.0
  0
LINE
  5
9C8
330
916
100
AcDbEntity
  8
0
  6
Continuous
 62
     7
370
    15
100
AcDbLine
 10
1872.62273175953
 20
1244.809142224633
 30
0.0
 11
1872.62273175953
 21
1244.490142224633
 31
0.0
  0
LINE
  5
9C9
330
916
100
AcDbEntity
  8
0
  6
Continuous
 62
     7
370
    15
100
AcDbLine
 10
1873.309359079551
 20
1244.490142224633
 30
0.0
 11
1872.62273175953
 21
1244.490142224633
 31
0.0
  0
LINE
  5
9CA
330
916
100
AcDbEntity
  8
0
  6
Continuous
 62
     7
370
    15
100
AcDbLine
 10
1878.12273175953
 20
1244.490142224633
 30
0.0
 11
1878.809359079562
 21
1244.490142224633
 31
0.0
  0
LINE
  5
9CB
330
916
100
AcDbEntity
  8
0
  6
Continuous
 62
     7
370
    15
100
AcDbLine
 10
1871.54523549518
 20
1244.490142224633
 30
0.0
 11
1871.54523549518
 21
1244.809142224633
 31
0.0
  0
SPLINE
  5
9CC
330
916
100
AcDbEntity
  8
0
  6
Continuous
 62
     7
370
    15
100
AcDbSpline
210
0.0
220
0.0
230
1.0
 70
    24
 71
     3
 72
     8
 73
     4
 74
     0
 42
0.0000000001
 43
0.0000000001
 40
0.0
 40
0.0
 40
0.0
 40
0.0
 40
1.0
 40
1.0
 40
1.0
 40
1.0
 10
1871.54523549518
 20
1244.490142224633
 30
0.0
 10
1871.907252803651
 20
1244.490142224633
 30
0.0
 10
1872.268571666612
 20
1244.490142224633
 30
0.0
 10
1872.62273175953
 20
1244.490142224633
 30
0.0
  0
ARC
  5
9CD
330
916
100
AcDbEntity
  8
0
  6
Continuous
 62
     7
370
    15
100
AcDbCircle
 10
1876.483923560461
 20
1239.150591553235
 30
0.0
 40
0.1787500000028466
100
AcDbArc
 50
45.00000000000921
 51
90.56746542500761
  0
LINE
  5
9CE
330
916
100
AcDbEntity
  8
0
  6
Continuous
 62
     7
370
    15
100
AcDbLine
 10
1876.884577627891
 20
1239.002728160083
 30
0.0
 11
1876.6103188976
 21
1239.276986890374
 31
0.0
  0
ARC
  5
9CF
330
916
100
AcDbEntity
  8
0
  6
Continuous
 62
     7
370
    15
100
AcDbCircle
 10
1876.9856938976
 20
1239.103844429791
 30
0.0
 40
0.1429999999981278
100
AcDbArc
 50
225.0000000000092
 51
269.2906612353507
  0
ENDBLK
  5
918
330
916
100
AcDbEntity
  8
0
100
AcDbBlockEnd
  0
BLOCK
  5
9D2
330
9D1
100
AcDbEntity
  8
0
100
AcDbBlockBegin
  2
3
 70
     0
 10
0.0
 20
0.0
 30
0.0
  3
3
  1

  0
ARC
  5
9D4
330
9D1
100
AcDbEntity
  8
0
  6
Continuous
 62
     7
370
    15
100
AcDbCircle
 10
1916.827346305523
 20
1208.07993458696
 30
0.0
 40
4.821271174572153
100
AcDbArc
 50
7.748166160951891
 51
172.2518338390868
  0
LINE
  5
9D5
330
9D1
100
AcDbEntity
  8
0
  6
Continuous
 62
     7
370
    15
100
AcDbLine
 10
1921.604600301152
 20
1208.729934586966
 30
0.0
 11
1917.477346305529
 21
1208.729934586966
 31
0.0
  0
LINE
  5
9D6
330
9D1
100
AcDbEntity
  8
0
  6
Continuous
 62
     7
370
    15
100
AcDbLine
 10
1917.477346305529
 20
1208.729934586966
 30
0.0
 11
1917.477346305529
 21
1210.179934586964
 31
0.0
  0
LINE
  5
9D7
330
9D1
100
AcDbEntity
  8
0
  6
Continuous
 62
     7
370
    15
100
AcDbLine
 10
1917.477346305529
 20
1210.179934586964
 30
0.0
 11
1916.177346305529
 21
1210.179934586964
 31
0.0
  0
LINE
  5
9D8
330
9D1
100
AcDbEntity
  8
0
  6
Continuous
 62
     7
370
    15
100
AcDbLine
 10
1916.177346305529
 20
1210.179934586964
 30
0.0
 11
1916.177346305529
 21
1208.729934586962
 31
0.0
  0
LINE
  5
9D9
330
9D1
100
AcDbEntity
  8
0
  6
Continuous
 62
     7
370
    15
100
AcDbLine
 10
1916.177346305529
 20
1208.729934586962
 30
0.0
 11
1912.050092309893
 21
1208.729934586962
 31
0.0
  0
LINE
  5
9DA
330
9D1
100
AcDbEntity
  8
0
  6
Continuous
 62
     7
370
    15
100
AcDbLine
 10
1916.177346305522
 20
1207.429934586962
 30
0.0
 11
1916.177346305522
 21
1205.979934586961
 31
0.0
  0
LINE
  5
9DB
330
9D1
100
AcDbEntity
  8
0
  6
Continuous
 62
     7
370
    15
100
AcDbLine
 10
1916.177346305522
 20
1205.979934586961
 30
0.0
 11
1917.477346305517
 21
1205.979934586961
 31
0.0
  0
LINE
  5
9DC
330
9D1
100
AcDbEntity
  8
0
  6
Continuous
 62
     7
370
    15
100
AcDbLine
 10
1917.477346305517
 20
1205.979934586961
 30
0.0
 11
1917.477346305517
 21
1207.429934586966
 31
0.0
  0
ARC
  5
9DD
330
9D1
100
AcDbEntity
  8
0
  6
Continuous
 62
     7
370
    15
100
AcDbCircle
 10
1916.827346305523
 20
1208.07993458696
 30
0.0
 40
4.82127117457216
100
AcDbArc
 50
187.7481661608598
 51
352.2518338391919
  0
LINE
  5
9DE
330
9D1
100
AcDbEntity
  8
0
  6
Continuous
 62
     7
370
    15
100
AcDbLine
 10
1912.050092309893
 20
1207.429934586962
 30
0.0
 11
1916.177346305522
 21
1207.429934586962
 31
0.0
  0
LINE
  5
9DF
330
9D1
100
AcDbEntity
  8
0
  6
Continuous
 62
     7
370
    15
100
AcDbLine
 10
1917.477346305517
 20
1207.429934586966
 30
0.0
 11
1921.604600301153
 21
1207.429934586966
 31
0.0
  0
SPLINE
  5
9E0
330
9D1
100
AcDbEntity
  8
0
  6
Continuous
 62
     7
370
    15
100
AcDbSpline
210
0.0
220
0.0
230
1.0
 70
     8
 71
     3
 72
     9
 73
     5
 74
     0
 42
0.0000000001
 43
0.0000000001
 40
0.0
 40
0.0
 40
0.0
 40
0.0
 40
0.5002180795336392
 40
1.0
 40
1.0
 40
1.0
 40
1.0
 10
1921.827345924093
 20
1205.393182639305
 30
0.0
 10
1921.794008659742
 20
1205.340598440628
 30
0.0
 10
1921.727363199062
 20
1205.235475893425
 30
0.0
 10
1921.660675574557
 20
1205.130285462673
 30
0.0
 10
1921.62734630551
 20
1205.077713187177
 30
0.0
  0
SPLINE
  5
9E1
330
9D1
100
AcDbEntity
  8
0
  6
Continuous
 62
     7
370
    15
100
AcDbSpline
210
0.0
220
0.0
230
1.0
 70
    24
 71
     3
 72
    12
 73
     8
 74
     0
 42
0.0000000001
 43
0.0000000001
 40
0.0
 40
0.0
 40
0.0
 40
0.0
 40
0.5000000000000004
 40
0.5000000000000004
 40
0.7500000000000001
 40
0.7500000000000001
 40
1.0
 40
1.0
 40
1.0
 40
1.0
 10
1921.62734630552
 20
1205.077713187171
 30
0.0
 10
1920.869977658757
 20
1204.640446195087
 30
0.0
 10
1920.102947577219
 20
1204.197601171034
 30
0.0
 10
1918.929000359434
 20
1203.519822428832
 30
0.0
 10
1918.535106942815
 20
1203.292407958715
 30
0.0
 10
1917.761921273696
 20
1202.846009004515
 30
0.0
 10
1917.379679322267
 20
1202.625321510962
 30
0.0
 10
1917.000551280413
 20
1202.406431833941
 30
0.0
  0
SPLINE
  5
9E2
330
9D1
100
AcDbEntity
  8
0
  6
Continuous
 62
     7
370
    15
100
AcDbSpline
210
0.0
220
0.0
230
1.0
 70
     8
 71
     3
 72
     9
 73
     5
 74
     0
 42
0.0000000001
 43
0.0000000001
 40
0.0
 40
0.0
 40
0.0
 40
0.0
 40
0.4999936838962756
 40
1.0
 40
1.0
 40
1.0
 40
1.0
 10
1917.000550623433
 20
1202.406431895221
 30
0.0
 10
1916.94281645303
 20
1202.406431912478
 30
0.0
 10
1916.827346653586
 20
1202.40643194699
 30
0.0
 10
1916.711876853921
 20
1202.406431912381
 30
0.0
 10
1916.654141224769
 20
1202.406431895076
 30
0.0
  0
SPLINE
  5
9E3
330
9D1
100
AcDbEntity
  8
0
  6
Continuous
 62
     7
370
    15
100
AcDbSpline
210
0.0
220
0.0
230
1.0
 70
    24
 71
     3
 72
    12
 73
     8
 74
     0
 42
0.0000000001
 43
0.0000000001
 40
0.0
 40
0.0
 40
0.0
 40
0.0
 40
0.4999999999999999
 40
0.4999999999999999
 40
0.75
 40
0.75
 40
1.0
 40
1.0
 40
1.0
 40
1.0
 10
1916.654141224768
 20
1202.406431895063
 30
0.0
 10
1915.89728627638
 20
1202.843402303253
 30
0.0
 10
1915.130663162916
 20
1203.286012364178
 30
0.0
 10
1913.956831872706
 20
1203.963724175564
 30
0.0
 10
1913.562769834103
 20
1204.191235999629
 30
0.0
 10
1912.789201076108
 20
1204.637856130294
 30
0.0
 10
1912.406726117754
 20
1204.858678150458
 30
0.0
 10
1912.027346305523
 20
1205.077713187175
 30
0.0
  0
SPLINE
  5
9E4
330
9D1
100
AcDbEntity
  8
0
  6
Continuous
 62
     7
370
    15
100
AcDbSpline
210
0.0
220
0.0
230
1.0
 70
    24
 71
     3
 72
     8
 73
     4
 74
     0
 42
0.0000000001
 43
0.0000000001
 40
0.0000000000000005
 40
0.0000000000000005
 40
0.0000000000000005
 40
0.0000000000000005
 40
0.0003736204088524
 40
0.0003736204088524
 40
0.0003736204088524
 40
0.0003736204088524
 10
1912.027346305524
 20
1205.077713187175
 30
0.0
 10
1911.960663125731
 20
1205.18289591877
 30
0.0
 10
1911.89397254088
 20
1205.288090330738
 30
0.0
 10
1911.827346305523
 20
1205.393183241013
 30
0.0
  0
SPLINE
  5
9E5
330
9D1
100
AcDbEntity
  8
0
  6
Continuous
 62
     7
370
    15
100
AcDbSpline
210
0.0
220
0.0
230
1.0
 70
    24
 71
     3
 72
     8
 73
     4
 74
     0
 42
0.0000000001
 43
0.0000000001
 40
0.0
 40
0.0
 40
0.0
 40
0.0
 40
1.0
 40
1.0
 40
1.0
 40
1.0
 10
1911.827346305523
 20
1205.393183241011
 30
0.0
 10
1911.827346305523
 20
1206.061219736659
 30
0.0
 10
1911.827346305523
 20
1206.738336526233
 30
0.0
 10
1911.827346305523
 20
1207.429934586963
 30
0.0
  0
SPLINE
  5
9E6
330
9D1
100
AcDbEntity
  8
0
  6
Continuous
 62
     7
370
    15
100
AcDbSpline
210
0.0
220
0.0
230
1.0
 70
    24
 71
     3
 72
     8
 73
     4
 74
     0
 42
0.0000000001
 43
0.0000000001
 40
0.0
 40
0.0
 40
0.0
 40
0.0
 40
1.0
 40
1.0
 40
1.0
 40
1.0
 10
1921.827346305523
 20
1207.429934586966
 30
0.0
 10
1921.827346305523
 20
1206.738336487758
 30
0.0
 10
1921.827346305523
 20
1206.061219661719
 30
0.0
 10
1921.827346305523
 20
1205.393183130536
 30
0.0
  0
SPLINE
  5
9E7
330
9D1
100
AcDbEntity
  8
0
  6
Continuous
 62
     7
370
    15
100
AcDbSpline
210
0.0
220
0.0
230
1.0
 70
    24
 71
     3
 72
     8
 73
     4
 74
     0
 42
0.0000000001
 43
0.0000000001
 40
0.0000000000000007
 40
0.0000000000000007
 40
0.0000000000000007
 40
0.0000000000000007
 40
0.0002566455321258
 40
0.0002566455321258
 40
0.0002566455321258
 40
0.0002566455321258
 10
1912.050092309893
 20
1207.429934586962
 30
0.0
 10
1911.975836222385
 20
1207.429934586962
 30
0.0
 10
1911.901587878441
 20
1207.429934586962
 30
0.0
 10
1911.827346305526
 20
1207.429934586962
 30
0.0
  0
SPLINE
  5
9E8
330
9D1
100
AcDbEntity
  8
0
  6
Continuous
 62
     7
370
    15
100
AcDbSpline
210
0.0
220
0.0
230
1.0
 70
    24
 71
     3
 72
     8
 73
     4
 74
     0
 42
0.0000000001
 43
0.0000000001
 40
0.0000000000000015
 40
0.0000000000000015
 40
0.0000000000000015
 40
0.0000000000000015
 40
0.0002566455321249
 40
0.0002566455321249
 40
0.0002566455321249
 40
0.0002566455321249
 10
1921.82734630552
 20
1207.429934586966
 30
0.0
 10
1921.753104732604
 20
1207.429934586966
 30
0.0
 10
1921.67885638866
 20
1207.429934586966
 30
0.0
 10
1921.604600301152
 20
1207.429934586966
 30
0.0
  0
SPLINE
  5
9E9
330
9D1
100
AcDbEntity
  8
0
  6
Continuous
 62
     7
370
    15
100
AcDbSpline
210
0.0
220
0.0
230
1.0
 70
     8
 71
     3
 72
     9
 73
     5
 74
     0
 42
0.0000000001
 43
0.0000000001
 40
0.0
 40
0.0
 40
0.0
 40
0.0
 40
0.5000067103190192
 40
1.0
 40
1.0
 40
1.0
 40
1.0
 10
1916.654141987613
 20
1213.753437278698
 30
0.0
 10
1916.71187766235
 20
1213.753437330116
 30
0.0
 10
1916.827347462145
 20
1213.753437432951
 30
0.0
 10
1916.942817261461
 20
1213.753437330212
 30
0.0
 10
1917.00055138628
 20
1213.753437278843
 30
0.0
  0
SPLINE
  5
9EA
330
9D1
100
AcDbEntity
  8
0
  6
Continuous
 62
     7
370
    15
100
AcDbSpline
210
0.0
220
0.0
230
1.0
 70
    24
 71
     3
 72
    12
 73
     8
 74
     0
 42
0.0000000001
 43
0.0000000001
 40
0.0
 40
0.0
 40
0.0
 40
0.0
 40
0.5
 40
0.5
 40
0.7500000000000002
 40
0.7500000000000002
 40
1.0
 40
1.0
 40
1.0
 40
1.0
 10
1917.000551386281
 20
1213.753437278856
 30
0.0
 10
1917.757406354542
 20
1213.316466859193
 30
0.0
 10
1918.524029488421
 20
1212.873856786481
 30
0.0
 10
1919.697860810663
 20
1212.196144956602
 30
0.0
 10
1920.091922858843
 20
1211.968633127008
 30
0.0
 10
1920.865491635286
 20
1211.522012985692
 30
0.0
 10
1921.247966602573
 20
1211.30119096037
 30
0.0
 10
1921.627346423594
 20
1211.082155918578
 30
0.0
  0
SPLINE
  5
9EB
330
9D1
100
AcDbEntity
  8
0
  6
Continuous
 62
     7
370
    15
100
AcDbSpline
210
0.0
220
0.0
230
1.0
 70
     8
 71
     3
 72
     9
 73
     5
 74
     0
 42
0.0000000001
 43
0.0000000001
 40
0.0
 40
0.0
 40
0.0
 40
0.0
 40
0.4997848813356201
 40
1.0
 40
1.0
 40
1.0
 40
1.0
 10
1921.627346747264
 20
1211.082155290108
 30
0.0
 10
1921.660676295804
 20
1211.029582778966
 30
0.0
 10
1921.72736408446
 20
1210.924392499896
 30
0.0
 10
1921.794009340734
 20
1210.819269864462
 30
0.0
 10
1921.82734630551
 20
1210.766685932904
 30
0.0
  0
SPLINE
  5
9EC
330
9D1
100
AcDbEntity
  8
0
  6
Continuous
 62
     7
370
    15
100
AcDbSpline
210
0.0
220
0.0
230
1.0
 70
    24
 71
     3
 72
     8
 73
     4
 74
     0
 42
0.0000000001
 43
0.0000000001
 40
0.0
 40
0.0
 40
0.0
 40
0.0
 40
1.0
 40
1.0
 40
1.0
 40
1.0
 10
1921.827346305523
 20
1210.76668593291
 30
0.0
 10
1921.827346305523
 20
1210.098649437266
 30
0.0
 10
1921.827346305523
 20
1209.421532647692
 30
0.0
 10
1921.827346305523
 20
1208.729934586965
 30
0.0
  0
SPLINE
  5
9ED
330
9D1
100
AcDbEntity
  8
0
  6
Continuous
 62
     7
370
    15
100
AcDbSpline
210
0.0
220
0.0
230
1.0
 70
    24
 71
     3
 72
     8
 73
     4
 74
     0
 42
0.0000000001
 43
0.0000000001
 40
0.0
 40
0.0
 40
0.0
 40
0.0
 40
1.0
 40
1.0
 40
1.0
 40
1.0
 10
1911.827346305523
 20
1208.729934586962
 30
0.0
 10
1911.827346305523
 20
1209.421532647689
 30
0.0
 10
1911.827346305523
 20
1210.098649437264
 30
0.0
 10
1911.827346305523
 20
1210.76668593291
 30
0.0
  0
SPLINE
  5
9EE
330
9D1
100
AcDbEntity
  8
0
  6
Continuous
 62
     7
370
    15
100
AcDbSpline
210
0.0
220
0.0
230
1.0
 70
     8
 71
     3
 72
     9
 73
     5
 74
     0
 42
0.0000000001
 43
0.0000000001
 40
0.0
 40
0.0
 40
0.0
 40
0.0
 40
0.5002255185518063
 40
0.9999999999999998
 40
0.9999999999999998
 40
0.9999999999999998
 40
0.9999999999999998
 10
1911.827346305535
 20
1210.766685932904
 30
0.0
 10
1911.860684090928
 20
1210.819271039064
 30
0.0
 10
1911.927329602114
 20
1210.924393837102
 30
0.0
 10
1911.994017430622
 20
1211.029584418479
 30
0.0
 10
1912.027346305533
 20
1211.08215598674
 30
0.0
  0
SPLINE
  5
9EF
330
9D1
100
AcDbEntity
  8
0
  6
Continuous
 62
     7
370
    15
100
AcDbSpline
210
0.0
220
0.0
230
1.0
 70
    24
 71
     3
 72
    12
 73
     8
 74
     0
 42
0.0000000001
 43
0.0000000001
 40
0.0
 40
0.0
 40
0.0
 40
0.0
 40
0.5
 40
0.5
 40
0.75
 40
0.75
 40
1.0
 40
1.0
 40
1.0
 40
1.0
 10
1912.027346305523
 20
1211.082155986747
 30
0.0
 10
1912.784714952286
 20
1211.519422978831
 30
0.0
 10
1913.551745033824
 20
1211.962268002884
 30
0.0
 10
1914.72569225161
 20
1212.640046745087
 30
0.0
 10
1915.119585668229
 20
1212.867461215204
 30
0.0
 10
1915.892771337349
 20
1213.313860169404
 30
0.0
 10
1916.275013288778
 20
1213.534547662957
 30
0.0
 10
1916.654141330633
 20
1213.753437339979
 30
0.0
  0
SPLINE
  5
9F0
330
9D1
100
AcDbEntity
  8
0
  6
Continuous
 62
     7
370
    15
100
AcDbSpline
210
0.0
220
0.0
230
1.0
 70
    24
 71
     3
 72
     8
 73
     4
 74
     0
 42
0.0000000001
 43
0.0000000001
 40
0.0000000000000007
 40
0.0000000000000007
 40
0.0000000000000007
 40
0.0000000000000007
 40
0.0002566455321271
 40
0.0002566455321271
 40
0.0002566455321271
 40
0.0002566455321271
 10
1921.604600301151
 20
1208.729934586966
 30
0.0
 10
1921.678856388659
 20
1208.729934586966
 30
0.0
 10
1921.753104732604
 20
1208.729934586966
 30
0.0
 10
1921.82734630552
 20
1208.729934586966
 30
0.0
  0
SPLINE
  5
9F1
330
9D1
100
AcDbEntity
  8
0
  6
Continuous
 62
     7
370
    15
100
AcDbSpline
210
0.0
220
0.0
230
1.0
 70
    24
 71
     3
 72
     8
 73
     4
 74
     0
 42
0.0000000001
 43
0.0000000001
 40
0.0000000000000015
 40
0.0000000000000015
 40
0.0000000000000015
 40
0.0000000000000015
 40
0.0002566455321258
 40
0.0002566455321258
 40
0.0002566455321258
 40
0.0002566455321258
 10
1911.827346305526
 20
1208.729934586962
 30
0.0
 10
1911.901587878441
 20
1208.729934586962
 30
0.0
 10
1911.975836222386
 20
1208.729934586962
 30
0.0
 10
1912.050092309894
 20
1208.729934586962
 30
0.0
  0
LINE
  5
9F2
330
9D1
100
AcDbEntity
  8
0
  6
Continuous
 62
     7
370
    15
100
AcDbLine
 10
1921.827346305523
 20
1208.729934586966
 30
0.0
 11
1921.827346305523
 21
1207.429934586966
 31
0.0
  0
LINE
  5
9F3
330
9D1
100
AcDbEntity
  8
0
  6
Continuous
 62
     7
370
    15
100
AcDbLine
 10
1911.827346305523
 20
1207.429934586962
 30
0.0
 11
1911.827346305523
 21
1208.729934586962
 31
0.0
  0
LINE
  5
9F4
330
9D1
100
AcDbEntity
  8
0
  6
Continuous
 62
     7
370
    15
100
AcDbLine
 10
1910.977346305523
 20
1219.35993458696
 30
0.0
 11
1922.677346305523
 21
1219.35993458696
 31
0.0
  0
LINE
  5
9F5
330
9D1
100
AcDbEntity
  8
0
  6
Continuous
 62
     7
370
    15
100
AcDbLine
 10
1922.677346305523
 20
1219.35993458696
 30
0.0
 11
1922.677346305523
 21
1196.79993458696
 31
0.0
  0
LINE
  5
9F6
330
9D1
100
AcDbEntity
  8
0
  6
Continuous
 62
     7
370
    15
100
AcDbLine
 10
1910.977346305523
 20
1196.79993458696
 30
0.0
 11
1922.677346305523
 21
1196.79993458696
 31
0.0
  0
LINE
  5
9F7
330
9D1
100
AcDbEntity
  8
0
  6
Continuous
 62
     7
370
    15
100
AcDbLine
 10
1910.977346305523
 20
1219.35993458696
 30
0.0
 11
1910.977346305523
 21
1196.79993458696
 31
0.0
  0
LINE
  5
9F8
330
9D1
100
AcDbEntity
  8
0
  6
Continuous
 62
     7
370
    15
100
AcDbLine
 10
1924.827346305523
 20
1196.79993458696
 30
0.0
 11
1924.827346305523
 21
1219.35993458696
 31
0.0
  0
LINE
  5
9F9
330
9D1
100
AcDbEntity
  8
0
  6
Continuous
 62
     7
370
    15
100
AcDbLine
 10
1922.677346305523
 20
1196.79993458696
 30
0.0
 11
1924.827346305523
 21
1196.79993458696
 31
0.0
  0
LINE
  5
9FA
330
9D1
100
AcDbEntity
  8
0
  6
Continuous
 62
     7
370
    15
100
AcDbLine
 10
1924.827346305523
 20
1219.35993458696
 30
0.0
 11
1922.677346305523
 21
1219.35993458696
 31
0.0
  0
LINE
  5
9FB
330
9D1
100
AcDbEntity
  8
0
  6
Continuous
 62
     7
370
    15
100
AcDbLine
 10
1910.977346305523
 20
1196.79993458696
 30
0.0
 11
1908.827346305523
 21
1196.79993458696
 31
0.0
  0
LINE
  5
9FC
330
9D1
100
AcDbEntity
  8
0
  6
Continuous
 62
     7
370
    15
100
AcDbLine
 10
1908.827346305523
 20
1219.35993458696
 30
0.0
 11
1908.827346305523
 21
1196.79993458696
 31
0.0
  0
LINE
  5
9FD
330
9D1
100
AcDbEntity
  8
0
  6
Continuous
 62
     7
370
    15
100
AcDbLine
 10
1908.827346305523
 20
1219.35993458696
 30
0.0
 11
1910.977346305523
 21
1219.35993458696
 31
0.0
  0
LINE
  5
9FE
330
9D1
100
AcDbEntity
  8
0
  6
Continuous
 62
     7
370
    15
100
AcDbLine
 10
1921.877346305523
 20
1195.940198598461
 30
0.0
 11
1921.877346305523
 21
1195.830252908085
 31
0.0
  0
LINE
  5
9FF
330
9D1
100
AcDbEntity
  8
0
  6
Continuous
 62
     7
370
    15
100
AcDbLine
 10
1921.877346305523
 20
1195.830252908085
 30
0.0
 11
1924.627346305523
 21
1195.830252908085
 31
0.0
  0
LINE
  5
A00
330
9D1
100
AcDbEntity
  8
0
  6
Continuous
 62
     7
370
    15
100
AcDbLine
 10
1924.627346305523
 20
1195.830252908085
 30
0.0
 11
1924.627346305523
 21
1195.628649219203
 31
0.0
  0
LINE
  5
A01
330
9D1
100
AcDbEntity
  8
0
  6
Continuous
 62
     7
370
    15
100
AcDbLine
 10
1924.627346305523
 20
1195.628649219203
 30
0.0
 11
1909.027346305523
 21
1195.628649219203
 31
0.0
  0
LINE
  5
A02
330
9D1
100
AcDbEntity
  8
0
  6
Continuous
 62
     7
370
    15
100
AcDbLine
 10
1909.027346305523
 20
1195.628649219203
 30
0.0
 11
1909.027346305523
 21
1195.830252908085
 31
0.0
  0
LINE
  5
A03
330
9D1
100
AcDbEntity
  8
0
  6
Continuous
 62
     7
370
    15
100
AcDbLine
 10
1909.027346305523
 20
1195.830252908085
 30
0.0
 11
1911.777346305523
 21
1195.830252908085
 31
0.0
  0
LINE
  5
A04
330
9D1
100
AcDbEntity
  8
0
  6
Continuous
 62
     7
370
    15
100
AcDbLine
 10
1911.777346305523
 20
1195.940198598461
 30
0.0
 11
1911.777346305523
 21
1195.830252908085
 31
0.0
  0
LINE
  5
A05
330
9D1
100
AcDbEntity
  8
0
  6
Continuous
 62
     7
370
    15
100
AcDbLine
 10
1911.777346305523
 20
1195.940198598461
 30
0.0
 11
1921.877346305523
 21
1195.940198598461
 31
0.0
  0
LINE
  5
A06
330
9D1
100
AcDbEntity
  8
0
  6
Continuous
 62
     7
370
    15
100
AcDbLine
 10
1909.027346305523
 20
1194.633742696882
 30
0.0
 11
1924.627346305523
 21
1194.633742696882
 31
0.0
  0
LINE
  5
A07
330
9D1
100
AcDbEntity
  8
0
  6
Continuous
 62
     7
370
    15
100
AcDbLine
 10
1909.027346305523
 20
1195.628649219203
 30
0.0
 11
1909.027346305523
 21
1194.633742696882
 31
0.0
  0
LINE
  5
A08
330
9D1
100
AcDbEntity
  8
0
  6
Continuous
 62
     7
370
    15
100
AcDbLine
 10
1924.627346305523
 20
1195.628649219203
 30
0.0
 11
1924.627346305523
 21
1194.633742696882
 31
0.0
  0
LINE
  5
A09
330
9D1
100
AcDbEntity
  8
0
  6
Continuous
 62
     7
370
    15
100
AcDbLine
 10
1924.627346305523
 20
1221.528563028439
 30
0.0
 11
1909.027346305523
 21
1221.528563028439
 31
0.0
  0
LINE
  5
A0A
330
9D1
100
AcDbEntity
  8
0
  6
Continuous
 62
     7
370
    15
100
AcDbLine
 10
1924.627346305523
 20
1220.533656506118
 30
0.0
 11
1924.627346305523
 21
1221.528563028439
 31
0.0
  0
LINE
  5
A0B
330
9D1
100
AcDbEntity
  8
0
  6
Continuous
 62
     7
370
    15
100
AcDbLine
 10
1909.027346305523
 20
1220.533656506118
 30
0.0
 11
1924.627346305523
 21
1220.533656506118
 31
0.0
  0
LINE
  5
A0C
330
9D1
100
AcDbEntity
  8
0
  6
Continuous
 62
     7
370
    15
100
AcDbLine
 10
1909.027346305523
 20
1220.533656506118
 30
0.0
 11
1909.027346305523
 21
1221.528563028439
 31
0.0
  0
LINE
  5
A0D
330
9D1
100
AcDbEntity
  8
0
  6
Continuous
 62
     7
370
    15
100
AcDbLine
 10
1911.777346305523
 20
1220.227005523421
 30
0.0
 11
1911.777346305523
 21
1220.332052817236
 31
0.0
  0
LINE
  5
A0E
330
9D1
100
AcDbEntity
  8
0
  6
Continuous
 62
     7
370
    15
100
AcDbLine
 10
1911.777346305523
 20
1220.332052817236
 30
0.0
 11
1909.027346305523
 21
1220.332052817236
 31
0.0
  0
LINE
  5
A0F
330
9D1
100
AcDbEntity
  8
0
  6
Continuous
 62
     7
370
    15
100
AcDbLine
 10
1909.027346305523
 20
1220.332052817236
 30
0.0
 11
1909.027346305523
 21
1220.533656506118
 31
0.0
  0
LINE
  5
A10
330
9D1
100
AcDbEntity
  8
0
  6
Continuous
 62
     7
370
    15
100
AcDbLine
 10
1924.627346305523
 20
1220.332052817236
 30
0.0
 11
1921.877346305523
 21
1220.332052817236
 31
0.0
  0
LINE
  5
A11
330
9D1
100
AcDbEntity
  8
0
  6
Continuous
 62
     7
370
    15
100
AcDbLine
 10
1921.877346305523
 20
1220.332052817236
 30
0.0
 11
1921.877346305523
 21
1220.227005523421
 31
0.0
  0
LINE
  5
A12
330
9D1
100
AcDbEntity
  8
0
  6
Continuous
 62
     7
370
    15
100
AcDbLine
 10
1921.877346305523
 20
1220.227005523421
 30
0.0
 11
1911.777346305523
 21
1220.227005523421
 31
0.0
  0
LINE
  5
A13
330
9D1
100
AcDbEntity
  8
0
  6
Continuous
 62
     7
370
    15
100
AcDbLine
 10
1924.627346305523
 20
1220.533656506118
 30
0.0
 11
1924.627346305523
 21
1220.332052817236
 31
0.0
  0
LINE
  5
A14
330
9D1
100
AcDbEntity
  8
0
  6
Continuous
 62
     7
370
    15
100
AcDbLine
 10
1911.327346305523
 20
1219.35993458696
 30
0.0
 11
1911.327346305523
 21
1220.332052817236
 31
0.0
  0
LINE
  5
A15
330
9D1
100
AcDbEntity
  8
0
  6
Continuous
 62
     7
370
    15
100
AcDbLine
 10
1908.827346305523
 20
1221.847883601014
 30
0.0
 11
1911.327346305523
 21
1221.847883601014
 31
0.0
  0
LINE
  5
A16
330
9D1
100
AcDbEntity
  8
0
  6
Continuous
 62
     7
370
    15
100
AcDbLine
 10
1911.327346305523
 20
1221.528563028439
 30
0.0
 11
1911.327346305523
 21
1221.847883601014
 31
0.0
  0
LINE
  5
A17
330
9D1
100
AcDbEntity
  8
0
  6
Continuous
 62
     7
370
    15
100
AcDbLine
 10
1908.827346305523
 20
1219.35993458696
 30
0.0
 11
1908.827346305523
 21
1221.847883601014
 31
0.0
  0
LINE
  5
A18
330
9D1
100
AcDbEntity
  8
0
  6
Continuous
 62
     7
370
    15
100
AcDbLine
 10
1922.327346305523
 20
1221.528563028439
 30
0.0
 11
1922.327346305523
 21
1221.847883601014
 31
0.0
  0
LINE
  5
A19
330
9D1
100
AcDbEntity
  8
0
  6
Continuous
 62
     7
370
    15
100
AcDbLine
 10
1922.327346305523
 20
1221.847883601014
 30
0.0
 11
1924.827346305523
 21
1221.847883601014
 31
0.0
  0
LINE
  5
A1A
330
9D1
100
AcDbEntity
  8
0
  6
Continuous
 62
     7
370
    15
100
AcDbLine
 10
1922.327346305523
 20
1219.35993458696
 30
0.0
 11
1922.327346305523
 21
1220.332052817236
 31
0.0
  0
LINE
  5
A1B
330
9D1
100
AcDbEntity
  8
0
  6
Continuous
 62
     7
370
    15
100
AcDbLine
 10
1924.827346305523
 20
1219.35993458696
 30
0.0
 11
1924.827346305523
 21
1221.847883601014
 31
0.0
  0
LINE
  5
A1C
330
9D1
100
AcDbEntity
  8
0
  6
Continuous
 62
     7
370
    15
100
AcDbLine
 10
1922.327346305523
 20
1195.830252908085
 30
0.0
 11
1922.327346305523
 21
1196.79993458696
 31
0.0
  0
LINE
  5
A1D
330
9D1
100
AcDbEntity
  8
0
  6
Continuous
 62
     7
370
    15
100
AcDbLine
 10
1924.827346305523
 20
1193.768984032445
 30
0.0
 11
1922.327346305523
 21
1193.768984032445
 31
0.0
  0
LINE
  5
A1E
330
9D1
100
AcDbEntity
  8
0
  6
Continuous
 62
     7
370
    15
100
AcDbLine
 10
1922.327346305523
 20
1193.768984032445
 30
0.0
 11
1922.327346305523
 21
1194.633742696882
 31
0.0
  0
LINE
  5
A1F
330
9D1
100
AcDbEntity
  8
0
  6
Continuous
 62
     7
370
    15
100
AcDbLine
 10
1924.827346305523
 20
1193.768984032445
 30
0.0
 11
1924.827346305523
 21
1196.79993458696
 31
0.0
  0
LINE
  5
A20
330
9D1
100
AcDbEntity
  8
0
  6
Continuous
 62
     7
370
    15
100
AcDbLine
 10
1911.327346305523
 20
1195.830252908085
 30
0.0
 11
1911.327346305523
 21
1196.79993458696
 31
0.0
  0
LINE
  5
A21
330
9D1
100
AcDbEntity
  8
0
  6
Continuous
 62
     7
370
    15
100
AcDbLine
 10
1911.327346305523
 20
1193.768984032445
 30
0.0
 11
1911.327346305523
 21
1194.633742696882
 31
0.0
  0
LINE
  5
A22
330
9D1
100
AcDbEntity
  8
0
  6
Continuous
 62
     7
370
    15
100
AcDbLine
 10
1911.327346305523
 20
1193.768984032445
 30
0.0
 11
1908.827346305523
 21
1193.768984032445
 31
0.0
  0
LINE
  5
A23
330
9D1
100
AcDbEntity
  8
0
  6
Continuous
 62
     7
370
    15
100
AcDbLine
 10
1908.827346305523
 20
1193.768984032445
 30
0.0
 11
1908.827346305523
 21
1196.79993458696
 31
0.0
  0
LINE
  5
A24
330
9D1
100
AcDbEntity
  8
0
  6
Continuous
 62
     7
370
    15
100
AcDbLine
 10
1922.327346305523
 20
1222.361111182553
 30
0.0
 11
1922.327346305523
 21
1221.847883601014
 31
0.0
  0
LINE
  5
A25
330
9D1
100
AcDbEntity
  8
0
  6
Continuous
 62
     7
370
    15
100
AcDbLine
 10
1924.827346305523
 20
1222.361111182553
 30
0.0
 11
1922.327346305523
 21
1222.361111182553
 31
0.0
  0
LINE
  5
A26
330
9D1
100
AcDbEntity
  8
0
  6
Continuous
 62
     7
370
    15
100
AcDbLine
 10
1924.827346305523
 20
1222.361111182553
 30
0.0
 11
1924.827346305523
 21
1221.847883601014
 31
0.0
  0
LINE
  5
A27
330
9D1
100
AcDbEntity
  8
0
  6
Continuous
 62
     7
370
    15
100
AcDbLine
 10
1911.327346305523
 20
1222.361111182553
 30
0.0
 11
1908.827346305523
 21
1222.361111182553
 31
0.0
  0
LINE
  5
A28
330
9D1
100
AcDbEntity
  8
0
  6
Continuous
 62
     7
370
    15
100
AcDbLine
 10
1911.327346305523
 20
1222.361111182553
 30
0.0
 11
1911.327346305523
 21
1221.847883601014
 31
0.0
  0
LINE
  5
A29
330
9D1
100
AcDbEntity
  8
0
  6
Continuous
 62
     7
370
    15
100
AcDbLine
 10
1908.827346305523
 20
1222.361111182553
 30
0.0
 11
1908.827346305523
 21
1221.847883601014
 31
0.0
  0
LINE
  5
A2A
330
9D1
100
AcDbEntity
  8
0
  6
Continuous
 62
     7
370
    15
100
AcDbLine
 10
1908.827346305523
 20
1193.35993458696
 30
0.0
 11
1911.327346305523
 21
1193.35993458696
 31
0.0
  0
LINE
  5
A2B
330
9D1
100
AcDbEntity
  8
0
  6
Continuous
 62
     7
370
    15
100
AcDbLine
 10
1911.327346305523
 20
1193.768984032445
 30
0.0
 11
1911.327346305523
 21
1193.35993458696
 31
0.0
  0
LINE
  5
A2C
330
9D1
100
AcDbEntity
  8
0
  6
Continuous
 62
     7
370
    15
100
AcDbLine
 10
1908.827346305523
 20
1193.768984032445
 30
0.0
 11
1908.827346305523
 21
1193.35993458696
 31
0.0
  0
LINE
  5
A2D
330
9D1
100
AcDbEntity
  8
0
  6
Continuous
 62
     7
370
    15
100
AcDbLine
 10
1922.327346305523
 20
1193.35993458696
 30
0.0
 11
1924.827346305523
 21
1193.35993458696
 31
0.0
  0
LINE
  5
A2E
330
9D1
100
AcDbEntity
  8
0
  6
Continuous
 62
     7
370
    15
100
AcDbLine
 10
1922.327346305523
 20
1193.35993458696
 30
0.0
 11
1922.327346305523
 21
1193.768984032445
 31
0.0
  0
LINE
  5
A2F
330
9D1
100
AcDbEntity
  8
0
  6
Continuous
 62
     7
370
    15
100
AcDbLine
 10
1924.827346305523
 20
1193.768984032445
 30
0.0
 11
1924.827346305523
 21
1193.35993458696
 31
0.0
  0
LINE
  5
A30
330
9D1
100
AcDbEntity
  8
0
  6
Continuous
 62
     7
370
    15
100
AcDbLine
 10
1921.877346305523
 20
1220.227005523421
 30
0.0
 11
1921.877346305523
 21
1219.35993458696
 31
0.0
  0
LINE
  5
A31
330
9D1
100
AcDbEntity
  8
0
  6
Continuous
 62
     7
370
    15
100
AcDbLine
 10
1921.877346305523
 20
1196.79993458696
 30
0.0
 11
1921.877346305523
 21
1195.940198598461
 31
0.0
  0
LINE
  5
A32
330
9D1
100
AcDbEntity
  8
0
  6
Continuous
 62
     7
370
    15
100
AcDbLine
 10
1911.777346305523
 20
1220.227005523421
 30
0.0
 11
1911.777346305523
 21
1219.35993458696
 31
0.0
  0
LINE
  5
A33
330
9D1
100
AcDbEntity
  8
0
  6
Continuous
 62
     7
370
    15
100
AcDbLine
 10
1911.777346305523
 20
1196.79993458696
 30
0.0
 11
1911.777346305523
 21
1195.940198598461
 31
0.0
  0
LINE
  5
A34
330
9D1
100
AcDbEntity
  8
0
  6
Continuous
 62
     7
370
    15
100
AcDbLine
 10
1911.537346305524
 20
1219.39438556603
 30
0.0
 11
1911.537346305524
 21
1219.35993458696
 31
0.0
  0
LINE
  5
A35
330
9D1
100
AcDbEntity
  8
0
  6
Continuous
 62
     7
370
    15
100
AcDbLine
 10
1922.117346305524
 20
1219.39438556603
 30
0.0
 11
1922.117346305524
 21
1219.35993458696
 31
0.0
  0
LINE
  5
A36
330
9D1
100
AcDbEntity
  8
0
  6
Continuous
 62
     7
370
    15
100
AcDbLine
 10
1922.117346305524
 20
1219.750434586954
 30
0.0
 11
1921.877346305523
 21
1219.750434586954
 31
0.0
  0
LINE
  5
A37
330
9D1
100
AcDbEntity
  8
0
  6
Continuous
 62
     7
370
    15
100
AcDbLine
 10
1911.777346305523
 20
1219.750434586954
 30
0.0
 11
1911.537346305524
 21
1219.750434586954
 31
0.0
  0
LINE
  5
A38
330
9D1
100
AcDbEntity
  8
0
  6
Continuous
 62
     7
370
    15
100
AcDbLine
 10
1922.117346305524
 20
1219.750434586954
 30
0.0
 11
1922.117346305524
 21
1219.39438556603
 31
0.0
  0
LINE
  5
A39
330
9D1
100
AcDbEntity
  8
0
  6
Continuous
 62
     7
370
    15
100
AcDbLine
 10
1911.537346305524
 20
1219.750434586954
 30
0.0
 11
1911.537346305524
 21
1219.39438556603
 31
0.0
  0
LINE
  5
A3A
330
9D1
100
AcDbEntity
  8
0
  6
Continuous
 62
     7
370
    15
100
AcDbLine
 10
1922.327346305523
 20
1219.750434586954
 30
0.0
 11
1922.117346305524
 21
1219.750434586954
 31
0.0
  0
LINE
  5
A3B
330
9D1
100
AcDbEntity
  8
0
  6
Continuous
 62
     7
370
    15
100
AcDbLine
 10
1922.117346305524
 20
1219.450434586954
 30
0.0
 11
1922.327346305523
 21
1219.450434586954
 31
0.0
  0
LINE
  5
A3C
330
9D1
100
AcDbEntity
  8
0
  6
Continuous
 62
     7
370
    15
100
AcDbLine
 10
1911.537346305524
 20
1219.750434586954
 30
0.0
 11
1911.327346305523
 21
1219.750434586954
 31
0.0
  0
LINE
  5
A3D
330
9D1
100
AcDbEntity
  8
0
  6
Continuous
 62
     7
370
    15
100
AcDbLine
 10
1911.327346305523
 20
1219.450434586954
 30
0.0
 11
1911.537346305524
 21
1219.450434586954
 31
0.0
  0
LINE
  5
A3E
330
9D1
100
AcDbEntity
  8
0
  6
Continuous
 62
     8
370
    15
100
AcDbLine
 10
1911.537346305524
 20
1219.39438556603
 30
0.0
 11
1911.777346305523
 21
1219.39438556603
 31
0.0
  0
LINE
  5
A3F
330
9D1
100
AcDbEntity
  8
0
  6
Continuous
 62
     8
370
    15
100
AcDbLine
 10
1921.877346305523
 20
1219.39438556603
 30
0.0
 11
1922.117346305524
 21
1219.39438556603
 31
0.0
  0
ENDBLK
  5
9D3
330
9D1
100
AcDbEntity
  8
0
100
AcDbBlockEnd
  0
BLOCK
  5
A42
330
A41
100
AcDbEntity
  8
0
100
AcDbBlockBegin
  2
4
 70
     0
 10
0.0
 20
0.0
 30
0.0
  3
4
  1

  0
LINE
  5
A44
330
A41
100
AcDbEntity
  8
0
  6
Continuous
 62
     7
370
    15
100
AcDbLine
 10
1974.213194997253
 20
1261.214413993815
 30
0.0
 11
1966.542546935067
 21
1265.642584863847
 31
0.0
  0
LINE
  5
A45
330
A41
100
AcDbEntity
  8
0
  6
Continuous
 62
     7
370
    15
100
AcDbLine
 10
1959.040365670961
 20
1269.973501921454
 30
0.0
 11
1958.260866210879
 21
1270.423497381337
 31
0.0
  0
LINE
  5
A46
330
A41
100
AcDbEntity
  8
0
  6
Continuous
 62
     7
370
    15
100
AcDbLine
 10
1965.221814521611
 20
1238.286434336358
 30
0.0
 11
1972.363593309652
 21
1242.409295473127
 31
0.0
  0
LINE
  5
A47
330
A41
100
AcDbEntity
  8
0
  6
Continuous
 62
     7
370
    15
100
AcDbLine
 10
1965.956075842944
 20
1228.219617409147
 30
0.0
 11
1972.886570092176
 21
1232.220506577908
 31
0.0
  0
LINE
  5
A48
330
A41
100
AcDbEntity
  8
0
  6
Continuous
 62
     7
370
    15
100
AcDbLine
 10
1954.296215727583
 20
1243.388086298068
 30
0.0
 11
1954.296215727583
 21
1243.143123710165
 31
0.0
  0
LINE
  5
A49
330
A41
100
AcDbEntity
  8
0
  6
Continuous
 62
     7
370
    15
100
AcDbLine
 10
1964.316220992726
 20
1254.681135275781
 30
0.0
 11
1965.019726968446
 21
1254.192703500978
 31
0.0
  0
LINE
  5
A4A
330
A41
100
AcDbEntity
  8
0
  6
Continuous
 62
     7
370
    15
100
AcDbLine
 10
1964.880808321576
 20
1252.689588412645
 30
0.0
 11
1965.019726968446
 21
1254.192703500978
 31
0.0
  0
LINE
  5
A4B
330
A41
100
AcDbEntity
  8
0
  6
Continuous
 62
     7
370
    15
100
AcDbLine
 10
1964.522864356797
 20
1252.896225065127
 30
0.0
 11
1964.880808321576
 21
1252.689588412645
 31
0.0
  0
LINE
  5
A4C
330
A41
100
AcDbEntity
  8
0
  6
Continuous
 62
     7
370
    15
100
AcDbLine
 10
1964.173665863083
 20
1253.138668172994
 30
0.0
 11
1964.522864356797
 21
1252.896225065127
 31
0.0
  0
LINE
  5
A4D
330
A41
100
AcDbEntity
  8
0
  6
Continuous
 62
     7
370
    15
100
AcDbLine
 10
1964.316220992726
 20
1254.681135275781
 30
0.0
 11
1964.173665863083
 21
1253.138668172994
 31
0.0
  0
LINE
  5
A4E
330
A41
100
AcDbEntity
  8
0
  6
Continuous
 62
     7
370
    15
100
AcDbLine
 10
1965.019726968446
 20
1254.192703500978
 30
0.0
 11
1976.050593114258
 21
1260.560686980615
 31
0.0
  0
LINE
  5
A4F
330
A41
100
AcDbEntity
  8
0
  6
Continuous
 62
     7
370
    15
100
AcDbLine
 10
1975.347087138538
 20
1261.049118755419
 30
0.0
 11
1964.316220992726
 21
1254.681135275781
 31
0.0
  0
LINE
  5
A50
330
A41
100
AcDbEntity
  8
0
  6
Continuous
 62
     7
370
    15
100
AcDbLine
 10
1975.347087138538
 20
1261.049118755419
 30
0.0
 11
1976.050593114258
 21
1260.560686980615
 31
0.0
  0
LINE
  5
A51
330
A41
100
AcDbEntity
  8
0
  6
Continuous
 62
     7
370
    15
100
AcDbLine
 10
1966.82171547653
 20
1253.772794504013
 30
0.0
 11
1966.53942115356
 21
1253.609829460171
 31
0.0
  0
LINE
  5
A52
330
A41
100
AcDbEntity
  8
0
  6
Continuous
 62
     7
370
    15
100
AcDbLine
 10
1964.880808321576
 20
1252.689588412645
 30
0.0
 11
1966.507154448302
 21
1253.628458047201
 31
0.0
  0
LINE
  5
A53
330
A41
100
AcDbEntity
  8
0
  6
Continuous
 62
     7
370
    15
100
AcDbLine
 10
1976.050593114258
 20
1260.560686980615
 30
0.0
 11
1975.911674467388
 21
1259.057571892282
 31
0.0
  0
LINE
  5
A54
330
A41
100
AcDbEntity
  8
0
  6
Continuous
 62
     7
370
    15
100
AcDbLine
 10
1975.911674467388
 20
1259.057571892282
 30
0.0
 11
1974.285328834571
 21
1258.118702542853
 31
0.0
  0
LINE
  5
A55
330
A41
100
AcDbEntity
  8
0
  6
Continuous
 62
     7
370
    15
100
AcDbLine
 10
1974.285328834571
 20
1258.118702542853
 30
0.0
 11
1974.281692351798
 21
1258.079347486547
 31
0.0
  0
LINE
  5
A56
330
A41
100
AcDbEntity
  8
0
  6
Continuous
 62
     7
370
    15
100
AcDbLine
 10
1974.281692351798
 20
1258.079347486547
 30
0.0
 11
1973.963494264571
 21
1257.895655640782
 31
0.0
  0
LINE
  5
A57
330
A41
100
AcDbEntity
  8
0
  6
Continuous
 62
     7
370
    15
100
AcDbLine
 10
1973.963494264571
 20
1257.895655640782
 30
0.0
 11
1972.567138880358
 21
1242.786911014126
 31
0.0
  0
LINE
  5
A58
330
A41
100
AcDbEntity
  8
0
  6
Continuous
 62
     7
370
    15
100
AcDbLine
 10
1965.425360092316
 20
1238.664049877357
 30
0.0
 11
1972.567138880358
 21
1242.786911014126
 31
0.0
  0
LINE
  5
A59
330
A41
100
AcDbEntity
  8
0
  6
Continuous
 62
     7
370
    15
100
AcDbLine
 10
1965.425360092316
 20
1238.664049877357
 30
0.0
 11
1965.757927703026
 21
1242.262470570789
 31
0.0
  0
LINE
  5
A5A
330
A41
100
AcDbEntity
  8
0
  6
Continuous
 62
     7
370
    15
100
AcDbLine
 10
1966.793117522726
 20
1253.463375439868
 30
0.0
 11
1966.82171547653
 21
1253.772794504013
 31
0.0
  0
LINE
  5
A5B
330
A41
100
AcDbEntity
  8
0
  6
Continuous
 62
     7
370
    15
100
AcDbLine
 10
1953.762849664584
 20
1246.682301583495
 30
0.0
 11
1953.482983395215
 21
1247.167044940407
 31
0.0
  0
SPLINE
  5
A5C
330
A41
100
AcDbEntity
  8
0
  6
Continuous
 62
     7
370
    15
100
AcDbSpline
210
0.0
220
0.0
230
1.0
 70
     8
 71
     3
 72
    14
 73
    10
 74
     0
 42
0.0000000001
 43
0.0000000001
 40
0.0
 40
0.0
 40
0.0
 40
0.0
 40
0.0714806996664819
 40
0.1429613993329635
 40
0.2858665614231849
 40
0.5000837556961701
 40
0.7498972673873135
 40
0.849957648766982
 40
1.0
 40
1.0
 40
1.0
 40
1.0
 10
1953.304233390747
 20
1247.355734150967
 30
0.0
 10
1953.308960617929
 20
1247.352916406408
 30
0.0
 10
1953.318415072293
 20
1247.347280917289
 30
0.0
 10
1953.337259510784
 20
1247.334504246332
 30
0.0
 10
1953.365257554045
 20
1247.312881167287
 30
0.0
 10
1953.403689071377
 20
1247.27656451313
 30
0.0
 10
1953.436767209641
 20
1247.236953364224
 30
0.0
 10
1953.463637285594
 20
1247.199114217471
 30
0.0
 10
1953.475729184155
 20
1247.179069699506
 30
0.0
 10
1953.482983390746
 20
1247.167044534593
 30
0.0
  0
LINE
  5
A5D
330
A41
100
AcDbEntity
  8
0
  6
Continuous
 62
     7
370
    15
100
AcDbLine
 10
1953.304233342324
 20
1247.355733992334
 30
0.0
 11
1952.650570624779
 21
1247.733085447021
 31
0.0
  0
SPLINE
  5
A5E
330
A41
100
AcDbEntity
  8
0
  6
Continuous
 62
     7
370
    15
100
AcDbSpline
210
0.0
220
0.0
230
1.0
 70
     8
 71
     3
 72
    18
 73
    14
 74
     0
 42
0.0000000001
 43
0.0000000001
 40
0.0
 40
0.0
 40
0.0
 40
0.0
 40
0.0357536851217858
 40
0.0715073702435791
 40
0.1429866113742786
 40
0.2501351724186618
 40
0.3750885329460141
 40
0.5000418934733696
 40
0.6249952540007239
 40
0.7499486145280767
 40
0.8749019750554326
 40
0.9249508327989492
 40
0.9999999999999998
 40
0.9999999999999998
 40
0.9999999999999998
 40
0.9999999999999998
 10
1952.397780019373
 20
1247.587105203592
 30
0.0
 10
1952.397856879495
 20
1247.592519669305
 30
0.0
 10
1952.39801059974
 20
1247.603348600731
 30
0.0
 10
1952.399654565818
 20
1247.62416024842
 30
0.0
 10
1952.404379857052
 20
1247.653765109787
 30
0.0
 10
1952.4166365852
 20
1247.691058366541
 30
0.0
 10
1952.439027354167
 20
1247.726518192284
 30
0.0
 10
1952.470668107025
 20
1247.752773668647
 30
0.0
 10
1952.50922437961
 20
1247.767045140413
 30
0.0
 10
1952.553200693543
 20
1247.768837740558
 30
0.0
 10
1952.591420093621
 20
1247.760062144189
 30
0.0
 10
1952.624092208917
 20
1247.747354030272
 30
0.0
 10
1952.640642059592
 20
1247.738435827643
 30
0.0
 10
1952.650570693646
 20
1247.733085593852
 30
0.0
  0
LINE
  5
A5F
330
A41
100
AcDbEntity
  8
0
  6
Continuous
 62
     7
370
    15
100
AcDbLine
 10
1952.397780083583
 20
1247.587105513841
 30
0.0
 11
1952.397780083583
 21
1238.266702355788
 31
0.0
  0
LINE
  5
A60
330
A41
100
AcDbEntity
  8
0
  6
Continuous
 62
     7
370
    15
100
AcDbLine
 10
1952.397780083583
 20
1238.266702355788
 30
0.0
 11
1952.517988163893
 21
1238.197307708132
 31
0.0
  0
LINE
  5
A61
330
A41
100
AcDbEntity
  8
0
  6
Continuous
 62
     7
370
    15
100
AcDbLine
 10
1952.517988163893
 20
1238.197307708132
 30
0.0
 11
1952.517988163893
 21
1238.197676912866
 31
0.0
  0
ARC
  5
A62
330
A41
100
AcDbEntity
  8
0
  6
Continuous
 62
     7
370
    15
100
AcDbCircle
 10
1952.567552891942
 20
1238.256119203674
 30
0.0
 40
0.0766300438565788
100
AcDbArc
 50
229.6988246505533
 51
293.0232188288207
  0
LINE
  5
A63
330
A41
100
AcDbEntity
  8
0
  6
Continuous
 62
     7
370
    15
100
AcDbLine
 10
1952.791453709916
 20
1238.297582719699
 30
0.0
 11
1952.597523218299
 21
1238.185593015918
 31
0.0
  0
LWPOLYLINE
  5
A64
330
A41
100
AcDbEntity
  8
0
  6
Continuous
 62
     7
370
    15
100
AcDbPolyline
 90
        9
 70
   128
 43
0.0
 10
1952.791453709916
 20
1238.297582719699
 10
1952.810607147659
 20
1238.304677164197
 10
1952.832459300795
 20
1238.305550134778
 10
1952.856170195805
 20
1238.300167902144
 10
1952.880828736361
 20
1238.288737036594
 10
1952.905486947646
 20
1238.271697947306
 10
1952.929197842656
 20
1238.249704163277
 10
1952.951049995792
 20
1238.223601233719
 10
1952.970203433535
 20
1238.194392700715
  0
LINE
  5
A65
330
A41
100
AcDbEntity
  8
0
  6
Continuous
 62
     7
370
    15
100
AcDbLine
 10
1953.164133925151
 20
1237.858495617316
 30
0.0
 11
1952.970203433535
 21
1238.194392700715
 31
0.0
  0
LWPOLYLINE
  5
A66
330
A41
100
AcDbEntity
  8
0
  6
Continuous
 62
     7
370
    15
100
AcDbPolyline
 90
        9
 70
   128
 43
0.0
 10
1953.30713390161
 20
1237.775943488079
 10
1953.291810887998
 20
1237.77026785641
 10
1953.274329165489
 20
1237.769569632037
 10
1953.255360449481
 20
1237.77387549419
 10
1953.235633748744
 20
1237.783019730365
 10
1953.215907048008
 20
1237.796651458061
 10
1953.196938331999
 20
1237.814246409238
 10
1953.179456609491
 20
1237.835128600792
 10
1953.164133925151
 20
1237.858495617316
  0
LINE
  5
A67
330
A41
100
AcDbEntity
  8
0
  6
Continuous
 62
     7
370
    15
100
AcDbLine
 10
1953.501064063954
 20
1237.887933381945
 30
0.0
 11
1953.30713390161
 21
1237.775943488079
 31
0.0
  0
LWPOLYLINE
  5
A68
330
A41
100
AcDbEntity
  8
0
  6
Continuous
 62
     7
370
    15
100
AcDbPolyline
 90
        9
 70
   128
 43
0.0
 10
1953.501064063954
 20
1237.887933381945
 10
1953.520217501696
 20
1237.895027826442
 10
1953.542069654832
 20
1237.895900797024
 10
1953.565780549842
 20
1237.89051856439
 10
1953.590439090399
 20
1237.87908769884
 10
1953.615097630956
 20
1237.862048419467
 10
1953.638808525966
 20
1237.840054635437
 10
1953.66066034983
 20
1237.813951895964
 10
1953.679814116845
 20
1237.784743172876
  0
LINE
  5
A69
330
A41
100
AcDbEntity
  8
0
  6
Continuous
 62
     7
370
    15
100
AcDbLine
 10
1953.873744279189
 20
1237.448846279562
 30
0.0
 11
1953.679814116845
 21
1237.784743172876
 31
0.0
  0
ARC
  5
A6A
330
A41
100
AcDbEntity
  8
0
  6
Continuous
 62
     7
370
    15
100
AcDbCircle
 10
1954.055354054242
 20
1237.549147557864
 30
0.0
 40
0.2074667607693361
100
AcDbArc
 50
208.9114351028257
 51
237.5361085201062
  0
ARC
  5
A6B
330
A41
100
AcDbEntity
  8
0
  6
Continuous
 62
     7
370
    15
100
AcDbCircle
 10
1953.984697307719
 20
1237.43254179802
 30
0.0
 40
0.0712188813430738
100
AcDbArc
 50
235.1419925165937
 51
294.5081100515116
  0
LINE
  5
A6C
330
A41
100
AcDbEntity
  8
0
  6
Continuous
 62
     7
370
    15
100
AcDbLine
 10
1954.208170631772
 20
1237.479729449209
 30
0.0
 11
1954.014240469427
 21
1237.367739555342
 31
0.0
  0
LWPOLYLINE
  5
A6D
330
A41
100
AcDbEntity
  8
0
  6
Continuous
 62
     7
370
    15
100
AcDbPolyline
 90
        9
 70
   128
 43
0.0
 10
1954.208170631772
 20
1237.479729449209
 10
1954.227324398786
 20
1237.486823703621
 10
1954.24917622265
 20
1237.487696864287
 10
1954.27288711766
 20
1237.482314631653
 10
1954.297545658217
 20
1237.470883766103
 10
1954.322204198774
 20
1237.45384448673
 10
1954.345915093784
 20
1237.431850702701
 10
1954.367767576193
 20
1237.405747583058
 10
1954.386920684663
 20
1237.37653924014
  0
LINE
  5
A6E
330
A41
100
AcDbEntity
  8
0
  6
Continuous
 62
     7
370
    15
100
AcDbLine
 10
1954.580850847007
 20
1237.040642346825
 30
0.0
 11
1954.386920684663
 21
1237.37653924014
 31
0.0
  0
ARC
  5
A6F
330
A41
100
AcDbEntity
  8
0
  6
Continuous
 62
     7
370
    15
100
AcDbCircle
 10
1954.762462020603
 20
1237.14094493954
 30
0.0
 40
0.2074686204713223
100
AcDbArc
 50
208.9115661321227
 51
237.5359774908404
  0
ARC
  5
A70
330
A41
100
AcDbEntity
  8
0
  6
Continuous
 62
     7
370
    15
100
AcDbCircle
 10
1954.691804252907
 20
1237.024338566892
 30
0.0
 40
0.0712196727465348
100
AcDbArc
 50
235.1420660006324
 51
294.5077772660838
  0
LINE
  5
A71
330
A41
100
AcDbEntity
  8
0
  6
Continuous
 62
     7
370
    15
100
AcDbLine
 10
1954.915277528862
 20
1237.071525326387
 30
0.0
 11
1954.721347366518
 21
1236.959535432521
 31
0.0
  0
LWPOLYLINE
  5
A72
330
A41
100
AcDbEntity
  8
0
  6
Continuous
 62
     7
370
    15
100
AcDbPolyline
 90
        9
 70
   128
 43
0.0
 10
1954.915277528862
 20
1237.071525326387
 10
1954.934431295877
 20
1237.0786195808
 10
1954.956283119741
 20
1237.079492741466
 10
1954.979994014751
 20
1237.074110508832
 10
1955.004652555308
 20
1237.062679643282
 10
1955.029311095864
 20
1237.045640363909
 10
1955.053021990875
 20
1237.02364657988
 10
1955.074873814738
 20
1236.997543840407
 10
1955.094027581753
 20
1236.968335117319
  0
LINE
  5
A73
330
A41
100
AcDbEntity
  8
0
  6
Continuous
 62
     7
370
    15
100
AcDbLine
 10
1955.287957744097
 20
1236.632438224004
 30
0.0
 11
1955.094027581753
 21
1236.968335117319
 31
0.0
  0
ARC
  5
A74
330
A41
100
AcDbEntity
  8
0
  6
Continuous
 62
     7
370
    15
100
AcDbCircle
 10
1955.469568917693
 20
1236.732740816718
 30
0.0
 40
0.2074686204708451
100
AcDbArc
 50
208.9115661320822
 51
237.5359774908584
  0
ARC
  5
A75
330
A41
100
AcDbEntity
  8
0
  6
Continuous
 62
     7
370
    15
100
AcDbCircle
 10
1955.398911149998
 20
1236.616134444071
 30
0.0
 40
0.0712196727465744
100
AcDbArc
 50
235.1420660006324
 51
294.507777266072
  0
LINE
  5
A76
330
A41
100
AcDbEntity
  8
0
  6
Continuous
 62
     7
370
    15
100
AcDbLine
 10
1955.622384425953
 20
1236.663321203566
 30
0.0
 11
1955.428454263608
 21
1236.5513313097
 31
0.0
  0
LWPOLYLINE
  5
A77
330
A41
100
AcDbEntity
  8
0
  6
Continuous
 62
     7
370
    15
100
AcDbPolyline
 90
        9
 70
   128
 43
0.0
 10
1955.622384425953
 20
1236.663321203566
 10
1955.641537534423
 20
1236.670415838148
 10
1955.663390016831
 20
1236.671288618645
 10
1955.687100911841
 20
1236.665906386011
 10
1955.711759452398
 20
1236.654475520461
 10
1955.736417992955
 20
1236.637436241088
 10
1955.760128887965
 20
1236.615442457059
 10
1955.781980711829
 20
1236.589339717585
 10
1955.801134478844
 20
1236.560130994498
  0
LINE
  5
A78
330
A41
100
AcDbEntity
  8
0
  6
Continuous
 62
     7
370
    15
100
AcDbLine
 10
1955.995064641188
 20
1236.224234101183
 30
0.0
 11
1955.801134478844
 21
1236.560130994498
 31
0.0
  0
ARC
  5
A79
330
A41
100
AcDbEntity
  8
0
  6
Continuous
 62
     7
370
    15
100
AcDbCircle
 10
1956.17667301774
 20
1236.324534065113
 30
0.0
 40
0.2074649011242633
100
AcDbArc
 50
208.9113040751274
 51
237.5362395478353
  0
ARC
  5
A7A
330
A41
100
AcDbEntity
  8
0
  6
Continuous
 62
     7
370
    15
100
AcDbCircle
 10
1956.106018047088
 20
1236.20793032125
 30
0.0
 40
0.0712196727468062
100
AcDbArc
 50
235.1420660006975
 51
294.5077772659555
  0
LINE
  5
A7B
330
A41
100
AcDbEntity
  8
0
  6
Continuous
 62
     7
370
    15
100
AcDbLine
 10
1956.329491323043
 20
1236.255117080745
 30
0.0
 11
1956.135561160699
 21
1236.143127186878
 31
0.0
  0
LWPOLYLINE
  5
A7C
330
A41
100
AcDbEntity
  8
0
  6
Continuous
 62
     7
370
    15
100
AcDbPolyline
 90
        9
 70
   128
 43
0.0
 10
1956.329491323043
 20
1236.255117080745
 10
1956.348644431513
 20
1236.262211715327
 10
1956.370496913921
 20
1236.263084495824
 10
1956.394207808932
 20
1236.25770226319
 10
1956.418866349488
 20
1236.24627139764
 10
1956.443524890045
 20
1236.229232118267
 10
1956.467235785055
 20
1236.207238334237
 10
1956.489087608919
 20
1236.181135594764
 10
1956.508241375933
 20
1236.151926871676
  0
LINE
  5
A7D
330
A41
100
AcDbEntity
  8
0
  6
Continuous
 62
     7
370
    15
100
AcDbLine
 10
1956.702171538278
 20
1235.816029978362
 30
0.0
 11
1956.508241375933
 21
1236.151926871676
 31
0.0
  0
ARC
  5
A7E
330
A41
100
AcDbEntity
  8
0
  6
Continuous
 62
     7
370
    15
100
AcDbCircle
 10
1956.883779914831
 20
1235.916329942292
 30
0.0
 40
0.2074649011241896
100
AcDbArc
 50
208.9113040751388
 51
237.5362395478243
  0
ARC
  5
A7F
330
A41
100
AcDbEntity
  8
0
  6
Continuous
 62
     7
370
    15
100
AcDbCircle
 10
1956.813124189442
 20
1235.799724795221
 30
0.0
 40
0.0712180899500381
100
AcDbArc
 50
235.141919033536
 51
294.508442838549
  0
LINE
  5
A80
330
A41
100
AcDbEntity
  8
0
  6
Continuous
 62
     7
370
    15
100
AcDbLine
 10
1957.036598220133
 20
1235.846912957924
 30
0.0
 11
1956.842667399245
 21
1235.734923444227
 31
0.0
  0
LWPOLYLINE
  5
A81
330
A41
100
AcDbEntity
  8
0
  6
Continuous
 62
     7
370
    15
100
AcDbPolyline
 90
        9
 70
   128
 43
0.0
 10
1957.036598220133
 20
1235.846912957924
 10
1957.055751328604
 20
1235.854007592506
 10
1957.077603811012
 20
1235.854880373002
 10
1957.101314706022
 20
1235.849498140369
 10
1957.125972588034
 20
1235.838067654988
 10
1957.150631128591
 20
1235.821028375615
 10
1957.174342023601
 20
1235.799034591586
 10
1957.196194506009
 20
1235.772931471943
 10
1957.21534761448
 20
1235.743723129025
  0
LINE
  5
A82
330
A41
100
AcDbEntity
  8
0
  6
Continuous
 62
     7
370
    15
100
AcDbLine
 10
1957.409278435369
 20
1235.40782585554
 30
0.0
 11
1957.21534761448
 21
1235.743723129025
 31
0.0
  0
ARC
  5
A83
330
A41
100
AcDbEntity
  8
0
  6
Continuous
 62
     7
370
    15
100
AcDbCircle
 10
1957.590883989148
 20
1235.508123075685
 30
0.0
 40
0.2074611036611839
100
AcDbArc
 50
208.911017641367
 51
237.5362807513743
  0
ARC
  5
A84
330
A41
100
AcDbEntity
  8
0
  6
Continuous
 62
     7
370
    15
100
AcDbCircle
 10
1957.520231041434
 20
1235.391520895742
 30
0.0
 40
0.0712183118766682
100
AcDbArc
 50
235.1414419514933
 51
294.5084013151308
  0
LINE
  5
A85
330
A41
100
AcDbEntity
  8
0
  6
Continuous
 62
     7
370
    15
100
AcDbLine
 10
1957.743704458679
 20
1235.438709215272
 30
0.0
 11
1957.549774296335
 21
1235.326719321406
 31
0.0
  0
LWPOLYLINE
  5
A86
330
A41
100
AcDbEntity
  8
0
  6
Continuous
 62
     7
370
    15
100
AcDbPolyline
 90
        9
 70
   128
 43
0.0
 10
1957.743704458679
 20
1235.438709215272
 10
1957.762858225694
 20
1235.445803469684
 10
1957.784710049558
 20
1235.446676630351
 10
1957.808420944568
 20
1235.441294397717
 10
1957.833079485125
 20
1235.429863532167
 10
1957.857738025682
 20
1235.412824252794
 10
1957.881448920691
 20
1235.390830468765
 10
1957.9033014031
 20
1235.364727349122
 10
1957.92245451157
 20
1235.335519006203
  0
LINE
  5
A87
330
A41
100
AcDbEntity
  8
0
  6
Continuous
 62
     7
370
    15
100
AcDbLine
 10
1958.116384673914
 20
1234.999622112889
 30
0.0
 11
1957.92245451157
 21
1235.335519006203
 31
0.0
  0
LWPOLYLINE
  5
A88
330
A41
100
AcDbEntity
  8
0
  6
Continuous
 62
     7
370
    15
100
AcDbPolyline
 90
        9
 70
   128
 43
0.0
 10
1958.259384979645
 20
1234.917069793566
 10
1958.244061966033
 20
1234.911394161897
 10
1958.226580243524
 20
1234.910695937525
 10
1958.207611527516
 20
1234.915001799678
 10
1958.187884826779
 20
1234.924146035853
 10
1958.168158126043
 20
1234.937777763549
 10
1958.149189410035
 20
1234.955372714726
 10
1958.131707687526
 20
1234.97625490628
 10
1958.116384673914
 20
1234.999622112889
  0
LINE
  5
A89
330
A41
100
AcDbEntity
  8
0
  6
Continuous
 62
     7
370
    15
100
AcDbLine
 10
1958.453315141989
 20
1235.029059687433
 30
0.0
 11
1958.259384979645
 21
1234.917069793566
 31
0.0
  0
LWPOLYLINE
  5
A8A
330
A41
100
AcDbEntity
  8
0
  6
Continuous
 62
     7
370
    15
100
AcDbPolyline
 90
        9
 70
   128
 43
0.0
 10
1958.453315141989
 20
1235.029059687433
 10
1958.472468909004
 20
1235.036153941845
 10
1958.494320732867
 20
1235.037027102511
 10
1958.518031627878
 20
1235.031644869877
 10
1958.542690168435
 20
1235.020214004327
 10
1958.567348708991
 20
1235.003174724955
 10
1958.591059604001
 20
1234.981180940925
 10
1958.612911427865
 20
1234.955078201452
 10
1958.63206519488
 20
1234.925869478364
  0
LINE
  5
A8B
330
A41
100
AcDbEntity
  8
0
  6
Continuous
 62
     7
370
    15
100
AcDbLine
 10
1958.825995357224
 20
1234.589972585049
 30
0.0
 11
1958.63206519488
 21
1234.925869478364
 31
0.0
  0
LWPOLYLINE
  5
A8C
330
A41
100
AcDbEntity
  8
0
  6
Continuous
 62
     7
370
    15
100
AcDbPolyline
 90
        9
 70
   128
 43
0.0
 10
1958.96899500441
 20
1234.507420645897
 10
1958.953672649343
 20
1234.501744634058
 10
1958.936190926834
 20
1234.501046409685
 10
1958.917222210826
 20
1234.505352271839
 10
1958.897495510089
 20
1234.514496508014
 10
1958.877768809353
 20
1234.528128235709
 10
1958.858800093345
 20
1234.545723186887
 10
1958.841318370836
 20
1234.56660537844
 10
1958.825995357224
 20
1234.589972585049
  0
LINE
  5
A8D
330
A41
100
AcDbEntity
  8
0
  6
Continuous
 62
     7
370
    15
100
AcDbLine
 10
1959.162925825299
 20
1234.619410159593
 30
0.0
 11
1958.96899500441
 21
1234.507420645897
 31
0.0
  0
LWPOLYLINE
  5
A8E
330
A41
100
AcDbEntity
  8
0
  6
Continuous
 62
     7
370
    15
100
AcDbPolyline
 90
        9
 70
   128
 43
0.0
 10
1959.162925825299
 20
1234.619410159593
 10
1959.182078933769
 20
1234.626504794176
 10
1959.203931416177
 20
1234.627377574672
 10
1959.227642311187
 20
1234.621995342038
 10
1959.2523001932
 20
1234.610564856658
 10
1959.276958733757
 20
1234.593525577285
 10
1959.300669628766
 20
1234.571531793255
 10
1959.322522111175
 20
1234.545428673613
 10
1959.341675219645
 20
1234.516220330695
  0
LINE
  5
A8F
330
A41
100
AcDbEntity
  8
0
  6
Continuous
 62
     7
370
    15
100
AcDbLine
 10
1959.535605381989
 20
1234.18032343738
 30
0.0
 11
1959.341675219645
 21
1234.516220330695
 31
0.0
  0
LWPOLYLINE
  5
A90
330
A41
100
AcDbEntity
  8
0
  6
Continuous
 62
     7
370
    15
100
AcDbPolyline
 90
        9
 70
   128
 43
0.0
 10
1959.678605687719
 20
1234.097771118057
 10
1959.663282674108
 20
1234.092095486388
 10
1959.645800951599
 20
1234.091397262015
 10
1959.626832235591
 20
1234.095703124169
 10
1959.607106193399
 20
1234.104846980174
 10
1959.587378834118
 20
1234.11847908804
 10
1959.56841011811
 20
1234.136074039217
 10
1959.550928395601
 20
1234.156956230771
 10
1959.535605381989
 20
1234.18032343738
  0
LINE
  5
A91
330
A41
100
AcDbEntity
  8
0
  6
Continuous
 62
     7
370
    15
100
AcDbLine
 10
1959.872536508608
 20
1234.209760631754
 30
0.0
 11
1959.678605687719
 21
1234.097771118057
 31
0.0
  0
LWPOLYLINE
  5
A92
330
A41
100
AcDbEntity
  8
0
  6
Continuous
 62
     7
370
    15
100
AcDbPolyline
 90
        9
 70
   128
 43
0.0
 10
1959.872536508608
 20
1234.209760631754
 10
1959.891689617079
 20
1234.216855266336
 10
1959.913541440942
 20
1234.217728427003
 10
1959.937252994497
 20
1234.212345814199
 10
1959.961911535054
 20
1234.200914948649
 10
1959.986570075611
 20
1234.183875669276
 10
1960.010280312076
 20
1234.161882265416
 10
1960.03213213594
 20
1234.135779525943
 10
1960.051286561499
 20
1234.106570422686
  0
LINE
  5
A93
330
A41
100
AcDbEntity
  8
0
  6
Continuous
 62
     7
370
    15
100
AcDbLine
 10
1960.245216065299
 20
1233.770673909541
 30
0.0
 11
1960.051286561499
 21
1234.106570422686
 31
0.0
  0
LWPOLYLINE
  5
A94
330
A41
100
AcDbEntity
  8
0
  6
Continuous
 62
     7
370
    15
100
AcDbPolyline
 90
        9
 70
   128
 43
0.0
 10
1960.388216371029
 20
1233.688121590218
 10
1960.372893357418
 20
1233.682445958549
 10
1960.355411634909
 20
1233.681747734176
 10
1960.336442918901
 20
1233.68605359633
 10
1960.316715559619
 20
1233.695198212674
 10
1960.296989517427
 20
1233.7088295602
 10
1960.278020801419
 20
1233.726424511378
 10
1960.260539078911
 20
1233.747306702931
 10
1960.245216065299
 20
1233.770673909541
  0
LINE
  5
A95
330
A41
100
AcDbEntity
  8
0
  6
Continuous
 62
     7
370
    15
100
AcDbLine
 10
1960.582145874829
 20
1233.800111864254
 30
0.0
 11
1960.388216371029
 21
1233.688121590218
 31
0.0
  0
LWPOLYLINE
  5
A96
330
A41
100
AcDbEntity
  8
0
  6
Continuous
 62
     7
370
    15
100
AcDbPolyline
 90
        9
 70
   128
 43
0.0
 10
1960.582145874829
 20
1233.800111864254
 10
1960.601300300388
 20
1233.807205738497
 10
1960.623152124252
 20
1233.808078899163
 10
1960.646862360718
 20
1233.802697046699
 10
1960.671520901274
 20
1233.791266181149
 10
1960.696179441832
 20
1233.774226901776
 10
1960.719890995386
 20
1233.752232737577
 10
1960.74174281925
 20
1233.726129998104
 10
1960.76089592772
 20
1233.696921655186
  0
LINE
  5
A97
330
A41
100
AcDbEntity
  8
0
  6
Continuous
 62
     7
370
    15
100
AcDbLine
 10
1960.954826748609
 20
1233.361024381701
 30
0.0
 11
1960.76089592772
 21
1233.696921655186
 31
0.0
  0
LWPOLYLINE
  5
A98
330
A41
100
AcDbEntity
  8
0
  6
Continuous
 62
     7
370
    15
100
AcDbPolyline
 90
        9
 70
   128
 43
0.0
 10
1961.097827054339
 20
1233.278472062379
 10
1961.082504040728
 20
1233.27279643071
 10
1961.065022318219
 20
1233.272098206337
 10
1961.046053602211
 20
1233.27640406849
 10
1961.026326242929
 20
1233.285548684835
 10
1961.006600200737
 20
1233.299180032361
 10
1960.987631484729
 20
1233.316774983538
 10
1960.97014976222
 20
1233.337657175092
 10
1960.954826748609
 20
1233.361024381701
  0
LINE
  5
A99
330
A41
100
AcDbEntity
  8
0
  6
Continuous
 62
     7
370
    15
100
AcDbLine
 10
1961.291756558139
 20
1233.390462336414
 30
0.0
 11
1961.097827054339
 21
1233.278472062379
 31
0.0
  0
LWPOLYLINE
  5
A9A
330
A41
100
AcDbEntity
  8
0
  6
Continuous
 62
     7
370
    15
100
AcDbPolyline
 90
        9
 70
   128
 43
0.0
 10
1961.291756558139
 20
1233.390462336414
 10
1961.310909666609
 20
1233.397556970997
 10
1961.332762807562
 20
1233.398429371324
 10
1961.356473044028
 20
1233.393047518859
 10
1961.381131584584
 20
1233.381616653309
 10
1961.405790125141
 20
1233.364577373937
 10
1961.429501678695
 20
1233.342583209737
 10
1961.45135350256
 20
1233.316480470264
 10
1961.47050661103
 20
1233.287272127346
  0
LINE
  5
A9B
330
A41
100
AcDbEntity
  8
0
  6
Continuous
 62
     7
370
    15
100
AcDbLine
 10
1961.664437431918
 20
1232.951374853862
 30
0.0
 11
1961.47050661103
 21
1233.287272127346
 31
0.0
  0
LWPOLYLINE
  5
A9C
330
A41
100
AcDbEntity
  8
0
  6
Continuous
 62
     7
370
    15
100
AcDbPolyline
 90
        9
 70
   128
 43
0.0
 10
1961.80743642056
 20
1232.868823294879
 10
1961.792114724037
 20
1232.86314690287
 10
1961.774633001528
 20
1232.862448678498
 10
1961.75566428552
 20
1232.866754540651
 10
1961.735936926239
 20
1232.875899156996
 10
1961.716209566958
 20
1232.889531264861
 10
1961.69724085095
 20
1232.907126216038
 10
1961.679759128441
 20
1232.928008407592
 10
1961.664437431918
 20
1232.951374853862
  0
LINE
  5
A9D
330
A41
100
AcDbEntity
  8
0
  6
Continuous
 62
     7
370
    15
100
AcDbLine
 10
1962.001367241448
 20
1232.980812808575
 30
0.0
 11
1961.80743642056
 21
1232.868823294879
 31
0.0
  0
ARC
  5
A9E
330
A41
100
AcDbEntity
  8
0
  6
Continuous
 62
     7
370
    15
100
AcDbCircle
 10
1962.038936448809
 20
1232.876824358806
 30
0.0
 40
0.1105669165126753
100
AcDbArc
 50
40.14448836406904
 51
109.8639010762047
  0
LINE
  5
A9F
330
A41
100
AcDbEntity
  8
0
  6
Continuous
 62
     7
370
    15
100
AcDbLine
 10
1962.123456124873
 20
1232.948108770745
 30
0.0
 11
1964.420008924273
 21
1230.911742282845
 31
0.0
  0
LINE
  5
AA0
330
A41
100
AcDbEntity
  8
0
  6
Continuous
 62
     7
370
    15
100
AcDbLine
 10
1964.420008924273
 20
1230.911742282845
 30
0.0
 11
1964.420008924273
 21
1229.248221723475
 31
0.0
  0
LINE
  5
AA1
330
A41
100
AcDbEntity
  8
0
  6
Continuous
 62
     7
370
    15
100
AcDbLine
 10
1964.168180187331
 20
1229.047034365916
 30
0.0
 11
1964.420008924273
 21
1229.248221723475
 31
0.0
  0
LINE
  5
AA2
330
A41
100
AcDbEntity
  8
0
  6
Continuous
 62
     7
370
    15
100
AcDbLine
 10
1963.408846759491
 20
1229.408673677298
 30
0.0
 11
1964.168180187331
 21
1229.047034365916
 31
0.0
  0
LINE
  5
AA3
330
A41
100
AcDbEntity
  8
0
  6
Continuous
 62
     7
370
    15
100
AcDbLine
 10
1963.408846759491
 20
1229.408673677298
 30
0.0
 11
1963.408846759491
 21
1227.775592071018
 31
0.0
  0
LINE
  5
AA4
330
A41
100
AcDbEntity
  8
0
  6
Continuous
 62
     7
370
    15
100
AcDbLine
 10
1964.142981640278
 20
1227.277616319084
 30
0.0
 11
1963.408846759491
 21
1227.775592071018
 31
0.0
  0
LINE
  5
AA5
330
A41
100
AcDbEntity
  8
0
  6
Continuous
 62
     7
370
    15
100
AcDbLine
 10
1964.420008924273
 20
1226.797790823178
 30
0.0
 11
1964.142981640278
 21
1227.277616319084
 31
0.0
  0
LINE
  5
AA6
330
A41
100
AcDbEntity
  8
0
  6
Continuous
 62
     7
370
    15
100
AcDbLine
 10
1964.420008924273
 20
1225.732293885026
 30
0.0
 11
1964.420008924273
 21
1226.797790823178
 31
0.0
  0
LINE
  5
AA7
330
A41
100
AcDbEntity
  8
0
  6
Continuous
 62
     7
370
    15
100
AcDbLine
 10
1964.16721871235
 20
1225.586313286472
 30
0.0
 11
1964.420008924273
 21
1225.732293885026
 31
0.0
  0
LINE
  5
AA8
330
A41
100
AcDbEntity
  8
0
  6
Continuous
 62
     7
370
    15
100
AcDbLine
 10
1964.16721871235
 20
1225.586313286472
 30
0.0
 11
1953.031294631907
 21
1232.014945420829
 31
0.0
  0
LINE
  5
AA9
330
A41
100
AcDbEntity
  8
0
  6
Continuous
 62
     7
370
    15
100
AcDbLine
 10
1952.45743302075
 20
1233.292744209459
 30
0.0
 11
1953.031294631907
 21
1232.014945420829
 31
0.0
  0
LINE
  5
AAA
330
A41
100
AcDbEntity
  8
0
  6
Continuous
 62
     7
370
    15
100
AcDbLine
 10
1952.45743302075
 20
1233.292744209459
 30
0.0
 11
1950.705645689782
 21
1233.357513977742
 31
0.0
  0
LINE
  5
AAB
330
A41
100
AcDbEntity
  8
0
  6
Continuous
 62
     7
370
    15
100
AcDbLine
 10
1950.705645689782
 20
1233.357513977742
 30
0.0
 11
1946.93341549091
 21
1235.535176118709
 31
0.0
  0
LINE
  5
AAC
330
A41
100
AcDbEntity
  8
0
  6
Continuous
 62
     7
370
    15
100
AcDbLine
 10
1946.93341549091
 20
1235.535176118709
 30
0.0
 11
1945.91991187113
 21
1238.147376373904
 31
0.0
  0
LINE
  5
AAD
330
A41
100
AcDbEntity
  8
0
  6
Continuous
 62
     7
370
    15
100
AcDbLine
 10
1945.91991187113
 20
1238.147376373904
 30
0.0
 11
1945.91991187113
 21
1238.558295824192
 31
0.0
  0
LINE
  5
AAE
330
A41
100
AcDbEntity
  8
0
  6
Continuous
 62
     7
370
    15
100
AcDbLine
 10
1946.777562865926
 20
1238.634982670295
 30
0.0
 11
1945.91991187113
 21
1238.558295824192
 31
0.0
  0
LINE
  5
AAF
330
A41
100
AcDbEntity
  8
0
  6
Continuous
 62
     7
370
    15
100
AcDbLine
 10
1946.777562865926
 20
1238.634982670295
 30
0.0
 11
1944.960077323845
 21
1243.319362685133
 31
0.0
  0
LINE
  5
AB0
330
A41
100
AcDbEntity
  8
0
  6
Continuous
 62
     7
370
    15
100
AcDbLine
 10
1944.960077323845
 20
1243.319362685133
 30
0.0
 11
1944.960077323845
 21
1263.692292819181
 31
0.0
  0
LINE
  5
AB1
330
A41
100
AcDbEntity
  8
0
  6
Continuous
 62
     7
370
    15
100
AcDbLine
 10
1945.249318962101
 20
1263.859324644815
 30
0.0
 11
1944.960077323845
 21
1263.692292819181
 31
0.0
  0
LINE
  5
AB2
330
A41
100
AcDbEntity
  8
0
  6
Continuous
 62
     7
370
    15
100
AcDbLine
 10
1945.249318962101
 20
1263.859324644815
 30
0.0
 11
1947.392524569098
 21
1262.622078383423
 31
0.0
  0
LINE
  5
AB3
330
A41
100
AcDbEntity
  8
0
  6
Continuous
 62
     7
370
    15
100
AcDbLine
 10
1947.392524569098
 20
1262.622078383423
 30
0.0
 11
1947.392524569098
 21
1262.90786642164
 31
0.0
  0
LINE
  5
AB4
330
A41
100
AcDbEntity
  8
0
  6
Continuous
 62
     7
370
    15
100
AcDbLine
 10
1947.392524569098
 20
1262.90786642164
 30
0.0
 11
1963.344853355472
 21
1253.698783034118
 31
0.0
  0
LINE
  5
AB5
330
A41
100
AcDbEntity
  8
0
  6
Continuous
 62
     7
370
    15
100
AcDbLine
 10
1963.344853355472
 20
1253.698783034118
 30
0.0
 11
1963.344853355472
 21
1253.412994995901
 31
0.0
  0
LINE
  5
AB6
330
A41
100
AcDbEntity
  8
0
  6
Continuous
 62
     7
370
    15
100
AcDbLine
 10
1963.344853355472
 20
1253.412994995901
 30
0.0
 11
1965.104099690809
 21
1252.397403703979
 31
0.0
  0
LINE
  5
AB7
330
A41
100
AcDbEntity
  8
0
  6
Continuous
 62
     7
370
    15
100
AcDbLine
 10
1965.467006447001
 20
1251.589405630213
 30
0.0
 11
1965.104099690809
 21
1252.397403703979
 31
0.0
  0
LINE
  5
AB8
330
A41
100
AcDbEntity
  8
0
  6
Continuous
 62
     7
370
    15
100
AcDbLine
 10
1965.467006447001
 20
1251.589405630213
 30
0.0
 11
1964.054695846449
 21
1241.281070100211
 31
0.0
  0
LINE
  5
AB9
330
A41
100
AcDbEntity
  8
0
  6
Continuous
 62
     7
370
    15
100
AcDbLine
 10
1964.037148269489
 20
1241.26908583989
 30
0.0
 11
1964.054695846449
 21
1241.281070100211
 31
0.0
  0
LINE
  5
ABA
330
A41
100
AcDbEntity
  8
0
  6
Continuous
 62
     7
370
    15
100
AcDbLine
 10
1964.037148269489
 20
1241.26908583989
 30
0.0
 11
1953.762849664584
 21
1246.682301583495
 31
0.0
  0
LINE
  5
ABB
330
A41
100
AcDbEntity
  8
0
  6
Continuous
 62
     7
370
    15
100
AcDbLine
 10
1966.871866933535
 20
1253.417914011032
 30
0.0
 11
1965.104099690809
 21
1252.397403703979
 31
0.0
  0
LINE
  5
ABC
330
A41
100
AcDbEntity
  8
0
  6
Continuous
 62
     7
370
    15
100
AcDbLine
 10
1967.234773689727
 20
1252.609915937266
 30
0.0
 11
1966.871866933535
 21
1253.417914011032
 31
0.0
  0
LINE
  5
ABD
330
A41
100
AcDbEntity
  8
0
  6
Continuous
 62
     7
370
    15
100
AcDbLine
 10
1965.467006447001
 20
1251.589405630213
 30
0.0
 11
1967.234773689727
 21
1252.609915937266
 31
0.0
  0
ARC
  5
ABE
330
A41
100
AcDbEntity
  8
0
  6
Continuous
 62
     7
370
    15
100
AcDbCircle
 10
1966.645558898833
 20
1253.548586696747
 30
0.0
 40
3.304121066749077
100
AcDbArc
 50
122.6053932976436
 51
177.3945922266914
  0
LINE
  5
ABF
330
A41
100
AcDbEntity
  8
0
  6
Continuous
 62
     7
370
    15
100
AcDbLine
 10
1973.138282349058
 20
1261.107971296009
 30
0.0
 11
1964.865132986653
 21
1256.331983828845
 31
0.0
  0
LWPOLYLINE
  5
AC0
330
A41
100
AcDbEntity
  8
0
  6
Continuous
 62
     7
370
    15
100
AcDbPolyline
 90
       12
 70
   128
 43
0.0
 10
1974.614073100503
 20
1260.625959660897
 10
1974.60675963447
 20
1260.654516679285
 10
1974.542837517894
 20
1260.83506806967
 10
1974.454883136588
 20
1260.990247730017
 10
1974.344401264754
 20
1261.117407967574
 10
1974.213282419037
 20
1261.214364080234
 10
1974.063769931303
 20
1261.279463561753
 10
1973.89842208233
 20
1261.311591618653
 10
1973.720068143961
 20
1261.310197505379
 10
1973.531759646809
 20
1261.275302893964
 10
1973.336718684516
 20
1261.207508532925
 10
1973.138282349058
 20
1261.107971296009
  0
LINE
  5
AC1
330
A41
100
AcDbEntity
  8
0
  6
Continuous
 62
     7
370
    15
100
AcDbLine
 10
1963.344853355472
 20
1253.412994995901
 30
0.0
 11
1964.247160088718
 21
1253.933885585536
 31
0.0
  0
ARC
  5
AC2
330
A41
100
AcDbEntity
  8
0
  6
Continuous
 62
     7
370
    15
100
AcDbCircle
 10
1950.693230112459
 20
1262.757670084269
 30
0.0
 40
3.304121066749147
100
AcDbArc
 50
122.6053932976436
 51
177.3945922266914
  0
LINE
  5
AC3
330
A41
100
AcDbEntity
  8
0
  6
Continuous
 62
     7
370
    15
100
AcDbLine
 10
1964.865132986653
 20
1256.331983828845
 30
0.0
 11
1948.912804200279
 21
1265.541067216367
 31
0.0
  0
LINE
  5
AC4
330
A41
100
AcDbEntity
  8
0
  6
Continuous
 62
     7
370
    15
100
AcDbLine
 10
1966.507154448302
 20
1253.628458047201
 30
0.0
 11
1966.871866933535
 21
1253.417914011032
 31
0.0
  0
LINE
  5
AC5
330
A41
100
AcDbEntity
  8
0
  6
Continuous
 62
     7
370
    15
100
AcDbLine
 10
1967.234773689727
 20
1252.609915937266
 30
0.0
 11
1965.822463089174
 21
1242.301580407264
 31
0.0
  0
LINE
  5
AC6
330
A41
100
AcDbEntity
  8
0
  6
Continuous
 62
     7
370
    15
100
AcDbLine
 10
1964.054695846449
 20
1241.281070100211
 30
0.0
 11
1965.822463089174
 21
1242.301580407264
 31
0.0
  0
LINE
  5
AC7
330
A41
100
AcDbEntity
  8
0
  6
Continuous
 62
     7
370
    15
100
AcDbLine
 10
1955.590189831319
 20
1262.380241779609
 30
0.0
 11
1955.508539861224
 21
1262.59065864903
 31
0.0
  0
LINE
  5
AC8
330
A41
100
AcDbEntity
  8
0
  6
Continuous
 62
     7
370
    15
100
AcDbLine
 10
1959.389829969702
 20
1260.186756217373
 30
0.0
 11
1955.590189831319
 21
1262.380241779609
 31
0.0
  0
LINE
  5
AC9
330
A41
100
AcDbEntity
  8
0
  6
Continuous
 62
     7
370
    15
100
AcDbLine
 10
1959.389829969702
 20
1260.186756217373
 30
0.0
 11
1959.754321842525
 21
1260.139620883031
 31
0.0
  0
LINE
  5
ACA
330
A41
100
AcDbEntity
  8
0
  6
Continuous
 62
     7
370
    15
100
AcDbLine
 10
1964.914841243205
 20
1260.937869184721
 30
0.0
 11
1959.754321842525
 21
1260.139620883031
 31
0.0
  0
LINE
  5
ACB
330
A41
100
AcDbEntity
  8
0
  6
Continuous
 62
     7
370
    15
100
AcDbLine
 10
1965.159790330307
 20
1261.079275282792
 30
0.0
 11
1964.914841243205
 21
1260.937869184721
 31
0.0
  0
LINE
  5
ACC
330
A41
100
AcDbEntity
  8
0
  6
Continuous
 62
     7
370
    15
100
AcDbLine
 10
1966.542546893908
 20
1264.058379792065
 30
0.0
 11
1965.159790330307
 21
1261.079275282792
 31
0.0
  0
LINE
  5
ACD
330
A41
100
AcDbEntity
  8
0
  6
Continuous
 62
     7
370
    15
100
AcDbLine
 10
1957.185953562684
 20
1270.317054683532
 30
0.0
 11
1948.912804200279
 21
1265.541067216367
 31
0.0
  0
LWPOLYLINE
  5
ACE
330
A41
100
AcDbEntity
  8
0
  6
Continuous
 62
     7
370
    15
100
AcDbPolyline
 90
        9
 70
   128
 43
0.0
 10
1964.721855433685
 20
1238.335942227482
 10
1964.851040792727
 20
1238.275108192495
 10
1964.975878440927
 20
1238.243807086393
 10
1965.092164230146
 20
1238.243093276715
 10
1965.195985088919
 20
1238.2729907311
 10
1965.283846780085
 20
1238.332492268803
 10
1965.352791121715
 20
1238.419596073921
 10
1965.400497402962
 20
1238.531369583785
 10
1965.425360092316
 20
1238.664049877357
  0
LINE
  5
ACF
330
A41
100
AcDbEntity
  8
0
  6
Continuous
 62
     7
370
    15
100
AcDbLine
 10
1954.165546667765
 20
1244.429969563028
 30
0.0
 11
1964.721855433685
 21
1238.335942227482
 31
0.0
  0
SPLINE
  5
AD0
330
A41
100
AcDbEntity
  8
0
  6
Continuous
 62
     7
370
    15
100
AcDbSpline
210
0.0
220
0.0
230
1.0
 70
     8
 71
     3
 72
     9
 73
     5
 74
     0
 42
0.0000000001
 43
0.0000000001
 40
0.0
 40
0.0
 40
0.0
 40
0.0
 40
0.5000067103190192
 40
1.0
 40
1.0
 40
1.0
 40
1.0
 10
1965.159789584153
 20
1264.758966922383
 30
0.0
 10
1965.118964333388
 20
1264.736021996163
 30
0.0
 10
1965.037314927645
 20
1264.690132759588
 30
0.0
 10
1964.955665376879
 20
1264.641751496587
 30
0.0
 10
1964.914841149391
 20
1264.61756118974
 30
0.0
  0
SPLINE
  5
AD1
330
A41
100
AcDbEntity
  8
0
  6
Continuous
 62
     7
370
    15
100
AcDbSpline
210
0.0
220
0.0
230
1.0
 70
     8
 71
     3
 72
    12
 73
     8
 74
     0
 42
0.0000000001
 43
0.0000000001
 40
0.0
 40
0.0
 40
0.0
 40
0.0
 40
0.5
 40
0.5
 40
0.7500000000000002
 40
0.7500000000000002
 40
1.0
 40
1.0
 40
1.0
 40
1.0
 10
1964.9148411494
 20
1264.617561189728
 30
0.0
 10
1964.070679122045
 20
1264.682000357979
 30
0.0
 10
1963.215622121628
 20
1264.671405427776
 30
0.0
 10
1961.906383403104
 20
1264.471951295748
 30
0.0
 10
1961.466864299122
 20
1264.375172230458
 30
0.0
 10
1960.604060441046
 20
1264.13350170453
 30
0.0
 10
1960.177465046503
 20
1263.988516381938
 30
0.0
 10
1959.754321839045
 20
1263.826185813196
 30
0.0
  0
SPLINE
  5
AD2
330
A41
100
AcDbEntity
  8
0
  6
Continuous
 62
     7
370
    15
100
AcDbSpline
210
0.0
220
0.0
230
1.0
 70
     8
 71
     3
 72
     9
 73
     5
 74
     0
 42
0.0000000001
 43
0.0000000001
 40
0.0
 40
0.0
 40
0.0
 40
0.0
 40
0.4997848813356201
 40
1.0
 40
1.0
 40
1.0
 40
1.0
 10
1959.75432116578
 20
1263.82618596536
 30
0.0
 10
1959.693579236861
 20
1263.833619692155
 30
0.0
 10
1959.572043089635
 20
1263.848493545032
 30
0.0
 10
1959.450584848618
 20
1263.86046142538
 30
0.0
 10
1959.389829600175
 20
1263.866447940068
 30
0.0
  0
SPLINE
  5
AD3
330
A41
100
AcDbEntity
  8
0
  6
Continuous
 62
     7
370
    15
100
AcDbSpline
210
0.0
220
0.0
230
1.0
 70
     8
 71
     3
 72
     8
 73
     4
 74
     0
 42
0.0000000001
 43
0.0000000001
 40
0.0
 40
0.0
 40
0.0
 40
0.0
 40
1.0
 40
1.0
 40
1.0
 40
1.0
 10
1959.38982960017
 20
1263.866447940054
 30
0.0
 10
1958.91745646402
 20
1264.288213534313
 30
0.0
 10
1958.438662590457
 20
1264.672434482203
 30
0.0
 10
1957.949628911862
 20
1264.996779151964
 30
0.0
  0
SPLINE
  5
AD4
330
A41
100
AcDbEntity
  8
0
  6
Continuous
 62
     7
370
    15
100
AcDbSpline
210
0.0
220
0.0
230
1.0
 70
     8
 71
     3
 72
     8
 73
     4
 74
     0
 42
0.0000000001
 43
0.0000000001
 40
0.0000000000000007
 40
0.0000000000000007
 40
0.0000000000000007
 40
0.0000000000000007
 40
0.0002566455321271
 40
0.0002566455321271
 40
0.0002566455321271
 40
0.0002566455321271
 10
1958.107134122036
 20
1265.191797585232
 30
0.0
 10
1958.054627139014
 20
1265.126798999889
 30
0.0
 10
1958.002125631519
 20
1265.061792521174
 30
0.0
 10
1957.949628911864
 20
1264.996779151966
 30
0.0
  0
LWPOLYLINE
  5
AD5
330
A41
100
AcDbEntity
  8
0
  6
Continuous
 62
     7
370
    15
100
AcDbPolyline
 90
       34
 70
   128
 43
0.0
 10
1964.863191679762
 20
1269.091987166537
 10
1965.102268648964
 20
1268.893106901625
 10
1965.310506020016
 20
1268.682985804194
 10
1965.486327587219
 20
1268.463213945695
 10
1965.628403563993
 20
1268.235453701095
 10
1965.735659892545
 20
1268.001427635424
 10
1965.807284173333
 20
1267.76290672
 10
1965.842735579252
 20
1267.521694766268
 10
1965.841744284551
 20
1267.279617451364
 10
1965.804319694071
 20
1267.038505018919
 10
1965.730743561963
 20
1266.800182223861
 10
1965.62157342847
 20
1266.566451307948
 10
1965.477634367544
 20
1266.339081153052
 10
1965.300015858753
 20
1266.119791028904
 10
1965.090061003624
 20
1265.910240566121
 10
1964.849358705417
 20
1265.712014596942
 10
1964.579729510425
 20
1265.526612700559
 10
1964.283213095624
 20
1265.355437417863
 10
1963.962052792882
 20
1265.199783796775
 10
1963.618678137525
 20
1265.060829317749
 10
1963.255686758363
 20
1264.93962495979
 10
1962.875824127452
 20
1264.837088072269
 10
1962.481964791568
 20
1264.753993821107
 10
1962.077087018249
 20
1264.690971196994
 10
1961.66425501509
 20
1264.648496552503
 10
1961.246590941603
 20
1264.626891891332
 10
1960.827255152883
 20
1264.62631954592
 10
1960.409418870008
 20
1264.646785408898
 10
1959.996243435888
 20
1264.688133040454
 10
1959.590854632031
 20
1264.750050891558
 10
1959.196319300209
 20
1264.832069452689
 10
1958.815621964134
 20
1264.933569047313
 10
1958.451642438939
 20
1265.053782112904
 10
1958.107134099211
 20
1265.191798143143
  0
SPLINE
  5
AD6
330
A41
100
AcDbEntity
  8
0
  6
Continuous
 62
     7
370
    15
100
AcDbSpline
210
0.0
220
0.0
230
1.0
 70
     8
 71
     3
 72
     8
 73
     4
 74
     0
 42
0.0000000001
 43
0.0000000001
 40
0.0000000000000015
 40
0.0000000000000015
 40
0.0000000000000015
 40
0.0000000000000015
 40
0.0002566455321258
 40
0.0002566455321258
 40
0.0002566455321258
 40
0.0002566455321258
 10
1965.020696723723
 20
1269.078819711079
 30
0.0
 10
1964.968200004068
 20
1269.083221657924
 30
0.0
 10
1964.915698496573
 20
1269.087611186353
 30
0.0
 10
1964.863191513552
 20
1269.091986499502
 30
0.0
  0
SPLINE
  5
AD7
330
A41
100
AcDbEntity
  8
0
  6
Continuous
 62
     7
370
    15
100
AcDbSpline
210
0.0
220
0.0
230
1.0
 70
     8
 71
     3
 72
     8
 73
     4
 74
     0
 42
0.0000000001
 43
0.0000000001
 40
0.0
 40
0.0
 40
0.0
 40
0.0
 40
1.0
 40
1.0
 40
1.0
 40
1.0
 10
1965.020696723725
 20
1269.078819711079
 30
0.0
 10
1965.50973040232
 20
1268.754475041318
 30
0.0
 10
1965.988524275885
 20
1268.370254093428
 30
0.0
 10
1966.460897412036
 20
1267.948488499168
 30
0.0
  0
SPLINE
  5
AD8
330
A41
100
AcDbEntity
  8
0
  6
Continuous
 62
     7
370
    15
100
AcDbSpline
210
0.0
220
0.0
230
1.0
 70
     8
 71
     3
 72
     9
 73
     5
 74
     0
 42
0.0000000001
 43
0.0000000001
 40
0.0
 40
0.0
 40
0.0
 40
0.0
 40
0.5002255185518063
 40
0.9999999999999998
 40
0.9999999999999998
 40
0.9999999999999998
 40
0.9999999999999998
 10
1966.460897412023
 20
1267.948488499172
 30
0.0
 10
1966.474507323057
 20
1267.915284669252
 30
0.0
 10
1966.501714873511
 20
1267.848906948225
 30
0.0
 10
1966.528940431159
 20
1267.779588427981
 30
0.0
 10
1966.542547070115
 20
1267.74494480047
 30
0.0
  0
SPLINE
  5
AD9
330
A41
100
AcDbEntity
  8
0
  6
Continuous
 62
     7
370
    15
100
AcDbSpline
210
0.0
220
0.0
230
1.0
 70
     8
 71
     3
 72
    12
 73
     8
 74
     0
 42
0.0000000001
 43
0.0000000001
 40
0.0
 40
0.0
 40
0.0
 40
0.0
 40
0.5
 40
0.5
 40
0.75
 40
0.75
 40
1.0
 40
1.0
 40
1.0
 40
1.0
 10
1966.542547070128
 20
1267.744944800466
 30
0.0
 10
1966.316201019435
 20
1267.450688838676
 30
0.0
 10
1966.086967566928
 20
1267.075984598442
 30
0.0
 10
1965.736123473232
 20
1266.319065017701
 30
0.0
 10
1965.618405081236
 20
1266.035285093399
 30
0.0
 10
1965.387331979114
 20
1265.426886089841
 30
0.0
 10
1965.27309572642
 20
1265.100769569568
 30
0.0
 10
1965.15979009204
 20
1264.758967127223
 30
0.0
  0
LINE
  5
ADA
330
A41
100
AcDbEntity
  8
0
  6
Continuous
 62
     7
370
    15
100
AcDbLine
 10
1964.914841243205
 20
1260.937869184721
 30
0.0
 11
1964.914841243205
 21
1264.61756052046
 31
0.0
  0
LINE
  5
ADB
330
A41
100
AcDbEntity
  8
0
  6
Continuous
 62
     7
370
    15
100
AcDbLine
 10
1959.754321842525
 20
1263.826186803306
 30
0.0
 11
1959.754321842525
 21
1260.139620883031
 31
0.0
  0
LINE
  5
ADC
330
A41
100
AcDbEntity
  8
0
  6
Continuous
 62
     7
370
    15
100
AcDbLine
 10
1958.107134099211
 20
1265.191798143143
 30
0.0
 11
1961.025543562782
 21
1266.876560065296
 31
0.0
  0
LINE
  5
ADD
330
A41
100
AcDbEntity
  8
0
  6
Continuous
 62
     7
370
    15
100
AcDbLine
 10
1961.025543562782
 20
1266.876560065296
 30
0.0
 11
1962.050847970873
 21
1266.284664429358
 31
0.0
  0
LINE
  5
ADE
330
A41
100
AcDbEntity
  8
0
  6
Continuous
 62
     7
370
    15
100
AcDbLine
 10
1962.050847970873
 20
1266.284664429358
 30
0.0
 11
1962.970086871236
 21
1266.815329751009
 31
0.0
  0
LINE
  5
ADF
330
A41
100
AcDbEntity
  8
0
  6
Continuous
 62
     7
370
    15
100
AcDbLine
 10
1962.970086871236
 20
1266.815329751009
 30
0.0
 11
1961.944782463145
 21
1267.407225386947
 31
0.0
  0
LINE
  5
AE0
330
A41
100
AcDbEntity
  8
0
  6
Continuous
 62
     7
370
    15
100
AcDbLine
 10
1961.944782463145
 20
1267.407225386947
 30
0.0
 11
1964.863191679762
 21
1269.091987166537
 31
0.0
  0
LINE
  5
AE1
330
A41
100
AcDbEntity
  8
0
  6
Continuous
 62
     7
370
    15
100
AcDbLine
 10
1955.590189502046
 20
1266.059933305433
 30
0.0
 11
1955.590189831319
 21
1262.380241779609
 31
0.0
  0
SPLINE
  5
AE2
330
A41
100
AcDbEntity
  8
0
  6
Continuous
 62
     7
370
    15
100
AcDbSpline
210
0.0
220
0.0
230
1.0
 70
     8
 71
     3
 72
     8
 73
     4
 74
     0
 42
0.0000000001
 43
0.0000000001
 40
0.0
 40
0.0
 40
0.0
 40
0.0
 40
1.0
 40
1.0
 40
1.0
 40
1.0
 10
1957.03039009632
 20
1265.527444424649
 30
0.0
 10
1956.541356390514
 20
1265.767726035156
 30
0.0
 10
1956.062562491167
 20
1265.936308732183
 30
0.0
 10
1955.590189329886
 20
1266.059933553783
 30
0.0
  0
LINE
  5
AE3
330
A41
100
AcDbEntity
  8
0
  6
Continuous
 62
     7
370
    15
100
AcDbLine
 10
1957.030390121057
 20
1264.406727440835
 30
0.0
 11
1957.030390121057
 21
1265.527445938415
 31
0.0
  0
LINE
  5
AE4
330
A41
100
AcDbEntity
  8
0
  6
Continuous
 62
     7
370
    15
100
AcDbLine
 10
1957.949629350692
 20
1263.8760619291
 30
0.0
 11
1957.030390121057
 21
1264.406727440835
 31
0.0
  0
LINE
  5
AE5
330
A41
100
AcDbEntity
  8
0
  6
Continuous
 62
     7
370
    15
100
AcDbLine
 10
1957.949629350692
 20
1264.99678042668
 30
0.0
 11
1957.949629350692
 21
1263.8760619291
 31
0.0
  0
LINE
  5
AE6
330
A41
100
AcDbEntity
  8
0
  6
Continuous
 62
     7
370
    15
100
AcDbLine
 10
1959.389829969702
 20
1260.186756217373
 30
0.0
 11
1959.389829969702
 21
1263.866447553113
 31
0.0
  0
LINE
  5
AE7
330
A41
100
AcDbEntity
  8
0
  6
Continuous
 62
     7
370
    15
100
AcDbLine
 10
1961.944781969236
 20
1267.243745467163
 30
0.0
 11
1961.167136888171
 21
1266.7948205175
 31
0.0
  0
LINE
  5
AE8
330
A41
100
AcDbEntity
  8
0
  6
Continuous
 62
     7
370
    15
100
AcDbLine
 10
1957.949628692147
 20
1264.937392572401
 30
0.0
 11
1957.030390121057
 21
1264.406727440835
 31
0.0
  0
LINE
  5
AE9
330
A41
100
AcDbEntity
  8
0
  6
Continuous
 62
     7
370
    15
100
AcDbLine
 10
1960.106304662419
 20
1267.24374537212
 30
0.0
 11
1960.883949578848
 21
1266.7948205175
 31
0.0
  0
LINE
  5
AEA
330
A41
100
AcDbEntity
  8
0
  6
Continuous
 62
     7
370
    15
100
AcDbLine
 10
1966.542546893908
 20
1264.058379792065
 30
0.0
 11
1966.542546893908
 21
1267.744945712341
 31
0.0
  0
LINE
  5
AEB
330
A41
100
AcDbEntity
  8
0
  6
Continuous
 62
     7
370
    15
100
AcDbLine
 10
1965.159790001035
 20
1264.758966428446
 30
0.0
 11
1965.159790330307
 21
1261.079275282792
 31
0.0
  0
SPLINE
  5
AEC
330
A41
100
AcDbEntity
  8
0
  6
Continuous
 62
     7
370
    15
100
AcDbSpline
210
0.0
220
0.0
230
1.0
 70
     8
 71
     3
 72
     8
 73
     4
 74
     0
 42
0.0000000001
 43
0.0000000001
 40
0.0000000000000015
 40
0.0000000000000015
 40
0.0000000000000015
 40
0.0000000000000015
 40
0.0002566455321249
 40
0.0002566455321249
 40
0.0002566455321249
 40
0.0002566455321249
 10
1957.030390096321
 20
1265.527444424651
 30
0.0
 10
1957.082886815976
 20
1265.592457793859
 30
0.0
 10
1957.135388323471
 20
1265.657464272573
 30
0.0
 10
1957.187895306492
 20
1265.722462857917
 30
0.0
  0
LINE
  5
AED
330
A41
100
AcDbEntity
  8
0
  6
Continuous
 62
     7
370
    15
100
AcDbLine
 10
1960.106304333146
 20
1267.407225577032
 30
0.0
 11
1957.187894869575
 21
1265.722463654878
 31
0.0
  0
LINE
  5
AEE
330
A41
100
AcDbEntity
  8
0
  6
Continuous
 62
     7
370
    15
100
AcDbLine
 10
1960.106304333146
 20
1267.407225577032
 30
0.0
 11
1960.106304333146
 21
1266.345893147552
 31
0.0
  0
SPLINE
  5
AEF
330
A41
100
AcDbEntity
  8
0
  6
Continuous
 62
     7
370
    15
100
AcDbSpline
210
0.0
220
0.0
230
1.0
 70
     8
 71
     3
 72
     9
 73
     5
 74
     0
 42
0.0000000001
 43
0.0000000001
 40
0.0
 40
0.0
 40
0.0
 40
0.0
 40
0.5002180795336392
 40
1.0
 40
1.0
 40
1.0
 40
1.0
 10
1955.590189252245
 20
1266.059933958787
 30
0.0
 10
1955.576579614466
 20
1266.096877681955
 30
0.0
 10
1955.549372205665
 20
1266.17073291566
 30
0.0
 10
1955.522146610273
 20
1266.241737140265
 30
0.0
 10
1955.508539749923
 20
1266.277223768
 30
0.0
  0
SPLINE
  5
AF0
330
A41
100
AcDbEntity
  8
0
  6
Continuous
 62
     7
370
    15
100
AcDbSpline
210
0.0
220
0.0
230
1.0
 70
     8
 71
     3
 72
    12
 73
     8
 74
     0
 42
0.0000000001
 43
0.0000000001
 40
0.0
 40
0.0
 40
0.0
 40
0.0
 40
0.5000000000000004
 40
0.5000000000000004
 40
0.7500000000000001
 40
0.7500000000000001
 40
1.0
 40
1.0
 40
1.0
 40
1.0
 10
1955.508539749912
 20
1266.277223767993
 30
0.0
 10
1955.734885800604
 20
1266.95827803243
 30
0.0
 10
1955.964119253112
 20
1267.571325642693
 30
0.0
 10
1956.314963346807
 20
1268.326170156559
 30
0.0
 10
1956.432681738803
 20
1268.549631030928
 30
0.0
 10
1956.663754840925
 20
1268.936910806902
 30
0.0
 10
1956.777991093619
 20
1269.103030776368
 30
0.0
 10
1956.891296727999
 20
1269.249454850727
 30
0.0
  0
SPLINE
  5
AF1
330
A41
100
AcDbEntity
  8
0
  6
Continuous
 62
     7
370
    15
100
AcDbSpline
210
0.0
220
0.0
230
1.0
 70
     8
 71
     3
 72
     9
 73
     5
 74
     0
 42
0.0000000001
 43
0.0000000001
 40
0.0
 40
0.0
 40
0.0
 40
0.0
 40
0.4999936838962756
 40
1.0
 40
1.0
 40
1.0
 40
1.0
 10
1956.891297235886
 20
1269.249455132221
 30
0.0
 10
1956.932121471486
 20
1269.273645500623
 30
0.0
 10
1957.0137709741
 20
1269.322026848588
 30
0.0
 10
1957.095420427992
 20
1269.367915984821
 30
0.0
 10
1957.136245670645
 20
1269.390860842779
 30
0.0
  0
SPLINE
  5
AF2
330
A41
100
AcDbEntity
  8
0
  6
Continuous
 62
     7
370
    15
100
AcDbSpline
210
0.0
220
0.0
230
1.0
 70
     8
 71
     3
 72
    12
 73
     8
 74
     0
 42
0.0000000001
 43
0.0000000001
 40
0.0
 40
0.0
 40
0.0
 40
0.0
 40
0.4999999999999999
 40
0.4999999999999999
 40
0.75
 40
0.75
 40
1.0
 40
1.0
 40
1.0
 40
1.0
 10
1957.136245670637
 20
1269.390860842779
 30
0.0
 10
1957.980407675825
 20
1269.716456342804
 30
0.0
 10
1958.835464653472
 20
1269.970388299502
 30
0.0
 10
1960.144703336269
 20
1270.175970148959
 30
0.0
 10
1960.58422242957
 20
1270.215164036109
 30
0.0
 10
1961.44702626707
 20
1270.240417035445
 30
0.0
 10
1961.873621651649
 20
1270.227406490423
 30
0.0
 10
1962.296764849304
 20
1270.195982704739
 30
0.0
  0
SPLINE
  5
AF3
330
A41
100
AcDbEntity
  8
0
  6
Continuous
 62
     7
370
    15
100
AcDbSpline
210
0.0
220
0.0
230
1.0
 70
     8
 71
     3
 72
     8
 73
     4
 74
     0
 42
0.0000000001
 43
0.0000000001
 40
0.0000000000000005
 40
0.0000000000000005
 40
0.0000000000000005
 40
0.0000000000000005
 40
0.0003736204088524
 40
0.0003736204088524
 40
0.0003736204088524
 40
0.0003736204088524
 10
1962.296764849303
 20
1270.195982704739
 30
0.0
 10
1962.4182924007
 20
1270.179909192275
 30
0.0
 10
1962.539833447535
 20
1270.161893248263
 30
0.0
 10
1962.661257219871
 20
1270.141974092452
 30
0.0
  0
SPLINE
  5
AF4
330
A41
100
AcDbEntity
  8
0
  6
Continuous
 62
     7
370
    15
100
AcDbSpline
210
0.0
220
0.0
230
1.0
 70
     8
 71
     3
 72
     8
 73
     4
 74
     0
 42
0.0000000001
 43
0.0000000001
 40
0.0
 40
0.0
 40
0.0
 40
0.0
 40
1.0
 40
1.0
 40
1.0
 40
1.0
 10
1962.66125721987
 20
1270.141974092452
 30
0.0
 10
1963.133630356022
 20
1270.018349272673
 30
0.0
 10
1963.612424229586
 20
1269.849766580902
 30
0.0
 10
1964.101457908183
 20
1269.609484983764
 30
0.0
  0
SPLINE
  5
AF5
330
A41
100
AcDbEntity
  8
0
  6
Continuous
 62
     7
370
    15
100
AcDbSpline
210
0.0
220
0.0
230
1.0
 70
     8
 71
     3
 72
     8
 73
     4
 74
     0
 42
0.0000000001
 43
0.0000000001
 40
0.0000000000000007
 40
0.0000000000000007
 40
0.0000000000000007
 40
0.0000000000000007
 40
0.0002566455321258
 40
0.0002566455321258
 40
0.0002566455321258
 40
0.0002566455321258
 10
1963.94395269801
 20
1269.622651772187
 30
0.0
 10
1963.996459681031
 20
1269.618276459038
 30
0.0
 10
1964.048961188526
 20
1269.613886930609
 30
0.0
 10
1964.101457908181
 20
1269.609484983764
 30
0.0
  0
LWPOLYLINE
  5
AF6
330
A41
100
AcDbEntity
  8
0
  6
Continuous
 62
     7
370
    15
100
AcDbPolyline
 90
       34
 70
   128
 43
0.0
 10
1957.187894869575
 20
1265.722463654878
 10
1956.948818188486
 20
1265.921344086114
 10
1956.740580488161
 20
1266.13146499346
 10
1956.564758982698
 20
1266.3512368876
 10
1956.422682944184
 20
1266.578997476729
 10
1956.315426787986
 20
1266.813023261728
 10
1956.243802828753
 20
1267.051544362781
 10
1956.208351402255
 20
1267.292755924464
 10
1956.209342182467
 20
1267.534833702699
 10
1956.246766937583
 20
1267.775945850017
 10
1956.320342822738
 20
1268.014268882682
 10
1956.429513367821
 20
1268.247999656031
 10
1956.573452099475
 20
1268.475370001012
 10
1956.751070772902
 20
1268.694659840032
 10
1956.961025298759
 20
1268.9042104929
 10
1957.201727596966
 20
1269.10243646208
 10
1957.471356791958
 20
1269.287838358462
 10
1957.767873206758
 20
1269.459013641158
 10
1958.0890335095
 20
1269.614667262247
 10
1958.432408164858
 20
1269.753621741272
 10
1958.795399873292
 20
1269.874825909147
 10
1959.175262339567
 20
1269.977363081794
 10
1959.569122004723
 20
1270.060457142872
 10
1959.973999366452
 20
1270.123479909549
 10
1960.386831616565
 20
1270.165954316433
 10
1960.804495525415
 20
1270.187559262732
 10
1961.223831828623
 20
1270.188131144812
 10
1961.641668132078
 20
1270.167665673884
 10
1962.054843244643
 20
1270.126317856698
 10
1962.460231876147
 20
1270.064400286266
 10
1962.854767269707
 20
1269.982381380607
 10
1963.235464544044
 20
1269.880881750341
 10
1963.599444398511
 20
1269.760668874836
 10
1963.943952450126
 20
1269.622652678273
  0
LINE
  5
AF7
330
A41
100
AcDbEntity
  8
0
  6
Continuous
 62
     7
370
    15
100
AcDbLine
 10
1961.025543233509
 20
1267.937890898682
 30
0.0
 11
1960.000238496146
 21
1268.529786724705
 31
0.0
  0
LINE
  5
AF8
330
A41
100
AcDbEntity
  8
0
  6
Continuous
 62
     7
370
    15
100
AcDbLine
 10
1960.000238496146
 20
1268.529786724705
 30
0.0
 11
1959.080999595783
 21
1267.999121403055
 31
0.0
  0
LINE
  5
AF9
330
A41
100
AcDbEntity
  8
0
  6
Continuous
 62
     7
370
    15
100
AcDbLine
 10
1959.080999595783
 20
1267.999121403055
 30
0.0
 11
1960.106304333146
 21
1267.407225577032
 31
0.0
  0
LINE
  5
AFA
330
A41
100
AcDbEntity
  8
0
  6
Continuous
 62
     7
370
    15
100
AcDbLine
 10
1963.943952450126
 20
1269.622652678273
 30
0.0
 11
1961.025543233509
 21
1267.937890898682
 31
0.0
  0
LINE
  5
AFB
330
A41
100
AcDbEntity
  8
0
  6
Continuous
 62
     7
370
    15
100
AcDbLine
 10
1955.508539861224
 20
1262.59065864903
 30
0.0
 11
1955.508539861224
 21
1266.277224569306
 31
0.0
  0
LINE
  5
AFC
330
A41
100
AcDbEntity
  8
0
  6
Continuous
 62
     7
370
    15
100
AcDbLine
 10
1961.944782463145
 20
1267.407225386947
 30
0.0
 11
1961.944782463145
 21
1266.345892957467
 31
0.0
  0
LINE
  5
AFD
330
A41
100
AcDbEntity
  8
0
  6
Continuous
 62
     7
370
    15
100
AcDbLine
 10
1973.018427495559
 20
1237.262671001665
 30
0.0
 11
1973.965950553268
 21
1236.422497085549
 31
0.0
  0
LINE
  5
AFE
330
A41
100
AcDbEntity
  8
0
  6
Continuous
 62
     7
370
    15
100
AcDbLine
 10
1973.965950553268
 20
1236.422497085549
 30
0.0
 11
1973.965950553268
 21
1234.75897652618
 31
0.0
  0
LINE
  5
AFF
330
A41
100
AcDbEntity
  8
0
  6
Continuous
 62
     7
370
    15
100
AcDbLine
 10
1973.714121816326
 20
1234.557789168621
 30
0.0
 11
1973.965950553268
 21
1234.75897652618
 31
0.0
  0
LINE
  5
B00
330
A41
100
AcDbEntity
  8
0
  6
Continuous
 62
     7
370
    15
100
AcDbLine
 10
1973.166920062486
 20
1234.818398836458
 30
0.0
 11
1973.714121816326
 21
1234.557789168621
 31
0.0
  0
LINE
  5
B01
330
A41
100
AcDbEntity
  8
0
  6
Continuous
 62
     7
370
    15
100
AcDbLine
 10
1973.166920062486
 20
1234.818561955748
 30
0.0
 11
1973.018427495559
 21
1234.904284889971
 31
0.0
  0
LINE
  5
B02
330
A41
100
AcDbEntity
  8
0
  6
Continuous
 62
     7
370
    15
100
AcDbLine
 10
1973.688923269273
 20
1232.788371121788
 30
0.0
 11
1973.149851905928
 21
1233.154032133961
 31
0.0
  0
LINE
  5
B03
330
A41
100
AcDbEntity
  8
0
  6
Continuous
 62
     7
370
    15
100
AcDbLine
 10
1973.965950553268
 20
1232.308545625883
 30
0.0
 11
1973.688923269273
 21
1232.788371121788
 31
0.0
  0
LINE
  5
B04
330
A41
100
AcDbEntity
  8
0
  6
Continuous
 62
     7
370
    15
100
AcDbLine
 10
1973.965950553268
 20
1231.24304868773
 30
0.0
 11
1973.965950553268
 21
1232.308545625883
 31
0.0
  0
LINE
  5
B05
330
A41
100
AcDbEntity
  8
0
  6
Continuous
 62
     7
370
    15
100
AcDbLine
 10
1973.713160341345
 20
1231.097068089177
 30
0.0
 11
1973.965950553268
 21
1231.24304868773
 31
0.0
  0
LINE
  5
B06
330
A41
100
AcDbEntity
  8
0
  6
Continuous
 62
     7
370
    15
100
AcDbLine
 10
1973.713160341345
 20
1231.097068089177
 30
0.0
 11
1972.326833272899
 21
1231.897377670722
 31
0.0
  0
LINE
  5
B07
330
A41
100
AcDbEntity
  8
0
  6
Continuous
 62
     7
370
    15
100
AcDbLine
 10
1960.251587318778
 20
1238.868268780447
 30
0.0
 11
1960.414722787476
 21
1238.862237077161
 31
0.0
  0
LINE
  5
B08
330
A41
100
AcDbEntity
  8
0
  6
Continuous
 62
     7
370
    15
100
AcDbLine
 10
1960.251587318778
 20
1238.868268780447
 30
0.0
 11
1956.479357119905
 21
1241.045930921414
 31
0.0
  0
LINE
  5
B09
330
A41
100
AcDbEntity
  8
0
  6
Continuous
 62
     7
370
    15
100
AcDbLine
 10
1956.479357119905
 20
1241.045930921414
 30
0.0
 11
1956.007337770547
 21
1242.262511665935
 31
0.0
  0
LINE
  5
B0A
330
A41
100
AcDbEntity
  8
0
  6
Continuous
 62
     7
370
    15
100
AcDbLine
 10
1974.285328834571
 20
1258.118702542853
 30
0.0
 11
1974.650041319804
 21
1257.908158506684
 31
0.0
  0
LINE
  5
B0B
330
A41
100
AcDbEntity
  8
0
  6
Continuous
 62
     7
370
    15
100
AcDbLine
 10
1975.012948075996
 20
1257.100160432917
 30
0.0
 11
1974.650041319804
 21
1257.908158506684
 31
0.0
  0
LINE
  5
B0C
330
A41
100
AcDbEntity
  8
0
  6
Continuous
 62
     7
370
    15
100
AcDbLine
 10
1975.012948075996
 20
1257.100160432917
 30
0.0
 11
1973.600637475444
 21
1246.791824902915
 31
0.0
  0
LINE
  5
B0D
330
A41
100
AcDbEntity
  8
0
  6
Continuous
 62
     7
370
    15
100
AcDbLine
 10
1973.583089898484
 20
1246.779840642595
 30
0.0
 11
1973.600637475444
 21
1246.791824902915
 31
0.0
  0
LINE
  5
B0E
330
A41
100
AcDbEntity
  8
0
  6
Continuous
 62
     7
370
    15
100
AcDbLine
 10
1973.583089898484
 20
1246.779840642595
 30
0.0
 11
1972.966204916076
 21
1247.104857830459
 31
0.0
  0
LINE
  5
B0F
330
A41
100
AcDbEntity
  8
0
  6
Continuous
 62
     7
370
    15
100
AcDbLine
 10
1976.417808397894
 20
1258.928668718694
 30
0.0
 11
1974.650041319804
 21
1257.908158506684
 31
0.0
  0
LINE
  5
B10
330
A41
100
AcDbEntity
  8
0
  6
Continuous
 62
     7
370
    15
100
AcDbLine
 10
1976.780715154086
 20
1258.120670644928
 30
0.0
 11
1976.417808397894
 21
1258.928668718694
 31
0.0
  0
LINE
  5
B11
330
A41
100
AcDbEntity
  8
0
  6
Continuous
 62
     7
370
    15
100
AcDbLine
 10
1975.012948075996
 20
1257.100160432917
 30
0.0
 11
1976.780715154086
 21
1258.120670644928
 31
0.0
  0
LINE
  5
B12
330
A41
100
AcDbEntity
  8
0
  6
Continuous
 62
     7
370
    15
100
AcDbLine
 10
1975.926000773888
 20
1259.212583216743
 30
0.0
 11
1976.417808397894
 21
1258.928668718694
 31
0.0
  0
LINE
  5
B13
330
A41
100
AcDbEntity
  8
0
  6
Continuous
 62
     7
370
    15
100
AcDbLine
 10
1975.368404553534
 20
1247.812335114926
 30
0.0
 11
1976.780715154086
 21
1258.120670644928
 31
0.0
  0
LINE
  5
B14
330
A41
100
AcDbEntity
  8
0
  6
Continuous
 62
     7
370
    15
100
AcDbLine
 10
1973.600637475444
 20
1246.791824902915
 30
0.0
 11
1975.368404553534
 21
1247.812335114926
 31
0.0
  0
ARC
  5
B15
330
A41
100
AcDbEntity
  8
0
  6
Continuous
 62
     7
370
    15
100
AcDbCircle
 10
1957.816293089202
 20
1269.432294083975
 30
0.0
 40
1.086337533742453
100
AcDbArc
 50
65.84287807713734
 51
125.467621333316
  0
LINE
  5
B16
330
A41
100
AcDbEntity
  8
0
  6
Continuous
 62
     7
370
    15
100
AcDbLine
 10
1961.025543233509
 20
1267.937890898682
 30
0.0
 11
1961.025543233509
 21
1266.876558469202
 31
0.0
  0
LINE
  5
B17
330
A41
100
AcDbEntity
  8
0
  6
Continuous
 62
     7
370
    15
100
AcDbLine
 10
1960.000238496146
 20
1267.468454295225
 30
0.0
 11
1960.000238496146
 21
1268.529786724705
 31
0.0
  0
LINE
  5
B18
330
A41
100
AcDbEntity
  8
0
  6
Continuous
 62
     7
370
    15
100
AcDbLine
 10
1964.101457692553
 20
1269.609486358767
 30
0.0
 11
1964.101457692553
 21
1268.652246089835
 31
0.0
  0
LINE
  5
B19
330
A41
100
AcDbEntity
  8
0
  6
Continuous
 62
     7
370
    15
100
AcDbLine
 10
1965.804915512215
 20
1242.289596146944
 30
0.0
 11
1964.037148269489
 21
1241.26908583989
 31
0.0
  0
LINE
  5
B1A
330
A41
100
AcDbEntity
  8
0
  6
Continuous
 62
     7
370
    15
100
AcDbLine
 10
1965.822463089174
 20
1242.301580407264
 30
0.0
 11
1965.804915512215
 21
1242.289596146944
 31
0.0
  0
LINE
  5
B1B
330
A41
100
AcDbEntity
  8
0
  6
Continuous
 62
     7
370
    15
100
AcDbLine
 10
1947.479781222497
 20
1263.544438805038
 30
0.0
 11
1946.848277210557
 21
1263.179879298812
 31
0.0
  0
LINE
  5
B1C
330
A41
100
AcDbEntity
  8
0
  6
Continuous
 62
     7
370
    15
100
AcDbLine
 10
1946.848277210557
 20
1263.179879298812
 30
0.0
 11
1946.705721916278
 21
1264.886937145917
 31
0.0
  0
LINE
  5
B1D
330
A41
100
AcDbEntity
  8
0
  6
Continuous
 62
     7
370
    15
100
AcDbLine
 10
1946.705721916278
 20
1264.886937145917
 30
0.0
 11
1957.73658806209
 21
1271.254920625554
 31
0.0
  0
LINE
  5
B1E
330
A41
100
AcDbEntity
  8
0
  6
Continuous
 62
     7
370
    15
100
AcDbLine
 10
1957.73658806209
 20
1271.254920625554
 30
0.0
 11
1957.797809158366
 21
1270.521817234055
 31
0.0
  0
LINE
  5
B1F
330
A41
100
AcDbEntity
  8
0
  6
Continuous
 62
     7
370
    15
100
AcDbLine
 10
1946.161662901466
 20
1263.495921044417
 30
0.0
 11
1946.848277210557
 21
1263.179879298812
 31
0.0
  0
LINE
  5
B20
330
A41
100
AcDbEntity
  8
0
  6
Continuous
 62
     7
370
    15
100
AcDbLine
 10
1946.144598696175
 20
1263.505772000448
 30
0.0
 11
1946.161662901466
 21
1263.495921044417
 31
0.0
  0
LINE
  5
B21
330
A41
100
AcDbEntity
  8
0
  6
Continuous
 62
     7
370
    15
100
AcDbLine
 10
1946.705721916278
 20
1264.886937145917
 30
0.0
 11
1946.002216763738
 21
1265.210755606226
 31
0.0
  0
LINE
  5
B22
330
A41
100
AcDbEntity
  8
0
  6
Continuous
 62
     7
370
    15
100
AcDbLine
 10
1946.002216763738
 20
1265.210755606226
 30
0.0
 11
1946.144598696175
 21
1263.505772000448
 31
0.0
  0
LINE
  5
B23
330
A41
100
AcDbEntity
  8
0
  6
Continuous
 62
     7
370
    15
100
AcDbLine
 10
1957.73658806209
 20
1271.254920625554
 30
0.0
 11
1957.03308290955
 21
1271.578739085863
 31
0.0
  0
LINE
  5
B24
330
A41
100
AcDbEntity
  8
0
  6
Continuous
 62
     7
370
    15
100
AcDbLine
 10
1957.03308290955
 20
1271.578739085863
 30
0.0
 11
1946.002216763738
 21
1265.210755606226
 31
0.0
  0
ARC
  5
B25
330
A41
100
AcDbEntity
  8
0
  6
Continuous
 62
     7
370
    15
100
AcDbCircle
 10
1972.107267841341
 20
1242.791128438559
 30
0.0
 40
0.4598903773676332
100
AcDbArc
 50
303.8735652444696
 51
359.4745617230925
  0
LINE
  5
B26
330
A41
100
AcDbEntity
  8
0
  6
Continuous
 62
     7
370
    15
100
AcDbLine
 10
1945.249318962101
 20
1263.859324644815
 30
0.0
 11
1946.07525626439
 21
1264.336128100379
 31
0.0
  0
LINE
  5
B27
330
A41
100
AcDbEntity
  8
0
  6
Continuous
 62
     7
370
    15
100
AcDbLine
 10
1964.420008924273
 20
1230.911742282845
 30
0.0
 11
1966.187776166998
 21
1231.932252589898
 31
0.0
  0
LINE
  5
B28
330
A41
100
AcDbEntity
  8
0
  6
Continuous
 62
     7
370
    15
100
AcDbLine
 10
1962.123456124873
 20
1232.948108770745
 30
0.0
 11
1963.891223367598
 21
1233.968619077798
 31
0.0
  0
LINE
  5
B29
330
A41
100
AcDbEntity
  8
0
  6
Continuous
 62
     7
370
    15
100
AcDbLine
 10
1963.891223367598
 20
1233.968619077798
 30
0.0
 11
1966.187776166998
 21
1231.932252589898
 31
0.0
  0
ELLIPSE
  5
B2A
330
A41
100
AcDbEntity
  8
0
  6
Continuous
 62
     7
370
    15
100
AcDbEllipse
 10
1976.1362068297
 20
1249.803513478876
 30
0.0
 11
14.76106545131719
 21
-5.449708668310194
 31
0.0
210
0.0
220
0.0
230
1.0
 40
0.705645512557302
 41
4.510006813572037
 42
4.566383507154703
  0
LINE
  5
B2B
330
A41
100
AcDbEntity
  8
0
  6
Continuous
 62
     7
370
    15
100
AcDbLine
 10
1972.766663460615
 20
1237.90360525181
 30
0.0
 11
1970.184013902256
 21
1240.291122855204
 31
0.0
  0
LINE
  5
B2C
330
A41
100
AcDbEntity
  8
0
  6
Continuous
 62
     7
370
    15
100
AcDbLine
 10
1972.766663460615
 20
1237.90360525181
 30
0.0
 11
1965.28547338502
 21
1233.584806149393
 31
0.0
  0
LINE
  5
B2D
330
A41
100
AcDbEntity
  8
0
  6
Continuous
 62
     7
370
    15
100
AcDbLine
 10
1965.28547338502
 20
1233.584806149393
 30
0.0
 11
1962.70282382666
 21
1235.972323752786
 31
0.0
  0
ELLIPSE
  5
B2E
330
A41
100
AcDbEntity
  8
0
  6
Continuous
 62
     7
370
    15
100
AcDbEllipse
 10
1948.637398776215
 20
1233.934139653739
 30
0.0
 11
14.78488381056834
 21
-5.458502282789027
 31
0.0
210
0.0
220
0.0
230
1.0
 40
0.7056455125572992
 41
0.6560130187221273
 42
1.01821861840151
  0
SPLINE
  5
B2F
330
A41
100
AcDbEntity
  8
0
  6
Continuous
 62
     7
370
    15
100
AcDbSpline
210
0.0
220
0.0
230
1.0
 70
     8
 71
     3
 72
    14
 73
    10
 74
     0
 42
0.0000000001
 43
0.0000000001
 40
0.0
 40
0.0
 40
0.0
 40
0.0
 40
0.0002854184788765
 40
0.0002854184788765
 40
0.0002854184788765
 40
0.0005898584237432
 40
0.0005898584237432
 40
0.0005898584237432
 40
0.0008942983685956
 40
0.0008942983685956
 40
0.0008942983685956
 40
0.0008942983685956
 10
1959.676259519877
 20
1239.949270129693
 30
0.0
 10
1959.611634857297
 20
1240.008712409375
 30
0.0
 10
1959.547019780115
 20
1240.068160263606
 30
0.0
 10
1959.48240830317
 20
1240.127610209726
 30
0.0
 10
1959.413490850412
 20
1240.191022145917
 30
0.0
 10
1959.344577720256
 20
1240.254436594673
 30
0.0
 10
1959.275663773271
 20
1240.317850568581
 30
0.0
 10
1959.206749826325
 20
1240.381264542453
 30
0.0
 10
1959.137835253022
 20
1240.444678152556
 30
0.0
 10
1959.068914562307
 20
1240.508088206418
 30
0.0
  0
ELLIPSE
  5
B30
330
A41
100
AcDbEntity
  8
0
  6
Continuous
 62
     7
370
    15
100
AcDbEllipse
 10
1946.165698171904
 20
1232.565754120358
 30
0.0
 11
18.113770709042
 21
-6.687510029300796
 31
0.0
210
0.0
220
0.0
230
1.0
 40
0.7056455125573013
 41
1.065082653403514
 42
1.172908305498207
  0
LINE
  5
B31
330
A41
100
AcDbEntity
  8
0
  6
Continuous
 62
     7
370
    15
100
AcDbLine
 10
1957.53464950462
 20
1241.757925940361
 30
0.0
 11
1958.164406727253
 21
1242.121477046584
 31
0.0
  0
LINE
  5
B32
330
A41
100
AcDbEntity
  8
0
  6
Continuous
 62
     7
370
    15
100
AcDbLine
 10
1966.187776166998
 20
1230.268732030528
 30
0.0
 11
1964.420008924273
 21
1229.248221723475
 31
0.0
  0
LINE
  5
B33
330
A41
100
AcDbEntity
  8
0
  6
Continuous
 62
     7
370
    15
100
AcDbLine
 10
1966.187776166998
 20
1231.932252589898
 30
0.0
 11
1966.187776166998
 21
1230.268732030528
 31
0.0
  0
LINE
  5
B34
330
A41
100
AcDbEntity
  8
0
  6
Continuous
 62
     7
370
    15
100
AcDbLine
 10
1965.5372375846
 20
1232.509088092869
 30
0.0
 11
1965.5372375846
 21
1233.04848175998
 31
0.0
  0
LINE
  5
B35
330
A41
100
AcDbEntity
  8
0
  6
Continuous
 62
     7
370
    15
100
AcDbLine
 10
1965.5372375846
 20
1233.04848175998
 30
0.0
 11
1973.018427660195
 21
1237.367280862397
 31
0.0
  0
LINE
  5
B36
330
A41
100
AcDbEntity
  8
0
  6
Continuous
 62
     7
370
    15
100
AcDbLine
 10
1973.018427660195
 20
1237.367280862397
 30
0.0
 11
1973.018427660195
 21
1234.732839116568
 31
0.0
  0
LINE
  5
B37
330
A41
100
AcDbEntity
  8
0
  6
Continuous
 62
     7
370
    15
100
AcDbLine
 10
1973.018427660195
 20
1234.732839116568
 30
0.0
 11
1973.166920062486
 21
1234.818561955748
 31
0.0
  0
LINE
  5
B38
330
A41
100
AcDbEntity
  8
0
  6
Continuous
 62
     7
370
    15
100
AcDbLine
 10
1974.757910251667
 20
1235.160355187445
 30
0.0
 11
1974.757910251667
 21
1234.08234495124
 31
0.0
  0
LINE
  5
B39
330
A41
100
AcDbEntity
  8
0
  6
Continuous
 62
     7
370
    15
100
AcDbLine
 10
1974.757910251667
 20
1234.08234495124
 30
0.0
 11
1972.990143338214
 21
1233.061834834272
 31
0.0
  0
LINE
  5
B3A
330
A41
100
AcDbEntity
  8
0
  6
Continuous
 62
     7
370
    15
100
AcDbLine
 10
1972.990143338214
 20
1233.061834834272
 30
0.0
 11
1972.990143338214
 21
1232.449429248255
 31
0.0
  0
LINE
  5
B3B
330
A41
100
AcDbEntity
  8
0
  6
Continuous
 62
     7
370
    15
100
AcDbLine
 10
1965.565522071218
 20
1228.532299264979
 30
0.0
 11
1965.565522071218
 21
1228.775692209946
 31
0.0
  0
LINE
  5
B3C
330
A41
100
AcDbEntity
  8
0
  6
Continuous
 62
     7
370
    15
100
AcDbLine
 10
1965.565522071218
 20
1228.775692209946
 30
0.0
 11
1963.797755487036
 21
1227.755182283063
 31
0.0
  0
LINE
  5
B3D
330
A41
100
AcDbEntity
  8
0
  6
Continuous
 62
     7
370
    15
100
AcDbLine
 10
1963.797755487036
 20
1227.755182283063
 30
0.0
 11
1963.797755487036
 21
1229.223452759363
 31
0.0
  0
ARC
  5
B3E
330
A41
100
AcDbEntity
  8
0
  6
Continuous
 62
     7
370
    15
100
AcDbCircle
 10
1965.012161100003
 20
1233.156269713365
 30
0.0
 40
0.3133537005961493
100
AcDbArc
 50
2.927323356405954
 51
47.34853916360717
  0
LINE
  5
B3F
330
A41
100
AcDbEntity
  8
0
  6
Continuous
 62
     7
370
    15
100
AcDbLine
 10
1962.70282382666
 20
1235.972323752786
 30
0.0
 11
1962.70282382666
 21
1235.719498358819
 31
0.0
  0
ARC
  5
B40
330
A41
100
AcDbEntity
  8
0
  6
Continuous
 62
     7
370
    15
100
AcDbCircle
 10
1964.754865256161
 20
1233.008470878447
 30
0.0
 40
0.7833947478424916
100
AcDbArc
 50
2.9275821398271
 51
47.36550800938974
  0
LINE
  5
B41
330
A41
100
AcDbEntity
  8
0
  6
Continuous
 62
     7
370
    15
100
AcDbLine
 10
1965.325105910599
 20
1233.17227243809
 30
0.0
 11
1965.325105910599
 21
1232.697186554911
 31
0.0
  0
LINE
  5
B42
330
A41
100
AcDbEntity
  8
0
  6
Continuous
 62
     7
370
    15
100
AcDbLine
 10
1962.70282382666
 20
1235.719498358819
 30
0.0
 11
1965.224469773067
 21
1233.38673786522
 31
0.0
  0
LINE
  5
B43
330
A41
100
AcDbEntity
  8
0
  6
Continuous
 62
     7
370
    15
100
AcDbLine
 10
1975.350856976574
 20
1247.800350854606
 30
0.0
 11
1973.583089898484
 21
1246.779840642595
 31
0.0
  0
LINE
  5
B44
330
A41
100
AcDbEntity
  8
0
  6
Continuous
 62
     7
370
    15
100
AcDbLine
 10
1975.368404553534
 20
1247.812335114926
 30
0.0
 11
1975.350856976574
 21
1247.800350854606
 31
0.0
  0
LINE
  5
B45
330
A41
100
AcDbEntity
  8
0
  6
Continuous
 62
     7
370
    15
100
AcDbLine
 10
1965.935947430057
 20
1230.067544672969
 30
0.0
 11
1964.168180187331
 21
1229.047034365916
 31
0.0
  0
LINE
  5
B46
330
A41
100
AcDbEntity
  8
0
  6
Continuous
 62
     7
370
    15
100
AcDbLine
 10
1965.935947430057
 20
1230.067544672969
 30
0.0
 11
1966.187776166998
 21
1230.268732030528
 31
0.0
  0
LINE
  5
B47
330
A41
100
AcDbEntity
  8
0
  6
Continuous
 62
     7
370
    15
100
AcDbLine
 10
1963.769134484175
 20
1234.001323115628
 30
0.0
 11
1962.001367241448
 21
1232.980812808575
 31
0.0
  0
ARC
  5
B48
330
A41
100
AcDbEntity
  8
0
  6
Continuous
 62
     7
370
    15
100
AcDbCircle
 10
1963.806703691536
 20
1233.897334665859
 30
0.0
 40
0.1105669165127074
100
AcDbArc
 50
40.1444883640874
 51
109.8639010762002
  0
ARC
  5
B49
330
A41
100
AcDbEntity
  8
0
  6
Continuous
 62
     7
370
    15
100
AcDbCircle
 10
1972.236055331757
 20
1237.327269980865
 30
0.0
 40
0.783394747842095
100
AcDbArc
 50
2.927582139814089
 51
47.36550800940814
  0
LINE
  5
B4A
330
A41
100
AcDbEntity
  8
0
  6
Continuous
 62
     7
370
    15
100
AcDbLine
 10
1961.664437431918
 20
1232.951374853862
 30
0.0
 11
1963.432204674644
 21
1233.971885160915
 31
0.0
  0
LINE
  5
B4B
330
A41
100
AcDbEntity
  8
0
  6
Continuous
 62
     7
370
    15
100
AcDbLine
 10
1961.47050661103
 20
1233.287272127346
 30
0.0
 11
1963.238273853756
 21
1234.307782434399
 31
0.0
  0
LINE
  5
B4C
330
A41
100
AcDbEntity
  8
0
  6
Continuous
 62
     7
370
    15
100
AcDbLine
 10
1963.238273853756
 20
1234.307782434399
 30
0.0
 11
1963.432204674644
 21
1233.971885160915
 31
0.0
  0
LWPOLYLINE
  5
B4D
330
A41
100
AcDbEntity
  8
0
  6
Continuous
 62
     7
370
    15
100
AcDbPolyline
 90
        9
 70
   128
 43
0.0
 10
1963.432204674644
 20
1233.971885160915
 10
1963.447526371167
 20
1233.948518714645
 10
1963.465008093676
 20
1233.927636523091
 10
1963.483976809684
 20
1233.910041571914
 10
1963.503704168965
 20
1233.896409464049
 10
1963.523431528246
 20
1233.887264847704
 10
1963.542400244254
 20
1233.882958985551
 10
1963.559881966763
 20
1233.883657209924
 10
1963.573681108383
 20
1233.888490485951
  0
LINE
  5
B4E
330
A41
100
AcDbEntity
  8
0
  6
Continuous
 62
     7
370
    15
100
AcDbLine
 10
1963.059523800865
 20
1234.410972643468
 30
0.0
 11
1961.291756558139
 21
1233.390462336414
 31
0.0
  0
LWPOLYLINE
  5
B4F
330
A41
100
AcDbEntity
  8
0
  6
Continuous
 62
     7
370
    15
100
AcDbPolyline
 90
        9
 70
   128
 43
0.0
 10
1963.238273853756
 20
1234.307782434399
 10
1963.219120745285
 20
1234.336990777318
 10
1963.197268921422
 20
1234.363093516791
 10
1963.173557367867
 20
1234.38508768099
 10
1963.14889882731
 20
1234.402126960363
 10
1963.124240286753
 20
1234.413557825912
 10
1963.100530050288
 20
1234.418939678377
 10
1963.078676909335
 20
1234.41806727805
 10
1963.059523800865
 20
1234.410972643468
  0
LINE
  5
B50
330
A41
100
AcDbEntity
  8
0
  6
Continuous
 62
     7
370
    15
100
AcDbLine
 10
1963.585623813036
 20
1229.324482402908
 30
0.0
 11
1963.585623813036
 21
1227.877643291808
 31
0.0
  0
LINE
  5
B51
330
A41
100
AcDbEntity
  8
0
  6
Continuous
 62
     7
370
    15
100
AcDbLine
 10
1963.797755487036
 20
1227.755182283063
 30
0.0
 11
1963.585623813036
 21
1227.877643291808
 31
0.0
  0
LINE
  5
B52
330
A41
100
AcDbEntity
  8
0
  6
Continuous
 62
     7
370
    15
100
AcDbLine
 10
1959.676259293638
 20
1239.698919907656
 30
0.0
 11
1959.676259293638
 21
1239.949270375144
 31
0.0
  0
ELLIPSE
  5
B53
330
A41
100
AcDbEntity
  8
0
  6
Continuous
 62
     7
370
    15
100
AcDbEllipse
 10
1948.637398776215
 20
1233.683943710168
 30
0.0
 11
14.78233173696529
 21
-5.47145745591311
 31
0.0
210
0.0
220
0.0
230
1.0
 40
0.7057626700753103
 41
0.6566747504149319
 42
1.018880350094311
  0
LINE
  5
B54
330
A41
100
AcDbEntity
  8
0
  6
Continuous
 62
     7
370
    15
100
AcDbLine
 10
1963.408846759491
 20
1227.775592071018
 30
0.0
 11
1963.585623813036
 21
1227.877643291808
 31
0.0
  0
LINE
  5
B55
330
A41
100
AcDbEntity
  8
0
  6
Continuous
 62
     7
370
    15
100
AcDbLine
 10
1960.954826748609
 20
1233.361024381701
 30
0.0
 11
1962.722593991335
 21
1234.381534688754
 31
0.0
  0
LINE
  5
B56
330
A41
100
AcDbEntity
  8
0
  6
Continuous
 62
     7
370
    15
100
AcDbLine
 10
1960.76089592772
 20
1233.696921655186
 30
0.0
 11
1962.528663170446
 21
1234.717431962238
 31
0.0
  0
LINE
  5
B57
330
A41
100
AcDbEntity
  8
0
  6
Continuous
 62
     7
370
    15
100
AcDbLine
 10
1962.528663170446
 20
1234.717431962238
 30
0.0
 11
1962.722593991335
 21
1234.381534688754
 31
0.0
  0
LWPOLYLINE
  5
B58
330
A41
100
AcDbEntity
  8
0
  6
Continuous
 62
     7
370
    15
100
AcDbPolyline
 90
        9
 70
   128
 43
0.0
 10
1962.722593991335
 20
1234.381534688754
 10
1962.737917004946
 20
1234.358167482145
 10
1962.755398727455
 20
1234.337285290591
 10
1962.774367443463
 20
1234.319690339414
 10
1962.794093485655
 20
1234.306058991888
 10
1962.813820844937
 20
1234.296914375544
 10
1962.832789560944
 20
1234.29260851339
 10
1962.850271283453
 20
1234.293306737763
 10
1962.864070425074
 20
1234.29814001379
  0
LINE
  5
B59
330
A41
100
AcDbEntity
  8
0
  6
Continuous
 62
     7
370
    15
100
AcDbLine
 10
1962.349913117555
 20
1234.820622171307
 30
0.0
 11
1960.582145874829
 21
1233.800111864254
 31
0.0
  0
LWPOLYLINE
  5
B5A
330
A41
100
AcDbEntity
  8
0
  6
Continuous
 62
     7
370
    15
100
AcDbPolyline
 90
        9
 70
   128
 43
0.0
 10
1962.528663170446
 20
1234.717431962238
 10
1962.509510061976
 20
1234.746640305157
 10
1962.487658238112
 20
1234.77274304463
 10
1962.463946684557
 20
1234.794737208829
 10
1962.439288144
 20
1234.811776488202
 10
1962.414629603443
 20
1234.823207353752
 10
1962.390919366978
 20
1234.828589206216
 10
1962.369067543114
 20
1234.82771604555
 10
1962.349913117555
 20
1234.820622171307
  0
LINE
  5
B5B
330
A41
100
AcDbEntity
  8
0
  6
Continuous
 62
     7
370
    15
100
AcDbLine
 10
1964.420008924273
 20
1226.797790823178
 30
0.0
 11
1966.187776166998
 21
1227.818301130231
 31
0.0
  0
LINE
  5
B5C
330
A41
100
AcDbEntity
  8
0
  6
Continuous
 62
     7
370
    15
100
AcDbLine
 10
1964.142981640278
 20
1227.277616319084
 30
0.0
 11
1965.910748883004
 21
1228.298126626137
 31
0.0
  0
LINE
  5
B5D
330
A41
100
AcDbEntity
  8
0
  6
Continuous
 62
     7
370
    15
100
AcDbLine
 10
1965.910748883004
 20
1228.298126626137
 30
0.0
 11
1966.187776166998
 21
1227.818301130231
 31
0.0
  0
LINE
  5
B5E
330
A41
100
AcDbEntity
  8
0
  6
Continuous
 62
     7
370
    15
100
AcDbLine
 10
1965.371677519659
 20
1228.663787638309
 30
0.0
 11
1965.910748883004
 21
1228.298126626137
 31
0.0
  0
LINE
  5
B5F
330
A41
100
AcDbEntity
  8
0
  6
Continuous
 62
     7
370
    15
100
AcDbLine
 10
1964.420008924273
 20
1225.732293885026
 30
0.0
 11
1966.187776166998
 21
1226.752804192079
 31
0.0
  0
LINE
  5
B60
330
A41
100
AcDbEntity
  8
0
  6
Continuous
 62
     7
370
    15
100
AcDbLine
 10
1966.187776166998
 20
1227.818301130231
 30
0.0
 11
1966.187776166998
 21
1226.752804192079
 31
0.0
  0
LINE
  5
B61
330
A41
100
AcDbEntity
  8
0
  6
Continuous
 62
     7
370
    15
100
AcDbLine
 10
1960.245216065299
 20
1233.770673909541
 30
0.0
 11
1962.012983308025
 21
1234.791184216594
 31
0.0
  0
LINE
  5
B62
330
A41
100
AcDbEntity
  8
0
  6
Continuous
 62
     7
370
    15
100
AcDbLine
 10
1960.051286561499
 20
1234.106570422686
 30
0.0
 11
1961.819053804225
 21
1235.127080729738
 31
0.0
  0
LINE
  5
B63
330
A41
100
AcDbEntity
  8
0
  6
Continuous
 62
     7
370
    15
100
AcDbLine
 10
1961.819053804225
 20
1235.127080729738
 30
0.0
 11
1962.012983308025
 21
1234.791184216594
 31
0.0
  0
LINE
  5
B64
330
A41
100
AcDbEntity
  8
0
  6
Continuous
 62
     7
370
    15
100
AcDbLine
 10
1954.165547326309
 20
1239.287212662841
 30
0.0
 11
1952.397780083583
 21
1238.266702355788
 31
0.0
  0
LINE
  5
B65
330
A41
100
AcDbEntity
  8
0
  6
Continuous
 62
     7
370
    15
100
AcDbLine
 10
1954.165547326309
 20
1246.470133342499
 30
0.0
 11
1954.165547326309
 21
1239.287212662841
 31
0.0
  0
LWPOLYLINE
  5
B66
330
A41
100
AcDbEntity
  8
0
  6
Continuous
 62
     7
370
    15
100
AcDbPolyline
 90
        9
 70
   128
 43
0.0
 10
1962.012983308025
 20
1234.791184216594
 10
1962.028306321637
 20
1234.767817009984
 10
1962.045788044146
 20
1234.746934818431
 10
1962.064756760154
 20
1234.729339867254
 10
1962.084482802346
 20
1234.715708519728
 10
1962.104210161627
 20
1234.706563903383
 10
1962.123178877635
 20
1234.702258041229
 10
1962.140660600144
 20
1234.702956265602
 10
1962.154461058853
 20
1234.70778878129
  0
LINE
  5
B67
330
A41
100
AcDbEntity
  8
0
  6
Continuous
 62
     7
370
    15
100
AcDbLine
 10
1961.640303751335
 20
1235.230270938807
 30
0.0
 11
1959.872536508608
 21
1234.209760631754
 31
0.0
  0
LWPOLYLINE
  5
B68
330
A41
100
AcDbEntity
  8
0
  6
Continuous
 62
     7
370
    15
100
AcDbPolyline
 90
        9
 70
   128
 43
0.0
 10
1961.819053804225
 20
1235.127080729738
 10
1961.799899378666
 20
1235.156289832996
 10
1961.778047554802
 20
1235.182392572469
 10
1961.754337318337
 20
1235.204385976329
 10
1961.72967877778
 20
1235.221425255702
 10
1961.705020237223
 20
1235.232856121252
 10
1961.681308683668
 20
1235.238238734056
 10
1961.659456859805
 20
1235.237365573389
 10
1961.640303751335
 20
1235.230270938807
  0
LINE
  5
B69
330
A41
100
AcDbEntity
  8
0
  6
Continuous
 62
     7
370
    15
100
AcDbLine
 10
1959.535605381989
 20
1234.18032343738
 30
0.0
 11
1961.303372624715
 21
1235.200833744433
 31
0.0
  0
LINE
  5
B6A
330
A41
100
AcDbEntity
  8
0
  6
Continuous
 62
     7
370
    15
100
AcDbLine
 10
1959.341675219645
 20
1234.516220330695
 30
0.0
 11
1961.109442462371
 21
1235.536730637748
 31
0.0
  0
LINE
  5
B6B
330
A41
100
AcDbEntity
  8
0
  6
Continuous
 62
     7
370
    15
100
AcDbLine
 10
1961.109442462371
 20
1235.536730637748
 30
0.0
 11
1961.303372624715
 21
1235.200833744433
 31
0.0
  0
LWPOLYLINE
  5
B6C
330
A41
100
AcDbEntity
  8
0
  6
Continuous
 62
     7
370
    15
100
AcDbPolyline
 90
        9
 70
   128
 43
0.0
 10
1961.303372624715
 20
1235.200833744433
 10
1961.318695638327
 20
1235.177466537824
 10
1961.336177360836
 20
1235.15658434627
 10
1961.355146076844
 20
1235.138989395093
 10
1961.374873436125
 20
1235.125357287227
 10
1961.394599478317
 20
1235.116213431222
 10
1961.413568194325
 20
1235.111907569069
 10
1961.431049916834
 20
1235.112605793442
 10
1961.444850375543
 20
1235.117438309129
  0
LINE
  5
B6D
330
A41
100
AcDbEntity
  8
0
  6
Continuous
 62
     7
370
    15
100
AcDbLine
 10
1960.930693068025
 20
1235.639920466647
 30
0.0
 11
1959.162925825299
 21
1234.619410159593
 31
0.0
  0
LWPOLYLINE
  5
B6E
330
A41
100
AcDbEntity
  8
0
  6
Continuous
 62
     7
370
    15
100
AcDbPolyline
 90
        9
 70
   128
 43
0.0
 10
1961.109442462371
 20
1235.536730637748
 10
1961.090289353901
 20
1235.565938980666
 10
1961.068436871492
 20
1235.592042100308
 10
1961.044725976482
 20
1235.614035884338
 10
1961.020067435926
 20
1235.631075163711
 10
1960.995409553913
 20
1235.642505649091
 10
1960.971698658903
 20
1235.647887881725
 10
1960.949846176495
 20
1235.647015101229
 10
1960.930693068025
 20
1235.639920466647
  0
LINE
  5
B6F
330
A41
100
AcDbEntity
  8
0
  6
Continuous
 62
     7
370
    15
100
AcDbLine
 10
1964.16721871235
 20
1225.586313286472
 30
0.0
 11
1965.934985955075
 21
1226.606823593525
 31
0.0
  0
LINE
  5
B70
330
A41
100
AcDbEntity
  8
0
  6
Continuous
 62
     7
370
    15
100
AcDbLine
 10
1965.934985955075
 20
1226.606823593525
 30
0.0
 11
1966.187776166998
 21
1226.752804192079
 31
0.0
  0
LINE
  5
B71
330
A41
100
AcDbEntity
  8
0
  6
Continuous
 62
     7
370
    15
100
AcDbLine
 10
1958.825995357224
 20
1234.589972585049
 30
0.0
 11
1960.59376259995
 21
1235.610482892103
 31
0.0
  0
LINE
  5
B72
330
A41
100
AcDbEntity
  8
0
  6
Continuous
 62
     7
370
    15
100
AcDbLine
 10
1958.63206519488
 20
1234.925869478364
 30
0.0
 11
1960.399832437605
 21
1235.946379785417
 31
0.0
  0
LINE
  5
B73
330
A41
100
AcDbEntity
  8
0
  6
Continuous
 62
     7
370
    15
100
AcDbLine
 10
1960.399832437605
 20
1235.946379785417
 30
0.0
 11
1960.59376259995
 21
1235.610482892103
 31
0.0
  0
LWPOLYLINE
  5
B74
330
A41
100
AcDbEntity
  8
0
  6
Continuous
 62
     7
370
    15
100
AcDbPolyline
 90
        9
 70
   128
 43
0.0
 10
1960.59376259995
 20
1235.610482892103
 10
1960.609085613562
 20
1235.587115685494
 10
1960.626567336071
 20
1235.56623349394
 10
1960.645536052078
 20
1235.548638542762
 10
1960.665262752815
 20
1235.535006815067
 10
1960.684989453552
 20
1235.525862578892
 10
1960.70395816956
 20
1235.521556716739
 10
1960.721439892068
 20
1235.522254941111
 10
1960.735239692233
 20
1235.527087836969
  0
LINE
  5
B75
330
A41
100
AcDbEntity
  8
0
  6
Continuous
 62
     7
370
    15
100
AcDbLine
 10
1960.221082384714
 20
1236.049569994486
 30
0.0
 11
1958.453315141989
 21
1235.029059687433
 31
0.0
  0
LWPOLYLINE
  5
B76
330
A41
100
AcDbEntity
  8
0
  6
Continuous
 62
     7
370
    15
100
AcDbPolyline
 90
        9
 70
   128
 43
0.0
 10
1960.399832437605
 20
1235.946379785417
 10
1960.380678670591
 20
1235.975588508505
 10
1960.358826846727
 20
1236.001691247978
 10
1960.335115951717
 20
1236.023685032008
 10
1960.31045741116
 20
1236.04072431138
 10
1960.285798870603
 20
1236.052155176931
 10
1960.262087975593
 20
1236.057537409565
 10
1960.24023615173
 20
1236.056664248898
 10
1960.221082384714
 20
1236.049569994486
  0
LINE
  5
B77
330
A41
100
AcDbEntity
  8
0
  6
Continuous
 62
     7
370
    15
100
AcDbLine
 10
1958.116384673914
 20
1234.999622112889
 30
0.0
 11
1959.88415191664
 21
1236.020132419942
 31
0.0
  0
LINE
  5
B78
330
A41
100
AcDbEntity
  8
0
  6
Continuous
 62
     7
370
    15
100
AcDbLine
 10
1957.92245451157
 20
1235.335519006203
 30
0.0
 11
1959.690221754296
 21
1236.356029313256
 31
0.0
  0
LINE
  5
B79
330
A41
100
AcDbEntity
  8
0
  6
Continuous
 62
     7
370
    15
100
AcDbLine
 10
1959.690221754296
 20
1236.356029313256
 30
0.0
 11
1959.88415191664
 21
1236.020132419942
 31
0.0
  0
LWPOLYLINE
  5
B7A
330
A41
100
AcDbEntity
  8
0
  6
Continuous
 62
     7
370
    15
100
AcDbPolyline
 90
        9
 70
   128
 43
0.0
 10
1959.88415191664
 20
1236.020132419942
 10
1959.899474930252
 20
1235.996765213333
 10
1959.916956652761
 20
1235.975883021779
 10
1959.935925368769
 20
1235.958288070602
 10
1959.955652069506
 20
1235.944656342906
 10
1959.975378770242
 20
1235.935512106731
 10
1959.99434748625
 20
1235.931206244578
 10
1960.011829208759
 20
1235.931904468951
 10
1960.025629008924
 20
1235.936737364808
  0
LINE
  5
B7B
330
A41
100
AcDbEntity
  8
0
  6
Continuous
 62
     7
370
    15
100
AcDbLine
 10
1959.511471701405
 20
1236.459219522325
 30
0.0
 11
1957.743704458679
 21
1235.438709215272
 31
0.0
  0
LWPOLYLINE
  5
B7C
330
A41
100
AcDbEntity
  8
0
  6
Continuous
 62
     7
370
    15
100
AcDbPolyline
 90
        9
 70
   128
 43
0.0
 10
1959.690221754296
 20
1236.356029313256
 10
1959.671068645826
 20
1236.385237656175
 10
1959.649216163418
 20
1236.411340775817
 10
1959.625505268407
 20
1236.433334559847
 10
1959.600846727851
 20
1236.45037383922
 10
1959.576188187294
 20
1236.46180470477
 10
1959.552477292284
 20
1236.467186937404
 10
1959.53062546842
 20
1236.466313776737
 10
1959.511471701405
 20
1236.459219522325
  0
LINE
  5
B7D
330
A41
100
AcDbEntity
  8
0
  6
Continuous
 62
     7
370
    15
100
AcDbLine
 10
1957.409278435369
 20
1235.40782585554
 30
0.0
 11
1959.177045678094
 21
1236.428336162594
 31
0.0
  0
LINE
  5
B7E
330
A41
100
AcDbEntity
  8
0
  6
Continuous
 62
     7
370
    15
100
AcDbLine
 10
1957.21534761448
 20
1235.743723129025
 30
0.0
 11
1958.983114857205
 21
1236.764233436078
 31
0.0
  0
LINE
  5
B7F
330
A41
100
AcDbEntity
  8
0
  6
Continuous
 62
     7
370
    15
100
AcDbLine
 10
1958.983114857205
 20
1236.764233436078
 30
0.0
 11
1959.177045678094
 21
1236.428336162594
 31
0.0
  0
LINE
  5
B80
330
A41
100
AcDbEntity
  8
0
  6
Continuous
 62
     7
370
    15
100
AcDbLine
 10
1957.479526036579
 20
1235.333081606507
 30
0.0
 11
1959.247293279305
 21
1236.35359191356
 31
0.0
  0
ARC
  5
B81
330
A41
100
AcDbEntity
  8
0
  6
Continuous
 62
     7
370
    15
100
AcDbCircle
 10
1959.288231020997
 20
1236.412701044596
 30
0.0
 40
0.0719012382838029
100
AcDbArc
 50
235.2943402958622
 51
292.7352819652448
  0
ARC
  5
B82
330
A41
100
AcDbEntity
  8
0
  6
Continuous
 62
     7
370
    15
100
AcDbCircle
 10
1972.749502170139
 20
1232.420412828741
 30
0.0
 40
0.2423842494339834
100
AcDbArc
 50
304.4369130689751
 51
6.8755092564618
  0
ARC
  5
B83
330
A41
100
AcDbEntity
  8
0
  6
Continuous
 62
     7
370
    15
100
AcDbCircle
 10
1959.358651231875
 20
1236.528633382738
 30
0.0
 40
0.2074611036613343
100
AcDbArc
 50
208.9110176413961
 51
237.5362807513853
  0
LINE
  5
B84
330
A41
100
AcDbEntity
  8
0
  6
Continuous
 62
     7
370
    15
100
AcDbLine
 10
1958.804365462859
 20
1236.867423264977
 30
0.0
 11
1957.036598220133
 21
1235.846912957924
 31
0.0
  0
LWPOLYLINE
  5
B85
330
A41
100
AcDbEntity
  8
0
  6
Continuous
 62
     7
370
    15
100
AcDbPolyline
 90
        9
 70
   128
 43
0.0
 10
1958.983114857205
 20
1236.764233436078
 10
1958.963961748736
 20
1236.793441778996
 10
1958.942109266327
 20
1236.819544898639
 10
1958.918398371317
 20
1236.841538682668
 10
1958.89373983076
 20
1236.858577962041
 10
1958.869081948748
 20
1236.870008447422
 10
1958.845371053738
 20
1236.875390680056
 10
1958.82351857133
 20
1236.874517899559
 10
1958.804365462859
 20
1236.867423264977
  0
SPLINE
  5
B86
330
A41
100
AcDbEntity
  8
0
  6
Continuous
 62
     7
370
    15
100
AcDbSpline
210
0.0
220
0.0
230
1.0
 70
     8
 71
     3
 72
    10
 73
     6
 74
     0
 42
0.0000000001
 43
0.0000000001
 40
0.0
 40
0.0
 40
0.0
 40
0.0
 40
0.5
 40
0.5
 40
1.0
 40
1.0
 40
1.0
 40
1.0
 10
1957.005464300136
 20
1242.125313808249
 30
0.0
 10
1957.099586849943
 20
1242.086717799387
 30
0.0
 10
1957.19105694532
 20
1242.036450969568
 30
0.0
 10
1957.368926719851
 20
1241.913128299939
 30
0.0
 10
1957.455034897282
 20
1241.839895817683
 30
0.0
 10
1957.53464980585
 20
1241.757926382191
 30
0.0
  0
LINE
  5
B87
330
A41
100
AcDbEntity
  8
0
  6
Continuous
 62
     7
370
    15
100
AcDbLine
 10
1959.068914645517
 20
1240.258130852655
 30
0.0
 11
1959.068914645517
 21
1240.508088160828
 31
0.0
  0
SPLINE
  5
B88
330
A41
100
AcDbEntity
  8
0
  6
Continuous
 62
     7
370
    15
100
AcDbSpline
210
0.0
220
0.0
230
1.0
 70
     8
 71
     3
 72
     8
 73
     4
 74
     0
 42
0.0000000001
 43
0.0000000001
 40
0.0
 40
0.0
 40
0.0
 40
0.0
 40
1.0
 40
1.0
 40
1.0
 40
1.0
 10
1957.005464300136
 20
1241.880351564683
 30
0.0
 10
1957.150347634021
 20
1241.820940526095
 30
0.0
 10
1957.290656288994
 20
1241.724144981227
 30
0.0
 10
1957.413993681754
 20
1241.598590775242
 30
0.0
  0
ARC
  5
B89
330
A41
100
AcDbEntity
  8
0
  6
Continuous
 62
     7
370
    15
100
AcDbCircle
 10
1947.928833680915
 20
1219.665450219796
 30
0.0
 40
23.99764674380051
100
AcDbArc
 50
67.77591064472656
 51
73.35298011507505
  0
LINE
  5
B8A
330
A41
100
AcDbEntity
  8
0
  6
Continuous
 62
     7
370
    15
100
AcDbLine
 10
1954.803552818905
 20
1242.657302820532
 30
0.0
 11
1954.803552818905
 21
1242.902265408436
 31
0.0
  0
ARC
  5
B8B
330
A41
100
AcDbEntity
  8
0
  6
Continuous
 62
     7
370
    15
100
AcDbCircle
 10
1947.928833680909
 20
1219.91041280768
 30
0.0
 40
23.99764674382053
100
AcDbArc
 50
67.77591064473863
 51
73.35298011507505
  0
ELLIPSE
  5
B8C
330
A41
100
AcDbEntity
  8
0
  6
Continuous
 62
     7
370
    15
100
AcDbEllipse
 10
1946.165698171904
 20
1232.315583468327
 30
0.0
 11
18.110644023931
 21
-6.7033821212612
 31
0.0
210
0.0
220
0.0
230
1.0
 40
0.705762670075309
 41
1.065744385096317
 42
1.181659033247442
  0
LINE
  5
B8D
330
A41
100
AcDbEntity
  8
0
  6
Continuous
 62
     7
370
    15
100
AcDbLine
 10
1956.702171538278
 20
1235.816029978362
 30
0.0
 11
1958.469938781004
 21
1236.836540285415
 31
0.0
  0
LINE
  5
B8E
330
A41
100
AcDbEntity
  8
0
  6
Continuous
 62
     7
370
    15
100
AcDbLine
 10
1956.508241375933
 20
1236.151926871676
 30
0.0
 11
1958.27600861866
 21
1237.172437178729
 31
0.0
  0
LINE
  5
B8F
330
A41
100
AcDbEntity
  8
0
  6
Continuous
 62
     7
370
    15
100
AcDbLine
 10
1958.27600861866
 20
1237.172437178729
 30
0.0
 11
1958.469938781004
 21
1236.836540285415
 31
0.0
  0
LINE
  5
B90
330
A41
100
AcDbEntity
  8
0
  6
Continuous
 62
     7
370
    15
100
AcDbLine
 10
1956.772419798033
 20
1235.741285349158
 30
0.0
 11
1958.540187040759
 21
1236.761795656211
 31
0.0
  0
ARC
  5
B91
330
A41
100
AcDbEntity
  8
0
  6
Continuous
 62
     7
370
    15
100
AcDbCircle
 10
1958.581124165573
 20
1236.820904942016
 30
0.0
 40
0.0719010142931802
100
AcDbArc
 50
235.2948146305657
 51
292.7353207592198
  0
LWPOLYLINE
  5
B92
330
A41
100
AcDbEntity
  8
0
  6
Continuous
 62
     7
370
    15
100
AcDbPolyline
 90
        4
 70
   128
 43
0.0
 10
1959.068914645517
 20
1240.258130852655
 10
1959.262716391682
 20
1240.079681981012
 10
1959.469475001042
 20
1239.889293150795
 10
1959.676259293638
 20
1239.698919907656
  0
ARC
  5
B93
330
A41
100
AcDbEntity
  8
0
  6
Continuous
 62
     7
370
    15
100
AcDbCircle
 10
1958.651547157557
 20
1236.936840249345
 30
0.0
 40
0.2074649011239442
100
AcDbArc
 50
208.9113040751097
 51
237.5362395478422
  0
LINE
  5
B94
330
A41
100
AcDbEntity
  8
0
  6
Continuous
 62
     7
370
    15
100
AcDbLine
 10
1958.097258565769
 20
1237.275627387798
 30
0.0
 11
1956.329491323043
 21
1236.255117080745
 31
0.0
  0
LWPOLYLINE
  5
B95
330
A41
100
AcDbEntity
  8
0
  6
Continuous
 62
     7
370
    15
100
AcDbPolyline
 90
        9
 70
   128
 43
0.0
 10
1958.27600861866
 20
1237.172437178729
 10
1958.256854851645
 20
1237.201645901817
 10
1958.235003027781
 20
1237.22774864129
 10
1958.211292132771
 20
1237.24974242532
 10
1958.186633592214
 20
1237.266781704693
 10
1958.161975051657
 20
1237.278212570243
 10
1958.138264156648
 20
1237.283594802877
 10
1958.116411674239
 20
1237.28272202238
 10
1958.097258565769
 20
1237.275627387798
  0
LINE
  5
B96
330
A41
100
AcDbEntity
  8
0
  6
Continuous
 62
     7
370
    15
100
AcDbLine
 10
1957.762831883914
 20
1237.244744408236
 30
0.0
 11
1955.995064641188
 21
1236.224234101183
 31
0.0
  0
LINE
  5
B97
330
A41
100
AcDbEntity
  8
0
  6
Continuous
 62
     7
370
    15
100
AcDbLine
 10
1955.801134478844
 20
1236.560130994498
 30
0.0
 11
1957.568901721569
 21
1237.580641301551
 31
0.0
  0
LINE
  5
B98
330
A41
100
AcDbEntity
  8
0
  6
Continuous
 62
     7
370
    15
100
AcDbLine
 10
1957.568901721569
 20
1237.580641301551
 30
0.0
 11
1957.762831883914
 21
1237.244744408236
 31
0.0
  0
LINE
  5
B99
330
A41
100
AcDbEntity
  8
0
  6
Continuous
 62
     7
370
    15
100
AcDbLine
 10
1957.833080143669
 20
1237.169999779032
 30
0.0
 11
1956.065312900943
 21
1236.149489471979
 31
0.0
  0
ARC
  5
B9A
330
A41
100
AcDbEntity
  8
0
  6
Continuous
 62
     7
370
    15
100
AcDbCircle
 10
1957.874017075717
 20
1237.229107226144
 30
0.0
 40
0.0718993929712524
100
AcDbArc
 50
235.2941066783322
 51
292.7360287114344
  0
ARC
  5
B9B
330
A41
100
AcDbEntity
  8
0
  6
Continuous
 62
     7
370
    15
100
AcDbCircle
 10
1957.944440260467
 20
1237.345044372166
 30
0.0
 40
0.2074649011246479
100
AcDbArc
 50
208.9113040751388
 51
237.5362395477773
  0
LINE
  5
B9C
330
A41
100
AcDbEntity
  8
0
  6
Continuous
 62
     7
370
    15
100
AcDbLine
 10
1957.390151668679
 20
1237.683831510619
 30
0.0
 11
1955.622384425953
 21
1236.663321203566
 31
0.0
  0
LWPOLYLINE
  5
B9D
330
A41
100
AcDbEntity
  8
0
  6
Continuous
 62
     7
370
    15
100
AcDbPolyline
 90
        9
 70
   128
 43
0.0
 10
1957.568901721569
 20
1237.580641301551
 10
1957.549747954555
 20
1237.609850024638
 10
1957.527896130691
 20
1237.635952764111
 10
1957.504185235681
 20
1237.657946548141
 10
1957.479526695124
 20
1237.674985827514
 10
1957.454868154567
 20
1237.686416693064
 10
1957.431157259557
 20
1237.691798925698
 10
1957.409304777149
 20
1237.690926145201
 10
1957.390151668679
 20
1237.683831510619
  0
LWPOLYLINE
  5
B9E
330
A41
100
AcDbEntity
  8
0
  6
Continuous
 62
     7
370
    15
100
AcDbPolyline
 90
        9
 70
   128
 43
0.0
 10
1954.803552818905
 20
1242.902265408436
 10
1954.666192617613
 20
1242.953280183996
 10
1954.545967085875
 20
1243.017103255312
 10
1954.446417546781
 20
1243.091854493369
 10
1954.370475511209
 20
1243.175331385286
 10
1954.320378713398
 20
1243.265075754091
 10
1954.297602293045
 20
1243.358443139683
 10
1954.302817965548
 20
1243.452684155136
 10
1954.335870643676
 20
1243.545021851224
  0
LINE
  5
B9F
330
A41
100
AcDbEntity
  8
0
  6
Continuous
 62
     7
370
    15
100
AcDbLine
 10
1954.335870643676
 20
1243.545021851224
 30
0.0
 11
1954.637229171608
 21
1244.15767398984
 31
0.0
  0
LINE
  5
BA0
330
A41
100
AcDbEntity
  8
0
  6
Continuous
 62
     7
370
    15
100
AcDbLine
 10
1957.055724986823
 20
1237.652948531057
 30
0.0
 11
1955.287957744097
 21
1236.632438224004
 31
0.0
  0
LINE
  5
BA1
330
A41
100
AcDbEntity
  8
0
  6
Continuous
 62
     7
370
    15
100
AcDbLine
 10
1955.094027581753
 20
1236.968335117319
 30
0.0
 11
1956.861794824479
 21
1237.988845424372
 31
0.0
  0
LINE
  5
BA2
330
A41
100
AcDbEntity
  8
0
  6
Continuous
 62
     7
370
    15
100
AcDbLine
 10
1956.861794824479
 20
1237.988845424372
 30
0.0
 11
1957.055724986823
 21
1237.652948531057
 31
0.0
  0
LINE
  5
BA3
330
A41
100
AcDbEntity
  8
0
  6
Continuous
 62
     7
370
    15
100
AcDbLine
 10
1957.125973246579
 20
1237.578203901853
 30
0.0
 11
1955.358206003853
 21
1236.5576935948
 31
0.0
  0
ARC
  5
BA4
330
A41
100
AcDbEntity
  8
0
  6
Continuous
 62
     7
370
    15
100
AcDbCircle
 10
1957.166910178627
 20
1237.637311348966
 30
0.0
 40
0.0718993929714104
100
AcDbArc
 50
235.2941066783792
 51
292.7360287113693
  0
ARC
  5
BA5
330
A41
100
AcDbEntity
  8
0
  6
Continuous
 62
     7
370
    15
100
AcDbCircle
 10
1957.23733616042
 20
1237.753251123772
 30
0.0
 40
0.2074686204719239
100
AcDbArc
 50
208.9115661321404
 51
237.5359774907645
  0
LINE
  5
BA6
330
A41
100
AcDbEntity
  8
0
  6
Continuous
 62
     7
370
    15
100
AcDbLine
 10
1956.683044771588
 20
1238.09203563344
 30
0.0
 11
1954.915277528862
 21
1237.071525326387
 31
0.0
  0
LWPOLYLINE
  5
BA7
330
A41
100
AcDbEntity
  8
0
  6
Continuous
 62
     7
370
    15
100
AcDbPolyline
 90
        9
 70
   128
 43
0.0
 10
1956.861794824479
 20
1237.988845424372
 10
1956.842641057464
 20
1238.01805414746
 10
1956.8207892336
 20
1238.044156886933
 10
1956.79707833859
 20
1238.066150670962
 10
1956.772419798033
 20
1238.083189950335
 10
1956.747761257476
 20
1238.094620815885
 10
1956.724050362467
 20
1238.100003048519
 10
1956.702198538603
 20
1238.099129887852
 10
1956.683044771588
 20
1238.09203563344
  0
LINE
  5
BA8
330
A41
100
AcDbEntity
  8
0
  6
Continuous
 62
     7
370
    15
100
AcDbLine
 10
1973.965950553268
 20
1236.422497085549
 30
0.0
 11
1975.733717631358
 21
1237.44300729756
 31
0.0
  0
LINE
  5
BA9
330
A41
100
AcDbEntity
  8
0
  6
Continuous
 62
     7
370
    15
100
AcDbLine
 10
1975.733717631358
 20
1237.44300729756
 30
0.0
 11
1973.437164831958
 21
1239.47937378546
 31
0.0
  0
LINE
  5
BAA
330
A41
100
AcDbEntity
  8
0
  6
Continuous
 62
     7
370
    15
100
AcDbLine
 10
1956.348618089733
 20
1238.061152653878
 30
0.0
 11
1954.580850847007
 21
1237.040642346825
 31
0.0
  0
LINE
  5
BAB
330
A41
100
AcDbEntity
  8
0
  6
Continuous
 62
     7
370
    15
100
AcDbLine
 10
1954.386920684663
 20
1237.37653924014
 30
0.0
 11
1956.154687927389
 21
1238.397049547193
 31
0.0
  0
LINE
  5
BAC
330
A41
100
AcDbEntity
  8
0
  6
Continuous
 62
     7
370
    15
100
AcDbLine
 10
1956.154687927389
 20
1238.397049547193
 30
0.0
 11
1956.348618089733
 21
1238.061152653878
 31
0.0
  0
LINE
  5
BAD
330
A41
100
AcDbEntity
  8
0
  6
Continuous
 62
     7
370
    15
100
AcDbLine
 10
1956.418866349488
 20
1237.986408024674
 30
0.0
 11
1954.651099106763
 21
1236.965897717622
 31
0.0
  0
ARC
  5
BAE
330
A41
100
AcDbEntity
  8
0
  6
Continuous
 62
     7
370
    15
100
AcDbCircle
 10
1956.459804264164
 20
1238.045518805641
 30
0.0
 40
0.07190269316551
100
AcDbArc
 50
235.2949755442072
 51
292.7346467168236
  0
ARC
  5
BAF
330
A41
100
AcDbEntity
  8
0
  6
Continuous
 62
     7
370
    15
100
AcDbCircle
 10
1956.530229263329
 20
1238.161455246592
 30
0.0
 40
0.2074686204710084
100
AcDbArc
 50
208.9115661320936
 51
237.5359774908584
  0
LINE
  5
BB0
330
A41
100
AcDbEntity
  8
0
  6
Continuous
 62
     7
370
    15
100
AcDbLine
 10
1955.975937874498
 20
1238.500239756261
 30
0.0
 11
1954.208170631772
 21
1237.479729449209
 31
0.0
  0
LWPOLYLINE
  5
BB1
330
A41
100
AcDbEntity
  8
0
  6
Continuous
 62
     7
370
    15
100
AcDbPolyline
 90
        9
 70
   128
 43
0.0
 10
1956.154687927389
 20
1238.397049547193
 10
1956.135534818918
 20
1238.426257890111
 10
1956.11368233651
 20
1238.452361009754
 10
1956.0899714415
 20
1238.474354793783
 10
1956.065312900943
 20
1238.491394073156
 10
1956.040654360386
 20
1238.502824938706
 10
1956.016943465376
 20
1238.50820717134
 10
1955.995091641512
 20
1238.507334010674
 10
1955.975937874498
 20
1238.500239756261
  0
LINE
  5
BB2
330
A41
100
AcDbEntity
  8
0
  6
Continuous
 62
     7
370
    15
100
AcDbLine
 10
1975.733717631358
 20
1235.779486738191
 30
0.0
 11
1973.965950553268
 21
1234.75897652618
 31
0.0
  0
LINE
  5
BB3
330
A41
100
AcDbEntity
  8
0
  6
Continuous
 62
     7
370
    15
100
AcDbLine
 10
1975.733717631358
 20
1235.779486738191
 30
0.0
 11
1975.733717631358
 21
1237.44300729756
 31
0.0
  0
LINE
  5
BB4
330
A41
100
AcDbEntity
  8
0
  6
Continuous
 62
     7
370
    15
100
AcDbLine
 10
1955.641511521915
 20
1238.469356586615
 30
0.0
 11
1953.873744279189
 21
1237.448846279562
 31
0.0
  0
LINE
  5
BB5
330
A41
100
AcDbEntity
  8
0
  6
Continuous
 62
     7
370
    15
100
AcDbLine
 10
1953.679814116845
 20
1237.784743172876
 30
0.0
 11
1955.44758135957
 21
1238.805253479929
 31
0.0
  0
LINE
  5
BB6
330
A41
100
AcDbEntity
  8
0
  6
Continuous
 62
     7
370
    15
100
AcDbLine
 10
1955.44758135957
 20
1238.805253479929
 30
0.0
 11
1955.641511521915
 21
1238.469356586615
 31
0.0
  0
LINE
  5
BB7
330
A41
100
AcDbEntity
  8
0
  6
Continuous
 62
     7
370
    15
100
AcDbLine
 10
1955.71175978167
 20
1238.394611957411
 30
0.0
 11
1953.943992538944
 21
1237.374101650358
 31
0.0
  0
ARC
  5
BB8
330
A41
100
AcDbEntity
  8
0
  6
Continuous
 62
     7
370
    15
100
AcDbCircle
 10
1955.752697301413
 20
1238.453721990791
 30
0.0
 40
0.0719018537235935
100
AcDbArc
 50
235.2948950869266
 51
292.734983737183
  0
ARC
  5
BB9
330
A41
100
AcDbEntity
  8
0
  6
Continuous
 62
     7
370
    15
100
AcDbCircle
 10
1955.823121296969
 20
1238.569657864918
 30
0.0
 40
0.2074667607700031
100
AcDbArc
 50
208.9114351028726
 51
237.5361085200662
  0
LINE
  5
BBA
330
A41
100
AcDbEntity
  8
0
  6
Continuous
 62
     7
370
    15
100
AcDbLine
 10
1955.26883130668
 20
1238.908443688998
 30
0.0
 11
1953.501064063954
 21
1237.887933381945
 31
0.0
  0
LWPOLYLINE
  5
BBB
330
A41
100
AcDbEntity
  8
0
  6
Continuous
 62
     7
370
    15
100
AcDbPolyline
 90
        9
 70
   128
 43
0.0
 10
1955.44758135957
 20
1238.805253479929
 10
1955.428427592556
 20
1238.834462203017
 10
1955.406575768692
 20
1238.86056494249
 10
1955.382864873682
 20
1238.88255872652
 10
1955.358206333125
 20
1238.899598005892
 10
1955.333547792568
 20
1238.911028871443
 10
1955.309836897558
 20
1238.916411104077
 10
1955.287984744422
 20
1238.915538133495
 10
1955.26883130668
 20
1238.908443688998
  0
ARC
  5
BBC
330
A41
100
AcDbEntity
  8
0
  6
Continuous
 62
     7
370
    15
100
AcDbCircle
 10
1954.899547400075
 20
1243.26536239231
 30
0.0
 40
0.6155902878085314
100
AcDbArc
 50
191.4534362181886
 51
261.0287363208556
  0
LINE
  5
BBD
330
A41
100
AcDbEntity
  8
0
  6
Continuous
 62
     7
370
    15
100
AcDbLine
 10
1954.931901167877
 20
1238.879005924369
 30
0.0
 11
1953.164133925151
 21
1237.858495617316
 31
0.0
  0
LINE
  5
BBE
330
A41
100
AcDbEntity
  8
0
  6
Continuous
 62
     7
370
    15
100
AcDbLine
 10
1952.970203433535
 20
1238.194392700715
 30
0.0
 11
1954.737970676261
 21
1239.214903007769
 31
0.0
  0
LINE
  5
BBF
330
A41
100
AcDbEntity
  8
0
  6
Continuous
 62
     7
370
    15
100
AcDbLine
 10
1954.737970676261
 20
1239.214903007769
 30
0.0
 11
1954.931901167877
 21
1238.879005924369
 31
0.0
  0
LWPOLYLINE
  5
BC0
330
A41
100
AcDbEntity
  8
0
  6
Continuous
 62
     7
370
    15
100
AcDbPolyline
 90
        9
 70
   128
 43
0.0
 10
1954.931901167877
 20
1238.879005924369
 10
1954.947223852217
 20
1238.855638907845
 10
1954.964705574726
 20
1238.834756716291
 10
1954.983674290734
 20
1238.817161765114
 10
1955.00340099147
 20
1238.803530037418
 10
1955.023127692207
 20
1238.794385801244
 10
1955.042096408215
 20
1238.79007993909
 10
1955.059578130724
 20
1238.790778163463
 10
1955.073378260161
 20
1238.795610869235
  0
LINE
  5
BC1
330
A41
100
AcDbEntity
  8
0
  6
Continuous
 62
     7
370
    15
100
AcDbLine
 10
1954.559220952642
 20
1239.318093026752
 30
0.0
 11
1952.791453709916
 21
1238.297582719699
 31
0.0
  0
LWPOLYLINE
  5
BC2
330
A41
100
AcDbEntity
  8
0
  6
Continuous
 62
     7
370
    15
100
AcDbPolyline
 90
        9
 70
   128
 43
0.0
 10
1954.737970676261
 20
1239.214903007769
 10
1954.718817238518
 20
1239.244111540772
 10
1954.696965085382
 20
1239.27021447033
 10
1954.673254190372
 20
1239.292208254359
 10
1954.648595979088
 20
1239.309247343647
 10
1954.623937438531
 20
1239.320678209197
 10
1954.600226543521
 20
1239.326060441831
 10
1954.578374390385
 20
1239.32518747125
 10
1954.559220952642
 20
1239.318093026752
  0
LINE
  5
BC3
330
A41
100
AcDbEntity
  8
0
  6
Continuous
 62
     7
370
    15
100
AcDbLine
 10
1973.714121816326
 20
1234.557789168621
 30
0.0
 11
1975.481888894416
 21
1235.578299380631
 31
0.0
  0
LINE
  5
BC4
330
A41
100
AcDbEntity
  8
0
  6
Continuous
 62
     7
370
    15
100
AcDbLine
 10
1975.733717631358
 20
1235.779486738191
 30
0.0
 11
1975.481888894416
 21
1235.578299380631
 31
0.0
  0
LINE
  5
BC5
330
A41
100
AcDbEntity
  8
0
  6
Continuous
 62
     7
370
    15
100
AcDbLine
 10
1973.315075948534
 20
1239.512077823291
 30
0.0
 11
1971.906403312479
 21
1238.698868420145
 31
0.0
  0
ARC
  5
BC6
330
A41
100
AcDbEntity
  8
0
  6
Continuous
 62
     7
370
    15
100
AcDbCircle
 10
1973.352645155895
 20
1239.408089373521
 30
0.0
 40
0.1105669165127629
100
AcDbArc
 50
40.14448836406904
 51
109.863901076159
  0
LINE
  5
BC7
330
A41
100
AcDbEntity
  8
0
  6
Continuous
 62
     7
370
    15
100
AcDbLine
 10
1954.285755406618
 20
1239.218187219919
 30
0.0
 11
1952.517988163893
 21
1238.197676912866
 31
0.0
  0
ARC
  5
BC8
330
A41
100
AcDbEntity
  8
0
  6
Continuous
 62
     7
370
    15
100
AcDbCircle
 10
1954.335640073587
 20
1239.277373258505
 30
0.0
 40
0.0774045680957251
100
AcDbArc
 50
229.8742973737171
 51
291.3083644895124
  0
LINE
  5
BC9
330
A41
100
AcDbEntity
  8
0
  6
Continuous
 62
     7
370
    15
100
AcDbLine
 10
1954.165547326309
 20
1239.287212662841
 30
0.0
 11
1954.28543568326
 21
1239.218002587552
 31
0.0
  0
LINE
  5
BCA
330
A41
100
AcDbEntity
  8
0
  6
Continuous
 62
     7
370
    15
100
AcDbLine
 10
1972.784215318115
 20
1239.818537142062
 30
0.0
 11
1972.978146139003
 21
1239.482639868577
 31
0.0
  0
LWPOLYLINE
  5
BCB
330
A41
100
AcDbEntity
  8
0
  6
Continuous
 62
     7
370
    15
100
AcDbPolyline
 90
        9
 70
   128
 43
0.0
 10
1972.978146139003
 20
1239.482639868577
 10
1972.993467835526
 20
1239.459273422307
 10
1973.010949558035
 20
1239.438391230754
 10
1973.029918274043
 20
1239.420796279576
 10
1973.049645633324
 20
1239.407164171711
 10
1973.069372992605
 20
1239.398019555366
 10
1973.088341708613
 20
1239.393713693213
 10
1973.105823431122
 20
1239.394411917586
 10
1973.119622572742
 20
1239.399245193613
  0
LINE
  5
BCC
330
A41
100
AcDbEntity
  8
0
  6
Continuous
 62
     7
370
    15
100
AcDbLine
 10
1972.605465265224
 20
1239.92172735113
 30
0.0
 11
1971.360834090474
 21
1239.203217067868
 31
0.0
  0
LWPOLYLINE
  5
BCD
330
A41
100
AcDbEntity
  8
0
  6
Continuous
 62
     7
370
    15
100
AcDbPolyline
 90
        9
 70
   128
 43
0.0
 10
1972.784215318115
 20
1239.818537142062
 10
1972.765062209644
 20
1239.84774548498
 10
1972.74321038578
 20
1239.873848224453
 10
1972.719498832226
 20
1239.895842388652
 10
1972.694840291669
 20
1239.912881668025
 10
1972.670181751112
 20
1239.924312533575
 10
1972.646471514647
 20
1239.929694386039
 10
1972.624618373694
 20
1239.928821985712
 10
1972.605465265224
 20
1239.92172735113
  0
LINE
  5
BCE
330
A41
100
AcDbEntity
  8
0
  6
Continuous
 62
     7
370
    15
100
AcDbLine
 10
1972.074604634805
 20
1240.228186669901
 30
0.0
 11
1972.268535455693
 21
1239.892289396417
 31
0.0
  0
LWPOLYLINE
  5
BCF
330
A41
100
AcDbEntity
  8
0
  6
Continuous
 62
     7
370
    15
100
AcDbPolyline
 90
        9
 70
   128
 43
0.0
 10
1972.268535455693
 20
1239.892289396417
 10
1972.283858469305
 20
1239.868922189807
 10
1972.301340191814
 20
1239.848039998254
 10
1972.320308907822
 20
1239.830445047076
 10
1972.340034950014
 20
1239.81681369955
 10
1972.359762309295
 20
1239.807669083206
 10
1972.378731025303
 20
1239.803363221052
 10
1972.396212747812
 20
1239.804061445425
 10
1972.410011889433
 20
1239.808894721452
  0
LINE
  5
BD0
330
A41
100
AcDbEntity
  8
0
  6
Continuous
 62
     7
370
    15
100
AcDbLine
 10
1971.895854581914
 20
1240.331376878969
 30
0.0
 11
1970.815264868469
 21
1239.707565715592
 31
0.0
  0
LWPOLYLINE
  5
BD1
330
A41
100
AcDbEntity
  8
0
  6
Continuous
 62
     7
370
    15
100
AcDbPolyline
 90
        9
 70
   128
 43
0.0
 10
1972.074604634805
 20
1240.228186669901
 10
1972.055451526335
 20
1240.257395012819
 10
1972.033599702471
 20
1240.283497752292
 10
1972.009888148916
 20
1240.305491916491
 10
1971.985229608359
 20
1240.322531195864
 10
1971.960571067802
 20
1240.333962061414
 10
1971.936860831337
 20
1240.339343913879
 10
1971.915009007473
 20
1240.338470753212
 10
1971.895854581914
 20
1240.331376878969
  0
LINE
  5
BD2
330
A41
100
AcDbEntity
  8
0
  6
Continuous
 62
     7
370
    15
100
AcDbLine
 10
1975.456690347362
 20
1233.808881333799
 30
0.0
 11
1973.688923269273
 21
1232.788371121788
 31
0.0
  0
LINE
  5
BD3
330
A41
100
AcDbEntity
  8
0
  6
Continuous
 62
     7
370
    15
100
AcDbLine
 10
1973.965950553268
 20
1232.308545625883
 30
0.0
 11
1975.733717631358
 21
1233.329055837893
 31
0.0
  0
LINE
  5
BD4
330
A41
100
AcDbEntity
  8
0
  6
Continuous
 62
     7
370
    15
100
AcDbLine
 10
1975.456690347362
 20
1233.808881333799
 30
0.0
 11
1975.733717631358
 21
1233.329055837893
 31
0.0
  0
LINE
  5
BD5
330
A41
100
AcDbEntity
  8
0
  6
Continuous
 62
     7
370
    15
100
AcDbLine
 10
1974.75791140412
 20
1234.282874643239
 30
0.0
 11
1975.456690347362
 21
1233.808881333799
 31
0.0
  0
LINE
  5
BD6
330
A41
100
AcDbEntity
  8
0
  6
Continuous
 62
     7
370
    15
100
AcDbLine
 10
1973.965950553268
 20
1231.24304868773
 30
0.0
 11
1975.733717631358
 21
1232.263558899741
 31
0.0
  0
LINE
  5
BD7
330
A41
100
AcDbEntity
  8
0
  6
Continuous
 62
     7
370
    15
100
AcDbLine
 10
1975.733717631358
 20
1233.329055837893
 30
0.0
 11
1975.733717631358
 21
1232.263558899741
 31
0.0
  0
LINE
  5
BD8
330
A41
100
AcDbEntity
  8
0
  6
Continuous
 62
     7
370
    15
100
AcDbLine
 10
1971.364995268584
 20
1240.637835437401
 30
0.0
 11
1971.558924772384
 21
1240.301938924256
 31
0.0
  0
LWPOLYLINE
  5
BD9
330
A41
100
AcDbEntity
  8
0
  6
Continuous
 62
     7
370
    15
100
AcDbPolyline
 90
        9
 70
   128
 43
0.0
 10
1971.558924772384
 20
1240.301938924256
 10
1971.574247785995
 20
1240.278571717647
 10
1971.591729508504
 20
1240.257689526093
 10
1971.610698224512
 20
1240.240094574916
 10
1971.630424266704
 20
1240.226463227389
 10
1971.650151625986
 20
1240.217318611045
 10
1971.669120341994
 20
1240.213012748891
 10
1971.686602064502
 20
1240.213710973264
 10
1971.700402523212
 20
1240.218543488952
  0
LINE
  5
BDA
330
A41
100
AcDbEntity
  8
0
  6
Continuous
 62
     7
370
    15
100
AcDbLine
 10
1971.186245215693
 20
1240.741025646469
 30
0.0
 11
1970.269696963554
 21
1240.211913602976
 31
0.0
  0
LWPOLYLINE
  5
BDB
330
A41
100
AcDbEntity
  8
0
  6
Continuous
 62
     7
370
    15
100
AcDbPolyline
 90
        9
 70
   128
 43
0.0
 10
1971.364995268584
 20
1240.637835437401
 10
1971.345840843025
 20
1240.667044540658
 10
1971.323989019161
 20
1240.693147280131
 10
1971.300278782695
 20
1240.715140683991
 10
1971.275620242139
 20
1240.732179963364
 10
1971.250961701582
 20
1240.743610828914
 10
1971.227250148027
 20
1240.748993441718
 10
1971.205398324163
 20
1240.748120281051
 10
1971.186245215693
 20
1240.741025646469
  0
LINE
  5
BDC
330
A41
100
AcDbEntity
  8
0
  6
Continuous
 62
     7
370
    15
100
AcDbLine
 10
1970.65538392673
 20
1241.04748534541
 30
0.0
 11
1970.849314089074
 21
1240.711588452095
 31
0.0
  0
LWPOLYLINE
  5
BDD
330
A41
100
AcDbEntity
  8
0
  6
Continuous
 62
     7
370
    15
100
AcDbPolyline
 90
        9
 70
   128
 43
0.0
 10
1970.849314089074
 20
1240.711588452095
 10
1970.864637102686
 20
1240.688221245486
 10
1970.882118825195
 20
1240.667339053932
 10
1970.901087541203
 20
1240.649744102755
 10
1970.920814900484
 20
1240.63611199489
 10
1970.940540942676
 20
1240.626968138885
 10
1970.959509658684
 20
1240.622662276731
 10
1970.976991381193
 20
1240.623360501104
 10
1970.990791839902
 20
1240.628193016792
  0
LINE
  5
BDE
330
A41
100
AcDbEntity
  8
0
  6
Continuous
 62
     7
370
    15
100
AcDbLine
 10
1970.476634532383
 20
1241.150675174308
 30
0.0
 11
1969.550110483401
 21
1240.615804225879
 31
0.0
  0
LWPOLYLINE
  5
BDF
330
A41
100
AcDbEntity
  8
0
  6
Continuous
 62
     7
370
    15
100
AcDbPolyline
 90
        9
 70
   128
 43
0.0
 10
1970.65538392673
 20
1241.04748534541
 10
1970.63623081826
 20
1241.076693688328
 10
1970.614378335851
 20
1241.102796807971
 10
1970.590667440841
 20
1241.124790592
 10
1970.566008900284
 20
1241.141829871373
 10
1970.541351018272
 20
1241.153260356753
 10
1970.517640123262
 20
1241.158642589387
 10
1970.495787640854
 20
1241.157769808891
 10
1970.476634532383
 20
1241.150675174308
  0
LINE
  5
BE0
330
A41
100
AcDbEntity
  8
0
  6
Continuous
 62
     7
370
    15
100
AcDbLine
 10
1973.713160341345
 20
1231.097068089177
 30
0.0
 11
1975.480927419434
 21
1232.117578301187
 31
0.0
  0
LINE
  5
BE1
330
A41
100
AcDbEntity
  8
0
  6
Continuous
 62
     7
370
    15
100
AcDbLine
 10
1975.733717631358
 20
1232.263558899741
 30
0.0
 11
1975.480927419434
 21
1232.117578301187
 31
0.0
  0
LINE
  5
BE2
330
A41
100
AcDbEntity
  8
0
  6
Continuous
 62
     7
370
    15
100
AcDbLine
 10
1970.137870676398
 20
1241.124413120766
 30
0.0
 11
1970.139704064309
 21
1241.121237599765
 31
0.0
  0
LWPOLYLINE
  5
BE3
330
A41
100
AcDbEntity
  8
0
  6
Continuous
 62
     7
370
    15
100
AcDbPolyline
 90
        9
 70
   128
 43
0.0
 10
1970.139704064309
 20
1241.121237599765
 10
1970.155027077921
 20
1241.097870393156
 10
1970.172508800429
 20
1241.076988201602
 10
1970.191477516437
 20
1241.059393250425
 10
1970.211204217174
 20
1241.045761522729
 10
1970.230930917911
 20
1241.036617286554
 10
1970.249899633919
 20
1241.032311424401
 10
1970.267381356428
 20
1241.033009648774
 10
1970.281181156592
 20
1241.037842544631
  0
LINE
  5
BE4
330
A41
100
AcDbEntity
  8
0
  6
Continuous
 62
     7
370
    15
100
AcDbLine
 10
1957.725336499899
 20
1237.309687436222
 30
0.0
 11
1960.46555229837
 21
1238.891580345143
 31
0.0
  0
LINE
  5
BE5
330
A41
100
AcDbEntity
  8
0
  6
Continuous
 62
     7
370
    15
100
AcDbLine
 10
1951.246289163504
 20
1233.337524704831
 30
0.0
 11
1951.268649877636
 21
1233.262278144401
 31
0.0
  0
LINE
  5
BE6
330
A41
100
AcDbEntity
  8
0
  6
Continuous
 62
     7
370
    15
100
AcDbLine
 10
1951.268649877636
 20
1233.262278144401
 30
0.0
 11
1952.527048089961
 21
1233.137735538285
 31
0.0
  0
LINE
  5
BE7
330
A41
100
AcDbEntity
  8
0
  6
Continuous
 62
     7
370
    15
100
AcDbLine
 10
1945.91991187113
 20
1238.558295824192
 30
0.0
 11
1946.644927227571
 21
1238.976838280538
 31
0.0
  0
LINE
  5
BE8
330
A41
100
AcDbEntity
  8
0
  6
Continuous
 62
     8
370
    15
100
AcDbLine
 10
1973.138282349058
 20
1261.107971296009
 30
0.0
 11
1966.542546852749
 21
1264.915608350195
 31
0.0
  0
LINE
  5
BE9
330
A41
100
AcDbEntity
  8
0
  6
Continuous
 62
     8
370
    15
100
AcDbLine
 10
1958.17601426362
 20
1269.745504806662
 30
0.0
 11
1957.185953562684
 21
1270.317054683532
 31
0.0
  0
LINE
  5
BEA
330
A41
100
AcDbEntity
  8
0
  6
Continuous
 62
     8
370
    15
100
AcDbLine
 10
1972.990143338214
 20
1232.449429248255
 30
0.0
 11
1965.859414680062
 21
1228.332947215688
 31
0.0
  0
LINE
  5
BEB
330
A41
100
AcDbEntity
  8
0
  6
Continuous
 62
     8
370
    15
100
AcDbLine
 10
1952.397780083583
 20
1247.587105513841
 30
0.0
 11
1952.640298976816
 21
1247.727108690853
 31
0.0
  0
LINE
  5
BEC
330
A41
100
AcDbEntity
  8
0
  6
Continuous
 62
     8
370
    15
100
AcDbLine
 10
1960.577642253575
 20
1235.638403855953
 30
0.0
 11
1962.215736649687
 21
1236.584055622064
 31
0.0
  0
LINE
  5
BED
330
A41
100
AcDbEntity
  8
0
  6
Continuous
 62
     8
370
    15
100
AcDbLine
 10
1957.581612947662
 20
1242.457917416259
 30
0.0
 11
1957.00546421143
 21
1242.125313830499
 31
0.0
  0
LINE
  5
BEE
330
A41
100
AcDbEntity
  8
0
  6
Continuous
 62
     8
370
    15
100
AcDbLine
 10
1971.975113706172
 20
1238.635349636103
 30
0.0
 11
1973.437164831958
 21
1239.47937378546
 31
0.0
  0
LINE
  5
BEF
330
A41
100
AcDbEntity
  8
0
  6
Continuous
 62
     8
370
    15
100
AcDbLine
 10
1971.498262286486
 20
1239.076172258583
 30
0.0
 11
1972.784215318115
 21
1239.818537142062
 31
0.0
  0
LINE
  5
BF0
330
A41
100
AcDbEntity
  8
0
  6
Continuous
 62
     8
370
    15
100
AcDbLine
 10
1971.796485484016
 20
1238.800481692598
 30
0.0
 11
1972.978146139003
 21
1239.482639868577
 31
0.0
  0
LINE
  5
BF1
330
A41
100
AcDbEntity
  8
0
  6
Continuous
 62
     8
370
    15
100
AcDbLine
 10
1970.952693064482
 20
1239.580520906307
 30
0.0
 11
1972.074604634805
 21
1240.228186669901
 31
0.0
  0
LINE
  5
BF2
330
A41
100
AcDbEntity
  8
0
  6
Continuous
 62
     8
370
    15
100
AcDbLine
 10
1971.250916262011
 20
1239.304830340321
 30
0.0
 11
1972.268535455693
 21
1239.892289396417
 31
0.0
  0
LINE
  5
BF3
330
A41
100
AcDbEntity
  8
0
  6
Continuous
 62
     8
370
    15
100
AcDbLine
 10
1970.407125159566
 20
1240.08486879369
 30
0.0
 11
1971.364995268584
 21
1240.637835437401
 31
0.0
  0
LINE
  5
BF4
330
A41
100
AcDbEntity
  8
0
  6
Continuous
 62
     8
370
    15
100
AcDbLine
 10
1970.705347040006
 20
1239.809178988044
 30
0.0
 11
1971.558924772384
 21
1240.301938924256
 31
0.0
  0
LINE
  5
BF5
330
A41
100
AcDbEntity
  8
0
  6
Continuous
 62
     8
370
    15
100
AcDbLine
 10
1969.737037189539
 20
1240.517335058596
 30
0.0
 11
1970.65538392673
 21
1241.04748534541
 31
0.0
  0
LINE
  5
BF6
330
A41
100
AcDbEntity
  8
0
  6
Continuous
 62
     8
370
    15
100
AcDbLine
 10
1970.150004194322
 20
1240.307885442915
 30
0.0
 11
1970.849314089074
 21
1240.711588452095
 31
0.0
  0
LINE
  5
BF7
330
A41
100
AcDbEntity
  8
0
  6
Continuous
 62
     8
370
    15
100
AcDbLine
 10
1969.40210523941
 20
1240.695430861702
 30
0.0
 11
1970.139704064309
 21
1241.121237599765
 31
0.0
  0
LINE
  5
BF8
330
A41
100
AcDbEntity
  8
0
  6
Continuous
 62
     8
370
    15
100
AcDbLine
 10
1961.301002358395
 20
1237.902607192004
 30
0.0
 11
1959.069595745175
 21
1236.614443573525
 31
0.0
  0
LINE
  5
BF9
330
A41
100
AcDbEntity
  8
0
  6
Continuous
 62
     8
370
    15
100
AcDbLine
 10
1962.194017357905
 20
1236.619342352843
 30
0.0
 11
1960.556932839796
 21
1235.674273576893
 31
0.0
  0
LINE
  5
BFA
330
A41
100
AcDbEntity
  8
0
  6
Continuous
 62
     8
370
    15
100
AcDbLine
 10
1959.175555885781
 20
1236.430915412457
 30
0.0
 11
1961.430968833542
 21
1237.732937592877
 31
0.0
  0
ENDBLK
  5
A43
330
A41
100
AcDbEntity
  8
0
100
AcDbBlockEnd
  0
ENDSEC
  0
SECTION
  2
ENTITIES
  0
INSERT
  5
915
330
1F
100
AcDbEntity
  8
0
100
AcDbBlockReference
  2
1
 10
0.0
 20
0.0
 30
0.0
  0
INSERT
  5
9D0
330
1F
100
AcDbEntity
  8
0
100
AcDbBlockReference
  2
2
 10
0.0
 20
0.0
 30
0.0
  0
INSERT
  5
A40
330
1F
100
AcDbEntity
  8
0
100
AcDbBlockReference
  2
3
 10
0.0
 20
0.0
 30
0.0
  0
INSERT
  5
BFB
330
1F
100
AcDbEntity
  8
0
100
AcDbBlockReference
  2
4
 10
0.0
 20
0.0
 30
0.0
  0
ENDSEC
  0
SECTION
  2
OBJECTS
  0
DICTIONARY
  5
C
330
0
100
AcDbDictionary
281
     1
  3
ACAD_COLOR
350
6B
  3
ACAD_GROUP
350
D
  3
ACAD_LAYOUT
350
1A
  3
ACAD_MATERIAL
350
6A
  3
ACAD_MLEADERSTYLE
350
12D
  3
ACAD_MLINESTYLE
350
17
  3
ACAD_PLOTSETTINGS
350
19
  3
ACAD_PLOTSTYLENAME
350
E
  3
ACAD_SCALELIST
350
10C
  3
ACAD_TABLESTYLE
350
7E
  3
ACAD_VISUALSTYLE
350
EF
  3
ACDB_RECOMPOSE_DATA
350
15D
  3
AcDbVariableDictionary
350
5E
  3
DWGPROPS
350
C09
  0
DICTIONARY
  5
13C
330
10
100
AcDbDictionary
280
     1
281
     1
  3
ADSK_XREC_LAYER_RECONCILED
360
BFC
  0
DICTIONARY
  5
6B
102
{ACAD_REACTORS
330
C
102
}
330
C
100
AcDbDictionary
281
     1
  0
DICTIONARY
  5
D
102
{ACAD_REACTORS
330
C
102
}
330
C
100
AcDbDictionary
281
     1
  0
DICTIONARY
  5
1A
102
{ACAD_REACTORS
330
C
102
}
330
C
100
AcDbDictionary
281
     1
  3
Layout1
350
D3
  3
Layout2
350
D7
  3
Model
350
22
  0
DICTIONARY
  5
6A
102
{ACAD_REACTORS
330
C
102
}
330
C
100
AcDbDictionary
281
     1
  3
ByBlock
350
ED
  3
ByLayer
350
EC
  3
Global
350
EE
  0
DICTIONARY
  5
12D
102
{ACAD_REACTORS
330
C
102
}
330
C
100
AcDbDictionary
281
     1
  3
Annotative
350
13B
  3
Standard
350
12E
  0
DICTIONARY
  5
17
102
{ACAD_REACTORS
330
C
102
}
330
C
100
AcDbDictionary
281
     1
  3
Standard
350
18
  0
DICTIONARY
  5
19
102
{ACAD_REACTORS
330
C
102
}
330
C
100
AcDbDictionary
281
     1
  0
ACDBDICTIONARYWDFLT
  5
E
102
{ACAD_REACTORS
330
C
102
}
330
C
100
AcDbDictionary
281
     1
  3
Normal
350
F
100
AcDbDictionaryWithDefault
340
F
  0
DICTIONARY
  5
10C
102
{ACAD_REACTORS
330
C
102
}
330
C
100
AcDbDictionary
281
     1
  3
A0
350
10D
  3
A1
350
188
  3
A2
350
189
  3
A3
350
18A
  3
A4
350
18B
  3
A5
350
18C
  3
A6
350
18D
  3
A7
350
18E
  3
A8
350
18F
  3
A9
350
190
  3
B0
350
191
  3
B1
350
192
  3
B2
350
193
  3
B3
350
194
  3
B4
350
195
  3
B5
350
196
  3
B6
350
197
  3
B7
350
198
  3
B8
350
199
  3
B9
350
19A
  3
C0
350
19B
  3
C1
350
19C
  3
C2
350
19D
  3
C3
350
19E
  3
C4
350
19F
  3
C5
350
1A0
  3
C6
350
1A1
  3
C7
350
1A2
  3
C8
350
1A3
  3
C9
350
1A4
  3
D0
350
1A5
  3
D1
350
1A6
  3
D2
350
1A7
  0
DICTIONARY
  5
7E
102
{ACAD_REACTORS
330
C
102
}
330
C
100
AcDbDictionary
281
     1
  3
Standard
350
7F
  0
DICTIONARY
  5
EF
102
{ACAD_REACTORS
330
C
102
}
330
C
100
AcDbDictionary
281
     1
  3
2dWireframe
350
F5
  3
3D Hidden
350
F7
  3
3dWireframe
350
F6
  3
Basic
350
F4
  3
Brighten
350
FB
  3
ColorChange
350
FF
  3
Conceptual
350
F8
  3
Dim
350
FA
  3
Facepattern
350
FE
  3
Flat
350
F0
  3
FlatWithEdges
350
F1
  3
Gouraud
350
F2
  3
GouraudWithEdges
350
F3
  3
Linepattern
350
FD
  3
Realistic
350
F9
  3
Thicken
350
FC
  0
XRECORD
  5
15D
102
{ACAD_REACTORS
330
C
102
}
330
C
100
AcDbXrecord
280
     1
 90
        1
330
7F
  0
DICTIONARY
  5
5E
102
{ACAD_REACTORS
330
C
102
}
330
C
100
AcDbDictionary
281
     1
  3
CANNOSCALE
350
146
  3
CMLEADERSTYLE
350
145
  3
CTABLESTYLE
350
84
  3
DIMASSOC
350
5F
  3
HIDETEXT
350
63
  3
INDEXCTL
350
C05
  3
LIGHTINGUNITS
350
C03
  3
MSLTSCALE
350
C02
  3
PSOLHEIGHT
350
C07
  3
PSOLWIDTH
350
C06
  3
SORTENTS
350
C04
  0
XRECORD
  5
C09
102
{ACAD_REACTORS
330
C
102
}
330
C
100
AcDbXrecord
280
     1
  1
DWGPROPS COOKIE
  2

  3

  4

  6

  7

  8
orhan kara
  9

300
=
301
=
302
=
303
=
304
=
305
=
306
=
307
=
308
=
309
=
 40
0.0002665277777778
 41
2458536.459129178
 42
2459089.54504603
  1

 90
        0
  0
XRECORD
  5
BFC
102
{ACAD_REACTORS
330
13C
102
}
330
13C
100
AcDbXrecord
280
     1
290
     1
  0
LAYOUT
  5
D3
102
{ACAD_XDICTIONARY
360
C0D
102
}
102
{ACAD_REACTORS
330
1A
102
}
330
1A
100
AcDbPlotSettings
  1

  2
C:\Documents and Settings\basas\Application Data\Autodesk\AutoCAD 2005\R16.1\enu\plotters\Default Windows System Printer.pc3
  4

  6

 40
0.0
 41
0.0
 42
0.0
 43
0.0
 44
0.0
 45
0.0
 46
0.0
 47
0.0
 48
0.0
 49
0.0
140
0.0
141
0.0
142
1.0
143
1.0
 70
   688
 72
     0
 73
     0
 74
     5
  7

 75
    16
147
1.0
148
0.0
149
0.0
100
AcDbLayout
  1
Layout1
 70
     1
 71
     1
 10
0.0
 20
0.0
 11
12.0
 21
9.0
 12
0.0
 22
0.0
 32
0.0
 14
0.0
 24
0.0
 34
0.0
 15
0.0
 25
0.0
 35
0.0
146
0.0
 13
0.0
 23
0.0
 33
0.0
 16
1.0
 26
0.0
 36
0.0
 17
0.0
 27
1.0
 37
0.0
 76
     0
330
D2
  0
LAYOUT
  5
D7
102
{ACAD_XDICTIONARY
360
C0F
102
}
102
{ACAD_REACTORS
330
1A
102
}
330
1A
100
AcDbPlotSettings
  1

  2
C:\Documents and Settings\basas\Application Data\Autodesk\AutoCAD 2005\R16.1\enu\plotters\Default Windows System Printer.pc3
  4

  6

 40
0.0
 41
0.0
 42
0.0
 43
0.0
 44
0.0
 45
0.0
 46
0.0
 47
0.0
 48
0.0
 49
0.0
140
0.0
141
0.0
142
1.0
143
1.0
 70
   688
 72
     0
 73
     0
 74
     5
  7

 75
    16
147
1.0
148
0.0
149
0.0
100
AcDbLayout
  1
Layout2
 70
     1
 71
     2
 10
0.0
 20
0.0
 11
12.0
 21
9.0
 12
0.0
 22
0.0
 32
0.0
 14
0.0
 24
0.0
 34
0.0
 15
0.0
 25
0.0
 35
0.0
146
0.0
 13
0.0
 23
0.0
 33
0.0
 16
1.0
 26
0.0
 36
0.0
 17
0.0
 27
1.0
 37
0.0
 76
     0
330
D6
  0
LAYOUT
  5
22
102
{ACAD_XDICTIONARY
360
C0A
102
}
102
{ACAD_REACTORS
330
1A
102
}
330
1A
100
AcDbPlotSettings
  1

  2
none_device
  4
ISO_A4_(210.00_x_297.00_MM)
  6

 40
7.5
 41
20.0
 42
7.5
 43
20.0
 44
210.0
 45
297.0
 46
11.54999923706054
 47
-13.65000009536743
 48
0.0
 49
0.0
140
0.0
141
0.0
142
1.0
143
8.704084754739808
 70
 11952
 72
     1
 73
     0
 74
     0
  7

 75
     0
147
0.1148885871608098
148
0.0
149
0.0
100
AcDbLayout
  1
Model
 70
     1
 71
     0
 10
0.0
 20
0.0
 11
12.0
 21
9.0
 12
0.0
 22
0.0
 32
0.0
 14
0.0
 24
0.0
 34
0.0
 15
0.0
 25
0.0
 35
0.0
146
0.0
 13
0.0
 23
0.0
 33
0.0
 16
1.0
 26
0.0
 36
0.0
 17
0.0
 27
1.0
 37
0.0
 76
     0
330
1F
331
EA
1001
ACAD_PSEXT
1000
None
1000
None
1000
Not applicable
1000
The layout will not be plotted unless a new plotter configuration name is selected.
1070
     0
  0
MATERIAL
  5
ED
102
{ACAD_XDICTIONARY
360
C13
102
}
102
{ACAD_REACTORS
330
6A
102
}
330
6A
100
AcDbMaterial
  1
ByBlock
  0
MATERIAL
  5
EC
102
{ACAD_XDICTIONARY
360
C11
102
}
102
{ACAD_REACTORS
330
6A
102
}
330
6A
100
AcDbMaterial
  1
ByLayer
  0
MATERIAL
  5
EE
102
{ACAD_XDICTIONARY
360
173
102
}
102
{ACAD_REACTORS
330
6A
102
}
330
6A
100
AcDbMaterial
  1
Global
 43
0.0007999999797903
 43
0.0
 43
0.0
 43
0.0
 43
0.0
 43
0.0007999999797903
 43
0.0
 43
0.0
 43
0.0
 43
0.0
 43
1.0
 43
0.0
 43
0.0
 43
0.0
 43
0.0
 43
1.0
 49
0.0007999999797903
 49
0.0
 49
0.0
 49
0.0
 49
0.0
 49
0.0007999999797903
 49
0.0
 49
0.0
 49
0.0
 49
0.0
 49
1.0
 49
0.0
 49
0.0
 49
0.0
 49
0.0
 49
1.0
142
0.0007999999797903
142
0.0
142
0.0
142
0.0
142
0.0
142
0.0007999999797903
142
0.0
142
0.0
142
0.0
142
0.0
142
1.0
142
0.0
142
0.0
142
0.0
142
0.0
142
1.0
144
0.0007999999797903
144
0.0
144
0.0
144
0.0
144
0.0
144
0.0007999999797903
144
0.0
144
0.0
144
0.0
144
0.0
144
1.0
144
0.0
144
0.0
144
0.0
144
0.0
144
1.0
1001
ACAD
1070
    -1
1070
     3
1070
     0
1000

1071
        0
1070
     0
  0
MLEADERSTYLE
  5
13B
102
{ACAD_REACTORS
330
12D
102
}
330
12D
100
AcDbMLeaderStyle
170
     2
171
     1
172
     0
 90
        2
 40
0.0
 41
0.0
173
     1
 91
-1056964608
340
14
 92
       -2
290
     1
 42
2.0
291
     1
 43
8.0
  3
Standard
 44
4.0
300

342
11
174
     1
178
     1
175
     1
176
     0
 93
-1056964608
 45
4.0
292
     0
297
     0
 46
4.0
 94
-1056964608
 47
1.0
 49
1.0
140
1.0
293
     1
141
0.0
294
     1
177
     0
142
1.0
295
     0
296
     1
143
3.75
1001
ACAD_MLEADERVER
1070
     2
  0
MLEADERSTYLE
  5
12E
102
{ACAD_REACTORS
330
12D
102
}
330
12D
100
AcDbMLeaderStyle
170
     2
171
     1
172
     0
 90
        2
 40
0.0
 41
0.0
173
     1
 91
-1056964608
340
14
 92
       -2
290
     1
 42
2.0
291
     1
 43
8.0
  3
Standard
 44
4.0
300

342
11
174
     1
178
     1
175
     1
176
     0
 93
-1056964608
 45
4.0
292
     0
297
     0
 46
4.0
 94
-1056964608
 47
1.0
 49
1.0
140
1.0
293
     1
141
0.0
294
     1
177
     0
142
1.0
295
     0
296
     0
143
3.75
1001
ACAD_MLEADERVER
1070
     2
  0
MLINESTYLE
  5
18
102
{ACAD_REACTORS
330
17
102
}
330
17
100
AcDbMlineStyle
  2
STANDARD
 70
     0
  3

 62
   256
 51
90.0
 52
90.0
 71
     2
 49
0.5
 62
   256
  6
BYLAYER
 49
-0.5
 62
   256
  6
BYLAYER
  0
ACDBPLACEHOLDER
  5
F
102
{ACAD_REACTORS
330
E
102
}
330
E
  0
SCALE
  5
10D
102
{ACAD_REACTORS
330
10C
102
}
330
10C
100
AcDbScale
 70
     0
300
1:1
140
1.0
141
1.0
290
     1
  0
SCALE
  5
188
102
{ACAD_REACTORS
330
10C
102
}
330
10C
100
AcDbScale
 70
     0
300
1:2
140
1.0
141
2.0
290
     0
  0
SCALE
  5
189
102
{ACAD_REACTORS
330
10C
102
}
330
10C
100
AcDbScale
 70
     0
300
1:4
140
1.0
141
4.0
290
     0
  0
SCALE
  5
18A
102
{ACAD_REACTORS
330
10C
102
}
330
10C
100
AcDbScale
 70
     0
300
1:5
140
1.0
141
5.0
290
     0
  0
SCALE
  5
18B
102
{ACAD_REACTORS
330
10C
102
}
330
10C
100
AcDbScale
 70
     0
300
1:8
140
1.0
141
8.0
290
     0
  0
SCALE
  5
18C
102
{ACAD_REACTORS
330
10C
102
}
330
10C
100
AcDbScale
 70
     0
300
1:10
140
1.0
141
10.0
290
     0
  0
SCALE
  5
18D
102
{ACAD_REACTORS
330
10C
102
}
330
10C
100
AcDbScale
 70
     0
300
1:16
140
1.0
141
16.0
290
     0
  0
SCALE
  5
18E
102
{ACAD_REACTORS
330
10C
102
}
330
10C
100
AcDbScale
 70
     0
300
1:20
140
1.0
141
20.0
290
     0
  0
SCALE
  5
18F
102
{ACAD_REACTORS
330
10C
102
}
330
10C
100
AcDbScale
 70
     0
300
1:30
140
1.0
141
30.0
290
     0
  0
SCALE
  5
190
102
{ACAD_REACTORS
330
10C
102
}
330
10C
100
AcDbScale
 70
     0
300
1:40
140
1.0
141
40.0
290
     0
  0
SCALE
  5
191
102
{ACAD_REACTORS
330
10C
102
}
330
10C
100
AcDbScale
 70
     0
300
1:50
140
1.0
141
50.0
290
     0
  0
SCALE
  5
192
102
{ACAD_REACTORS
330
10C
102
}
330
10C
100
AcDbScale
 70
     0
300
1:100
140
1.0
141
100.0
290
     0
  0
SCALE
  5
193
102
{ACAD_REACTORS
330
10C
102
}
330
10C
100
AcDbScale
 70
     0
300
2:1
140
2.0
141
1.0
290
     0
  0
SCALE
  5
194
102
{ACAD_REACTORS
330
10C
102
}
330
10C
100
AcDbScale
 70
     0
300
4:1
140
4.0
141
1.0
290
     0
  0
SCALE
  5
195
102
{ACAD_REACTORS
330
10C
102
}
330
10C
100
AcDbScale
 70
     0
300
8:1
140
8.0
141
1.0
290
     0
  0
SCALE
  5
196
102
{ACAD_REACTORS
330
10C
102
}
330
10C
100
AcDbScale
 70
     0
300
10:1
140
10.0
141
1.0
290
     0
  0
SCALE
  5
197
102
{ACAD_REACTORS
330
10C
102
}
330
10C
100
AcDbScale
 70
     0
300
100:1
140
100.0
141
1.0
290
     0
  0
SCALE
  5
198
102
{ACAD_REACTORS
330
10C
102
}
330
10C
100
AcDbScale
 70
     0
300
1/128" = 1'-0"
140
0.0078125
141
12.0
290
     0
  0
SCALE
  5
199
102
{ACAD_REACTORS
330
10C
102
}
330
10C
100
AcDbScale
 70
     0
300
1/64" = 1'-0"
140
0.015625
141
12.0
290
     0
  0
SCALE
  5
19A
102
{ACAD_REACTORS
330
10C
102
}
330
10C
100
AcDbScale
 70
     0
300
1/32" = 1'-0"
140
0.03125
141
12.0
290
     0
  0
SCALE
  5
19B
102
{ACAD_REACTORS
330
10C
102
}
330
10C
100
AcDbScale
 70
     0
300
1/16" = 1'-0"
140
0.0625
141
12.0
290
     0
  0
SCALE
  5
19C
102
{ACAD_REACTORS
330
10C
102
}
330
10C
100
AcDbScale
 70
     0
300
3/32" = 1'-0"
140
0.09375
141
12.0
290
     0
  0
SCALE
  5
19D
102
{ACAD_REACTORS
330
10C
102
}
330
10C
100
AcDbScale
 70
     0
300
1/8" = 1'-0"
140
0.125
141
12.0
290
     0
  0
SCALE
  5
19E
102
{ACAD_REACTORS
330
10C
102
}
330
10C
100
AcDbScale
 70
     0
300
3/16" = 1'-0"
140
0.1875
141
12.0
290
     0
  0
SCALE
  5
19F
102
{ACAD_REACTORS
330
10C
102
}
330
10C
100
AcDbScale
 70
     0
300
1/4" = 1'-0"
140
0.25
141
12.0
290
     0
  0
SCALE
  5
1A0
102
{ACAD_REACTORS
330
10C
102
}
330
10C
100
AcDbScale
 70
     0
300
3/8" = 1'-0"
140
0.375
141
12.0
290
     0
  0
SCALE
  5
1A1
102
{ACAD_REACTORS
330
10C
102
}
330
10C
100
AcDbScale
 70
     0
300
1/2" = 1'-0"
140
0.5
141
12.0
290
     0
  0
SCALE
  5
1A2
102
{ACAD_REACTORS
330
10C
102
}
330
10C
100
AcDbScale
 70
     0
300
3/4" = 1'-0"
140
0.75
141
12.0
290
     0
  0
SCALE
  5
1A3
102
{ACAD_REACTORS
330
10C
102
}
330
10C
100
AcDbScale
 70
     0
300
1" = 1'-0"
140
1.0
141
12.0
290
     0
  0
SCALE
  5
1A4
102
{ACAD_REACTORS
330
10C
102
}
330
10C
100
AcDbScale
 70
     0
300
1-1/2" = 1'-0"
140
1.5
141
12.0
290
     0
  0
SCALE
  5
1A5
102
{ACAD_REACTORS
330
10C
102
}
330
10C
100
AcDbScale
 70
     0
300
3" = 1'-0"
140
3.0
141
12.0
290
     0
  0
SCALE
  5
1A6
102
{ACAD_REACTORS
330
10C
102
}
330
10C
100
AcDbScale
 70
     0
300
6" = 1'-0"
140
6.0
141
12.0
290
     0
  0
SCALE
  5
1A7
102
{ACAD_REACTORS
330
10C
102
}
330
10C
100
AcDbScale
 70
     0
300
1'-0" = 1'-0"
140
12.0
141
12.0
290
     0
  0
TABLESTYLE
  5
7F
102
{ACAD_XDICTIONARY
360
162
102
}
102
{ACAD_REACTORS
330
7E
102
}
330
7E
100
AcDbTableStyle
  3
Standard
 70
     0
 71
     0
 40
1.5
 41
1.5
280
     0
281
     0
  7
Standard
140
4.5
170
     2
 62
     0
 63
     7
283
     0
274
    -2
284
     1
 64
     0
275
    -2
285
     1
 65
     0
276
    -2
286
     1
 66
     0
277
    -2
287
     1
 67
     0
278
    -2
288
     1
 68
     0
279
    -2
289
     1
 69
     0
  7
Standard
140
6.0
170
     5
 62
     0
 63
     7
283
     0
274
    -2
284
     1
 64
     0
275
    -2
285
     1
 65
     0
276
    -2
286
     1
 66
     0
277
    -2
287
     1
 67
     0
278
    -2
288
     1
 68
     0
279
    -2
289
     1
 69
     0
  7
Standard
140
4.5
170
     5
 62
     0
 63
     7
283
     0
274
    -2
284
     1
 64
     0
275
    -2
285
     1
 65
     0
276
    -2
286
     1
 66
     0
277
    -2
287
     1
 67
     0
278
    -2
288
     1
 68
     0
279
    -2
289
     1
 69
     0
  0
VISUALSTYLE
  5
F5
102
{ACAD_REACTORS
330
EF
102
}
330
EF
100
AcDbVisualStyle
  2
2dWireframe
 70
     4
 71
     0
 72
     2
 73
     1
 90
        0
 40
-0.6
 41
-30.0
 62
     5
 63
     7
 74
     1
 91
        4
 64
     7
 65
   257
 75
     1
175
     1
 42
1.0
 92
        0
 66
   257
 43
1.0
 76
     1
 77
     6
 78
     2
 67
     7
 79
     5
170
     0
171
     0
290
     0
174
     0
 93
        1
 44
0.0
173
     0
291
     0
 45
0.0
1001
ACAD
1000
AcDbSavedByObjectVersion
1070
     0
  0
VISUALSTYLE
  5
F7
102
{ACAD_REACTORS
330
EF
102
}
330
EF
100
AcDbVisualStyle
  2
3D Hidden
 70
     6
 71
     1
 72
     2
 73
     2
 90
        0
 40
-0.6
 41
-30.0
 62
     5
 63
     7
 74
     2
 91
        2
 64
     7
 65
   257
 75
     2
175
     1
 42
40.0
 92
        0
 66
   257
 43
1.0
 76
     1
 77
     6
 78
     2
 67
     7
 79
     3
170
     0
171
     0
290
     0
174
     0
 93
        1
 44
0.0
173
     0
291
     0
 45
0.0
1001
ACAD
1000
AcDbSavedByObjectVersion
1070
     0
  0
VISUALSTYLE
  5
F6
102
{ACAD_REACTORS
330
EF
102
}
330
EF
100
AcDbVisualStyle
  2
3dWireframe
 70
     5
 71
     0
 72
     2
 73
     1
 90
        0
 40
-0.6
 41
-30.0
 62
     5
 63
     7
 74
     1
 91
        4
 64
     7
 65
   257
 75
     1
175
     1
 42
1.0
 92
        0
 66
   257
 43
1.0
 76
     1
 77
     6
 78
     2
 67
     7
 79
     5
170
     0
171
     0
290
     0
174
     0
 93
        1
 44
0.0
173
     0
291
     0
 45
0.0
1001
ACAD
1000
AcDbSavedByObjectVersion
1070
     0
  0
VISUALSTYLE
  5
F4
102
{ACAD_REACTORS
330
EF
102
}
330
EF
100
AcDbVisualStyle
  2
Basic
 70
     7
 71
     1
 72
     0
 73
     1
 90
        0
 40
-0.6
 41
-30.0
 62
     5
 63
     7
 74
     0
 91
        4
 64
     7
 65
   257
 75
     1
175
     1
 42
1.0
 92
        8
 66
     7
 43
1.0
 76
     1
 77
     6
 78
     2
 67
     7
 79
     5
170
     0
171
     0
290
     0
174
     0
 93
        1
 44
0.0
173
     0
291
     1
 45
0.0
1001
ACAD
1000
AcDbSavedByObjectVersion
1070
     0
  0
VISUALSTYLE
  5
FB
102
{ACAD_REACTORS
330
EF
102
}
330
EF
100
AcDbVisualStyle
  2
Brighten
 70
    12
 71
     2
 72
     2
 73
     1
 90
        0
 40
-0.6
 41
-30.0
 62
     5
 63
     7
 74
     1
 91
        4
 64
     7
 65
   257
 75
     1
175
     1
 42
1.0
 92
        8
 66
     7
 43
1.0
 76
     1
 77
     6
 78
     2
 67
     7
 79
     5
170
     0
171
     0
290
     0
174
     0
 93
        1
 44
50.0
173
     0
291
     1
 45
0.0
1001
ACAD
1000
AcDbSavedByObjectVersion
1070
     0
  0
VISUALSTYLE
  5
FF
102
{ACAD_REACTORS
330
EF
102
}
330
EF
100
AcDbVisualStyle
  2
ColorChange
 70
    16
 71
     2
 72
     2
 73
     3
 90
        0
 40
-0.6
 41
-30.0
 62
     5
 63
     8
 74
     1
 91
        4
 64
     7
 65
   257
 75
     1
175
     1
 42
1.0
 92
        8
 66
     8
 43
1.0
 76
     1
 77
     6
 78
     2
 67
     7
 79
     5
170
     0
171
     0
290
     0
174
     0
 93
        1
 44
0.0
173
     0
291
     1
 45
0.0
1001
ACAD
1000
AcDbSavedByObjectVersion
1070
     0
  0
VISUALSTYLE
  5
F8
102
{ACAD_REACTORS
330
EF
102
}
330
EF
100
AcDbVisualStyle
  2
Conceptual
 70
     9
 71
     3
 72
     2
 73
     1
 90
        0
 40
-0.6
 41
-30.0
 62
     5
 63
     7
 74
     2
 91
        2
 64
     7
 65
   257
 75
     1
175
     1
 42
40.0
 92
        8
 66
     7
 43
1.0
 76
     1
 77
     6
 78
     2
 67
     7
 79
     3
170
     0
171
     0
290
     0
174
     0
 93
        1
 44
0.0
173
     0
291
     0
 45
0.0
1001
ACAD
1000
AcDbSavedByObjectVersion
1070
     0
  0
VISUALSTYLE
  5
FA
102
{ACAD_REACTORS
330
EF
102
}
330
EF
100
AcDbVisualStyle
  2
Dim
 70
    11
 71
     2
 72
     2
 73
     1
 90
        0
 40
-0.6
 41
-30.0
 62
     5
 63
     7
 74
     1
 91
        4
 64
     7
 65
   257
 75
     1
175
     1
 42
1.0
 92
        8
 66
     7
 43
1.0
 76
     1
 77
     6
 78
     2
 67
     7
 79
     5
170
     0
171
     0
290
     0
174
     0
 93
        1
 44
-50.0
173
     0
291
     1
 45
0.0
1001
ACAD
1000
AcDbSavedByObjectVersion
1070
     0
  0
VISUALSTYLE
  5
FE
102
{ACAD_REACTORS
330
EF
102
}
330
EF
100
AcDbVisualStyle
  2
Facepattern
 70
    15
 71
     2
 72
     2
 73
     1
 90
        0
 40
-0.6
 41
-30.0
 62
     5
 63
     7
 74
     1
 91
        4
 64
     7
 65
   257
 75
     1
175
     1
 42
1.0
 92
        8
 66
     7
 43
1.0
 76
     1
 77
     6
 78
     2
 67
     7
 79
     5
170
     0
171
     0
290
     0
174
     0
 93
        1
 44
0.0
173
     0
291
     1
 45
0.0
1001
ACAD
1000
AcDbSavedByObjectVersion
1070
     0
  0
VISUALSTYLE
  5
F0
102
{ACAD_REACTORS
330
EF
102
}
330
EF
100
AcDbVisualStyle
  2
Flat
 70
     0
 71
     2
 72
     1
 73
     1
 90
        2
 40
-0.6
 41
30.0
 62
     5
 63
     7
 74
     0
 91
        4
 64
     7
 65
   257
 75
     1
175
     1
 42
1.0
 92
        8
 66
     7
 43
1.0
 76
     1
 77
     6
 78
     2
 67
     7
 79
     5
170
     0
171
     0
290
     0
174
     0
 93
        1
 44
0.0
173
     0
291
     1
 45
0.0
1001
ACAD
1000
AcDbSavedByObjectVersion
1070
     0
  0
VISUALSTYLE
  5
F1
102
{ACAD_REACTORS
330
EF
102
}
330
EF
100
AcDbVisualStyle
  2
FlatWithEdges
 70
     1
 71
     2
 72
     1
 73
     1
 90
        2
 40
-0.6
 41
30.0
 62
     5
 63
     7
 74
     1
 91
        4
 64
     7
 65
   257
 75
     1
175
     1
 42
1.0
 92
        0
 66
   257
 43
1.0
 76
     1
 77
     6
 78
     2
 67
     7
 79
     5
170
     0
171
     0
290
     0
174
     0
 93
        1
 44
0.0
173
     0
291
     1
 45
0.0
1001
ACAD
1000
AcDbSavedByObjectVersion
1070
     0
  0
VISUALSTYLE
  5
F2
102
{ACAD_REACTORS
330
EF
102
}
330
EF
100
AcDbVisualStyle
  2
Gouraud
 70
     2
 71
     2
 72
     2
 73
     1
 90
        2
 40
-0.6
 41
30.0
 62
     5
 63
     7
 74
     0
 91
        4
 64
     7
 65
   257
 75
     1
175
     1
 42
1.0
 92
        0
 66
     7
 43
1.0
 76
     1
 77
     6
 78
     2
 67
     7
 79
     5
170
     0
171
     0
290
     0
174
     0
 93
        1
 44
0.0
173
     0
291
     1
 45
0.0
1001
ACAD
1000
AcDbSavedByObjectVersion
1070
     0
  0
VISUALSTYLE
  5
F3
102
{ACAD_REACTORS
330
EF
102
}
330
EF
100
AcDbVisualStyle
  2
GouraudWithEdges
 70
     3
 71
     2
 72
     2
 73
     1
 90
        2
 40
-0.6
 41
30.0
 62
     5
 63
     7
 74
     1
 91
        4
 64
     7
 65
   257
 75
     1
175
     1
 42
1.0
 92
        0
 66
   257
 43
1.0
 76
     1
 77
     6
 78
     2
 67
     7
 79
     5
170
     0
171
     0
290
     0
174
     0
 93
        1
 44
0.0
173
     0
291
     1
 45
0.0
1001
ACAD
1000
AcDbSavedByObjectVersion
1070
     0
  0
VISUALSTYLE
  5
FD
102
{ACAD_REACTORS
330
EF
102
}
330
EF
100
AcDbVisualStyle
  2
Linepattern
 70
    14
 71
     2
 72
     2
 73
     1
 90
        0
 40
-0.6
 41
-30.0
 62
     5
 63
     7
 74
     1
 91
        4
 64
     7
 65
   257
 75
     7
175
     7
 42
1.0
 92
        8
 66
     7
 43
1.0
 76
     1
 77
     6
 78
     2
 67
     7
 79
     5
170
     0
171
     0
290
     0
174
     0
 93
        1
 44
0.0
173
     0
291
     1
 45
0.0
1001
ACAD
1000
AcDbSavedByObjectVersion
1070
     0
  0
VISUALSTYLE
  5
F9
102
{ACAD_REACTORS
330
EF
102
}
330
EF
100
AcDbVisualStyle
  2
Realistic
 70
     8
 71
     2
 72
     2
 73
     1
 90
        0
 40
-0.6
 41
-30.0
 62
     5
 63
     7
 74
     1
 91
        0
 64
     7
 65
   257
 75
     1
175
     1
 42
1.0
 92
        8
 66
     8
 43
1.0
 76
     1
 77
     6
 78
     2
 67
     7
 79
     5
170
     0
171
     0
290
     0
174
     0
 93
       13
 44
0.0
173
     0
291
     0
 45
0.0
1001
ACAD
1000
AcDbSavedByObjectVersion
1070
     0
  0
VISUALSTYLE
  5
FC
102
{ACAD_REACTORS
330
EF
102
}
330
EF
100
AcDbVisualStyle
  2
Thicken
 70
    13
 71
     2
 72
     2
 73
     1
 90
        0
 40
-0.6
 41
-30.0
 62
     5
 63
     7
 74
     1
 91
        4
 64
     7
 65
   257
 75
     1
175
     1
 42
1.0
 92
       12
 66
     7
 43
1.0
 76
     1
 77
     6
 78
     2
 67
     7
 79
     5
170
     0
171
     0
290
     0
174
     0
 93
        1
 44
0.0
173
     0
291
     1
 45
0.0
1001
ACAD
1000
AcDbSavedByObjectVersion
1070
     0
  0
DICTIONARYVAR
  5
146
102
{ACAD_REACTORS
330
5E
102
}
330
5E
100
DictionaryVariables
280
     0
  1
1:1
  0
DICTIONARYVAR
  5
145
102
{ACAD_REACTORS
330
5E
102
}
330
5E
100
DictionaryVariables
280
     0
  1
STANDARD
  0
DICTIONARYVAR
  5
84
102
{ACAD_REACTORS
330
5E
102
}
330
5E
100
DictionaryVariables
280
     0
  1
STANDARD
  0
DICTIONARYVAR
  5
5F
102
{ACAD_REACTORS
330
5E
102
}
330
5E
100
DictionaryVariables
280
     0
  1
2
  0
DICTIONARYVAR
  5
63
102
{ACAD_REACTORS
330
5E
102
}
330
5E
100
DictionaryVariables
280
     0
  1
1
  0
DICTIONARYVAR
  5
C05
102
{ACAD_REACTORS
330
5E
102
}
330
5E
100
DictionaryVariables
280
     0
  1
0
  0
DICTIONARYVAR
  5
C03
102
{ACAD_REACTORS
330
5E
102
}
330
5E
100
DictionaryVariables
280
     0
  1
2
  0
DICTIONARYVAR
  5
C02
102
{ACAD_REACTORS
330
5E
102
}
330
5E
100
DictionaryVariables
280
     0
  1
1
  0
DICTIONARYVAR
  5
C07
102
{ACAD_REACTORS
330
5E
102
}
330
5E
100
DictionaryVariables
280
     0
  1
80.000000
  0
DICTIONARYVAR
  5
C06
102
{ACAD_REACTORS
330
5E
102
}
330
5E
100
DictionaryVariables
280
     0
  1
5.000000
  0
DICTIONARYVAR
  5
C04
102
{ACAD_REACTORS
330
5E
102
}
330
5E
100
DictionaryVariables
280
     0
  1
127
  0
DICTIONARY
  5
C0D
330
D3
100
AcDbDictionary
280
     1
281
     1
  3
ACAD_XREC_ROUNDTRIP
360
C0E
  0
DICTIONARY
  5
C0F
330
D7
100
AcDbDictionary
280
     1
281
     1
  3
ACAD_XREC_ROUNDTRIP
360
C10
  0
DICTIONARY
  5
C0A
330
22
100
AcDbDictionary
280
     1
281
     1
  3
ACAD_XREC_ROUNDTRIP
360
C0B
  0
DICTIONARY
  5
C13
330
ED
100
AcDbDictionary
280
     1
281
     1
  3
ACAD_XREC_ROUNDTRIP
360
C14
  0
DICTIONARY
  5
C11
330
EC
100
AcDbDictionary
280
     1
281
     1
  3
ACAD_XREC_ROUNDTRIP
360
C12
  0
DICTIONARY
  5
173
330
EE
100
AcDbDictionary
280
     1
281
     1
  3
ACAD_XREC_ROUNDTRIP
360
C15
  3
BUMPTILE
360
175
  3
DIFFUSETILE
360
174
  3
OPACITYTILE
360
176
  3
REFLECTIONTILE
360
177
  0
DICTIONARY
  5
162
330
7F
100
AcDbDictionary
280
     1
281
     1
  3
ACAD_ROUNDTRIP_2008_TABLESTYLE_CELLSTYLEMAP
360
C08
  3
ACAD_XREC_ROUNDTRIP
360
C0C
  0
XRECORD
  5
C0E
102
{ACAD_REACTORS
330
C0D
102
}
330
C0D
100
AcDbXrecord
280
     1
102
SHADEPLOT
 70
     0
102
SHADEPLOTRESLEVEL
 70
     2
102
SHADEPLOTCUSTOMDPI
 70
   300
  0
XRECORD
  5
C10
102
{ACAD_REACTORS
330
C0F
102
}
330
C0F
100
AcDbXrecord
280
     1
102
SHADEPLOT
 70
     0
102
SHADEPLOTRESLEVEL
 70
     2
102
SHADEPLOTCUSTOMDPI
 70
   300
  0
XRECORD
  5
C0B
102
{ACAD_REACTORS
330
C0A
102
}
330
C0A
100
AcDbXrecord
280
     1
102
SHADEPLOT
 70
     0
102
SHADEPLOTRESLEVEL
 70
     2
102
SHADEPLOTCUSTOMDPI
 70
   300
  0
XRECORD
  5
C14
102
{ACAD_REACTORS
330
C13
102
}
330
C13
100
AcDbXrecord
280
     1
102
MATERIAL
148
0.0
149
0.0
149
0.0
 93
        0
 94
       63
282
     0
 72
     1
 77
     1
171
     1
175
     1
179
     1
273
     0
  0
XRECORD
  5
C12
102
{ACAD_REACTORS
330
C11
102
}
330
C11
100
AcDbXrecord
280
     1
102
MATERIAL
148
0.0
149
0.0
149
0.0
 93
        0
 94
       63
282
     0
 72
     1
 77
     1
171
     1
175
     1
179
     1
273
     0
  0
XRECORD
  5
C15
102
{ACAD_REACTORS
330
173
102
}
330
173
100
AcDbXrecord
280
     1
102
MATERIAL
148
0.0
149
0.0
149
0.0
 93
        0
 94
       63
282
     0
 72
     1
 77
     1
171
     1
175
     1
179
     1
273
     0
  0
XRECORD
  5
175
102
{ACAD_REACTORS
330
173
102
}
330
173
100
AcDbXrecord
280
     1
270
     1
271
     1
  0
XRECORD
  5
174
102
{ACAD_REACTORS
330
173
102
}
330
173
100
AcDbXrecord
280
     1
270
     1
271
     1
  0
XRECORD
  5
176
102
{ACAD_REACTORS
330
173
102
}
330
173
100
AcDbXrecord
280
     1
270
     1
271
     1
  0
XRECORD
  5
177
102
{ACAD_REACTORS
330
173
102
}
330
173
100
AcDbXrecord
280
     1
270
     1
271
     1
  0
CELLSTYLEMAP
  5
C08
102
{ACAD_REACTORS
330
162
102
}
330
162
100
AcDbCellStyleMap
 90
        3
300
CELLSTYLE
  1
TABLEFORMAT_BEGIN
 90
        5
170
     1
 91
        0
 92
    32768
 62
   257
 93
        1
300
CONTENTFORMAT
  1
CONTENTFORMAT_BEGIN
 90
        0
 91
        0
 92
      512
 93
        0
300

 40
0.0
140
1.0
 94
        5
 62
     0
340
11
144
6.0
309
CONTENTFORMAT_END
171
     1
301
MARGIN
  1
CELLMARGIN_BEGIN
 40
1.5
 40
1.5
 40
1.5
 40
1.5
 40
4.5
 40
4.5
309
CELLMARGIN_END
 94
        6
 95
        1
302
GRIDFORMAT
  1
GRIDFORMAT_BEGIN
 90
        0
 91
        1
 62
     0
 92
       -2
340
14
 93
        0
 40
1.125
309
GRIDFORMAT_END
 95
        2
302
GRIDFORMAT
  1
GRIDFORMAT_BEGIN
 90
        0
 91
        1
 62
     0
 92
       -2
340
14
 93
        0
 40
1.125
309
GRIDFORMAT_END
 95
        4
302
GRIDFORMAT
  1
GRIDFORMAT_BEGIN
 90
        0
 91
        1
 62
     0
 92
       -2
340
14
 93
        0
 40
1.125
309
GRIDFORMAT_END
 95
        8
302
GRIDFORMAT
  1
GRIDFORMAT_BEGIN
 90
        0
 91
        1
 62
     0
 92
       -2
340
14
 93
        0
 40
1.125
309
GRIDFORMAT_END
 95
       16
302
GRIDFORMAT
  1
GRIDFORMAT_BEGIN
 90
        0
 91
        1
 62
     0
 92
       -2
340
14
 93
        0
 40
1.125
309
GRIDFORMAT_END
 95
       32
302
GRIDFORMAT
  1
GRIDFORMAT_BEGIN
 90
        0
 91
        1
 62
     0
 92
       -2
340
14
 93
        0
 40
1.125
309
GRIDFORMAT_END
309
TABLEFORMAT_END
  1
CELLSTYLE_BEGIN
 90
        1
 91
        1
300
_TITLE
309
CELLSTYLE_END
300
CELLSTYLE
  1
TABLEFORMAT_BEGIN
 90
        5
170
     1
 91
        0
 92
        0
 62
   257
 93
        1
300
CONTENTFORMAT
  1
CONTENTFORMAT_BEGIN
 90
        0
 91
        0
 92
      512
 93
        0
300

 40
0.0
140
1.0
 94
        5
 62
     0
340
11
144
4.5
309
CONTENTFORMAT_END
171
     1
301
MARGIN
  1
CELLMARGIN_BEGIN
 40
1.5
 40
1.5
 40
1.5
 40
1.5
 40
4.5
 40
4.5
309
CELLMARGIN_END
 94
        6
 95
        1
302
GRIDFORMAT
  1
GRIDFORMAT_BEGIN
 90
        0
 91
        1
 62
     0
 92
       -2
340
14
 93
        0
 40
1.125
309
GRIDFORMAT_END
 95
        2
302
GRIDFORMAT
  1
GRIDFORMAT_BEGIN
 90
        0
 91
        1
 62
     0
 92
       -2
340
14
 93
        0
 40
1.125
309
GRIDFORMAT_END
 95
        4
302
GRIDFORMAT
  1
GRIDFORMAT_BEGIN
 90
        0
 91
        1
 62
     0
 92
       -2
340
14
 93
        0
 40
1.125
309
GRIDFORMAT_END
 95
        8
302
GRIDFORMAT
  1
GRIDFORMAT_BEGIN
 90
        0
 91
        1
 62
     0
 92
       -2
340
14
 93
        0
 40
1.125
309
GRIDFORMAT_END
 95
       16
302
GRIDFORMAT
  1
GRIDFORMAT_BEGIN
 90
        0
 91
        1
 62
     0
 92
       -2
340
14
 93
        0
 40
1.125
309
GRIDFORMAT_END
 95
       32
302
GRIDFORMAT
  1
GRIDFORMAT_BEGIN
 90
        0
 91
        1
 62
     0
 92
       -2
340
14
 93
        0
 40
1.125
309
GRIDFORMAT_END
309
TABLEFORMAT_END
  1
CELLSTYLE_BEGIN
 90
        2
 91
        1
300
_HEADER
309
CELLSTYLE_END
300
CELLSTYLE
  1
TABLEFORMAT_BEGIN
 90
        5
170
     1
 91
        0
 92
        0
 62
   257
 93
        1
300
CONTENTFORMAT
  1
CONTENTFORMAT_BEGIN
 90
        0
 91
        0
 92
      512
 93
        0
300

 40
0.0
140
1.0
 94
        2
 62
     0
340
11
144
4.5
309
CONTENTFORMAT_END
171
     1
301
MARGIN
  1
CELLMARGIN_BEGIN
 40
1.5
 40
1.5
 40
1.5
 40
1.5
 40
4.5
 40
4.5
309
CELLMARGIN_END
 94
        6
 95
        1
302
GRIDFORMAT
  1
GRIDFORMAT_BEGIN
 90
        0
 91
        1
 62
     0
 92
       -2
340
14
 93
        0
 40
1.125
309
GRIDFORMAT_END
 95
        2
302
GRIDFORMAT
  1
GRIDFORMAT_BEGIN
 90
        0
 91
        1
 62
     0
 92
       -2
340
14
 93
        0
 40
1.125
309
GRIDFORMAT_END
 95
        4
302
GRIDFORMAT
  1
GRIDFORMAT_BEGIN
 90
        0
 91
        1
 62
     0
 92
       -2
340
14
 93
        0
 40
1.125
309
GRIDFORMAT_END
 95
        8
302
GRIDFORMAT
  1
GRIDFORMAT_BEGIN
 90
        0
 91
        1
 62
     0
 92
       -2
340
14
 93
        0
 40
1.125
309
GRIDFORMAT_END
 95
       16
302
GRIDFORMAT
  1
GRIDFORMAT_BEGIN
 90
        0
 91
        1
 62
     0
 92
       -2
340
14
 93
        0
 40
1.125
309
GRIDFORMAT_END
 95
       32
302
GRIDFORMAT
  1
GRIDFORMAT_BEGIN
 90
        0
 91
        1
 62
     0
 92
       -2
340
14
 93
        0
 40
1.125
309
GRIDFORMAT_END
309
TABLEFORMAT_END
  1
CELLSTYLE_BEGIN
 90
        3
 91
        2
300
_DATA
309
CELLSTYLE_END
  0
XRECORD
  5
C0C
102
{ACAD_REACTORS
330
162
102
}
330
162
100
AcDbXrecord
280
     1
102
ACAD_ROUNDTRIP_PRE2007_TABLESTYLE
 90
      512
 91
        0
  1

 92
      512
 93
        0
  2

 94
      512
 95
        0
  3

  0
ENDSEC
  0
EOF
