  0
SECTION
  2
HEADER
  9
$ACADVER
  1
AC1015
  9
$ACADMAINTVER
 70
    20
  9
$DWGCODEPAGE
  3
ANSI_1254
  9
$INSBASE
 10
0.0
 20
0.0
 30
0.0
  9
$EXTMIN
 10
2031.959645316919
 20
874.0715896362985
 30
0.0
  9
$EXTMAX
 10
2147.583291906712
 20
957.7087952040367
 30
0.0
  9
$LIMMIN
 10
0.0
 20
0.0
  9
$LIMMAX
 10
420.0
 20
297.0
  9
$ORTHOMODE
 70
     0
  9
$REGENMODE
 70
     1
  9
$FILLMODE
 70
     1
  9
$QTEXTMODE
 70
     0
  9
$MIRRTEXT
 70
     0
  9
$LTSCALE
 40
1.0
  9
$ATTMODE
 70
     1
  9
$TEXTSIZE
 40
2.5
  9
$TRACEWID
 40
1.0
  9
$TEXTSTYLE
  7
Standard
  9
$CLAYER
  8
0
  9
$CELTYPE
  6
ByLayer
  9
$CECOLOR
 62
   256
  9
$CELTSCALE
 40
1.0
  9
$DISPSILH
 70
     0
  9
$DIMSCALE
 40
1.0
  9
$DIMASZ
 40
2.5
  9
$DIMEXO
 40
0.625
  9
$DIMDLI
 40
3.75
  9
$DIMRND
 40
0.0
  9
$DIMDLE
 40
0.0
  9
$DIMEXE
 40
1.25
  9
$DIMTP
 40
0.0
  9
$DIMTM
 40
0.0
  9
$DIMTXT
 40
2.5
  9
$DIMCEN
 40
2.5
  9
$DIMTSZ
 40
0.0
  9
$DIMTOL
 70
     0
  9
$DIMLIM
 70
     0
  9
$DIMTIH
 70
     0
  9
$DIMTOH
 70
     0
  9
$DIMSE1
 70
     0
  9
$DIMSE2
 70
     0
  9
$DIMTAD
 70
     1
  9
$DIMZIN
 70
     8
  9
$DIMBLK
  1

  9
$DIMASO
 70
     1
  9
$DIMSHO
 70
     1
  9
$DIMPOST
  1

  9
$DIMAPOST
  1

  9
$DIMALT
 70
     0
  9
$DIMALTD
 70
     3
  9
$DIMALTF
 40
0.03937007874016
  9
$DIMLFAC
 40
1.0
  9
$DIMTOFL
 70
     1
  9
$DIMTVP
 40
0.0
  9
$DIMTIX
 70
     0
  9
$DIMSOXD
 70
     0
  9
$DIMSAH
 70
     0
  9
$DIMBLK1
  1

  9
$DIMBLK2
  1

  9
$DIMSTYLE
  2
ISO-25
  9
$DIMCLRD
 70
     0
  9
$DIMCLRE
 70
     0
  9
$DIMCLRT
 70
     0
  9
$DIMTFAC
 40
1.0
  9
$DIMGAP
 40
0.625
  9
$DIMJUST
 70
     0
  9
$DIMSD1
 70
     0
  9
$DIMSD2
 70
     0
  9
$DIMTOLJ
 70
     0
  9
$DIMTZIN
 70
     8
  9
$DIMALTZ
 70
     0
  9
$DIMALTTZ
 70
     0
  9
$DIMUPT
 70
     0
  9
$DIMDEC
 70
     2
  9
$DIMTDEC
 70
     2
  9
$DIMALTU
 70
     2
  9
$DIMALTTD
 70
     3
  9
$DIMTXSTY
  7
Standard
  9
$DIMAUNIT
 70
     0
  9
$DIMADEC
 70
     0
  9
$DIMALTRND
 40
0.0
  9
$DIMAZIN
 70
     0
  9
$DIMDSEP
 70
    44
  9
$DIMATFIT
 70
     3
  9
$DIMFRAC
 70
     0
  9
$DIMLDRBLK
  1

  9
$DIMLUNIT
 70
     2
  9
$DIMLWD
 70
    -2
  9
$DIMLWE
 70
    -2
  9
$DIMTMOVE
 70
     0
  9
$LUNITS
 70
     2
  9
$LUPREC
 70
     4
  9
$SKETCHINC
 40
1.0
  9
$FILLETRAD
 40
0.0
  9
$AUNITS
 70
     0
  9
$AUPREC
 70
     0
  9
$MENU
  1
.
  9
$ELEVATION
 40
0.0
  9
$PELEVATION
 40
0.0
  9
$THICKNESS
 40
0.0
  9
$LIMCHECK
 70
     0
  9
$CHAMFERA
 40
0.0
  9
$CHAMFERB
 40
0.0
  9
$CHAMFERC
 40
0.0
  9
$CHAMFERD
 40
0.0
  9
$SKPOLY
 70
     0
  9
$TDCREATE
 40
2458486.429454769
  9
$TDUCREATE
 40
2458486.304454769
  9
$TDUPDATE
 40
2459089.544888206
  9
$TDUUPDATE
 40
2459089.419888206
  9
$TDINDWG
 40
0.0011594213
  9
$TDUSRTIMER
 40
0.0011594213
  9
$USRTIMER
 70
     1
  9
$ANGBASE
 50
0.0
  9
$ANGDIR
 70
     0
  9
$PDMODE
 70
     0
  9
$PDSIZE
 40
0.0
  9
$PLINEWID
 40
0.0
  9
$SPLFRAME
 70
     0
  9
$SPLINETYPE
 70
     6
  9
$SPLINESEGS
 70
     8
  9
$HANDSEED
  5
C5E
  9
$SURFTAB1
 70
     6
  9
$SURFTAB2
 70
     6
  9
$SURFTYPE
 70
     6
  9
$SURFU
 70
     6
  9
$SURFV
 70
     6
  9
$UCSBASE
  2

  9
$UCSNAME
  2

  9
$UCSORG
 10
0.0
 20
0.0
 30
0.0
  9
$UCSXDIR
 10
1.0
 20
0.0
 30
0.0
  9
$UCSYDIR
 10
0.0
 20
1.0
 30
0.0
  9
$UCSORTHOREF
  2

  9
$UCSORTHOVIEW
 70
     0
  9
$UCSORGTOP
 10
0.0
 20
0.0
 30
0.0
  9
$UCSORGBOTTOM
 10
0.0
 20
0.0
 30
0.0
  9
$UCSORGLEFT
 10
0.0
 20
0.0
 30
0.0
  9
$UCSORGRIGHT
 10
0.0
 20
0.0
 30
0.0
  9
$UCSORGFRONT
 10
0.0
 20
0.0
 30
0.0
  9
$UCSORGBACK
 10
0.0
 20
0.0
 30
0.0
  9
$PUCSBASE
  2

  9
$PUCSNAME
  2

  9
$PUCSORG
 10
0.0
 20
0.0
 30
0.0
  9
$PUCSXDIR
 10
1.0
 20
0.0
 30
0.0
  9
$PUCSYDIR
 10
0.0
 20
1.0
 30
0.0
  9
$PUCSORTHOREF
  2

  9
$PUCSORTHOVIEW
 70
     0
  9
$PUCSORGTOP
 10
0.0
 20
0.0
 30
0.0
  9
$PUCSORGBOTTOM
 10
0.0
 20
0.0
 30
0.0
  9
$PUCSORGLEFT
 10
0.0
 20
0.0
 30
0.0
  9
$PUCSORGRIGHT
 10
0.0
 20
0.0
 30
0.0
  9
$PUCSORGFRONT
 10
0.0
 20
0.0
 30
0.0
  9
$PUCSORGBACK
 10
0.0
 20
0.0
 30
0.0
  9
$USERI1
 70
     0
  9
$USERI2
 70
     0
  9
$USERI3
 70
     0
  9
$USERI4
 70
     0
  9
$USERI5
 70
     0
  9
$USERR1
 40
0.0
  9
$USERR2
 40
0.0
  9
$USERR3
 40
0.0
  9
$USERR4
 40
0.0
  9
$USERR5
 40
0.0
  9
$WORLDVIEW
 70
     1
  9
$SHADEDGE
 70
     3
  9
$SHADEDIF
 70
    70
  9
$TILEMODE
 70
     1
  9
$MAXACTVP
 70
    64
  9
$PINSBASE
 10
0.0
 20
0.0
 30
0.0
  9
$PLIMCHECK
 70
     0
  9
$PEXTMIN
 10
0.0
 20
0.0
 30
0.0
  9
$PEXTMAX
 10
0.0
 20
0.0
 30
0.0
  9
$PLIMMIN
 10
0.0
 20
0.0
  9
$PLIMMAX
 10
12.0
 20
9.0
  9
$UNITMODE
 70
     0
  9
$VISRETAIN
 70
     1
  9
$PLINEGEN
 70
     0
  9
$PSLTSCALE
 70
     1
  9
$TREEDEPTH
 70
  3020
  9
$CMLSTYLE
  2
Standard
  9
$CMLJUST
 70
     0
  9
$CMLSCALE
 40
20.0
  9
$PROXYGRAPHICS
 70
     1
  9
$MEASUREMENT
 70
     1
  9
$CELWEIGHT
370
    -1
  9
$ENDCAPS
280
     0
  9
$JOINSTYLE
280
     0
  9
$LWDISPLAY
290
     0
  9
$INSUNITS
 70
     4
  9
$HYPERLINKBASE
  1

  9
$STYLESHEET
  1

  9
$XEDIT
290
     1
  9
$CEPSNTYPE
380
     0
  9
$PSTYLEMODE
290
     1
  9
$FINGERPRINTGUID
  2
{0312B498-363B-4A4E-BCC0-D3A8973434DE}
  9
$VERSIONGUID
  2
{F3C786F6-194C-4921-B0EF-73F7D0E3A7EC}
  9
$EXTNAMES
290
     1
  9
$PSVPSCALE
 40
0.0
  9
$OLESTARTUP
290
     0
  0
ENDSEC
  0
SECTION
  2
CLASSES
  0
CLASS
  1
ACDBDICTIONARYWDFLT
  2
AcDbDictionaryWithDefault
  3
ObjectDBX Classes
 90
        0
280
     0
281
     0
  0
CLASS
  1
ACDBPLACEHOLDER
  2
AcDbPlaceHolder
  3
ObjectDBX Classes
 90
        0
280
     0
281
     0
  0
CLASS
  1
LAYOUT
  2
AcDbLayout
  3
ObjectDBX Classes
 90
        0
280
     0
281
     0
  0
CLASS
  1
DICTIONARYVAR
  2
AcDbDictionaryVar
  3
ObjectDBX Classes
 90
        0
280
     0
281
     0
  0
CLASS
  1
TABLESTYLE
  2
AcDbTableStyle
  3
ObjectDBX Classes
 90
     4095
280
     0
281
     0
  0
CLASS
  1
MATERIAL
  2
AcDbMaterial
  3
ObjectDBX Classes
 90
     1153
280
     0
281
     0
  0
CLASS
  1
VISUALSTYLE
  2
AcDbVisualStyle
  3
ObjectDBX Classes
 90
     4095
280
     0
281
     0
  0
CLASS
  1
SCALE
  2
AcDbScale
  3
ObjectDBX Classes
 90
     1153
280
     0
281
     0
  0
CLASS
  1
MLEADERSTYLE
  2
AcDbMLeaderStyle
  3
ACDB_MLEADERSTYLE_CLASS
 90
     4095
280
     0
281
     0
  0
CLASS
  1
CELLSTYLEMAP
  2
AcDbCellStyleMap
  3
ObjectDBX Classes
 90
     1152
280
     0
281
     0
  0
CLASS
  1
ACAD_EVALUATION_GRAPH
  2
AcDbEvalGraph
  3
ObjectDBX Classes
 90
    33921
280
     0
281
     0
  0
CLASS
  1
ACAECUSTOBJ
  2
AcAeEditorObj
  3
AcAeEditorObj
 90
    33792
280
     0
281
     0
  0
CLASS
  1
ACDB_DYNAMICBLOCKPURGEPREVENTER_VERSION
  2
AcDbDynamicBlockPurgePreventer
  3
ObjectDBX Classes
 90
    33921
280
     0
281
     0
  0
CLASS
  1
DIMASSOC
  2
AcDbDimAssoc
  3
"AcDbDimAssoc|Product Desc:     AcDim ARX App For Dimension|Company:          Autodesk, Inc.|WEB Address:      www.autodesk.com"
 90
    32768
280
     0
281
     0
  0
ENDSEC
  0
SECTION
  2
TABLES
  0
TABLE
  2
VPORT
  5
8
102
{ACAD_XDICTIONARY
360
C05
102
}
330
0
100
AcDbSymbolTable
 70
     1
  0
VPORT
  5
EA
330
8
100
AcDbSymbolTableRecord
100
AcDbViewportTableRecord
  2
*Active
 70
     0
 10
0.0
 20
0.0
 11
1.0
 21
1.0
 12
2118.203103199371
 22
930.9538418295661
 13
0.0
 23
0.0
 14
10.0
 24
10.0
 15
10.0
 25
10.0
 16
0.0
 26
0.0
 36
1.0
 17
0.0
 27
0.0
 37
0.0
 40
157.968869701436
 41
1.90311004784689
 42
50.0
 43
0.0
 44
0.0
 50
0.0
 51
0.0
 71
     0
 72
  1000
 73
     1
 74
     3
 75
     0
 76
     0
 77
     0
 78
     0
281
     0
 65
     1
110
0.0
120
0.0
130
0.0
111
1.0
121
0.0
131
0.0
112
0.0
122
1.0
132
0.0
 79
     0
146
0.0
  0
ENDTAB
  0
TABLE
  2
LTYPE
  5
5
330
0
100
AcDbSymbolTable
 70
     1
  0
LTYPE
  5
14
330
5
100
AcDbSymbolTableRecord
100
AcDbLinetypeTableRecord
  2
ByBlock
 70
     0
  3

 72
    65
 73
     0
 40
0.0
  0
LTYPE
  5
15
330
5
100
AcDbSymbolTableRecord
100
AcDbLinetypeTableRecord
  2
ByLayer
 70
     0
  3

 72
    65
 73
     0
 40
0.0
  0
LTYPE
  5
16
330
5
100
AcDbSymbolTableRecord
100
AcDbLinetypeTableRecord
  2
Continuous
 70
     0
  3
Solid line
 72
    65
 73
     0
 40
0.0
  0
ENDTAB
  0
TABLE
  2
LAYER
  5
2
330
0
100
AcDbSymbolTable
 70
     2
  0
LAYER
  5
10
102
{ACAD_XDICTIONARY
360
13C
102
}
330
2
100
AcDbSymbolTableRecord
100
AcDbLayerTableRecord
  2
0
 70
     0
 62
     7
  6
Continuous
370
    -3
390
F
  0
LAYER
  5
C17
330
2
100
AcDbSymbolTableRecord
100
AcDbLayerTableRecord
  2
Defpoints
 70
     0
 62
     7
  6
Continuous
290
     0
370
    -3
390
F
  0
ENDTAB
  0
TABLE
  2
STYLE
  5
3
330
0
100
AcDbSymbolTable
 70
     2
  0
STYLE
  5
11
330
3
100
AcDbSymbolTableRecord
100
AcDbTextStyleTableRecord
  2
Standard
 70
     0
 40
0.0
 41
1.0
 50
0.0
 71
     0
 42
2.5
  3
txt
  4

  0
STYLE
  5
132
330
3
100
AcDbSymbolTableRecord
100
AcDbTextStyleTableRecord
  2
Annotative
 70
     0
 40
0.0
 41
1.0
 50
0.0
 71
     0
 42
2.5
  3
txt.shx
  4

1001
AcadAnnotative
1000
AnnotativeData
1002
{
1070
     1
1070
     1
1002
}
  0
ENDTAB
  0
TABLE
  2
VIEW
  5
6
330
0
100
AcDbSymbolTable
 70
     0
  0
ENDTAB
  0
TABLE
  2
UCS
  5
7
330
0
100
AcDbSymbolTable
 70
     0
  0
ENDTAB
  0
TABLE
  2
APPID
  5
9
330
0
100
AcDbSymbolTable
 70
    11
  0
APPID
  5
12
330
9
100
AcDbSymbolTableRecord
100
AcDbRegAppTableRecord
  2
ACAD
 70
     0
  0
APPID
  5
9E
330
9
100
AcDbSymbolTableRecord
100
AcDbRegAppTableRecord
  2
ACAD_PSEXT
 70
     0
  0
APPID
  5
133
330
9
100
AcDbSymbolTableRecord
100
AcDbRegAppTableRecord
  2
AcadAnnoPO
 70
     0
  0
APPID
  5
134
330
9
100
AcDbSymbolTableRecord
100
AcDbRegAppTableRecord
  2
AcadAnnotative
 70
     0
  0
APPID
  5
135
330
9
100
AcDbSymbolTableRecord
100
AcDbRegAppTableRecord
  2
ACAD_DSTYLE_DIMJAG
 70
     0
  0
APPID
  5
136
330
9
100
AcDbSymbolTableRecord
100
AcDbRegAppTableRecord
  2
ACAD_DSTYLE_DIMTALN
 70
     0
  0
APPID
  5
165
330
9
100
AcDbSymbolTableRecord
100
AcDbRegAppTableRecord
  2
ACAD_MLEADERVER
 70
     0
  0
APPID
  5
BFB
330
9
100
AcDbSymbolTableRecord
100
AcDbRegAppTableRecord
  2
ACAUTHENVIRON
 70
     0
  0
APPID
  5
BFF
330
9
100
AcDbSymbolTableRecord
100
AcDbRegAppTableRecord
  2
AcDbDynamicBlockTrueName
 70
     0
  0
APPID
  5
C00
330
9
100
AcDbSymbolTableRecord
100
AcDbRegAppTableRecord
  2
AcDbDynamicBlockGUID
 70
     0
  0
APPID
  5
C02
330
9
100
AcDbSymbolTableRecord
100
AcDbRegAppTableRecord
  2
AcDbBlockRepETag
 70
     0
  0
ENDTAB
  0
TABLE
  2
DIMSTYLE
  5
A
330
0
100
AcDbSymbolTable
 70
     2
100
AcDbDimStyleTable
 71
     2
340
27
340
137
  0
DIMSTYLE
105
27
330
A
100
AcDbSymbolTableRecord
100
AcDbDimStyleTableRecord
  2
ISO-25
 70
     0
 41
2.5
 42
0.625
 43
3.75
 44
1.25
 73
     0
 74
     0
 77
     1
 78
     8
140
2.5
141
2.5
143
0.03937007874016
147
0.625
171
     3
172
     1
271
     2
272
     2
274
     3
278
    44
283
     0
284
     8
340
11
  0
DIMSTYLE
105
137
330
A
100
AcDbSymbolTableRecord
100
AcDbDimStyleTableRecord
  2
Annotative
 70
     0
 40
0.0
 41
2.5
 42
0.625
 43
3.75
 44
1.25
 73
     0
 74
     0
 77
     1
 78
     8
140
2.5
141
2.5
143
0.03937007874016
147
0.625
171
     3
172
     1
271
     2
272
     2
274
     3
278
    44
283
     0
284
     8
340
11
1001
AcadAnnotative
1000
AnnotativeData
1002
{
1070
     1
1070
     1
1002
}
1001
ACAD_DSTYLE_DIMJAG
1070
   388
1040
1.5
1001
ACAD_DSTYLE_DIMTALN
1070
   392
1070
     0
  0
ENDTAB
  0
TABLE
  2
BLOCK_RECORD
  5
1
330
0
100
AcDbSymbolTable
 70
     8
  0
BLOCK_RECORD
  5
1F
330
1
100
AcDbSymbolTableRecord
100
AcDbBlockTableRecord
  2
*Model_Space
340
22
  0
BLOCK_RECORD
  5
D2
330
1
100
AcDbSymbolTableRecord
100
AcDbBlockTableRecord
  2
*Paper_Space
340
D3
  0
BLOCK_RECORD
  5
D6
330
1
100
AcDbSymbolTableRecord
100
AcDbBlockTableRecord
  2
*Paper_Space0
340
D7
  0
BLOCK_RECORD
  5
1AD
330
1
100
AcDbSymbolTableRecord
100
AcDbBlockTableRecord
  2
SW_CENTERMARKSYMBOL_0
340
0
  0
BLOCK_RECORD
  5
840
330
1
100
AcDbSymbolTableRecord
100
AcDbBlockTableRecord
  2
1
340
0
310
2800000020000000200000000100080000000000000400000000000000000000000000000000000000000000000080000080000000808000800000008000800080800000C0C0C000C0DCC000F0CAA6000020400000206000002080000020A0000020C0000020E00000400000004020000040400000406000004080000040A0
310
000040C0000040E00000600000006020000060400000606000006080000060A0000060C0000060E00000800000008020000080400000806000008080000080A0000080C0000080E00000A0000000A0200000A0400000A0600000A0800000A0A00000A0C00000A0E00000C0000000C0200000C0400000C0600000C0800000C0
310
A00000C0C00000C0E00000E0000000E0200000E0400000E0600000E0800000E0A00000E0C00000E0E00040000000400020004000400040006000400080004000A0004000C0004000E00040200000402020004020400040206000402080004020A0004020C0004020E000404000004040200040404000404060004040800040
310
40A0004040C0004040E00040600000406020004060400040606000406080004060A0004060C0004060E00040800000408020004080400040806000408080004080A0004080C0004080E00040A0000040A0200040A0400040A0600040A0800040A0A00040A0C00040A0E00040C0000040C0200040C0400040C0600040C08000
310
40C0A00040C0C00040C0E00040E0000040E0200040E0400040E0600040E0800040E0A00040E0C00040E0E00080000000800020008000400080006000800080008000A0008000C0008000E00080200000802020008020400080206000802080008020A0008020C0008020E00080400000804020008040400080406000804080
310
008040A0008040C0008040E00080600000806020008060400080606000806080008060A0008060C0008060E00080800000808020008080400080806000808080008080A0008080C0008080E00080A0000080A0200080A0400080A0600080A0800080A0A00080A0C00080A0E00080C0000080C0200080C0400080C0600080C0
310
800080C0A00080C0C00080C0E00080E0000080E0200080E0400080E0600080E0800080E0A00080E0C00080E0E000C0000000C0002000C0004000C0006000C0008000C000A000C000C000C000E000C0200000C0202000C0204000C0206000C0208000C020A000C020C000C020E000C0400000C0402000C0404000C0406000C0
310
408000C040A000C040C000C040E000C0600000C0602000C0604000C0606000C0608000C060A000C060C000C060E000C0800000C0802000C0804000C0806000C0808000C080A000C080C000C080E000C0A00000C0A02000C0A04000C0A06000C0A08000C0A0A000C0A0C000C0A0E000C0C00000C0C02000C0C04000C0C06000
310
C0C08000C0C0A000F0FBFF00A4A0A000808080000000FF0000FF000000FFFF00FF000000FF00FF00FFFF0000FFFFFF000000000000000000000000000000000000000000000000000000000000000000000000000000000000FFFFFFFFFFFFFFFFFFFFFFFFFFFF000000000000000000000000000000000000FF00FFFFFFFF
310
FFFFFFFFFFFF00FF000000000000000000000000000000000000FF00FFFFFFFFFFFFFFFFFFFF00FF000000000000000000000000000000000000FFFFFF0000000000000000FFFFFF000000000000000000000000000000000000FF00FF0000000000000000FF00FF000000000000000000000000000000000000FF00FF0000
310
000000000000FF00FF000000000000000000000000000000000000FF00FFFFFFFFFFFFFFFFFFFF00FF000000000000000000000000000000000000FFFFFFFF000000000000FFFFFFFF000000000000000000000000000000000000FF00FFFF000000000000FFFF00FF000000000000000000000000000000000000FF00FFFF
310
FFFFFFFFFFFFFFFF00FF000000000000000000000000000000000000FF00FFFFFFFFFFFFFFFFFFFF00FF000000000000000000000000000000000000FF00FFFFFFFFFFFFFFFFFFFF00FF000000000000000000000000000000000000FF00FFFF000000000000FFFF00FF000000000000000000000000000000000000FF00FF
310
FF000000000000FFFF00FF000000000000000000000000000000000000FF00FFFF000000000000FFFF00FF000000000000000000000000000000000000FF00FFFF000000000000FFFF00FF000000000000000000000000000000000000FF00FFFF000000000000FFFF00FF000000000000000000000000000000000000FF00
310
FFFF000000000000FFFF00FF000000000000000000000000000000000000FF00FFFF000000000000FFFF00FF000000000000000000000000000000000000FF00FFFF000000000000FFFF00FF000000000000000000000000000000000000FF00FFFF000000000000FFFF00FF000000000000000000000000000000000000FF
310
00FFFF000000000000FFFF00FF000000000000000000000000000000000000FFFFFFFF000000000000FFFFFFFF000000000000000000000000000000000000FFFFFFFF000000000000FFFFFFFF000000000000000000000000000000000000FFFFFFFFFFFFFFFFFFFFFFFFFFFF000000000000000000000000000000000000
310
0000FFFFFFFFFFFFFFFFFFFF0000000000000000000000000000000000000000000000FF0000FFFF0000FF000000000000000000000000000000000000000000000000FF0000FFFF0000FF000000000000000000000000000000000000000000000000FFFFFFFFFFFFFFFF0000000000000000000000000000000000000000
310
00000000FFFFFFFFFFFFFFFF0000000000000000000000000000000000000000000000000000000000000000000000000000000000000000
102
{BLKREFS
331
8C8
102
}
1001
ACAD
1000
DesignCenter Data
1002
{
1070
     1
1070
     4
1002
}
  0
BLOCK_RECORD
  5
8C9
330
1
100
AcDbSymbolTableRecord
100
AcDbBlockTableRecord
  2
2
340
0
310
2800000020000000200000000100080000000000000400000000000000000000000000000000000000000000000080000080000000808000800000008000800080800000C0C0C000C0DCC000F0CAA6000020400000206000002080000020A0000020C0000020E00000400000004020000040400000406000004080000040A0
310
000040C0000040E00000600000006020000060400000606000006080000060A0000060C0000060E00000800000008020000080400000806000008080000080A0000080C0000080E00000A0000000A0200000A0400000A0600000A0800000A0A00000A0C00000A0E00000C0000000C0200000C0400000C0600000C0800000C0
310
A00000C0C00000C0E00000E0000000E0200000E0400000E0600000E0800000E0A00000E0C00000E0E00040000000400020004000400040006000400080004000A0004000C0004000E00040200000402020004020400040206000402080004020A0004020C0004020E000404000004040200040404000404060004040800040
310
40A0004040C0004040E00040600000406020004060400040606000406080004060A0004060C0004060E00040800000408020004080400040806000408080004080A0004080C0004080E00040A0000040A0200040A0400040A0600040A0800040A0A00040A0C00040A0E00040C0000040C0200040C0400040C0600040C08000
310
40C0A00040C0C00040C0E00040E0000040E0200040E0400040E0600040E0800040E0A00040E0C00040E0E00080000000800020008000400080006000800080008000A0008000C0008000E00080200000802020008020400080206000802080008020A0008020C0008020E00080400000804020008040400080406000804080
310
008040A0008040C0008040E00080600000806020008060400080606000806080008060A0008060C0008060E00080800000808020008080400080806000808080008080A0008080C0008080E00080A0000080A0200080A0400080A0600080A0800080A0A00080A0C00080A0E00080C0000080C0200080C0400080C0600080C0
310
800080C0A00080C0C00080C0E00080E0000080E0200080E0400080E0600080E0800080E0A00080E0C00080E0E000C0000000C0002000C0004000C0006000C0008000C000A000C000C000C000E000C0200000C0202000C0204000C0206000C0208000C020A000C020C000C020E000C0400000C0402000C0404000C0406000C0
310
408000C040A000C040C000C040E000C0600000C0602000C0604000C0606000C0608000C060A000C060C000C060E000C0800000C0802000C0804000C0806000C0808000C080A000C080C000C080E000C0A00000C0A02000C0A04000C0A06000C0A08000C0A0A000C0A0C000C0A0E000C0C00000C0C02000C0C04000C0C06000
310
C0C08000C0C0A000F0FBFF00A4A0A000808080000000FF0000FF000000FFFF00FF000000FF00FF00FFFF0000FFFFFF0000000000000000000000000000000000000000000000000000000000000000000000000000FFFFFFFFFFFFFFFF00FFFFFFFFFFFFFFFFFFFFFFFFFF00000000000000000000FF000000000000FFFFFF
310
0000000000000000000000FF000000000000000000FF0000000000000000000000000000000000000000FFFF000000000000000000FFFF00000000000000000000000000000000000000FF0000000000000000000000FF00000000000000000000000000000000000000FFFF000000000000000000FF000000000000000000
310
000000000000000000000000FF000000000000000000FF0000000000000000FFFFFFFFFFFFFFFFFFFFFFFFFFFF0000000000000000FF000000000000000000FF0000000000000000FFFFFFFF000000000000000000FF000000000000000000FF0000000000FFFFFFFF000000000000000000000000FF000000000000000000
310
FFFFFFFFFFFFFF000000000000000000000000000000FF000000000000000000FFFFFFFFFFFFFFFFFFFFFFFF00000000000000000000FF000000000000000000FFFFFFFFFFFFFFFFFFFFFFFFFFFF0000000000000000FF00000000000000000000000000000000000000000000FF0000000000000000FF0000000000000000
310
0000000000000000000000000000FF0000000000000000FF00000000000000000000000000000000000000000000FF0000000000000000FF0000000000000000000000000000000000000000000000FF00000000000000FF0000000000000000000000000000000000000000000000FF00000000000000FF00000000000000
310
00000000000000000000000000000000FF00000000000000FF0000000000000000000000000000000000000000000000FF00000000000000FF0000000000000000000000000000000000000000000000FF00000000000000FF000000000000000000000000000000000000000000000000FF000000000000FF000000000000
310
000000000000000000000000000000000000FF000000000000FF000000000000000000000000000000000000000000000000FF00000000000000FFFFFFFFFFFFFFFFFFFFFFFFFFFFFFFFFFFFFFFFFFFFFFFF000000000000000000FFFFFF00000000000000000000000000000000FFFFFF000000000000000000000000FFFF
310
FFFFFFFFFFFFFFFFFFFFFFFFFFFFFFFF000000000000000000000000000000000000FF00FF00000000FF00FF00000000000000000000000000000000000000000000FF00FF00FFFF00FF00FF00000000000000000000000000000000000000000000FFFFFFFFFFFFFFFFFFFF00000000000000000000000000000000000000
310
00000000FFFFFFFFFFFFFFFF0000000000000000000000000000000000000000000000000000000000000000000000000000000000000000
102
{BLKREFS
331
97F
102
}
1001
ACAD
1000
DesignCenter Data
1002
{
1070
     1
1070
     4
1002
}
  0
BLOCK_RECORD
  5
980
102
{ACAD_XDICTIONARY
360
BFC
102
}
330
1
100
AcDbSymbolTableRecord
100
AcDbBlockTableRecord
  2
3
340
0
310
2800000020000000200000000100080000000000000400000000000000000000000000000000000000000000000080000080000000808000800000008000800080800000C0C0C000C0DCC000F0CAA6000020400000206000002080000020A0000020C0000020E00000400000004020000040400000406000004080000040A0
310
000040C0000040E00000600000006020000060400000606000006080000060A0000060C0000060E00000800000008020000080400000806000008080000080A0000080C0000080E00000A0000000A0200000A0400000A0600000A0800000A0A00000A0C00000A0E00000C0000000C0200000C0400000C0600000C0800000C0
310
A00000C0C00000C0E00000E0000000E0200000E0400000E0600000E0800000E0A00000E0C00000E0E00040000000400020004000400040006000400080004000A0004000C0004000E00040200000402020004020400040206000402080004020A0004020C0004020E000404000004040200040404000404060004040800040
310
40A0004040C0004040E00040600000406020004060400040606000406080004060A0004060C0004060E00040800000408020004080400040806000408080004080A0004080C0004080E00040A0000040A0200040A0400040A0600040A0800040A0A00040A0C00040A0E00040C0000040C0200040C0400040C0600040C08000
310
40C0A00040C0C00040C0E00040E0000040E0200040E0400040E0600040E0800040E0A00040E0C00040E0E00080000000800020008000400080006000800080008000A0008000C0008000E00080200000802020008020400080206000802080008020A0008020C0008020E00080400000804020008040400080406000804080
310
008040A0008040C0008040E00080600000806020008060400080606000806080008060A0008060C0008060E00080800000808020008080400080806000808080008080A0008080C0008080E00080A0000080A0200080A0400080A0600080A0800080A0A00080A0C00080A0E00080C0000080C0200080C0400080C0600080C0
310
800080C0A00080C0C00080C0E00080E0000080E0200080E0400080E0600080E0800080E0A00080E0C00080E0E000C0000000C0002000C0004000C0006000C0008000C000A000C000C000C000E000C0200000C0202000C0204000C0206000C0208000C020A000C020C000C020E000C0400000C0402000C0404000C0406000C0
310
408000C040A000C040C000C040E000C0600000C0602000C0604000C0606000C0608000C060A000C060C000C060E000C0800000C0802000C0804000C0806000C0808000C080A000C080C000C080E000C0A00000C0A02000C0A04000C0A06000C0A08000C0A0A000C0A0C000C0A0E000C0C00000C0C02000C0C04000C0C06000
310
C0C08000C0C0A000F0FBFF00A4A0A000808080000000FF0000FF000000FFFF00FF000000FF00FF00FFFF0000FFFFFF0000000000000000000000000000000000000000000000000000000000000000000000000000000000FFFFFFFF0000000000000000FFFFFFFF00000000000000000000000000000000FFFFFFFF000000
310
0000000000FFFFFFFF00000000000000000000000000000000FFFFFFFFFFFFFFFFFFFFFFFFFFFFFFFF00000000000000000000000000000000FFFFFFFFFFFFFFFFFFFFFFFFFFFFFFFF00000000000000000000000000000000FFFFFFFFFFFFFFFFFFFFFFFFFFFFFFFF00000000000000000000000000000000FF00FF000000
310
00000000000000FF00FF00000000000000000000000000000000FF00FF00000000000000000000FF00FF00000000000000000000000000000000FF00FF00000000000000000000FF00FF00000000000000000000000000000000FF00FF00000000000000000000FF00FF00000000000000000000000000000000FF00FF0000
310
0000FFFF00000000FF00FF00000000000000000000000000000000FF00FF000000FF00FFFF000000FF00FF00000000000000000000000000000000FF00FF00FFFF00FF00FFFFFF00FF00FF00000000000000000000000000000000FF00FFFF00FFFF00FF00FF00FFFF00FF00000000000000000000000000000000FF00FFFF
310
FF0000FFFF0000FFFFFF00FF00000000000000000000000000000000FF00FFFFFFFFFFFFFFFFFFFFFFFF00FF00000000000000000000000000000000FF00FFFFFFFFFFFFFFFFFFFFFFFF00FF00000000000000000000000000000000FF00FFFFFF0000FFFF0000FFFFFF00FF00000000000000000000000000000000FF00FF
310
FF00FFFF00FF00FF00FFFF00FF00000000000000000000000000000000FF00FF00FFFF00FF00FFFFFF00FF00FF00000000000000000000000000000000FF00FF000000FF00FFFF000000FF00FF00000000000000000000000000000000FF00FF00000000FFFF00000000FF00FF00000000000000000000000000000000FF00
310
FF00000000000000000000FF00FF00000000000000000000000000000000FF00FF00000000000000000000FF00FF00000000000000000000000000000000FF00FF00000000000000000000FF00FF00000000000000000000000000000000FF00FF00000000000000000000FF00FF00000000000000000000000000000000FF
310
FFFFFFFFFFFFFFFFFFFFFFFFFFFFFF00000000000000000000000000000000FFFFFFFFFFFFFFFFFFFFFFFFFFFFFFFF00000000000000000000000000000000FF0000FF0000000000000000FF0000FF00000000000000000000000000000000FFFFFFFF0000000000000000FFFFFFFF00000000000000000000000000000000
310
FFFFFFFF0000000000000000FFFFFFFF00000000000000000000000000000000000000000000000000000000000000000000000000000000
102
{BLKREFS
331
9E6
102
}
1001
AcDbDynamicBlockGUID
1000
{A37A0D37-C134-4433-9696-1736B9B844D0}
1001
AcDbBlockRepETag
1070
     1
1071
       98
1001
ACAD
1000
DesignCenter Data
1002
{
1070
     1
1070
     4
1002
}
  0
BLOCK_RECORD
  5
9E7
330
1
100
AcDbSymbolTableRecord
100
AcDbBlockTableRecord
  2
4
340
0
310
2800000020000000200000000100080000000000000400000000000000000000000000000000000000000000000080000080000000808000800000008000800080800000C0C0C000C0DCC000F0CAA6000020400000206000002080000020A0000020C0000020E00000400000004020000040400000406000004080000040A0
310
000040C0000040E00000600000006020000060400000606000006080000060A0000060C0000060E00000800000008020000080400000806000008080000080A0000080C0000080E00000A0000000A0200000A0400000A0600000A0800000A0A00000A0C00000A0E00000C0000000C0200000C0400000C0600000C0800000C0
310
A00000C0C00000C0E00000E0000000E0200000E0400000E0600000E0800000E0A00000E0C00000E0E00040000000400020004000400040006000400080004000A0004000C0004000E00040200000402020004020400040206000402080004020A0004020C0004020E000404000004040200040404000404060004040800040
310
40A0004040C0004040E00040600000406020004060400040606000406080004060A0004060C0004060E00040800000408020004080400040806000408080004080A0004080C0004080E00040A0000040A0200040A0400040A0600040A0800040A0A00040A0C00040A0E00040C0000040C0200040C0400040C0600040C08000
310
40C0A00040C0C00040C0E00040E0000040E0200040E0400040E0600040E0800040E0A00040E0C00040E0E00080000000800020008000400080006000800080008000A0008000C0008000E00080200000802020008020400080206000802080008020A0008020C0008020E00080400000804020008040400080406000804080
310
008040A0008040C0008040E00080600000806020008060400080606000806080008060A0008060C0008060E00080800000808020008080400080806000808080008080A0008080C0008080E00080A0000080A0200080A0400080A0600080A0800080A0A00080A0C00080A0E00080C0000080C0200080C0400080C0600080C0
310
800080C0A00080C0C00080C0E00080E0000080E0200080E0400080E0600080E0800080E0A00080E0C00080E0E000C0000000C0002000C0004000C0006000C0008000C000A000C000C000C000E000C0200000C0202000C0204000C0206000C0208000C020A000C020C000C020E000C0400000C0402000C0404000C0406000C0
310
408000C040A000C040C000C040E000C0600000C0602000C0604000C0606000C0608000C060A000C060C000C060E000C0800000C0802000C0804000C0806000C0808000C080A000C080C000C080E000C0A00000C0A02000C0A04000C0A06000C0A08000C0A0A000C0A0C000C0A0E000C0C00000C0C02000C0C04000C0C06000
310
C0C08000C0C0A000F0FBFF00A4A0A000808080000000FF0000FF000000FFFF00FF000000FF00FF00FFFF0000FFFFFF000000000000000000000000000000000000000000000000000000000000000000000000000000000000000000000000FF000000000000000000000000000000000000000000000000000000000000FF
310
FFFF000000000000000000000000000000000000000000000000000000FFFFFFFFFFFFFF00000000000000000000000000000000000000FFFFFFFFFFFFA400FFFFFF0000FF000000000000000000000000000000000000FFFFFFA400000000FFFF00000000FF000000000000000000000000000000000000FFFF00000000FF
310
FF00FF00000000FFFF000000000000000000000000000000FFFFFF00FFFFFFFFFFFFFFFFFF00000000FF0000000000000000000000000000FFFFFFFFFFFFFF0000FFFFFFFFFF00000000FF0000000000000000000000000000FFFFFF0000000000FFFFFFFFFFFF00000000FF0000000000000000000000000000FFFFFF0000
310
FFFFFFFF00FFFFFFFF000000FF000000000000000000000000000000FFFFFFFF00FFFFFFFF00FFFFFF000000FF000000000000000000000000FFFFFFFFA4000000FFFF0000FFFFFFFF000000FF000000000000000000000000FFFF00FF00000000FFFF00000000FFFF000000FF000000000000000000000000FFFF00FF0000
310
00FF00FF0000000000FF000000FF000000000000000000000000FFFF00FF000000FF00FF000000000000000000FF000000000000000000000000FFFF00FF000000FF00FF000000000000000000FF0000000000000000000000FF00FFFF00000000FFFFFF000000000000000000FF0000000000000000000000FF00FFFF0000
310
000000FFFFFF0000000000000000FF0000000000000000000000FF00FFFF0000000000FF00FF0000000000000000FF0000000000000000000000FFFFFFFF0000000000FFFFFFFFFF000000000000FF000000000000000000000000FF00FFFFFFFFFFFFFFFF000000FF000000000000FF0000000000000000000000FFFFFFFF
310
FFFFFFFF0000FF000000FF0000000000FF000000000000000000000000FFFFFF000000FFFFFFFFFFFF0000FFFF000000FF00000000000000000000000000FFFFA40000FFFF0000FFFFFF000000FF0000FF000000000000000000000000000000FFFFFFFFFF0000FFFFFFFF000000FF00FF0000000000000000000000000000
310
000000FFFFFFFFFFFFFFFF00FFFF00FFFFFF0000000000000000000000000000000000FFFFFFFFFFFFFFFF0000FFFFFFFF000000000000000000000000000000000000FFFFFFFFFFFFFFFFFFFFFFFF000000000000000000000000000000000000000000FFFFFFFFFFFFFF0000000000000000000000000000000000000000
310
0000000000000000FF0000000000000000000000000000000000000000000000000000000000000000000000000000000000000000000000
102
{BLKREFS
331
B91
102
}
1001
ACAD
1000
DesignCenter Data
1002
{
1070
     1
1070
     4
1002
}
  0
ENDTAB
  0
ENDSEC
  0
SECTION
  2
BLOCKS
  0
BLOCK
  5
20
330
1F
100
AcDbEntity
  8
0
100
AcDbBlockBegin
  2
*Model_Space
 70
     0
 10
0.0
 20
0.0
 30
0.0
  3
*Model_Space
  1

  0
ENDBLK
  5
21
330
1F
100
AcDbEntity
  8
0
100
AcDbBlockEnd
  0
BLOCK
  5
D4
330
D2
100
AcDbEntity
 67
     1
  8
0
100
AcDbBlockBegin
  2
*Paper_Space
 70
     0
 10
0.0
 20
0.0
 30
0.0
  3
*Paper_Space
  1

  0
ENDBLK
  5
D5
330
D2
100
AcDbEntity
 67
     1
  8
0
100
AcDbBlockEnd
  0
BLOCK
  5
D8
330
D6
100
AcDbEntity
 67
     1
  8
0
100
AcDbBlockBegin
  2
*Paper_Space0
 70
     0
 10
0.0
 20
0.0
 30
0.0
  3
*Paper_Space0
  1

  0
ENDBLK
  5
D9
330
D6
100
AcDbEntity
 67
     1
  8
0
100
AcDbBlockEnd
  0
BLOCK
  5
1AE
330
1AD
100
AcDbEntity
  8
0
100
AcDbBlockBegin
  2
SW_CENTERMARKSYMBOL_0
 70
     0
 10
0.0
 20
0.0
 30
0.0
  3
SW_CENTERMARKSYMBOL_0
  1

  0
LINE
  5
1AF
330
1AD
100
AcDbEntity
  8
0
  6
Continuous
 62
     0
370
     0
100
AcDbLine
 10
0.0
 20
0.0
 30
0.0
 11
0.0
 21
2.500000000000002
 31
0.0
  0
LINE
  5
1B0
330
1AD
100
AcDbEntity
  8
0
  6
Continuous
 62
     0
370
     0
100
AcDbLine
 10
0.0
 20
0.0
 30
0.0
 11
-2.500000000000002
 21
0.0
 31
0.0
  0
LINE
  5
1B1
330
1AD
100
AcDbEntity
  8
0
  6
Continuous
 62
     0
370
     0
100
AcDbLine
 10
0.0
 20
0.0
 30
0.0
 11
0.0
 21
-2.500000000000002
 31
0.0
  0
LINE
  5
1B2
330
1AD
100
AcDbEntity
  8
0
  6
Continuous
 62
     0
370
     0
100
AcDbLine
 10
0.0
 20
0.0
 30
0.0
 11
2.500000000000002
 21
0.0
 31
0.0
  0
LINE
  5
1B3
330
1AD
100
AcDbEntity
  8
0
  6
Continuous
 62
     0
370
     0
100
AcDbLine
 10
0.0
 20
5.000000000000004
 30
0.0
 11
0.0
 21
5.899999999999988
 31
0.0
  0
LINE
  5
1B4
330
1AD
100
AcDbEntity
  8
0
  6
Continuous
 62
     0
370
     0
100
AcDbLine
 10
-5.000000000000004
 20
0.0
 30
0.0
 11
-5.899999999999988
 21
0.0
 31
0.0
  0
LINE
  5
1B5
330
1AD
100
AcDbEntity
  8
0
  6
Continuous
 62
     0
370
     0
100
AcDbLine
 10
0.0
 20
-5.000000000000004
 30
0.0
 11
0.0
 21
-5.899999999999988
 31
0.0
  0
LINE
  5
1B6
330
1AD
100
AcDbEntity
  8
0
  6
Continuous
 62
     0
370
     0
100
AcDbLine
 10
5.000000000000004
 20
0.0
 30
0.0
 11
5.899999999999988
 21
0.0
 31
0.0
  0
ENDBLK
  5
1B7
330
1AD
100
AcDbEntity
  8
0
100
AcDbBlockEnd
  0
BLOCK
  5
841
330
840
100
AcDbEntity
  8
0
100
AcDbBlockBegin
  2
1
 70
     0
 10
0.0
 20
0.0
 30
0.0
  3
1
  1

  0
LINE
  5
843
330
840
100
AcDbEntity
  8
0
  6
Continuous
 62
     7
370
    15
100
AcDbLine
 10
2091.186667557598
 20
929.5084670407279
 30
0.0
 11
2091.186667557598
 21
929.8084665311082
 31
0.0
  0
LINE
  5
844
330
840
100
AcDbEntity
  8
0
  6
Continuous
 62
     7
370
    15
100
AcDbLine
 10
2081.013219196142
 20
929.8084665311082
 30
0.0
 11
2081.013219196142
 21
929.5084670407279
 31
0.0
  0
LINE
  5
845
330
840
100
AcDbEntity
  8
0
  6
Continuous
 62
     7
370
    15
100
AcDbLine
 10
2091.349739346446
 20
919.798131184075
 30
0.0
 11
2080.849739255176
 21
919.798131184075
 31
0.0
  0
LINE
  5
846
330
840
100
AcDbEntity
  8
0
  6
Continuous
 62
     7
370
    15
100
AcDbLine
 10
2080.999739233197
 20
946.8180228245957
 30
0.0
 11
2080.599739214198
 21
946.8180228245957
 31
0.0
  0
LINE
  5
847
330
840
100
AcDbEntity
  8
0
  6
Continuous
 62
     7
370
    15
100
AcDbLine
 10
2078.249739248098
 20
946.8180228245957
 30
0.0
 11
2078.249739248098
 21
948.8078363461001
 31
0.0
  0
LINE
  5
848
330
840
100
AcDbEntity
  8
0
  6
Continuous
 62
     7
370
    15
100
AcDbLine
 10
2093.849738824905
 20
948.8078363461001
 30
0.0
 11
2078.249739248098
 21
948.8078363461001
 31
0.0
  0
LINE
  5
849
330
840
100
AcDbEntity
  8
0
  6
Continuous
 62
     7
370
    15
100
AcDbLine
 10
2093.849738824905
 20
946.8180228245957
 30
0.0
 11
2093.849738824905
 21
948.8078363461001
 31
0.0
  0
LINE
  5
84A
330
840
100
AcDbEntity
  8
0
  6
Continuous
 62
     7
370
    15
100
AcDbLine
 10
2091.099738839806
 20
946.8180228245957
 30
0.0
 11
2091.599738921763
 21
946.8180228245957
 31
0.0
  0
LINE
  5
84B
330
840
100
AcDbEntity
  8
0
  6
Continuous
 62
     7
370
    15
100
AcDbLine
 10
2091.099738839806
 20
946.8180228245957
 30
0.0
 11
2091.099738839806
 21
931.1791088653309
 31
0.0
  0
LINE
  5
84C
330
840
100
AcDbEntity
  8
0
  6
Continuous
 62
     7
370
    15
100
AcDbLine
 10
2080.999739233197
 20
931.1791088653309
 30
0.0
 11
2091.099738839806
 21
931.1791088653309
 31
0.0
  0
LINE
  5
84D
330
840
100
AcDbEntity
  8
0
  6
Continuous
 62
     7
370
    15
100
AcDbLine
 10
2080.999739233197
 20
946.8180228245957
 30
0.0
 11
2080.999739233197
 21
931.1791088653309
 31
0.0
  0
LINE
  5
84E
330
840
100
AcDbEntity
  8
0
  6
Continuous
 62
     7
370
    15
100
AcDbLine
 10
2078.249739248098
 20
948.9086389762862
 30
0.0
 11
2078.249739248098
 21
948.8078363461001
 31
0.0
  0
LINE
  5
84F
330
840
100
AcDbEntity
  8
0
  6
Continuous
 62
     7
370
    15
100
AcDbLine
 10
2093.849738824905
 20
948.9086389762862
 30
0.0
 11
2078.249739248098
 21
948.9086389762862
 31
0.0
  0
LINE
  5
850
330
840
100
AcDbEntity
  8
0
  6
Continuous
 62
     7
370
    15
100
AcDbLine
 10
2093.849738824905
 20
948.9086389762862
 30
0.0
 11
2093.849738824905
 21
948.8078363461001
 31
0.0
  0
LINE
  5
851
330
840
100
AcDbEntity
  8
0
  6
Continuous
 62
     7
370
    15
100
AcDbLine
 10
2091.099738839806
 20
930.2799104002817
 30
0.0
 11
2080.999739233197
 21
930.2799104002817
 31
0.0
  0
LINE
  5
852
330
840
100
AcDbEntity
  8
0
  6
Continuous
 62
     7
370
    15
100
AcDbLine
 10
2091.099738839806
 20
931.1791088653309
 30
0.0
 11
2091.099738839806
 21
930.2799104002817
 31
0.0
  0
LINE
  5
853
330
840
100
AcDbEntity
  8
0
  6
Continuous
 62
     7
370
    15
100
AcDbLine
 10
2080.999739233197
 20
930.2799104002817
 30
0.0
 11
2080.999739233197
 21
931.1791088653309
 31
0.0
  0
LINE
  5
854
330
840
100
AcDbEntity
  8
0
  6
Continuous
 62
     7
370
    15
100
AcDbLine
 10
2086.352632146121
 20
929.9609109980567
 30
0.0
 11
2086.352632146121
 21
930.2799104002817
 31
0.0
  0
LINE
  5
855
330
840
100
AcDbEntity
  8
0
  6
Continuous
 62
     7
370
    15
100
AcDbLine
 10
2085.740467997061
 20
929.9609109980567
 30
0.0
 11
2086.352632146121
 21
929.9609109980567
 31
0.0
  0
LINE
  5
856
330
840
100
AcDbEntity
  8
0
  6
Continuous
 62
     7
370
    15
100
AcDbLine
 10
2085.740467997061
 20
929.9609109980567
 30
0.0
 11
2085.740467997061
 21
930.2799104002817
 31
0.0
  0
SPLINE
  5
857
330
840
100
AcDbEntity
  8
0
  6
Continuous
 62
     7
370
    15
100
AcDbSpline
210
0.0
220
0.0
230
1.0
 70
    24
 71
     3
 72
     8
 73
     4
 74
     0
 42
0.0000000001
 43
0.0000000001
 40
0.0
 40
0.0
 40
0.0
 40
0.0
 40
1.0
 40
1.0
 40
1.0
 40
1.0
 10
2084.119739227237
 20
929.9609106349375
 30
0.0
 10
2084.650413295363
 20
929.9609106349375
 30
0.0
 10
2085.193963916876
 20
929.9609106349375
 30
0.0
 10
2085.740467915415
 20
929.9609106349375
 30
0.0
  0
LINE
  5
858
330
840
100
AcDbEntity
  8
0
  6
Continuous
 62
     7
370
    15
100
AcDbLine
 10
2084.119739241691
 20
929.9609109980567
 30
0.0
 11
2084.119739241691
 21
930.2799104002817
 31
0.0
  0
LINE
  5
859
330
840
100
AcDbEntity
  8
0
  6
Continuous
 62
     7
370
    15
100
AcDbLine
 10
2087.973360668661
 20
929.9609109980567
 30
0.0
 11
2087.973360668661
 21
930.2799104002817
 31
0.0
  0
SPLINE
  5
85A
330
840
100
AcDbEntity
  8
0
  6
Continuous
 62
     7
370
    15
100
AcDbSpline
210
0.0
220
0.0
230
1.0
 70
    24
 71
     3
 72
     8
 73
     4
 74
     0
 42
0.0000000001
 43
0.0000000001
 40
0.0
 40
0.0
 40
0.0
 40
0.0
 40
1.0
 40
1.0
 40
1.0
 40
1.0
 10
2086.352632094821
 20
929.9609106349375
 30
0.0
 10
2086.899111928842
 20
929.9609106349375
 30
0.0
 10
2087.442551207047
 20
929.9609106349375
 30
0.0
 10
2087.973360782979
 20
929.9609106349375
 30
0.0
  0
LINE
  5
85B
330
840
100
AcDbEntity
  8
0
  6
Continuous
 62
     7
370
    15
100
AcDbLine
 10
2080.999739233197
 20
946.7696760071023
 30
0.0
 11
2080.599739214198
 21
946.7696760071023
 31
0.0
  0
LINE
  5
85C
330
840
100
AcDbEntity
  8
0
  6
Continuous
 62
     7
370
    15
100
AcDbLine
 10
2091.099738839806
 20
946.7696760071023
 30
0.0
 11
2091.599738921763
 21
946.7696760071023
 31
0.0
  0
LINE
  5
85D
330
840
100
AcDbEntity
  8
0
  6
Continuous
 62
     7
370
    15
100
AcDbLine
 10
2078.099739037247
 20
926.077631138037
 30
0.0
 11
2080.599739214198
 21
926.077631138037
 31
0.0
  0
LINE
  5
85E
330
840
100
AcDbEntity
  8
0
  6
Continuous
 62
     7
370
    15
100
AcDbLine
 10
2080.599739214198
 20
922.0067698729737
 30
0.0
 11
2080.599739214198
 21
926.077631138037
 31
0.0
  0
LINE
  5
85F
330
840
100
AcDbEntity
  8
0
  6
Continuous
 62
     7
370
    15
100
AcDbLine
 10
2080.599739214198
 20
922.0067698729737
 30
0.0
 11
2078.099739037247
 21
922.0067698729737
 31
0.0
  0
LINE
  5
860
330
840
100
AcDbEntity
  8
0
  6
Continuous
 62
     7
370
    15
100
AcDbLine
 10
2078.099739037247
 20
926.077631138037
 30
0.0
 11
2078.099739037247
 21
922.0067698729737
 31
0.0
  0
LINE
  5
861
330
840
100
AcDbEntity
  8
0
  6
Continuous
 62
     7
370
    15
100
AcDbLine
 10
2080.599739214198
 20
946.4089729113085
 30
0.0
 11
2078.099739037247
 21
946.4089729113085
 31
0.0
  0
LINE
  5
862
330
840
100
AcDbEntity
  8
0
  6
Continuous
 62
     7
370
    15
100
AcDbLine
 10
2080.599739214198
 20
926.077631138037
 30
0.0
 11
2080.599739214198
 21
946.4089729113085
 31
0.0
  0
LINE
  5
863
330
840
100
AcDbEntity
  8
0
  6
Continuous
 62
     7
370
    15
100
AcDbLine
 10
2078.099739037247
 20
946.4089729113085
 30
0.0
 11
2078.099739037247
 21
926.077631138037
 31
0.0
  0
LINE
  5
864
330
840
100
AcDbEntity
  8
0
  6
Continuous
 62
     7
370
    15
100
AcDbLine
 10
2094.099739331545
 20
926.077631138037
 30
0.0
 11
2091.599738921763
 21
926.077631138037
 31
0.0
  0
LINE
  5
865
330
840
100
AcDbEntity
  8
0
  6
Continuous
 62
     7
370
    15
100
AcDbLine
 10
2091.599738921763
 20
946.4089729113085
 30
0.0
 11
2091.599738921763
 21
926.077631138037
 31
0.0
  0
LINE
  5
866
330
840
100
AcDbEntity
  8
0
  6
Continuous
 62
     7
370
    15
100
AcDbLine
 10
2094.099739331545
 20
946.4089729113085
 30
0.0
 11
2091.599738921763
 21
946.4089729113085
 31
0.0
  0
LINE
  5
867
330
840
100
AcDbEntity
  8
0
  6
Continuous
 62
     7
370
    15
100
AcDbLine
 10
2094.099739331545
 20
946.4089729113085
 30
0.0
 11
2094.099739331545
 21
926.077631138037
 31
0.0
  0
LINE
  5
868
330
840
100
AcDbEntity
  8
0
  6
Continuous
 62
     7
370
    15
100
AcDbLine
 10
2094.099739331545
 20
946.8180228245957
 30
0.0
 11
2094.099739331545
 21
946.4089729113085
 31
0.0
  0
LINE
  5
869
330
840
100
AcDbEntity
  8
0
  6
Continuous
 62
     7
370
    15
100
AcDbLine
 10
2091.599738921763
 20
946.8180228245957
 30
0.0
 11
2091.599738921763
 21
946.4089729113085
 31
0.0
  0
LINE
  5
86A
330
840
100
AcDbEntity
  8
0
  6
Continuous
 62
     7
370
    15
100
AcDbLine
 10
2094.099739331545
 20
946.8180228245957
 30
0.0
 11
2091.599738921763
 21
946.8180228245957
 31
0.0
  0
LINE
  5
86B
330
840
100
AcDbEntity
  8
0
  6
Continuous
 62
     7
370
    15
100
AcDbLine
 10
2094.099739331545
 20
922.0067698729737
 30
0.0
 11
2091.599738921763
 21
922.0067698729737
 31
0.0
  0
LINE
  5
86C
330
840
100
AcDbEntity
  8
0
  6
Continuous
 62
     7
370
    15
100
AcDbLine
 10
2094.099739331545
 20
926.077631138037
 30
0.0
 11
2094.099739331545
 21
922.0067698729737
 31
0.0
  0
LINE
  5
86D
330
840
100
AcDbEntity
  8
0
  6
Continuous
 62
     7
370
    15
100
AcDbLine
 10
2091.599738921763
 20
926.077631138037
 30
0.0
 11
2091.599738921763
 21
922.0067698729737
 31
0.0
  0
LINE
  5
86E
330
840
100
AcDbEntity
  8
0
  6
Continuous
 62
     7
370
    15
100
AcDbLine
 10
2080.599739214198
 20
946.8180228245957
 30
0.0
 11
2078.099739037247
 21
946.8180228245957
 31
0.0
  0
LINE
  5
86F
330
840
100
AcDbEntity
  8
0
  6
Continuous
 62
     7
370
    15
100
AcDbLine
 10
2080.599739214198
 20
946.4089729113085
 30
0.0
 11
2080.599739214198
 21
946.8180228245957
 31
0.0
  0
LINE
  5
870
330
840
100
AcDbEntity
  8
0
  6
Continuous
 62
     7
370
    15
100
AcDbLine
 10
2078.099739037247
 20
946.8180228245957
 30
0.0
 11
2078.099739037247
 21
946.4089729113085
 31
0.0
  0
LINE
  5
871
330
840
100
AcDbEntity
  8
0
  6
Continuous
 62
     7
370
    15
100
AcDbLine
 10
2080.599739214198
 20
921.1806897760881
 30
0.0
 11
2078.099739037247
 21
921.1806897760881
 31
0.0
  0
LINE
  5
872
330
840
100
AcDbEntity
  8
0
  6
Continuous
 62
     7
370
    15
100
AcDbLine
 10
2080.599739214198
 20
918.3206897683023
 30
0.0
 11
2078.099739037247
 21
918.3206897683023
 31
0.0
  0
LINE
  5
873
330
840
100
AcDbEntity
  8
0
  6
Continuous
 62
     7
370
    15
100
AcDbLine
 10
2080.599739214198
 20
918.3206897683023
 30
0.0
 11
2080.599739214198
 21
921.1806897760881
 31
0.0
  0
LINE
  5
874
330
840
100
AcDbEntity
  8
0
  6
Continuous
 62
     7
370
    15
100
AcDbLine
 10
2078.099739037247
 20
921.1806897760881
 30
0.0
 11
2078.099739037247
 21
918.3206897683023
 31
0.0
  0
LINE
  5
875
330
840
100
AcDbEntity
  8
0
  6
Continuous
 62
     7
370
    15
100
AcDbLine
 10
2094.099739331545
 20
921.1806897760881
 30
0.0
 11
2091.599738921763
 21
921.1806897760881
 31
0.0
  0
LINE
  5
876
330
840
100
AcDbEntity
  8
0
  6
Continuous
 62
     7
370
    15
100
AcDbLine
 10
2094.099739331545
 20
922.0067698729737
 30
0.0
 11
2094.099739331545
 21
921.1806897760881
 31
0.0
  0
LINE
  5
877
330
840
100
AcDbEntity
  8
0
  6
Continuous
 62
     7
370
    15
100
AcDbLine
 10
2091.599738921763
 20
922.0067698729737
 30
0.0
 11
2091.599738921763
 21
921.1806897760881
 31
0.0
  0
LINE
  5
878
330
840
100
AcDbEntity
  8
0
  6
Continuous
 62
     7
370
    15
100
AcDbLine
 10
2094.099739331545
 20
918.3206897683023
 30
0.0
 11
2091.599738921763
 21
918.3206897683023
 31
0.0
  0
LINE
  5
879
330
840
100
AcDbEntity
  8
0
  6
Continuous
 62
     7
370
    15
100
AcDbLine
 10
2094.099739331545
 20
921.1806897760881
 30
0.0
 11
2094.099739331545
 21
918.3206897683023
 31
0.0
  0
LINE
  5
87A
330
840
100
AcDbEntity
  8
0
  6
Continuous
 62
     7
370
    15
100
AcDbLine
 10
2091.599738921763
 20
921.1806897760881
 30
0.0
 11
2091.599738921763
 21
918.3206897683023
 31
0.0
  0
LINE
  5
87B
330
840
100
AcDbEntity
  8
0
  6
Continuous
 62
     7
370
    15
100
AcDbLine
 10
2080.599739214198
 20
921.1806897760881
 30
0.0
 11
2080.599739214198
 21
922.0067698729737
 31
0.0
  0
LINE
  5
87C
330
840
100
AcDbEntity
  8
0
  6
Continuous
 62
     7
370
    15
100
AcDbLine
 10
2078.099739037247
 20
922.0067698729737
 30
0.0
 11
2078.099739037247
 21
921.1806897760881
 31
0.0
  0
ARC
  5
87D
330
840
100
AcDbEntity
  8
0
  6
Continuous
 62
     7
370
    15
100
AcDbCircle
 10
2091.949739227237
 20
947.1680231795325
 30
0.0
 40
2.150000000000005
100
AcDbArc
 50
0.0
 51
27.90547279107368
  0
ARC
  5
87E
330
840
100
AcDbEntity
  8
0
  6
Continuous
 62
     7
370
    15
100
AcDbCircle
 10
2091.949739227237
 20
947.1680231795325
 30
0.0
 40
2.149999999999995
100
AcDbArc
 50
54.055728698719
 51
90.0
  0
ARC
  5
87F
330
840
100
AcDbEntity
  8
0
  6
Continuous
 62
     7
370
    15
100
AcDbCircle
 10
2080.249739227237
 20
947.1680231795325
 30
0.0
 40
2.149999999999995
100
AcDbArc
 50
90.0
 51
125.944271301281
  0
ARC
  5
880
330
840
100
AcDbEntity
  8
0
  6
Continuous
 62
     7
370
    15
100
AcDbCircle
 10
2080.249739227237
 20
947.1680231795325
 30
0.0
 40
2.150000000000005
100
AcDbArc
 50
158.4710955944304
 51
180.0
  0
LINE
  5
881
330
840
100
AcDbEntity
  8
0
  6
Continuous
 62
     7
370
    15
100
AcDbLine
 10
2080.249739226678
 20
949.3180223030551
 30
0.0
 11
2091.949739258529
 21
949.3180223030551
 31
0.0
  0
LINE
  5
882
330
840
100
AcDbEntity
  8
0
  6
Continuous
 62
     7
370
    15
100
AcDbLine
 10
2094.099739331545
 20
947.1680231613619
 30
0.0
 11
2094.099739331545
 21
946.8180228245957
 31
0.0
  0
LINE
  5
883
330
840
100
AcDbEntity
  8
0
  6
Continuous
 62
     7
370
    15
100
AcDbLine
 10
2078.099739037247
 20
946.8180228245957
 30
0.0
 11
2078.099739037247
 21
947.1680231613619
 31
0.0
  0
LINE
  5
884
330
840
100
AcDbEntity
  8
0
  6
Continuous
 62
     7
370
    15
100
AcDbLine
 10
2080.599739214198
 20
919.3318403954664
 30
0.0
 11
2080.849739255176
 21
919.3318403954664
 31
0.0
  0
LINE
  5
885
330
840
100
AcDbEntity
  8
0
  6
Continuous
 62
     7
370
    15
100
AcDbLine
 10
2080.849739255176
 20
919.3318403954664
 30
0.0
 11
2080.849739255176
 21
919.7600709553855
 31
0.0
  0
LINE
  5
886
330
840
100
AcDbEntity
  8
0
  6
Continuous
 62
     7
370
    15
100
AcDbLine
 10
2091.349739346446
 20
919.7600709553855
 30
0.0
 11
2080.849739255176
 21
919.7600709553855
 31
0.0
  0
LINE
  5
887
330
840
100
AcDbEntity
  8
0
  6
Continuous
 62
     7
370
    15
100
AcDbLine
 10
2091.349739346446
 20
919.7600709553855
 30
0.0
 11
2091.349739346446
 21
919.3318403954664
 31
0.0
  0
LINE
  5
888
330
840
100
AcDbEntity
  8
0
  6
Continuous
 62
     7
370
    15
100
AcDbLine
 10
2091.349739346446
 20
919.3318403954664
 30
0.0
 11
2091.599738921763
 21
919.3318403954664
 31
0.0
  0
LINE
  5
889
330
840
100
AcDbEntity
  8
0
  6
Continuous
 62
     7
370
    15
100
AcDbLine
 10
2091.599738921763
 20
918.485630721557
 30
0.0
 11
2080.599739214198
 21
918.485630721557
 31
0.0
  0
LINE
  5
88A
330
840
100
AcDbEntity
  8
0
  6
Continuous
 62
     7
370
    15
100
AcDbLine
 10
2093.849738824905
 20
918.3206897683023
 30
0.0
 11
2093.849738824905
 21
918.208466795045
 31
0.0
  0
LINE
  5
88B
330
840
100
AcDbEntity
  8
0
  6
Continuous
 62
     7
370
    15
100
AcDbLine
 10
2093.849738824905
 20
918.208466795045
 30
0.0
 11
2078.349739311056
 21
918.208466795045
 31
0.0
  0
LINE
  5
88C
330
840
100
AcDbEntity
  8
0
  6
Continuous
 62
     7
370
    15
100
AcDbLine
 10
2078.349739311056
 20
918.3206897683023
 30
0.0
 11
2078.349739311056
 21
918.208466795045
 31
0.0
  0
LINE
  5
88D
330
840
100
AcDbEntity
  8
0
  6
Continuous
 62
     7
370
    15
100
AcDbLine
 10
2089.239739112349
 20
929.5084670407279
 30
0.0
 11
2082.959739198235
 21
929.5084670407279
 31
0.0
  0
LINE
  5
88E
330
840
100
AcDbEntity
  8
0
  6
Continuous
 62
     7
370
    15
100
AcDbLine
 10
2082.959739198235
 20
929.5084670407279
 30
0.0
 11
2082.959739198235
 21
929.8084665311082
 31
0.0
  0
LINE
  5
88F
330
840
100
AcDbEntity
  8
0
  6
Continuous
 62
     7
370
    15
100
AcDbLine
 10
2089.239739112349
 20
929.5084670407279
 30
0.0
 11
2089.239739112349
 21
929.8084665311082
 31
0.0
  0
LINE
  5
890
330
840
100
AcDbEntity
  8
0
  6
Continuous
 62
     7
370
    15
100
AcDbLine
 10
2089.239739112349
 20
929.8084665311082
 30
0.0
 11
2082.959739198235
 21
929.8084665311082
 31
0.0
  0
LINE
  5
891
330
840
100
AcDbEntity
  8
0
  6
Continuous
 62
     7
370
    15
100
AcDbLine
 10
2090.687669578732
 20
929.5084670407279
 30
0.0
 11
2090.687669578732
 21
929.8084665311082
 31
0.0
  0
LINE
  5
892
330
840
100
AcDbEntity
  8
0
  6
Continuous
 62
     7
370
    15
100
AcDbLine
 10
2089.239739112349
 20
929.5084670407279
 30
0.0
 11
2090.687669578732
 21
929.5084670407279
 31
0.0
  0
LINE
  5
893
330
840
100
AcDbEntity
  8
0
  6
Continuous
 62
     7
370
    15
100
AcDbLine
 10
2089.239739112349
 20
929.8084665311082
 30
0.0
 11
2090.687669578732
 21
929.8084665311082
 31
0.0
  0
LINE
  5
894
330
840
100
AcDbEntity
  8
0
  6
Continuous
 62
     7
370
    15
100
AcDbLine
 10
2081.51180925572
 20
929.5084670407279
 30
0.0
 11
2081.51180925572
 21
929.8084665311082
 31
0.0
  0
LINE
  5
895
330
840
100
AcDbEntity
  8
0
  6
Continuous
 62
     7
370
    15
100
AcDbLine
 10
2081.51180925572
 20
929.5084670407279
 30
0.0
 11
2082.959739198235
 21
929.5084670407279
 31
0.0
  0
LINE
  5
896
330
840
100
AcDbEntity
  8
0
  6
Continuous
 62
     7
370
    15
100
AcDbLine
 10
2081.51180925572
 20
929.8084665311082
 30
0.0
 11
2082.959739198235
 21
929.8084665311082
 31
0.0
  0
LINE
  5
897
330
840
100
AcDbEntity
  8
0
  6
Continuous
 62
     7
370
    15
100
AcDbLine
 10
2090.687669578732
 20
929.5084670407279
 30
0.0
 11
2091.186667557598
 21
929.5084670407279
 31
0.0
  0
LINE
  5
898
330
840
100
AcDbEntity
  8
0
  6
Continuous
 62
     7
370
    15
100
AcDbLine
 10
2090.687669578732
 20
929.8084665311082
 30
0.0
 11
2091.186667557598
 21
929.8084665311082
 31
0.0
  0
LINE
  5
899
330
840
100
AcDbEntity
  8
0
  6
Continuous
 62
     7
370
    15
100
AcDbLine
 10
2081.013219196142
 20
929.5084670407279
 30
0.0
 11
2081.51180925572
 21
929.5084670407279
 31
0.0
  0
LINE
  5
89A
330
840
100
AcDbEntity
  8
0
  6
Continuous
 62
     7
370
    15
100
AcDbLine
 10
2081.013219196142
 20
929.8084665311082
 30
0.0
 11
2081.51180925572
 21
929.8084665311082
 31
0.0
  0
LINE
  5
89B
330
840
100
AcDbEntity
  8
0
  6
Continuous
 62
     7
370
    15
100
AcDbLine
 10
2080.849739255176
 20
919.7600709553855
 30
0.0
 11
2080.849739255176
 21
919.798131184075
 31
0.0
  0
LINE
  5
89C
330
840
100
AcDbEntity
  8
0
  6
Continuous
 62
     7
370
    15
100
AcDbLine
 10
2091.349739346446
 20
919.798131184075
 30
0.0
 11
2091.349739346446
 21
919.7600709553855
 31
0.0
  0
LINE
  5
89D
330
840
100
AcDbEntity
  8
0
  6
Continuous
 62
     7
370
    15
100
AcDbLine
 10
2090.461202662231
 20
929.3744925630791
 30
0.0
 11
2081.738276055807
 21
929.3744925630791
 31
0.0
  0
SPLINE
  5
89E
330
840
100
AcDbEntity
  8
0
  6
Continuous
 62
     7
370
    15
100
AcDbSpline
210
0.0
220
0.0
230
1.0
 70
     8
 71
     3
 72
     8
 73
     4
 74
     0
 42
0.0000000001
 43
0.0000000001
 40
0.0
 40
0.0
 40
0.0
 40
0.0
 40
1.0
 40
1.0
 40
1.0
 40
1.0
 10
2090.461202386648
 20
929.374492241072
 30
0.0
 10
2090.482850121042
 20
929.4627072919581
 30
0.0
 10
2090.509270975396
 20
929.5084668372863
 30
0.0
 10
2090.538950178763
 20
929.5084668372865
 30
0.0
  0
SPLINE
  5
89F
330
840
100
AcDbEntity
  8
0
  6
Continuous
 62
     7
370
    15
100
AcDbSpline
210
0.0
220
0.0
230
1.0
 70
     8
 71
     3
 72
     8
 73
     4
 74
     0
 42
0.0000000001
 43
0.0000000001
 40
0.0
 40
0.0
 40
0.0
 40
0.0
 40
1.0
 40
1.0
 40
1.0
 40
1.0
 10
2081.660528275717
 20
929.5084668372863
 30
0.0
 10
2081.690205013858
 20
929.5084668372863
 30
0.0
 10
2081.716630228531
 20
929.4626995694125
 30
0.0
 10
2081.738276067834
 20
929.374492241072
 30
0.0
  0
SPLINE
  5
8A0
330
840
100
AcDbEntity
  8
0
  6
Continuous
 62
     7
370
    15
100
AcDbSpline
210
0.0
220
0.0
230
1.0
 70
     8
 71
     3
 72
    14
 73
    10
 74
     0
 42
0.0000000001
 43
0.0000000001
 40
0.0
 40
0.0
 40
0.0
 40
0.0
 40
0.0002256177764402
 40
0.0002256177764402
 40
0.0002256177764402
 40
0.0005640444472092
 40
0.0005640444472092
 40
0.0005640444472092
 40
0.0009024711179195
 40
0.0009024711179195
 40
0.0009024711179195
 40
0.0009024711179195
 10
2090.27939890082
 20
928.3718777237966
 30
0.0
 10
2090.279619953403
 20
928.3955911277544
 30
0.0
 10
2090.279832568055
 20
928.4193045395548
 30
0.0
 10
2090.28004108059
 20
928.4430179548053
 30
0.0
 10
2090.2803538494
 20
928.4785880783683
 30
0.0
 10
2090.280657211958
 20
928.5141582101083
 30
0.0
 10
2090.280961185151
 20
928.5497283412526
 30
0.0
 10
2090.281265158346
 20
928.5852984723828
 30
0.0
 10
2090.281569340875
 20
928.6208686034395
 30
0.0
 10
2090.281884006996
 20
928.6564387253244
 30
0.0
  0
ELLIPSE
  5
8A1
330
840
100
AcDbEntity
  8
0
  6
Continuous
 62
     7
370
    15
100
AcDbEllipse
 10
2105.554070087707
 20
928.4837295533026
 30
0.0
 11
15.27838025620818
 21
0.0
 31
0.0
210
0.0
220
0.0
230
1.0
 40
0.3322640246579092
 41
3.163627884297663
 42
3.525833483977046
  0
LINE
  5
8A2
330
840
100
AcDbEntity
  8
0
  6
Continuous
 62
     7
370
    15
100
AcDbLine
 10
2091.389739651026
 20
926.5807925944729
 30
0.0
 11
2091.389739651026
 21
925.7662369159563
 31
0.0
  0
LINE
  5
8A3
330
840
100
AcDbEntity
  8
0
  6
Continuous
 62
     7
370
    15
100
AcDbLine
 10
2091.389739651026
 20
925.7662369159563
 30
0.0
 11
2080.809739183427
 21
925.7662369159563
 31
0.0
  0
LINE
  5
8A4
330
840
100
AcDbEntity
  8
0
  6
Continuous
 62
     7
370
    15
100
AcDbLine
 10
2080.809739183427
 20
926.5807925944729
 30
0.0
 11
2080.809739183427
 21
925.7662369159563
 31
0.0
  0
ELLIPSE
  5
8A5
330
840
100
AcDbEntity
  8
0
  6
Continuous
 62
     7
370
    15
100
AcDbEllipse
 10
2066.669921149844
 20
928.4820554873753
 30
0.0
 11
15.25376687713935
 21
0.0
 31
0.0
210
0.0
220
0.0
230
1.0
 40
0.3322640246579125
 41
5.898648302724065
 42
6.261434858498886
  0
LWPOLYLINE
  5
8A6
330
840
100
AcDbEntity
  8
0
  6
Continuous
 62
     7
370
    15
100
AcDbPolyline
 90
        4
 70
   128
 43
0.0
 10
2081.917594446826
 20
928.6564391327603
 10
2081.918821653493
 20
928.5141330433591
 10
2081.919437708824
 20
928.4429799986584
 10
2081.920080030362
 20
928.3718269539578
  0
ELLIPSE
  5
8A7
330
840
100
AcDbEntity
  8
0
  6
Continuous
 62
     7
370
    15
100
AcDbEllipse
 10
2108.994494874137
 20
928.5020332242858
 30
0.0
 11
18.7183802262069
 21
0.0
 31
0.0
210
0.0
220
0.0
230
1.0
 40
0.3322640246579095
 41
3.000849201144496
 42
3.116763849295623
  0
ELLIPSE
  5
8A8
330
840
100
AcDbEntity
  8
0
  6
Continuous
 62
     7
370
    15
100
AcDbEllipse
 10
2063.204983580353
 20
928.502033224268
 30
0.0
 11
18.71838022620577
 21
0.0
 31
0.0
210
0.0
220
0.0
230
1.0
 40
0.3322640246579114
 41
0.0248288043308781
 42
0.1407434524481761
  0
LINE
  5
8A9
330
840
100
AcDbEntity
  8
0
  6
Continuous
 62
     7
370
    15
100
AcDbLine
 10
2091.389739651026
 20
926.5807925944729
 30
0.0
 11
2091.389739651026
 21
926.8941472505732
 31
0.0
  0
ELLIPSE
  5
8AA
330
840
100
AcDbEntity
  8
0
  6
Continuous
 62
     7
370
    15
100
AcDbEllipse
 10
2105.554070087707
 20
928.7945130276067
 30
0.0
 11
15.27838025620818
 21
0.0
 31
0.0
210
0.0
220
0.0
230
1.0
 40
0.331815071799886
 41
3.173714279626241
 42
3.525833483977049
  0
LINE
  5
8AB
330
840
100
AcDbEntity
  8
0
  6
Continuous
 62
     7
370
    15
100
AcDbLine
 10
2080.809739183427
 20
926.5807925944729
 30
0.0
 11
2080.809739183427
 21
926.8941472505732
 31
0.0
  0
ELLIPSE
  5
8AC
330
840
100
AcDbEntity
  8
0
  6
Continuous
 62
     7
370
    15
100
AcDbEllipse
 10
2066.669921149844
 20
928.7928412236656
 30
0.0
 11
15.25376687713935
 21
0.0
 31
0.0
210
0.0
220
0.0
230
1.0
 40
0.3318150717998877
 41
5.898648302724065
 42
6.250827687141349
  0
LINE
  5
8AD
330
840
100
AcDbEntity
  8
0
  6
Continuous
 62
     7
370
    15
100
AcDbLine
 10
2091.389739651026
 20
925.5764394288464
 30
0.0
 11
2080.809739183427
 21
925.5764394288464
 31
0.0
  0
LINE
  5
8AE
330
840
100
AcDbEntity
  8
0
  6
Continuous
 62
     7
370
    15
100
AcDbLine
 10
2091.389739651026
 20
925.7662369159563
 30
0.0
 11
2091.389739651026
 21
925.5764394288464
 31
0.0
  0
LINE
  5
8AF
330
840
100
AcDbEntity
  8
0
  6
Continuous
 62
     7
370
    15
100
AcDbLine
 10
2080.809739183427
 20
925.7662369159563
 30
0.0
 11
2080.809739183427
 21
925.5764394288464
 31
0.0
  0
LINE
  5
8B0
330
840
100
AcDbEntity
  8
0
  6
Continuous
 62
     7
370
    15
100
AcDbLine
 10
2080.599739214198
 20
922.4684667529119
 30
0.0
 11
2080.809739183427
 21
922.4684667529119
 31
0.0
  0
LINE
  5
8B1
330
840
100
AcDbEntity
  8
0
  6
Continuous
 62
     7
370
    15
100
AcDbLine
 10
2091.599738921763
 20
920.4420205310499
 30
0.0
 11
2091.349739346446
 21
920.4420205310499
 31
0.0
  0
LINE
  5
8B2
330
840
100
AcDbEntity
  8
0
  6
Continuous
 62
     7
370
    15
100
AcDbLine
 10
2080.849739255176
 20
920.4420205310499
 30
0.0
 11
2080.599739214198
 21
920.4420205310499
 31
0.0
  0
LINE
  5
8B3
330
840
100
AcDbEntity
  8
0
  6
Continuous
 62
     7
370
    15
100
AcDbLine
 10
2091.389739651026
 20
922.4684667529119
 30
0.0
 11
2091.599738921763
 21
922.4684667529119
 31
0.0
  0
LINE
  5
8B4
330
840
100
AcDbEntity
  8
0
  6
Continuous
 62
     7
370
    15
100
AcDbLine
 10
2091.389739651026
 20
925.5764394288464
 30
0.0
 11
2091.389739651026
 21
922.4684667529119
 31
0.0
  0
LINE
  5
8B5
330
840
100
AcDbEntity
  8
0
  6
Continuous
 62
     7
370
    15
100
AcDbLine
 10
2080.809739183427
 20
925.5764394288464
 30
0.0
 11
2080.809739183427
 21
922.4684667529119
 31
0.0
  0
LINE
  5
8B6
330
840
100
AcDbEntity
  8
0
  6
Continuous
 62
     7
370
    15
100
AcDbLine
 10
2080.849739255176
 20
919.798131184075
 30
0.0
 11
2080.849739255176
 21
920.4420205310499
 31
0.0
  0
LINE
  5
8B7
330
840
100
AcDbEntity
  8
0
  6
Continuous
 62
     7
370
    15
100
AcDbLine
 10
2091.349739346446
 20
920.4420205310499
 30
0.0
 11
2091.349739346446
 21
919.798131184075
 31
0.0
  0
LINE
  5
8B8
330
840
100
AcDbEntity
  8
0
  6
Continuous
 62
     7
370
    15
100
AcDbLine
 10
2081.299739247446
 20
949.3180223030551
 30
0.0
 11
2081.299739247446
 21
953.8328785670502
 31
0.0
  0
SPLINE
  5
8B9
330
840
100
AcDbEntity
  8
0
  6
Continuous
 62
     7
370
    15
100
AcDbSpline
210
0.0
220
0.0
230
1.0
 70
     8
 71
     3
 72
    12
 73
     8
 74
     0
 42
0.0000000001
 43
0.0000000001
 40
0.0
 40
0.0
 40
0.0
 40
0.0
 40
0.5
 40
0.5
 40
0.75
 40
0.75
 40
1.0
 40
1.0
 40
1.0
 40
1.0
 10
2085.926534146483
 20
953.8244610003996
 30
0.0
 10
2085.169680591389
 20
954.0632941015159
 30
0.0
 10
2084.403057341374
 20
954.2122995538827
 30
0.0
 10
2083.229221683172
 20
954.2160515195977
 30
0.0
 10
2082.835160347148
 20
954.1807896326341
 30
0.0
 10
2082.061592771769
 20
954.0482686992781
 30
0.0
 10
2081.679118420697
 20
953.9515217447656
 30
0.0
 10
2081.299739227237
 20
953.8328785441093
 30
0.0
  0
LINE
  5
8BA
330
840
100
AcDbEntity
  8
0
  6
Continuous
 62
     7
370
    15
100
AcDbLine
 10
2085.926534140275
 20
949.3180223030551
 30
0.0
 11
2085.926534140275
 21
953.8244594109757
 31
0.0
  0
LINE
  5
8BB
330
840
100
AcDbEntity
  8
0
  6
Continuous
 62
     7
370
    15
100
AcDbLine
 10
2086.272944461347
 20
949.3180223030551
 30
0.0
 11
2086.272944461347
 21
953.8244594109757
 31
0.0
  0
SPLINE
  5
8BC
330
840
100
AcDbEntity
  8
0
  6
Continuous
 62
     7
370
    15
100
AcDbSpline
210
0.0
220
0.0
230
1.0
 70
     8
 71
     3
 72
    12
 73
     8
 74
     0
 42
0.0000000001
 43
0.0000000001
 40
0.0
 40
0.0
 40
0.0
 40
0.0
 40
0.5
 40
0.5
 40
0.75
 40
0.75
 40
1.0
 40
1.0
 40
1.0
 40
1.0
 10
2090.899739227234
 20
953.83287854411
 30
0.0
 10
2090.142372016666
 20
954.0697298830416
 30
0.0
 10
2089.375341813871
 20
954.2156775300025
 30
0.0
 10
2088.201390226727
 20
954.2144065915321
 30
0.0
 10
2087.807497558203
 20
954.1774706561595
 30
0.0
 10
2087.034313075673
 20
954.0420706956343
 30
0.0
 10
2086.652071731852
 20
953.944098647271
 30
0.0
 10
2086.272944307994
 20
953.8244610003989
 30
0.0
  0
LINE
  5
8BD
330
840
100
AcDbEntity
  8
0
  6
Continuous
 62
     7
370
    15
100
AcDbLine
 10
2090.899739179553
 20
949.3180223030551
 30
0.0
 11
2090.899739179553
 21
953.8328785670502
 31
0.0
  0
SPLINE
  5
8BE
330
840
100
AcDbEntity
  8
0
  6
Continuous
 62
     7
370
    15
100
AcDbSpline
210
0.0
220
0.0
230
1.0
 70
     8
 71
     3
 72
     8
 73
     4
 74
     0
 42
0.0000000001
 43
0.0000000001
 40
0.0
 40
0.0
 40
0.0
 40
0.0
 40
1.0
 40
1.0
 40
1.0
 40
1.0
 10
2086.272944307994
 20
953.8244610003987
 30
0.0
 10
2086.157569776628
 20
953.8264936213439
 30
0.0
 10
2086.042002945276
 20
953.8264952821085
 30
0.0
 10
2085.926534146483
 20
953.8244610003987
 30
0.0
  0
SPLINE
  5
8BF
330
840
100
AcDbEntity
  8
0
  6
Continuous
 62
     7
370
    15
100
AcDbSpline
210
0.0
220
0.0
230
1.0
 70
     8
 71
     3
 72
     8
 73
     4
 74
     0
 42
0.0000000001
 43
0.0000000001
 40
0.0
 40
0.0
 40
0.0
 40
0.0
 40
1.0
 40
1.0
 40
1.0
 40
1.0
 10
2091.099739227237
 20
954.1905431940504
 30
0.0
 10
2091.025497661071
 20
954.2330489137484
 30
0.0
 10
2090.951249319653
 20
954.2755428122648
 30
0.0
 10
2090.87699322287
 20
954.3180231795346
 30
0.0
  0
SPLINE
  5
8C0
330
840
100
AcDbEntity
  8
0
  6
Continuous
 62
     7
370
    15
100
AcDbSpline
210
0.0
220
0.0
230
1.0
 70
    24
 71
     3
 72
    10
 73
     6
 74
     0
 42
0.0000000001
 43
0.0000000001
 40
0.0
 40
0.0
 40
0.0
 40
0.0
 40
0.5
 40
0.5
 40
1.0
 40
1.0
 40
1.0
 40
1.0
 10
2091.099739227237
 20
953.8244610003992
 30
0.0
 10
2091.099739227237
 20
953.915440013475
 30
0.0
 10
2091.099739227237
 20
953.99486268685
 30
0.0
 10
2091.099739227237
 20
954.1196717950965
 30
0.0
 10
2091.099739227237
 20
954.1650431465189
 30
0.0
 10
2091.099739227237
 20
954.1905431940504
 30
0.0
  0
SPLINE
  5
8C1
330
840
100
AcDbEntity
  8
0
  6
Continuous
 62
     7
370
    15
100
AcDbSpline
210
0.0
220
0.0
230
1.0
 70
     8
 71
     3
 72
     8
 73
     4
 74
     0
 42
0.0000000001
 43
0.0000000001
 40
0.0
 40
0.0
 40
0.0
 40
0.0
 40
1.0
 40
1.0
 40
1.0
 40
1.0
 10
2090.899739227234
 20
953.8328785441093
 30
0.0
 10
2090.966434285557
 20
953.8324402279762
 30
0.0
 10
2091.03310085523
 20
953.8296262918128
 30
0.0
 10
2091.099739227237
 20
953.8244610003992
 30
0.0
  0
SPLINE
  5
8C2
330
840
100
AcDbEntity
  8
0
  6
Continuous
 62
     7
370
    15
100
AcDbSpline
210
0.0
220
0.0
230
1.0
 70
     8
 71
     3
 72
     8
 73
     4
 74
     0
 42
0.0000000001
 43
0.0000000001
 40
0.0
 40
0.0
 40
0.0
 40
0.0
 40
1.0
 40
1.0
 40
1.0
 40
1.0
 10
2081.299739227237
 20
953.8328785441091
 30
0.0
 10
2081.233044168914
 20
953.832440227976
 30
0.0
 10
2081.166377599243
 20
953.8296262918128
 30
0.0
 10
2081.099739227237
 20
953.8244610003992
 30
0.0
  0
SPLINE
  5
8C3
330
840
100
AcDbEntity
  8
0
  6
Continuous
 62
     7
370
    15
100
AcDbSpline
210
0.0
220
0.0
230
1.0
 70
    24
 71
     3
 72
    10
 73
     6
 74
     0
 42
0.0000000001
 43
0.0000000001
 40
0.0
 40
0.0
 40
0.0
 40
0.0
 40
0.5
 40
0.5
 40
1.0
 40
1.0
 40
1.0
 40
1.0
 10
2081.099739227237
 20
953.8244610003992
 30
0.0
 10
2081.099739227237
 20
953.915440013475
 30
0.0
 10
2081.099739227237
 20
953.9948626868497
 30
0.0
 10
2081.099739227237
 20
954.1196717950962
 30
0.0
 10
2081.099739227237
 20
954.1650431465185
 30
0.0
 10
2081.099739227237
 20
954.1905431940502
 30
0.0
  0
SPLINE
  5
8C4
330
840
100
AcDbEntity
  8
0
  6
Continuous
 62
     7
370
    15
100
AcDbSpline
210
0.0
220
0.0
230
1.0
 70
     8
 71
     3
 72
     8
 73
     4
 74
     0
 42
0.0000000001
 43
0.0000000001
 40
0.0
 40
0.0
 40
0.0
 40
0.0
 40
1.0
 40
1.0
 40
1.0
 40
1.0
 10
2081.322485231604
 20
954.3180231795343
 30
0.0
 10
2081.248229144608
 20
954.2755428178637
 30
0.0
 10
2081.173980802758
 20
954.2330489191044
 30
0.0
 10
2081.099739227237
 20
954.1905431940502
 30
0.0
  0
LINE
  5
8C5
330
840
100
AcDbEntity
  8
0
  6
Continuous
 62
     7
370
    15
100
AcDbLine
 10
2081.322485229724
 20
954.3180231226189
 30
0.0
 11
2090.876993488313
 21
954.3180231226189
 31
0.0
  0
LINE
  5
8C6
330
840
100
AcDbEntity
  8
0
  6
Continuous
 62
     7
370
    15
100
AcDbLine
 10
2091.099738839806
 20
949.3180223030551
 30
0.0
 11
2091.099738839806
 21
953.8244594109757
 31
0.0
  0
LINE
  5
8C7
330
840
100
AcDbEntity
  8
0
  6
Continuous
 62
     7
370
    15
100
AcDbLine
 10
2081.099739179739
 20
949.3180223030551
 30
0.0
 11
2081.099739179739
 21
953.8244594109757
 31
0.0
  0
ENDBLK
  5
842
330
840
100
AcDbEntity
  8
0
100
AcDbBlockEnd
  0
BLOCK
  5
8CA
330
8C9
100
AcDbEntity
  8
0
100
AcDbBlockBegin
  2
2
 70
     0
 10
0.0
 20
0.0
 30
0.0
  3
2
  1

  0
LINE
  5
8CC
330
8C9
100
AcDbEntity
  8
0
  6
Continuous
 62
     7
370
    15
100
AcDbLine
 10
2042.698373884876
 20
954.3180231226189
 30
0.0
 11
2041.846142482926
 21
953.8259867799981
 31
0.0
  0
LINE
  5
8CD
330
8C9
100
AcDbEntity
  8
0
  6
Continuous
 62
     7
370
    15
100
AcDbLine
 10
2053.19314809235
 20
953.8259867799981
 30
0.0
 11
2052.340916224738
 21
954.3180231226189
 31
0.0
  0
LINE
  5
8CE
330
8C9
100
AcDbEntity
  8
0
  6
Continuous
 62
     7
370
    15
100
AcDbLine
 10
2035.187061742862
 20
948.9086389762862
 30
0.0
 11
2034.192155447771
 21
948.8078363461001
 31
0.0
  0
LINE
  5
8CF
330
8C9
100
AcDbEntity
  8
0
  6
Continuous
 62
     7
370
    15
100
AcDbLine
 10
2035.38866560625
 20
946.9188254547818
 30
0.0
 11
2034.393758845498
 21
946.8180228245957
 31
0.0
  0
LINE
  5
8D0
330
8C9
100
AcDbEntity
  8
0
  6
Continuous
 62
     7
370
    15
100
AcDbLine
 10
2035.38866560625
 20
946.9188254547818
 30
0.0
 11
2035.187061742862
 21
948.9086389762862
 31
0.0
  0
LINE
  5
8D1
330
8C9
100
AcDbEntity
  8
0
  6
Continuous
 62
     7
370
    15
100
AcDbLine
 10
2034.393758845498
 20
946.8180228245957
 30
0.0
 11
2034.192155447771
 21
948.8078363461001
 31
0.0
  0
LINE
  5
8D2
330
8C9
100
AcDbEntity
  8
0
  6
Continuous
 62
     7
370
    15
100
AcDbLine
 10
2059.633318201622
 20
948.8602921587927
 30
0.0
 11
2059.431714803895
 21
946.8704786372883
 31
0.0
  0
LINE
  5
8D3
330
8C9
100
AcDbEntity
  8
0
  6
Continuous
 62
     7
370
    15
100
AcDbLine
 10
2060.628224031051
 20
948.7594895286067
 30
0.0
 11
2059.633318201622
 21
948.8602921587927
 31
0.0
  0
LINE
  5
8D4
330
8C9
100
AcDbEntity
  8
0
  6
Continuous
 62
     7
370
    15
100
AcDbLine
 10
2060.628224031051
 20
948.7594895286067
 30
0.0
 11
2060.431519390067
 21
946.8180228245957
 31
0.0
  0
LINE
  5
8D5
330
8C9
100
AcDbEntity
  8
0
  6
Continuous
 62
     7
370
    15
100
AcDbLine
 10
2059.949440748414
 20
946.8180228245957
 30
0.0
 11
2059.431714803895
 21
946.8704786372883
 31
0.0
  0
LINE
  5
8D6
330
8C9
100
AcDbEntity
  8
0
  6
Continuous
 62
     7
370
    15
100
AcDbLine
 10
2043.958145060559
 20
930.2799104002817
 30
0.0
 11
2057.85210976096
 21
930.2799104002817
 31
0.0
  0
ARC
  5
8D7
330
8C9
100
AcDbEntity
  8
0
  6
Continuous
 62
     7
370
    15
100
AcDbCircle
 10
2057.852110315579
 20
931.2799106349375
 30
0.0
 40
1.000000000000005
100
AcDbArc
 50
270.0
 51
354.2146538965557
  0
LINE
  5
8D8
330
8C9
100
AcDbEntity
  8
0
  6
Continuous
 62
     7
370
    15
100
AcDbLine
 10
2058.847017453035
 20
931.1791088653309
 30
0.0
 11
2058.94749784561
 21
932.1708519232972
 31
0.0
  0
LINE
  5
8D9
330
8C9
100
AcDbEntity
  8
0
  6
Continuous
 62
     7
370
    15
100
AcDbLine
 10
2059.431714803895
 20
946.8704786372883
 30
0.0
 11
2059.426398814639
 21
946.8180228245957
 31
0.0
  0
LINE
  5
8DA
330
8C9
100
AcDbEntity
  8
0
  6
Continuous
 62
     7
370
    15
100
AcDbLine
 10
2035.398878489603
 20
946.8180228245957
 30
0.0
 11
2035.38866560625
 21
946.9188254547818
 31
0.0
  0
LINE
  5
8DB
330
8C9
100
AcDbEntity
  8
0
  6
Continuous
 62
     7
370
    15
100
AcDbLine
 10
2053.452498146316
 20
929.9609109980567
 30
0.0
 11
2053.452498146316
 21
930.2799104002817
 31
0.0
  0
LINE
  5
8DC
330
8C9
100
AcDbEntity
  8
0
  6
Continuous
 62
     7
370
    15
100
AcDbLine
 10
2052.765870333632
 20
929.9609109980567
 30
0.0
 11
2053.452498146316
 21
929.9609109980567
 31
0.0
  0
LINE
  5
8DD
330
8C9
100
AcDbEntity
  8
0
  6
Continuous
 62
     7
370
    15
100
AcDbLine
 10
2052.765870333632
 20
929.9609109980567
 30
0.0
 11
2052.765870333632
 21
930.2799104002817
 31
0.0
  0
SPLINE
  5
8DE
330
8C9
100
AcDbEntity
  8
0
  6
Continuous
 62
     7
370
    15
100
AcDbSpline
210
0.0
220
0.0
230
1.0
 70
    24
 71
     3
 72
     8
 73
     4
 74
     0
 42
0.0000000001
 43
0.0000000001
 40
0.0
 40
0.0
 40
0.0
 40
0.0
 40
1.0
 40
1.0
 40
1.0
 40
1.0
 10
2051.688374470317
 20
929.9609106349375
 30
0.0
 10
2052.050404922089
 20
929.9609106349375
 30
0.0
 10
2052.411711131399
 20
929.9609106349375
 30
0.0
 10
2052.765870734667
 20
929.9609106349375
 30
0.0
  0
LINE
  5
8DF
330
8C9
100
AcDbEntity
  8
0
  6
Continuous
 62
     7
370
    15
100
AcDbLine
 10
2051.688374818286
 20
929.9609109980567
 30
0.0
 11
2051.688374818286
 21
930.2799104002817
 31
0.0
  0
LINE
  5
8E0
330
8C9
100
AcDbEntity
  8
0
  6
Continuous
 62
     7
370
    15
100
AcDbLine
 10
2054.529994592985
 20
929.9609109980567
 30
0.0
 11
2054.529994592985
 21
930.2799104002817
 31
0.0
  0
SPLINE
  5
8E1
330
8C9
100
AcDbEntity
  8
0
  6
Continuous
 62
     7
370
    15
100
AcDbSpline
210
0.0
220
0.0
230
1.0
 70
    24
 71
     3
 72
     8
 73
     4
 74
     0
 42
0.0000000001
 43
0.0000000001
 40
0.0
 40
0.0
 40
0.0
 40
0.0
 40
1.0
 40
1.0
 40
1.0
 40
1.0
 10
2053.452498054699
 20
929.9609106349375
 30
0.0
 10
2053.806658147618
 20
929.9609106349375
 30
0.0
 10
2054.16797701058
 20
929.9609106349375
 30
0.0
 10
2054.529994319029
 20
929.9609106349375
 30
0.0
  0
LINE
  5
8E2
330
8C9
100
AcDbEntity
  8
0
  6
Continuous
 62
     7
370
    15
100
AcDbLine
 10
2047.952498176118
 20
929.9609109980567
 30
0.0
 11
2047.952498176118
 21
930.2799104002817
 31
0.0
  0
LINE
  5
8E3
330
8C9
100
AcDbEntity
  8
0
  6
Continuous
 62
     7
370
    15
100
AcDbLine
 10
2047.265870363434
 20
929.9609109980567
 30
0.0
 11
2047.265870363434
 21
930.2799104002817
 31
0.0
  0
LINE
  5
8E4
330
8C9
100
AcDbEntity
  8
0
  6
Continuous
 62
     7
370
    15
100
AcDbLine
 10
2047.265870363434
 20
929.9609109980567
 30
0.0
 11
2047.952498176118
 21
929.9609109980567
 31
0.0
  0
LINE
  5
8E5
330
8C9
100
AcDbEntity
  8
0
  6
Continuous
 62
     7
370
    15
100
AcDbLine
 10
2049.029994622787
 20
929.9609109980567
 30
0.0
 11
2049.029994622787
 21
930.2799104002817
 31
0.0
  0
SPLINE
  5
8E6
330
8C9
100
AcDbEntity
  8
0
  6
Continuous
 62
     7
370
    15
100
AcDbSpline
210
0.0
220
0.0
230
1.0
 70
    24
 71
     3
 72
     8
 73
     4
 74
     0
 42
0.0000000001
 43
0.0000000001
 40
0.0
 40
0.0
 40
0.0
 40
0.0
 40
1.0
 40
1.0
 40
1.0
 40
1.0
 10
2047.952498054689
 20
929.9609106349375
 30
0.0
 10
2048.306657657938
 20
929.9609106349375
 30
0.0
 10
2048.667963867256
 20
929.9609106349375
 30
0.0
 10
2049.029994319019
 20
929.9609106349375
 30
0.0
  0
LINE
  5
8E7
330
8C9
100
AcDbEntity
  8
0
  6
Continuous
 62
     7
370
    15
100
AcDbLine
 10
2046.188374382426
 20
929.9609109980567
 30
0.0
 11
2046.188374382426
 21
930.2799104002817
 31
0.0
  0
SPLINE
  5
8E8
330
8C9
100
AcDbEntity
  8
0
  6
Continuous
 62
     7
370
    15
100
AcDbSpline
210
0.0
220
0.0
230
1.0
 70
    24
 71
     3
 72
     8
 73
     4
 74
     0
 42
0.0000000001
 43
0.0000000001
 40
0.0
 40
0.0
 40
0.0
 40
0.0
 40
1.0
 40
1.0
 40
1.0
 40
1.0
 10
2046.188374470317
 20
929.9609106349375
 30
0.0
 10
2046.550391778788
 20
929.9609106349375
 30
0.0
 10
2046.911710641749
 20
929.9609106349375
 30
0.0
 10
2047.265870734667
 20
929.9609106349375
 30
0.0
  0
LINE
  5
8E9
330
8C9
100
AcDbEntity
  8
0
  6
Continuous
 62
     7
370
    15
100
AcDbLine
 10
2059.014644340595
 20
946.8180228245957
 30
0.0
 11
2059.014644340595
 21
947.1680231613619
 31
0.0
  0
LINE
  5
8EA
330
8C9
100
AcDbEntity
  8
0
  6
Continuous
 62
     7
370
    15
100
AcDbLine
 10
2062.347594515403
 20
946.8180228245957
 30
0.0
 11
2059.014644340595
 21
946.8180228245957
 31
0.0
  0
LINE
  5
8EB
330
8C9
100
AcDbEntity
  8
0
  6
Continuous
 62
     7
370
    15
100
AcDbLine
 10
2060.602644325217
 20
918.3206897683023
 30
0.0
 11
2060.960145533999
 21
918.6781897547236
 31
0.0
  0
LINE
  5
8EC
330
8C9
100
AcDbEntity
  8
0
  6
Continuous
 62
     7
370
    15
100
AcDbLine
 10
2045.864070166816
 20
918.3206897683023
 30
0.0
 11
2060.602644325217
 21
918.3206897683023
 31
0.0
  0
LINE
  5
8ED
330
8C9
100
AcDbEntity
  8
0
  6
Continuous
 62
     7
370
    15
100
AcDbLine
 10
2045.156143938174
 20
919.3318403954664
 30
0.0
 11
2045.864070166816
 21
918.3206897683023
 31
0.0
  0
LINE
  5
8EE
330
8C9
100
AcDbEntity
  8
0
  6
Continuous
 62
     7
370
    15
100
AcDbLine
 10
2042.995105830004
 20
918.3206897683023
 30
0.0
 11
2045.156143938174
 21
919.3318403954664
 31
0.0
  0
LINE
  5
8EF
330
8C9
100
AcDbEntity
  8
0
  6
Continuous
 62
     7
370
    15
100
AcDbLine
 10
2034.309957974573
 20
922.0067698729737
 30
0.0
 11
2032.879145217111
 21
921.1806897760881
 31
0.0
  0
LINE
  5
8F0
330
8C9
100
AcDbEntity
  8
0
  6
Continuous
 62
     7
370
    15
100
AcDbLine
 10
2031.959645316919
 20
926.077631138037
 30
0.0
 11
2034.309957974573
 21
922.0067698729737
 31
0.0
  0
LINE
  5
8F1
330
8C9
100
AcDbEntity
  8
0
  6
Continuous
 62
     7
370
    15
100
AcDbLine
 10
2031.959645316919
 20
946.4089729113085
 30
0.0
 11
2031.959645316919
 21
926.077631138037
 31
0.0
  0
LINE
  5
8F2
330
8C9
100
AcDbEntity
  8
0
  6
Continuous
 62
     7
370
    15
100
AcDbLine
 10
2032.368694764544
 20
946.8180228245957
 30
0.0
 11
2031.959645316919
 21
946.4089729113085
 31
0.0
  0
LINE
  5
8F3
330
8C9
100
AcDbEntity
  8
0
  6
Continuous
 62
     7
370
    15
100
AcDbLine
 10
2036.024645070528
 20
946.8180228245957
 30
0.0
 11
2032.368694764544
 21
946.8180228245957
 31
0.0
  0
LINE
  5
8F4
330
8C9
100
AcDbEntity
  8
0
  6
Continuous
 62
     7
370
    15
100
AcDbLine
 10
2036.024645070528
 20
947.1680231613619
 30
0.0
 11
2036.024645070528
 21
946.8180228245957
 31
0.0
  0
LINE
  5
8F5
330
8C9
100
AcDbEntity
  8
0
  6
Continuous
 62
     7
370
    15
100
AcDbLine
 10
2059.014644340595
 20
947.1680231613619
 30
0.0
 11
2036.024645070528
 21
947.1680231613619
 31
0.0
  0
LINE
  5
8F6
330
8C9
100
AcDbEntity
  8
0
  6
Continuous
 62
     7
370
    15
100
AcDbLine
 10
2034.530367103388
 20
918.3206897683023
 30
0.0
 11
2042.995105830004
 21
918.3206897683023
 31
0.0
  0
LINE
  5
8F7
330
8C9
100
AcDbEntity
  8
0
  6
Continuous
 62
     7
370
    15
100
AcDbLine
 10
2032.879145217111
 20
921.1806897760881
 30
0.0
 11
2034.530367103388
 21
918.3206897683023
 31
0.0
  0
LINE
  5
8F8
330
8C9
100
AcDbEntity
  8
0
  6
Continuous
 62
     7
370
    15
100
AcDbLine
 10
2060.960145533999
 20
918.6781897547236
 30
0.0
 11
2060.960145533999
 21
919.983080977113
 31
0.0
  0
LINE
  5
8F9
330
8C9
100
AcDbEntity
  8
0
  6
Continuous
 62
     7
370
    15
100
AcDbLine
 10
2060.960145533999
 20
919.983080977113
 30
0.0
 11
2060.568369791826
 21
920.374856923013
 31
0.0
  0
LINE
  5
8FA
330
8C9
100
AcDbEntity
  8
0
  6
Continuous
 62
     7
370
    15
100
AcDbLine
 10
2060.568369791826
 20
920.374856923013
 30
0.0
 11
2059.530144424161
 21
920.4656897450378
 31
0.0
  0
LINE
  5
8FB
330
8C9
100
AcDbEntity
  8
0
  6
Continuous
 62
     7
370
    15
100
AcDbLine
 10
2059.530144424161
 20
920.4656897450378
 30
0.0
 11
2059.530144424161
 21
922.4656897818251
 31
0.0
  0
LINE
  5
8FC
330
8C9
100
AcDbEntity
  8
0
  6
Continuous
 62
     7
370
    15
100
AcDbLine
 10
2059.530144424161
 20
922.4656897818251
 30
0.0
 11
2060.604005918821
 21
922.5596404389991
 31
0.0
  0
LINE
  5
8FD
330
8C9
100
AcDbEntity
  8
0
  6
Continuous
 62
     7
370
    15
100
AcDbLine
 10
2060.604005918821
 20
922.5596404389991
 30
0.0
 11
2060.960145533999
 21
922.984071144606
 31
0.0
  0
LINE
  5
8FE
330
8C9
100
AcDbEntity
  8
0
  6
Continuous
 62
     7
370
    15
100
AcDbLine
 10
2060.960145533999
 20
922.984071144606
 30
0.0
 11
2060.960145533999
 21
925.0213488226338
 31
0.0
  0
LINE
  5
8FF
330
8C9
100
AcDbEntity
  8
0
  6
Continuous
 62
     7
370
    15
100
AcDbLine
 10
2060.960145533999
 20
925.0213488226338
 30
0.0
 11
2057.712327555736
 21
925.8915989880962
 31
0.0
  0
ARC
  5
900
330
8C9
100
AcDbEntity
  8
0
  6
Continuous
 62
     7
370
    15
100
AcDbCircle
 10
2057.666063756946
 20
925.7189397686136
 30
0.0
 40
0.1787500000001234
100
AcDbArc
 50
74.9999999999787
 51
134.9999999999954
  0
LINE
  5
901
330
8C9
100
AcDbEntity
  8
0
  6
Continuous
 62
     7
370
    15
100
AcDbLine
 10
2057.539667800983
 20
925.8453350735409
 30
0.0
 11
2057.265410066565
 21
925.5710764078004
 31
0.0
  0
ARC
  5
902
330
8C9
100
AcDbEntity
  8
0
  6
Continuous
 62
     7
370
    15
100
AcDbCircle
 10
2057.164293419809
 20
925.6721926451708
 30
0.0
 40
0.1430000000000425
100
AcDbArc
 50
224.9999999999908
 51
315.0000000000046
  0
LINE
  5
903
330
8C9
100
AcDbEntity
  8
0
  6
Continuous
 62
     7
370
    15
100
AcDbLine
 10
2057.063177094778
 20
925.5710764078004
 30
0.0
 11
2056.788917497715
 21
925.8453350735409
 31
0.0
  0
ARC
  5
904
330
8C9
100
AcDbEntity
  8
0
  6
Continuous
 62
     7
370
    15
100
AcDbCircle
 10
2056.662523082671
 20
925.7189397686152
 30
0.0
 40
0.178750000000043
100
AcDbArc
 50
45.0000000000046
 51
134.9999999999954
  0
LINE
  5
905
330
8C9
100
AcDbEntity
  8
0
  6
Continuous
 62
     7
370
    15
100
AcDbLine
 10
2056.536128611287
 20
925.8453350735409
 30
0.0
 11
2056.261869014224
 21
925.5710764078004
 31
0.0
  0
ARC
  5
906
330
8C9
100
AcDbEntity
  8
0
  6
Continuous
 62
     7
370
    15
100
AcDbCircle
 10
2056.160752745534
 20
925.6721926451708
 30
0.0
 40
0.1430000000000224
100
AcDbArc
 50
225.0000000000092
 51
314.9999999999769
  0
LINE
  5
907
330
8C9
100
AcDbEntity
  8
0
  6
Continuous
 62
     7
370
    15
100
AcDbLine
 10
2056.059636042436
 20
925.5710764078004
 30
0.0
 11
2055.785378308018
 21
925.8453350735409
 31
0.0
  0
ARC
  5
908
330
8C9
100
AcDbEntity
  8
0
  6
Continuous
 62
     7
370
    15
100
AcDbCircle
 10
2055.658982408398
 20
925.7189397686124
 30
0.0
 40
0.178750000000043
100
AcDbArc
 50
45.0000000000046
 51
134.9999999999908
  0
LINE
  5
909
330
8C9
100
AcDbEntity
  8
0
  6
Continuous
 62
     7
370
    15
100
AcDbLine
 10
2055.532587558945
 20
925.8453350735409
 30
0.0
 11
2055.258327961882
 21
925.5710764078004
 31
0.0
  0
ARC
  5
90A
330
8C9
100
AcDbEntity
  8
0
  6
Continuous
 62
     7
370
    15
100
AcDbCircle
 10
2055.157212071258
 20
925.6721926451657
 30
0.0
 40
0.1430000000000424
100
AcDbArc
 50
224.9999999999862
 51
314.9999999999862
  0
LINE
  5
90B
330
8C9
100
AcDbEntity
  8
0
  6
Continuous
 62
     7
370
    15
100
AcDbLine
 10
2055.056094990095
 20
925.5710764078004
 30
0.0
 11
2054.781837255677
 21
925.8453350735409
 31
0.0
  0
ARC
  5
90C
330
8C9
100
AcDbEntity
  8
0
  6
Continuous
 62
     7
370
    15
100
AcDbCircle
 10
2054.655441734124
 20
925.7189397686063
 30
0.0
 40
0.1787500000000028
100
AcDbArc
 50
44.99999999999078
 51
134.9999999999954
  0
LINE
  5
90D
330
8C9
100
AcDbEntity
  8
0
  6
Continuous
 62
     7
370
    15
100
AcDbLine
 10
2054.529046506604
 20
925.8453350735409
 30
0.0
 11
2054.254787840863
 21
925.5710764078004
 31
0.0
  0
ARC
  5
90E
330
8C9
100
AcDbEntity
  8
0
  6
Continuous
 62
     7
370
    15
100
AcDbCircle
 10
2054.153671396989
 20
925.6721926451659
 30
0.0
 40
0.142999999999942
100
AcDbArc
 50
225.0000000000322
 51
314.9999999999908
  0
LINE
  5
90F
330
8C9
100
AcDbEntity
  8
0
  6
Continuous
 62
     7
370
    15
100
AcDbLine
 10
2054.052554869076
 20
925.5710764078004
 30
0.0
 11
2053.778296203335
 21
925.8453350735409
 31
0.0
  0
ARC
  5
910
330
8C9
100
AcDbEntity
  8
0
  6
Continuous
 62
     7
370
    15
100
AcDbCircle
 10
2053.651901059852
 20
925.7189397686103
 30
0.0
 40
0.178750000000043
100
AcDbArc
 50
44.99999999999078
 51
134.9999999999908
  0
LINE
  5
911
330
8C9
100
AcDbEntity
  8
0
  6
Continuous
 62
     7
370
    15
100
AcDbLine
 10
2053.525505454262
 20
925.8453350735409
 30
0.0
 11
2053.251246788522
 21
925.5710764078004
 31
0.0
  0
ARC
  5
912
330
8C9
100
AcDbEntity
  8
0
  6
Continuous
 62
     7
370
    15
100
AcDbCircle
 10
2053.150130722716
 20
925.6721926451673
 30
0.0
 40
0.1430000000000626
100
AcDbArc
 50
224.9999999999908
 51
314.9999999999862
  0
LINE
  5
913
330
8C9
100
AcDbEntity
  8
0
  6
Continuous
 62
     7
370
    15
100
AcDbLine
 10
2053.049014748057
 20
925.5710764078004
 30
0.0
 11
2052.774756082317
 21
925.8453350735409
 31
0.0
  0
ARC
  5
914
330
8C9
100
AcDbEntity
  8
0
  6
Continuous
 62
     7
370
    15
100
AcDbCircle
 10
2052.648360385573
 20
925.7189397686156
 30
0.0
 40
0.1787500000000028
100
AcDbArc
 50
45.0000000000046
 51
134.9999999999908
  0
LINE
  5
915
330
8C9
100
AcDbEntity
  8
0
  6
Continuous
 62
     7
370
    15
100
AcDbLine
 10
2052.521965333244
 20
925.8453350735409
 30
0.0
 11
2052.247706667503
 21
925.5710764078004
 31
0.0
  0
ARC
  5
916
330
8C9
100
AcDbEntity
  8
0
  6
Continuous
 62
     7
370
    15
100
AcDbCircle
 10
2052.146590048446
 20
925.672192645179
 30
0.0
 40
0.1429999999981333
100
AcDbArc
 50
272.0037573519897
 51
314.9999999999908
  0
ARC
  5
917
330
8C9
100
AcDbEntity
  8
0
  6
Continuous
 62
     7
370
    15
100
AcDbCircle
 10
2052.156590048446
 20
925.6721926451778
 30
0.0
 40
0.1429999999981333
100
AcDbArc
 50
225.0000000000092
 51
267.9962426338928
  0
LINE
  5
918
330
8C9
100
AcDbEntity
  8
0
  6
Continuous
 62
     7
370
    15
100
AcDbLine
 10
2052.055474237522
 20
925.5710764078004
 30
0.0
 11
2051.781214640459
 21
925.8453350735409
 31
0.0
  0
ARC
  5
919
330
8C9
100
AcDbEntity
  8
0
  6
Continuous
 62
     7
370
    15
100
AcDbCircle
 10
2051.654819711307
 20
925.7189397686216
 30
0.0
 40
0.1787500000028567
100
AcDbArc
 50
45.00000000000921
 51
135.0000000000092
  0
LINE
  5
91A
330
8C9
100
AcDbEntity
  8
0
  6
Continuous
 62
     7
370
    15
100
AcDbLine
 10
2051.528424822708
 20
925.8453350735409
 30
0.0
 11
2051.254165225645
 21
925.5710764078004
 31
0.0
  0
ARC
  5
91B
330
8C9
100
AcDbEntity
  8
0
  6
Continuous
 62
     7
370
    15
100
AcDbCircle
 10
2051.15304937417
 20
925.6721926451792
 30
0.0
 40
0.142999999998093
100
AcDbArc
 50
270.7093387038189
 51
315.0000000000276
  0
ARC
  5
91C
330
8C9
100
AcDbEntity
  8
0
  6
Continuous
 62
     7
370
    15
100
AcDbCircle
 10
2051.156590048446
 20
925.6721926451779
 30
0.0
 40
0.1429999999981131
100
AcDbArc
 50
225.0000000000046
 51
269.2906612563529
  0
LINE
  5
91D
330
8C9
100
AcDbEntity
  8
0
  6
Continuous
 62
     7
370
    15
100
AcDbLine
 10
2051.055474073609
 20
925.5710764078004
 30
0.0
 11
2050.781215407869
 21
925.8453350735409
 31
0.0
  0
ARC
  5
91E
330
8C9
100
AcDbEntity
  8
0
  6
Continuous
 62
     7
370
    15
100
AcDbCircle
 10
2050.654819711308
 20
925.7189397686218
 30
0.0
 40
0.1787500000028366
100
AcDbArc
 50
45.00000000000921
 51
135.0000000000092
  0
LINE
  5
91F
330
8C9
100
AcDbEntity
  8
0
  6
Continuous
 62
     7
370
    15
100
AcDbLine
 10
2050.528424658796
 20
925.8453350735409
 30
0.0
 11
2050.254165993055
 21
925.5710764078004
 31
0.0
  0
ARC
  5
920
330
8C9
100
AcDbEntity
  8
0
  6
Continuous
 62
     7
370
    15
100
AcDbCircle
 10
2050.15304937417
 20
925.6721926451795
 30
0.0
 40
0.1429999999980958
100
AcDbArc
 50
270.7093387038189
 51
315.0000000000276
  0
ARC
  5
921
330
8C9
100
AcDbEntity
  8
0
  6
Continuous
 62
     7
370
    15
100
AcDbCircle
 10
2050.156590048446
 20
925.6721926451783
 30
0.0
 40
0.1429999999981326
100
AcDbArc
 50
225.0000000000046
 51
269.2906612563529
  0
LINE
  5
922
330
8C9
100
AcDbEntity
  8
0
  6
Continuous
 62
     7
370
    15
100
AcDbLine
 10
2050.055473909696
 20
925.5710764078004
 30
0.0
 11
2049.781215243956
 21
925.8453350735409
 31
0.0
  0
ARC
  5
923
330
8C9
100
AcDbEntity
  8
0
  6
Continuous
 62
     7
370
    15
100
AcDbCircle
 10
2049.654819711308
 20
925.718939768622
 30
0.0
 40
0.1787500000028567
100
AcDbArc
 50
45.00000000000921
 51
134.9999999999954
  0
LINE
  5
924
330
8C9
100
AcDbEntity
  8
0
  6
Continuous
 62
     7
370
    15
100
AcDbLine
 10
2049.528424494883
 20
925.8453350735409
 30
0.0
 11
2049.254165829142
 21
925.5710764078004
 31
0.0
  0
ARC
  5
925
330
8C9
100
AcDbEntity
  8
0
  6
Continuous
 62
     7
370
    15
100
AcDbCircle
 10
2049.15304937417
 20
925.6721926451799
 30
0.0
 40
0.1429999999980954
100
AcDbArc
 50
270.7093387038059
 51
315.0000000000276
  0
ARC
  5
926
330
8C9
100
AcDbEntity
  8
0
  6
Continuous
 62
     7
370
    15
100
AcDbCircle
 10
2049.156590048446
 20
925.6721926451787
 30
0.0
 40
0.142999999998133
100
AcDbArc
 50
225.0000000000046
 51
269.2906612563398
  0
LINE
  5
927
330
8C9
100
AcDbEntity
  8
0
  6
Continuous
 62
     7
370
    15
100
AcDbLine
 10
2049.055473745784
 20
925.5710764078004
 30
0.0
 11
2048.781215080043
 21
925.8453350735409
 31
0.0
  0
ARC
  5
928
330
8C9
100
AcDbEntity
  8
0
  6
Continuous
 62
     7
370
    15
100
AcDbCircle
 10
2048.654819711308
 20
925.7189397686222
 30
0.0
 40
0.1787500000028567
100
AcDbArc
 50
45.00000000000921
 51
134.9999999999954
  0
LINE
  5
929
330
8C9
100
AcDbEntity
  8
0
  6
Continuous
 62
     7
370
    15
100
AcDbLine
 10
2048.52842433097
 20
925.8453350735409
 30
0.0
 11
2048.254165665229
 21
925.5710764078004
 31
0.0
  0
ARC
  5
92A
330
8C9
100
AcDbEntity
  8
0
  6
Continuous
 62
     7
370
    15
100
AcDbCircle
 10
2048.15304937417
 20
925.6721926451801
 30
0.0
 40
0.1429999999981131
100
AcDbArc
 50
270.7093387038189
 51
315.0000000000138
  0
ARC
  5
92B
330
8C9
100
AcDbEntity
  8
0
  6
Continuous
 62
     7
370
    15
100
AcDbCircle
 10
2048.156590048446
 20
925.6721926451788
 30
0.0
 40
0.1429999999981042
100
AcDbArc
 50
224.9999999999908
 51
269.2906612563529
  0
LINE
  5
92C
330
8C9
100
AcDbEntity
  8
0
  6
Continuous
 62
     7
370
    15
100
AcDbLine
 10
2048.055473581871
 20
925.5710764078004
 30
0.0
 11
2047.78121491613
 21
925.8453350735409
 31
0.0
  0
ARC
  5
92D
330
8C9
100
AcDbEntity
  8
0
  6
Continuous
 62
     7
370
    15
100
AcDbCircle
 10
2047.654819711308
 20
925.7189397686225
 30
0.0
 40
0.1787500000028767
100
AcDbArc
 50
45.00000000000921
 51
134.9999999999954
  0
LINE
  5
92E
330
8C9
100
AcDbEntity
  8
0
  6
Continuous
 62
     7
370
    15
100
AcDbLine
 10
2047.528424167057
 20
925.8453350735409
 30
0.0
 11
2047.254165501316
 21
925.5710764078004
 31
0.0
  0
ARC
  5
92F
330
8C9
100
AcDbEntity
  8
0
  6
Continuous
 62
     7
370
    15
100
AcDbCircle
 10
2047.153049374171
 20
925.6721926451803
 30
0.0
 40
0.1429999999980958
100
AcDbArc
 50
270.7093387038189
 51
315.0000000000092
  0
ARC
  5
930
330
8C9
100
AcDbEntity
  8
0
  6
Continuous
 62
     7
370
    15
100
AcDbCircle
 10
2047.156590048446
 20
925.672192645179
 30
0.0
 40
0.1429999999981131
100
AcDbArc
 50
225.0000000000046
 51
269.2906612563659
  0
LINE
  5
931
330
8C9
100
AcDbEntity
  8
0
  6
Continuous
 62
     7
370
    15
100
AcDbLine
 10
2047.055473883619
 20
925.5710764078004
 30
0.0
 11
2046.781215217878
 21
925.8453350735409
 31
0.0
  0
ARC
  5
932
330
8C9
100
AcDbEntity
  8
0
  6
Continuous
 62
     7
370
    15
100
AcDbCircle
 10
2046.654819711307
 20
925.7189397686229
 30
0.0
 40
0.1787500000028767
100
AcDbArc
 50
45.00000000000921
 51
134.9999999999908
  0
LINE
  5
933
330
8C9
100
AcDbEntity
  8
0
  6
Continuous
 62
     7
370
    15
100
AcDbLine
 10
2046.528424468805
 20
925.8453350735409
 30
0.0
 11
2046.254165803065
 21
925.5710764078004
 31
0.0
  0
ARC
  5
934
330
8C9
100
AcDbEntity
  8
0
  6
Continuous
 62
     7
370
    15
100
AcDbCircle
 10
2046.15304937417
 20
925.6721926451804
 30
0.0
 40
0.142999999998093
100
AcDbArc
 50
224.9999999999908
 51
315.0000000000138
  0
LINE
  5
935
330
8C9
100
AcDbEntity
  8
0
  6
Continuous
 62
     7
370
    15
100
AcDbLine
 10
2046.051933296939
 20
925.5710764078004
 30
0.0
 11
2045.777674165537
 21
925.8453350735409
 31
0.0
  0
ARC
  5
936
330
8C9
100
AcDbEntity
  8
0
  6
Continuous
 62
     7
370
    15
100
AcDbCircle
 10
2045.651279037034
 20
925.7189397686268
 30
0.0
 40
0.178749999999199
100
AcDbArc
 50
45.00000000000921
 51
134.9999999999908
  0
LINE
  5
937
330
8C9
100
AcDbEntity
  8
0
  6
Continuous
 62
     7
370
    15
100
AcDbLine
 10
2045.524883882125
 20
925.8453350735409
 30
0.0
 11
2045.250624750723
 21
925.5710764078004
 31
0.0
  0
ARC
  5
938
330
8C9
100
AcDbEntity
  8
0
  6
Continuous
 62
     7
370
    15
100
AcDbCircle
 10
2045.149508699898
 20
925.6721926451845
 30
0.0
 40
0.1430000000017105
100
AcDbArc
 50
225.0000000000046
 51
314.9999999999908
  0
LINE
  5
939
330
8C9
100
AcDbEntity
  8
0
  6
Continuous
 62
     7
370
    15
100
AcDbLine
 10
2045.048392244597
 20
925.5710764078004
 30
0.0
 11
2044.774133578857
 21
925.8453350735409
 31
0.0
  0
ARC
  5
93A
330
8C9
100
AcDbEntity
  8
0
  6
Continuous
 62
     7
370
    15
100
AcDbCircle
 10
2044.647738362761
 20
925.7189397686223
 30
0.0
 40
0.1787500000019322
100
AcDbArc
 50
44.99999999999078
 51
134.9999999999908
  0
LINE
  5
93B
330
8C9
100
AcDbEntity
  8
0
  6
Continuous
 62
     7
370
    15
100
AcDbLine
 10
2044.521342829784
 20
925.8453350735409
 30
0.0
 11
2044.247084164043
 21
925.5710764078004
 31
0.0
  0
ARC
  5
93C
330
8C9
100
AcDbEntity
  8
0
  6
Continuous
 62
     7
370
    15
100
AcDbCircle
 10
2044.145968025621
 20
925.6721926451801
 30
0.0
 40
0.1430000000008865
100
AcDbArc
 50
225.0000000000046
 51
315.0000000000046
  0
LINE
  5
93D
330
8C9
100
AcDbEntity
  8
0
  6
Continuous
 62
     7
370
    15
100
AcDbLine
 10
2044.044851657917
 20
925.5710764078004
 30
0.0
 11
2043.958145060559
 21
925.6577830051584
 31
0.0
  0
LINE
  5
93E
330
8C9
100
AcDbEntity
  8
0
  6
Continuous
 62
     7
370
    15
100
AcDbLine
 10
2043.958145060559
 20
925.6577830051584
 30
0.0
 11
2043.958145060559
 21
931.7436896485789
 31
0.0
  0
ARC
  5
93F
330
8C9
100
AcDbEntity
  8
0
  6
Continuous
 62
     7
370
    15
100
AcDbCircle
 10
2044.3156451055
 20
931.7436897686256
 30
0.0
 40
0.3574999999993622
100
AcDbArc
 50
90.0
 51
180.0
  0
LINE
  5
940
330
8C9
100
AcDbEntity
  8
0
  6
Continuous
 62
     7
370
    15
100
AcDbLine
 10
2045.240063552727
 20
932.1011899260385
 30
0.0
 11
2044.315645338019
 21
932.1011899260385
 31
0.0
  0
ARC
  5
941
330
8C9
100
AcDbEntity
  8
0
  6
Continuous
 62
     7
370
    15
100
AcDbCircle
 10
2045.240063756957
 20
931.7436897686265
 30
0.0
 40
0.3574999999983959
100
AcDbArc
 50
44.99999999999539
 51
90.0
  0
LINE
  5
942
330
8C9
100
AcDbEntity
  8
0
  6
Continuous
 62
     7
370
    15
100
AcDbLine
 10
2045.888644975593
 20
931.6006897238596
 30
0.0
 11
2045.4928543018
 21
931.9964803976519
 31
0.0
  0
LINE
  5
943
330
8C9
100
AcDbEntity
  8
0
  6
Continuous
 62
     7
370
    15
100
AcDbLine
 10
2060.869334132394
 20
932.2547603619797
 30
0.0
 11
2045.888644975593
 21
931.6006897238596
 31
0.0
  0
LINE
  5
944
330
8C9
100
AcDbEntity
  8
0
  6
Continuous
 62
     7
370
    15
100
AcDbLine
 10
2060.869334132394
 20
932.2547603619797
 30
0.0
 11
2061.140376941284
 21
932.5505530682905
 31
0.0
  0
LINE
  5
945
330
8C9
100
AcDbEntity
  8
0
  6
Continuous
 62
     7
370
    15
100
AcDbLine
 10
2061.140376941284
 20
932.5505530682905
 30
0.0
 11
2063.079036639055
 21
945.7734160346491
 31
0.0
  0
LINE
  5
946
330
8C9
100
AcDbEntity
  8
0
  6
Continuous
 62
     7
370
    15
100
AcDbLine
 10
2063.079036639055
 20
945.7734160346491
 30
0.0
 11
2062.347594515403
 21
946.8180228245957
 31
0.0
  0
LINE
  5
947
330
8C9
100
AcDbEntity
  8
0
  6
Continuous
 62
     7
370
    15
100
AcDbLine
 10
2059.014644340595
 20
949.3180223030551
 30
0.0
 11
2059.014644340595
 21
947.1680231613619
 31
0.0
  0
LINE
  5
948
330
8C9
100
AcDbEntity
  8
0
  6
Continuous
 62
     7
370
    15
100
AcDbLine
 10
2036.024645070528
 20
947.1680231613619
 30
0.0
 11
2036.024645070528
 21
949.3180223030551
 31
0.0
  0
LINE
  5
949
330
8C9
100
AcDbEntity
  8
0
  6
Continuous
 62
     7
370
    15
100
AcDbLine
 10
2036.024645070528
 20
949.3180223030551
 30
0.0
 11
2059.014644340595
 21
949.3180223030551
 31
0.0
  0
LINE
  5
94A
330
8C9
100
AcDbEntity
  8
0
  6
Continuous
 62
     7
370
    15
100
AcDbLine
 10
2045.156143938174
 20
919.0071227599448
 30
0.0
 11
2045.156143938174
 21
919.3318403954664
 31
0.0
  0
LINE
  5
94B
330
8C9
100
AcDbEntity
  8
0
  6
Continuous
 62
     7
370
    15
100
AcDbLine
 10
2043.151267671009
 20
918.3937579614623
 30
0.0
 11
2043.228017731552
 21
918.208466795045
 31
0.0
  0
LINE
  5
94C
330
8C9
100
AcDbEntity
  8
0
  6
Continuous
 62
     7
370
    15
100
AcDbLine
 10
2043.228017731552
 20
918.208466795045
 30
0.0
 11
2045.156143938174
 21
919.0071227599448
 31
0.0
  0
LINE
  5
94D
330
8C9
100
AcDbEntity
  8
0
  6
Continuous
 62
     7
370
    15
100
AcDbLine
 10
2059.826848895272
 20
922.4684667529119
 30
0.0
 11
2059.561887622794
 21
922.4684667529119
 31
0.0
  0
LINE
  5
94E
330
8C9
100
AcDbEntity
  8
0
  6
Continuous
 62
     7
370
    15
100
AcDbLine
 10
2059.826848895272
 20
920.4420205310499
 30
0.0
 11
2059.826848895272
 21
922.4684667529119
 31
0.0
  0
LINE
  5
94F
330
8C9
100
AcDbEntity
  8
0
  6
Continuous
 62
     7
370
    15
100
AcDbLine
 10
2059.800686181506
 20
920.4420205310499
 30
0.0
 11
2059.826848895272
 21
920.4420205310499
 31
0.0
  0
LINE
  5
950
330
8C9
100
AcDbEntity
  8
0
  6
Continuous
 62
     7
370
    15
100
AcDbLine
 10
2056.938381732424
 20
926.5807925944729
 30
0.0
 11
2056.938381732424
 21
926.8941472505732
 31
0.0
  0
LINE
  5
951
330
8C9
100
AcDbEntity
  8
0
  6
Continuous
 62
     7
370
    15
100
AcDbLine
 10
2059.484314040264
 20
926.0493682918651
 30
0.0
 11
2056.938381732424
 21
926.8941472505732
 31
0.0
  0
ARC
  5
952
330
8C9
100
AcDbEntity
  8
0
  6
Continuous
 62
     7
370
    15
100
AcDbCircle
 10
2059.326849401543
 20
925.5748109002926
 30
0.0
 40
0.5
100
AcDbArc
 50
0.0
 51
71.64337778463992
  0
ARC
  5
953
330
8C9
100
AcDbEntity
  8
0
  6
Continuous
 62
     7
370
    15
100
AcDbCircle
 10
2059.326849401543
 20
925.5764396125567
 30
0.0
 40
0.1999999999999954
100
AcDbArc
 50
0.0
 51
71.62020904096995
  0
LINE
  5
954
330
8C9
100
AcDbEntity
  8
0
  6
Continuous
 62
     7
370
    15
100
AcDbLine
 10
2056.938381732424
 20
926.5807925944729
 30
0.0
 11
2059.389911458811
 21
925.7662369159563
 31
0.0
  0
LINE
  5
955
330
8C9
100
AcDbEntity
  8
0
  6
Continuous
 62
     7
370
    15
100
AcDbLine
 10
2059.526849404892
 20
925.5764394288464
 30
0.0
 11
2059.526849404892
 21
925.4053992440505
 31
0.0
  0
LINE
  5
956
330
8C9
100
AcDbEntity
  8
0
  6
Continuous
 62
     7
370
    15
100
AcDbLine
 10
2059.826848895272
 20
922.4684667529119
 30
0.0
 11
2059.826848895272
 21
922.491648070286
 31
0.0
  0
LINE
  5
957
330
8C9
100
AcDbEntity
  8
0
  6
Continuous
 62
     7
370
    15
100
AcDbLine
 10
2059.826848895272
 20
925.325014464329
 30
0.0
 11
2059.826848895272
 21
925.5748110113247
 31
0.0
  0
LWPOLYLINE
  5
958
330
8C9
100
AcDbEntity
  8
0
  6
Continuous
 62
     7
370
    15
100
AcDbPolyline
 90
        8
 70
   128
 43
0.0
 10
2051.547833585163
 20
928.6828123254283
 10
2052.337397688051
 20
928.4208229032858
 10
2053.123947099765
 20
928.1598337215884
 10
2053.905377031287
 20
927.9005442035897
 10
2054.679593869468
 20
927.6436472532852
 10
2055.444527284225
 20
927.3898306523962
 10
2056.198129297217
 20
927.1397742664023
 10
2056.938381732424
 20
926.8941472505732
  0
LINE
  5
959
330
8C9
100
AcDbEntity
  8
0
  6
Continuous
 62
     7
370
    15
100
AcDbLine
 10
2051.547833585163
 20
928.3718781766994
 30
0.0
 11
2051.547833585163
 21
928.6828123254283
 31
0.0
  0
LWPOLYLINE
  5
95A
330
8C9
100
AcDbEntity
  8
0
  6
Continuous
 62
     7
370
    15
100
AcDbPolyline
 90
        8
 70
   128
 43
0.0
 10
2056.938381732424
 20
926.5807925944729
 10
2056.198129297217
 20
926.8267516267998
 10
2055.444527284225
 20
927.0771465485497
 10
2054.679593869468
 20
927.3313063418074
 10
2053.905377031287
 20
927.5885511410935
 10
2053.123947099765
 20
927.8481917677028
 10
2052.337397688051
 20
928.109533920656
 10
2051.547833585163
 20
928.3718781766994
  0
LINE
  5
95B
330
8C9
100
AcDbEntity
  8
0
  6
Continuous
 62
     7
370
    15
100
AcDbLine
 10
2059.826848895272
 20
920.4397315147845
 30
0.0
 11
2059.826848895272
 21
920.4420205310499
 31
0.0
  0
LINE
  5
95C
330
8C9
100
AcDbEntity
  8
0
  6
Continuous
 62
     7
370
    15
100
AcDbLine
 10
2045.156143938174
 20
919.0071227599448
 30
0.0
 11
2045.332377177646
 21
919.0801211039117
 31
0.0
  0
LINE
  5
95D
330
8C9
100
AcDbEntity
  8
0
  6
Continuous
 62
     7
370
    15
100
AcDbLine
 10
2044.403653924336
 20
929.5084670407279
 30
0.0
 11
2044.403653924336
 21
929.8084665311082
 31
0.0
  0
LINE
  5
95E
330
8C9
100
AcDbEntity
  8
0
  6
Continuous
 62
     7
370
    15
100
AcDbLine
 10
2045.521653124114
 20
929.5084670407279
 30
0.0
 11
2045.521653124114
 21
929.8084665311082
 31
0.0
  0
LINE
  5
95F
330
8C9
100
AcDbEntity
  8
0
  6
Continuous
 62
     7
370
    15
100
AcDbLine
 10
2044.403653924336
 20
929.5084670407279
 30
0.0
 11
2045.521653124114
 21
929.5084670407279
 31
0.0
  0
LINE
  5
960
330
8C9
100
AcDbEntity
  8
0
  6
Continuous
 62
     7
370
    15
100
AcDbLine
 10
2044.403653924336
 20
929.8084665311082
 30
0.0
 11
2045.521653124114
 21
929.8084665311082
 31
0.0
  0
LINE
  5
961
330
8C9
100
AcDbEntity
  8
0
  6
Continuous
 62
     7
370
    15
100
AcDbLine
 10
2050.691403315386
 20
928.6564391327603
 30
0.0
 11
2050.691403315386
 21
928.9669886452658
 31
0.0
  0
SPLINE
  5
962
330
8C9
100
AcDbEntity
  8
0
  6
Continuous
 62
     7
370
    15
100
AcDbSpline
210
0.0
220
0.0
230
1.0
 70
     8
 71
     3
 72
     8
 73
     4
 74
     0
 42
0.0000000001
 43
0.0000000001
 40
0.0
 40
0.0
 40
0.0
 40
0.0
 40
1.0
 40
1.0
 40
1.0
 40
1.0
 10
2048.530309954061
 20
929.374492241072
 30
0.0
 10
2048.377517003933
 20
929.4627072919581
 30
0.0
 10
2048.205543747009
 20
929.5084668372863
 30
0.0
 10
2048.030309954064
 20
929.5084668372863
 30
0.0
  0
SPLINE
  5
963
330
8C9
100
AcDbEntity
  8
0
  6
Continuous
 62
     7
370
    15
100
AcDbSpline
210
0.0
220
0.0
230
1.0
 70
     8
 71
     3
 72
    10
 73
     6
 74
     0
 42
0.0000000001
 43
0.0000000001
 40
0.0
 40
0.0
 40
0.0
 40
0.0
 40
0.5
 40
0.5
 40
1.0
 40
1.0
 40
1.0
 40
1.0
 10
2048.030309954064
 20
929.8084668372867
 30
0.0
 10
2048.144140033591
 20
929.8084668372867
 30
0.0
 10
2048.255687956401
 20
929.7937673113231
 30
0.0
 10
2048.47427187067
 20
929.7355325931039
 30
0.0
 10
2048.580972826971
 20
929.6916521792745
 30
0.0
 10
2048.680309954065
 20
929.6342998622062
 30
0.0
  0
LINE
  5
964
330
8C9
100
AcDbEntity
  8
0
  6
Continuous
 62
     7
370
    15
100
AcDbLine
 10
2048.030310177227
 20
929.5084670407279
 30
0.0
 11
2045.521653124114
 21
929.5084670407279
 31
0.0
  0
LINE
  5
965
330
8C9
100
AcDbEntity
  8
0
  6
Continuous
 62
     7
370
    15
100
AcDbLine
 10
2048.030310177227
 20
929.8084665311082
 30
0.0
 11
2045.521653124114
 21
929.8084665311082
 31
0.0
  0
LWPOLYLINE
  5
966
330
8C9
100
AcDbEntity
  8
0
  6
Continuous
 62
     7
370
    15
100
AcDbPolyline
 90
        4
 70
   128
 43
0.0
 10
2048.680310004374
 20
929.6342998964293
 10
2049.34862801524
 20
929.412541746865
 10
2050.019281783124
 20
929.1900087369187
 10
2050.691403315386
 20
928.9669886452658
  0
LWPOLYLINE
  5
967
330
8C9
100
AcDbEntity
  8
0
  6
Continuous
 62
     7
370
    15
100
AcDbPolyline
 90
        4
 70
   128
 43
0.0
 10
2050.691403315386
 20
928.6564391327603
 10
2049.968908407708
 20
928.8964977709158
 10
2049.248184875568
 20
929.1359678132041
 10
2048.530310259184
 20
929.3744925630791
  0
LINE
  5
968
330
8C9
100
AcDbEntity
  8
0
  6
Continuous
 62
     7
370
    15
100
AcDbLine
 10
2043.958145060559
 20
929.5084670407279
 30
0.0
 11
2044.403653924336
 21
929.5084670407279
 31
0.0
  0
LINE
  5
969
330
8C9
100
AcDbEntity
  8
0
  6
Continuous
 62
     7
370
    15
100
AcDbLine
 10
2043.958145060559
 20
929.8084665311082
 30
0.0
 11
2044.403653924336
 21
929.8084665311082
 31
0.0
  0
LWPOLYLINE
  5
96A
330
8C9
100
AcDbEntity
  8
0
  6
Continuous
 62
     7
370
    15
100
AcDbPolyline
 90
        4
 70
   128
 43
0.0
 10
2050.691403315386
 20
928.9669886452658
 10
2051.119617984613
 20
928.824900485347
 10
2051.333726250549
 20
928.7538564053877
 10
2051.547833585163
 20
928.6828123254283
  0
SPLINE
  5
96B
330
8C9
100
AcDbEntity
  8
0
  6
Continuous
 62
     7
370
    15
100
AcDbSpline
210
0.0
220
0.0
230
1.0
 70
    24
 71
     3
 72
    14
 73
    10
 74
     0
 42
0.0000000001
 43
0.0000000001
 40
0.0
 40
0.0
 40
0.0
 40
0.0
 40
0.0002256177764402
 40
0.0002256177764402
 40
0.0002256177764402
 40
0.0005640444472092
 40
0.0005640444472092
 40
0.0005640444472092
 40
0.0009024711179195
 40
0.0009024711179195
 40
0.0009024711179195
 40
0.0009024711179195
 10
2051.5478334982
 20
928.3718777237965
 30
0.0
 10
2051.476464339344
 20
928.3955911277544
 30
0.0
 10
2051.405095156885
 20
928.4193045395548
 30
0.0
 10
2051.333725964043
 20
928.4430179548053
 30
0.0
 10
2051.22667217271
 20
928.4785880783683
 30
0.0
 10
2051.119618356768
 20
928.5141582101083
 30
0.0
 10
2051.012564542618
 20
928.5497283412526
 30
0.0
 10
2050.905510728512
 20
928.5852984723828
 30
0.0
 10
2050.798456914626
 20
928.6208686034393
 30
0.0
 10
2050.691403128343
 20
928.6564387253244
 30
0.0
  0
LINE
  5
96C
330
8C9
100
AcDbEntity
  8
0
  6
Continuous
 62
     7
370
    15
100
AcDbLine
 10
2044.51742382439
 20
949.3180223030551
 30
0.0
 11
2044.51742382439
 21
953.8328785670502
 31
0.0
  0
SPLINE
  5
96D
330
8C9
100
AcDbEntity
  8
0
  6
Continuous
 62
     7
370
    15
100
AcDbSpline
210
0.0
220
0.0
230
1.0
 70
     8
 71
     3
 72
     8
 73
     4
 74
     0
 42
0.0000000001
 43
0.0000000001
 40
0.0
 40
0.0
 40
0.0
 40
0.0
 40
1.0
 40
1.0
 40
1.0
 40
1.0
 10
2044.517423705711
 20
953.8328785441093
 30
0.0
 10
2044.622625173911
 20
953.832440227976
 30
0.0
 10
2044.727781705529
 20
953.8296262918128
 30
0.0
 10
2044.832893759552
 20
953.8244610003992
 30
0.0
  0
LINE
  5
96E
330
8C9
100
AcDbEntity
  8
0
  6
Continuous
 62
     7
370
    15
100
AcDbLine
 10
2044.832893979718
 20
949.3180223030551
 30
0.0
 11
2044.832893979718
 21
953.8244594109757
 31
0.0
  0
SPLINE
  5
96F
330
8C9
100
AcDbEntity
  8
0
  6
Continuous
 62
     7
370
    15
100
AcDbSpline
210
0.0
220
0.0
230
1.0
 70
    24
 71
     3
 72
     8
 73
     4
 74
     0
 42
0.0000000001
 43
0.0000000001
 40
0.0
 40
0.0
 40
0.0
 40
0.0
 40
1.0
 40
1.0
 40
1.0
 40
1.0
 10
2046.869645105505
 20
954.1905431940504
 30
0.0
 10
2046.869645105505
 20
954.2330489137484
 30
0.0
 10
2046.869645105505
 20
954.2755428122646
 30
0.0
 10
2046.869645105505
 20
954.3180231795346
 30
0.0
  0
SPLINE
  5
970
330
8C9
100
AcDbEntity
  8
0
  6
Continuous
 62
     7
370
    15
100
AcDbSpline
210
0.0
220
0.0
230
1.0
 70
     8
 71
     3
 72
    10
 73
     6
 74
     0
 42
0.0000000001
 43
0.0000000001
 40
0.0
 40
0.0
 40
0.0
 40
0.0
 40
0.5
 40
0.5
 40
1.0
 40
1.0
 40
1.0
 40
1.0
 10
2044.832893759552
 20
953.8244610003992
 30
0.0
 10
2045.165804592341
 20
953.915440013475
 30
0.0
 10
2045.504860853693
 20
953.99486268685
 30
0.0
 10
2046.185627196724
 20
954.1196717950965
 30
0.0
 10
2046.527037193058
 20
954.1650431465189
 30
0.0
 10
2046.869645105505
 20
954.1905431940504
 30
0.0
  0
SPLINE
  5
971
330
8C9
100
AcDbEntity
  8
0
  6
Continuous
 62
     7
370
    15
100
AcDbSpline
210
0.0
220
0.0
230
1.0
 70
     8
 71
     3
 72
    12
 73
     8
 74
     0
 42
0.0000000001
 43
0.0000000001
 40
0.0
 40
0.0
 40
0.0
 40
0.0
 40
0.5
 40
0.5
 40
0.75
 40
0.75
 40
1.0
 40
1.0
 40
1.0
 40
1.0
 10
2044.517423705711
 20
953.83287854411
 30
0.0
 10
2044.080157542814
 20
954.0697298830416
 30
0.0
 10
2043.637312448754
 20
954.2156775300025
 30
0.0
 10
2042.959531183901
 20
954.2144065915321
 30
0.0
 10
2042.732117145697
 20
954.1774706561593
 30
0.0
 10
2042.285718876575
 20
954.0420706956343
 30
0.0
 10
2042.065031733824
 20
953.944098647271
 30
0.0
 10
2041.846142413603
 20
953.8244610003989
 30
0.0
  0
LINE
  5
972
330
8C9
100
AcDbEntity
  8
0
  6
Continuous
 62
     7
370
    15
100
AcDbLine
 10
2042.698373884876
 20
954.3180231226189
 30
0.0
 11
2046.869645227661
 21
954.3180231226189
 31
0.0
  0
SPLINE
  5
973
330
8C9
100
AcDbEntity
  8
0
  6
Continuous
 62
     7
370
    15
100
AcDbSpline
210
0.0
220
0.0
230
1.0
 70
     8
 71
     3
 72
    10
 73
     6
 74
     0
 42
0.0000000001
 43
0.0000000001
 40
0.0
 40
0.0
 40
0.0
 40
0.0
 40
0.5
 40
0.5
 40
1.0
 40
1.0
 40
1.0
 40
1.0
 10
2048.169645105506
 20
954.1905431940495
 30
0.0
 10
2048.515852468545
 20
954.1647752421352
 30
0.0
 10
2048.861866966323
 20
954.1184019968655
 30
0.0
 10
2049.540410710249
 20
953.9935268546823
 30
0.0
 10
2049.875109315088
 20
953.9149962841509
 30
0.0
 10
2050.20639645145
 20
953.8244610003983
 30
0.0
  0
LINE
  5
974
330
8C9
100
AcDbEntity
  8
0
  6
Continuous
 62
     7
370
    15
100
AcDbLine
 10
2050.206396595558
 20
949.3180223030551
 30
0.0
 11
2050.206396595558
 21
953.8244594109757
 31
0.0
  0
LINE
  5
975
330
8C9
100
AcDbEntity
  8
0
  6
Continuous
 62
     7
370
    15
100
AcDbLine
 10
2046.869645227661
 20
952.8180238080723
 30
0.0
 11
2046.869645227661
 21
954.1905436886056
 31
0.0
  0
LINE
  5
976
330
8C9
100
AcDbEntity
  8
0
  6
Continuous
 62
     7
370
    15
100
AcDbLine
 10
2048.169645347615
 20
952.8180238080723
 30
0.0
 11
2048.169645347615
 21
954.1905436886056
 31
0.0
  0
LINE
  5
977
330
8C9
100
AcDbEntity
  8
0
  6
Continuous
 62
     7
370
    15
100
AcDbLine
 10
2046.869645227661
 20
952.8180238080723
 30
0.0
 11
2048.169645347615
 21
952.8180238080723
 31
0.0
  0
SPLINE
  5
978
330
8C9
100
AcDbEntity
  8
0
  6
Continuous
 62
     7
370
    15
100
AcDbSpline
210
0.0
220
0.0
230
1.0
 70
     8
 71
     3
 72
     8
 73
     4
 74
     0
 42
0.0000000001
 43
0.0000000001
 40
0.0
 40
0.0
 40
0.0
 40
0.0
 40
1.0
 40
1.0
 40
1.0
 40
1.0
 10
2050.521866505286
 20
953.8328785441079
 30
0.0
 10
2050.416665037088
 20
953.832440227975
 30
0.0
 10
2050.311508505472
 20
953.8296262918116
 30
0.0
 10
2050.20639645145
 20
953.8244610003983
 30
0.0
  0
LINE
  5
979
330
8C9
100
AcDbEntity
  8
0
  6
Continuous
 62
     7
370
    15
100
AcDbLine
 10
2050.521866285225
 20
949.3180223030551
 30
0.0
 11
2050.521866285225
 21
953.8328785670502
 31
0.0
  0
SPLINE
  5
97A
330
8C9
100
AcDbEntity
  8
0
  6
Continuous
 62
     7
370
    15
100
AcDbSpline
210
0.0
220
0.0
230
1.0
 70
     8
 71
     3
 72
    12
 73
     8
 74
     0
 42
0.0000000001
 43
0.0000000001
 40
0.0
 40
0.0
 40
0.0
 40
0.0
 40
0.5000000000000002
 40
0.5000000000000002
 40
0.7500000000000004
 40
0.7500000000000004
 40
1.0
 40
1.0
 40
1.0
 40
1.0
 10
2053.193147797396
 20
953.8244610003996
 30
0.0
 10
2052.756178193626
 20
954.0632941015157
 30
0.0
 10
2052.313568053863
 20
954.2122995538818
 30
0.0
 10
2051.635853720616
 20
954.2160515195966
 30
0.0
 10
2051.408342302185
 20
954.1807896326329
 30
0.0
 10
2050.961722854304
 20
954.0482686992769
 30
0.0
 10
2050.740901184755
 20
953.9515217447641
 30
0.0
 10
2050.521866505286
 20
953.8328785441082
 30
0.0
  0
LINE
  5
97B
330
8C9
100
AcDbEntity
  8
0
  6
Continuous
 62
     7
370
    15
100
AcDbLine
 10
2048.169645347615
 20
954.3180231226189
 30
0.0
 11
2052.340916224738
 21
954.3180231226189
 31
0.0
  0
SPLINE
  5
97C
330
8C9
100
AcDbEntity
  8
0
  6
Continuous
 62
     7
370
    15
100
AcDbSpline
210
0.0
220
0.0
230
1.0
 70
    24
 71
     3
 72
     8
 73
     4
 74
     0
 42
0.0000000001
 43
0.0000000001
 40
0.0
 40
0.0
 40
0.0
 40
0.0
 40
1.0
 40
1.0
 40
1.0
 40
1.0
 10
2048.169645105506
 20
954.3180231795343
 30
0.0
 10
2048.169645105506
 20
954.2755428178635
 30
0.0
 10
2048.169645105506
 20
954.2330489191041
 30
0.0
 10
2048.169645105506
 20
954.1905431940495
 30
0.0
  0
LINE
  5
97D
330
8C9
100
AcDbEntity
  8
0
  6
Continuous
 62
     7
370
    15
100
AcDbLine
 10
2053.19314809235
 20
949.3180223030551
 30
0.0
 11
2053.19314809235
 21
953.8244594109757
 31
0.0
  0
LINE
  5
97E
330
8C9
100
AcDbEntity
  8
0
  6
Continuous
 62
     7
370
    15
100
AcDbLine
 10
2041.846142482926
 20
949.3180223030551
 30
0.0
 11
2041.846142482926
 21
953.8244594109757
 31
0.0
  0
ENDBLK
  5
8CB
330
8C9
100
AcDbEntity
  8
0
100
AcDbBlockEnd
  0
BLOCK
  5
981
330
980
100
AcDbEntity
  8
0
100
AcDbBlockBegin
  2
3
 70
     0
 10
0.0
 20
0.0
 30
0.0
  3
3
  1

  0
LINE
  5
B98
330
980
100
AcDbEntity
  8
0
  6
Continuous
 62
     7
370
    15
100
AcDbLine
 10
2093.849738824905
 20
876.304099767151
 30
0.0
 11
2078.249739248098
 21
876.304099767151
 31
0.0
1001
AcDbBlockRepETag
1070
     1
1071
        0
1005
B98
  0
LINE
  5
B99
330
980
100
AcDbEntity
  8
0
  6
Continuous
 62
     7
370
    15
100
AcDbLine
 10
2078.249739248098
 20
877.2990060622419
 30
0.0
 11
2078.249739248098
 21
876.304099767151
 31
0.0
1001
AcDbBlockRepETag
1070
     1
1071
        1
1005
B99
  0
LINE
  5
B9A
330
980
100
AcDbEntity
  8
0
  6
Continuous
 62
     7
370
    15
100
AcDbLine
 10
2093.849738824905
 20
877.2990060622419
 30
0.0
 11
2078.249739248098
 21
877.2990060622419
 31
0.0
1001
AcDbBlockRepETag
1070
     1
1071
        2
1005
B9A
  0
LINE
  5
B9B
330
980
100
AcDbEntity
  8
0
  6
Continuous
 62
     7
370
    15
100
AcDbLine
 10
2093.849738824905
 20
877.2990060622419
 30
0.0
 11
2093.849738824905
 21
876.304099767151
 31
0.0
1001
AcDbBlockRepETag
1070
     1
1071
        3
1005
B9B
  0
LINE
  5
B9C
330
980
100
AcDbEntity
  8
0
  6
Continuous
 62
     7
370
    15
100
AcDbLine
 10
2091.099738839806
 20
877.6000323357607
 30
0.0
 11
2091.099738839806
 21
877.5006099256302
 31
0.0
1001
AcDbBlockRepETag
1070
     1
1071
        4
1005
B9C
  0
LINE
  5
B9D
330
980
100
AcDbEntity
  8
0
  6
Continuous
 62
     7
370
    15
100
AcDbLine
 10
2091.099738839806
 20
877.5006099256302
 30
0.0
 11
2093.849738824905
 21
877.5006099256302
 31
0.0
1001
AcDbBlockRepETag
1070
     1
1071
        5
1005
B9D
  0
LINE
  5
B9E
330
980
100
AcDbEntity
  8
0
  6
Continuous
 62
     7
370
    15
100
AcDbLine
 10
2078.249739248098
 20
877.2990060622419
 30
0.0
 11
2078.249739248098
 21
877.5006099256302
 31
0.0
1001
AcDbBlockRepETag
1070
     1
1071
        6
1005
B9E
  0
LINE
  5
B9F
330
980
100
AcDbEntity
  8
0
  6
Continuous
 62
     7
370
    15
100
AcDbLine
 10
2080.999739233197
 20
877.5006099256302
 30
0.0
 11
2078.249739248098
 21
877.5006099256302
 31
0.0
1001
AcDbBlockRepETag
1070
     1
1071
        7
1005
B9F
  0
LINE
  5
BA0
330
980
100
AcDbEntity
  8
0
  6
Continuous
 62
     7
370
    15
100
AcDbLine
 10
2080.999739233197
 20
877.6000323357607
 30
0.0
 11
2080.999739233197
 21
877.5006099256302
 31
0.0
1001
AcDbBlockRepETag
1070
     1
1071
        8
1005
BA0
  0
LINE
  5
BA1
330
980
100
AcDbEntity
  8
0
  6
Continuous
 62
     7
370
    15
100
AcDbLine
 10
2091.099738839806
 20
877.6000323357607
 30
0.0
 11
2080.999739233197
 21
877.6000323357607
 31
0.0
1001
AcDbBlockRepETag
1070
     1
1071
        9
1005
BA1
  0
LINE
  5
BA2
330
980
100
AcDbEntity
  8
0
  6
Continuous
 62
     7
370
    15
100
AcDbLine
 10
2093.849738824905
 20
877.5006099256302
 30
0.0
 11
2093.849738824905
 21
877.2990060622419
 31
0.0
1001
AcDbBlockRepETag
1070
     1
1071
       10
1005
BA2
  0
LINE
  5
BA3
330
980
100
AcDbEntity
  8
0
  6
Continuous
 62
     7
370
    15
100
AcDbLine
 10
2078.249739248098
 20
901.7452625210012
 30
0.0
 11
2093.849738824905
 21
901.7452625210012
 31
0.0
1001
AcDbBlockRepETag
1070
     1
1071
       11
1005
BA3
  0
LINE
  5
BA4
330
980
100
AcDbEntity
  8
0
  6
Continuous
 62
     7
370
    15
100
AcDbLine
 10
2078.249739248098
 20
902.7401683504308
 30
0.0
 11
2093.849738824905
 21
902.7401683504308
 31
0.0
1001
AcDbBlockRepETag
1070
     1
1071
       12
1005
BA4
  0
LINE
  5
BA5
330
980
100
AcDbEntity
  8
0
  6
Continuous
 62
     7
370
    15
100
AcDbLine
 10
2093.849738824905
 20
902.7401683504308
 30
0.0
 11
2093.849738824905
 21
901.7452625210012
 31
0.0
1001
AcDbBlockRepETag
1070
     1
1071
       13
1005
BA5
  0
LINE
  5
BA6
330
980
100
AcDbEntity
  8
0
  6
Continuous
 62
     7
370
    15
100
AcDbLine
 10
2078.249739248098
 20
902.7401683504308
 30
0.0
 11
2078.249739248098
 21
901.7452625210012
 31
0.0
1001
AcDbBlockRepETag
1070
     1
1071
       14
1005
BA6
  0
LINE
  5
BA7
330
980
100
AcDbEntity
  8
0
  6
Continuous
 62
     7
370
    15
100
AcDbLine
 10
2080.999739233197
 20
901.5436591232742
 30
0.0
 11
2080.999739233197
 21
901.449133607241
 31
0.0
1001
AcDbBlockRepETag
1070
     1
1071
       15
1005
BA7
  0
LINE
  5
BA8
330
980
100
AcDbEntity
  8
0
  6
Continuous
 62
     7
370
    15
100
AcDbLine
 10
2080.999739233197
 20
901.5436591232742
 30
0.0
 11
2078.249739248098
 21
901.5436591232742
 31
0.0
1001
AcDbBlockRepETag
1070
     1
1071
       16
1005
BA8
  0
LINE
  5
BA9
330
980
100
AcDbEntity
  8
0
  6
Continuous
 62
     7
370
    15
100
AcDbLine
 10
2091.099738839806
 20
901.5436591232742
 30
0.0
 11
2093.849738824905
 21
901.5436591232742
 31
0.0
1001
AcDbBlockRepETag
1070
     1
1071
       17
1005
BA9
  0
LINE
  5
BAA
330
980
100
AcDbEntity
  8
0
  6
Continuous
 62
     7
370
    15
100
AcDbLine
 10
2091.099738839806
 20
901.5436591232742
 30
0.0
 11
2091.099738839806
 21
901.449133607241
 31
0.0
1001
AcDbBlockRepETag
1070
     1
1071
       18
1005
BAA
  0
LINE
  5
BAB
330
980
100
AcDbEntity
  8
0
  6
Continuous
 62
     7
370
    15
100
AcDbLine
 10
2091.099738839806
 20
901.449133607241
 30
0.0
 11
2080.999739233197
 21
901.449133607241
 31
0.0
1001
AcDbBlockRepETag
1070
     1
1071
       19
1005
BAB
  0
LINE
  5
BAC
330
980
100
AcDbEntity
  8
0
  6
Continuous
 62
     7
370
    15
100
AcDbLine
 10
2093.849738824905
 20
901.7452625210012
 30
0.0
 11
2093.849738824905
 21
901.5436591232742
 31
0.0
1001
AcDbBlockRepETag
1070
     1
1071
       20
1005
BAC
  0
LINE
  5
BAD
330
980
100
AcDbEntity
  8
0
  6
Continuous
 62
     7
370
    15
100
AcDbLine
 10
2078.249739248098
 20
901.5436591232742
 30
0.0
 11
2078.249739248098
 21
901.7452625210012
 31
0.0
1001
AcDbBlockRepETag
1070
     1
1071
       21
1005
BAD
  0
LINE
  5
BAE
330
980
100
AcDbEntity
  8
0
  6
Continuous
 62
     7
370
    15
100
AcDbLine
 10
2091.099738839806
 20
901.449133607241
 30
0.0
 11
2091.099738839806
 21
901.1265886599744
 31
0.0
1001
AcDbBlockRepETag
1070
     1
1071
       22
1005
BAE
  0
LINE
  5
BAF
330
980
100
AcDbEntity
  8
0
  6
Continuous
 62
     7
370
    15
100
AcDbLine
 10
2091.099738839806
 20
878.1365893899078
 30
0.0
 11
2091.099738839806
 21
877.6000323357607
 31
0.0
1001
AcDbBlockRepETag
1070
     1
1071
       23
1005
BAF
  0
LINE
  5
BB0
330
980
100
AcDbEntity
  8
0
  6
Continuous
 62
     7
370
    15
100
AcDbLine
 10
2080.999739233197
 20
901.449133607241
 30
0.0
 11
2080.999739233197
 21
901.1265886599744
 31
0.0
1001
AcDbBlockRepETag
1070
     1
1071
       24
1005
BB0
  0
LINE
  5
BB1
330
980
100
AcDbEntity
  8
0
  6
Continuous
 62
     7
370
    15
100
AcDbLine
 10
2080.999739233197
 20
878.1365893899078
 30
0.0
 11
2080.999739233197
 21
877.6000323357607
 31
0.0
1001
AcDbBlockRepETag
1070
     1
1071
       25
1005
BB1
  0
LINE
  5
BB2
330
980
100
AcDbEntity
  8
0
  6
Continuous
 62
     7
370
    15
100
AcDbLine
 10
2078.099739037247
 20
901.1265886599744
 30
0.0
 11
2080.249739226678
 21
901.1265886599744
 31
0.0
1001
AcDbBlockRepETag
1070
     1
1071
       26
1005
BB2
  0
LINE
  5
BB3
330
980
100
AcDbEntity
  8
0
  6
Continuous
 62
     7
370
    15
100
AcDbLine
 10
2080.249739226678
 20
901.1265886599744
 30
0.0
 11
2080.249739226678
 21
878.1365893899078
 31
0.0
1001
AcDbBlockRepETag
1070
     1
1071
       27
1005
BB3
  0
LINE
  5
BB4
330
980
100
AcDbEntity
  8
0
  6
Continuous
 62
     7
370
    15
100
AcDbLine
 10
2080.249739226678
 20
878.1365893899078
 30
0.0
 11
2078.099739037247
 21
878.1365893899078
 31
0.0
1001
AcDbBlockRepETag
1070
     1
1071
       28
1005
BB4
  0
LINE
  5
BB5
330
980
100
AcDbEntity
  8
0
  6
Continuous
 62
     7
370
    15
100
AcDbLine
 10
2078.099739037247
 20
878.1365893899078
 30
0.0
 11
2078.099739037247
 21
901.1265886599744
 31
0.0
1001
AcDbBlockRepETag
1070
     1
1071
       29
1005
BB5
  0
LINE
  5
BB6
330
980
100
AcDbEntity
  8
0
  6
Continuous
 62
     7
370
    15
100
AcDbLine
 10
2094.099739331545
 20
901.1265886599744
 30
0.0
 11
2094.099739331545
 21
878.1365893899078
 31
0.0
1001
AcDbBlockRepETag
1070
     1
1071
       30
1005
BB6
  0
LINE
  5
BB7
330
980
100
AcDbEntity
  8
0
  6
Continuous
 62
     7
370
    15
100
AcDbLine
 10
2094.099739331545
 20
878.1365893899078
 30
0.0
 11
2091.949739258529
 21
878.1365893899078
 31
0.0
1001
AcDbBlockRepETag
1070
     1
1071
       31
1005
BB7
  0
LINE
  5
BB8
330
980
100
AcDbEntity
  8
0
  6
Continuous
 62
     7
370
    15
100
AcDbLine
 10
2091.949739258529
 20
878.1365893899078
 30
0.0
 11
2091.949739258529
 21
901.1265886599744
 31
0.0
1001
AcDbBlockRepETag
1070
     1
1071
       32
1005
BB8
  0
LINE
  5
BB9
330
980
100
AcDbEntity
  8
0
  6
Continuous
 62
     7
370
    15
100
AcDbLine
 10
2091.949739258529
 20
901.1265886599744
 30
0.0
 11
2094.099739331545
 21
901.1265886599744
 31
0.0
1001
AcDbBlockRepETag
1070
     1
1071
       33
1005
BB9
  0
LINE
  5
BBA
330
980
100
AcDbEntity
  8
0
  6
Continuous
 62
     7
370
    15
100
AcDbLine
 10
2080.249739226678
 20
878.1365893899078
 30
0.0
 11
2091.949739258529
 21
878.1365893899078
 31
0.0
1001
AcDbBlockRepETag
1070
     1
1071
       34
1005
BBA
  0
LINE
  5
BBB
330
980
100
AcDbEntity
  8
0
  6
Continuous
 62
     7
370
    15
100
AcDbLine
 10
2080.249739226678
 20
901.1265886599744
 30
0.0
 11
2091.949739258529
 21
901.1265886599744
 31
0.0
1001
AcDbBlockRepETag
1070
     1
1071
       35
1005
BBB
  0
LINE
  5
BBC
330
980
100
AcDbEntity
  8
0
  6
Continuous
 62
     7
370
    15
100
AcDbLine
 10
2094.099739331545
 20
904.4595388347829
 30
0.0
 11
2091.599738921763
 21
904.4595388347829
 31
0.0
1001
AcDbBlockRepETag
1070
     1
1071
       36
1005
BBC
  0
LINE
  5
BBD
330
980
100
AcDbEntity
  8
0
  6
Continuous
 62
     7
370
    15
100
AcDbLine
 10
2091.599738921763
 20
905.1909809584344
 30
0.0
 11
2091.599738921763
 21
904.4595388347829
 31
0.0
1001
AcDbBlockRepETag
1070
     1
1071
       37
1005
BBD
  0
LINE
  5
BBE
330
980
100
AcDbEntity
  8
0
  6
Continuous
 62
     7
370
    15
100
AcDbLine
 10
2091.599738921763
 20
905.1909809584344
 30
0.0
 11
2094.099739331545
 21
905.1909809584344
 31
0.0
1001
AcDbBlockRepETag
1070
     1
1071
       38
1005
BBE
  0
LINE
  5
BBF
330
980
100
AcDbEntity
  8
0
  6
Continuous
 62
     7
370
    15
100
AcDbLine
 10
2094.099739331545
 20
905.1909809584344
 30
0.0
 11
2094.099739331545
 21
904.4595388347829
 31
0.0
1001
AcDbBlockRepETag
1070
     1
1071
       39
1005
BBF
  0
LINE
  5
BC0
330
980
100
AcDbEntity
  8
0
  6
Continuous
 62
     7
370
    15
100
AcDbLine
 10
2078.099739037247
 20
905.1909809584344
 30
0.0
 11
2080.599739214198
 21
905.1909809584344
 31
0.0
1001
AcDbBlockRepETag
1070
     1
1071
       40
1005
BC0
  0
LINE
  5
BC1
330
980
100
AcDbEntity
  8
0
  6
Continuous
 62
     7
370
    15
100
AcDbLine
 10
2080.599739214198
 20
904.4595388347829
 30
0.0
 11
2080.599739214198
 21
905.1909809584344
 31
0.0
1001
AcDbBlockRepETag
1070
     1
1071
       41
1005
BC1
  0
LINE
  5
BC2
330
980
100
AcDbEntity
  8
0
  6
Continuous
 62
     7
370
    15
100
AcDbLine
 10
2080.599739214198
 20
904.4595388347829
 30
0.0
 11
2078.099739037247
 21
904.4595388347829
 31
0.0
1001
AcDbBlockRepETag
1070
     1
1071
       42
1005
BC2
  0
LINE
  5
BC3
330
980
100
AcDbEntity
  8
0
  6
Continuous
 62
     7
370
    15
100
AcDbLine
 10
2078.099739037247
 20
905.1909809584344
 30
0.0
 11
2078.099739037247
 21
904.4595388347829
 31
0.0
1001
AcDbBlockRepETag
1070
     1
1071
       43
1005
BC3
  0
LINE
  5
BC4
330
980
100
AcDbEntity
  8
0
  6
Continuous
 62
     7
370
    15
100
AcDbLine
 10
2091.599738921763
 20
904.4595388347829
 30
0.0
 11
2091.599738921763
 21
902.7401683504308
 31
0.0
1001
AcDbBlockRepETag
1070
     1
1071
       44
1005
BC4
  0
LINE
  5
BC5
330
980
100
AcDbEntity
  8
0
  6
Continuous
 62
     7
370
    15
100
AcDbLine
 10
2091.599738921763
 20
901.5436591232742
 30
0.0
 11
2091.599738921763
 21
901.1265886599744
 31
0.0
1001
AcDbBlockRepETag
1070
     1
1071
       45
1005
BC5
  0
LINE
  5
BC6
330
980
100
AcDbEntity
  8
0
  6
Continuous
 62
     7
370
    15
100
AcDbLine
 10
2094.099739331545
 20
904.4595388347829
 30
0.0
 11
2094.099739331545
 21
901.1265886599744
 31
0.0
1001
AcDbBlockRepETag
1070
     1
1071
       46
1005
BC6
  0
LINE
  5
BC7
330
980
100
AcDbEntity
  8
0
  6
Continuous
 62
     7
370
    15
100
AcDbLine
 10
2080.599739214198
 20
901.1265886599744
 30
0.0
 11
2080.599739214198
 21
901.5436591232742
 31
0.0
1001
AcDbBlockRepETag
1070
     1
1071
       47
1005
BC7
  0
LINE
  5
BC8
330
980
100
AcDbEntity
  8
0
  6
Continuous
 62
     7
370
    15
100
AcDbLine
 10
2080.599739214198
 20
902.7401683504308
 30
0.0
 11
2080.599739214198
 21
904.4595388347829
 31
0.0
1001
AcDbBlockRepETag
1070
     1
1071
       48
1005
BC8
  0
LINE
  5
BC9
330
980
100
AcDbEntity
  8
0
  6
Continuous
 62
     7
370
    15
100
AcDbLine
 10
2078.099739037247
 20
904.4595388347829
 30
0.0
 11
2078.099739037247
 21
901.1265886599744
 31
0.0
1001
AcDbBlockRepETag
1070
     1
1071
       49
1005
BC9
  0
LINE
  5
BCA
330
980
100
AcDbEntity
  8
0
  6
Continuous
 62
     7
370
    15
100
AcDbLine
 10
2094.099739331545
 20
874.4806390839244
 30
0.0
 11
2091.599738921763
 21
874.4806390839244
 31
0.0
1001
AcDbBlockRepETag
1070
     1
1071
       50
1005
BCA
  0
LINE
  5
BCB
330
980
100
AcDbEntity
  8
0
  6
Continuous
 62
     7
370
    15
100
AcDbLine
 10
2091.599738921763
 20
878.1365893899078
 30
0.0
 11
2091.599738921763
 21
877.5006099256302
 31
0.0
1001
AcDbBlockRepETag
1070
     1
1071
       51
1005
BCB
  0
LINE
  5
BCC
330
980
100
AcDbEntity
  8
0
  6
Continuous
 62
     7
370
    15
100
AcDbLine
 10
2091.599738921763
 20
876.304099767151
 30
0.0
 11
2091.599738921763
 21
874.4806390839244
 31
0.0
1001
AcDbBlockRepETag
1070
     1
1071
       52
1005
BCC
  0
LINE
  5
BCD
330
980
100
AcDbEntity
  8
0
  6
Continuous
 62
     7
370
    15
100
AcDbLine
 10
2094.099739331545
 20
878.1365893899078
 30
0.0
 11
2094.099739331545
 21
874.4806390839244
 31
0.0
1001
AcDbBlockRepETag
1070
     1
1071
       53
1005
BCD
  0
LINE
  5
BCE
330
980
100
AcDbEntity
  8
0
  6
Continuous
 62
     7
370
    15
100
AcDbLine
 10
2080.599739214198
 20
874.4806390839244
 30
0.0
 11
2078.099739037247
 21
874.4806390839244
 31
0.0
1001
AcDbBlockRepETag
1070
     1
1071
       54
1005
BCE
  0
LINE
  5
BCF
330
980
100
AcDbEntity
  8
0
  6
Continuous
 62
     7
370
    15
100
AcDbLine
 10
2080.599739214198
 20
874.4806390839244
 30
0.0
 11
2080.599739214198
 21
876.304099767151
 31
0.0
1001
AcDbBlockRepETag
1070
     1
1071
       55
1005
BCF
  0
LINE
  5
BD0
330
980
100
AcDbEntity
  8
0
  6
Continuous
 62
     7
370
    15
100
AcDbLine
 10
2080.599739214198
 20
877.5006099256302
 30
0.0
 11
2080.599739214198
 21
878.1365893899078
 31
0.0
1001
AcDbBlockRepETag
1070
     1
1071
       56
1005
BD0
  0
LINE
  5
BD1
330
980
100
AcDbEntity
  8
0
  6
Continuous
 62
     7
370
    15
100
AcDbLine
 10
2078.099739037247
 20
878.1365893899078
 30
0.0
 11
2078.099739037247
 21
874.4806390839244
 31
0.0
1001
AcDbBlockRepETag
1070
     1
1071
       57
1005
BD1
  0
LINE
  5
BD2
330
980
100
AcDbEntity
  8
0
  6
Continuous
 62
     7
370
    15
100
AcDbLine
 10
2094.099739331545
 20
874.0715896362985
 30
0.0
 11
2091.599738921763
 21
874.0715896362985
 31
0.0
1001
AcDbBlockRepETag
1070
     1
1071
       58
1005
BD2
  0
LINE
  5
BD3
330
980
100
AcDbEntity
  8
0
  6
Continuous
 62
     7
370
    15
100
AcDbLine
 10
2091.599738921763
 20
874.4806390839244
 30
0.0
 11
2091.599738921763
 21
874.0715896362985
 31
0.0
1001
AcDbBlockRepETag
1070
     1
1071
       59
1005
BD3
  0
LINE
  5
BD4
330
980
100
AcDbEntity
  8
0
  6
Continuous
 62
     7
370
    15
100
AcDbLine
 10
2094.099739331545
 20
874.4806390839244
 30
0.0
 11
2094.099739331545
 21
874.0715896362985
 31
0.0
1001
AcDbBlockRepETag
1070
     1
1071
       60
1005
BD4
  0
LINE
  5
BD5
330
980
100
AcDbEntity
  8
0
  6
Continuous
 62
     7
370
    15
100
AcDbLine
 10
2080.599739214198
 20
874.0715896362985
 30
0.0
 11
2078.099739037247
 21
874.0715896362985
 31
0.0
1001
AcDbBlockRepETag
1070
     1
1071
       61
1005
BD5
  0
LINE
  5
BD6
330
980
100
AcDbEntity
  8
0
  6
Continuous
 62
     7
370
    15
100
AcDbLine
 10
2080.599739214198
 20
874.0715896362985
 30
0.0
 11
2080.599739214198
 21
874.4806390839244
 31
0.0
1001
AcDbBlockRepETag
1070
     1
1071
       62
1005
BD6
  0
LINE
  5
BD7
330
980
100
AcDbEntity
  8
0
  6
Continuous
 62
     7
370
    15
100
AcDbLine
 10
2078.099739037247
 20
874.4806390839244
 30
0.0
 11
2078.099739037247
 21
874.0715896362985
 31
0.0
1001
AcDbBlockRepETag
1070
     1
1071
       63
1005
BD7
  0
LINE
  5
BD8
330
980
100
AcDbEntity
  8
0
  6
Continuous
 62
     7
370
    15
100
AcDbLine
 10
2080.809739183427
 20
901.5436591232742
 30
0.0
 11
2080.809739183427
 21
901.1265886599744
 31
0.0
1001
AcDbBlockRepETag
1070
     1
1071
       64
1005
BD8
  0
LINE
  5
BD9
330
980
100
AcDbEntity
  8
0
  6
Continuous
 62
     7
370
    15
100
AcDbLine
 10
2091.389739651026
 20
901.5436591232742
 30
0.0
 11
2091.389739651026
 21
901.1265886599744
 31
0.0
1001
AcDbBlockRepETag
1070
     1
1071
       65
1005
BD9
  0
LINE
  5
BDA
330
980
100
AcDbEntity
  8
0
  6
Continuous
 62
     7
370
    15
100
AcDbLine
 10
2085.449739124419
 20
887.5315892162348
 30
0.0
 11
2086.749739244373
 21
887.5315892162348
 31
0.0
1001
AcDbBlockRepETag
1070
     1
1071
       66
1005
BDA
  0
LINE
  5
BDB
330
980
100
AcDbEntity
  8
0
  6
Continuous
 62
     7
370
    15
100
AcDbLine
 10
2086.749739244373
 20
887.5315892162348
 30
0.0
 11
2086.749739244373
 21
888.9815895470405
 31
0.0
1001
AcDbBlockRepETag
1070
     1
1071
       67
1005
BDB
  0
LINE
  5
BDC
330
980
100
AcDbEntity
  8
0
  6
Continuous
 62
     7
370
    15
100
AcDbLine
 10
2086.749739244373
 20
888.9815895470405
 30
0.0
 11
2090.876993488313
 21
888.9815895470405
 31
0.0
1001
AcDbBlockRepETag
1070
     1
1071
       68
1005
BDC
  0
ARC
  5
BDD
330
980
100
AcDbEntity
  8
0
  6
Continuous
 62
     7
370
    15
100
AcDbCircle
 10
2086.099739227237
 20
889.6315894248793
 30
0.0
 40
4.821271174575483
100
AcDbArc
 50
187.7481661608533
 51
352.2518338391919
1001
AcDbBlockRepETag
1070
     1
1071
       69
1005
BDD
  0
LINE
  5
BDE
330
980
100
AcDbEntity
  8
0
  6
Continuous
 62
     7
370
    15
100
AcDbLine
 10
2081.322485229724
 20
888.9815895470405
 30
0.0
 11
2085.449739124419
 21
888.9815895470405
 31
0.0
1001
AcDbBlockRepETag
1070
     1
1071
       70
1005
BDE
  0
LINE
  5
BDF
330
980
100
AcDbEntity
  8
0
  6
Continuous
 62
     7
370
    15
100
AcDbLine
 10
2085.449739124419
 20
888.9815895470405
 30
0.0
 11
2085.449739124419
 21
887.5315892162348
 31
0.0
1001
AcDbBlockRepETag
1070
     1
1071
       71
1005
BDF
  0
SPLINE
  5
BE0
330
980
100
AcDbEntity
  8
0
  6
Continuous
 62
     7
370
    15
100
AcDbSpline
210
0.0
220
0.0
230
1.0
 70
    24
 71
     3
 72
    10
 73
     6
 74
     0
 42
0.0000000001
 43
0.0000000001
 40
0.0
 40
0.0
 40
0.0
 40
0.0
 40
0.5
 40
0.5
 40
1.0
 40
1.0
 40
1.0
 40
1.0
 10
2091.099739227237
 20
886.944838078932
 30
0.0
 10
2091.099739227237
 20
887.2777489117215
 30
0.0
 10
2091.099739227237
 20
887.6168051730727
 30
0.0
 10
2091.099739227237
 20
888.2975715161041
 30
0.0
 10
2091.099739227237
 20
888.6389815124376
 30
0.0
 10
2091.099739227237
 20
888.9815894248853
 30
0.0
1001
AcDbBlockRepETag
1070
     1
1071
       72
1005
BE0
  0
SPLINE
  5
BE1
330
980
100
AcDbEntity
  8
0
  6
Continuous
 62
     7
370
    15
100
AcDbSpline
210
0.0
220
0.0
230
1.0
 70
    24
 71
     3
 72
     8
 73
     4
 74
     0
 42
0.0000000001
 43
0.0000000001
 40
0.0
 40
0.0
 40
0.0
 40
0.0
 40
1.0
 40
1.0
 40
1.0
 40
1.0
 10
2090.899739227234
 20
886.6293680250906
 30
0.0
 10
2090.966434285557
 20
886.7345694932906
 30
0.0
 10
2091.03310085523
 20
886.8397260249091
 30
0.0
 10
2091.099739227237
 20
886.944838078932
 30
0.0
1001
AcDbBlockRepETag
1070
     1
1071
       73
1005
BE1
  0
SPLINE
  5
BE2
330
980
100
AcDbEntity
  8
0
  6
Continuous
 62
     7
370
    15
100
AcDbSpline
210
0.0
220
0.0
230
1.0
 70
    24
 71
     3
 72
    12
 73
     8
 74
     0
 42
0.0000000001
 43
0.0000000001
 40
0.0
 40
0.0
 40
0.0
 40
0.0
 40
0.5
 40
0.5
 40
0.75
 40
0.75
 40
1.0
 40
1.0
 40
1.0
 40
1.0
 10
2090.899739227234
 20
886.6293680250906
 30
0.0
 10
2090.142372016666
 20
886.1921018621938
 30
0.0
 10
2089.375341813871
 20
885.7492567681338
 30
0.0
 10
2088.201390226727
 20
885.0714755032806
 30
0.0
 10
2087.807497558203
 20
884.8440614650765
 30
0.0
 10
2087.034313075673
 20
884.3976631959545
 30
0.0
 10
2086.652071731852
 20
884.1769760532041
 30
0.0
 10
2086.272944307994
 20
883.9580867329825
 30
0.0
1001
AcDbBlockRepETag
1070
     1
1071
       74
1005
BE2
  0
SPLINE
  5
BE3
330
980
100
AcDbEntity
  8
0
  6
Continuous
 62
     7
370
    15
100
AcDbSpline
210
0.0
220
0.0
230
1.0
 70
    24
 71
     3
 72
     8
 73
     4
 74
     0
 42
0.0000000001
 43
0.0000000001
 40
0.0
 40
0.0
 40
0.0
 40
0.0
 40
1.0
 40
1.0
 40
1.0
 40
1.0
 10
2086.272944307994
 20
883.9580867329825
 30
0.0
 10
2086.157569776628
 20
883.9580867329825
 30
0.0
 10
2086.042002945276
 20
883.9580867329825
 30
0.0
 10
2085.926534146483
 20
883.9580867329825
 30
0.0
1001
AcDbBlockRepETag
1070
     1
1071
       75
1005
BE3
  0
SPLINE
  5
BE4
330
980
100
AcDbEntity
  8
0
  6
Continuous
 62
     7
370
    15
100
AcDbSpline
210
0.0
220
0.0
230
1.0
 70
    24
 71
     3
 72
    12
 73
     8
 74
     0
 42
0.0000000001
 43
0.0000000001
 40
0.0
 40
0.0
 40
0.0
 40
0.0
 40
0.5
 40
0.5
 40
0.75
 40
0.75
 40
1.0
 40
1.0
 40
1.0
 40
1.0
 10
2085.926534146483
 20
883.9580867329825
 30
0.0
 10
2085.169680591389
 20
884.3950563367528
 30
0.0
 10
2084.403057341374
 20
884.8376664765158
 30
0.0
 10
2083.229221683172
 20
885.5153808097638
 30
0.0
 10
2082.835160347148
 20
885.7428922281942
 30
0.0
 10
2082.061592771769
 20
886.1895116760754
 30
0.0
 10
2081.679118420697
 20
886.4103333456251
 30
0.0
 10
2081.299739227237
 20
886.629368025094
 30
0.0
1001
AcDbBlockRepETag
1070
     1
1071
       76
1005
BE4
  0
SPLINE
  5
BE5
330
980
100
AcDbEntity
  8
0
  6
Continuous
 62
     7
370
    15
100
AcDbSpline
210
0.0
220
0.0
230
1.0
 70
    24
 71
     3
 72
     8
 73
     4
 74
     0
 42
0.0000000001
 43
0.0000000001
 40
0.0
 40
0.0
 40
0.0
 40
0.0
 40
1.0
 40
1.0
 40
1.0
 40
1.0
 10
2081.299739227237
 20
886.629368025094
 30
0.0
 10
2081.233044168914
 20
886.7345694932929
 30
0.0
 10
2081.166377599243
 20
886.8397260249102
 30
0.0
 10
2081.099739227237
 20
886.944838078932
 30
0.0
1001
AcDbBlockRepETag
1070
     1
1071
       77
1005
BE5
  0
SPLINE
  5
BE6
330
980
100
AcDbEntity
  8
0
  6
Continuous
 62
     7
370
    15
100
AcDbSpline
210
0.0
220
0.0
230
1.0
 70
    24
 71
     3
 72
    10
 73
     6
 74
     0
 42
0.0000000001
 43
0.0000000001
 40
0.0
 40
0.0
 40
0.0
 40
0.0
 40
0.5
 40
0.5
 40
1.0
 40
1.0
 40
1.0
 40
1.0
 10
2081.099739227237
 20
886.944838078932
 30
0.0
 10
2081.099739227237
 20
887.2777489117209
 30
0.0
 10
2081.099739227237
 20
887.6168051730717
 30
0.0
 10
2081.099739227237
 20
888.2975715161018
 30
0.0
 10
2081.099739227237
 20
888.6389815124346
 30
0.0
 10
2081.099739227237
 20
888.9815894248815
 30
0.0
1001
AcDbBlockRepETag
1070
     1
1071
       78
1005
BE6
  0
SPLINE
  5
BE7
330
980
100
AcDbEntity
  8
0
  6
Continuous
 62
     7
370
    15
100
AcDbSpline
210
0.0
220
0.0
230
1.0
 70
    24
 71
     3
 72
     8
 73
     4
 74
     0
 42
0.0000000001
 43
0.0000000001
 40
0.0
 40
0.0
 40
0.0
 40
0.0
 40
1.0
 40
1.0
 40
1.0
 40
1.0
 10
2081.322485231604
 20
888.9815894248815
 30
0.0
 10
2081.248229144608
 20
888.9815894248815
 30
0.0
 10
2081.173980802758
 20
888.9815894248815
 30
0.0
 10
2081.099739227237
 20
888.9815894248815
 30
0.0
1001
AcDbBlockRepETag
1070
     1
1071
       79
1005
BE7
  0
SPLINE
  5
BE8
330
980
100
AcDbEntity
  8
0
  6
Continuous
 62
     7
370
    15
100
AcDbSpline
210
0.0
220
0.0
230
1.0
 70
    24
 71
     3
 72
     8
 73
     4
 74
     0
 42
0.0000000001
 43
0.0000000001
 40
0.0
 40
0.0
 40
0.0
 40
0.0
 40
1.0
 40
1.0
 40
1.0
 40
1.0
 10
2091.099739227237
 20
888.9815894248853
 30
0.0
 10
2091.025497661071
 20
888.9815894248853
 30
0.0
 10
2090.951249319653
 20
888.9815894248853
 30
0.0
 10
2090.87699322287
 20
888.9815894248853
 30
0.0
1001
AcDbBlockRepETag
1070
     1
1071
       80
1005
BE8
  0
SPLINE
  5
BE9
330
980
100
AcDbEntity
  8
0
  6
Continuous
 62
     7
370
    15
100
AcDbSpline
210
0.0
220
0.0
230
1.0
 70
    24
 71
     3
 72
     8
 73
     4
 74
     0
 42
0.0000000001
 43
0.0000000001
 40
0.0
 40
0.0
 40
0.0
 40
0.0
 40
1.0
 40
1.0
 40
1.0
 40
1.0
 10
2081.299739227235
 20
892.6338108246659
 30
0.0
 10
2081.233044168913
 20
892.5286093564679
 30
0.0
 10
2081.166377599242
 20
892.4234528248515
 30
0.0
 10
2081.099739227237
 20
892.3183407708304
 30
0.0
1001
AcDbBlockRepETag
1070
     1
1071
       81
1005
BE9
  0
SPLINE
  5
BEA
330
980
100
AcDbEntity
  8
0
  6
Continuous
 62
     7
370
    15
100
AcDbSpline
210
0.0
220
0.0
230
1.0
 70
    24
 71
     3
 72
    12
 73
     8
 74
     0
 42
0.0000000001
 43
0.0000000001
 40
0.0
 40
0.0
 40
0.0
 40
0.0
 40
0.5
 40
0.5
 40
0.75
 40
0.75
 40
1.0
 40
1.0
 40
1.0
 40
1.0
 10
2081.299739227235
 20
892.6338108246659
 30
0.0
 10
2082.057106437804
 20
893.0710769875631
 30
0.0
 10
2082.8241366406
 20
893.5139220816235
 30
0.0
 10
2083.998088227744
 20
894.1917033464774
 30
0.0
 10
2084.391980896269
 20
894.4191173846816
 30
0.0
 10
2085.165165378799
 20
894.8655156538039
 30
0.0
 10
2085.54740672262
 20
895.0862027965545
 30
0.0
 10
2085.926534146479
 20
895.3050921167761
 30
0.0
1001
AcDbBlockRepETag
1070
     1
1071
       82
1005
BEA
  0
SPLINE
  5
BEB
330
980
100
AcDbEntity
  8
0
  6
Continuous
 62
     7
370
    15
100
AcDbSpline
210
0.0
220
0.0
230
1.0
 70
    24
 71
     3
 72
     8
 73
     4
 74
     0
 42
0.0000000001
 43
0.0000000001
 40
0.0
 40
0.0
 40
0.0
 40
0.0
 40
1.0
 40
1.0
 40
1.0
 40
1.0
 10
2086.272944307994
 20
895.3050921167761
 30
0.0
 10
2086.157569776627
 20
895.3050921167761
 30
0.0
 10
2086.042002945274
 20
895.3050921167761
 30
0.0
 10
2085.926534146479
 20
895.3050921167761
 30
0.0
1001
AcDbBlockRepETag
1070
     1
1071
       83
1005
BEB
  0
SPLINE
  5
BEC
330
980
100
AcDbEntity
  8
0
  6
Continuous
 62
     7
370
    15
100
AcDbSpline
210
0.0
220
0.0
230
1.0
 70
    24
 71
     3
 72
    12
 73
     8
 74
     0
 42
0.0000000001
 43
0.0000000001
 40
0.0
 40
0.0
 40
0.0
 40
0.0
 40
0.5000000000000002
 40
0.5000000000000002
 40
0.7500000000000004
 40
0.7500000000000004
 40
1.0
 40
1.0
 40
1.0
 40
1.0
 10
2086.272944307994
 20
895.3050921167763
 30
0.0
 10
2087.029797863087
 20
894.868122513006
 30
0.0
 10
2087.796421113102
 20
894.425512373243
 30
0.0
 10
2088.970256771304
 20
893.7477980399956
 30
0.0
 10
2089.364318107328
 20
893.520286621565
 30
0.0
 10
2090.137885682706
 20
893.0736671736841
 30
0.0
 10
2090.520360033778
 20
892.8528455041345
 30
0.0
 10
2090.899739227237
 20
892.6338108246657
 30
0.0
1001
AcDbBlockRepETag
1070
     1
1071
       84
1005
BEC
  0
SPLINE
  5
BED
330
980
100
AcDbEntity
  8
0
  6
Continuous
 62
     7
370
    15
100
AcDbSpline
210
0.0
220
0.0
230
1.0
 70
    24
 71
     3
 72
     8
 73
     4
 74
     0
 42
0.0000000001
 43
0.0000000001
 40
0.0
 40
0.0
 40
0.0
 40
0.0
 40
1.0
 40
1.0
 40
1.0
 40
1.0
 10
2090.899739227237
 20
892.6338108246657
 30
0.0
 10
2090.96643428556
 20
892.5286093564677
 30
0.0
 10
2091.033100855231
 20
892.4234528248515
 30
0.0
 10
2091.099739227237
 20
892.3183407708304
 30
0.0
1001
AcDbBlockRepETag
1070
     1
1071
       85
1005
BED
  0
SPLINE
  5
BEE
330
980
100
AcDbEntity
  8
0
  6
Continuous
 62
     7
370
    15
100
AcDbSpline
210
0.0
220
0.0
230
1.0
 70
    24
 71
     3
 72
    10
 73
     6
 74
     0
 42
0.0000000001
 43
0.0000000001
 40
0.0
 40
0.0
 40
0.0
 40
0.0
 40
0.5
 40
0.5
 40
1.0
 40
1.0
 40
1.0
 40
1.0
 10
2091.099739227237
 20
890.2815894248854
 30
0.0
 10
2091.099739227237
 20
890.6277967879249
 30
0.0
 10
2091.099739227237
 20
890.9738112857031
 30
0.0
 10
2091.099739227237
 20
891.6523550296286
 30
0.0
 10
2091.099739227237
 20
891.9870536344683
 30
0.0
 10
2091.099739227237
 20
892.3183407708304
 30
0.0
1001
AcDbBlockRepETag
1070
     1
1071
       86
1005
BEE
  0
SPLINE
  5
BEF
330
980
100
AcDbEntity
  8
0
  6
Continuous
 62
     7
370
    15
100
AcDbSpline
210
0.0
220
0.0
230
1.0
 70
    24
 71
     3
 72
     8
 73
     4
 74
     0
 42
0.0000000001
 43
0.0000000001
 40
0.0
 40
0.0
 40
0.0
 40
0.0
 40
1.0
 40
1.0
 40
1.0
 40
1.0
 10
2090.876993222869
 20
890.2815894248854
 30
0.0
 10
2090.951249309865
 20
890.2815894248854
 30
0.0
 10
2091.025497651715
 20
890.2815894248854
 30
0.0
 10
2091.099739227237
 20
890.2815894248854
 30
0.0
1001
AcDbBlockRepETag
1070
     1
1071
       87
1005
BEF
  0
ARC
  5
BF0
330
980
100
AcDbEntity
  8
0
  6
Continuous
 62
     7
370
    15
100
AcDbCircle
 10
2086.099739227237
 20
889.6315894248793
 30
0.0
 40
4.821271174575448
100
AcDbArc
 50
7.748166160951891
 51
172.2518338390933
1001
AcDbBlockRepETag
1070
     1
1071
       88
1005
BF0
  0
SPLINE
  5
BF1
330
980
100
AcDbEntity
  8
0
  6
Continuous
 62
     7
370
    15
100
AcDbSpline
210
0.0
220
0.0
230
1.0
 70
    24
 71
     3
 72
     8
 73
     4
 74
     0
 42
0.0000000001
 43
0.0000000001
 40
0.0
 40
0.0
 40
0.0
 40
0.0
 40
1.0
 40
1.0
 40
1.0
 40
1.0
 10
2081.099739227237
 20
890.2815894248817
 30
0.0
 10
2081.173980793403
 20
890.2815894248817
 30
0.0
 10
2081.24822913482
 20
890.2815894248817
 30
0.0
 10
2081.322485231604
 20
890.2815894248817
 30
0.0
1001
AcDbBlockRepETag
1070
     1
1071
       89
1005
BF1
  0
SPLINE
  5
BF2
330
980
100
AcDbEntity
  8
0
  6
Continuous
 62
     7
370
    15
100
AcDbSpline
210
0.0
220
0.0
230
1.0
 70
    24
 71
     3
 72
    10
 73
     6
 74
     0
 42
0.0000000001
 43
0.0000000001
 40
0.0
 40
0.0
 40
0.0
 40
0.0
 40
0.5
 40
0.5
 40
1.0
 40
1.0
 40
1.0
 40
1.0
 10
2081.099739227237
 20
890.2815894248817
 30
0.0
 10
2081.099739227237
 20
890.6277967879221
 30
0.0
 10
2081.099739227237
 20
890.9738112857008
 30
0.0
 10
2081.099739227237
 20
891.6523550296274
 30
0.0
 10
2081.099739227237
 20
891.9870536344676
 30
0.0
 10
2081.099739227237
 20
892.3183407708304
 30
0.0
1001
AcDbBlockRepETag
1070
     1
1071
       90
1005
BF2
  0
LINE
  5
BF3
330
980
100
AcDbEntity
  8
0
  6
Continuous
 62
     7
370
    15
100
AcDbLine
 10
2090.876993488313
 20
890.2815896669949
 30
0.0
 11
2086.749739244373
 21
890.2815896669949
 31
0.0
1001
AcDbBlockRepETag
1070
     1
1071
       91
1005
BF3
  0
LINE
  5
BF4
330
980
100
AcDbEntity
  8
0
  6
Continuous
 62
     7
370
    15
100
AcDbLine
 10
2086.749739244373
 20
890.2815896669949
 30
0.0
 11
2086.749739244373
 21
891.7315890664781
 31
0.0
1001
AcDbBlockRepETag
1070
     1
1071
       92
1005
BF4
  0
LINE
  5
BF5
330
980
100
AcDbEntity
  8
0
  6
Continuous
 62
     7
370
    15
100
AcDbLine
 10
2086.749739244373
 20
891.7315890664781
 30
0.0
 11
2085.449739124419
 21
891.7315890664781
 31
0.0
1001
AcDbBlockRepETag
1070
     1
1071
       93
1005
BF5
  0
LINE
  5
BF6
330
980
100
AcDbEntity
  8
0
  6
Continuous
 62
     7
370
    15
100
AcDbLine
 10
2085.449739124419
 20
891.7315890664781
 30
0.0
 11
2085.449739124419
 21
890.2815896669949
 31
0.0
1001
AcDbBlockRepETag
1070
     1
1071
       94
1005
BF6
  0
LINE
  5
BF7
330
980
100
AcDbEntity
  8
0
  6
Continuous
 62
     7
370
    15
100
AcDbLine
 10
2085.449739124419
 20
890.2815896669949
 30
0.0
 11
2081.322485229724
 21
890.2815896669949
 31
0.0
1001
AcDbBlockRepETag
1070
     1
1071
       95
1005
BF7
  0
LINE
  5
BF8
330
980
100
AcDbEntity
  8
0
  6
Continuous
 62
     7
370
    15
100
AcDbLine
 10
2091.099738839806
 20
888.9815895470405
 30
0.0
 11
2091.099738839806
 21
890.2815896669949
 31
0.0
1001
AcDbBlockRepETag
1070
     1
1071
       96
1005
BF8
  0
LINE
  5
BF9
330
980
100
AcDbEntity
  8
0
  6
Continuous
 62
     7
370
    15
100
AcDbLine
 10
2081.099739179739
 20
890.2815896669949
 30
0.0
 11
2081.099739179739
 21
888.9815895470405
 31
0.0
1001
AcDbBlockRepETag
1070
     1
1071
       97
1005
BF9
  0
ENDBLK
  5
982
330
980
100
AcDbEntity
  8
0
100
AcDbBlockEnd
  0
BLOCK
  5
9E8
330
9E7
100
AcDbEntity
  8
0
100
AcDbBlockBegin
  2
4
 70
     0
 10
0.0
 20
0.0
 30
0.0
  3
4
  1

  0
LINE
  5
9EA
330
9E7
100
AcDbEntity
  8
0
  6
Continuous
 62
     7
370
    15
100
AcDbLine
 10
2037.035315297281
 20
876.8156511042944
 30
0.0
 11
2045.699563046873
 21
874.2617733798523
 31
0.0
  0
LINE
  5
9EB
330
9E7
100
AcDbEntity
  8
0
  6
Continuous
 62
     7
370
    15
100
AcDbLine
 10
2041.379743678639
 20
898.4051097715967
 30
0.0
 11
2034.754727304752
 21
893.109067080206
 31
0.0
  0
LINE
  5
9EC
330
9E7
100
AcDbEntity
  8
0
  6
Continuous
 62
     7
370
    15
100
AcDbLine
 10
2048.579192319108
 20
869.8643291361175
 30
0.0
 11
2046.434576304177
 21
870.4964771570775
 31
0.0
  0
LINE
  5
9ED
330
9E7
100
AcDbEntity
  8
0
  6
Continuous
 62
     7
370
    15
100
AcDbLine
 10
2049.094875125983
 20
870.2765663301551
 30
0.0
 11
2046.950259111052
 21
870.9087143511155
 31
0.0
  0
LINE
  5
9EE
330
9E7
100
AcDbEntity
  8
0
  6
Continuous
 62
     7
370
    15
100
AcDbLine
 10
2049.610556975713
 20
870.6888027590508
 30
0.0
 11
2047.465940960782
 21
871.3209507800112
 31
0.0
  0
LINE
  5
9EF
330
9E7
100
AcDbEntity
  8
0
  6
Continuous
 62
     7
370
    15
100
AcDbLine
 10
2050.126239782588
 20
871.1010399530888
 30
0.0
 11
2047.981623767658
 21
871.7331879740489
 31
0.0
  0
LINE
  5
9F0
330
9E7
100
AcDbEntity
  8
0
  6
Continuous
 62
     7
370
    15
100
AcDbLine
 10
2036.126507229358
 20
866.4969314875943
 30
0.0
 11
2044.666239131804
 21
863.9797561125721
 31
0.0
  0
LINE
  5
9F1
330
9E7
100
AcDbEntity
  8
0
  6
Continuous
 62
     7
370
    15
100
AcDbLine
 10
2050.641922589463
 20
871.5132771471266
 30
0.0
 11
2048.497306574532
 21
872.1454251680867
 31
0.0
  0
LINE
  5
9F2
330
9E7
100
AcDbEntity
  8
0
  6
Continuous
 62
     7
370
    15
100
AcDbLine
 10
2051.157605396338
 20
871.9255143411643
 30
0.0
 11
2049.012989381407
 21
872.5576623621245
 31
0.0
  0
LINE
  5
9F3
330
9E7
100
AcDbEntity
  8
0
  6
Continuous
 62
     7
370
    15
100
AcDbLine
 10
2051.668149292894
 20
872.3336434867238
 30
0.0
 11
2049.523533277964
 21
872.965791507684
 31
0.0
  0
LINE
  5
9F4
330
9E7
100
AcDbEntity
  8
0
  6
Continuous
 62
     7
370
    15
100
AcDbLine
 10
2052.182012567544
 20
872.7444261454371
 30
0.0
 11
2050.037396552613
 21
873.3765741663974
 31
0.0
  0
LINE
  5
9F5
330
9E7
100
AcDbEntity
  8
0
  6
Continuous
 62
     7
370
    15
100
AcDbLine
 10
2052.695875363622
 20
873.1552084215794
 30
0.0
 11
2050.551259348691
 21
873.7873564425395
 31
0.0
  0
LINE
  5
9F6
330
9E7
100
AcDbEntity
  8
0
  6
Continuous
 62
     7
370
    15
100
AcDbLine
 10
2036.751119642897
 20
873.3507773776604
 30
0.0
 11
2034.85365054259
 21
873.9100762583186
 31
0.0
  0
LINE
  5
9F7
330
9E7
100
AcDbEntity
  8
0
  6
Continuous
 62
     7
370
    15
100
AcDbLine
 10
2053.209738638272
 20
873.5659910802928
 30
0.0
 11
2051.065122623342
 21
874.1981391012528
 31
0.0
  0
LINE
  5
9F8
330
9E7
100
AcDbEntity
  8
0
  6
Continuous
 62
     7
370
    15
100
AcDbLine
 10
2037.092264642097
 20
873.8144614176306
 30
0.0
 11
2035.369333349464
 21
874.3223134523566
 31
0.0
  0
LINE
  5
9F9
330
9E7
100
AcDbEntity
  8
0
  6
Continuous
 62
     7
370
    15
100
AcDbLine
 10
2053.723601912922
 20
873.976773739006
 30
0.0
 11
2051.578985897991
 21
874.6089217599662
 31
0.0
  0
LINE
  5
9FA
330
9E7
100
AcDbEntity
  8
0
  6
Continuous
 62
     7
370
    15
100
AcDbLine
 10
2037.433409483085
 20
874.2781444569651
 30
0.0
 11
2035.885015199194
 21
874.7345498812521
 31
0.0
  0
LINE
  5
9FB
330
9E7
100
AcDbEntity
  8
0
  6
Continuous
 62
     7
370
    15
100
AcDbLine
 10
2054.237465187572
 20
874.3875563977193
 30
0.0
 11
2052.092849172641
 21
875.0197044186796
 31
0.0
  0
LINE
  5
9FC
330
9E7
100
AcDbEntity
  8
0
  6
Continuous
 62
     7
370
    15
100
AcDbLine
 10
2037.943466213161
 20
874.692039996035
 30
0.0
 11
2036.400698006069
 21
875.14678707529
 31
0.0
  0
LINE
  5
9FD
330
9E7
100
AcDbEntity
  8
0
  6
Continuous
 62
     7
370
    15
100
AcDbLine
 10
2054.753147755161
 20
874.7997934004715
 30
0.0
 11
2052.60853174023
 21
875.4319414214318
 31
0.0
  0
LINE
  5
9FE
330
9E7
100
AcDbEntity
  8
0
  6
Continuous
 62
     7
370
    15
100
AcDbLine
 10
2038.475949754059
 20
875.0993249978437
 30
0.0
 11
2036.916380812944
 21
875.5590242693278
 31
0.0
  0
LINE
  5
9FF
330
9E7
100
AcDbEntity
  8
0
  6
Continuous
 62
     7
370
    15
100
AcDbLine
 10
2055.268830322749
 20
875.2120304032239
 30
0.0
 11
2053.124214307818
 21
875.844178424184
 31
0.0
  0
LINE
  5
A00
330
9E7
100
AcDbEntity
  8
0
  6
Continuous
 62
     7
370
    15
100
AcDbLine
 10
2038.980203843439
 20
875.5149309260028
 30
0.0
 11
2037.432063619819
 21
875.9712614633656
 31
0.0
  0
LINE
  5
A01
330
9E7
100
AcDbEntity
  8
0
  6
Continuous
 62
     7
370
    15
100
AcDbLine
 10
2039.45268423859
 20
875.934279687063
 30
0.0
 11
2037.942607516376
 21
876.3793906089251
 31
0.0
  0
LINE
  5
A02
330
9E7
100
AcDbEntity
  8
0
  6
Continuous
 62
     7
370
    15
100
AcDbLine
 10
2048.65811926269
 20
903.1228774399092
 30
0.0
 11
2048.537340581078
 21
903.1421937911998
 31
0.0
  0
LINE
  5
A03
330
9E7
100
AcDbEntity
  8
0
  6
Continuous
 62
     7
370
    15
100
AcDbLine
 10
2045.636424648688
 20
903.1642280376237
 30
0.0
 11
2045.502235545301
 21
903.1448519844992
 31
0.0
  0
LINE
  5
A04
330
9E7
100
AcDbEntity
  8
0
  6
Continuous
 62
     7
370
    15
100
AcDbLine
 10
2047.543048368607
 20
889.1937709372481
 30
0.0
 11
2034.160645745686
 21
893.1383742018306
 31
0.0
  0
LINE
  5
A05
330
9E7
100
AcDbEntity
  8
0
  6
Continuous
 62
     7
370
    15
100
AcDbLine
 10
2047.031132191575
 20
888.6967810666636
 30
0.0
 11
2047.543048368607
 21
889.1937709372481
 31
0.0
  0
LINE
  5
A06
330
9E7
100
AcDbEntity
  8
0
  6
Continuous
 62
     7
370
    15
100
AcDbLine
 10
2047.031132191575
 20
888.6967810666636
 30
0.0
 11
2033.648729568654
 21
892.641384331246
 31
0.0
  0
LINE
  5
A07
330
9E7
100
AcDbEntity
  8
0
  6
Continuous
 62
     7
370
    15
100
AcDbLine
 10
2033.648729568654
 20
892.641384331246
 30
0.0
 11
2034.160645745686
 21
893.1383742018306
 31
0.0
  0
LINE
  5
A08
330
9E7
100
AcDbEntity
  8
0
  6
Continuous
 62
     7
370
    15
100
AcDbLine
 10
2047.633405649238
 20
887.5335731832699
 30
0.0
 11
2047.543048368607
 21
889.1937709372481
 31
0.0
  0
LINE
  5
A09
330
9E7
100
AcDbEntity
  8
0
  6
Continuous
 62
     7
370
    15
100
AcDbLine
 10
2047.367016327285
 20
887.2749507661586
 30
0.0
 11
2047.633405649238
 21
887.5335731832699
 31
0.0
  0
LINE
  5
A0A
330
9E7
100
AcDbEntity
  8
0
  6
Continuous
 62
     7
370
    15
100
AcDbLine
 10
2047.119293858452
 20
887.0769212524908
 30
0.0
 11
2047.031132191575
 21
888.6967810666636
 31
0.0
  0
LINE
  5
A0B
330
9E7
100
AcDbEntity
  8
0
  6
Continuous
 62
     7
370
    15
100
AcDbLine
 10
2036.09816428595
 20
890.2858238071976
 30
0.0
 11
2035.669241043017
 21
890.4122534231643
 31
0.0
  0
LINE
  5
A0C
330
9E7
100
AcDbEntity
  8
0
  6
Continuous
 62
     7
370
    15
100
AcDbLine
 10
2033.648729568654
 20
892.641384331246
 30
0.0
 11
2033.736891235531
 21
891.0215245170732
 31
0.0
  0
LINE
  5
A0D
330
9E7
100
AcDbEntity
  8
0
  6
Continuous
 62
     7
370
    15
100
AcDbLine
 10
2044.762412035542
 20
887.7319460827555
 30
0.0
 11
2045.067079932985
 21
887.6421420306185
 31
0.0
  0
LINE
  5
A0E
330
9E7
100
AcDbEntity
  8
0
  6
Continuous
 62
     7
370
    15
100
AcDbLine
 10
2044.779798975456
 20
887.4124896695944
 30
0.0
 11
2044.762412035542
 21
887.7319460827555
 31
0.0
  0
LINE
  5
A0F
330
9E7
100
AcDbEntity
  8
0
  6
Continuous
 62
     7
370
    15
100
AcDbLine
 10
2036.806131905153
 20
877.2778597739742
 30
0.0
 11
2036.09816428595
 21
890.2858238071976
 31
0.0
  0
LINE
  5
A10
330
9E7
100
AcDbEntity
  8
0
  6
Continuous
 62
     7
370
    15
100
AcDbLine
 10
2046.009775991314
 20
874.3722894873741
 30
0.0
 11
2045.97564325135
 21
874.3450037513362
 31
0.0
  0
LWPOLYLINE
  5
A11
330
9E7
100
AcDbEntity
  8
0
  6
Continuous
 62
     7
370
    15
100
AcDbPolyline
 90
        8
 70
   128
 43
0.0
 10
2045.500484205497
 20
874.5224085401918
 10
2045.520783137843
 20
874.4589527806395
 10
2045.569851765074
 20
874.3628643818354
 10
2045.632803791011
 20
874.2956613011928
 10
2045.707520652554
 20
874.2596053095489
 10
2045.791485774127
 20
874.2559094257554
 10
2045.881874647493
 20
874.2846988393891
 10
2045.97564325135
 20
874.3450037513362
  0
ARC
  5
A12
330
9E7
100
AcDbEntity
  8
0
  6
Continuous
 62
     7
370
    15
100
AcDbCircle
 10
2037.282971110416
 20
877.2263736903576
 30
0.0
 40
0.4796107218173108
100
AcDbArc
 50
173.8374382165787
 51
238.91103642129
  0
LINE
  5
A13
330
9E7
100
AcDbEntity
  8
0
  6
Continuous
 62
     7
370
    15
100
AcDbLine
 10
2051.685953087437
 20
901.7599383015665
 30
0.0
 11
2060.105401383376
 21
899.2782177787315
 31
0.0
  0
LINE
  5
A14
330
9E7
100
AcDbEntity
  8
0
  6
Continuous
 62
     7
370
    15
100
AcDbLine
 10
2060.105401383376
 20
899.2782177787315
 30
0.0
 11
2059.988565294409
 21
897.4523895011687
 31
0.0
  0
LINE
  5
A15
330
9E7
100
AcDbEntity
  8
0
  6
Continuous
 62
     7
370
    15
100
AcDbLine
 10
2059.788152486839
 20
897.5114632741886
 30
0.0
 11
2059.988565294409
 21
897.4523895011687
 31
0.0
  0
LINE
  5
A16
330
9E7
100
AcDbEntity
  8
0
  6
Continuous
 62
     7
370
    15
100
AcDbLine
 10
2059.988565294409
 20
897.4523895011687
 30
0.0
 11
2060.499140563308
 21
897.7727800027412
 31
0.0
  0
LINE
  5
A17
330
9E7
100
AcDbEntity
  8
0
  6
Continuous
 62
     7
370
    15
100
AcDbLine
 10
2060.105401383376
 20
899.2782177787315
 30
0.0
 11
2060.615976412988
 21
899.5986080890185
 31
0.0
  0
LINE
  5
A18
330
9E7
100
AcDbEntity
  8
0
  6
Continuous
 62
     7
370
    15
100
AcDbLine
 10
2060.499140563308
 20
897.7727800027412
 30
0.0
 11
2060.615976412988
 21
899.5986080890185
 31
0.0
  0
LINE
  5
A19
330
9E7
100
AcDbEntity
  8
0
  6
Continuous
 62
     7
370
    15
100
AcDbLine
 10
2046.779920276678
 20
903.2585387424113
 30
0.0
 11
2047.233573790068
 21
903.543211353601
 31
0.0
  0
LINE
  5
A1A
330
9E7
100
AcDbEntity
  8
0
  6
Continuous
 62
     7
370
    15
100
AcDbLine
 10
2047.233573790068
 20
903.543211353601
 30
0.0
 11
2048.665594089496
 21
903.121108379476
 31
0.0
  0
LINE
  5
A1B
330
9E7
100
AcDbEntity
  8
0
  6
Continuous
 62
     7
370
    15
100
AcDbLine
 10
2050.680121858704
 20
902.52730523075
 30
0.0
 11
2060.615976412988
 21
899.5986080890185
 31
0.0
  0
LINE
  5
A1C
330
9E7
100
AcDbEntity
  8
0
  6
Continuous
 62
     7
370
    15
100
AcDbLine
 10
2056.018294224097
 20
869.238816350319
 30
0.0
 11
2054.91454400853
 21
869.2368350829955
 31
0.0
  0
LINE
  5
A1D
330
9E7
100
AcDbEntity
  8
0
  6
Continuous
 62
     7
370
    15
100
AcDbLine
 10
2054.91454400853
 20
869.2368350829955
 30
0.0
 11
2054.544039056778
 21
868.060295745464
 31
0.0
  0
LINE
  5
A1E
330
9E7
100
AcDbEntity
  8
0
  6
Continuous
 62
     7
370
    15
100
AcDbLine
 10
2054.544039056778
 20
868.060295745464
 30
0.0
 11
2046.970428317482
 21
862.0059460594182
 31
0.0
  0
LINE
  5
A1F
330
9E7
100
AcDbEntity
  8
0
  6
Continuous
 62
     7
370
    15
100
AcDbLine
 10
2046.970428317482
 20
862.0059460594182
 30
0.0
 11
2046.789100242744
 21
862.1722493254535
 31
0.0
  0
LINE
  5
A20
330
9E7
100
AcDbEntity
  8
0
  6
Continuous
 62
     7
370
    15
100
AcDbLine
 10
2046.789100242744
 20
862.1722493254535
 30
0.0
 11
2046.797782376009
 21
863.3152922465139
 31
0.0
  0
LINE
  5
A21
330
9E7
100
AcDbEntity
  8
0
  6
Continuous
 62
     7
370
    15
100
AcDbLine
 10
2046.797782376009
 20
863.3152922465139
 30
0.0
 11
2047.001708201932
 21
863.8194100829242
 31
0.0
  0
LINE
  5
A22
330
9E7
100
AcDbEntity
  8
0
  6
Continuous
 62
     7
370
    15
100
AcDbLine
 10
2047.001708201932
 20
863.8194100829242
 30
0.0
 11
2047.535818360669
 21
864.3254616330212
 31
0.0
  0
LINE
  5
A23
330
9E7
100
AcDbEntity
  8
0
  6
Continuous
 62
     7
370
    15
100
AcDbLine
 10
2047.535818360669
 20
864.3254616330212
 30
0.0
 11
2047.549125421482
 21
866.0773976143088
 31
0.0
  0
LINE
  5
A24
330
9E7
100
AcDbEntity
  8
0
  6
Continuous
 62
     7
370
    15
100
AcDbLine
 10
2047.549125421482
 20
866.0773976143088
 30
0.0
 11
2046.997932631308
 21
865.7185717736188
 31
0.0
  0
LINE
  5
A25
330
9E7
100
AcDbEntity
  8
0
  6
Continuous
 62
     7
370
    15
100
AcDbLine
 10
2046.997932631308
 20
865.7185717736188
 30
0.0
 11
2046.81774955497
 21
865.944063525122
 31
0.0
  0
LINE
  5
A26
330
9E7
100
AcDbEntity
  8
0
  6
Continuous
 62
     7
370
    15
100
AcDbLine
 10
2046.81774955497
 20
865.944063525122
 30
0.0
 11
2046.831304643697
 21
867.7286535263023
 31
0.0
  0
LINE
  5
A27
330
9E7
100
AcDbEntity
  8
0
  6
Continuous
 62
     7
370
    15
100
AcDbLine
 10
2046.831304643697
 20
867.7286535263023
 30
0.0
 11
2048.506028987745
 21
869.8251118865224
 31
0.0
  0
LWPOLYLINE
  5
A28
330
9E7
100
AcDbEntity
  8
0
  6
Continuous
 62
     7
370
    15
100
AcDbPolyline
 90
        9
 70
   128
 43
0.0
 10
2048.506028987745
 20
869.8251118865224
 10
2048.517843705128
 20
869.8385281485579
 10
2048.529843075419
 20
869.8494518777369
 10
2048.541822096131
 20
869.8576964909831
 10
2048.553575154643
 20
869.8631203253681
 10
2048.564902728206
 20
869.865631994107
 10
2048.575610414416
 20
869.8651879897981
 10
2048.585513704535
 20
869.8617948785168
 10
2048.594444661824
 20
869.8555118004801
  0
LINE
  5
A29
330
9E7
100
AcDbEntity
  8
0
  6
Continuous
 62
     7
370
    15
100
AcDbLine
 10
2048.594444661824
 20
869.8555118004801
 30
0.0
 11
2048.733550827891
 21
869.7279302954042
 31
0.0
  0
LWPOLYLINE
  5
A2A
330
9E7
100
AcDbEntity
  8
0
  6
Continuous
 62
     7
370
    15
100
AcDbPolyline
 90
        9
 70
   128
 43
0.0
 10
2048.837470907982
 20
869.8110040796175
 10
2048.826217158774
 20
869.7865241392758
 10
2048.813425052806
 20
869.7647928964949
 10
2048.799586111055
 20
869.7466451895657
 10
2048.785232670682
 20
869.732778611103
 10
2048.7709148392
 20
869.723725354928
 10
2048.757184182737
 20
869.7198339058932
 10
2048.7445679234
 20
869.7212536838005
 10
2048.733550827891
 20
869.7279302954042
  0
LINE
  5
A2B
330
9E7
100
AcDbEntity
  8
0
  6
Continuous
 62
     7
370
    15
100
AcDbLine
 10
2048.837470907982
 20
869.8110040796175
 30
0.0
 11
2048.980227607871
 21
870.1639069555366
 31
0.0
  0
LWPOLYLINE
  5
A2C
330
9E7
100
AcDbEntity
  8
0
  6
Continuous
 62
     7
370
    15
100
AcDbPolyline
 90
        9
 70
   128
 43
0.0
 10
2048.980227607871
 20
870.1639069555366
 10
2048.994294313486
 20
870.1945061924643
 10
2049.010284208208
 20
870.2216702586072
 10
2049.027583364743
 20
870.244355376816
 10
2049.045524925149
 20
870.2616883066324
 10
2049.063421736704
 20
870.2730045962564
 10
2049.080585535081
 20
870.2778691881448
 10
2049.096355618416
 20
870.276094070523
 10
2049.110126511553
 20
870.2677482293756
  0
LINE
  5
A2D
330
9E7
100
AcDbEntity
  8
0
  6
Continuous
 62
     7
370
    15
100
AcDbLine
 10
2049.110126511553
 20
870.2677482293756
 30
0.0
 11
2049.249233634766
 21
870.1401674894418
 31
0.0
  0
LWPOLYLINE
  5
A2E
330
9E7
100
AcDbEntity
  8
0
  6
Continuous
 62
     7
370
    15
100
AcDbPolyline
 90
        9
 70
   128
 43
0.0
 10
2049.353153714857
 20
870.2232412736554
 10
2049.341899965648
 20
870.1987613333136
 10
2049.329107859681
 20
870.1770300905327
 10
2049.31526891793
 20
870.1588823836035
 10
2049.300914520412
 20
870.1450150399987
 10
2049.286597646075
 20
870.1359625489658
 10
2049.272866989611
 20
870.132071099931
 10
2049.260250730275
 20
870.1334908778383
 10
2049.249233634766
 20
870.1401674894418
  0
LINE
  5
A2F
330
9E7
100
AcDbEntity
  8
0
  6
Continuous
 62
     7
370
    15
100
AcDbLine
 10
2049.353153714857
 20
870.2232412736554
 30
0.0
 11
2049.495909457601
 21
870.5761433844322
 31
0.0
  0
LWPOLYLINE
  5
A30
330
9E7
100
AcDbEntity
  8
0
  6
Continuous
 62
     7
370
    15
100
AcDbPolyline
 90
        9
 70
   128
 43
0.0
 10
2049.495909457601
 20
870.5761433844322
 10
2049.509977120361
 20
870.6067433865023
 10
2049.525967015083
 20
870.633907452645
 10
2049.543265214473
 20
870.6565918057115
 10
2049.561207732024
 20
870.6739255006704
 10
2049.579104543579
 20
870.6852417902942
 10
2049.596268341955
 20
870.6901063821828
 10
2049.612038425291
 20
870.688331264561
 10
2049.625809318429
 20
870.6799854234136
  0
LINE
  5
A31
330
9E7
100
AcDbEntity
  8
0
  6
Continuous
 62
     7
370
    15
100
AcDbLine
 10
2049.625809318429
 20
870.6799854234136
 30
0.0
 11
2049.764916441641
 21
870.5524046834797
 31
0.0
  0
LWPOLYLINE
  5
A32
330
9E7
100
AcDbEntity
  8
0
  6
Continuous
 62
     7
370
    15
100
AcDbPolyline
 90
        9
 70
   128
 43
0.0
 10
2049.868836521732
 20
870.6354784676932
 10
2049.857582772523
 20
870.6109985273515
 10
2049.844790666556
 20
870.5892672845704
 10
2049.830951724805
 20
870.5711195776412
 10
2049.816597327287
 20
870.5572522340364
 10
2049.80228045295
 20
870.5481997430037
 10
2049.788549796486
 20
870.5443082939687
 10
2049.77593353715
 20
870.5457280718761
 10
2049.764916441641
 20
870.5524046834797
  0
LINE
  5
A33
330
9E7
100
AcDbEntity
  8
0
  6
Continuous
 62
     7
370
    15
100
AcDbLine
 10
2049.868836521732
 20
870.6354784676932
 30
0.0
 11
2050.011592264476
 21
870.98838057847
 31
0.0
  0
LWPOLYLINE
  5
A34
330
9E7
100
AcDbEntity
  8
0
  6
Continuous
 62
     7
370
    15
100
AcDbPolyline
 90
        9
 70
   128
 43
0.0
 10
2050.011592264476
 20
870.98838057847
 10
2050.025659448663
 20
871.0189801979689
 10
2050.041649343385
 20
871.0461442641117
 10
2050.058948021348
 20
871.0688289997493
 10
2050.076890538899
 20
871.0861626947082
 10
2050.094787350453
 20
871.0974789843319
 10
2050.111950670259
 20
871.1023431936494
 10
2050.127721232166
 20
871.1005684585988
 10
2050.141492125304
 20
871.0922226174513
  0
LINE
  5
A35
330
9E7
100
AcDbEntity
  8
0
  6
Continuous
 62
     7
370
    15
100
AcDbLine
 10
2050.141492125304
 20
871.0922226174513
 30
0.0
 11
2050.280598769944
 21
870.9646414949464
 31
0.0
  0
LWPOLYLINE
  5
A36
330
9E7
100
AcDbEntity
  8
0
  6
Continuous
 62
     7
370
    15
100
AcDbPolyline
 90
        9
 70
   128
 43
0.0
 10
2050.384518850035
 20
871.04771527916
 10
2050.373265100826
 20
871.0232353388182
 10
2050.360472994858
 20
871.0015040960373
 10
2050.346634053108
 20
870.9833563891081
 10
2050.332280134162
 20
870.9694894280742
 10
2050.317962781253
 20
870.9604365544704
 10
2050.304232124789
 20
870.9565451054356
 10
2050.291615865452
 20
870.9579648833427
 10
2050.280598769944
 20
870.9646414949464
  0
LINE
  5
A37
330
9E7
100
AcDbEntity
  8
0
  6
Continuous
 62
     7
370
    15
100
AcDbLine
 10
2050.384518850035
 20
871.04771527916
 30
0.0
 11
2050.527275071351
 21
871.4006177725078
 31
0.0
  0
LWPOLYLINE
  5
A38
330
9E7
100
AcDbEntity
  8
0
  6
Continuous
 62
     7
370
    15
100
AcDbPolyline
 90
        9
 70
   128
 43
0.0
 10
2050.527275071351
 20
871.4006177725078
 10
2050.541341776966
 20
871.4312170094355
 10
2050.55733215026
 20
871.4583814581496
 10
2050.574630828223
 20
871.4810661937873
 10
2050.592573345773
 20
871.498399888746
 10
2050.610470157328
 20
871.5097161783699
 10
2050.627633477133
 20
871.5145803876872
 10
2050.643403560469
 20
871.5128052700654
 10
2050.657174932178
 20
871.5044598114893
  0
LINE
  5
A39
330
9E7
100
AcDbEntity
  8
0
  6
Continuous
 62
     7
370
    15
100
AcDbLine
 10
2050.657174932178
 20
871.5044598114893
 30
0.0
 11
2050.796281576818
 21
871.3768786889843
 31
0.0
  0
LWPOLYLINE
  5
A3A
330
9E7
100
AcDbEntity
  8
0
  6
Continuous
 62
     7
370
    15
100
AcDbPolyline
 90
        9
 70
   128
 43
0.0
 10
2050.900201178337
 20
871.4599520906267
 10
2050.888947907701
 20
871.4354725328561
 10
2050.876155801733
 20
871.413741290075
 10
2050.862316859983
 20
871.3955935831458
 10
2050.847962941037
 20
871.3817266221122
 10
2050.833645109555
 20
871.372673365937
 10
2050.819914453091
 20
871.3687819169022
 10
2050.807298193755
 20
871.3702016948095
 10
2050.796281576818
 20
871.3768786889843
  0
LINE
  5
A3B
330
9E7
100
AcDbEntity
  8
0
  6
Continuous
 62
     7
370
    15
100
AcDbLine
 10
2050.900201178337
 20
871.4599520906267
 30
0.0
 11
2051.042957399654
 21
871.8128545839746
 31
0.0
  0
LWPOLYLINE
  5
A3C
330
9E7
100
AcDbEntity
  8
0
  6
Continuous
 62
     7
370
    15
100
AcDbPolyline
 90
        9
 70
   128
 43
0.0
 10
2051.042957399654
 20
871.8128545839746
 10
2051.05702458384
 20
871.8434542034735
 10
2051.073014478562
 20
871.8706182696163
 10
2051.090313156526
 20
871.8933030052539
 10
2051.108255674076
 20
871.9106367002128
 10
2051.126152485631
 20
871.9219529898365
 10
2051.143315805436
 20
871.926817199154
 10
2051.159086367343
 20
871.9250424641032
 10
2051.172857260481
 20
871.9166966229559
  0
LINE
  5
A3D
330
9E7
100
AcDbEntity
  8
0
  6
Continuous
 62
     7
370
    15
100
AcDbLine
 10
2051.172857260481
 20
871.9166966229559
 30
0.0
 11
2051.311963905121
 21
871.789115500451
 31
0.0
  0
ARC
  5
A3E
330
9E7
100
AcDbEntity
  8
0
  6
Continuous
 62
     7
370
    15
100
AcDbCircle
 10
2051.334917957897
 20
871.8179624293748
 30
0.0
 40
0.0368650762537491
100
AcDbArc
 50
231.4900632733011
 51
315.2001311326072
  0
ARC
  5
A3F
330
9E7
100
AcDbEntity
  8
0
  6
Continuous
 62
     7
370
    15
100
AcDbCircle
 10
2051.221578630162
 20
871.937296210911
 30
0.0
 40
0.2014315182347707
100
AcDbArc
 50
313.8308720746819
 51
339.9027015537722
  0
LINE
  5
A40
330
9E7
100
AcDbEntity
  8
0
  6
Continuous
 62
     7
370
    15
100
AcDbLine
 10
2051.410745074893
 20
871.8680812361862
 30
0.0
 11
2051.553501774782
 21
872.2209841121053
 31
0.0
  0
LWPOLYLINE
  5
A41
330
9E7
100
AcDbEntity
  8
0
  6
Continuous
 62
     7
370
    15
100
AcDbPolyline
 90
        9
 70
   128
 43
0.0
 10
2051.553501774782
 20
872.2209841121053
 10
2051.567568480397
 20
872.2515833490328
 10
2051.583558853691
 20
872.2787477977469
 10
2051.600857531655
 20
872.3014325333846
 10
2051.618800049205
 20
872.3187662283434
 10
2051.636696382187
 20
872.330082135396
 10
2051.653859701992
 20
872.3349463447133
 10
2051.6696302639
 20
872.3331716096627
 10
2051.683401157037
 20
872.3248257685154
  0
LINE
  5
A42
330
9E7
100
AcDbEntity
  8
0
  6
Continuous
 62
     7
370
    15
100
AcDbLine
 10
2051.683401157037
 20
872.3248257685154
 30
0.0
 11
2051.82250828025
 21
872.1972450285816
 31
0.0
  0
ARC
  5
A43
330
9E7
100
AcDbEntity
  8
0
  6
Continuous
 62
     7
370
    15
100
AcDbCircle
 10
2051.845645077823
 20
872.2269546706948
 30
0.0
 40
0.0376559986780904
100
AcDbArc
 50
232.0898279464353
 51
317.211345046325
  0
ARC
  5
A44
330
9E7
100
AcDbEntity
  8
0
  6
Continuous
 62
     7
370
    15
100
AcDbCircle
 10
2051.738766409002
 20
872.3462216928332
 30
0.0
 40
0.1976722029186325
100
AcDbArc
 50
312.8815923168628
 51
340.0771186016741
  0
LINE
  5
A45
330
9E7
100
AcDbEntity
  8
0
  6
Continuous
 62
     7
370
    15
100
AcDbLine
 10
2051.924608349544
 20
872.2788638948994
 30
0.0
 11
2052.06736457086
 21
872.6317663882474
 31
0.0
  0
LWPOLYLINE
  5
A46
330
9E7
100
AcDbEntity
  8
0
  6
Continuous
 62
     7
370
    15
100
AcDbPolyline
 90
        9
 70
   128
 43
0.0
 10
2052.06736457086
 20
872.6317663882474
 10
2052.081431755047
 20
872.6623660077462
 10
2052.097421649769
 20
872.6895300738892
 10
2052.114720327732
 20
872.7122148095268
 10
2052.132662845282
 20
872.7295485044855
 10
2052.150559656837
 20
872.7408647941093
 10
2052.167722976642
 20
872.7457290034267
 10
2052.183493538549
 20
872.7439542683761
 10
2052.197264431688
 20
872.7356084272287
  0
LINE
  5
A47
330
9E7
100
AcDbEntity
  8
0
  6
Continuous
 62
     7
370
    15
100
AcDbLine
 10
2052.197264431688
 20
872.7356084272287
 30
0.0
 11
2052.336371076327
 21
872.6080273047237
 31
0.0
  0
ARC
  5
A48
330
9E7
100
AcDbEntity
  8
0
  6
Continuous
 62
     7
370
    15
100
AcDbCircle
 10
2052.359507860735
 20
872.6377379413166
 30
0.0
 40
0.0376567752139118
100
AcDbArc
 50
232.090773453933
 51
317.2111700363151
  0
ARC
  5
A49
330
9E7
100
AcDbEntity
  8
0
  6
Continuous
 62
     7
370
    15
100
AcDbCircle
 10
2052.252629683652
 20
872.7570043515466
 30
0.0
 40
0.1976722029187806
100
AcDbArc
 50
312.8815923168672
 51
340.0771186016803
  0
LINE
  5
A4A
330
9E7
100
AcDbEntity
  8
0
  6
Continuous
 62
     7
370
    15
100
AcDbLine
 10
2052.438471624194
 20
872.6896465536126
 30
0.0
 11
2052.58122784551
 21
873.0425490469608
 31
0.0
  0
LWPOLYLINE
  5
A4B
330
9E7
100
AcDbEntity
  8
0
  6
Continuous
 62
     7
370
    15
100
AcDbPolyline
 90
        9
 70
   128
 43
0.0
 10
2052.58122784551
 20
873.0425490469608
 10
2052.595295029697
 20
873.0731486664595
 10
2052.611284924419
 20
873.1003127326024
 10
2052.628583602382
 20
873.1229974682401
 10
2052.646526119933
 20
873.1403311631989
 10
2052.664422931487
 20
873.1516474528227
 10
2052.681586251292
 20
873.1565116621402
 10
2052.697356813199
 20
873.1547369270893
 10
2052.711127706337
 20
873.1463910859419
  0
LINE
  5
A4C
330
9E7
100
AcDbEntity
  8
0
  6
Continuous
 62
     7
370
    15
100
AcDbLine
 10
2052.711127706337
 20
873.1463910859419
 30
0.0
 11
2052.850234350977
 21
873.0188099634371
 31
0.0
  0
ARC
  5
A4D
330
9E7
100
AcDbEntity
  8
0
  6
Continuous
 62
     7
370
    15
100
AcDbCircle
 10
2052.873371135386
 20
873.0485206000299
 30
0.0
 40
0.0376567752138854
100
AcDbArc
 50
232.0907734539187
 51
317.2111700363055
  0
ARC
  5
A4E
330
9E7
100
AcDbEntity
  8
0
  6
Continuous
 62
     7
370
    15
100
AcDbCircle
 10
2052.766490032999
 20
873.167788947992
 30
0.0
 40
0.1976756134423715
100
AcDbArc
 50
312.8818314268721
 51
340.0768794916617
  0
LINE
  5
A4F
330
9E7
100
AcDbEntity
  8
0
  6
Continuous
 62
     7
370
    15
100
AcDbLine
 10
2052.952334898844
 20
873.1004292123261
 30
0.0
 11
2053.09509112016
 21
873.453331705674
 31
0.0
  0
LWPOLYLINE
  5
A50
330
9E7
100
AcDbEntity
  8
0
  6
Continuous
 62
     7
370
    15
100
AcDbPolyline
 90
        9
 70
   128
 43
0.0
 10
2053.09509112016
 20
873.453331705674
 10
2053.109158304347
 20
873.4839313251729
 10
2053.125148199069
 20
873.5110953913157
 10
2053.142446877032
 20
873.5337801269533
 10
2053.160389394582
 20
873.5511138219122
 10
2053.178286206137
 20
873.5624301115359
 10
2053.195449525942
 20
873.5672943208534
 10
2053.211219609277
 20
873.5655192032316
 10
2053.224990980988
 20
873.5571737446553
  0
LINE
  5
A51
330
9E7
100
AcDbEntity
  8
0
  6
Continuous
 62
     7
370
    15
100
AcDbLine
 10
2053.224990980988
 20
873.5571737446553
 30
0.0
 11
2053.364097625628
 21
873.4295926221504
 31
0.0
  0
ARC
  5
A52
330
9E7
100
AcDbEntity
  8
0
  6
Continuous
 62
     7
370
    15
100
AcDbCircle
 10
2053.387234410036
 20
873.4593032587433
 30
0.0
 40
0.0376567752140404
100
AcDbArc
 50
232.0907734540855
 51
317.2111700362318
  0
ARC
  5
A53
330
9E7
100
AcDbEntity
  8
0
  6
Continuous
 62
     7
370
    15
100
AcDbCircle
 10
2053.280353307648
 20
873.5785716067058
 30
0.0
 40
0.1976756134435781
100
AcDbArc
 50
312.8818314269781
 51
340.0768794915854
  0
LINE
  5
A54
330
9E7
100
AcDbEntity
  8
0
  6
Continuous
 62
     7
370
    15
100
AcDbLine
 10
2053.466198173493
 20
873.5112118710395
 30
0.0
 11
2053.60895439481
 21
873.8641143643873
 31
0.0
  0
LWPOLYLINE
  5
A55
330
9E7
100
AcDbEntity
  8
0
  6
Continuous
 62
     7
370
    15
100
AcDbPolyline
 90
        9
 70
   128
 43
0.0
 10
2053.60895439481
 20
873.8641143643873
 10
2053.623021100424
 20
873.894713601315
 10
2053.639011473719
 20
873.9218780500291
 10
2053.656310151682
 20
873.9445627856666
 10
2053.674252669233
 20
873.9618964806254
 10
2053.692149480787
 20
873.9732127702493
 10
2053.709312800592
 20
873.9780769795666
 10
2053.725082883927
 20
873.9763018619449
 10
2053.738854255637
 20
873.9679564033686
  0
LINE
  5
A56
330
9E7
100
AcDbEntity
  8
0
  6
Continuous
 62
     7
370
    15
100
AcDbLine
 10
2053.738854255637
 20
873.9679564033686
 30
0.0
 11
2053.877960900277
 21
873.8403752808638
 31
0.0
  0
ARC
  5
A57
330
9E7
100
AcDbEntity
  8
0
  6
Continuous
 62
     7
370
    15
100
AcDbCircle
 10
2053.901097691269
 20
873.8700854202139
 30
0.0
 40
0.0376563869432323
100
AcDbArc
 50
232.0903007011283
 51
317.2112575423659
  0
ARC
  5
A58
330
9E7
100
AcDbEntity
  8
0
  6
Continuous
 62
     7
370
    15
100
AcDbCircle
 10
2053.794217805687
 20
873.9893531052519
 30
0.0
 40
0.197673908153817
100
AcDbArc
 50
312.8817118710563
 51
340.0769990474862
  0
LINE
  5
A59
330
9E7
100
AcDbEntity
  8
0
  6
Continuous
 62
     7
370
    15
100
AcDbLine
 10
2053.980061208858
 20
873.9219943384672
 30
0.0
 11
2054.122817430174
 21
874.2748968318151
 31
0.0
  0
LWPOLYLINE
  5
A5A
330
9E7
100
AcDbEntity
  8
0
  6
Continuous
 62
     7
370
    15
100
AcDbPolyline
 90
        9
 70
   128
 43
0.0
 10
2054.122817430174
 20
874.2748968318151
 10
2054.136884614361
 20
874.305496451314
 10
2054.152874509083
 20
874.3326605174567
 10
2054.170173187046
 20
874.3553452530944
 10
2054.188115704596
 20
874.3726789480533
 10
2054.206012516151
 20
874.383995237677
 10
2054.223175835956
 20
874.3888594469945
 10
2054.238946158577
 20
874.3870845206583
 10
2054.252717291001
 20
874.3787388707964
  0
LINE
  5
A5B
330
9E7
100
AcDbEntity
  8
0
  6
Continuous
 62
     7
370
    15
100
AcDbLine
 10
2054.252717291001
 20
874.3787388707964
 30
0.0
 11
2054.391823935641
 21
874.2511577482915
 31
0.0
  0
LWPOLYLINE
  5
A5C
330
9E7
100
AcDbEntity
  8
0
  6
Continuous
 62
     7
370
    15
100
AcDbPolyline
 90
        9
 70
   128
 43
0.0
 10
2054.495743776446
 20
874.3342313412195
 10
2054.484490266524
 20
874.3097515921633
 10
2054.471698160556
 20
874.2880203493823
 10
2054.457859218806
 20
874.2698726424531
 10
2054.44350529986
 20
874.2560056814195
 10
2054.42918794695
 20
874.2469528078155
 10
2054.415457290486
 20
874.2430613587806
 10
2054.402841031151
 20
874.2444811366878
 10
2054.391823935641
 20
874.2511577482915
  0
LINE
  5
A5D
330
9E7
100
AcDbEntity
  8
0
  6
Continuous
 62
     7
370
    15
100
AcDbLine
 10
2054.495743776446
 20
874.3342313412195
 30
0.0
 11
2054.638500237048
 21
874.6871340258529
 31
0.0
  0
LWPOLYLINE
  5
A5E
330
9E7
100
AcDbEntity
  8
0
  6
Continuous
 62
     7
370
    15
100
AcDbPolyline
 90
        9
 70
   128
 43
0.0
 10
2054.638500237048
 20
874.6871340258529
 10
2054.65256718195
 20
874.7177334540662
 10
2054.668557315958
 20
874.7448977114947
 10
2054.685855993921
 20
874.7675824471324
 10
2054.703798272185
 20
874.7849159508055
 10
2054.72169508374
 20
874.7962322404294
 10
2054.738858403545
 20
874.8010964497467
 10
2054.754628726166
 20
874.7993215234105
 10
2054.76839985859
 20
874.7909758735486
  0
LINE
  5
A5F
330
9E7
100
AcDbEntity
  8
0
  6
Continuous
 62
     7
370
    15
100
AcDbLine
 10
2054.76839985859
 20
874.7909758735486
 30
0.0
 11
2054.907506742516
 21
874.6633949423292
 31
0.0
  0
LWPOLYLINE
  5
A60
330
9E7
100
AcDbEntity
  8
0
  6
Continuous
 62
     7
370
    15
100
AcDbPolyline
 90
        9
 70
   128
 43
0.0
 10
2055.011426583321
 20
874.7464685352571
 10
2055.000172834112
 20
874.7219885949157
 10
2054.987380728145
 20
874.7002573521346
 10
2054.973541786394
 20
874.6821096452054
 10
2054.959187867448
 20
874.6682426841717
 10
2054.944870514539
 20
874.6591898105677
 10
2054.931139858075
 20
874.6552983615329
 10
2054.918523598739
 20
874.6567181394402
 10
2054.907506742516
 20
874.6633949423292
  0
LINE
  5
A61
330
9E7
100
AcDbEntity
  8
0
  6
Continuous
 62
     7
370
    15
100
AcDbLine
 10
2055.011426583321
 20
874.7464685352571
 30
0.0
 11
2055.154182804637
 21
875.0993710286051
 31
0.0
  0
LWPOLYLINE
  5
A62
330
9E7
100
AcDbEntity
  8
0
  6
Continuous
 62
     7
370
    15
100
AcDbPolyline
 90
        9
 70
   128
 43
0.0
 10
2055.154182804637
 20
875.0993710286051
 10
2055.168249749538
 20
875.1299704568184
 10
2055.184239883546
 20
875.1571347142469
 10
2055.20153856151
 20
875.1798194498846
 10
2055.21948107906
 20
875.1971531448432
 10
2055.237377890614
 20
875.2084694344672
 10
2055.25454121042
 20
875.2133336437847
 10
2055.270311293755
 20
875.2115585261627
 10
2055.284082665465
 20
875.2032130675866
  0
LINE
  5
A63
330
9E7
100
AcDbEntity
  8
0
  6
Continuous
 62
     7
370
    15
100
AcDbLine
 10
2055.284082665465
 20
875.2032130675866
 30
0.0
 11
2055.423189310105
 21
875.0756319450815
 31
0.0
  0
LWPOLYLINE
  5
A64
330
9E7
100
AcDbEntity
  8
0
  6
Continuous
 62
     7
370
    15
100
AcDbPolyline
 90
        9
 70
   128
 43
0.0
 10
2055.52710915091
 20
875.1587055380095
 10
2055.515855401701
 20
875.1342255976679
 10
2055.50306353502
 20
875.1124945461723
 10
2055.489224593269
 20
875.0943468392433
 10
2055.474870435038
 20
875.0804796869241
 10
2055.460553082128
 20
875.0714268133201
 10
2055.446822425664
 20
875.0675353642851
 10
2055.434206166328
 20
875.0689551421924
 10
2055.423189310105
 20
875.0756319450815
  0
LINE
  5
A65
330
9E7
100
AcDbEntity
  8
0
  6
Continuous
 62
     7
370
    15
100
AcDbLine
 10
2055.52710915091
 20
875.1587055380095
 30
0.0
 11
2055.57224138463
 21
875.2702753012284
 31
0.0
  0
LINE
  5
A66
330
9E7
100
AcDbEntity
  8
0
  6
Continuous
 62
     7
370
    15
100
AcDbLine
 10
2055.57224138463
 20
875.2702753012284
 30
0.0
 11
2055.612734148786
 21
880.6013346168535
 31
0.0
  0
LWPOLYLINE
  5
A67
330
9E7
100
AcDbEntity
  8
0
  6
Continuous
 62
     7
370
    15
100
AcDbPolyline
 90
        9
 70
   128
 43
0.0
 10
2055.431406554557
 20
880.7676385204002
 10
2055.467200177667
 20
880.7902710996478
 10
2055.501526817277
 20
880.7999995182827
 10
2055.533067462519
 20
880.7964496656101
 10
2055.560609727367
 20
880.7797583658864
 10
2055.583095606349
 20
880.7505669572337
 10
2055.599660529208
 20
880.7099965629516
 10
2055.609668248546
 20
880.6596070580347
 10
2055.612734148786
 20
880.6013346168535
  0
LINE
  5
A68
330
9E7
100
AcDbEntity
  8
0
  6
Continuous
 62
     7
370
    15
100
AcDbLine
 10
2054.956382061464
 20
880.3879036106424
 30
0.0
 11
2055.431406554557
 21
880.7676385204002
 31
0.0
  0
ARC
  5
A69
330
9E7
100
AcDbEntity
  8
0
  6
Continuous
 62
     7
370
    15
100
AcDbCircle
 10
2055.285844545319
 20
880.0265027743645
 30
0.0
 40
0.489035880821578
100
AcDbArc
 50
132.3531221251153
 51
160.1773843106192
  0
LINE
  5
A6A
330
9E7
100
AcDbEntity
  8
0
  6
Continuous
 62
     7
370
    15
100
AcDbLine
 10
2054.61976984901
 20
879.683055504681
 30
0.0
 11
2054.825785512618
 21
880.1923393781661
 31
0.0
  0
LINE
  5
A6B
330
9E7
100
AcDbEntity
  8
0
  6
Continuous
 62
     7
370
    15
100
AcDbLine
 10
2046.926097002986
 20
874.102194124255
 30
0.0
 11
2054.61976984901
 21
879.683055504681
 31
0.0
  0
LINE
  5
A6C
330
9E7
100
AcDbEntity
  8
0
  6
Continuous
 62
     7
370
    15
100
AcDbLine
 10
2046.926097002986
 20
874.102194124255
 30
0.0
 11
2046.788786146198
 21
874.2499593946723
 31
0.0
  0
LINE
  5
A6D
330
9E7
100
AcDbEntity
  8
0
  6
Continuous
 62
     7
370
    15
100
AcDbLine
 10
2046.788786146198
 20
874.2499593946723
 30
0.0
 11
2045.880559007946
 21
885.036396230366
 31
0.0
  0
LINE
  5
A6E
330
9E7
100
AcDbEntity
  8
0
  6
Continuous
 62
     7
370
    15
100
AcDbLine
 10
2045.880559007946
 20
885.036396230366
 30
0.0
 11
2046.263370514125
 21
886.251902015336
 31
0.0
  0
LINE
  5
A6F
330
9E7
100
AcDbEntity
  8
0
  6
Continuous
 62
     7
370
    15
100
AcDbLine
 10
2046.263370514125
 20
886.251902015336
 30
0.0
 11
2047.976050924467
 21
887.621019925087
 31
0.0
  0
LINE
  5
A70
330
9E7
100
AcDbEntity
  8
0
  6
Continuous
 62
     7
370
    15
100
AcDbLine
 10
2047.978379662308
 20
887.9276090111696
 30
0.0
 11
2047.976050924467
 21
887.621019925087
 31
0.0
  0
LINE
  5
A71
330
9E7
100
AcDbEntity
  8
0
  6
Continuous
 62
     7
370
    15
100
AcDbLine
 10
2059.792094035007
 20
897.3715004871701
 30
0.0
 11
2047.978379662308
 21
887.9276090111696
 31
0.0
  0
LINE
  5
A72
330
9E7
100
AcDbEntity
  8
0
  6
Continuous
 62
     7
370
    15
100
AcDbLine
 10
2059.789765297166
 20
897.0649114010877
 30
0.0
 11
2059.792094035007
 21
897.3715004871701
 31
0.0
  0
LINE
  5
A73
330
9E7
100
AcDbEntity
  8
0
  6
Continuous
 62
     7
370
    15
100
AcDbLine
 10
2059.789765297166
 20
897.0649114010877
 30
0.0
 11
2061.668423585421
 21
898.5667121417389
 31
0.0
  0
LINE
  5
A74
330
9E7
100
AcDbEntity
  8
0
  6
Continuous
 62
     7
370
    15
100
AcDbLine
 10
2061.668423585421
 20
898.5667121417389
 30
0.0
 11
2061.875897413632
 21
898.376427909813
 31
0.0
  0
LINE
  5
A75
330
9E7
100
AcDbEntity
  8
0
  6
Continuous
 62
     7
370
    15
100
AcDbLine
 10
2061.875897413632
 20
898.376427909813
 30
0.0
 11
2061.740622215432
 21
880.5668236371712
 31
0.0
  0
LINE
  5
A76
330
9E7
100
AcDbEntity
  8
0
  6
Continuous
 62
     7
370
    15
100
AcDbLine
 10
2061.740622215432
 20
880.5668236371712
 30
0.0
 11
2060.505797455974
 21
876.0354120161483
 31
0.0
  0
LINE
  5
A77
330
9E7
100
AcDbEntity
  8
0
  6
Continuous
 62
     7
370
    15
100
AcDbLine
 10
2060.505797455974
 20
876.0354120161483
 30
0.0
 11
2061.235543115478
 21
875.8995452791697
 31
0.0
  0
LINE
  5
A78
330
9E7
100
AcDbEntity
  8
0
  6
Continuous
 62
     7
370
    15
100
AcDbLine
 10
2061.235543115478
 20
875.8995452791697
 30
0.0
 11
2060.368011872238
 21
872.7159836597996
 31
0.0
  0
LINE
  5
A79
330
9E7
100
AcDbEntity
  8
0
  6
Continuous
 62
     7
370
    15
100
AcDbLine
 10
2060.368011872238
 20
872.7159836597996
 30
0.0
 11
2056.018294224097
 21
869.238816350319
 31
0.0
  0
LINE
  5
A7A
330
9E7
100
AcDbEntity
  8
0
  6
Continuous
 62
     7
370
    15
100
AcDbLine
 10
2045.880559007946
 20
885.036396230366
 30
0.0
 11
2043.735942993015
 21
885.6685442513263
 31
0.0
  0
LINE
  5
A7B
330
9E7
100
AcDbEntity
  8
0
  6
Continuous
 62
     7
370
    15
100
AcDbLine
 10
2044.118754499194
 20
886.8840500362964
 30
0.0
 11
2043.735942993015
 21
885.6685442513263
 31
0.0
  0
LINE
  5
A7C
330
9E7
100
AcDbEntity
  8
0
  6
Continuous
 62
     7
370
    15
100
AcDbLine
 10
2044.118754499194
 20
886.8840500362964
 30
0.0
 11
2046.263370514125
 21
886.251902015336
 31
0.0
  0
LINE
  5
A7D
330
9E7
100
AcDbEntity
  8
0
  6
Continuous
 62
     7
370
    15
100
AcDbLine
 10
2044.644170131267
 20
874.8821074156323
 30
0.0
 11
2046.788786146198
 21
874.2499593946723
 31
0.0
  0
LINE
  5
A7E
330
9E7
100
AcDbEntity
  8
0
  6
Continuous
 62
     7
370
    15
100
AcDbLine
 10
2043.735942993015
 20
885.6685442513263
 30
0.0
 11
2044.644170131267
 21
874.8821074156323
 31
0.0
  0
LINE
  5
A7F
330
9E7
100
AcDbEntity
  8
0
  6
Continuous
 62
     7
370
    15
100
AcDbLine
 10
2045.103354976187
 20
887.6711403415624
 30
0.0
 11
2044.118754499194
 21
886.8840500362964
 31
0.0
  0
LINE
  5
A80
330
9E7
100
AcDbEntity
  8
0
  6
Continuous
 62
     7
370
    15
100
AcDbLine
 10
2047.976050924467
 20
887.621019925087
 30
0.0
 11
2047.622983047579
 21
887.7250903778328
 31
0.0
  0
ARC
  5
A81
330
9E7
100
AcDbEntity
  8
0
  6
Continuous
 62
     7
370
    15
100
AcDbCircle
 10
2045.334002069652
 20
887.8370835320744
 30
0.0
 40
2.645926626893161
100
AcDbArc
 50
1.960651610479375
 51
72.07565382424263
  0
LINE
  5
A82
330
9E7
100
AcDbEntity
  8
0
  6
Continuous
 62
     7
370
    15
100
AcDbLine
 10
2046.148314941909
 20
890.3545867120087
 30
0.0
 11
2057.962029314608
 21
899.7984781880091
 31
0.0
  0
ARC
  5
A83
330
9E7
100
AcDbEntity
  8
0
  6
Continuous
 62
     7
370
    15
100
AcDbCircle
 10
2057.147716442351
 20
897.2809750080751
 30
0.0
 40
2.645926626893079
100
AcDbArc
 50
1.960651610479375
 51
72.07565382424263
  0
ARC
  5
A84
330
9E7
100
AcDbEntity
  8
0
  6
Continuous
 62
     7
370
    15
100
AcDbCircle
 10
2035.623108524383
 20
891.9796402626921
 30
0.0
 40
1.420032207554073
100
AcDbArc
 50
69.88297134013527
 51
134.1362845429641
  0
LINE
  5
A85
330
9E7
100
AcDbEntity
  8
0
  6
Continuous
 62
     7
370
    15
100
AcDbLine
 10
2046.148314941909
 20
890.3545867120087
 30
0.0
 11
2036.11151267512
 21
893.3130392487553
 31
0.0
  0
LINE
  5
A86
330
9E7
100
AcDbEntity
  8
0
  6
Continuous
 62
     7
370
    15
100
AcDbLine
 10
2057.962029314608
 20
899.7984781880091
 30
0.0
 11
2051.842207253606
 21
901.6023598048382
 31
0.0
  0
LINE
  5
A87
330
9E7
100
AcDbEntity
  8
0
  6
Continuous
 62
     7
370
    15
100
AcDbLine
 10
2036.572715559987
 20
866.365406239517
 30
0.0
 11
2035.389502755627
 21
865.4195451017859
 31
0.0
  0
LINE
  5
A88
330
9E7
100
AcDbEntity
  8
0
  6
Continuous
 62
     7
370
    15
100
AcDbLine
 10
2035.389502755627
 20
865.4195451017859
 30
0.0
 11
2035.208174680889
 21
865.5858483678212
 31
0.0
  0
LINE
  5
A89
330
9E7
100
AcDbEntity
  8
0
  6
Continuous
 62
     7
370
    15
100
AcDbLine
 10
2035.208174680889
 20
865.5858483678212
 30
0.0
 11
2035.216856814153
 21
866.7288912888816
 31
0.0
  0
LINE
  5
A8A
330
9E7
100
AcDbEntity
  8
0
  6
Continuous
 62
     7
370
    15
100
AcDbLine
 10
2035.216856814153
 20
866.7288912888816
 30
0.0
 11
2035.420782640077
 21
867.2330091252918
 31
0.0
  0
LINE
  5
A8B
330
9E7
100
AcDbEntity
  8
0
  6
Continuous
 62
     7
370
    15
100
AcDbLine
 10
2035.420782640077
 20
867.2330091252918
 30
0.0
 11
2035.803872069508
 21
867.5959735950391
 31
0.0
  0
LINE
  5
A8C
330
9E7
100
AcDbEntity
  8
0
  6
Continuous
 62
     7
370
    15
100
AcDbLine
 10
2035.951906674964
 20
869.4803896410215
 30
0.0
 11
2035.969911525402
 21
869.4947827309688
 31
0.0
  0
LINE
  5
A8D
330
9E7
100
AcDbEntity
  8
0
  6
Continuous
 62
     7
370
    15
100
AcDbLine
 10
2035.951906674964
 20
869.4803896410215
 30
0.0
 11
2035.417007069453
 21
869.1321708159865
 31
0.0
  0
LINE
  5
A8E
330
9E7
100
AcDbEntity
  8
0
  6
Continuous
 62
     7
370
    15
100
AcDbLine
 10
2035.417007069453
 20
869.1321708159865
 30
0.0
 11
2035.236823993115
 21
869.3576625674896
 31
0.0
  0
LINE
  5
A8F
330
9E7
100
AcDbEntity
  8
0
  6
Continuous
 62
     7
370
    15
100
AcDbLine
 10
2035.236823993115
 20
869.3576625674896
 30
0.0
 11
2035.250379081842
 21
871.14225256867
 31
0.0
  0
LINE
  5
A90
330
9E7
100
AcDbEntity
  8
0
  6
Continuous
 62
     7
370
    15
100
AcDbLine
 10
2035.250379081842
 20
871.14225256867
 30
0.0
 11
2036.01978591825
 21
872.1054138206486
 31
0.0
  0
LINE
  5
A91
330
9E7
100
AcDbEntity
  8
0
  6
Continuous
 62
     7
370
    15
100
AcDbLine
 10
2035.345171441131
 20
877.5157931666226
 30
0.0
 11
2036.738187288475
 21
878.5262634667121
 31
0.0
  0
LINE
  5
A92
330
9E7
100
AcDbEntity
  8
0
  6
Continuous
 62
     7
370
    15
100
AcDbLine
 10
2035.345171441131
 20
877.5157931666226
 30
0.0
 11
2035.207860584343
 21
877.6635584370399
 31
0.0
  0
LINE
  5
A93
330
9E7
100
AcDbEntity
  8
0
  6
Continuous
 62
     7
370
    15
100
AcDbLine
 10
2035.207860584343
 20
877.6635584370399
 30
0.0
 11
2034.29963344609
 21
888.4499952727336
 31
0.0
  0
LINE
  5
A94
330
9E7
100
AcDbEntity
  8
0
  6
Continuous
 62
     7
370
    15
100
AcDbLine
 10
2034.29963344609
 20
888.4499952727336
 30
0.0
 11
2034.68244495227
 21
889.6655010577037
 31
0.0
  0
LINE
  5
A95
330
9E7
100
AcDbEntity
  8
0
  6
Continuous
 62
     7
370
    15
100
AcDbLine
 10
2034.68244495227
 20
889.6655010577037
 30
0.0
 11
2035.667045429263
 21
890.4525913629699
 31
0.0
  0
LINE
  5
A96
330
9E7
100
AcDbEntity
  8
0
  6
Continuous
 62
     7
370
    15
100
AcDbLine
 10
2032.537828737607
 20
890.2976491375374
 30
0.0
 11
2034.68244495227
 21
889.6655010577037
 31
0.0
  0
LINE
  5
A97
330
9E7
100
AcDbEntity
  8
0
  6
Continuous
 62
     7
370
    15
100
AcDbLine
 10
2034.29963344609
 20
888.4499952727336
 30
0.0
 11
2032.155017231427
 21
889.0821433525673
 31
0.0
  0
LINE
  5
A98
330
9E7
100
AcDbEntity
  8
0
  6
Continuous
 62
     7
370
    15
100
AcDbLine
 10
2032.155017231427
 20
889.0821433525673
 30
0.0
 11
2032.537828737607
 21
890.2976491375374
 31
0.0
  0
LINE
  5
A99
330
9E7
100
AcDbEntity
  8
0
  6
Continuous
 62
     7
370
    15
100
AcDbLine
 10
2033.063244369679
 20
878.2957065168734
 30
0.0
 11
2035.207860584343
 21
877.6635584370399
 31
0.0
  0
LINE
  5
A9A
330
9E7
100
AcDbEntity
  8
0
  6
Continuous
 62
     7
370
    15
100
AcDbLine
 10
2033.063244369679
 20
878.2957065168734
 30
0.0
 11
2032.155017231427
 21
889.0821433525673
 31
0.0
  0
LINE
  5
A9B
330
9E7
100
AcDbEntity
  8
0
  6
Continuous
 62
     7
370
    15
100
AcDbLine
 10
2032.537828737607
 20
890.2976491375374
 30
0.0
 11
2033.724651892073
 21
891.2463963916513
 31
0.0
  0
LINE
  5
A9C
330
9E7
100
AcDbEntity
  8
0
  6
Continuous
 62
     7
370
    15
100
AcDbLine
 10
2044.781480988055
 20
874.7343421452153
 30
0.0
 11
2046.926097002986
 21
874.102194124255
 31
0.0
  0
LINE
  5
A9D
330
9E7
100
AcDbEntity
  8
0
  6
Continuous
 62
     7
370
    15
100
AcDbLine
 10
2044.644170131267
 20
874.8821074156323
 30
0.0
 11
2044.781480988055
 21
874.7343421452153
 31
0.0
  0
LINE
  5
A9E
330
9E7
100
AcDbEntity
  8
0
  6
Continuous
 62
     7
370
    15
100
AcDbLine
 10
2044.686688628766
 20
868.3608015472627
 30
0.0
 11
2046.831304643697
 21
867.7286535263023
 31
0.0
  0
LINE
  5
A9F
330
9E7
100
AcDbEntity
  8
0
  6
Continuous
 62
     7
370
    15
100
AcDbLine
 10
2046.361412972814
 20
870.4572599074825
 30
0.0
 11
2048.506028987745
 21
869.8251118865224
 31
0.0
  0
LINE
  5
AA0
330
9E7
100
AcDbEntity
  8
0
  6
Continuous
 62
     7
370
    15
100
AcDbLine
 10
2046.361412972814
 20
870.4572599074825
 30
0.0
 11
2044.686688628766
 21
868.3608015472627
 31
0.0
  0
LINE
  5
AA1
330
9E7
100
AcDbEntity
  8
0
  6
Continuous
 62
     7
370
    15
100
AcDbLine
 10
2044.673133540039
 20
866.5762115460822
 30
0.0
 11
2046.81774955497
 21
865.944063525122
 31
0.0
  0
LINE
  5
AA2
330
9E7
100
AcDbEntity
  8
0
  6
Continuous
 62
     7
370
    15
100
AcDbLine
 10
2044.686688628766
 20
868.3608015472627
 30
0.0
 11
2044.673133540039
 21
866.5762115460822
 31
0.0
  0
ELLIPSE
  5
AA3
330
9E7
100
AcDbEntity
  8
0
  6
Continuous
 62
     7
370
    15
100
AcDbEllipse
 10
2061.668462083682
 20
872.1448538033905
 30
0.0
 11
14.95162432429859
 21
4.433321668119162
 31
0.0
210
0.0
220
0.0
230
1.0
 40
0.7005258550916641
 41
2.515887835452598
 42
2.779741179401115
  0
LINE
  5
AA4
330
9E7
100
AcDbEntity
  8
0
  6
Continuous
 62
     7
370
    15
100
AcDbLine
 10
2045.271756361226
 20
869.9206599871637
 30
0.0
 11
2046.585638021914
 21
871.7064839714444
 31
0.0
  0
LINE
  5
AA5
330
9E7
100
AcDbEntity
  8
0
  6
Continuous
 62
     7
370
    15
100
AcDbLine
 10
2036.195741627316
 20
872.5959103407483
 30
0.0
 11
2045.271756361226
 21
869.9206599871637
 31
0.0
  0
LINE
  5
AA6
330
9E7
100
AcDbEntity
  8
0
  6
Continuous
 62
     7
370
    15
100
AcDbLine
 10
2036.195741627316
 20
872.5959103407483
 30
0.0
 11
2037.509623288004
 21
874.381734325029
 31
0.0
  0
ELLIPSE
  5
AA7
330
9E7
100
AcDbEntity
  8
0
  6
Continuous
 62
     7
370
    15
100
AcDbEllipse
 10
2028.314437180426
 20
881.9806023440605
 30
0.0
 11
14.97575016810839
 21
4.440475247142018
 31
0.0
210
0.0
220
0.0
230
0.9999999999999998
 40
0.7005258550916622
 41
5.152555998148149
 42
5.336520322836149
  0
LINE
  5
AA8
330
9E7
100
AcDbEntity
  8
0
  6
Continuous
 62
     7
370
    15
100
AcDbLine
 10
2036.016731030845
 20
867.5332314801991
 30
0.0
 11
2033.872115615113
 21
868.1653793245391
 31
0.0
  0
LINE
  5
AA9
330
9E7
100
AcDbEntity
  8
0
  6
Continuous
 62
     7
370
    15
100
AcDbLine
 10
2033.872115615113
 20
868.1653793245391
 30
0.0
 11
2033.882893725715
 21
869.5843673370776
 31
0.0
  0
LINE
  5
AAA
330
9E7
100
AcDbEntity
  8
0
  6
Continuous
 62
     7
370
    15
100
AcDbLine
 10
2035.794387799514
 20
869.3778457293335
 30
0.0
 11
2035.995899937058
 21
869.3184479172959
 31
0.0
  0
LINE
  5
AAB
330
9E7
100
AcDbEntity
  8
0
  6
Continuous
 62
     7
370
    15
100
AcDbLine
 10
2035.995899937058
 20
869.3184479172959
 30
0.0
 11
2036.016568092653
 21
872.0395060055356
 31
0.0
  0
LINE
  5
AAC
330
9E7
100
AcDbEntity
  8
0
  6
Continuous
 62
     7
370
    15
100
AcDbLine
 10
2036.016568092653
 20
872.0395060055356
 30
0.0
 11
2045.092582826564
 21
869.364255651951
 31
0.0
  0
LINE
  5
AAD
330
9E7
100
AcDbEntity
  8
0
  6
Continuous
 62
     7
370
    15
100
AcDbLine
 10
2045.088784237559
 20
868.8641538751987
 30
0.0
 11
2045.092582826564
 21
869.364255651951
 31
0.0
  0
LINE
  5
AAE
330
9E7
100
AcDbEntity
  8
0
  6
Continuous
 62
     7
370
    15
100
AcDbLine
 10
2047.1687335495
 20
864.2460619949249
 30
0.0
 11
2047.180822537932
 21
865.8376331246691
 31
0.0
  0
LINE
  5
AAF
330
9E7
100
AcDbEntity
  8
0
  6
Continuous
 62
     7
370
    15
100
AcDbLine
 10
2047.1687335495
 20
864.2460619949249
 30
0.0
 11
2045.024117734302
 21
864.8782099570116
 31
0.0
  0
LINE
  5
AB0
330
9E7
100
AcDbEntity
  8
0
  6
Continuous
 62
     7
370
    15
100
AcDbLine
 10
2045.024117734302
 20
864.8782099570116
 30
0.0
 11
2045.022064283533
 21
864.6078636844983
 31
0.0
  0
LINE
  5
AB1
330
9E7
100
AcDbEntity
  8
0
  6
Continuous
 62
     7
370
    15
100
AcDbLine
 10
2036.010942459608
 20
866.7711393568286
 30
0.0
 11
2036.016731030845
 21
867.5332314801991
 31
0.0
  0
LINE
  5
AB2
330
9E7
100
AcDbEntity
  8
0
  6
Continuous
 62
     7
370
    15
100
AcDbLine
 10
2044.853316616377
 20
866.3507197945788
 30
0.0
 11
2046.997932631308
 21
865.7185717736188
 31
0.0
  0
LINE
  5
AB3
330
9E7
100
AcDbEntity
  8
0
  6
Continuous
 62
     7
370
    15
100
AcDbLine
 10
2044.673133540039
 20
866.5762115460822
 30
0.0
 11
2044.853316616377
 21
866.3507197945788
 31
0.0
  0
ARC
  5
AB4
330
9E7
100
AcDbEntity
  8
0
  6
Continuous
 62
     7
370
    15
100
AcDbCircle
 10
2046.107767505813
 20
869.3443964295589
 30
0.0
 40
1.015378905481842
100
AcDbArc
 50
145.4214543200466
 51
178.8793127591301
  0
LINE
  5
AB5
330
9E7
100
AcDbEntity
  8
0
  6
Continuous
 62
     7
370
    15
100
AcDbLine
 10
2046.58355310722
 20
871.4319953280302
 30
0.0
 11
2046.585638021914
 21
871.7064839714444
 31
0.0
  0
ARC
  5
AB6
330
9E7
100
AcDbEntity
  8
0
  6
Continuous
 62
     7
370
    15
100
AcDbCircle
 10
2045.652857277211
 20
869.480966519562
 30
0.0
 40
0.4061827314791658
100
AcDbArc
 50
145.4325426655737
 51
178.8784883252878
  0
LINE
  5
AB7
330
9E7
100
AcDbEntity
  8
0
  6
Continuous
 62
     7
370
    15
100
AcDbLine
 10
2045.24675235654
 20
869.4889166616205
 30
0.0
 11
2045.243477775376
 21
869.057802935946
 31
0.0
  0
LINE
  5
AB8
330
9E7
100
AcDbEntity
  8
0
  6
Continuous
 62
     7
370
    15
100
AcDbLine
 10
2046.58355310722
 20
871.4319953280302
 30
0.0
 11
2045.318382549732
 21
869.7114249063249
 31
0.0
  0
ARC
  5
AB9
330
9E7
100
AcDbEntity
  8
0
  6
Continuous
 62
     7
370
    15
100
AcDbCircle
 10
2037.031752771903
 20
872.0196467831438
 30
0.0
 40
1.015378905481299
100
AcDbArc
 50
145.4214543200284
 51
178.8793127591431
  0
ARC
  5
ABA
330
9E7
100
AcDbEntity
  8
0
  6
Continuous
 62
     7
370
    15
100
AcDbCircle
 10
2046.42972136807
 20
870.4176794444979
 30
0.0
 40
0.0789471336554525
100
AcDbArc
 50
86.47431183257413
 51
149.9103781198013
  0
LINE
  5
ABB
330
9E7
100
AcDbEntity
  8
0
  6
Continuous
 62
     7
370
    15
100
AcDbLine
 10
2047.32135653947
 20
864.3886764998779
 30
0.0
 11
2047.333115329811
 21
865.936775526821
 31
0.0
  0
LINE
  5
ABC
330
9E7
100
AcDbEntity
  8
0
  6
Continuous
 62
     7
370
    15
100
AcDbLine
 10
2047.182177605066
 20
864.2568091822832
 30
0.0
 11
2047.32135653947
 21
864.3886764998779
 31
0.0
  0
LINE
  5
ABD
330
9E7
100
AcDbEntity
  8
0
  6
Continuous
 62
     7
370
    15
100
AcDbLine
 10
2047.182177605066
 20
864.2568091822832
 30
0.0
 11
2047.1687335495
 21
864.2460619949249
 31
0.0
  0
LINE
  5
ABE
330
9E7
100
AcDbEntity
  8
0
  6
Continuous
 62
     7
370
    15
100
AcDbLine
 10
2044.653166361078
 20
863.9474402674743
 30
0.0
 11
2046.797782376009
 21
863.3152922465139
 31
0.0
  0
LINE
  5
ABF
330
9E7
100
AcDbEntity
  8
0
  6
Continuous
 62
     7
370
    15
100
AcDbLine
 10
2044.857092187001
 20
864.4515581038845
 30
0.0
 11
2047.001708201932
 21
863.8194100829242
 31
0.0
  0
LINE
  5
AC0
330
9E7
100
AcDbEntity
  8
0
  6
Continuous
 62
     7
370
    15
100
AcDbLine
 10
2044.857092187001
 20
864.4515581038845
 30
0.0
 11
2044.653166361078
 21
863.9474402674743
 31
0.0
  0
LINE
  5
AC1
330
9E7
100
AcDbEntity
  8
0
  6
Continuous
 62
     7
370
    15
100
AcDbLine
 10
2033.200555226466
 20
878.1479412464562
 30
0.0
 11
2035.345171441131
 21
877.5157931666226
 31
0.0
  0
LINE
  5
AC2
330
9E7
100
AcDbEntity
  8
0
  6
Continuous
 62
     7
370
    15
100
AcDbLine
 10
2033.200555226466
 20
878.1479412464562
 30
0.0
 11
2033.063244369679
 21
878.2957065168734
 31
0.0
  0
LINE
  5
AC3
330
9E7
100
AcDbEntity
  8
0
  6
Continuous
 62
     7
370
    15
100
AcDbLine
 10
2047.32135653947
 20
864.3886764998779
 30
0.0
 11
2047.535818360669
 21
864.3254616330212
 31
0.0
  0
LINE
  5
AC4
330
9E7
100
AcDbEntity
  8
0
  6
Continuous
 62
     7
370
    15
100
AcDbLine
 10
2044.644484227813
 20
862.8043973464137
 30
0.0
 11
2046.789100242744
 21
862.1722493254535
 31
0.0
  0
LINE
  5
AC5
330
9E7
100
AcDbEntity
  8
0
  6
Continuous
 62
     7
370
    15
100
AcDbLine
 10
2044.653166361078
 20
863.9474402674743
 30
0.0
 11
2044.644484227813
 21
862.8043973464137
 31
0.0
  0
ELLIPSE
  5
AC6
330
9E7
100
AcDbEntity
  8
0
  6
Continuous
 62
     7
370
    15
100
AcDbEllipse
 10
2061.666394261374
 20
871.8726154514591
 30
0.0
 11
14.95008277195245
 21
4.442693400492032
 31
0.0
210
0.0
220
0.0
230
1.0
 40
0.7007424749731554
 41
2.472233523778008
 42
2.779235458454026
  0
LINE
  5
AC7
330
9E7
100
AcDbEntity
  8
0
  6
Continuous
 62
     7
370
    15
100
AcDbLine
 10
2045.240181616432
 20
864.8145225736316
 30
0.0
 11
2044.857092187001
 21
864.4515581038845
 31
0.0
  0
LINE
  5
AC8
330
9E7
100
AcDbEntity
  8
0
  6
Continuous
 62
     7
370
    15
100
AcDbLine
 10
2046.692854893052
 20
870.4431521005778
 30
0.0
 11
2048.837470907982
 21
869.8110040796175
 31
0.0
  0
LINE
  5
AC9
330
9E7
100
AcDbEntity
  8
0
  6
Continuous
 62
     7
370
    15
100
AcDbLine
 10
2046.683808860253
 20
870.4230126918004
 30
0.0
 11
2046.692854893052
 21
870.4431521005778
 31
0.0
  0
LINE
  5
ACA
330
9E7
100
AcDbEntity
  8
0
  6
Continuous
 62
     7
370
    15
100
AcDbLine
 10
2046.83561159294
 20
870.7960549764969
 30
0.0
 11
2048.980227607871
 21
870.1639069555366
 31
0.0
  0
LINE
  5
ACB
330
9E7
100
AcDbEntity
  8
0
  6
Continuous
 62
     7
370
    15
100
AcDbLine
 10
2046.83561159294
 20
870.7960549764969
 30
0.0
 11
2046.692854893052
 21
870.4431521005778
 31
0.0
  0
LWPOLYLINE
  5
ACC
330
9E7
100
AcDbEntity
  8
0
  6
Continuous
 62
     7
370
    15
100
AcDbPolyline
 90
        8
 70
   128
 43
0.0
 10
2046.950259111052
 20
870.9087143511155
 10
2046.93596952015
 20
870.9100172091051
 10
2046.918805721773
 20
870.9051526172165
 10
2046.900908910218
 20
870.8938363275928
 10
2046.882967349812
 20
870.876503397776
 10
2046.865668193277
 20
870.8538182795674
 10
2046.849678298555
 20
870.8266542134246
 10
2046.83561159294
 20
870.7960549764969
  0
LINE
  5
ACD
330
9E7
100
AcDbEntity
  8
0
  6
Continuous
 62
     7
370
    15
100
AcDbLine
 10
2044.825812302551
 20
862.6380940803786
 30
0.0
 11
2046.970428317482
 21
862.0059460594182
 31
0.0
  0
LINE
  5
ACE
330
9E7
100
AcDbEntity
  8
0
  6
Continuous
 62
     7
370
    15
100
AcDbLine
 10
2044.644484227813
 20
862.8043973464137
 30
0.0
 11
2044.825812302551
 21
862.6380940803786
 31
0.0
  0
LINE
  5
ACF
330
9E7
100
AcDbEntity
  8
0
  6
Continuous
 62
     7
370
    15
100
AcDbLine
 10
2047.208537699926
 20
870.8553892946156
 30
0.0
 11
2049.353153714857
 21
870.2232412736554
 31
0.0
  0
LINE
  5
AD0
330
9E7
100
AcDbEntity
  8
0
  6
Continuous
 62
     7
370
    15
100
AcDbLine
 10
2047.199491667128
 20
870.8352498858381
 30
0.0
 11
2047.208537699926
 21
870.8553892946156
 31
0.0
  0
LINE
  5
AD1
330
9E7
100
AcDbEntity
  8
0
  6
Continuous
 62
     7
370
    15
100
AcDbLine
 10
2047.35129344267
 20
871.2082914053924
 30
0.0
 11
2049.495909457601
 21
870.5761433844322
 31
0.0
  0
LINE
  5
AD2
330
9E7
100
AcDbEntity
  8
0
  6
Continuous
 62
     7
370
    15
100
AcDbLine
 10
2047.35129344267
 20
871.2082914053924
 30
0.0
 11
2047.208537699926
 21
870.8553892946156
 31
0.0
  0
LWPOLYLINE
  5
AD3
330
9E7
100
AcDbEntity
  8
0
  6
Continuous
 62
     7
370
    15
100
AcDbPolyline
 90
        8
 70
   128
 43
0.0
 10
2047.465940960782
 20
871.3209507800112
 10
2047.451652327025
 20
871.3222544031429
 10
2047.434488528648
 20
871.3173898112543
 10
2047.416591717093
 20
871.3060735216306
 10
2047.398649199543
 20
871.2887398266717
 10
2047.381351000152
 20
871.2660554736052
 10
2047.36536110543
 20
871.2388914074624
 10
2047.35129344267
 20
871.2082914053924
  0
LINE
  5
AD4
330
9E7
100
AcDbEntity
  8
0
  6
Continuous
 62
     7
370
    15
100
AcDbLine
 10
2047.724220506801
 20
871.2676264886535
 30
0.0
 11
2049.868836521732
 21
870.6354784676932
 31
0.0
  0
LINE
  5
AD5
330
9E7
100
AcDbEntity
  8
0
  6
Continuous
 62
     7
370
    15
100
AcDbLine
 10
2047.715174474003
 20
871.2474870798759
 30
0.0
 11
2047.724220506801
 21
871.2676264886535
 31
0.0
  0
LINE
  5
AD6
330
9E7
100
AcDbEntity
  8
0
  6
Continuous
 62
     7
370
    15
100
AcDbLine
 10
2047.866976249545
 20
871.6205285994302
 30
0.0
 11
2050.011592264476
 21
870.98838057847
 31
0.0
  0
LINE
  5
AD7
330
9E7
100
AcDbEntity
  8
0
  6
Continuous
 62
     7
370
    15
100
AcDbLine
 10
2047.866976249545
 20
871.6205285994302
 30
0.0
 11
2047.724220506801
 21
871.2676264886535
 31
0.0
  0
LWPOLYLINE
  5
AD8
330
9E7
100
AcDbEntity
  8
0
  6
Continuous
 62
     7
370
    15
100
AcDbPolyline
 90
        8
 70
   128
 43
0.0
 10
2047.981623767658
 20
871.7331879740489
 10
2047.967334655328
 20
871.7344912146096
 10
2047.950171335523
 20
871.7296270052923
 10
2047.932274523968
 20
871.7183107156683
 10
2047.914332006417
 20
871.7009770207097
 10
2047.897033328454
 20
871.678292285072
 10
2047.881043433732
 20
871.6511282189291
 10
2047.866976249545
 20
871.6205285994302
  0
LINE
  5
AD9
330
9E7
100
AcDbEntity
  8
0
  6
Continuous
 62
     7
370
    15
100
AcDbLine
 10
2045.176397611273
 20
864.7540894257311
 30
0.0
 11
2045.176998100439
 21
864.8331465962971
 31
0.0
  0
LWPOLYLINE
  5
ADA
330
9E7
100
AcDbEntity
  8
0
  6
Continuous
 62
     7
370
    15
100
AcDbPolyline
 90
        7
 70
   128
 43
0.0
 10
2036.126507229358
 20
866.4969314875943
 10
2036.122363727617
 20
866.4982504448975
 10
2036.08384367534
 20
866.521595679886
 10
2036.052394480529
 20
866.5624227523339
 10
2036.029226700998
 20
866.6191642949028
 10
2036.0152303927
 20
866.6896395237957
 10
2036.010942459608
 20
866.7711393568286
  0
LINE
  5
ADB
330
9E7
100
AcDbEntity
  8
0
  6
Continuous
 62
     7
370
    15
100
AcDbLine
 10
2048.239902835104
 20
871.6798633001202
 30
0.0
 11
2050.384518850035
 21
871.04771527916
 31
0.0
  0
LINE
  5
ADC
330
9E7
100
AcDbEntity
  8
0
  6
Continuous
 62
     7
370
    15
100
AcDbLine
 10
2048.230856802305
 20
871.6597238913426
 30
0.0
 11
2048.239902835104
 21
871.6798633001202
 31
0.0
  0
LINE
  5
ADD
330
9E7
100
AcDbEntity
  8
0
  6
Continuous
 62
     7
370
    15
100
AcDbLine
 10
2048.38265905642
 20
872.0327657934682
 30
0.0
 11
2050.527275071351
 21
871.4006177725078
 31
0.0
  0
LINE
  5
ADE
330
9E7
100
AcDbEntity
  8
0
  6
Continuous
 62
     7
370
    15
100
AcDbLine
 10
2048.38265905642
 20
872.0327657934682
 30
0.0
 11
2048.239902835104
 21
871.6798633001202
 31
0.0
  0
LWPOLYLINE
  5
ADF
330
9E7
100
AcDbEntity
  8
0
  6
Continuous
 62
     7
370
    15
100
AcDbPolyline
 90
        8
 70
   128
 43
0.0
 10
2048.497306574532
 20
872.1454251680867
 10
2048.483017462203
 20
872.1467284086475
 10
2048.465854142397
 20
872.1418641993301
 10
2048.447957330843
 20
872.1305479097063
 10
2048.430014813293
 20
872.1132142147475
 10
2048.412716135329
 20
872.0905294791098
 10
2048.396725762035
 20
872.0633650303959
 10
2048.38265905642
 20
872.0327657934682
  0
LINE
  5
AE0
330
9E7
100
AcDbEntity
  8
0
  6
Continuous
 62
     7
370
    15
100
AcDbLine
 10
2048.755585163406
 20
872.0921001115868
 30
0.0
 11
2050.900201178337
 21
871.4599520906267
 31
0.0
  0
LINE
  5
AE1
330
9E7
100
AcDbEntity
  8
0
  6
Continuous
 62
     7
370
    15
100
AcDbLine
 10
2048.74653960918
 20
872.0719610853805
 30
0.0
 11
2048.755585163406
 21
872.0921001115868
 31
0.0
  0
LINE
  5
AE2
330
9E7
100
AcDbEntity
  8
0
  6
Continuous
 62
     7
370
    15
100
AcDbLine
 10
2048.898341384722
 20
872.4450026049348
 30
0.0
 11
2051.042957399654
 21
871.8128545839746
 31
0.0
  0
LINE
  5
AE3
330
9E7
100
AcDbEntity
  8
0
  6
Continuous
 62
     7
370
    15
100
AcDbLine
 10
2048.898341384722
 20
872.4450026049348
 30
0.0
 11
2048.755585163406
 21
872.0921001115868
 31
0.0
  0
LINE
  5
AE4
330
9E7
100
AcDbEntity
  8
0
  6
Continuous
 62
     7
370
    15
100
AcDbLine
 10
2033.105762867178
 20
871.7744006485036
 30
0.0
 11
2035.250379081842
 21
871.14225256867
 31
0.0
  0
LINE
  5
AE5
330
9E7
100
AcDbEntity
  8
0
  6
Continuous
 62
     7
370
    15
100
AcDbLine
 10
2033.105762867178
 20
871.7744006485036
 30
0.0
 11
2034.780487211227
 21
873.8708590087234
 31
0.0
  0
LWPOLYLINE
  5
AE6
330
9E7
100
AcDbEntity
  8
0
  6
Continuous
 62
     7
370
    15
100
AcDbPolyline
 90
        8
 70
   128
 43
0.0
 10
2049.012989381407
 20
872.5576623621245
 10
2048.998699790505
 20
872.5589652201142
 10
2048.9815364707
 20
872.5541010107967
 10
2048.963639659145
 20
872.5427847211729
 10
2048.945697141595
 20
872.5254510262143
 10
2048.928398463632
 20
872.5027662905766
 10
2048.912408568909
 20
872.4756022244337
 10
2048.898341384722
 20
872.4450026049348
  0
LINE
  5
AE7
330
9E7
100
AcDbEntity
  8
0
  6
Continuous
 62
     7
370
    15
100
AcDbLine
 10
2033.092207778451
 20
869.9898106473233
 30
0.0
 11
2035.236823993115
 21
869.3576625674896
 31
0.0
  0
LINE
  5
AE8
330
9E7
100
AcDbEntity
  8
0
  6
Continuous
 62
     7
370
    15
100
AcDbLine
 10
2033.092207778451
 20
869.9898106473233
 30
0.0
 11
2033.105762867178
 21
871.7744006485036
 31
0.0
  0
LINE
  5
AE9
330
9E7
100
AcDbEntity
  8
0
  6
Continuous
 62
     7
370
    15
100
AcDbLine
 10
2051.284091740704
 20
871.8146781286062
 30
0.0
 11
2051.361076396659
 21
871.7919860953621
 31
0.0
  0
LINE
  5
AEA
330
9E7
100
AcDbEntity
  8
0
  6
Continuous
 62
     7
370
    15
100
AcDbLine
 10
2049.266129059963
 20
872.5002292571463
 30
0.0
 11
2051.410745074893
 21
871.8680812361862
 31
0.0
  0
LINE
  5
AEB
330
9E7
100
AcDbEntity
  8
0
  6
Continuous
 62
     7
370
    15
100
AcDbLine
 10
2049.408885759851
 20
872.8531321330654
 30
0.0
 11
2051.553501774782
 21
872.2209841121053
 31
0.0
  0
LINE
  5
AEC
330
9E7
100
AcDbEntity
  8
0
  6
Continuous
 62
     7
370
    15
100
AcDbLine
 10
2049.408885759851
 20
872.8531321330654
 30
0.0
 11
2049.266129059963
 21
872.5002292571463
 31
0.0
  0
LWPOLYLINE
  5
AED
330
9E7
100
AcDbEntity
  8
0
  6
Continuous
 62
     7
370
    15
100
AcDbPolyline
 90
        3
 70
   128
 43
0.0
 10
2049.259468286981
 20
872.485009764634
 10
2049.260974117924
 20
872.4882491789065
 10
2049.266129059963
 20
872.5002292571463
  0
LWPOLYLINE
  5
AEE
330
9E7
100
AcDbEntity
  8
0
  6
Continuous
 62
     7
370
    15
100
AcDbPolyline
 90
        8
 70
   128
 43
0.0
 10
2049.523533277964
 20
872.965791507684
 10
2049.509243687062
 20
872.9670943656737
 10
2049.492080367256
 20
872.9622301563564
 10
2049.474184034274
 20
872.9509142493036
 10
2049.456241516724
 20
872.9335805543447
 10
2049.43894283876
 20
872.9108958187071
 10
2049.422952465466
 20
872.8837313699932
 10
2049.408885759851
 20
872.8531321330654
  0
LINE
  5
AEF
330
9E7
100
AcDbEntity
  8
0
  6
Continuous
 62
     7
370
    15
100
AcDbLine
 10
2033.272390854789
 20
869.7643188958199
 30
0.0
 11
2035.417007069453
 21
869.1321708159865
 31
0.0
  0
LINE
  5
AF0
330
9E7
100
AcDbEntity
  8
0
  6
Continuous
 62
     7
370
    15
100
AcDbLine
 10
2033.272390854789
 20
869.7643188958199
 30
0.0
 11
2033.092207778451
 21
869.9898106473233
 31
0.0
  0
LINE
  5
AF1
330
9E7
100
AcDbEntity
  8
0
  6
Continuous
 62
     7
370
    15
100
AcDbLine
 10
2051.791825993908
 20
872.2253843671623
 30
0.0
 11
2051.873279474143
 21
872.2013751011811
 31
0.0
  0
LINE
  5
AF2
330
9E7
100
AcDbEntity
  8
0
  6
Continuous
 62
     7
370
    15
100
AcDbLine
 10
2049.779992334613
 20
872.9110119158598
 30
0.0
 11
2051.924608349544
 21
872.2788638948994
 31
0.0
  0
LINE
  5
AF3
330
9E7
100
AcDbEntity
  8
0
  6
Continuous
 62
     7
370
    15
100
AcDbLine
 10
2049.922748555928
 20
873.2639144092075
 30
0.0
 11
2052.06736457086
 21
872.6317663882474
 31
0.0
  0
LINE
  5
AF4
330
9E7
100
AcDbEntity
  8
0
  6
Continuous
 62
     7
370
    15
100
AcDbLine
 10
2049.922748555928
 20
873.2639144092075
 30
0.0
 11
2049.779992334613
 21
872.9110119158598
 31
0.0
  0
LWPOLYLINE
  5
AF5
330
9E7
100
AcDbEntity
  8
0
  6
Continuous
 62
     7
370
    15
100
AcDbPolyline
 90
        3
 70
   128
 43
0.0
 10
2049.771803341693
 20
872.8926113316843
 10
2049.774675360566
 20
872.8986785130862
 10
2049.779992334613
 20
872.9110119158598
  0
LWPOLYLINE
  5
AF6
330
9E7
100
AcDbEntity
  8
0
  6
Continuous
 62
     7
370
    15
100
AcDbPolyline
 90
        8
 70
   128
 43
0.0
 10
2050.037396552613
 20
873.3765741663974
 10
2050.023106961711
 20
873.3778770243871
 10
2050.005943641906
 20
873.3730128150696
 10
2049.988046830352
 20
873.3616965254457
 10
2049.970104312802
 20
873.3443628304868
 10
2049.952805634838
 20
873.3216780948493
 10
2049.936815740116
 20
873.2945140287066
 10
2049.922748555928
 20
873.2639144092075
  0
LINE
  5
AF7
330
9E7
100
AcDbEntity
  8
0
  6
Continuous
 62
     7
370
    15
100
AcDbLine
 10
2052.305689268559
 20
872.6361670258757
 30
0.0
 11
2052.387142748793
 21
872.6121577598943
 31
0.0
  0
LINE
  5
AF8
330
9E7
100
AcDbEntity
  8
0
  6
Continuous
 62
     7
370
    15
100
AcDbLine
 10
2050.293855609263
 20
873.321794574573
 30
0.0
 11
2052.438471624194
 21
872.6896465536126
 31
0.0
  0
LINE
  5
AF9
330
9E7
100
AcDbEntity
  8
0
  6
Continuous
 62
     7
370
    15
100
AcDbLine
 10
2050.436611830579
 20
873.674697067921
 30
0.0
 11
2052.58122784551
 21
873.0425490469608
 31
0.0
  0
LINE
  5
AFA
330
9E7
100
AcDbEntity
  8
0
  6
Continuous
 62
     7
370
    15
100
AcDbLine
 10
2050.436611830579
 20
873.674697067921
 30
0.0
 11
2050.293855609263
 21
873.321794574573
 31
0.0
  0
LWPOLYLINE
  5
AFB
330
9E7
100
AcDbEntity
  8
0
  6
Continuous
 62
     7
370
    15
100
AcDbPolyline
 90
        3
 70
   128
 43
0.0
 10
2050.285666616343
 20
873.3033939903977
 10
2050.288538635216
 20
873.3094611717994
 10
2050.293855609263
 20
873.321794574573
  0
LWPOLYLINE
  5
AFC
330
9E7
100
AcDbEntity
  8
0
  6
Continuous
 62
     7
370
    15
100
AcDbPolyline
 90
        8
 70
   128
 43
0.0
 10
2050.551259348691
 20
873.7873564425395
 10
2050.536970236362
 20
873.7886596831003
 10
2050.519806916556
 20
873.7837954737829
 10
2050.501910105002
 20
873.7724791841591
 10
2050.483967587451
 20
873.7551454892003
 10
2050.466668909488
 20
873.7324607535626
 10
2050.450679014766
 20
873.7052966874198
 10
2050.436611830579
 20
873.674697067921
  0
LINE
  5
AFD
330
9E7
100
AcDbEntity
  8
0
  6
Continuous
 62
     7
370
    15
100
AcDbLine
 10
2035.997178264261
 20
869.4867455742526
 30
0.0
 11
2035.969911525402
 21
869.4947827309688
 31
0.0
  0
LWPOLYLINE
  5
AFE
330
9E7
100
AcDbEntity
  8
0
  6
Continuous
 62
     7
370
    15
100
AcDbPolyline
 90
        8
 70
   128
 43
0.0
 10
2034.780487211227
 20
873.8708590087234
 10
2034.792301928609
 20
873.8842752707592
 10
2034.8043012989
 20
873.895198999938
 10
2034.816280319613
 20
873.9034436131843
 10
2034.828033378124
 20
873.9088674475693
 10
2034.839360951687
 20
873.9113791163083
 10
2034.850068637897
 20
873.9109351119994
 10
2034.85365054259
 20
873.9100762583186
  0
LINE
  5
AFF
330
9E7
100
AcDbEntity
  8
0
  6
Continuous
 62
     7
370
    15
100
AcDbLine
 10
2060.570650729605
 20
898.8902921828451
 30
0.0
 11
2061.668423585421
 21
898.5667121417389
 31
0.0
  0
LINE
  5
B00
330
9E7
100
AcDbEntity
  8
0
  6
Continuous
 62
     7
370
    15
100
AcDbLine
 10
2033.276166425413
 20
867.8651572051256
 30
0.0
 11
2035.420782640077
 21
867.2330091252918
 31
0.0
  0
LINE
  5
B01
330
9E7
100
AcDbEntity
  8
0
  6
Continuous
 62
     7
370
    15
100
AcDbLine
 10
2033.07224059949
 20
867.3610393687154
 30
0.0
 11
2035.216856814153
 21
866.7288912888816
 31
0.0
  0
LINE
  5
B02
330
9E7
100
AcDbEntity
  8
0
  6
Continuous
 62
     7
370
    15
100
AcDbLine
 10
2033.07224059949
 20
867.3610393687154
 30
0.0
 11
2033.276166425413
 21
867.8651572051256
 31
0.0
  0
LINE
  5
B03
330
9E7
100
AcDbEntity
  8
0
  6
Continuous
 62
     7
370
    15
100
AcDbLine
 10
2033.063558466225
 20
866.2179964476548
 30
0.0
 11
2035.208174680889
 21
865.5858483678212
 31
0.0
  0
LINE
  5
B04
330
9E7
100
AcDbEntity
  8
0
  6
Continuous
 62
     7
370
    15
100
AcDbLine
 10
2033.063558466225
 20
866.2179964476548
 30
0.0
 11
2033.07224059949
 21
867.3610393687154
 31
0.0
  0
LINE
  5
B05
330
9E7
100
AcDbEntity
  8
0
  6
Continuous
 62
     7
370
    15
100
AcDbLine
 10
2033.81027658415
 20
868.3712087552224
 30
0.0
 11
2033.873536792466
 21
868.3525621465923
 31
0.0
  0
LINE
  5
B06
330
9E7
100
AcDbEntity
  8
0
  6
Continuous
 62
     7
370
    15
100
AcDbLine
 10
2033.276166425413
 20
867.8651572051256
 30
0.0
 11
2033.81027658415
 21
868.3712087552224
 31
0.0
  0
LINE
  5
B07
330
9E7
100
AcDbEntity
  8
0
  6
Continuous
 62
     7
370
    15
100
AcDbLine
 10
2052.901006023442
 20
873.0229404186077
 30
0.0
 11
2052.819552543208
 21
873.0469496845891
 31
0.0
  0
LINE
  5
B08
330
9E7
100
AcDbEntity
  8
0
  6
Continuous
 62
     7
370
    15
100
AcDbLine
 10
2035.111929131463
 20
873.8567512018189
 30
0.0
 11
2035.102883098665
 21
873.8366117930413
 31
0.0
  0
LINE
  5
B09
330
9E7
100
AcDbEntity
  8
0
  6
Continuous
 62
     7
370
    15
100
AcDbLine
 10
2050.807718883913
 20
873.7325772332862
 30
0.0
 11
2052.952334898844
 21
873.1004292123261
 31
0.0
  0
LINE
  5
B0A
330
9E7
100
AcDbEntity
  8
0
  6
Continuous
 62
     7
370
    15
100
AcDbLine
 10
2050.950475105229
 20
874.0854797266342
 30
0.0
 11
2053.09509112016
 21
873.453331705674
 31
0.0
  0
LINE
  5
B0B
330
9E7
100
AcDbEntity
  8
0
  6
Continuous
 62
     7
370
    15
100
AcDbLine
 10
2050.950475105229
 20
874.0854797266342
 30
0.0
 11
2050.807718883913
 21
873.7325772332862
 31
0.0
  0
LINE
  5
B0C
330
9E7
100
AcDbEntity
  8
0
  6
Continuous
 62
     7
370
    15
100
AcDbLine
 10
2035.111929131463
 20
873.8567512018189
 30
0.0
 11
2035.254685831352
 21
874.2096540777378
 31
0.0
  0
LWPOLYLINE
  5
B0D
330
9E7
100
AcDbEntity
  8
0
  6
Continuous
 62
     7
370
    15
100
AcDbPolyline
 90
        3
 70
   128
 43
0.0
 10
2050.799529412421
 20
873.71417626654
 10
2050.802401909866
 20
873.7202438305128
 10
2050.807718883913
 20
873.7325772332862
  0
LWPOLYLINE
  5
B0E
330
9E7
100
AcDbEntity
  8
0
  6
Continuous
 62
     7
370
    15
100
AcDbPolyline
 90
        8
 70
   128
 43
0.0
 10
2051.065122623342
 20
874.1981391012528
 10
2051.050833511011
 20
874.1994423418136
 10
2051.033670191207
 20
874.1945781324961
 10
2051.015773379652
 20
874.1832618428723
 10
2050.997830862101
 20
874.1659281479135
 10
2050.980532184138
 20
874.143243412276
 10
2050.964542289416
 20
874.1160793461331
 10
2050.950475105229
 20
874.0854797266342
  0
LWPOLYLINE
  5
B0F
330
9E7
100
AcDbEntity
  8
0
  6
Continuous
 62
     7
370
    15
100
AcDbPolyline
 90
        8
 70
   128
 43
0.0
 10
2035.254685831352
 20
874.2096540777378
 10
2035.268752536967
 20
874.2402533146655
 10
2035.284742431689
 20
874.2674173808083
 10
2035.302041588224
 20
874.2901024990171
 10
2035.31998314863
 20
874.3074354288337
 10
2035.337879960184
 20
874.3187517184576
 10
2035.355043758562
 20
874.323616310346
 10
2035.369333349464
 20
874.3223134523566
  0
LINE
  5
B10
330
9E7
100
AcDbEntity
  8
0
  6
Continuous
 62
     7
370
    15
100
AcDbLine
 10
2033.244886540963
 20
866.0516931816196
 30
0.0
 11
2035.389502755627
 21
865.4195451017859
 31
0.0
  0
LINE
  5
B11
330
9E7
100
AcDbEntity
  8
0
  6
Continuous
 62
     7
370
    15
100
AcDbLine
 10
2033.244886540963
 20
866.0516931816196
 30
0.0
 11
2033.063558466225
 21
866.2179964476548
 31
0.0
  0
LINE
  5
B12
330
9E7
100
AcDbEntity
  8
0
  6
Continuous
 62
     7
370
    15
100
AcDbLine
 10
2053.333415817859
 20
873.4577323433024
 30
0.0
 11
2053.414869298093
 21
873.433723077321
 31
0.0
  0
LINE
  5
B13
330
9E7
100
AcDbEntity
  8
0
  6
Continuous
 62
     7
370
    15
100
AcDbLine
 10
2035.627611938338
 20
874.2689883958567
 30
0.0
 11
2035.61856590554
 21
874.248848987079
 31
0.0
  0
LINE
  5
B14
330
9E7
100
AcDbEntity
  8
0
  6
Continuous
 62
     7
370
    15
100
AcDbLine
 10
2051.321582158563
 20
874.1433598919995
 30
0.0
 11
2053.466198173493
 21
873.5112118710395
 31
0.0
  0
LINE
  5
B15
330
9E7
100
AcDbEntity
  8
0
  6
Continuous
 62
     7
370
    15
100
AcDbLine
 10
2051.464338379879
 20
874.4962623853476
 30
0.0
 11
2053.60895439481
 21
873.8641143643873
 31
0.0
  0
LINE
  5
B16
330
9E7
100
AcDbEntity
  8
0
  6
Continuous
 62
     7
370
    15
100
AcDbLine
 10
2051.464338379879
 20
874.4962623853476
 30
0.0
 11
2051.321582158563
 21
874.1433598919995
 31
0.0
  0
LINE
  5
B17
330
9E7
100
AcDbEntity
  8
0
  6
Continuous
 62
     7
370
    15
100
AcDbLine
 10
2035.627611938338
 20
874.2689883958567
 30
0.0
 11
2035.770367681082
 21
874.6218905066335
 31
0.0
  0
LINE
  5
B18
330
9E7
100
AcDbEntity
  8
0
  6
Continuous
 62
     7
370
    15
100
AcDbLine
 10
2033.81027658415
 20
868.3712087552224
 30
0.0
 11
2033.81963292365
 21
869.6030140391533
 31
0.0
  0
LWPOLYLINE
  5
B19
330
9E7
100
AcDbEntity
  8
0
  6
Continuous
 62
     7
370
    15
100
AcDbPolyline
 90
        3
 70
   128
 43
0.0
 10
2051.31339268707
 20
874.1249589252532
 10
2051.316265184516
 20
874.1310264892261
 10
2051.321582158563
 20
874.1433598919995
  0
LWPOLYLINE
  5
B1A
330
9E7
100
AcDbEntity
  8
0
  6
Continuous
 62
     7
370
    15
100
AcDbPolyline
 90
        8
 70
   128
 43
0.0
 10
2051.578985897991
 20
874.6089217599662
 10
2051.564696785662
 20
874.610225000527
 10
2051.547533465857
 20
874.6053607912095
 10
2051.529636654302
 20
874.5940445015857
 10
2051.511694136752
 20
874.5767108066269
 10
2051.494395458788
 20
874.5540260709892
 10
2051.478405085494
 20
874.5268616222753
 10
2051.464338379879
 20
874.4962623853476
  0
LWPOLYLINE
  5
B1B
330
9E7
100
AcDbEntity
  8
0
  6
Continuous
 62
     7
370
    15
100
AcDbPolyline
 90
        8
 70
   128
 43
0.0
 10
2035.770367681082
 20
874.6218905066335
 10
2035.784435343842
 20
874.6524905087033
 10
2035.800425238564
 20
874.6796545748463
 10
2035.817723437955
 20
874.7023389279128
 10
2035.835665955505
 20
874.7196726228716
 10
2035.853562767059
 20
874.7309889124954
 10
2035.870726565437
 20
874.735853504384
 10
2035.885015199194
 20
874.7345498812521
  0
LINE
  5
B1C
330
9E7
100
AcDbEntity
  8
0
  6
Continuous
 62
     7
370
    15
100
AcDbLine
 10
2053.427625369699
 20
875.9024233221884
 30
0.0
 11
2055.57224138463
 21
875.2702753012284
 31
0.0
  0
LINE
  5
B1D
330
9E7
100
AcDbEntity
  8
0
  6
Continuous
 62
     7
370
    15
100
AcDbLine
 10
2053.4498959539
 20
878.8344485332416
 30
0.0
 11
2053.427625369699
 21
875.9024233221884
 31
0.0
  0
LINE
  5
B1E
330
9E7
100
AcDbEntity
  8
0
  6
Continuous
 62
     7
370
    15
100
AcDbLine
 10
2053.847278853222
 20
873.8685148107302
 30
0.0
 11
2053.928732333456
 21
873.8445055447488
 31
0.0
  0
LINE
  5
B1F
330
9E7
100
AcDbEntity
  8
0
  6
Continuous
 62
     7
370
    15
100
AcDbLine
 10
2036.143294745213
 20
874.6812255898944
 30
0.0
 11
2036.134248712415
 21
874.661086181117
 31
0.0
  0
LINE
  5
B20
330
9E7
100
AcDbEntity
  8
0
  6
Continuous
 62
     7
370
    15
100
AcDbLine
 10
2051.835445193926
 20
874.5541423594273
 30
0.0
 11
2053.980061208858
 21
873.9219943384672
 31
0.0
  0
LINE
  5
B21
330
9E7
100
AcDbEntity
  8
0
  6
Continuous
 62
     7
370
    15
100
AcDbLine
 10
2051.978201415243
 20
874.9070448527753
 30
0.0
 11
2054.122817430174
 21
874.2748968318151
 31
0.0
  0
LINE
  5
B22
330
9E7
100
AcDbEntity
  8
0
  6
Continuous
 62
     7
370
    15
100
AcDbLine
 10
2051.978201415243
 20
874.9070448527753
 30
0.0
 11
2051.835445193926
 21
874.5541423594273
 31
0.0
  0
LINE
  5
B23
330
9E7
100
AcDbEntity
  8
0
  6
Continuous
 62
     7
370
    15
100
AcDbLine
 10
2036.143294745213
 20
874.6812255898944
 30
0.0
 11
2036.286050487957
 21
875.0341277006713
 31
0.0
  0
LWPOLYLINE
  5
B24
330
9E7
100
AcDbEntity
  8
0
  6
Continuous
 62
     7
370
    15
100
AcDbPolyline
 90
        3
 70
   128
 43
0.0
 10
2051.827255961721
 20
874.5357415839665
 10
2051.83012821988
 20
874.5418089566539
 10
2051.835445193926
 20
874.5541423594273
  0
LWPOLYLINE
  5
B25
330
9E7
100
AcDbEntity
  8
0
  6
Continuous
 62
     7
370
    15
100
AcDbPolyline
 90
        8
 70
   128
 43
0.0
 10
2052.092849172641
 20
875.0197044186796
 10
2052.078559821025
 20
875.0210074679547
 10
2052.06139650122
 20
875.0161432586372
 10
2052.043499689666
 20
875.0048269690134
 10
2052.025557172115
 20
874.9874932740546
 10
2052.008258494152
 20
874.9648085384171
 10
2051.99226859943
 20
874.9376444722742
 10
2051.978201415243
 20
874.9070448527753
  0
LWPOLYLINE
  5
B26
330
9E7
100
AcDbEntity
  8
0
  6
Continuous
 62
     7
370
    15
100
AcDbPolyline
 90
        8
 70
   128
 43
0.0
 10
2036.286050487957
 20
875.0341277006713
 10
2036.300117672144
 20
875.0647273201701
 10
2036.316107566866
 20
875.0918913863129
 10
2036.33340624483
 20
875.1145761219506
 10
2036.35134876238
 20
875.1319098169094
 10
2036.369245573935
 20
875.1432261065332
 10
2036.38640889374
 20
875.1480903158507
 10
2036.400698006069
 20
875.14678707529
  0
LINE
  5
B27
330
9E7
100
AcDbEntity
  8
0
  6
Continuous
 62
     7
370
    15
100
AcDbLine
 10
2052.351127761515
 20
874.9663793621795
 30
0.0
 11
2054.495743776446
 21
874.3342313412195
 31
0.0
  0
LINE
  5
B28
330
9E7
100
AcDbEntity
  8
0
  6
Continuous
 62
     7
370
    15
100
AcDbLine
 10
2052.342082207289
 20
874.9462403359732
 30
0.0
 11
2052.351127761515
 21
874.9663793621795
 31
0.0
  0
LINE
  5
B29
330
9E7
100
AcDbEntity
  8
0
  6
Continuous
 62
     7
370
    15
100
AcDbLine
 10
2036.658977073516
 20
875.0934624013611
 30
0.0
 11
2036.649931040718
 21
875.0733229925836
 31
0.0
  0
LINE
  5
B2A
330
9E7
100
AcDbEntity
  8
0
  6
Continuous
 62
     7
370
    15
100
AcDbLine
 10
2052.493884222118
 20
875.3192820468132
 30
0.0
 11
2054.638500237048
 21
874.6871340258529
 31
0.0
  0
LINE
  5
B2B
330
9E7
100
AcDbEntity
  8
0
  6
Continuous
 62
     7
370
    15
100
AcDbLine
 10
2052.493884222118
 20
875.3192820468132
 30
0.0
 11
2052.351127761515
 21
874.9663793621795
 31
0.0
  0
LINE
  5
B2C
330
9E7
100
AcDbEntity
  8
0
  6
Continuous
 62
     7
370
    15
100
AcDbLine
 10
2036.658977073516
 20
875.0934624013611
 30
0.0
 11
2036.801733294832
 21
875.4463648947092
 31
0.0
  0
LWPOLYLINE
  5
B2D
330
9E7
100
AcDbEntity
  8
0
  6
Continuous
 62
     7
370
    15
100
AcDbPolyline
 90
        8
 70
   128
 43
0.0
 10
2052.60853174023
 20
875.4319414214318
 10
2052.594242388614
 20
875.433244470707
 10
2052.577079068809
 20
875.4283802613896
 10
2052.559182257255
 20
875.4170639717656
 10
2052.54123997899
 20
875.3997304680924
 10
2052.523941301027
 20
875.3770457324549
 10
2052.507951167019
 20
875.3498814750264
 10
2052.493884222118
 20
875.3192820468132
  0
LWPOLYLINE
  5
B2E
330
9E7
100
AcDbEntity
  8
0
  6
Continuous
 62
     7
370
    15
100
AcDbPolyline
 90
        8
 70
   128
 43
0.0
 10
2036.801733294832
 20
875.4463648947092
 10
2036.815800000447
 20
875.476964131637
 10
2036.831790373741
 20
875.5041285803509
 10
2036.849089051704
 20
875.5268133159884
 10
2036.867031569255
 20
875.5441470109472
 10
2036.88492838081
 20
875.5554633005711
 10
2036.902091700614
 20
875.5603275098886
 10
2036.916380812944
 20
875.5590242693278
  0
LINE
  5
B2F
330
9E7
100
AcDbEntity
  8
0
  6
Continuous
 62
     7
370
    15
100
AcDbLine
 10
2052.86681056839
 20
875.3786165562175
 30
0.0
 11
2055.011426583321
 21
874.7464685352571
 31
0.0
  0
LINE
  5
B30
330
9E7
100
AcDbEntity
  8
0
  6
Continuous
 62
     7
370
    15
100
AcDbLine
 10
2052.857764774878
 20
875.3584773387256
 30
0.0
 11
2052.86681056839
 21
875.3786165562175
 31
0.0
  0
LINE
  5
B31
330
9E7
100
AcDbEntity
  8
0
  6
Continuous
 62
     7
370
    15
100
AcDbLine
 10
2037.174659401818
 20
875.5056992128279
 30
0.0
 11
2037.165613847593
 21
875.4855601866216
 31
0.0
  0
LINE
  5
B32
330
9E7
100
AcDbEntity
  8
0
  6
Continuous
 62
     7
370
    15
100
AcDbLine
 10
2053.009566789706
 20
875.7315190495654
 30
0.0
 11
2055.154182804637
 21
875.0993710286051
 31
0.0
  0
LINE
  5
B33
330
9E7
100
AcDbEntity
  8
0
  6
Continuous
 62
     7
370
    15
100
AcDbLine
 10
2053.009566789706
 20
875.7315190495654
 30
0.0
 11
2052.86681056839
 21
875.3786165562175
 31
0.0
  0
LINE
  5
B34
330
9E7
100
AcDbEntity
  8
0
  6
Continuous
 62
     7
370
    15
100
AcDbLine
 10
2037.174659401818
 20
875.5056992128279
 30
0.0
 11
2037.317415623134
 21
875.8586017061759
 31
0.0
  0
LWPOLYLINE
  5
B35
330
9E7
100
AcDbEntity
  8
0
  6
Continuous
 62
     7
370
    15
100
AcDbPolyline
 90
        8
 70
   128
 43
0.0
 10
2053.124214307818
 20
875.844178424184
 10
2053.109925195489
 20
875.8454816647448
 10
2053.092761875684
 20
875.8406174554274
 10
2053.074865064129
 20
875.8293011658036
 10
2053.056922546579
 20
875.8119674708447
 10
2053.039623868616
 20
875.7892827352071
 10
2053.023633734607
 20
875.7621184777788
 10
2053.009566789706
 20
875.7315190495654
  0
LWPOLYLINE
  5
B36
330
9E7
100
AcDbEntity
  8
0
  6
Continuous
 62
     7
370
    15
100
AcDbPolyline
 90
        8
 70
   128
 43
0.0
 10
2037.317415623134
 20
875.8586017061759
 10
2037.331482807322
 20
875.8892013256748
 10
2037.347472702044
 20
875.9163653918177
 10
2037.364771380007
 20
875.9390501274552
 10
2037.382713897557
 20
875.9563838224138
 10
2037.400610709112
 20
875.9677001120378
 10
2037.417774028917
 20
875.9725643213553
 10
2037.432063619819
 20
875.9712614633656
  0
LINE
  5
B37
330
9E7
100
AcDbEntity
  8
0
  6
Continuous
 62
     7
370
    15
100
AcDbLine
 10
2053.382493135979
 20
875.7908535589697
 30
0.0
 11
2055.52710915091
 21
875.1587055380095
 31
0.0
  0
LINE
  5
B38
330
9E7
100
AcDbEntity
  8
0
  6
Continuous
 62
     7
370
    15
100
AcDbLine
 10
2053.373447342467
 20
875.7707143414778
 30
0.0
 11
2053.382493135979
 21
875.7908535589697
 31
0.0
  0
LINE
  5
B39
330
9E7
100
AcDbEntity
  8
0
  6
Continuous
 62
     7
370
    15
100
AcDbLine
 10
2037.685203298375
 20
875.9138283583874
 30
0.0
 11
2037.827959998264
 21
876.2667312343065
 31
0.0
  0
LWPOLYLINE
  5
B3A
330
9E7
100
AcDbEntity
  8
0
  6
Continuous
 62
     7
370
    15
100
AcDbPolyline
 90
        3
 70
   128
 43
0.0
 10
2037.685203298375
 20
875.9138283583874
 10
2037.680048356336
 20
875.9018482801476
 10
2037.678542525393
 20
875.8986088658751
  0
LINE
  5
B3B
330
9E7
100
AcDbEntity
  8
0
  6
Continuous
 62
     7
370
    15
100
AcDbLine
 10
2053.427625369699
 20
875.9024233221884
 30
0.0
 11
2053.382493135979
 21
875.7908535589697
 31
0.0
  0
LWPOLYLINE
  5
B3C
330
9E7
100
AcDbEntity
  8
0
  6
Continuous
 62
     7
370
    15
100
AcDbPolyline
 90
        8
 70
   128
 43
0.0
 10
2037.827959998264
 20
876.2667312343065
 10
2037.842026703878
 20
876.2973304712343
 10
2037.858017077172
 20
876.3244949199481
 10
2037.875315755135
 20
876.3471796555856
 10
2037.893258272686
 20
876.3645133505447
 10
2037.911154605668
 20
876.3758292575973
 10
2037.928317925473
 20
876.3806934669148
 10
2037.942607516376
 20
876.3793906089251
  0
LINE
  5
B3D
330
9E7
100
AcDbEntity
  8
0
  6
Continuous
 62
     7
370
    15
100
AcDbLine
 10
2038.199066573024
 20
876.3246110171007
 30
0.0
 11
2038.252561798673
 21
876.4568546303005
 31
0.0
  0
LWPOLYLINE
  5
B3E
330
9E7
100
AcDbEntity
  8
0
  6
Continuous
 62
     7
370
    15
100
AcDbPolyline
 90
        3
 70
   128
 43
0.0
 10
2038.199066573024
 20
876.3246110171007
 10
2038.193749598978
 20
876.3122776143273
 10
2038.190877580105
 20
876.3062104329254
  0
LINE
  5
B3F
330
9E7
100
AcDbEntity
  8
0
  6
Continuous
 62
     7
370
    15
100
AcDbLine
 10
2055.71072281967
 20
869.2382643273516
 30
0.0
 11
2055.68340087113
 21
869.1080513321141
 31
0.0
  0
LINE
  5
B40
330
9E7
100
AcDbEntity
  8
0
  6
Continuous
 62
     7
370
    15
100
AcDbLine
 10
2055.68340087113
 20
869.1080513321141
 30
0.0
 11
2054.849350262716
 21
869.0298126741764
 31
0.0
  0
LINE
  5
B41
330
9E7
100
AcDbEntity
  8
0
  6
Continuous
 62
     7
370
    15
100
AcDbLine
 10
2046.736368909976
 20
872.0531618786729
 30
0.0
 11
2047.917890576705
 21
871.7048959988396
 31
0.0
  0
LINE
  5
B42
330
9E7
100
AcDbEntity
  8
0
  6
Continuous
 62
     7
370
    15
100
AcDbLine
 10
2060.52578340766
 20
876.1087543830518
 30
0.0
 11
2061.235543115478
 21
875.8995452791697
 31
0.0
  0
SPLINE
  5
B43
330
9E7
100
AcDbEntity
  8
0
  6
Continuous
 62
     7
370
    15
100
AcDbSpline
210
0.0
220
0.0
230
1.0
 70
     8
 71
     3
 72
     8
 73
     4
 74
     0
 42
0.0000000001
 43
0.0000000001
 40
0.0
 40
0.0
 40
0.0
 40
0.0
 40
1.0
 40
1.0
 40
1.0
 40
1.0
 10
2049.641741925632
 20
898.0636436261463
 30
0.0
 10
2049.753012283396
 20
898.0896101485177
 30
0.0
 10
2049.86421930476
 20
898.1134844482747
 30
0.0
 10
2049.975363636646
 20
898.1352878955529
 30
0.0
  0
SPLINE
  5
B44
330
9E7
100
AcDbEntity
  8
0
  6
Continuous
 62
     7
370
    15
100
AcDbSpline
210
0.0
220
0.0
230
1.0
 70
     8
 71
     3
 72
    12
 73
     8
 74
     0
 42
0.0000000001
 43
0.0000000001
 40
0.0
 40
0.0
 40
0.0
 40
0.0
 40
0.5
 40
0.5
 40
0.75
 40
0.75
 40
1.0
 40
1.0
 40
1.0
 40
1.0
 10
2049.641741925632
 20
898.063643626147
 30
0.0
 10
2048.768918144058
 20
898.2830037460237
 30
0.0
 10
2047.884333362083
 20
898.4228867915595
 30
0.0
 10
2046.528967984153
 20
898.440197193792
 30
0.0
 10
2046.073963140455
 20
898.4140241506679
 30
0.0
 10
2045.180401131402
 20
898.3075522860666
 30
0.0
 10
2044.73844193235
 20
898.2277307096866
 30
0.0
 10
2044.299933680264
 20
898.12888189378
 30
0.0
  0
SPLINE
  5
B45
330
9E7
100
AcDbEntity
  8
0
  6
Continuous
 62
     7
370
    15
100
AcDbSpline
210
0.0
220
0.0
230
1.0
 70
     8
 71
     3
 72
     8
 73
     4
 74
     0
 42
0.0000000001
 43
0.0000000001
 40
0.0
 40
0.0
 40
0.0
 40
0.0
 40
1.0
 40
1.0
 40
1.0
 40
1.0
 10
2044.002766989249
 20
898.2164748867969
 30
0.0
 10
2044.101754133423
 20
898.189081887045
 30
0.0
 10
2044.200892728381
 20
898.1598612063985
 30
0.0
 10
2044.299933680264
 20
898.1288818937798
 30
0.0
  0
SPLINE
  5
B46
330
9E7
100
AcDbEntity
  8
0
  6
Continuous
 62
     7
370
    15
100
AcDbSpline
210
0.0
220
0.0
230
1.0
 70
     8
 71
     3
 72
    12
 73
     8
 74
     0
 42
0.0000000001
 43
0.0000000001
 40
0.0
 40
0.0
 40
0.0
 40
0.0
 40
0.5000000000000002
 40
0.5000000000000002
 40
0.7500000000000004
 40
0.7500000000000004
 40
1.0
 40
1.0
 40
1.0
 40
1.0
 10
2044.002766989249
 20
898.2164748867976
 30
0.0
 10
2043.579634611102
 20
898.7965619180826
 30
0.0
 10
2043.150422128711
 20
899.3027501969761
 30
0.0
 10
2042.491728912688
 20
899.8812451831083
 30
0.0
 10
2042.270359963074
 20
900.0434566598674
 30
0.0
 10
2041.835377408078
 20
900.3064397313508
 30
0.0
 10
2041.620101602695
 20
900.4091143500088
 30
0.0
 10
2041.406417011197
 20
900.4910918548182
 30
0.0
  0
SPLINE
  5
B47
330
9E7
100
AcDbEntity
  8
0
  6
Continuous
 62
     7
370
    15
100
AcDbSpline
210
0.0
220
0.0
230
1.0
 70
     8
 71
     3
 72
     8
 73
     4
 74
     0
 42
0.0000000001
 43
0.0000000001
 40
0.0
 40
0.0
 40
0.0
 40
0.0
 40
1.0
 40
1.0
 40
1.0
 40
1.0
 10
2041.406417011197
 20
900.491091854818
 30
0.0
 10
2041.403259144904
 20
900.5507872941031
 30
0.0
 10
2041.400086819981
 20
900.6083761035393
 30
0.0
 10
2041.396900184111
 20
900.6638798004187
 30
0.0
  0
SPLINE
  5
B48
330
9E7
100
AcDbEntity
  8
0
  6
Continuous
 62
     7
370
    15
100
AcDbSpline
210
0.0
220
0.0
230
1.0
 70
     8
 71
     3
 72
    10
 73
     6
 74
     0
 42
0.0000000001
 43
0.0000000001
 40
0.0
 40
0.0
 40
0.0
 40
0.0
 40
0.5
 40
0.5
 40
1.0
 40
1.0
 40
1.0
 40
1.0
 10
2042.445947467795
 20
901.8212180739892
 30
0.0
 10
2042.267872799828
 20
901.6564302155984
 30
0.0
 10
2042.089760140276
 20
901.4736720058142
 30
0.0
 10
2041.740250626641
 20
901.085551422952
 30
0.0
 10
2041.5677388282
 20
900.8792727979171
 30
0.0
 10
2041.396900184111
 20
900.6638798004187
 30
0.0
  0
SPLINE
  5
B49
330
9E7
100
AcDbEntity
  8
0
  6
Continuous
 62
     7
370
    15
100
AcDbSpline
210
0.0
220
0.0
230
1.0
 70
     8
 71
     3
 72
     8
 73
     4
 74
     0
 42
0.0000000001
 43
0.0000000001
 40
0.0
 40
0.0
 40
0.0
 40
0.0
 40
1.0
 40
1.0
 40
1.0
 40
1.0
 10
2042.637877505506
 20
901.8765630843189
 30
0.0
 10
2042.57389454829
 20
901.8581279819953
 30
0.0
 10
2042.509918145151
 20
901.8396790631841
 30
0.0
 10
2042.445947467795
 20
901.8212180739892
 30
0.0
  0
LWPOLYLINE
  5
B4A
330
9E7
100
AcDbEntity
  8
0
  6
Continuous
 62
     7
370
    15
100
AcDbPolyline
 90
       35
 70
   128
 43
0.0
 10
2042.637877153006
 20
901.8765630021286
 10
2042.493647879166
 20
901.6938280729331
 10
2042.382032182363
 20
901.505689454852
 10
2042.303827425498
 20
901.313488259143
 10
2042.259589598823
 20
901.1185938060826
 10
2042.249634451035
 20
900.9223949133993
 10
2042.274033031771
 20
900.7262902138272
 10
2042.332611707348
 20
900.5316776777611
 10
2042.424952417743
 20
900.3399430175315
 10
2042.550397636261
 20
900.1524540364068
 10
2042.708053106359
 20
899.9705462073693
 10
2042.896795119003
 20
899.7955158153196
 10
2043.115278671991
 20
899.62861074477
 10
2043.361946669476
 20
899.4710199136616
 10
2043.635041031825
 20
899.3238668568022
 10
2043.932616285335
 20
899.1882004838048
 10
2044.252550834238
 20
899.0649870438263
 10
2044.592564537206
 20
898.955104944709
 10
2044.950234889644
 20
898.8593373649045
 10
2045.323012444651
 20
898.7783666607134
 10
2045.708240145588
 20
898.7127697150775
 10
2046.103173295436
 20
898.6630146695807
 10
2046.504997333032
 20
898.6294556847173
 10
2046.910847819246
 20
898.6123317614739
 10
2047.317833098808
 20
898.6117652978728
 10
2047.723052251573
 20
898.6277599394609
 10
2048.123617350946
 20
898.660201872935
 10
2048.516674515488
 20
898.7088604282197
 10
2048.899421136291
 20
898.7733877132365
 10
2049.269130778206
 20
898.853324888525
 10
2049.623168180975
 20
898.9481019345841
 10
2049.959009849377
 20
899.057043102689
 10
2050.274262325531
 20
899.1793720016426
 10
2050.566679703942
 20
899.3142174313769
 10
2050.834177143331
 20
899.4606177783644
  0
SPLINE
  5
B4B
330
9E7
100
AcDbEntity
  8
0
  6
Continuous
 62
     7
370
    15
100
AcDbSpline
210
0.0
220
0.0
230
1.0
 70
     8
 71
     3
 72
     8
 73
     4
 74
     0
 42
0.0000000001
 43
0.0000000001
 40
0.0
 40
0.0
 40
0.0
 40
0.0
 40
1.0
 40
1.0
 40
1.0
 40
1.0
 10
2051.024410920332
 20
899.292626169125
 30
0.0
 10
2050.961005877224
 20
899.3486324806362
 30
0.0
 10
2050.897594943339
 20
899.4046301503551
 30
0.0
 10
2050.83417726651
 20
899.4606179281516
 30
0.0
  0
SPLINE
  5
B4C
330
9E7
100
AcDbEntity
  8
0
  6
Continuous
 62
     7
370
    15
100
AcDbSpline
210
0.0
220
0.0
230
1.0
 70
     8
 71
     3
 72
    10
 73
     6
 74
     0
 42
0.0000000001
 43
0.0000000001
 40
0.0
 40
0.0
 40
0.0
 40
0.0
 40
0.5
 40
0.5
 40
1.0
 40
1.0
 40
1.0
 40
1.0
 10
2051.024410920332
 20
899.292626169125
 30
0.0
 10
2050.846336252365
 20
899.1278383107342
 30
0.0
 10
2050.668223592813
 20
898.9450801009498
 30
0.0
 10
2050.318714079177
 20
898.5569595180868
 30
0.0
 10
2050.146202280735
 20
898.3506808930517
 30
0.0
 10
2049.975363636646
 20
898.1352878955529
 30
0.0
  0
LINE
  5
B4D
330
9E7
100
AcDbEntity
  8
0
  6
Continuous
 62
     7
370
    15
100
AcDbLine
 10
2044.269949807675
 20
894.1813857929869
 30
0.0
 11
2044.299933523444
 21
898.1288803787661
 31
0.0
  0
LINE
  5
B4E
330
9E7
100
AcDbEntity
  8
0
  6
Continuous
 62
     7
370
    15
100
AcDbLine
 10
2049.611702288649
 20
894.1087742448779
 30
0.0
 11
2049.641742021528
 21
898.0636437417508
 31
0.0
  0
LINE
  5
B4F
330
9E7
100
AcDbEntity
  8
0
  6
Continuous
 62
     7
370
    15
100
AcDbLine
 10
2044.269949807675
 20
894.1813857929869
 30
0.0
 11
2049.611702288649
 21
894.1087742448779
 31
0.0
  0
LINE
  5
B50
330
9E7
100
AcDbEntity
  8
0
  6
Continuous
 62
     7
370
    15
100
AcDbLine
 10
2042.637877153006
 20
901.8765630021286
 30
0.0
 11
2046.178427122102
 21
900.8329488350735
 31
0.0
  0
LINE
  5
B51
330
9E7
100
AcDbEntity
  8
0
  6
Continuous
 62
     7
370
    15
100
AcDbLine
 10
2046.178427122102
 20
900.8329488350735
 30
0.0
 11
2045.433325804575
 21
900.2373143242532
 31
0.0
  0
LINE
  5
B52
330
9E7
100
AcDbEntity
  8
0
  6
Continuous
 62
     7
370
    15
100
AcDbLine
 10
2045.433325804575
 20
900.2373143242532
 30
0.0
 11
2046.548526156307
 21
899.9085973462891
 31
0.0
  0
LINE
  5
B53
330
9E7
100
AcDbEntity
  8
0
  6
Continuous
 62
     7
370
    15
100
AcDbLine
 10
2046.548526156307
 20
899.9085973462891
 30
0.0
 11
2047.293627473834
 21
900.5042318571096
 31
0.0
  0
LINE
  5
B54
330
9E7
100
AcDbEntity
  8
0
  6
Continuous
 62
     7
370
    15
100
AcDbLine
 10
2047.293627473834
 20
900.5042318571096
 30
0.0
 11
2050.834177143331
 21
899.4606177783644
 31
0.0
  0
LINE
  5
B55
330
9E7
100
AcDbEntity
  8
0
  6
Continuous
 62
     7
370
    15
100
AcDbLine
 10
2049.945379876996
 20
894.1877918462838
 30
0.0
 11
2049.611702288649
 21
894.1087742448779
 31
0.0
  0
LINE
  5
B56
330
9E7
100
AcDbEntity
  8
0
  6
Continuous
 62
     7
370
    15
100
AcDbLine
 10
2049.945379876996
 20
894.1877918462838
 30
0.0
 11
2049.975363592765
 21
898.1352864320628
 31
0.0
  0
SPLINE
  5
B57
330
9E7
100
AcDbEntity
  8
0
  6
Continuous
 62
     7
370
    15
100
AcDbSpline
210
0.0
220
0.0
230
1.0
 70
     8
 71
     3
 72
    10
 73
     6
 74
     0
 42
0.0000000001
 43
0.0000000001
 40
0.0
 40
0.0
 40
0.0
 40
0.0
 40
0.5
 40
0.5
 40
1.0
 40
1.0
 40
1.0
 40
1.0
 10
2052.736608873642
 20
900.3426292561234
 30
0.0
 10
2052.566143582599
 20
900.2855699833403
 30
0.0
 10
2052.392443491571
 20
900.2158632920069
 30
0.0
 10
2052.043453147792
 20
900.0455451112459
 30
0.0
 10
2051.868316997495
 20
899.9450436790363
 30
0.0
 10
2051.69243306788
 20
899.8266435379205
 30
0.0
  0
LINE
  5
B58
330
9E7
100
AcDbEntity
  8
0
  6
Continuous
 62
     7
370
    15
100
AcDbLine
 10
2052.706625074907
 20
896.3951331756096
 30
0.0
 11
2052.736608790678
 21
900.3426277613888
 31
0.0
  0
LINE
  5
B59
330
9E7
100
AcDbEntity
  8
0
  6
Continuous
 62
     7
370
    15
100
AcDbLine
 10
2049.945379876996
 20
894.1877918462838
 30
0.0
 11
2052.706625074907
 21
896.3951331756096
 31
0.0
  0
LINE
  5
B5A
330
9E7
100
AcDbEntity
  8
0
  6
Continuous
 62
     7
370
    15
100
AcDbLine
 10
2051.015278737365
 20
898.090343031119
 30
0.0
 11
2051.024410839955
 21
899.292626490874
 31
0.0
  0
LINE
  5
B5B
330
9E7
100
AcDbEntity
  8
0
  6
Continuous
 62
     7
370
    15
100
AcDbLine
 10
2051.015278737365
 20
898.090343031119
 30
0.0
 11
2051.683300946553
 21
898.6243604491892
 31
0.0
  0
LINE
  5
B5C
330
9E7
100
AcDbEntity
  8
0
  6
Continuous
 62
     7
370
    15
100
AcDbLine
 10
2051.683300946553
 20
898.6243604491892
 30
0.0
 11
2051.692433049143
 21
899.8266439089443
 31
0.0
  0
LINE
  5
B5D
330
9E7
100
AcDbEntity
  8
0
  6
Continuous
 62
     7
370
    15
100
AcDbLine
 10
2041.376377432457
 20
896.5362224563815
 30
0.0
 11
2041.406417165337
 21
900.4910919532546
 31
0.0
  0
LINE
  5
B5E
330
9E7
100
AcDbEntity
  8
0
  6
Continuous
 62
     7
370
    15
100
AcDbLine
 10
2043.972782979785
 20
894.2689788263493
 30
0.0
 11
2044.002766695555
 21
898.2164734121285
 31
0.0
  0
LINE
  5
B5F
330
9E7
100
AcDbEntity
  8
0
  6
Continuous
 62
     7
370
    15
100
AcDbLine
 10
2041.376377432457
 20
896.5362224563815
 30
0.0
 11
2043.972782979785
 21
894.2689788263493
 31
0.0
  0
LINE
  5
B60
330
9E7
100
AcDbEntity
  8
0
  6
Continuous
 62
     7
370
    15
100
AcDbLine
 10
2044.269949807675
 20
894.1813857929869
 30
0.0
 11
2043.972782979785
 21
894.2689788263493
 31
0.0
  0
LINE
  5
B61
330
9E7
100
AcDbEntity
  8
0
  6
Continuous
 62
     7
370
    15
100
AcDbLine
 10
2046.758085055655
 20
900.0761193918425
 30
0.0
 11
2046.17398651346
 21
900.2482885516936
 31
0.0
  0
LINE
  5
B62
330
9E7
100
AcDbEntity
  8
0
  6
Continuous
 62
     7
370
    15
100
AcDbLine
 10
2047.581570836524
 20
900.6486497851732
 30
0.0
 11
2047.372011644319
 21
900.4811280213527
 31
0.0
  0
LINE
  5
B63
330
9E7
100
AcDbEntity
  8
0
  6
Continuous
 62
     7
370
    15
100
AcDbLine
 10
2047.957848077802
 20
900.5377381293103
 30
0.0
 11
2047.581570836524
 21
900.6486497851732
 31
0.0
  0
LINE
  5
B64
330
9E7
100
AcDbEntity
  8
0
  6
Continuous
 62
     7
370
    15
100
AcDbLine
 10
2051.683300946553
 20
898.6243604491892
 30
0.0
 11
2051.020818182406
 21
898.8196341790132
 31
0.0
  0
SPLINE
  5
B65
330
9E7
100
AcDbEntity
  8
0
  6
Continuous
 62
     7
370
    15
100
AcDbSpline
210
0.0
220
0.0
230
1.0
 70
     8
 71
     3
 72
     8
 73
     4
 74
     0
 42
0.0000000001
 43
0.0000000001
 40
0.0
 40
0.0
 40
0.0
 40
0.0
 40
1.0
 40
1.0
 40
1.0
 40
1.0
 10
2043.113969615343
 20
902.3552354427849
 30
0.0
 10
2043.177940284637
 20
902.3736964296537
 30
0.0
 10
2043.241916687404
 20
902.3921453483611
 30
0.0
 10
2043.305899653053
 20
902.4105804531146
 30
0.0
  0
SPLINE
  5
B66
330
9E7
100
AcDbEntity
  8
0
  6
Continuous
 62
     7
370
    15
100
AcDbSpline
210
0.0
220
0.0
230
1.0
 70
     8
 71
     3
 72
    10
 73
     6
 74
     0
 42
0.0000000001
 43
0.0000000001
 40
0.0
 40
0.0
 40
0.0
 40
0.0
 40
0.5
 40
0.5
 40
1.0
 40
1.0
 40
1.0
 40
1.0
 10
2044.158145421107
 20
902.8712211609892
 30
0.0
 10
2043.987680130063
 20
902.8141618882061
 30
0.0
 10
2043.813980039035
 20
902.7444551968725
 30
0.0
 10
2043.464989695255
 20
902.574137016111
 30
0.0
 10
2043.289853544958
 20
902.4736355839012
 30
0.0
 10
2043.113969615343
 20
902.3552354427849
 30
0.0
  0
SPLINE
  5
B67
330
9E7
100
AcDbEntity
  8
0
  6
Continuous
 62
     7
370
    15
100
AcDbSpline
210
0.0
220
0.0
230
1.0
 70
     8
 71
     3
 72
     8
 73
     4
 74
     0
 42
0.0000000001
 43
0.0000000001
 40
0.0
 40
0.0
 40
0.0
 40
0.0
 40
1.0
 40
1.0
 40
1.0
 40
1.0
 10
2044.491879144892
 20
902.9576124278253
 30
0.0
 10
2044.380602954427
 20
902.9308780036629
 30
0.0
 10
2044.269358487842
 20
902.9020738679825
 30
0.0
 10
2044.158145421107
 20
902.8712211609892
 30
0.0
  0
SPLINE
  5
B68
330
9E7
100
AcDbEntity
  8
0
  6
Continuous
 62
     7
370
    15
100
AcDbSpline
210
0.0
220
0.0
230
1.0
 70
     8
 71
     3
 72
     9
 73
     5
 74
     0
 42
0.0000000001
 43
0.0000000001
 40
0.0
 40
0.0
 40
0.0
 40
0.0
 40
0.7350845735838157
 40
1.0
 40
1.0
 40
1.0
 40
1.0
 10
2044.491879124962
 20
902.9576123871132
 30
0.0
 10
2044.737550577993
 20
903.0113597928831
 30
0.0
 10
2045.071758996804
 20
903.0844771016955
 30
0.0
 10
2045.412674977994
 20
903.1277852115367
 30
0.0
 10
2045.502988880523
 20
903.1392581979227
 30
0.0
  0
SPLINE
  5
B69
330
9E7
100
AcDbEntity
  8
0
  6
Continuous
 62
     7
370
    15
100
AcDbSpline
210
0.0
220
0.0
230
1.0
 70
     8
 71
     3
 72
     9
 73
     5
 74
     0
 42
0.0000000001
 43
0.0000000001
 40
0.0
 40
0.0
 40
0.0
 40
0.0
 40
0.0252230854211374
 40
1.0
 40
1.0
 40
1.0
 40
1.0
 10
2048.658019324626
 20
903.1221402799557
 30
0.0
 10
2048.668053332167
 20
903.1207824487413
 30
0.0
 10
2049.06586380512
 20
903.0669495733512
 30
0.0
 10
2049.454622347391
 20
902.9710785961416
 30
0.0
 10
2049.833575199741
 20
902.8776257807797
 30
0.0
  0
SPLINE
  5
B6A
330
9E7
100
AcDbEntity
  8
0
  6
Continuous
 62
     7
370
    15
100
AcDbSpline
210
0.0
220
0.0
230
1.0
 70
     8
 71
     3
 72
     8
 73
     4
 74
     0
 42
0.0000000001
 43
0.0000000001
 40
0.0
 40
0.0
 40
0.0
 40
0.0
 40
1.0
 40
1.0
 40
1.0
 40
1.0
 10
2049.833575377492
 20
902.8776271627636
 30
0.0
 10
2049.932562521665
 20
902.8502341630119
 30
0.0
 10
2050.031701116623
 20
902.8210134823657
 30
0.0
 10
2050.130742068504
 20
902.7900341697474
 30
0.0
  0
SPLINE
  5
B6B
330
9E7
100
AcDbEntity
  8
0
  6
Continuous
 62
     7
370
    15
100
AcDbSpline
210
0.0
220
0.0
230
1.0
 70
     8
 71
     3
 72
    12
 73
     8
 74
     0
 42
0.0000000001
 43
0.0000000001
 40
0.0
 40
0.0
 40
0.0
 40
0.0
 40
0.5
 40
0.5
 40
0.75
 40
0.75
 40
1.0
 40
1.0
 40
1.0
 40
1.0
 10
2050.130742068504
 20
902.7900341697481
 30
0.0
 10
2050.557052613193
 20
902.628367434135
 30
0.0
 10
2050.988247920163
 20
902.3832271638486
 30
0.0
 10
2051.646991063822
 20
901.8113053813316
 30
0.0
 10
2051.86789078137
 20
901.5873173371693
 30
0.0
 10
2052.30110987228
 20
901.0921660785358
 30
0.0
 10
2052.51509826008
 20
900.8199969923047
 30
0.0
 10
2052.727204059321
 20
900.5301641991538
 30
0.0
  0
SPLINE
  5
B6C
330
9E7
100
AcDbEntity
  8
0
  6
Continuous
 62
     7
370
    15
100
AcDbSpline
210
0.0
220
0.0
230
1.0
 70
     8
 71
     3
 72
     8
 73
     4
 74
     0
 42
0.0000000001
 43
0.0000000001
 40
0.0
 40
0.0
 40
0.0
 40
0.0
 40
1.0
 40
1.0
 40
1.0
 40
1.0
 10
2052.727204059321
 20
900.5301641991536
 30
0.0
 10
2052.730356092915
 20
900.4697008580777
 30
0.0
 10
2052.733490972618
 20
900.4071822127182
 30
0.0
 10
2052.736608873642
 20
900.3426292561234
 30
0.0
  0
SPLINE
  5
B6D
330
9E7
100
AcDbEntity
  8
0
  6
Continuous
 62
     7
370
    15
100
AcDbSpline
210
0.0
220
0.0
230
1.0
 70
     8
 71
     3
 72
     8
 73
     4
 74
     0
 42
0.0000000001
 43
0.0000000001
 40
0.0
 40
0.0
 40
0.0
 40
0.0
 40
1.0
 40
1.0
 40
1.0
 40
1.0
 10
2051.502199414059
 20
899.9946352969466
 30
0.0
 10
2051.565617082527
 20
899.9386475265302
 30
0.0
 10
2051.629028016782
 20
899.882649856489
 30
0.0
 10
2051.69243306788
 20
899.8266435379205
 30
0.0
  0
LWPOLYLINE
  5
B6E
330
9E7
100
AcDbEntity
  8
0
  6
Continuous
 62
     7
370
    15
100
AcDbPolyline
 90
       35
 70
   128
 43
0.0
 10
2051.502199352519
 20
899.9946351964347
 10
2051.646429464843
 20
900.1773701402955
 10
2051.758044672693
 20
900.365508640683
 10
2051.836249768712
 20
900.5577099982408
 10
2051.880487659905
 20
900.7526046941009
 10
2051.890442605858
 20
900.9488033844597
 10
2051.866043760869
 20
901.1449079001057
 10
2051.807465326681
 20
901.3395208886549
 10
2051.715124387381
 20
901.5312550927218
 10
2051.589679308282
 20
901.7187442945687
 10
2051.432023738317
 20
901.9006521530428
 10
2051.243281705897
 20
902.075682420013
 10
2051.024798172685
 20
902.2425876156422
 10
2050.778130055558
 20
902.4001783511076
 10
2050.505035573565
 20
902.5473313123244
 10
2050.207460678985
 20
902.6829979722501
 10
2049.887526130082
 20
902.8062114122288
 10
2049.547512107738
 20
902.9160934745764
 10
2049.189842074676
 20
903.0118610911502
 10
2048.817064519669
 20
903.0928317953417
 10
2048.431836459803
 20
903.1584284540491
 10
2048.036903429597
 20
903.2081835951887
 10
2047.635079511645
 20
903.2417426756948
 10
2047.229229005654
 20
903.258866473859
 10
2046.822243745869
 20
903.2594330625393
 10
2046.417024692969
 20
903.2434383915145
 10
2046.016459454177
 20
903.2109962373183
 10
2045.623402518542
 20
903.1623381381963
 10
2045.240655656349
 20
903.0978104006964
 10
2044.870946278687
 20
903.0178734093341
 10
2044.516909077753
 20
902.9230965655994
 10
2044.181067344833
 20
902.8141551546948
 10
2043.865814529526
 20
902.6918260938922
 10
2043.573397640066
 20
902.5569807818516
 10
2043.305899362193
 20
902.4105804201989
  0
LINE
  5
B6F
330
9E7
100
AcDbEntity
  8
0
  6
Continuous
 62
     7
370
    15
100
AcDbLine
 10
2047.956110260082
 20
900.3089586753413
 30
0.0
 11
2047.961649683021
 21
901.0382492751796
 31
0.0
  0
LINE
  5
B70
330
9E7
100
AcDbEntity
  8
0
  6
Continuous
 62
     7
370
    15
100
AcDbLine
 10
2051.502199352519
 20
899.9946351964347
 30
0.0
 11
2047.961649683021
 21
901.0382492751796
 31
0.0
  0
LINE
  5
B71
330
9E7
100
AcDbEntity
  8
0
  6
Continuous
 62
     7
370
    15
100
AcDbLine
 10
2048.706751479121
 20
901.633884168571
 30
0.0
 11
2047.591551127389
 21
901.9626011465351
 31
0.0
  0
LINE
  5
B72
330
9E7
100
AcDbEntity
  8
0
  6
Continuous
 62
     7
370
    15
100
AcDbLine
 10
2047.591551127389
 20
901.9626011465351
 30
0.0
 11
2046.846449331289
 21
901.3669662531437
 31
0.0
  0
LINE
  5
B73
330
9E7
100
AcDbEntity
  8
0
  6
Continuous
 62
     7
370
    15
100
AcDbLine
 10
2046.846449331289
 20
901.3669662531437
 30
0.0
 11
2043.305899362193
 21
902.4105804201989
 31
0.0
  0
LINE
  5
B74
330
9E7
100
AcDbEntity
  8
0
  6
Continuous
 62
     7
370
    15
100
AcDbLine
 10
2047.961649683021
 20
901.0382492751796
 30
0.0
 11
2048.706751479121
 21
901.633884168571
 31
0.0
  0
LINE
  5
B75
330
9E7
100
AcDbEntity
  8
0
  6
Continuous
 62
     7
370
    15
100
AcDbLine
 10
2046.172248534025
 20
900.01950919436
 30
0.0
 11
2046.178427122102
 21
900.8329488350735
 31
0.0
  0
LINE
  5
B76
330
9E7
100
AcDbEntity
  8
0
  6
Continuous
 62
     7
370
    15
100
AcDbLine
 10
2041.366916716071
 20
896.7163836651943
 30
0.0
 11
2041.39690043184
 21
900.6638782509735
 31
0.0
  0
LINE
  5
B77
330
9E7
100
AcDbEntity
  8
0
  6
Continuous
 62
     7
370
    15
100
AcDbLine
 10
2041.366916716071
 20
896.7163836651943
 30
0.0
 11
2041.376377432457
 21
896.5362224563815
 31
0.0
  0
LINE
  5
B78
330
9E7
100
AcDbEntity
  8
0
  6
Continuous
 62
     7
370
    15
100
AcDbLine
 10
2046.837124465397
 20
900.1393046148148
 30
0.0
 11
2046.846449331289
 21
901.3669662531437
 31
0.0
  0
LINE
  5
B79
330
9E7
100
AcDbEntity
  8
0
  6
Continuous
 62
     7
370
    15
100
AcDbLine
 10
2043.109278653554
 20
901.7376130296236
 30
0.0
 11
2043.113969888218
 21
902.355235727855
 31
0.0
  0
LINE
  5
B7A
330
9E7
100
AcDbEntity
  8
0
  6
Continuous
 62
     7
370
    15
100
AcDbLine
 10
2047.581570836524
 20
900.6486497851732
 30
0.0
 11
2047.591551127389
 21
901.9626011465351
 31
0.0
  0
LINE
  5
B7B
330
9E7
100
AcDbEntity
  8
0
  6
Continuous
 62
     8
370
    15
100
AcDbLine
 10
2036.806131905153
 20
877.2778597739742
 30
0.0
 11
2044.636795188155
 21
874.9696897973009
 31
0.0
  0
LINE
  5
B7C
330
9E7
100
AcDbEntity
  8
0
  6
Continuous
 62
     8
370
    15
100
AcDbLine
 10
2041.373013618328
 20
897.5190867576886
 30
0.0
 11
2036.11151267512
 21
893.3130392487553
 31
0.0
  0
LINE
  5
B7D
330
9E7
100
AcDbEntity
  8
0
  6
Continuous
 62
     8
370
    15
100
AcDbLine
 10
2036.010942459608
 20
866.7711393568286
 30
0.0
 11
2044.753033167431
 21
864.1943166055616
 31
0.0
  0
LINE
  5
B7E
330
9E7
100
AcDbEntity
  8
0
  6
Continuous
 62
     8
370
    15
100
AcDbLine
 10
2045.774326798927
 20
870.3314869995828
 30
0.0
 11
2046.168198113373
 21
870.2153893064732
 31
0.0
  0
LINE
  5
B7F
330
9E7
100
AcDbEntity
  8
0
  6
Continuous
 62
     8
370
    15
100
AcDbLine
 10
2034.780487211227
 20
873.8708590087234
 30
0.0
 11
2036.714369220116
 21
873.3008270420784
 31
0.0
  0
LINE
  5
B80
330
9E7
100
AcDbEntity
  8
0
  6
Continuous
 62
     8
370
    15
100
AcDbLine
 10
2035.111929131463
 20
873.8567512018189
 30
0.0
 11
2036.764907565207
 21
873.3695185045403
 31
0.0
  0
LINE
  5
B81
330
9E7
100
AcDbEntity
  8
0
  6
Continuous
 62
     8
370
    15
100
AcDbLine
 10
2035.254685831352
 20
874.2096540777378
 30
0.0
 11
2037.003718221543
 21
873.6941084712718
 31
0.0
  0
LINE
  5
B82
330
9E7
100
AcDbEntity
  8
0
  6
Continuous
 62
     8
370
    15
100
AcDbLine
 10
2055.328262944283
 20
880.6851854823209
 30
0.0
 11
2055.612734148786
 21
880.6013346168535
 31
0.0
  0
LINE
  5
B83
330
9E7
100
AcDbEntity
  8
0
  6
Continuous
 62
     8
370
    15
100
AcDbLine
 10
2035.627611938338
 20
874.2689883958567
 30
0.0
 11
2037.106053363339
 21
873.8332023090173
 31
0.0
  0
LINE
  5
B84
330
9E7
100
AcDbEntity
  8
0
  6
Continuous
 62
     8
370
    15
100
AcDbLine
 10
2035.770367681082
 20
874.6218905066335
 30
0.0
 11
2037.344862263598
 21
874.1577917460999
 31
0.0
  0
LINE
  5
B85
330
9E7
100
AcDbEntity
  8
0
  6
Continuous
 62
     8
370
    15
100
AcDbLine
 10
2036.143294745213
 20
874.6812255898944
 30
0.0
 11
2037.447198362539
 21
874.2968863489874
 31
0.0
  0
LINE
  5
B86
330
9E7
100
AcDbEntity
  8
0
  6
Continuous
 62
     8
370
    15
100
AcDbLine
 10
2036.286050487957
 20
875.0341277006713
 30
0.0
 11
2037.800482985619
 21
874.5877328683983
 31
0.0
  0
LINE
  5
B87
330
9E7
100
AcDbEntity
  8
0
  6
Continuous
 62
     8
370
    15
100
AcDbLine
 10
2036.658977073516
 20
875.0934624013611
 30
0.0
 11
2037.965551519404
 21
874.7083359057763
 31
0.0
  0
LINE
  5
B88
330
9E7
100
AcDbEntity
  8
0
  6
Continuous
 62
     8
370
    15
100
AcDbLine
 10
2036.801733294832
 20
875.4463648947092
 30
0.0
 11
2038.340501251068
 21
874.9927969312699
 31
0.0
  0
LINE
  5
B89
330
9E7
100
AcDbEntity
  8
0
  6
Continuous
 62
     8
370
    15
100
AcDbLine
 10
2037.174659401818
 20
875.5056992128279
 30
0.0
 11
2038.496869739359
 21
875.1159638744965
 31
0.0
  0
LINE
  5
B8A
330
9E7
100
AcDbEntity
  8
0
  6
Continuous
 62
     8
370
    15
100
AcDbLine
 10
2037.317415623134
 20
875.8586017061759
 30
0.0
 11
2038.851968415896
 21
875.4062762062964
 31
0.0
  0
LINE
  5
B8B
330
9E7
100
AcDbEntity
  8
0
  6
Continuous
 62
     8
370
    15
100
AcDbLine
 10
2037.827959998264
 20
876.2667312343065
 30
0.0
 11
2039.331337678451
 21
875.8235949252096
 31
0.0
  0
LINE
  5
B8C
330
9E7
100
AcDbEntity
  8
0
  6
Continuous
 62
     8
370
    15
100
AcDbLine
 10
2037.685203298375
 20
875.9138283583874
 30
0.0
 11
2038.995128463675
 21
875.5277142031795
 31
0.0
  0
LINE
  5
B8D
330
9E7
100
AcDbEntity
  8
0
  6
Continuous
 62
     8
370
    15
100
AcDbLine
 10
2038.199066573024
 20
876.3246110171007
 30
0.0
 11
2039.469785764636
 21
875.9500532330591
 31
0.0
  0
LINE
  5
B8E
330
9E7
100
AcDbEntity
  8
0
  6
Continuous
 62
     8
370
    15
100
AcDbLine
 10
2045.795530948978
 20
870.3603239730195
 30
0.0
 11
2046.190885080597
 21
870.2437892040251
 31
0.0
  0
LINE
  5
B8F
330
9E7
100
AcDbEntity
  8
0
  6
Continuous
 62
     8
370
    15
100
AcDbLine
 10
2046.519059548361
 20
871.3442873137907
 30
0.0
 11
2047.311784714593
 21
871.1106232725311
 31
0.0
  0
LINE
  5
B90
330
9E7
100
AcDbEntity
  8
0
  6
Continuous
 62
     8
370
    15
100
AcDbLine
 10
2046.594612699291
 20
871.4839025055747
 30
0.0
 11
2047.373882258389
 21
871.2542046453755
 31
0.0
  0
ENDBLK
  5
9E9
330
9E7
100
AcDbEntity
  8
0
100
AcDbBlockEnd
  0
ENDSEC
  0
SECTION
  2
ENTITIES
  0
INSERT
  5
8C8
330
1F
100
AcDbEntity
  8
0
100
AcDbBlockReference
  2
1
 10
0.0
 20
0.0
 30
0.0
  0
INSERT
  5
97F
330
1F
100
AcDbEntity
  8
0
100
AcDbBlockReference
  2
2
 10
0.0
 20
0.0
 30
0.0
  0
INSERT
  5
9E6
330
1F
100
AcDbEntity
  8
0
100
AcDbBlockReference
  2
3
 10
0.0
 20
0.0
 30
0.0
  0
INSERT
  5
B91
330
1F
100
AcDbEntity
  8
0
100
AcDbBlockReference
  2
4
 10
85.70739449307916
 20
54.16558385043572
 30
0.0
  0
ENDSEC
  0
SECTION
  2
OBJECTS
  0
DICTIONARY
  5
C
330
0
100
AcDbDictionary
281
     1
  3
ACAD_COLOR
350
6B
  3
ACAD_GROUP
350
D
  3
ACAD_LAYOUT
350
1A
  3
ACAD_MATERIAL
350
6A
  3
ACAD_MLEADERSTYLE
350
12D
  3
ACAD_MLINESTYLE
350
17
  3
ACAD_PLOTSETTINGS
350
19
  3
ACAD_PLOTSTYLENAME
350
E
  3
ACAD_SCALELIST
350
10C
  3
ACAD_TABLESTYLE
350
7E
  3
ACAD_VISUALSTYLE
350
EF
  3
ACDB_RECOMPOSE_DATA
350
15D
  3
AcDbVariableDictionary
350
5E
  3
DWGPROPS
350
C51
  0
DICTIONARY
  5
C05
330
8
100
AcDbDictionary
280
     1
281
     1
  0
DICTIONARY
  5
13C
330
10
100
AcDbDictionary
280
     1
281
     1
  3
ADSK_XREC_LAYER_RECONCILED
360
B92
  0
DICTIONARY
  5
BFC
330
980
100
AcDbDictionary
280
     1
281
     1
  0
DICTIONARY
  5
6B
102
{ACAD_REACTORS
330
C
102
}
330
C
100
AcDbDictionary
281
     1
  0
DICTIONARY
  5
D
102
{ACAD_REACTORS
330
C
102
}
330
C
100
AcDbDictionary
281
     1
  0
DICTIONARY
  5
1A
102
{ACAD_REACTORS
330
C
102
}
330
C
100
AcDbDictionary
281
     1
  3
Layout1
350
D3
  3
Layout2
350
D7
  3
Model
350
22
  0
DICTIONARY
  5
6A
102
{ACAD_REACTORS
330
C
102
}
330
C
100
AcDbDictionary
281
     1
  3
ByBlock
350
ED
  3
ByLayer
350
EC
  3
Global
350
EE
  0
DICTIONARY
  5
12D
102
{ACAD_REACTORS
330
C
102
}
330
C
100
AcDbDictionary
281
     1
  3
Annotative
350
13B
  3
Standard
350
12E
  0
DICTIONARY
  5
17
102
{ACAD_REACTORS
330
C
102
}
330
C
100
AcDbDictionary
281
     1
  3
Standard
350
18
  0
DICTIONARY
  5
19
102
{ACAD_REACTORS
330
C
102
}
330
C
100
AcDbDictionary
281
     1
  0
ACDBDICTIONARYWDFLT
  5
E
102
{ACAD_REACTORS
330
C
102
}
330
C
100
AcDbDictionary
281
     1
  3
Normal
350
F
100
AcDbDictionaryWithDefault
340
F
  0
DICTIONARY
  5
10C
102
{ACAD_REACTORS
330
C
102
}
330
C
100
AcDbDictionary
281
     1
  3
A0
350
10D
  3
A1
350
188
  3
A2
350
189
  3
A3
350
18A
  3
A4
350
18B
  3
A5
350
18C
  3
A6
350
18D
  3
A7
350
18E
  3
A8
350
18F
  3
A9
350
190
  3
B0
350
191
  3
B1
350
192
  3
B2
350
193
  3
B3
350
194
  3
B4
350
195
  3
B5
350
196
  3
B6
350
197
  3
B7
350
198
  3
B8
350
199
  3
B9
350
19A
  3
C0
350
19B
  3
C1
350
19C
  3
C2
350
19D
  3
C3
350
19E
  3
C4
350
19F
  3
C5
350
1A0
  3
C6
350
1A1
  3
C7
350
1A2
  3
C8
350
1A3
  3
C9
350
1A4
  3
D0
350
1A5
  3
D1
350
1A6
  3
D2
350
1A7
  0
DICTIONARY
  5
7E
102
{ACAD_REACTORS
330
C
102
}
330
C
100
AcDbDictionary
281
     1
  3
Standard
350
7F
  0
DICTIONARY
  5
EF
102
{ACAD_REACTORS
330
C
102
}
330
C
100
AcDbDictionary
281
     1
  3
2dWireframe
350
F5
  3
3D Hidden
350
F7
  3
3dWireframe
350
F6
  3
Basic
350
F4
  3
Brighten
350
FB
  3
ColorChange
350
FF
  3
Conceptual
350
F8
  3
Dim
350
FA
  3
Facepattern
350
FE
  3
Flat
350
F0
  3
FlatWithEdges
350
F1
  3
Gouraud
350
F2
  3
GouraudWithEdges
350
F3
  3
Linepattern
350
FD
  3
Realistic
350
F9
  3
Thicken
350
FC
  0
XRECORD
  5
15D
102
{ACAD_REACTORS
330
C
102
}
330
C
100
AcDbXrecord
280
     1
 90
        1
330
7F
  0
DICTIONARY
  5
5E
102
{ACAD_REACTORS
330
C
102
}
330
C
100
AcDbDictionary
281
     1
  3
CANNOSCALE
350
146
  3
CMLEADERSTYLE
350
145
  3
CTABLESTYLE
350
84
  3
DIMASSOC
350
5F
  3
HIDETEXT
350
63
  3
INDEXCTL
350
C4D
  3
LIGHTINGUNITS
350
C0F
  3
MSLTSCALE
350
C0E
  3
PSOLHEIGHT
350
C4F
  3
PSOLWIDTH
350
C4E
  3
SORTENTS
350
C4C
  0
XRECORD
  5
C51
102
{ACAD_REACTORS
330
C
102
}
330
C
100
AcDbXrecord
280
     1
  1
DWGPROPS COOKIE
  2

  3

  4

  6

  7

  8
orhan kara
  9

300
=
301
=
302
=
303
=
304
=
305
=
306
=
307
=
308
=
309
=
 40
0.0011594097222222
 41
2458486.429454769
 42
2459089.544888206
  1

 90
        0
  0
XRECORD
  5
B92
102
{ACAD_REACTORS
330
13C
102
}
330
13C
100
AcDbXrecord
280
     1
290
     1
  0
LAYOUT
  5
D3
102
{ACAD_XDICTIONARY
360
C55
102
}
102
{ACAD_REACTORS
330
1A
102
}
330
1A
100
AcDbPlotSettings
  1

  2
C:\Documents and Settings\basas\Application Data\Autodesk\AutoCAD 2005\R16.1\enu\plotters\Default Windows System Printer.pc3
  4

  6

 40
0.0
 41
0.0
 42
0.0
 43
0.0
 44
0.0
 45
0.0
 46
0.0
 47
0.0
 48
0.0
 49
0.0
140
0.0
141
0.0
142
1.0
143
1.0
 70
   688
 72
     0
 73
     0
 74
     5
  7

 75
    16
147
1.0
148
0.0
149
0.0
100
AcDbLayout
  1
Layout1
 70
     1
 71
     1
 10
0.0
 20
0.0
 11
12.0
 21
9.0
 12
0.0
 22
0.0
 32
0.0
 14
0.0
 24
0.0
 34
0.0
 15
0.0
 25
0.0
 35
0.0
146
0.0
 13
0.0
 23
0.0
 33
0.0
 16
1.0
 26
0.0
 36
0.0
 17
0.0
 27
1.0
 37
0.0
 76
     0
330
D2
  0
LAYOUT
  5
D7
102
{ACAD_XDICTIONARY
360
C57
102
}
102
{ACAD_REACTORS
330
1A
102
}
330
1A
100
AcDbPlotSettings
  1

  2
C:\Documents and Settings\basas\Application Data\Autodesk\AutoCAD 2005\R16.1\enu\plotters\Default Windows System Printer.pc3
  4

  6

 40
0.0
 41
0.0
 42
0.0
 43
0.0
 44
0.0
 45
0.0
 46
0.0
 47
0.0
 48
0.0
 49
0.0
140
0.0
141
0.0
142
1.0
143
1.0
 70
   688
 72
     0
 73
     0
 74
     5
  7

 75
    16
147
1.0
148
0.0
149
0.0
100
AcDbLayout
  1
Layout2
 70
     1
 71
     2
 10
0.0
 20
0.0
 11
12.0
 21
9.0
 12
0.0
 22
0.0
 32
0.0
 14
0.0
 24
0.0
 34
0.0
 15
0.0
 25
0.0
 35
0.0
146
0.0
 13
0.0
 23
0.0
 33
0.0
 16
1.0
 26
0.0
 36
0.0
 17
0.0
 27
1.0
 37
0.0
 76
     0
330
D6
  0
LAYOUT
  5
22
102
{ACAD_XDICTIONARY
360
C52
102
}
102
{ACAD_REACTORS
330
1A
102
}
330
1A
100
AcDbPlotSettings
  1

  2
none_device
  4
ISO_A4_(210.00_x_297.00_MM)
  6

 40
7.5
 41
20.0
 42
7.5
 43
20.0
 44
210.0
 45
297.0
 46
11.54999923706054
 47
-13.65000009536743
 48
0.0
 49
0.0
140
0.0
141
0.0
142
1.0
143
8.704084754739808
 70
 11952
 72
     1
 73
     0
 74
     0
  7

 75
     0
147
0.1148885871608098
148
0.0
149
0.0
100
AcDbLayout
  1
Model
 70
     1
 71
     0
 10
0.0
 20
0.0
 11
12.0
 21
9.0
 12
0.0
 22
0.0
 32
0.0
 14
0.0
 24
0.0
 34
0.0
 15
0.0
 25
0.0
 35
0.0
146
0.0
 13
0.0
 23
0.0
 33
0.0
 16
1.0
 26
0.0
 36
0.0
 17
0.0
 27
1.0
 37
0.0
 76
     0
330
1F
331
EA
1001
ACAD_PSEXT
1000
None
1000
None
1000
Not applicable
1000
The layout will not be plotted unless a new plotter configuration name is selected.
1070
     0
  0
MATERIAL
  5
ED
102
{ACAD_XDICTIONARY
360
C5B
102
}
102
{ACAD_REACTORS
330
6A
102
}
330
6A
100
AcDbMaterial
  1
ByBlock
  0
MATERIAL
  5
EC
102
{ACAD_XDICTIONARY
360
C59
102
}
102
{ACAD_REACTORS
330
6A
102
}
330
6A
100
AcDbMaterial
  1
ByLayer
  0
MATERIAL
  5
EE
102
{ACAD_XDICTIONARY
360
173
102
}
102
{ACAD_REACTORS
330
6A
102
}
330
6A
100
AcDbMaterial
  1
Global
 43
0.0007999999797903
 43
0.0
 43
0.0
 43
0.0
 43
0.0
 43
0.0007999999797903
 43
0.0
 43
0.0
 43
0.0
 43
0.0
 43
1.0
 43
0.0
 43
0.0
 43
0.0
 43
0.0
 43
1.0
 49
0.0007999999797903
 49
0.0
 49
0.0
 49
0.0
 49
0.0
 49
0.0007999999797903
 49
0.0
 49
0.0
 49
0.0
 49
0.0
 49
1.0
 49
0.0
 49
0.0
 49
0.0
 49
0.0
 49
1.0
142
0.0007999999797903
142
0.0
142
0.0
142
0.0
142
0.0
142
0.0007999999797903
142
0.0
142
0.0
142
0.0
142
0.0
142
1.0
142
0.0
142
0.0
142
0.0
142
0.0
142
1.0
144
0.0007999999797903
144
0.0
144
0.0
144
0.0
144
0.0
144
0.0007999999797903
144
0.0
144
0.0
144
0.0
144
0.0
144
1.0
144
0.0
144
0.0
144
0.0
144
0.0
144
1.0
1001
ACAD
1070
    -1
1070
     3
1070
     0
1000

1071
        0
1070
     0
  0
MLEADERSTYLE
  5
13B
102
{ACAD_REACTORS
330
12D
102
}
330
12D
100
AcDbMLeaderStyle
170
     2
171
     1
172
     0
 90
        2
 40
0.0
 41
0.0
173
     1
 91
-1056964608
340
14
 92
       -2
290
     1
 42
2.0
291
     1
 43
8.0
  3
Standard
 44
4.0
300

342
11
174
     1
178
     1
175
     1
176
     0
 93
-1056964608
 45
4.0
292
     0
297
     0
 46
4.0
 94
-1056964608
 47
1.0
 49
1.0
140
1.0
293
     1
141
0.0
294
     1
177
     0
142
1.0
295
     0
296
     1
143
3.75
1001
ACAD_MLEADERVER
1070
     2
  0
MLEADERSTYLE
  5
12E
102
{ACAD_REACTORS
330
12D
102
}
330
12D
100
AcDbMLeaderStyle
170
     2
171
     1
172
     0
 90
        2
 40
0.0
 41
0.0
173
     1
 91
-1056964608
340
14
 92
       -2
290
     1
 42
2.0
291
     1
 43
8.0
  3
Standard
 44
4.0
300

342
11
174
     1
178
     1
175
     1
176
     0
 93
-1056964608
 45
4.0
292
     0
297
     0
 46
4.0
 94
-1056964608
 47
1.0
 49
1.0
140
1.0
293
     1
141
0.0
294
     1
177
     0
142
1.0
295
     0
296
     0
143
3.75
1001
ACAD_MLEADERVER
1070
     2
  0
MLINESTYLE
  5
18
102
{ACAD_REACTORS
330
17
102
}
330
17
100
AcDbMlineStyle
  2
STANDARD
 70
     0
  3

 62
   256
 51
90.0
 52
90.0
 71
     2
 49
0.5
 62
   256
  6
BYLAYER
 49
-0.5
 62
   256
  6
BYLAYER
  0
ACDBPLACEHOLDER
  5
F
102
{ACAD_REACTORS
330
E
102
}
330
E
  0
SCALE
  5
10D
102
{ACAD_REACTORS
330
10C
102
}
330
10C
100
AcDbScale
 70
     0
300
1:1
140
1.0
141
1.0
290
     1
  0
SCALE
  5
188
102
{ACAD_REACTORS
330
10C
102
}
330
10C
100
AcDbScale
 70
     0
300
1:2
140
1.0
141
2.0
290
     0
  0
SCALE
  5
189
102
{ACAD_REACTORS
330
10C
102
}
330
10C
100
AcDbScale
 70
     0
300
1:4
140
1.0
141
4.0
290
     0
  0
SCALE
  5
18A
102
{ACAD_REACTORS
330
10C
102
}
330
10C
100
AcDbScale
 70
     0
300
1:5
140
1.0
141
5.0
290
     0
  0
SCALE
  5
18B
102
{ACAD_REACTORS
330
10C
102
}
330
10C
100
AcDbScale
 70
     0
300
1:8
140
1.0
141
8.0
290
     0
  0
SCALE
  5
18C
102
{ACAD_REACTORS
330
10C
102
}
330
10C
100
AcDbScale
 70
     0
300
1:10
140
1.0
141
10.0
290
     0
  0
SCALE
  5
18D
102
{ACAD_REACTORS
330
10C
102
}
330
10C
100
AcDbScale
 70
     0
300
1:16
140
1.0
141
16.0
290
     0
  0
SCALE
  5
18E
102
{ACAD_REACTORS
330
10C
102
}
330
10C
100
AcDbScale
 70
     0
300
1:20
140
1.0
141
20.0
290
     0
  0
SCALE
  5
18F
102
{ACAD_REACTORS
330
10C
102
}
330
10C
100
AcDbScale
 70
     0
300
1:30
140
1.0
141
30.0
290
     0
  0
SCALE
  5
190
102
{ACAD_REACTORS
330
10C
102
}
330
10C
100
AcDbScale
 70
     0
300
1:40
140
1.0
141
40.0
290
     0
  0
SCALE
  5
191
102
{ACAD_REACTORS
330
10C
102
}
330
10C
100
AcDbScale
 70
     0
300
1:50
140
1.0
141
50.0
290
     0
  0
SCALE
  5
192
102
{ACAD_REACTORS
330
10C
102
}
330
10C
100
AcDbScale
 70
     0
300
1:100
140
1.0
141
100.0
290
     0
  0
SCALE
  5
193
102
{ACAD_REACTORS
330
10C
102
}
330
10C
100
AcDbScale
 70
     0
300
2:1
140
2.0
141
1.0
290
     0
  0
SCALE
  5
194
102
{ACAD_REACTORS
330
10C
102
}
330
10C
100
AcDbScale
 70
     0
300
4:1
140
4.0
141
1.0
290
     0
  0
SCALE
  5
195
102
{ACAD_REACTORS
330
10C
102
}
330
10C
100
AcDbScale
 70
     0
300
8:1
140
8.0
141
1.0
290
     0
  0
SCALE
  5
196
102
{ACAD_REACTORS
330
10C
102
}
330
10C
100
AcDbScale
 70
     0
300
10:1
140
10.0
141
1.0
290
     0
  0
SCALE
  5
197
102
{ACAD_REACTORS
330
10C
102
}
330
10C
100
AcDbScale
 70
     0
300
100:1
140
100.0
141
1.0
290
     0
  0
SCALE
  5
198
102
{ACAD_REACTORS
330
10C
102
}
330
10C
100
AcDbScale
 70
     0
300
1/128" = 1'-0"
140
0.0078125
141
12.0
290
     0
  0
SCALE
  5
199
102
{ACAD_REACTORS
330
10C
102
}
330
10C
100
AcDbScale
 70
     0
300
1/64" = 1'-0"
140
0.015625
141
12.0
290
     0
  0
SCALE
  5
19A
102
{ACAD_REACTORS
330
10C
102
}
330
10C
100
AcDbScale
 70
     0
300
1/32" = 1'-0"
140
0.03125
141
12.0
290
     0
  0
SCALE
  5
19B
102
{ACAD_REACTORS
330
10C
102
}
330
10C
100
AcDbScale
 70
     0
300
1/16" = 1'-0"
140
0.0625
141
12.0
290
     0
  0
SCALE
  5
19C
102
{ACAD_REACTORS
330
10C
102
}
330
10C
100
AcDbScale
 70
     0
300
3/32" = 1'-0"
140
0.09375
141
12.0
290
     0
  0
SCALE
  5
19D
102
{ACAD_REACTORS
330
10C
102
}
330
10C
100
AcDbScale
 70
     0
300
1/8" = 1'-0"
140
0.125
141
12.0
290
     0
  0
SCALE
  5
19E
102
{ACAD_REACTORS
330
10C
102
}
330
10C
100
AcDbScale
 70
     0
300
3/16" = 1'-0"
140
0.1875
141
12.0
290
     0
  0
SCALE
  5
19F
102
{ACAD_REACTORS
330
10C
102
}
330
10C
100
AcDbScale
 70
     0
300
1/4" = 1'-0"
140
0.25
141
12.0
290
     0
  0
SCALE
  5
1A0
102
{ACAD_REACTORS
330
10C
102
}
330
10C
100
AcDbScale
 70
     0
300
3/8" = 1'-0"
140
0.375
141
12.0
290
     0
  0
SCALE
  5
1A1
102
{ACAD_REACTORS
330
10C
102
}
330
10C
100
AcDbScale
 70
     0
300
1/2" = 1'-0"
140
0.5
141
12.0
290
     0
  0
SCALE
  5
1A2
102
{ACAD_REACTORS
330
10C
102
}
330
10C
100
AcDbScale
 70
     0
300
3/4" = 1'-0"
140
0.75
141
12.0
290
     0
  0
SCALE
  5
1A3
102
{ACAD_REACTORS
330
10C
102
}
330
10C
100
AcDbScale
 70
     0
300
1" = 1'-0"
140
1.0
141
12.0
290
     0
  0
SCALE
  5
1A4
102
{ACAD_REACTORS
330
10C
102
}
330
10C
100
AcDbScale
 70
     0
300
1-1/2" = 1'-0"
140
1.5
141
12.0
290
     0
  0
SCALE
  5
1A5
102
{ACAD_REACTORS
330
10C
102
}
330
10C
100
AcDbScale
 70
     0
300
3" = 1'-0"
140
3.0
141
12.0
290
     0
  0
SCALE
  5
1A6
102
{ACAD_REACTORS
330
10C
102
}
330
10C
100
AcDbScale
 70
     0
300
6" = 1'-0"
140
6.0
141
12.0
290
     0
  0
SCALE
  5
1A7
102
{ACAD_REACTORS
330
10C
102
}
330
10C
100
AcDbScale
 70
     0
300
1'-0" = 1'-0"
140
12.0
141
12.0
290
     0
  0
TABLESTYLE
  5
7F
102
{ACAD_XDICTIONARY
360
162
102
}
102
{ACAD_REACTORS
330
7E
102
}
330
7E
100
AcDbTableStyle
  3
Standard
 70
     0
 71
     0
 40
1.5
 41
1.5
280
     0
281
     0
  7
Standard
140
4.5
170
     2
 62
     0
 63
     7
283
     0
274
    -2
284
     1
 64
     0
275
    -2
285
     1
 65
     0
276
    -2
286
     1
 66
     0
277
    -2
287
     1
 67
     0
278
    -2
288
     1
 68
     0
279
    -2
289
     1
 69
     0
  7
Standard
140
6.0
170
     5
 62
     0
 63
     7
283
     0
274
    -2
284
     1
 64
     0
275
    -2
285
     1
 65
     0
276
    -2
286
     1
 66
     0
277
    -2
287
     1
 67
     0
278
    -2
288
     1
 68
     0
279
    -2
289
     1
 69
     0
  7
Standard
140
4.5
170
     5
 62
     0
 63
     7
283
     0
274
    -2
284
     1
 64
     0
275
    -2
285
     1
 65
     0
276
    -2
286
     1
 66
     0
277
    -2
287
     1
 67
     0
278
    -2
288
     1
 68
     0
279
    -2
289
     1
 69
     0
  0
VISUALSTYLE
  5
F5
102
{ACAD_REACTORS
330
EF
102
}
330
EF
100
AcDbVisualStyle
  2
2dWireframe
 70
     4
 71
     0
 72
     2
 73
     1
 90
        0
 40
-0.6
 41
-30.0
 62
     5
 63
     7
 74
     1
 91
        4
 64
     7
 65
   257
 75
     1
175
     1
 42
1.0
 92
        0
 66
   257
 43
1.0
 76
     1
 77
     6
 78
     2
 67
     7
 79
     5
170
     0
171
     0
290
     0
174
     0
 93
        1
 44
0.0
173
     0
291
     0
 45
0.0
1001
ACAD
1000
AcDbSavedByObjectVersion
1070
     0
  0
VISUALSTYLE
  5
F7
102
{ACAD_REACTORS
330
EF
102
}
330
EF
100
AcDbVisualStyle
  2
3D Hidden
 70
     6
 71
     1
 72
     2
 73
     2
 90
        0
 40
-0.6
 41
-30.0
 62
     5
 63
     7
 74
     2
 91
        2
 64
     7
 65
   257
 75
     2
175
     1
 42
40.0
 92
        0
 66
   257
 43
1.0
 76
     1
 77
     6
 78
     2
 67
     7
 79
     3
170
     0
171
     0
290
     0
174
     0
 93
        1
 44
0.0
173
     0
291
     0
 45
0.0
1001
ACAD
1000
AcDbSavedByObjectVersion
1070
     0
  0
VISUALSTYLE
  5
F6
102
{ACAD_REACTORS
330
EF
102
}
330
EF
100
AcDbVisualStyle
  2
3dWireframe
 70
     5
 71
     0
 72
     2
 73
     1
 90
        0
 40
-0.6
 41
-30.0
 62
     5
 63
     7
 74
     1
 91
        4
 64
     7
 65
   257
 75
     1
175
     1
 42
1.0
 92
        0
 66
   257
 43
1.0
 76
     1
 77
     6
 78
     2
 67
     7
 79
     5
170
     0
171
     0
290
     0
174
     0
 93
        1
 44
0.0
173
     0
291
     0
 45
0.0
1001
ACAD
1000
AcDbSavedByObjectVersion
1070
     0
  0
VISUALSTYLE
  5
F4
102
{ACAD_REACTORS
330
EF
102
}
330
EF
100
AcDbVisualStyle
  2
Basic
 70
     7
 71
     1
 72
     0
 73
     1
 90
        0
 40
-0.6
 41
-30.0
 62
     5
 63
     7
 74
     0
 91
        4
 64
     7
 65
   257
 75
     1
175
     1
 42
1.0
 92
        8
 66
     7
 43
1.0
 76
     1
 77
     6
 78
     2
 67
     7
 79
     5
170
     0
171
     0
290
     0
174
     0
 93
        1
 44
0.0
173
     0
291
     1
 45
0.0
1001
ACAD
1000
AcDbSavedByObjectVersion
1070
     0
  0
VISUALSTYLE
  5
FB
102
{ACAD_REACTORS
330
EF
102
}
330
EF
100
AcDbVisualStyle
  2
Brighten
 70
    12
 71
     2
 72
     2
 73
     1
 90
        0
 40
-0.6
 41
-30.0
 62
     5
 63
     7
 74
     1
 91
        4
 64
     7
 65
   257
 75
     1
175
     1
 42
1.0
 92
        8
 66
     7
 43
1.0
 76
     1
 77
     6
 78
     2
 67
     7
 79
     5
170
     0
171
     0
290
     0
174
     0
 93
        1
 44
50.0
173
     0
291
     1
 45
0.0
1001
ACAD
1000
AcDbSavedByObjectVersion
1070
     0
  0
VISUALSTYLE
  5
FF
102
{ACAD_REACTORS
330
EF
102
}
330
EF
100
AcDbVisualStyle
  2
ColorChange
 70
    16
 71
     2
 72
     2
 73
     3
 90
        0
 40
-0.6
 41
-30.0
 62
     5
 63
     8
 74
     1
 91
        4
 64
     7
 65
   257
 75
     1
175
     1
 42
1.0
 92
        8
 66
     8
 43
1.0
 76
     1
 77
     6
 78
     2
 67
     7
 79
     5
170
     0
171
     0
290
     0
174
     0
 93
        1
 44
0.0
173
     0
291
     1
 45
0.0
1001
ACAD
1000
AcDbSavedByObjectVersion
1070
     0
  0
VISUALSTYLE
  5
F8
102
{ACAD_REACTORS
330
EF
102
}
330
EF
100
AcDbVisualStyle
  2
Conceptual
 70
     9
 71
     3
 72
     2
 73
     1
 90
        0
 40
-0.6
 41
-30.0
 62
     5
 63
     7
 74
     2
 91
        2
 64
     7
 65
   257
 75
     1
175
     1
 42
40.0
 92
        8
 66
     7
 43
1.0
 76
     1
 77
     6
 78
     2
 67
     7
 79
     3
170
     0
171
     0
290
     0
174
     0
 93
        1
 44
0.0
173
     0
291
     0
 45
0.0
1001
ACAD
1000
AcDbSavedByObjectVersion
1070
     0
  0
VISUALSTYLE
  5
FA
102
{ACAD_REACTORS
330
EF
102
}
330
EF
100
AcDbVisualStyle
  2
Dim
 70
    11
 71
     2
 72
     2
 73
     1
 90
        0
 40
-0.6
 41
-30.0
 62
     5
 63
     7
 74
     1
 91
        4
 64
     7
 65
   257
 75
     1
175
     1
 42
1.0
 92
        8
 66
     7
 43
1.0
 76
     1
 77
     6
 78
     2
 67
     7
 79
     5
170
     0
171
     0
290
     0
174
     0
 93
        1
 44
-50.0
173
     0
291
     1
 45
0.0
1001
ACAD
1000
AcDbSavedByObjectVersion
1070
     0
  0
VISUALSTYLE
  5
FE
102
{ACAD_REACTORS
330
EF
102
}
330
EF
100
AcDbVisualStyle
  2
Facepattern
 70
    15
 71
     2
 72
     2
 73
     1
 90
        0
 40
-0.6
 41
-30.0
 62
     5
 63
     7
 74
     1
 91
        4
 64
     7
 65
   257
 75
     1
175
     1
 42
1.0
 92
        8
 66
     7
 43
1.0
 76
     1
 77
     6
 78
     2
 67
     7
 79
     5
170
     0
171
     0
290
     0
174
     0
 93
        1
 44
0.0
173
     0
291
     1
 45
0.0
1001
ACAD
1000
AcDbSavedByObjectVersion
1070
     0
  0
VISUALSTYLE
  5
F0
102
{ACAD_REACTORS
330
EF
102
}
330
EF
100
AcDbVisualStyle
  2
Flat
 70
     0
 71
     2
 72
     1
 73
     1
 90
        2
 40
-0.6
 41
30.0
 62
     5
 63
     7
 74
     0
 91
        4
 64
     7
 65
   257
 75
     1
175
     1
 42
1.0
 92
        8
 66
     7
 43
1.0
 76
     1
 77
     6
 78
     2
 67
     7
 79
     5
170
     0
171
     0
290
     0
174
     0
 93
        1
 44
0.0
173
     0
291
     1
 45
0.0
1001
ACAD
1000
AcDbSavedByObjectVersion
1070
     0
  0
VISUALSTYLE
  5
F1
102
{ACAD_REACTORS
330
EF
102
}
330
EF
100
AcDbVisualStyle
  2
FlatWithEdges
 70
     1
 71
     2
 72
     1
 73
     1
 90
        2
 40
-0.6
 41
30.0
 62
     5
 63
     7
 74
     1
 91
        4
 64
     7
 65
   257
 75
     1
175
     1
 42
1.0
 92
        0
 66
   257
 43
1.0
 76
     1
 77
     6
 78
     2
 67
     7
 79
     5
170
     0
171
     0
290
     0
174
     0
 93
        1
 44
0.0
173
     0
291
     1
 45
0.0
1001
ACAD
1000
AcDbSavedByObjectVersion
1070
     0
  0
VISUALSTYLE
  5
F2
102
{ACAD_REACTORS
330
EF
102
}
330
EF
100
AcDbVisualStyle
  2
Gouraud
 70
     2
 71
     2
 72
     2
 73
     1
 90
        2
 40
-0.6
 41
30.0
 62
     5
 63
     7
 74
     0
 91
        4
 64
     7
 65
   257
 75
     1
175
     1
 42
1.0
 92
        0
 66
     7
 43
1.0
 76
     1
 77
     6
 78
     2
 67
     7
 79
     5
170
     0
171
     0
290
     0
174
     0
 93
        1
 44
0.0
173
     0
291
     1
 45
0.0
1001
ACAD
1000
AcDbSavedByObjectVersion
1070
     0
  0
VISUALSTYLE
  5
F3
102
{ACAD_REACTORS
330
EF
102
}
330
EF
100
AcDbVisualStyle
  2
GouraudWithEdges
 70
     3
 71
     2
 72
     2
 73
     1
 90
        2
 40
-0.6
 41
30.0
 62
     5
 63
     7
 74
     1
 91
        4
 64
     7
 65
   257
 75
     1
175
     1
 42
1.0
 92
        0
 66
   257
 43
1.0
 76
     1
 77
     6
 78
     2
 67
     7
 79
     5
170
     0
171
     0
290
     0
174
     0
 93
        1
 44
0.0
173
     0
291
     1
 45
0.0
1001
ACAD
1000
AcDbSavedByObjectVersion
1070
     0
  0
VISUALSTYLE
  5
FD
102
{ACAD_REACTORS
330
EF
102
}
330
EF
100
AcDbVisualStyle
  2
Linepattern
 70
    14
 71
     2
 72
     2
 73
     1
 90
        0
 40
-0.6
 41
-30.0
 62
     5
 63
     7
 74
     1
 91
        4
 64
     7
 65
   257
 75
     7
175
     7
 42
1.0
 92
        8
 66
     7
 43
1.0
 76
     1
 77
     6
 78
     2
 67
     7
 79
     5
170
     0
171
     0
290
     0
174
     0
 93
        1
 44
0.0
173
     0
291
     1
 45
0.0
1001
ACAD
1000
AcDbSavedByObjectVersion
1070
     0
  0
VISUALSTYLE
  5
F9
102
{ACAD_REACTORS
330
EF
102
}
330
EF
100
AcDbVisualStyle
  2
Realistic
 70
     8
 71
     2
 72
     2
 73
     1
 90
        0
 40
-0.6
 41
-30.0
 62
     5
 63
     7
 74
     1
 91
        0
 64
     7
 65
   257
 75
     1
175
     1
 42
1.0
 92
        8
 66
     8
 43
1.0
 76
     1
 77
     6
 78
     2
 67
     7
 79
     5
170
     0
171
     0
290
     0
174
     0
 93
       13
 44
0.0
173
     0
291
     0
 45
0.0
1001
ACAD
1000
AcDbSavedByObjectVersion
1070
     0
  0
VISUALSTYLE
  5
FC
102
{ACAD_REACTORS
330
EF
102
}
330
EF
100
AcDbVisualStyle
  2
Thicken
 70
    13
 71
     2
 72
     2
 73
     1
 90
        0
 40
-0.6
 41
-30.0
 62
     5
 63
     7
 74
     1
 91
        4
 64
     7
 65
   257
 75
     1
175
     1
 42
1.0
 92
       12
 66
     7
 43
1.0
 76
     1
 77
     6
 78
     2
 67
     7
 79
     5
170
     0
171
     0
290
     0
174
     0
 93
        1
 44
0.0
173
     0
291
     1
 45
0.0
1001
ACAD
1000
AcDbSavedByObjectVersion
1070
     0
  0
DICTIONARYVAR
  5
146
102
{ACAD_REACTORS
330
5E
102
}
330
5E
100
DictionaryVariables
280
     0
  1
1:1
  0
DICTIONARYVAR
  5
145
102
{ACAD_REACTORS
330
5E
102
}
330
5E
100
DictionaryVariables
280
     0
  1
STANDARD
  0
DICTIONARYVAR
  5
84
102
{ACAD_REACTORS
330
5E
102
}
330
5E
100
DictionaryVariables
280
     0
  1
STANDARD
  0
DICTIONARYVAR
  5
5F
102
{ACAD_REACTORS
330
5E
102
}
330
5E
100
DictionaryVariables
280
     0
  1
2
  0
DICTIONARYVAR
  5
63
102
{ACAD_REACTORS
330
5E
102
}
330
5E
100
DictionaryVariables
280
     0
  1
1
  0
DICTIONARYVAR
  5
C4D
102
{ACAD_REACTORS
330
5E
102
}
330
5E
100
DictionaryVariables
280
     0
  1
0
  0
DICTIONARYVAR
  5
C0F
102
{ACAD_REACTORS
330
5E
102
}
330
5E
100
DictionaryVariables
280
     0
  1
2
  0
DICTIONARYVAR
  5
C0E
102
{ACAD_REACTORS
330
5E
102
}
330
5E
100
DictionaryVariables
280
     0
  1
1
  0
DICTIONARYVAR
  5
C4F
102
{ACAD_REACTORS
330
5E
102
}
330
5E
100
DictionaryVariables
280
     0
  1
80.000000
  0
DICTIONARYVAR
  5
C4E
102
{ACAD_REACTORS
330
5E
102
}
330
5E
100
DictionaryVariables
280
     0
  1
5.000000
  0
DICTIONARYVAR
  5
C4C
102
{ACAD_REACTORS
330
5E
102
}
330
5E
100
DictionaryVariables
280
     0
  1
127
  0
DICTIONARY
  5
C55
330
D3
100
AcDbDictionary
280
     1
281
     1
  3
ACAD_XREC_ROUNDTRIP
360
C56
  0
DICTIONARY
  5
C57
330
D7
100
AcDbDictionary
280
     1
281
     1
  3
ACAD_XREC_ROUNDTRIP
360
C58
  0
DICTIONARY
  5
C52
330
22
100
AcDbDictionary
280
     1
281
     1
  3
ACAD_XREC_ROUNDTRIP
360
C53
  0
DICTIONARY
  5
C5B
330
ED
100
AcDbDictionary
280
     1
281
     1
  3
ACAD_XREC_ROUNDTRIP
360
C5C
  0
DICTIONARY
  5
C59
330
EC
100
AcDbDictionary
280
     1
281
     1
  3
ACAD_XREC_ROUNDTRIP
360
C5A
  0
DICTIONARY
  5
173
330
EE
100
AcDbDictionary
280
     1
281
     1
  3
ACAD_XREC_ROUNDTRIP
360
C5D
  3
BUMPTILE
360
175
  3
DIFFUSETILE
360
174
  3
OPACITYTILE
360
176
  3
REFLECTIONTILE
360
177
  0
DICTIONARY
  5
162
330
7F
100
AcDbDictionary
280
     1
281
     1
  3
ACAD_ROUNDTRIP_2008_TABLESTYLE_CELLSTYLEMAP
360
C50
  3
ACAD_XREC_ROUNDTRIP
360
C54
  0
XRECORD
  5
C56
102
{ACAD_REACTORS
330
C55
102
}
330
C55
100
AcDbXrecord
280
     1
102
SHADEPLOT
 70
     0
102
SHADEPLOTRESLEVEL
 70
     2
102
SHADEPLOTCUSTOMDPI
 70
   300
  0
XRECORD
  5
C58
102
{ACAD_REACTORS
330
C57
102
}
330
C57
100
AcDbXrecord
280
     1
102
SHADEPLOT
 70
     0
102
SHADEPLOTRESLEVEL
 70
     2
102
SHADEPLOTCUSTOMDPI
 70
   300
  0
XRECORD
  5
C53
102
{ACAD_REACTORS
330
C52
102
}
330
C52
100
AcDbXrecord
280
     1
102
SHADEPLOT
 70
     0
102
SHADEPLOTRESLEVEL
 70
     2
102
SHADEPLOTCUSTOMDPI
 70
   300
  0
XRECORD
  5
C5C
102
{ACAD_REACTORS
330
C5B
102
}
330
C5B
100
AcDbXrecord
280
     1
102
MATERIAL
148
0.0
149
0.0
149
0.0
 93
        0
 94
       63
282
     0
 72
     1
 77
     1
171
     1
175
     1
179
     1
273
     0
  0
XRECORD
  5
C5A
102
{ACAD_REACTORS
330
C59
102
}
330
C59
100
AcDbXrecord
280
     1
102
MATERIAL
148
0.0
149
0.0
149
0.0
 93
        0
 94
       63
282
     0
 72
     1
 77
     1
171
     1
175
     1
179
     1
273
     0
  0
XRECORD
  5
C5D
102
{ACAD_REACTORS
330
173
102
}
330
173
100
AcDbXrecord
280
     1
102
MATERIAL
148
0.0
149
0.0
149
0.0
 93
        0
 94
       63
282
     0
 72
     1
 77
     1
171
     1
175
     1
179
     1
273
     0
  0
XRECORD
  5
175
102
{ACAD_REACTORS
330
173
102
}
330
173
100
AcDbXrecord
280
     1
270
     1
271
     1
  0
XRECORD
  5
174
102
{ACAD_REACTORS
330
173
102
}
330
173
100
AcDbXrecord
280
     1
270
     1
271
     1
  0
XRECORD
  5
176
102
{ACAD_REACTORS
330
173
102
}
330
173
100
AcDbXrecord
280
     1
270
     1
271
     1
  0
XRECORD
  5
177
102
{ACAD_REACTORS
330
173
102
}
330
173
100
AcDbXrecord
280
     1
270
     1
271
     1
  0
CELLSTYLEMAP
  5
C50
102
{ACAD_REACTORS
330
162
102
}
330
162
100
AcDbCellStyleMap
 90
        3
300
CELLSTYLE
  1
TABLEFORMAT_BEGIN
 90
        5
170
     1
 91
        0
 92
    32768
 62
   257
 93
        1
300
CONTENTFORMAT
  1
CONTENTFORMAT_BEGIN
 90
        0
 91
        0
 92
      512
 93
        0
300

 40
0.0
140
1.0
 94
        5
 62
     0
340
11
144
6.0
309
CONTENTFORMAT_END
171
     1
301
MARGIN
  1
CELLMARGIN_BEGIN
 40
1.5
 40
1.5
 40
1.5
 40
1.5
 40
4.5
 40
4.5
309
CELLMARGIN_END
 94
        6
 95
        1
302
GRIDFORMAT
  1
GRIDFORMAT_BEGIN
 90
        0
 91
        1
 62
     0
 92
       -2
340
14
 93
        0
 40
1.125
309
GRIDFORMAT_END
 95
        2
302
GRIDFORMAT
  1
GRIDFORMAT_BEGIN
 90
        0
 91
        1
 62
     0
 92
       -2
340
14
 93
        0
 40
1.125
309
GRIDFORMAT_END
 95
        4
302
GRIDFORMAT
  1
GRIDFORMAT_BEGIN
 90
        0
 91
        1
 62
     0
 92
       -2
340
14
 93
        0
 40
1.125
309
GRIDFORMAT_END
 95
        8
302
GRIDFORMAT
  1
GRIDFORMAT_BEGIN
 90
        0
 91
        1
 62
     0
 92
       -2
340
14
 93
        0
 40
1.125
309
GRIDFORMAT_END
 95
       16
302
GRIDFORMAT
  1
GRIDFORMAT_BEGIN
 90
        0
 91
        1
 62
     0
 92
       -2
340
14
 93
        0
 40
1.125
309
GRIDFORMAT_END
 95
       32
302
GRIDFORMAT
  1
GRIDFORMAT_BEGIN
 90
        0
 91
        1
 62
     0
 92
       -2
340
14
 93
        0
 40
1.125
309
GRIDFORMAT_END
309
TABLEFORMAT_END
  1
CELLSTYLE_BEGIN
 90
        1
 91
        1
300
_TITLE
309
CELLSTYLE_END
300
CELLSTYLE
  1
TABLEFORMAT_BEGIN
 90
        5
170
     1
 91
        0
 92
        0
 62
   257
 93
        1
300
CONTENTFORMAT
  1
CONTENTFORMAT_BEGIN
 90
        0
 91
        0
 92
      512
 93
        0
300

 40
0.0
140
1.0
 94
        5
 62
     0
340
11
144
4.5
309
CONTENTFORMAT_END
171
     1
301
MARGIN
  1
CELLMARGIN_BEGIN
 40
1.5
 40
1.5
 40
1.5
 40
1.5
 40
4.5
 40
4.5
309
CELLMARGIN_END
 94
        6
 95
        1
302
GRIDFORMAT
  1
GRIDFORMAT_BEGIN
 90
        0
 91
        1
 62
     0
 92
       -2
340
14
 93
        0
 40
1.125
309
GRIDFORMAT_END
 95
        2
302
GRIDFORMAT
  1
GRIDFORMAT_BEGIN
 90
        0
 91
        1
 62
     0
 92
       -2
340
14
 93
        0
 40
1.125
309
GRIDFORMAT_END
 95
        4
302
GRIDFORMAT
  1
GRIDFORMAT_BEGIN
 90
        0
 91
        1
 62
     0
 92
       -2
340
14
 93
        0
 40
1.125
309
GRIDFORMAT_END
 95
        8
302
GRIDFORMAT
  1
GRIDFORMAT_BEGIN
 90
        0
 91
        1
 62
     0
 92
       -2
340
14
 93
        0
 40
1.125
309
GRIDFORMAT_END
 95
       16
302
GRIDFORMAT
  1
GRIDFORMAT_BEGIN
 90
        0
 91
        1
 62
     0
 92
       -2
340
14
 93
        0
 40
1.125
309
GRIDFORMAT_END
 95
       32
302
GRIDFORMAT
  1
GRIDFORMAT_BEGIN
 90
        0
 91
        1
 62
     0
 92
       -2
340
14
 93
        0
 40
1.125
309
GRIDFORMAT_END
309
TABLEFORMAT_END
  1
CELLSTYLE_BEGIN
 90
        2
 91
        1
300
_HEADER
309
CELLSTYLE_END
300
CELLSTYLE
  1
TABLEFORMAT_BEGIN
 90
        5
170
     1
 91
        0
 92
        0
 62
   257
 93
        1
300
CONTENTFORMAT
  1
CONTENTFORMAT_BEGIN
 90
        0
 91
        0
 92
      512
 93
        0
300

 40
0.0
140
1.0
 94
        2
 62
     0
340
11
144
4.5
309
CONTENTFORMAT_END
171
     1
301
MARGIN
  1
CELLMARGIN_BEGIN
 40
1.5
 40
1.5
 40
1.5
 40
1.5
 40
4.5
 40
4.5
309
CELLMARGIN_END
 94
        6
 95
        1
302
GRIDFORMAT
  1
GRIDFORMAT_BEGIN
 90
        0
 91
        1
 62
     0
 92
       -2
340
14
 93
        0
 40
1.125
309
GRIDFORMAT_END
 95
        2
302
GRIDFORMAT
  1
GRIDFORMAT_BEGIN
 90
        0
 91
        1
 62
     0
 92
       -2
340
14
 93
        0
 40
1.125
309
GRIDFORMAT_END
 95
        4
302
GRIDFORMAT
  1
GRIDFORMAT_BEGIN
 90
        0
 91
        1
 62
     0
 92
       -2
340
14
 93
        0
 40
1.125
309
GRIDFORMAT_END
 95
        8
302
GRIDFORMAT
  1
GRIDFORMAT_BEGIN
 90
        0
 91
        1
 62
     0
 92
       -2
340
14
 93
        0
 40
1.125
309
GRIDFORMAT_END
 95
       16
302
GRIDFORMAT
  1
GRIDFORMAT_BEGIN
 90
        0
 91
        1
 62
     0
 92
       -2
340
14
 93
        0
 40
1.125
309
GRIDFORMAT_END
 95
       32
302
GRIDFORMAT
  1
GRIDFORMAT_BEGIN
 90
        0
 91
        1
 62
     0
 92
       -2
340
14
 93
        0
 40
1.125
309
GRIDFORMAT_END
309
TABLEFORMAT_END
  1
CELLSTYLE_BEGIN
 90
        3
 91
        2
300
_DATA
309
CELLSTYLE_END
  0
XRECORD
  5
C54
102
{ACAD_REACTORS
330
162
102
}
330
162
100
AcDbXrecord
280
     1
102
ACAD_ROUNDTRIP_PRE2007_TABLESTYLE
 90
      512
 91
        0
  1

 92
      512
 93
        0
  2

 94
      512
 95
        0
  3

  0
ENDSEC
  0
EOF
