  0
SECTION
  2
HEADER
  9
$ACADVER
  1
AC1015
  9
$ACADMAINTVER
 70
    20
  9
$DWGCODEPAGE
  3
ANSI_1254
  9
$INSBASE
 10
0.0
 20
0.0
 30
0.0
  9
$EXTMIN
 10
1549.16639890149
 20
1128.201754566185
 30
0.0
  9
$EXTMAX
 10
1642.192112035937
 20
1197.478670278454
 30
0.0
  9
$LIMMIN
 10
0.0
 20
0.0
  9
$LIMMAX
 10
420.0
 20
297.0
  9
$ORTHOMODE
 70
     0
  9
$REGENMODE
 70
     1
  9
$FILLMODE
 70
     1
  9
$QTEXTMODE
 70
     0
  9
$MIRRTEXT
 70
     0
  9
$LTSCALE
 40
1.0
  9
$ATTMODE
 70
     1
  9
$TEXTSIZE
 40
2.5
  9
$TRACEWID
 40
1.0
  9
$TEXTSTYLE
  7
Standard
  9
$CLAYER
  8
0
  9
$CELTYPE
  6
ByLayer
  9
$CECOLOR
 62
   256
  9
$CELTSCALE
 40
1.0
  9
$DISPSILH
 70
     0
  9
$DIMSCALE
 40
1.0
  9
$DIMASZ
 40
2.5
  9
$DIMEXO
 40
0.625
  9
$DIMDLI
 40
3.75
  9
$DIMRND
 40
0.0
  9
$DIMDLE
 40
0.0
  9
$DIMEXE
 40
1.25
  9
$DIMTP
 40
0.0
  9
$DIMTM
 40
0.0
  9
$DIMTXT
 40
2.5
  9
$DIMCEN
 40
2.5
  9
$DIMTSZ
 40
0.0
  9
$DIMTOL
 70
     0
  9
$DIMLIM
 70
     0
  9
$DIMTIH
 70
     0
  9
$DIMTOH
 70
     0
  9
$DIMSE1
 70
     0
  9
$DIMSE2
 70
     0
  9
$DIMTAD
 70
     1
  9
$DIMZIN
 70
     8
  9
$DIMBLK
  1

  9
$DIMASO
 70
     1
  9
$DIMSHO
 70
     1
  9
$DIMPOST
  1

  9
$DIMAPOST
  1

  9
$DIMALT
 70
     0
  9
$DIMALTD
 70
     3
  9
$DIMALTF
 40
0.03937007874016
  9
$DIMLFAC
 40
1.0
  9
$DIMTOFL
 70
     1
  9
$DIMTVP
 40
0.0
  9
$DIMTIX
 70
     0
  9
$DIMSOXD
 70
     0
  9
$DIMSAH
 70
     0
  9
$DIMBLK1
  1

  9
$DIMBLK2
  1

  9
$DIMSTYLE
  2
ISO-25
  9
$DIMCLRD
 70
     0
  9
$DIMCLRE
 70
     0
  9
$DIMCLRT
 70
     0
  9
$DIMTFAC
 40
1.0
  9
$DIMGAP
 40
0.625
  9
$DIMJUST
 70
     0
  9
$DIMSD1
 70
     0
  9
$DIMSD2
 70
     0
  9
$DIMTOLJ
 70
     0
  9
$DIMTZIN
 70
     8
  9
$DIMALTZ
 70
     0
  9
$DIMALTTZ
 70
     0
  9
$DIMUPT
 70
     0
  9
$DIMDEC
 70
     2
  9
$DIMTDEC
 70
     2
  9
$DIMALTU
 70
     2
  9
$DIMALTTD
 70
     3
  9
$DIMTXSTY
  7
Standard
  9
$DIMAUNIT
 70
     0
  9
$DIMADEC
 70
     0
  9
$DIMALTRND
 40
0.0
  9
$DIMAZIN
 70
     0
  9
$DIMDSEP
 70
    44
  9
$DIMATFIT
 70
     3
  9
$DIMFRAC
 70
     0
  9
$DIMLDRBLK
  1

  9
$DIMLUNIT
 70
     2
  9
$DIMLWD
 70
    -2
  9
$DIMLWE
 70
    -2
  9
$DIMTMOVE
 70
     0
  9
$LUNITS
 70
     2
  9
$LUPREC
 70
     4
  9
$SKETCHINC
 40
1.0
  9
$FILLETRAD
 40
0.0
  9
$AUNITS
 70
     0
  9
$AUPREC
 70
     0
  9
$MENU
  1
.
  9
$ELEVATION
 40
0.0
  9
$PELEVATION
 40
0.0
  9
$THICKNESS
 40
0.0
  9
$LIMCHECK
 70
     0
  9
$CHAMFERA
 40
0.0
  9
$CHAMFERB
 40
0.0
  9
$CHAMFERC
 40
0.0
  9
$CHAMFERD
 40
0.0
  9
$SKPOLY
 70
     0
  9
$TDCREATE
 40
2458536.422806123
  9
$TDUCREATE
 40
2458536.297806123
  9
$TDUPDATE
 40
2459089.544716447
  9
$TDUUPDATE
 40
2459089.419716447
  9
$TDINDWG
 40
0.0013332639
  9
$TDUSRTIMER
 40
0.0013332639
  9
$USRTIMER
 70
     1
  9
$ANGBASE
 50
0.0
  9
$ANGDIR
 70
     0
  9
$PDMODE
 70
     0
  9
$PDSIZE
 40
0.0
  9
$PLINEWID
 40
0.0
  9
$SPLFRAME
 70
     0
  9
$SPLINETYPE
 70
     6
  9
$SPLINESEGS
 70
     8
  9
$HANDSEED
  5
107E
  9
$SURFTAB1
 70
     6
  9
$SURFTAB2
 70
     6
  9
$SURFTYPE
 70
     6
  9
$SURFU
 70
     6
  9
$SURFV
 70
     6
  9
$UCSBASE
  2

  9
$UCSNAME
  2

  9
$UCSORG
 10
0.0
 20
0.0
 30
0.0
  9
$UCSXDIR
 10
1.0
 20
0.0
 30
0.0
  9
$UCSYDIR
 10
0.0
 20
1.0
 30
0.0
  9
$UCSORTHOREF
  2

  9
$UCSORTHOVIEW
 70
     0
  9
$UCSORGTOP
 10
0.0
 20
0.0
 30
0.0
  9
$UCSORGBOTTOM
 10
0.0
 20
0.0
 30
0.0
  9
$UCSORGLEFT
 10
0.0
 20
0.0
 30
0.0
  9
$UCSORGRIGHT
 10
0.0
 20
0.0
 30
0.0
  9
$UCSORGFRONT
 10
0.0
 20
0.0
 30
0.0
  9
$UCSORGBACK
 10
0.0
 20
0.0
 30
0.0
  9
$PUCSBASE
  2

  9
$PUCSNAME
  2

  9
$PUCSORG
 10
0.0
 20
0.0
 30
0.0
  9
$PUCSXDIR
 10
1.0
 20
0.0
 30
0.0
  9
$PUCSYDIR
 10
0.0
 20
1.0
 30
0.0
  9
$PUCSORTHOREF
  2

  9
$PUCSORTHOVIEW
 70
     0
  9
$PUCSORGTOP
 10
0.0
 20
0.0
 30
0.0
  9
$PUCSORGBOTTOM
 10
0.0
 20
0.0
 30
0.0
  9
$PUCSORGLEFT
 10
0.0
 20
0.0
 30
0.0
  9
$PUCSORGRIGHT
 10
0.0
 20
0.0
 30
0.0
  9
$PUCSORGFRONT
 10
0.0
 20
0.0
 30
0.0
  9
$PUCSORGBACK
 10
0.0
 20
0.0
 30
0.0
  9
$USERI1
 70
     0
  9
$USERI2
 70
     0
  9
$USERI3
 70
     0
  9
$USERI4
 70
     0
  9
$USERI5
 70
     0
  9
$USERR1
 40
0.0
  9
$USERR2
 40
0.0
  9
$USERR3
 40
0.0
  9
$USERR4
 40
0.0
  9
$USERR5
 40
0.0
  9
$WORLDVIEW
 70
     1
  9
$SHADEDGE
 70
     3
  9
$SHADEDIF
 70
    70
  9
$TILEMODE
 70
     1
  9
$MAXACTVP
 70
    64
  9
$PINSBASE
 10
0.0
 20
0.0
 30
0.0
  9
$PLIMCHECK
 70
     0
  9
$PEXTMIN
 10
0.0
 20
0.0
 30
0.0
  9
$PEXTMAX
 10
0.0
 20
0.0
 30
0.0
  9
$PLIMMIN
 10
0.0
 20
0.0
  9
$PLIMMAX
 10
12.0
 20
9.0
  9
$UNITMODE
 70
     0
  9
$VISRETAIN
 70
     1
  9
$PLINEGEN
 70
     0
  9
$PSLTSCALE
 70
     1
  9
$TREEDEPTH
 70
  3020
  9
$CMLSTYLE
  2
Standard
  9
$CMLJUST
 70
     0
  9
$CMLSCALE
 40
20.0
  9
$PROXYGRAPHICS
 70
     1
  9
$MEASUREMENT
 70
     1
  9
$CELWEIGHT
370
    -1
  9
$ENDCAPS
280
     0
  9
$JOINSTYLE
280
     0
  9
$LWDISPLAY
290
     0
  9
$INSUNITS
 70
     4
  9
$HYPERLINKBASE
  1

  9
$STYLESHEET
  1

  9
$XEDIT
290
     1
  9
$CEPSNTYPE
380
     0
  9
$PSTYLEMODE
290
     1
  9
$FINGERPRINTGUID
  2
{8E9552C9-9327-4A86-B286-AAEE2DEC4867}
  9
$VERSIONGUID
  2
{F2A58B20-51D8-440B-B615-C0C3BAA0DDA0}
  9
$EXTNAMES
290
     1
  9
$PSVPSCALE
 40
0.0
  9
$OLESTARTUP
290
     0
  0
ENDSEC
  0
SECTION
  2
CLASSES
  0
CLASS
  1
ACDBDICTIONARYWDFLT
  2
AcDbDictionaryWithDefault
  3
ObjectDBX Classes
 90
        0
280
     0
281
     0
  0
CLASS
  1
ACDBPLACEHOLDER
  2
AcDbPlaceHolder
  3
ObjectDBX Classes
 90
        0
280
     0
281
     0
  0
CLASS
  1
LAYOUT
  2
AcDbLayout
  3
ObjectDBX Classes
 90
        0
280
     0
281
     0
  0
CLASS
  1
DICTIONARYVAR
  2
AcDbDictionaryVar
  3
ObjectDBX Classes
 90
        0
280
     0
281
     0
  0
CLASS
  1
TABLESTYLE
  2
AcDbTableStyle
  3
ObjectDBX Classes
 90
     4095
280
     0
281
     0
  0
CLASS
  1
MATERIAL
  2
AcDbMaterial
  3
ObjectDBX Classes
 90
     1153
280
     0
281
     0
  0
CLASS
  1
VISUALSTYLE
  2
AcDbVisualStyle
  3
ObjectDBX Classes
 90
     4095
280
     0
281
     0
  0
CLASS
  1
SCALE
  2
AcDbScale
  3
ObjectDBX Classes
 90
     1153
280
     0
281
     0
  0
CLASS
  1
MLEADERSTYLE
  2
AcDbMLeaderStyle
  3
ACDB_MLEADERSTYLE_CLASS
 90
     4095
280
     0
281
     0
  0
CLASS
  1
CELLSTYLEMAP
  2
AcDbCellStyleMap
  3
ObjectDBX Classes
 90
     1152
280
     0
281
     0
  0
CLASS
  1
DIMASSOC
  2
AcDbDimAssoc
  3
"AcDbDimAssoc|Product Desc:     AcDim ARX App For Dimension|Company:          Autodesk, Inc.|WEB Address:      www.autodesk.com"
 90
    32768
280
     0
281
     0
  0
CLASS
  1
ACAD_EVALUATION_GRAPH
  2
AcDbEvalGraph
  3
ObjectDBX Classes
 90
    33921
280
     0
281
     0
  0
CLASS
  1
ACAECUSTOBJ
  2
AcAeEditorObj
  3
AcAeEditorObj
 90
    33792
280
     0
281
     0
  0
CLASS
  1
ACDB_DYNAMICBLOCKPURGEPREVENTER_VERSION
  2
AcDbDynamicBlockPurgePreventer
  3
ObjectDBX Classes
 90
    33921
280
     0
281
     0
  0
ENDSEC
  0
SECTION
  2
TABLES
  0
TABLE
  2
VPORT
  5
8
330
0
100
AcDbSymbolTable
 70
     1
  0
VPORT
  5
EA
330
8
100
AcDbSymbolTableRecord
100
AcDbViewportTableRecord
  2
*Active
 70
     0
 10
0.0
 20
0.0
 11
1.0
 21
1.0
 12
1628.749204917989
 22
1169.353516157749
 13
0.0
 23
0.0
 14
10.0
 24
10.0
 15
10.0
 25
10.0
 16
0.0
 26
0.0
 36
1.0
 17
0.0
 27
0.0
 37
0.0
 40
117.1924293085831
 41
1.903110047846889
 42
50.0
 43
0.0
 44
0.0
 50
0.0
 51
0.0
 71
     0
 72
  1000
 73
     1
 74
     3
 75
     0
 76
     0
 77
     0
 78
     0
281
     0
 65
     1
110
0.0
120
0.0
130
0.0
111
1.0
121
0.0
131
0.0
112
0.0
122
1.0
132
0.0
 79
     0
146
0.0
  0
ENDTAB
  0
TABLE
  2
LTYPE
  5
5
330
0
100
AcDbSymbolTable
 70
     1
  0
LTYPE
  5
14
330
5
100
AcDbSymbolTableRecord
100
AcDbLinetypeTableRecord
  2
ByBlock
 70
     0
  3

 72
    65
 73
     0
 40
0.0
  0
LTYPE
  5
15
330
5
100
AcDbSymbolTableRecord
100
AcDbLinetypeTableRecord
  2
ByLayer
 70
     0
  3

 72
    65
 73
     0
 40
0.0
  0
LTYPE
  5
16
330
5
100
AcDbSymbolTableRecord
100
AcDbLinetypeTableRecord
  2
Continuous
 70
     0
  3
Solid line
 72
    65
 73
     0
 40
0.0
  0
ENDTAB
  0
TABLE
  2
LAYER
  5
2
330
0
100
AcDbSymbolTable
 70
     2
  0
LAYER
  5
10
102
{ACAD_XDICTIONARY
360
13C
102
}
330
2
100
AcDbSymbolTableRecord
100
AcDbLayerTableRecord
  2
0
 70
     0
 62
     7
  6
Continuous
370
    -3
390
F
  0
LAYER
  5
D2F
330
2
100
AcDbSymbolTableRecord
100
AcDbLayerTableRecord
  2
Defpoints
 70
     0
 62
     7
  6
Continuous
290
     0
370
    -3
390
F
  0
ENDTAB
  0
TABLE
  2
STYLE
  5
3
330
0
100
AcDbSymbolTable
 70
     2
  0
STYLE
  5
11
330
3
100
AcDbSymbolTableRecord
100
AcDbTextStyleTableRecord
  2
Standard
 70
     0
 40
0.0
 41
1.0
 50
0.0
 71
     0
 42
2.5
  3
txt
  4

  0
STYLE
  5
132
330
3
100
AcDbSymbolTableRecord
100
AcDbTextStyleTableRecord
  2
Annotative
 70
     0
 40
0.0
 41
1.0
 50
0.0
 71
     0
 42
2.5
  3
txt.shx
  4

1001
AcadAnnotative
1000
AnnotativeData
1002
{
1070
     1
1070
     1
1002
}
  0
ENDTAB
  0
TABLE
  2
VIEW
  5
6
330
0
100
AcDbSymbolTable
 70
     0
  0
ENDTAB
  0
TABLE
  2
UCS
  5
7
330
0
100
AcDbSymbolTable
 70
     0
  0
ENDTAB
  0
TABLE
  2
APPID
  5
9
330
0
100
AcDbSymbolTable
 70
    12
  0
APPID
  5
12
330
9
100
AcDbSymbolTableRecord
100
AcDbRegAppTableRecord
  2
ACAD
 70
     0
  0
APPID
  5
9E
330
9
100
AcDbSymbolTableRecord
100
AcDbRegAppTableRecord
  2
ACAD_PSEXT
 70
     0
  0
APPID
  5
133
330
9
100
AcDbSymbolTableRecord
100
AcDbRegAppTableRecord
  2
AcadAnnoPO
 70
     0
  0
APPID
  5
134
330
9
100
AcDbSymbolTableRecord
100
AcDbRegAppTableRecord
  2
AcadAnnotative
 70
     0
  0
APPID
  5
135
330
9
100
AcDbSymbolTableRecord
100
AcDbRegAppTableRecord
  2
ACAD_DSTYLE_DIMJAG
 70
     0
  0
APPID
  5
136
330
9
100
AcDbSymbolTableRecord
100
AcDbRegAppTableRecord
  2
ACAD_DSTYLE_DIMTALN
 70
     0
  0
APPID
  5
165
330
9
100
AcDbSymbolTableRecord
100
AcDbRegAppTableRecord
  2
ACAD_MLEADERVER
 70
     0
  0
APPID
  5
E8E
330
9
100
AcDbSymbolTableRecord
100
AcDbRegAppTableRecord
  2
ACAUTHENVIRON
 70
     0
  0
APPID
  5
E93
330
9
100
AcDbSymbolTableRecord
100
AcDbRegAppTableRecord
  2
ACAD_EXEMPT_FROM_CAD_STANDARDS
 70
     0
  0
APPID
  5
E99
330
9
100
AcDbSymbolTableRecord
100
AcDbRegAppTableRecord
  2
AcDbDynamicBlockTrueName
 70
     0
  0
APPID
  5
E9A
330
9
100
AcDbSymbolTableRecord
100
AcDbRegAppTableRecord
  2
AcDbDynamicBlockGUID
 70
     0
  0
APPID
  5
E9C
330
9
100
AcDbSymbolTableRecord
100
AcDbRegAppTableRecord
  2
AcDbBlockRepETag
 70
     0
  0
ENDTAB
  0
TABLE
  2
DIMSTYLE
  5
A
330
0
100
AcDbSymbolTable
 70
     2
100
AcDbDimStyleTable
 71
     2
340
27
340
137
  0
DIMSTYLE
105
27
330
A
100
AcDbSymbolTableRecord
100
AcDbDimStyleTableRecord
  2
ISO-25
 70
     0
 41
2.5
 42
0.625
 43
3.75
 44
1.25
 73
     0
 74
     0
 77
     1
 78
     8
140
2.5
141
2.5
143
0.03937007874016
147
0.625
171
     3
172
     1
271
     2
272
     2
274
     3
278
    44
283
     0
284
     8
340
11
  0
DIMSTYLE
105
137
330
A
100
AcDbSymbolTableRecord
100
AcDbDimStyleTableRecord
  2
Annotative
 70
     0
 40
0.0
 41
2.5
 42
0.625
 43
3.75
 44
1.25
 73
     0
 74
     0
 77
     1
 78
     8
140
2.5
141
2.5
143
0.03937007874016
147
0.625
171
     3
172
     1
271
     2
272
     2
274
     3
278
    44
283
     0
284
     8
340
11
1001
AcadAnnotative
1000
AnnotativeData
1002
{
1070
     1
1070
     1
1002
}
1001
ACAD_DSTYLE_DIMJAG
1070
   388
1040
1.5
1001
ACAD_DSTYLE_DIMTALN
1070
   392
1070
     0
  0
ENDTAB
  0
TABLE
  2
BLOCK_RECORD
  5
1
330
0
100
AcDbSymbolTable
 70
     5
  0
BLOCK_RECORD
  5
1F
330
1
100
AcDbSymbolTableRecord
100
AcDbBlockTableRecord
  2
*Model_Space
340
22
  0
BLOCK_RECORD
  5
D2
330
1
100
AcDbSymbolTableRecord
100
AcDbBlockTableRecord
  2
*Paper_Space
340
D3
  0
BLOCK_RECORD
  5
D6
330
1
100
AcDbSymbolTableRecord
100
AcDbBlockTableRecord
  2
*Paper_Space0
340
D7
  0
BLOCK_RECORD
  5
94F
330
1
100
AcDbSymbolTableRecord
100
AcDbBlockTableRecord
  2
1
340
0
310
2800000020000000200000000100080000000000000400000000000000000000000000000000000000000000000080000080000000808000800000008000800080800000C0C0C000C0DCC000F0CAA6000020400000206000002080000020A0000020C0000020E00000400000004020000040400000406000004080000040A0
310
000040C0000040E00000600000006020000060400000606000006080000060A0000060C0000060E00000800000008020000080400000806000008080000080A0000080C0000080E00000A0000000A0200000A0400000A0600000A0800000A0A00000A0C00000A0E00000C0000000C0200000C0400000C0600000C0800000C0
310
A00000C0C00000C0E00000E0000000E0200000E0400000E0600000E0800000E0A00000E0C00000E0E00040000000400020004000400040006000400080004000A0004000C0004000E00040200000402020004020400040206000402080004020A0004020C0004020E000404000004040200040404000404060004040800040
310
40A0004040C0004040E00040600000406020004060400040606000406080004060A0004060C0004060E00040800000408020004080400040806000408080004080A0004080C0004080E00040A0000040A0200040A0400040A0600040A0800040A0A00040A0C00040A0E00040C0000040C0200040C0400040C0600040C08000
310
40C0A00040C0C00040C0E00040E0000040E0200040E0400040E0600040E0800040E0A00040E0C00040E0E00080000000800020008000400080006000800080008000A0008000C0008000E00080200000802020008020400080206000802080008020A0008020C0008020E00080400000804020008040400080406000804080
310
008040A0008040C0008040E00080600000806020008060400080606000806080008060A0008060C0008060E00080800000808020008080400080806000808080008080A0008080C0008080E00080A0000080A0200080A0400080A0600080A0800080A0A00080A0C00080A0E00080C0000080C0200080C0400080C0600080C0
310
800080C0A00080C0C00080C0E00080E0000080E0200080E0400080E0600080E0800080E0A00080E0C00080E0E000C0000000C0002000C0004000C0006000C0008000C000A000C000C000C000E000C0200000C0202000C0204000C0206000C0208000C020A000C020C000C020E000C0400000C0402000C0404000C0406000C0
310
408000C040A000C040C000C040E000C0600000C0602000C0604000C0606000C0608000C060A000C060C000C060E000C0800000C0802000C0804000C0806000C0808000C080A000C080C000C080E000C0A00000C0A02000C0A04000C0A06000C0A08000C0A0A000C0A0C000C0A0E000C0C00000C0C02000C0C04000C0C06000
310
C0C08000C0C0A000F0FBFF00A4A0A000808080000000FF0000FF000000FFFF00FF000000FF00FF00FFFF0000FFFFFF0000000000000000000000000000000000000000000000000000000000000000000000000000000000000000FFFFFFFFFFFFFFFFFFFF00000000000000000000000000000000000000000000FFFFFFFF
310
FFFFFFFFFFFF00000000000000000000000000000000000000000000FFFFFFFFFFFFFFFFFFFF00000000000000000000000000000000000000000000FFFF000000000000FFFF00000000000000000000000000000000000000000000FFFFFF00000000FFFFFF00000000000000000000000000000000000000000000FFFFFF
310
00000000FFFFFF00000000000000000000000000000000000000000000FFFFFFFFFFFFFFFFFFFF00000000000000000000000000000000000000000000FFFFFF00000000FFFFFF00000000000000000000000000000000000000000000FFFFFF00000000FFFFFF00000000000000000000000000000000000000000000FFFF
310
FFFFFFFFFFFFFFFF00000000000000000000000000000000000000000000FFFFFFFFFFFFFFFFFFFF00000000000000000000000000000000000000000000FFFF000000000000FFFF00000000000000000000000000000000000000000000FFFF000000000000FFFF00000000000000000000000000000000000000000000FF
310
FF000000000000FFFF00000000000000000000000000000000000000000000FFFFFFFFFFFFFFFFFFFF00000000000000000000000000000000000000000000FFFFFFFFFFFFFFFFFFFF00000000000000000000000000000000000000000000FFFFFF00000000FFFFFF00000000000000000000000000000000000000000000
310
FFFFFF00000000FFFFFF00000000000000000000000000000000000000000000FFFFFF00000000FFFFFF00000000000000000000000000000000000000000000FFFFFF00000000FFFFFF00000000000000000000000000000000000000000000FFFFFF00000000FFFFFF000000000000000000000000000000000000000000
310
00FFFFFF00000000FFFFFF00000000000000000000000000000000000000000000FFFFFF00000000FFFFFF00000000000000000000000000000000000000000000FFFFFF00000000FFFFFF00000000000000000000000000000000000000000000FF0000000000000000FF0000000000000000000000000000000000000000
310
0000FFFFFFFFFFFFFFFFFFFF0000000000000000000000000000000000000000000000FFFFFFFFFFFFFFFF000000000000000000000000000000000000000000000000FFFF00FFFF00FFFF000000000000000000000000000000000000000000000000FFFF00FFFF00FFFF0000000000000000000000000000000000000000
310
00000000FFFFFFFFFFFFFFFF0000000000000000000000000000000000000000000000000000000000000000000000000000000000000000
102
{BLKREFS
331
A23
102
}
1001
ACAD
1000
DesignCenter Data
1002
{
1070
     1
1070
     4
1002
}
  0
BLOCK_RECORD
  5
A24
102
{ACAD_XDICTIONARY
360
E8F
102
}
330
1
100
AcDbSymbolTableRecord
100
AcDbBlockTableRecord
  2
2
340
0
310
2800000020000000200000000100080000000000000400000000000000000000000000000000000000000000000080000080000000808000800000008000800080800000C0C0C000C0DCC000F0CAA6000020400000206000002080000020A0000020C0000020E00000400000004020000040400000406000004080000040A0
310
000040C0000040E00000600000006020000060400000606000006080000060A0000060C0000060E00000800000008020000080400000806000008080000080A0000080C0000080E00000A0000000A0200000A0400000A0600000A0800000A0A00000A0C00000A0E00000C0000000C0200000C0400000C0600000C0800000C0
310
A00000C0C00000C0E00000E0000000E0200000E0400000E0600000E0800000E0A00000E0C00000E0E00040000000400020004000400040006000400080004000A0004000C0004000E00040200000402020004020400040206000402080004020A0004020C0004020E000404000004040200040404000404060004040800040
310
40A0004040C0004040E00040600000406020004060400040606000406080004060A0004060C0004060E00040800000408020004080400040806000408080004080A0004080C0004080E00040A0000040A0200040A0400040A0600040A0800040A0A00040A0C00040A0E00040C0000040C0200040C0400040C0600040C08000
310
40C0A00040C0C00040C0E00040E0000040E0200040E0400040E0600040E0800040E0A00040E0C00040E0E00080000000800020008000400080006000800080008000A0008000C0008000E00080200000802020008020400080206000802080008020A0008020C0008020E00080400000804020008040400080406000804080
310
008040A0008040C0008040E00080600000806020008060400080606000806080008060A0008060C0008060E00080800000808020008080400080806000808080008080A0008080C0008080E00080A0000080A0200080A0400080A0600080A0800080A0A00080A0C00080A0E00080C0000080C0200080C0400080C0600080C0
310
800080C0A00080C0C00080C0E00080E0000080E0200080E0400080E0600080E0800080E0A00080E0C00080E0E000C0000000C0002000C0004000C0006000C0008000C000A000C000C000C000E000C0200000C0202000C0204000C0206000C0208000C020A000C020C000C020E000C0400000C0402000C0404000C0406000C0
310
408000C040A000C040C000C040E000C0600000C0602000C0604000C0606000C0608000C060A000C060C000C060E000C0800000C0802000C0804000C0806000C0808000C080A000C080C000C080E000C0A00000C0A02000C0A04000C0A06000C0A08000C0A0A000C0A0C000C0A0E000C0C00000C0C02000C0C04000C0C06000
310
C0C08000C0C0A000F0FBFF00A4A0A000808080000000FF0000FF000000FFFF00FF000000FF00FF00FFFF0000FFFFFF000000000000000000000000000000000000000000000000000000000000000000000000000000000000000000FF00000000000000000000000000000000000000000000000000000000FFFFFFFFFFFF
310
FFFFFFFFFFFFFFFFFF00000000000000000000000000000000FF00000000000000000000000000FFFF000000000000000000000000000000FF0000000000000000000000000000FF0000000000000000000000000000000000FF00000000000000000000000000FFFF00000000000000000000000000000000FF0000000000
310
000000000000000000FF000000000000000000000000000000FF00000000FFFFFFFFFFFFFFFFFF00FFFF000000000000000000000000000000FF00000000FFFFFFFFFFFFFFFFFFFFFF00000000000000000000000000000000FF00000000FF0000000000FFFFFF000000000000000000000000000000000000FF00000000FF
310
FFFFFFFFFF000000000000000000000000000000000000000000FF00000000FFFFFFFFFF00000000000000000000000000000000000000000000FF00000000FF0000000000000000000000000000000000000000000000000000FF00000000FF0000000000000000000000000000000000000000000000000000FF00000000
310
FF0000000000000000000000000000000000000000000000000000FF00000000FFFFFFFFFFFFFFFFFFFF0000000000000000000000000000000000FF00000000FF00FFFFFFFFFF000000FFFF000000000000000000000000000000FF00000000FFFF0000000000FFFFFFFFFFFF0000000000000000000000000000FF000000
310
00000000000000000000000000FF0000000000000000000000000000FF00000000000000000000000000000000FF0000000000000000000000000000FF00000000000000000000000000000000FF0000000000000000000000000000FF00000000000000000000000000000000FF0000000000000000000000000000FF0000
310
0000000000000000000000000000FF0000000000000000000000000000FF00000000000000000000000000000000FF0000000000000000000000000000FFFFFFFFFFFFFFFFFFFFFFFFFFFFFFFFFFFF000000000000000000000000000000FFFF000000000000000000000000FFFFFF0000000000000000000000000000FFFF
310
FFFFFFFFFFFFFFFFFFFFFFFFFFFFFFFF00000000000000000000000000000000000000FFFFFFFFFFFFFFFF000000000000000000000000000000000000000000000000FF00FF0000FF00FF000000000000000000000000000000000000000000000000FFFFFFFFFFFFFFFF0000000000000000000000000000000000000000
310
00000000FFFFFFFFFFFFFFFF0000000000000000000000000000000000000000000000000000000000000000000000000000000000000000
102
{BLKREFS
331
AE9
102
}
1001
AcDbDynamicBlockGUID
1000
{B09F4ADF-6338-4CE7-B581-D58F127EAA03}
1001
AcDbBlockRepETag
1070
     1
1071
      191
1001
ACAD
1000
DesignCenter Data
1002
{
1070
     1
1070
     4
1002
}
  0
BLOCK_RECORD
  5
AEA
330
1
100
AcDbSymbolTableRecord
100
AcDbBlockTableRecord
  2
3
340
0
310
2800000020000000200000000100080000000000000400000000000000000000000000000000000000000000000080000080000000808000800000008000800080800000C0C0C000C0DCC000F0CAA6000020400000206000002080000020A0000020C0000020E00000400000004020000040400000406000004080000040A0
310
000040C0000040E00000600000006020000060400000606000006080000060A0000060C0000060E00000800000008020000080400000806000008080000080A0000080C0000080E00000A0000000A0200000A0400000A0600000A0800000A0A00000A0C00000A0E00000C0000000C0200000C0400000C0600000C0800000C0
310
A00000C0C00000C0E00000E0000000E0200000E0400000E0600000E0800000E0A00000E0C00000E0E00040000000400020004000400040006000400080004000A0004000C0004000E00040200000402020004020400040206000402080004020A0004020C0004020E000404000004040200040404000404060004040800040
310
40A0004040C0004040E00040600000406020004060400040606000406080004060A0004060C0004060E00040800000408020004080400040806000408080004080A0004080C0004080E00040A0000040A0200040A0400040A0600040A0800040A0A00040A0C00040A0E00040C0000040C0200040C0400040C0600040C08000
310
40C0A00040C0C00040C0E00040E0000040E0200040E0400040E0600040E0800040E0A00040E0C00040E0E00080000000800020008000400080006000800080008000A0008000C0008000E00080200000802020008020400080206000802080008020A0008020C0008020E00080400000804020008040400080406000804080
310
008040A0008040C0008040E00080600000806020008060400080606000806080008060A0008060C0008060E00080800000808020008080400080806000808080008080A0008080C0008080E00080A0000080A0200080A0400080A0600080A0800080A0A00080A0C00080A0E00080C0000080C0200080C0400080C0600080C0
310
800080C0A00080C0C00080C0E00080E0000080E0200080E0400080E0600080E0800080E0A00080E0C00080E0E000C0000000C0002000C0004000C0006000C0008000C000A000C000C000C000E000C0200000C0202000C0204000C0206000C0208000C020A000C020C000C020E000C0400000C0402000C0404000C0406000C0
310
408000C040A000C040C000C040E000C0600000C0602000C0604000C0606000C0608000C060A000C060C000C060E000C0800000C0802000C0804000C0806000C0808000C080A000C080C000C080E000C0A00000C0A02000C0A04000C0A06000C0A08000C0A0A000C0A0C000C0A0E000C0C00000C0C02000C0C04000C0C06000
310
C0C08000C0C0A000F0FBFF00A4A0A000808080000000FF0000FF000000FFFF00FF000000FF00FF00FFFF0000FFFFFF0000000000000000000000000000000000000000000000000000000000000000000000000000000000FFFFFFFF0000000000000000FFFFFFFF00000000000000000000000000000000FFFFFFFF000000
310
0000000000FFFFFFFF00000000000000000000000000000000FFFFFFFFFFFFFFFFFFFFFFFFFFFFFFFF00000000000000000000000000000000FFFFFFFFFFFFFFFFFFFFFFFFFFFFFFFF00000000000000000000000000000000FFFFFFFFFFFFFFFFFFFFFFFFFFFFFFFF00000000000000000000000000000000FF0000A40000
310
000000000000A40000FF00000000000000000000000000000000FF0000A40000000000000000A40000FF00000000000000000000000000000000FF0000A40000000000000000A40000FF00000000000000000000000000000000FF0000A40000000000000000A40000FF00000000000000000000000000000000FF0000A400
310
0000FFFF000000A40000FF00000000000000000000000000000000FF0000A400FFFFFF00FFFF00A40000FF00000000000000000000000000000000FF0000FFFF00FF00FF0000FFFF0000FF00000000000000000000000000000000FF0000FF00FF00FFFFFFFF00FF0000FF00000000000000000000000000000000FF0000FF
310
FF0000FFFF0000FFFF0000FF00000000000000000000000000000000FF0000FFFFFFFFFFFFFFFFFFFF0000FF00000000000000000000000000000000FF0000FFFFFFFFFFFFFFFFFFFF0000FF00000000000000000000000000000000FF0000FFFF0000FFFF0000FFFF0000FF00000000000000000000000000000000FF0000
310
FF00FF00FFFFFFFF00FF0000FF00000000000000000000000000000000FF0000FFFF00FF00FF0000FFFF0000FF00000000000000000000000000000000FF0000A400FFFFFF00FFFF00A40000FF00000000000000000000000000000000FF0000A4000000FFFF000000A40000FF00000000000000000000000000000000FF00
310
00A40000000000000000A40000FF00000000000000000000000000000000FF0000A40000000000000000A40000FF00000000000000000000000000000000FF0000A40000000000000000A40000FF00000000000000000000000000000000FF0000A40000000000000000A40000FF00000000000000000000000000000000FF
310
FFFFFFFFFFFFFFFFFFFFFFFFFFFFFF00000000000000000000000000000000FFFFFFFFFFFFFFFFFFFFFFFFFFFFFFFF00000000000000000000000000000000FFFFFFFFFFFFFFFFFFFFFFFFFFFFFFFF00000000000000000000000000000000FFFFFFFF0000000000000000FFFFFFFF00000000000000000000000000000000
310
FFFFFFFF0000000000000000FFFFFFFF00000000000000000000000000000000000000000000000000000000000000000000000000000000
102
{BLKREFS
331
B69
102
}
1001
ACAD
1000
DesignCenter Data
1002
{
1070
     1
1070
     4
1002
}
  0
BLOCK_RECORD
  5
B6A
102
{ACAD_XDICTIONARY
360
1060
102
}
330
1
100
AcDbSymbolTableRecord
100
AcDbBlockTableRecord
  2
4
340
0
310
2800000020000000200000000100080000000000000400000000000000000000000000000000000000000000000080000080000000808000800000008000800080800000C0C0C000C0DCC000F0CAA6000020400000206000002080000020A0000020C0000020E00000400000004020000040400000406000004080000040A0
310
000040C0000040E00000600000006020000060400000606000006080000060A0000060C0000060E00000800000008020000080400000806000008080000080A0000080C0000080E00000A0000000A0200000A0400000A0600000A0800000A0A00000A0C00000A0E00000C0000000C0200000C0400000C0600000C0800000C0
310
A00000C0C00000C0E00000E0000000E0200000E0400000E0600000E0800000E0A00000E0C00000E0E00040000000400020004000400040006000400080004000A0004000C0004000E00040200000402020004020400040206000402080004020A0004020C0004020E000404000004040200040404000404060004040800040
310
40A0004040C0004040E00040600000406020004060400040606000406080004060A0004060C0004060E00040800000408020004080400040806000408080004080A0004080C0004080E00040A0000040A0200040A0400040A0600040A0800040A0A00040A0C00040A0E00040C0000040C0200040C0400040C0600040C08000
310
40C0A00040C0C00040C0E00040E0000040E0200040E0400040E0600040E0800040E0A00040E0C00040E0E00080000000800020008000400080006000800080008000A0008000C0008000E00080200000802020008020400080206000802080008020A0008020C0008020E00080400000804020008040400080406000804080
310
008040A0008040C0008040E00080600000806020008060400080606000806080008060A0008060C0008060E00080800000808020008080400080806000808080008080A0008080C0008080E00080A0000080A0200080A0400080A0600080A0800080A0A00080A0C00080A0E00080C0000080C0200080C0400080C0600080C0
310
800080C0A00080C0C00080C0E00080E0000080E0200080E0400080E0600080E0800080E0A00080E0C00080E0E000C0000000C0002000C0004000C0006000C0008000C000A000C000C000C000E000C0200000C0202000C0204000C0206000C0208000C020A000C020C000C020E000C0400000C0402000C0404000C0406000C0
310
408000C040A000C040C000C040E000C0600000C0602000C0604000C0606000C0608000C060A000C060C000C060E000C0800000C0802000C0804000C0806000C0808000C080A000C080C000C080E000C0A00000C0A02000C0A04000C0A06000C0A08000C0A0A000C0A0C000C0A0E000C0C00000C0C02000C0C04000C0C06000
310
C0C08000C0C0A000F0FBFF00A4A0A000808080000000FF0000FF000000FFFF00FF000000FF00FF00FFFF0000FFFFFF0000000000000000000000000000000000000000000000000000000000000000000000000000000000000000000000000000FF0000000000000000000000000000000000000000000000000000000000
310
FFFFFFFFFF0000000000000000000000000000000000000000000000000000FF0000FFFFFF000000000000000000000000000000000000000000000000FFFF000000FFFFFFFF0000FF00000000000000000000000000000000000000FF0000000000FFFFFF00FFFFFFFF0000000000000000000000000000000000FFFF0000
310
000000FFFFFF0000FFFFFF000000000000000000000000000000FFFF0000000000FFFF00FF000000FFFF00000000000000000000000000000000FF00000000FFFFFFFFFFFFFFFF00FFFFFF0000000000000000000000000000FFFF0000FFFFFFFFFFFFFF000000FFFFFFFF0000000000000000000000000000FFFF00FFFFFF
310
FFFF00FFFF0000FFFFFFFF000000000000000000000000000000FF0000FFFFFFFF00FF000000FFFFFFFF00000000000000000000000000000000FF0000FFFFFFFFFFFF0000FFFFFFFF00000000000000000000000000000000FF000000FFFFFFFF00A4FFFFFFFF000000000000000000000000000000000000FF000000FFFF
310
FF0000FFFF00FFFFFF0000000000000000000000000000000000FF000000FFFFFFFFFF000000FFFFA4FFFF000000000000000000000000000000FF000000FFFFFF0000000000FFFF00A4FFFF0000000000000000000000000000FF000000FFFF000000000000FFFF0000FFFFFF00000000000000000000000000FF00000000
310
00000000000000FFFF0000FFFFFF00000000000000000000000000FF000000000000000000FFFFFFFF0000FF00FF00000000000000000000000000FF00000000000000FFFF0000FF00000000FFFFFF000000000000000000000000FF0000000000FFFF00000000FFFFFF0000FFFFFF000000000000000000000000FF000000
310
00FF00000000FFFF00FFFFFFFFFFFFFF000000000000000000000000FF0000FFFF000000FFFF0000000000FFFFFFFF00000000000000000000000000FFFFFF000000FFFFFFFFFFFF0000A4A400FF0000000000000000000000000000FFFFFFFFFFFFFFFFFFFF00FFFFA400FFFF00000000000000000000000000000000FFFF
310
FF0000FFFFFFFFFFFFFFFFFF00000000000000000000000000000000000000FFFFFFFFFFFFFFFFFFFFFFFF00000000000000000000000000000000000000000000FFFFFFFFFFFFFF00FFFF0000000000000000000000000000000000000000000000FFFFFFFFFFFFFFFF000000000000000000000000000000000000000000
310
0000000000FF00FFFFFF00000000000000000000000000000000000000000000000000000000000000000000000000000000000000000000
102
{BLKREFS
331
D2D
102
}
1001
AcDbDynamicBlockGUID
1000
{56DA69D4-7FF4-484E-84DF-ABA46CD89ECE}
1001
AcDbBlockRepETag
1070
     1
1071
      444
1001
ACAD
1000
DesignCenter Data
1002
{
1070
     1
1070
     4
1002
}
  0
ENDTAB
  0
ENDSEC
  0
SECTION
  2
BLOCKS
  0
BLOCK
  5
20
330
1F
100
AcDbEntity
  8
0
100
AcDbBlockBegin
  2
*Model_Space
 70
     0
 10
0.0
 20
0.0
 30
0.0
  3
*Model_Space
  1

  0
ENDBLK
  5
21
330
1F
100
AcDbEntity
  8
0
100
AcDbBlockEnd
  0
BLOCK
  5
D4
330
D2
100
AcDbEntity
 67
     1
  8
0
100
AcDbBlockBegin
  2
*Paper_Space
 70
     0
 10
0.0
 20
0.0
 30
0.0
  3
*Paper_Space
  1

  0
ENDBLK
  5
D5
330
D2
100
AcDbEntity
 67
     1
  8
0
100
AcDbBlockEnd
  0
BLOCK
  5
D8
330
D6
100
AcDbEntity
 67
     1
  8
0
100
AcDbBlockBegin
  2
*Paper_Space0
 70
     0
 10
0.0
 20
0.0
 30
0.0
  3
*Paper_Space0
  1

  0
ENDBLK
  5
D9
330
D6
100
AcDbEntity
 67
     1
  8
0
100
AcDbBlockEnd
  0
BLOCK
  5
950
330
94F
100
AcDbEntity
  8
0
100
AcDbBlockBegin
  2
1
 70
     0
 10
0.0
 20
0.0
 30
0.0
  3
1
  1

  0
LINE
  5
952
330
94F
100
AcDbEntity
  8
0
  6
Continuous
 62
     7
370
    15
100
AcDbLine
 10
1589.931446647501
 20
1173.522783157727
 30
0.0
 11
1589.931446647501
 21
1173.222783157726
 31
0.0
  0
LINE
  5
953
330
94F
100
AcDbEntity
  8
0
  6
Continuous
 62
     7
370
    15
100
AcDbLine
 10
1596.824894844563
 20
1173.222783157726
 30
0.0
 11
1596.824894844563
 21
1173.522783157727
 31
0.0
  0
LINE
  5
954
330
94F
100
AcDbEntity
  8
0
  6
Continuous
 62
     7
370
    15
100
AcDbLine
 10
1590.87796672995
 20
1194.478670278445
 30
0.0
 11
1590.87796672995
 21
1192.629968927443
 31
0.0
  0
LINE
  5
955
330
94F
100
AcDbEntity
  8
0
  6
Continuous
 62
     7
370
    15
100
AcDbLine
 10
1595.877966729948
 20
1192.629968927443
 30
0.0
 11
1595.877966729948
 21
1194.478670278445
 31
0.0
  0
LINE
  5
956
330
94F
100
AcDbEntity
  8
0
  6
Continuous
 62
     7
370
    15
100
AcDbLine
 10
1597.027966729949
 20
1163.412447504046
 30
0.0
 11
1589.727966729949
 21
1163.412447504046
 31
0.0
  0
LINE
  5
957
330
94F
100
AcDbEntity
  8
0
  6
Continuous
 62
     7
370
    15
100
AcDbLine
 10
1597.377966729949
 20
1190.069620832961
 30
0.0
 11
1599.377966729949
 21
1190.069620832961
 31
0.0
  0
LINE
  5
958
330
94F
100
AcDbEntity
  8
0
  6
Continuous
 62
     7
370
    15
100
AcDbLine
 10
1599.377966729949
 20
1190.069620832961
 30
0.0
 11
1599.377966729949
 21
1169.938278093178
 31
0.0
  0
LINE
  5
959
330
94F
100
AcDbEntity
  8
0
  6
Continuous
 62
     7
370
    15
100
AcDbLine
 10
1597.377966729949
 20
1169.938278093178
 30
0.0
 11
1599.377966729949
 21
1169.938278093178
 31
0.0
  0
LINE
  5
95A
330
94F
100
AcDbEntity
  8
0
  6
Continuous
 62
     7
370
    15
100
AcDbLine
 10
1597.377966729949
 20
1190.069620832961
 30
0.0
 11
1597.377966729949
 21
1169.938278093178
 31
0.0
  0
LINE
  5
95B
330
94F
100
AcDbEntity
  8
0
  6
Continuous
 62
     7
370
    15
100
AcDbLine
 10
1589.377966729949
 20
1169.938278093178
 30
0.0
 11
1587.377966729949
 21
1169.938278093178
 31
0.0
  0
LINE
  5
95C
330
94F
100
AcDbEntity
  8
0
  6
Continuous
 62
     7
370
    15
100
AcDbLine
 10
1587.377966729949
 20
1169.938278093178
 30
0.0
 11
1587.377966729949
 21
1190.069620832961
 31
0.0
  0
LINE
  5
95D
330
94F
100
AcDbEntity
  8
0
  6
Continuous
 62
     7
370
    15
100
AcDbLine
 10
1587.377966729949
 20
1190.069620832961
 30
0.0
 11
1589.377966729949
 21
1190.069620832961
 31
0.0
  0
LINE
  5
95E
330
94F
100
AcDbEntity
  8
0
  6
Continuous
 62
     7
370
    15
100
AcDbLine
 10
1589.377966729949
 20
1169.938278093178
 30
0.0
 11
1589.377966729949
 21
1190.069620832961
 31
0.0
  0
ARC
  5
95F
330
94F
100
AcDbEntity
  8
0
  6
Continuous
 62
     7
370
    15
100
AcDbCircle
 10
1597.227966729949
 20
1190.328670278445
 30
0.0
 40
2.150000000000003
100
AcDbArc
 50
0.0
 51
4.000629961570866
  0
LINE
  5
960
330
94F
100
AcDbEntity
  8
0
  6
Continuous
 62
     7
370
    15
100
AcDbLine
 10
1599.377966729949
 20
1190.069620832961
 30
0.0
 11
1599.377966729949
 21
1190.328670278445
 31
0.0
  0
LINE
  5
961
330
94F
100
AcDbEntity
  8
0
  6
Continuous
 62
     7
370
    15
100
AcDbLine
 10
1599.372727788902
 20
1190.478670278445
 30
0.0
 11
1597.377966729949
 21
1190.478670278445
 31
0.0
  0
LINE
  5
962
330
94F
100
AcDbEntity
  8
0
  6
Continuous
 62
     7
370
    15
100
AcDbLine
 10
1597.377966729949
 20
1190.069620832961
 30
0.0
 11
1597.377966729949
 21
1190.478670278445
 31
0.0
  0
ARC
  5
963
330
94F
100
AcDbEntity
  8
0
  6
Continuous
 62
     7
370
    15
100
AcDbCircle
 10
1589.527966729949
 20
1190.328670278445
 30
0.0
 40
2.150000000000003
100
AcDbArc
 50
175.9993700384291
 51
180.0
  0
LINE
  5
964
330
94F
100
AcDbEntity
  8
0
  6
Continuous
 62
     7
370
    15
100
AcDbLine
 10
1589.377966729949
 20
1190.478670278445
 30
0.0
 11
1587.383205670996
 21
1190.478670278445
 31
0.0
  0
LINE
  5
965
330
94F
100
AcDbEntity
  8
0
  6
Continuous
 62
     7
370
    15
100
AcDbLine
 10
1587.377966729949
 20
1190.328670278445
 30
0.0
 11
1587.377966729949
 21
1190.069620832961
 31
0.0
  0
LINE
  5
966
330
94F
100
AcDbEntity
  8
0
  6
Continuous
 62
     7
370
    15
100
AcDbLine
 10
1589.377966729949
 20
1190.478670278445
 30
0.0
 11
1589.377966729949
 21
1190.069620832961
 31
0.0
  0
LINE
  5
967
330
94F
100
AcDbEntity
  8
0
  6
Continuous
 62
     7
370
    15
100
AcDbLine
 10
1589.377966729949
 20
1165.867416994551
 30
0.0
 11
1587.377966729949
 21
1165.867416994551
 31
0.0
  0
LINE
  5
968
330
94F
100
AcDbEntity
  8
0
  6
Continuous
 62
     7
370
    15
100
AcDbLine
 10
1587.377966729949
 20
1165.867416994551
 30
0.0
 11
1587.377966729949
 21
1169.938278093178
 31
0.0
  0
LINE
  5
969
330
94F
100
AcDbEntity
  8
0
  6
Continuous
 62
     7
370
    15
100
AcDbLine
 10
1589.377966729949
 20
1165.867416994551
 30
0.0
 11
1589.377966729949
 21
1169.938278093178
 31
0.0
  0
LINE
  5
96A
330
94F
100
AcDbEntity
  8
0
  6
Continuous
 62
     7
370
    15
100
AcDbLine
 10
1599.377966729949
 20
1165.867416994551
 30
0.0
 11
1597.377966729949
 21
1165.867416994551
 31
0.0
  0
LINE
  5
96B
330
94F
100
AcDbEntity
  8
0
  6
Continuous
 62
     7
370
    15
100
AcDbLine
 10
1599.377966729949
 20
1169.938278093178
 30
0.0
 11
1599.377966729949
 21
1165.867416994551
 31
0.0
  0
LINE
  5
96C
330
94F
100
AcDbEntity
  8
0
  6
Continuous
 62
     7
370
    15
100
AcDbLine
 10
1597.377966729949
 20
1169.938278093178
 30
0.0
 11
1597.377966729949
 21
1165.867416994551
 31
0.0
  0
LINE
  5
96D
330
94F
100
AcDbEntity
  8
0
  6
Continuous
 62
     7
370
    15
100
AcDbLine
 10
1589.377966729949
 20
1162.181336867525
 30
0.0
 11
1587.377966729949
 21
1162.181336867525
 31
0.0
  0
LINE
  5
96E
330
94F
100
AcDbEntity
  8
0
  6
Continuous
 62
     7
370
    15
100
AcDbLine
 10
1587.377966729949
 20
1165.041336867523
 30
0.0
 11
1589.377966729949
 21
1165.041336867523
 31
0.0
  0
LINE
  5
96F
330
94F
100
AcDbEntity
  8
0
  6
Continuous
 62
     7
370
    15
100
AcDbLine
 10
1587.377966729949
 20
1162.181336867525
 30
0.0
 11
1587.377966729949
 21
1165.041336867523
 31
0.0
  0
LINE
  5
970
330
94F
100
AcDbEntity
  8
0
  6
Continuous
 62
     7
370
    15
100
AcDbLine
 10
1589.377966729949
 20
1162.181336867525
 30
0.0
 11
1589.377966729949
 21
1165.041336867523
 31
0.0
  0
LINE
  5
971
330
94F
100
AcDbEntity
  8
0
  6
Continuous
 62
     7
370
    15
100
AcDbLine
 10
1597.377966729949
 20
1165.041336867523
 30
0.0
 11
1599.377966729949
 21
1165.041336867523
 31
0.0
  0
LINE
  5
972
330
94F
100
AcDbEntity
  8
0
  6
Continuous
 62
     7
370
    15
100
AcDbLine
 10
1597.377966729949
 20
1162.181336867525
 30
0.0
 11
1599.377966729949
 21
1162.181336867525
 31
0.0
  0
LINE
  5
973
330
94F
100
AcDbEntity
  8
0
  6
Continuous
 62
     7
370
    15
100
AcDbLine
 10
1599.377966729949
 20
1165.041336867523
 30
0.0
 11
1599.377966729949
 21
1162.181336867525
 31
0.0
  0
LINE
  5
974
330
94F
100
AcDbEntity
  8
0
  6
Continuous
 62
     7
370
    15
100
AcDbLine
 10
1597.377966729949
 20
1165.041336867523
 30
0.0
 11
1597.377966729949
 21
1162.181336867525
 31
0.0
  0
LINE
  5
975
330
94F
100
AcDbEntity
  8
0
  6
Continuous
 62
     7
370
    15
100
AcDbLine
 10
1587.377966729949
 20
1165.867416994551
 30
0.0
 11
1587.377966729949
 21
1165.041336867523
 31
0.0
  0
LINE
  5
976
330
94F
100
AcDbEntity
  8
0
  6
Continuous
 62
     7
370
    15
100
AcDbLine
 10
1589.377966729949
 20
1165.867416994551
 30
0.0
 11
1589.377966729949
 21
1165.041336867523
 31
0.0
  0
LINE
  5
977
330
94F
100
AcDbEntity
  8
0
  6
Continuous
 62
     7
370
    15
100
AcDbLine
 10
1599.377966729949
 20
1165.041336867523
 30
0.0
 11
1599.377966729949
 21
1165.867416994551
 31
0.0
  0
LINE
  5
978
330
94F
100
AcDbEntity
  8
0
  6
Continuous
 62
     7
370
    15
100
AcDbLine
 10
1597.377966729949
 20
1165.041336867523
 30
0.0
 11
1597.377966729949
 21
1165.867416994551
 31
0.0
  0
LINE
  5
979
330
94F
100
AcDbEntity
  8
0
  6
Continuous
 62
     7
370
    15
100
AcDbLine
 10
1589.777966729949
 20
1190.539473125817
 30
0.0
 11
1588.277966729949
 21
1190.539473125817
 31
0.0
  0
LINE
  5
97A
330
94F
100
AcDbEntity
  8
0
  6
Continuous
 62
     7
370
    15
100
AcDbLine
 10
1588.277966729949
 20
1190.539473125817
 30
0.0
 11
1588.277966729949
 21
1192.52928617046
 31
0.0
  0
LINE
  5
97B
330
94F
100
AcDbEntity
  8
0
  6
Continuous
 62
     7
370
    15
100
AcDbLine
 10
1588.277966729949
 20
1192.52928617046
 30
0.0
 11
1598.477966729949
 21
1192.52928617046
 31
0.0
  0
LINE
  5
97C
330
94F
100
AcDbEntity
  8
0
  6
Continuous
 62
     7
370
    15
100
AcDbLine
 10
1598.477966729949
 20
1190.539473125817
 30
0.0
 11
1596.977966729949
 21
1190.539473125817
 31
0.0
  0
LINE
  5
97D
330
94F
100
AcDbEntity
  8
0
  6
Continuous
 62
     7
370
    15
100
AcDbLine
 10
1596.977966729949
 20
1190.539473125817
 30
0.0
 11
1596.977966729949
 21
1180.733748941976
 31
0.0
  0
LINE
  5
97E
330
94F
100
AcDbEntity
  8
0
  6
Continuous
 62
     7
370
    15
100
AcDbLine
 10
1589.777966729949
 20
1180.733748941976
 30
0.0
 11
1596.977966729949
 21
1180.733748941976
 31
0.0
  0
LINE
  5
97F
330
94F
100
AcDbEntity
  8
0
  6
Continuous
 62
     7
370
    15
100
AcDbLine
 10
1589.777966729949
 20
1190.539473125817
 30
0.0
 11
1589.777966729949
 21
1180.733748941976
 31
0.0
  0
LINE
  5
980
330
94F
100
AcDbEntity
  8
0
  6
Continuous
 62
     7
370
    15
100
AcDbLine
 10
1598.477966729949
 20
1192.52928617046
 30
0.0
 11
1598.477966729949
 21
1190.539473125817
 31
0.0
  0
LINE
  5
981
330
94F
100
AcDbEntity
  8
0
  6
Continuous
 62
     7
370
    15
100
AcDbLine
 10
1588.277966729949
 20
1192.52928617046
 30
0.0
 11
1588.277966729949
 21
1192.629968927443
 31
0.0
  0
LINE
  5
982
330
94F
100
AcDbEntity
  8
0
  6
Continuous
 62
     7
370
    15
100
AcDbLine
 10
1598.477966729949
 20
1192.629968927443
 30
0.0
 11
1588.277966729949
 21
1192.629968927443
 31
0.0
  0
LINE
  5
983
330
94F
100
AcDbEntity
  8
0
  6
Continuous
 62
     7
370
    15
100
AcDbLine
 10
1598.477966729949
 20
1192.52928617046
 30
0.0
 11
1598.477966729949
 21
1192.629968927443
 31
0.0
  0
LINE
  5
984
330
94F
100
AcDbEntity
  8
0
  6
Continuous
 62
     7
370
    15
100
AcDbLine
 10
1596.977966729949
 20
1178.935352648618
 30
0.0
 11
1589.777966729949
 21
1178.935352648618
 31
0.0
  0
LINE
  5
985
330
94F
100
AcDbEntity
  8
0
  6
Continuous
 62
     7
370
    15
100
AcDbLine
 10
1596.977966729949
 20
1180.733748941976
 30
0.0
 11
1596.977966729949
 21
1178.935352648618
 31
0.0
  0
LINE
  5
986
330
94F
100
AcDbEntity
  8
0
  6
Continuous
 62
     7
370
    15
100
AcDbLine
 10
1589.777966729949
 20
1178.935352648618
 30
0.0
 11
1589.777966729949
 21
1180.733748941976
 31
0.0
  0
LINE
  5
987
330
94F
100
AcDbEntity
  8
0
  6
Continuous
 62
     7
370
    15
100
AcDbLine
 10
1597.377966729949
 20
1190.478670278445
 30
0.0
 11
1596.977966729949
 21
1190.478670278445
 31
0.0
  0
LINE
  5
988
330
94F
100
AcDbEntity
  8
0
  6
Continuous
 62
     7
370
    15
100
AcDbLine
 10
1589.777966729949
 20
1190.478670278445
 30
0.0
 11
1589.377966729949
 21
1190.478670278445
 31
0.0
  0
ARC
  5
989
330
94F
100
AcDbEntity
  8
0
  6
Continuous
 62
     7
370
    15
100
AcDbCircle
 10
1597.227966729949
 20
1190.328670278445
 30
0.0
 40
2.150000000000003
100
AcDbArc
 50
4.000629961570866
 51
54.45125599712439
  0
ARC
  5
98A
330
94F
100
AcDbEntity
  8
0
  6
Continuous
 62
     7
370
    15
100
AcDbCircle
 10
1589.527966729949
 20
1190.328670278445
 30
0.0
 40
2.150000000000003
100
AcDbArc
 50
125.5487440028756
 51
175.9993700384291
  0
LWPOLYLINE
  5
98B
330
94F
100
AcDbEntity
  8
0
  6
Continuous
 62
     7
370
    15
100
AcDbPolyline
 90
        9
 70
   128
 43
0.0
 10
1595.306588285692
 20
1178.935195573725
 10
1595.104190023723
 20
1178.93521356188
 10
1594.901736611454
 20
1178.935231539009
 10
1594.699228082704
 20
1178.935249505109
 10
1594.496664471301
 20
1178.935267460177
 10
1594.294045811083
 20
1178.93528540421
 10
1594.091372135898
 20
1178.935303337205
 10
1593.888643479603
 20
1178.93532125916
 10
1593.685859597533
 20
1178.935339170014
  0
LINE
  5
98C
330
94F
100
AcDbEntity
  8
0
  6
Continuous
 62
     7
370
    15
100
AcDbLine
 10
1593.685859597533
 20
1178.935339170014
 30
0.0
 11
1593.073695418127
 21
1178.935339170014
 31
0.0
  0
LWPOLYLINE
  5
98D
330
94F
100
AcDbEntity
  8
0
  6
Continuous
 62
     7
370
    15
100
AcDbPolyline
 90
        9
 70
   128
 43
0.0
 10
1593.073695418127
 20
1178.935339170014
 10
1592.870911799641
 20
1178.935321259096
 10
1592.668183122736
 20
1178.935303337136
 10
1592.46550942127
 20
1178.935285404136
 10
1592.262890729094
 20
1178.935267460099
 10
1592.060327080047
 20
1178.935249505029
 10
1591.857818507961
 20
1178.935231538927
 10
1591.655365046658
 20
1178.935213561798
 10
1591.452966729949
 20
1178.935195573644
  0
LINE
  5
98E
330
94F
100
AcDbEntity
  8
0
  6
Continuous
 62
     7
370
    15
100
AcDbLine
 10
1589.777966729949
 20
1178.933471120642
 30
0.0
 11
1591.452966865924
 21
1178.933471120642
 31
0.0
  0
LINE
  5
98F
330
94F
100
AcDbEntity
  8
0
  6
Continuous
 62
     7
370
    15
100
AcDbLine
 10
1595.306588285692
 20
1178.933471120642
 30
0.0
 11
1596.977966729949
 21
1178.933471120642
 31
0.0
  0
LINE
  5
990
330
94F
100
AcDbEntity
  8
0
  6
Continuous
 62
     7
370
    15
100
AcDbLine
 10
1596.977966729949
 20
1178.935352648618
 30
0.0
 11
1596.977966729949
 21
1178.933471120642
 31
0.0
  0
LINE
  5
991
330
94F
100
AcDbEntity
  8
0
  6
Continuous
 62
     7
370
    15
100
AcDbLine
 10
1589.777966729949
 20
1178.935352648618
 30
0.0
 11
1589.777966729949
 21
1178.933471120642
 31
0.0
  0
LWPOLYLINE
  5
992
330
94F
100
AcDbEntity
  8
0
  6
Continuous
 62
     7
370
    15
100
AcDbPolyline
 90
        9
 70
   128
 43
0.0
 10
1591.452966170144
 20
1178.926097026625
 10
1591.655364556695
 20
1178.926115014785
 10
1591.857818087879
 20
1178.926132991921
 10
1592.060326729884
 20
1178.926150958028
 10
1592.262890448887
 20
1178.926168913105
 10
1592.465509211058
 20
1178.926186857149
 10
1592.668182982556
 20
1178.926204790155
 10
1592.870911729532
 20
1178.926222712121
 10
1593.073695418127
 20
1178.926240623045
  0
LINE
  5
993
330
94F
100
AcDbEntity
  8
0
  6
Continuous
 62
     7
370
    15
100
AcDbLine
 10
1591.452966729949
 20
1178.935195573644
 30
0.0
 11
1591.452966729949
 21
1178.926097026604
 31
0.0
  0
LINE
  5
994
330
94F
100
AcDbEntity
  8
0
  6
Continuous
 62
     7
370
    15
100
AcDbLine
 10
1593.073695418127
 20
1178.926240623045
 30
0.0
 11
1593.073695418127
 21
1178.935339170014
 31
0.0
  0
LINE
  5
995
330
94F
100
AcDbEntity
  8
0
  6
Continuous
 62
     7
370
    15
100
AcDbLine
 10
1593.073695418127
 20
1178.606240625833
 30
0.0
 11
1593.073695418127
 21
1178.926240623045
 31
0.0
  0
SPLINE
  5
996
330
94F
100
AcDbEntity
  8
0
  6
Continuous
 62
     7
370
    15
100
AcDbSpline
210
0.0
220
0.0
230
1.0
 70
     8
 71
     3
 72
     8
 73
     4
 74
     0
 42
0.0000000001
 43
0.0000000001
 40
0.0
 40
0.0
 40
0.0
 40
0.0
 40
1.0
 40
1.0
 40
1.0
 40
1.0
 10
1591.452966729949
 20
1178.606097029462
 30
0.0
 10
1591.983640798075
 20
1178.606144215752
 30
0.0
 10
1592.527191419588
 20
1178.606192376424
 30
0.0
 10
1593.073695418127
 20
1178.606240625833
 30
0.0
  0
LINE
  5
997
330
94F
100
AcDbEntity
  8
0
  6
Continuous
 62
     7
370
    15
100
AcDbLine
 10
1591.452966729949
 20
1178.926097026621
 30
0.0
 11
1591.452966729949
 21
1178.606097029462
 31
0.0
  0
LINE
  5
998
330
94F
100
AcDbEntity
  8
0
  6
Continuous
 62
     7
370
    15
100
AcDbLine
 10
1593.685859597533
 20
1178.935339170014
 30
0.0
 11
1593.685859597534
 21
1178.926240622991
 31
0.0
  0
LINE
  5
999
330
94F
100
AcDbEntity
  8
0
  6
Continuous
 62
     7
370
    15
100
AcDbLine
 10
1593.685859597533
 20
1178.926240622991
 30
0.0
 11
1593.685859597533
 21
1178.606240625833
 31
0.0
  0
LINE
  5
99A
330
94F
100
AcDbEntity
  8
0
  6
Continuous
 62
     7
370
    15
100
AcDbLine
 10
1593.685859597533
 20
1178.606240625833
 30
0.0
 11
1593.073695418127
 21
1178.606240625833
 31
0.0
  0
LINE
  5
99B
330
94F
100
AcDbEntity
  8
0
  6
Continuous
 62
     7
370
    15
100
AcDbLine
 10
1595.306588285691
 20
1178.606097029462
 30
0.0
 11
1595.306588285691
 21
1178.926097026621
 31
0.0
  0
SPLINE
  5
99C
330
94F
100
AcDbEntity
  8
0
  6
Continuous
 62
     7
370
    15
100
AcDbSpline
210
0.0
220
0.0
230
1.0
 70
     8
 71
     3
 72
     8
 73
     4
 74
     0
 42
0.0000000001
 43
0.0000000001
 40
0.0
 40
0.0
 40
0.0
 40
0.0
 40
1.0
 40
1.0
 40
1.0
 40
1.0
 10
1593.685859597533
 20
1178.606240625833
 30
0.0
 10
1594.232339431554
 20
1178.606192378557
 30
0.0
 10
1594.77577870976
 20
1178.606144227801
 30
0.0
 10
1595.306588285691
 20
1178.606097029462
 30
0.0
  0
LWPOLYLINE
  5
99D
330
94F
100
AcDbEntity
  8
0
  6
Continuous
 62
     7
370
    15
100
AcDbPolyline
 90
        9
 70
   128
 43
0.0
 10
1593.685859597534
 20
1178.926240622991
 10
1593.888643235956
 20
1178.926222712078
 10
1594.091371927115
 20
1178.92620479012
 10
1594.294045637145
 20
1178.926186857122
 10
1594.496664332188
 20
1178.926168913086
 10
1594.699227978398
 20
1178.926150958014
 10
1594.901736541936
 20
1178.926132991911
 10
1595.104189988974
 20
1178.926115014779
 10
1595.306588285692
 20
1178.926097026621
  0
LINE
  5
99E
330
94F
100
AcDbEntity
  8
0
  6
Continuous
 62
     7
370
    15
100
AcDbLine
 10
1595.306588285691
 20
1178.926097027119
 30
0.0
 11
1595.306588285692
 21
1178.935195573725
 31
0.0
  0
LINE
  5
99F
330
94F
100
AcDbEntity
  8
0
  6
Continuous
 62
     7
370
    15
100
AcDbLine
 10
1591.452966729949
 20
1178.606097029462
 30
0.0
 11
1591.452966729949
 21
1178.606005523632
 31
0.0
  0
LINE
  5
9A0
330
94F
100
AcDbEntity
  8
0
  6
Continuous
 62
     7
370
    15
100
AcDbLine
 10
1595.306588285691
 20
1178.606005523632
 30
0.0
 11
1595.306588285691
 21
1178.606097029462
 31
0.0
  0
SPLINE
  5
9A1
330
94F
100
AcDbEntity
  8
0
  6
Continuous
 62
     7
370
    15
100
AcDbSpline
210
0.0
220
0.0
230
1.0
 70
     8
 71
     3
 72
     8
 73
     4
 74
     0
 42
0.0000000001
 43
0.0000000001
 40
0.0
 40
0.0
 40
0.0
 40
0.0
 40
1.0
 40
1.0
 40
1.0
 40
1.0
 10
1595.306588285691
 20
1178.606005523632
 30
0.0
 10
1594.775778709753
 20
1178.605958325293
 30
0.0
 10
1594.232339431562
 20
1178.605910174536
 30
0.0
 10
1593.685859597497
 20
1178.605861927261
 30
0.0
  0
LINE
  5
9A2
330
94F
100
AcDbEntity
  8
0
  6
Continuous
 62
     7
370
    15
100
AcDbLine
 10
1593.073695418129
 20
1178.605861927261
 30
0.0
 11
1593.685859597497
 21
1178.605861927262
 31
0.0
  0
SPLINE
  5
9A3
330
94F
100
AcDbEntity
  8
0
  6
Continuous
 62
     7
370
    15
100
AcDbSpline
210
0.0
220
0.0
230
1.0
 70
     8
 71
     3
 72
     8
 73
     4
 74
     0
 42
0.0000000001
 43
0.0000000001
 40
0.0
 40
0.0
 40
0.0
 40
0.0
 40
1.0
 40
1.0
 40
1.0
 40
1.0
 10
1593.073695418129
 20
1178.605861927261
 30
0.0
 10
1592.527191419588
 20
1178.60591017667
 30
0.0
 10
1591.983640798075
 20
1178.605958337342
 30
0.0
 10
1591.452966729949
 20
1178.606005523632
 30
0.0
  0
LINE
  5
9A4
330
94F
100
AcDbEntity
  8
0
  6
Continuous
 62
     7
370
    15
100
AcDbLine
 10
1594.885173191276
 20
1178.606032224041
 30
0.0
 11
1593.563770729267
 21
1178.605911344564
 31
0.0
  0
LINE
  5
9A5
330
94F
100
AcDbEntity
  8
0
  6
Continuous
 62
     7
370
    15
100
AcDbLine
 10
1594.885173191276
 20
1178.606032224041
 30
0.0
 11
1594.885173191276
 21
1178.606070329053
 31
0.0
  0
LINE
  5
9A6
330
94F
100
AcDbEntity
  8
0
  6
Continuous
 62
     7
370
    15
100
AcDbLine
 10
1593.563770729267
 20
1178.60619120853
 30
0.0
 11
1594.885173191276
 21
1178.606070329053
 31
0.0
  0
LINE
  5
9A7
330
94F
100
AcDbEntity
  8
0
  6
Continuous
 62
     7
370
    15
100
AcDbLine
 10
1593.563770729267
 20
1178.60619120853
 30
0.0
 11
1593.195784286372
 21
1178.60619120853
 31
0.0
  0
LINE
  5
9A8
330
94F
100
AcDbEntity
  8
0
  6
Continuous
 62
     7
370
    15
100
AcDbLine
 10
1591.874381824369
 20
1178.606070329053
 30
0.0
 11
1593.195784286372
 21
1178.60619120853
 31
0.0
  0
LINE
  5
9A9
330
94F
100
AcDbEntity
  8
0
  6
Continuous
 62
     7
370
    15
100
AcDbLine
 10
1591.874381824369
 20
1178.606070329053
 30
0.0
 11
1591.874381824369
 21
1178.606032224041
 31
0.0
  0
LINE
  5
9AA
330
94F
100
AcDbEntity
  8
0
  6
Continuous
 62
     7
370
    15
100
AcDbLine
 10
1593.195784286372
 20
1178.605911344564
 30
0.0
 11
1591.874381824369
 21
1178.606032224041
 31
0.0
  0
LINE
  5
9AB
330
94F
100
AcDbEntity
  8
0
  6
Continuous
 62
     7
370
    15
100
AcDbLine
 10
1593.195784286372
 20
1178.605911344564
 30
0.0
 11
1593.563770729267
 21
1178.605911344564
 31
0.0
  0
LINE
  5
9AC
330
94F
100
AcDbEntity
  8
0
  6
Continuous
 62
     7
370
    15
100
AcDbLine
 10
1593.563770729267
 20
1178.60619120853
 30
0.0
 11
1593.563770729267
 21
1178.605911344564
 31
0.0
  0
LINE
  5
9AD
330
94F
100
AcDbEntity
  8
0
  6
Continuous
 62
     7
370
    15
100
AcDbLine
 10
1593.195784286372
 20
1178.605911344564
 30
0.0
 11
1593.195784286372
 21
1178.60619120853
 31
0.0
  0
LINE
  5
9AE
330
94F
100
AcDbEntity
  8
0
  6
Continuous
 62
     7
370
    15
100
AcDbLine
 10
1594.877966729957
 20
1173.522783157727
 30
0.0
 11
1591.877966729941
 21
1173.522783157727
 31
0.0
  0
LINE
  5
9AF
330
94F
100
AcDbEntity
  8
0
  6
Continuous
 62
     7
370
    15
100
AcDbLine
 10
1594.877966729957
 20
1173.522783157727
 30
0.0
 11
1594.877966729957
 21
1173.222783157726
 31
0.0
  0
LINE
  5
9B0
330
94F
100
AcDbEntity
  8
0
  6
Continuous
 62
     7
370
    15
100
AcDbLine
 10
1591.877966729941
 20
1173.222783157726
 30
0.0
 11
1594.877966729957
 21
1173.222783157726
 31
0.0
  0
LINE
  5
9B1
330
94F
100
AcDbEntity
  8
0
  6
Continuous
 62
     7
370
    15
100
AcDbLine
 10
1591.877966729941
 20
1173.222783157726
 30
0.0
 11
1591.877966729941
 21
1173.522783157727
 31
0.0
  0
LINE
  5
9B2
330
94F
100
AcDbEntity
  8
0
  6
Continuous
 62
     7
370
    15
100
AcDbLine
 10
1587.777966729949
 20
1162.099947017479
 30
0.0
 11
1587.777966729949
 21
1162.181336867525
 31
0.0
  0
LINE
  5
9B3
330
94F
100
AcDbEntity
  8
0
  6
Continuous
 62
     7
370
    15
100
AcDbLine
 10
1589.377966729949
 20
1162.946156722772
 30
0.0
 11
1589.727966729949
 21
1162.946156722772
 31
0.0
  0
LINE
  5
9B4
330
94F
100
AcDbEntity
  8
0
  6
Continuous
 62
     7
370
    15
100
AcDbLine
 10
1589.727966729949
 20
1162.946156722772
 30
0.0
 11
1589.727966729949
 21
1163.374387270301
 31
0.0
  0
LINE
  5
9B5
330
94F
100
AcDbEntity
  8
0
  6
Continuous
 62
     7
370
    15
100
AcDbLine
 10
1589.727966729949
 20
1163.374387270301
 30
0.0
 11
1597.027966729949
 21
1163.374387270301
 31
0.0
  0
LINE
  5
9B6
330
94F
100
AcDbEntity
  8
0
  6
Continuous
 62
     7
370
    15
100
AcDbLine
 10
1597.027966729949
 20
1163.374387270301
 30
0.0
 11
1597.027966729949
 21
1162.946156722772
 31
0.0
  0
LINE
  5
9B7
330
94F
100
AcDbEntity
  8
0
  6
Continuous
 62
     7
370
    15
100
AcDbLine
 10
1597.027966729949
 20
1162.946156722772
 30
0.0
 11
1597.377966729949
 21
1162.946156722772
 31
0.0
  0
LINE
  5
9B8
330
94F
100
AcDbEntity
  8
0
  6
Continuous
 62
     7
370
    15
100
AcDbLine
 10
1598.977966729949
 20
1162.181336867525
 30
0.0
 11
1598.977966729949
 21
1162.099947017479
 31
0.0
  0
LINE
  5
9B9
330
94F
100
AcDbEntity
  8
0
  6
Continuous
 62
     7
370
    15
100
AcDbLine
 10
1598.977966729949
 20
1162.099947017479
 30
0.0
 11
1587.777966729949
 21
1162.099947017479
 31
0.0
  0
LINE
  5
9BA
330
94F
100
AcDbEntity
  8
0
  6
Continuous
 62
     7
370
    15
100
AcDbLine
 10
1598.977966729949
 20
1161.822783157727
 30
0.0
 11
1587.777966729949
 21
1161.822783157727
 31
0.0
  0
LINE
  5
9BB
330
94F
100
AcDbEntity
  8
0
  6
Continuous
 62
     7
370
    15
100
AcDbLine
 10
1598.977966729949
 20
1162.099947017479
 30
0.0
 11
1598.977966729949
 21
1161.822783157727
 31
0.0
  0
LINE
  5
9BC
330
94F
100
AcDbEntity
  8
0
  6
Continuous
 62
     7
370
    15
100
AcDbLine
 10
1587.777966729949
 20
1162.099947017479
 30
0.0
 11
1587.777966729949
 21
1161.822783157727
 31
0.0
  0
LINE
  5
9BD
330
94F
100
AcDbEntity
  8
0
  6
Continuous
 62
     7
370
    15
100
AcDbLine
 10
1590.430036776193
 20
1173.222783157726
 30
0.0
 11
1590.430036776193
 21
1173.522783157727
 31
0.0
  0
LINE
  5
9BE
330
94F
100
AcDbEntity
  8
0
  6
Continuous
 62
     7
370
    15
100
AcDbLine
 10
1590.430036776193
 20
1173.222783157726
 30
0.0
 11
1591.877966729941
 21
1173.222783157726
 31
0.0
  0
LINE
  5
9BF
330
94F
100
AcDbEntity
  8
0
  6
Continuous
 62
     7
370
    15
100
AcDbLine
 10
1591.877966729941
 20
1173.522783157727
 30
0.0
 11
1590.430036776193
 21
1173.522783157727
 31
0.0
  0
LINE
  5
9C0
330
94F
100
AcDbEntity
  8
0
  6
Continuous
 62
     7
370
    15
100
AcDbLine
 10
1596.325896683706
 20
1173.522783157727
 30
0.0
 11
1596.325896683706
 21
1173.222783157726
 31
0.0
  0
LINE
  5
9C1
330
94F
100
AcDbEntity
  8
0
  6
Continuous
 62
     7
370
    15
100
AcDbLine
 10
1594.877966729957
 20
1173.222783157726
 30
0.0
 11
1596.325896683706
 21
1173.222783157726
 31
0.0
  0
LINE
  5
9C2
330
94F
100
AcDbEntity
  8
0
  6
Continuous
 62
     7
370
    15
100
AcDbLine
 10
1596.325896683706
 20
1173.522783157727
 30
0.0
 11
1594.877966729957
 21
1173.522783157727
 31
0.0
  0
LINE
  5
9C3
330
94F
100
AcDbEntity
  8
0
  6
Continuous
 62
     7
370
    15
100
AcDbLine
 10
1593.163323837081
 20
1194.478670278445
 30
0.0
 11
1593.592609622813
 21
1194.478670278445
 31
0.0
  0
LINE
  5
9C4
330
94F
100
AcDbEntity
  8
0
  6
Continuous
 62
     7
370
    15
100
AcDbLine
 10
1593.163323837081
 20
1194.478670278445
 30
0.0
 11
1593.163323837081
 21
1197.132260116915
 31
0.0
  0
LINE
  5
9C5
330
94F
100
AcDbEntity
  8
0
  6
Continuous
 62
     7
370
    15
100
AcDbLine
 10
1593.592609622815
 20
1197.132260116915
 30
0.0
 11
1593.163323837081
 21
1197.132260116915
 31
0.0
  0
LINE
  5
9C6
330
94F
100
AcDbEntity
  8
0
  6
Continuous
 62
     7
370
    15
100
AcDbLine
 10
1593.592609622815
 20
1197.132260116915
 30
0.0
 11
1593.592609622813
 21
1194.478670278445
 31
0.0
  0
LINE
  5
9C7
330
94F
100
AcDbEntity
  8
0
  6
Continuous
 62
     7
370
    15
100
AcDbLine
 10
1589.592609622832
 20
1197.132260116921
 30
0.0
 11
1589.377966729946
 21
1197.132260116918
 31
0.0
  0
SPLINE
  5
9C8
330
94F
100
AcDbEntity
  8
0
  6
Continuous
 62
     7
370
    15
100
AcDbSpline
210
0.0
220
0.0
230
1.0
 70
    24
 71
     3
 72
     8
 73
     4
 74
     0
 42
0.0000000001
 43
0.0000000001
 40
0.0
 40
0.0
 40
0.0
 40
0.0
 40
1.0
 40
1.0
 40
1.0
 40
1.0
 10
1589.377966729946
 20
1197.132260116918
 30
0.0
 10
1589.377966729946
 20
1197.254941013349
 30
0.0
 10
1589.377966729946
 20
1197.346361130157
 30
0.0
 10
1589.377966729946
 20
1197.390642616131
 30
0.0
  0
SPLINE
  5
9C9
330
94F
100
AcDbEntity
  8
0
  6
Continuous
 62
     7
370
    15
100
AcDbSpline
210
0.0
220
0.0
230
1.0
 70
     8
 71
     3
 72
     8
 73
     4
 74
     0
 42
0.0000000001
 43
0.0000000001
 40
0.0000000000000137
 40
0.0000000000000137
 40
0.0000000000000137
 40
0.0000000000000137
 40
0.0001778594872889
 40
0.0001778594872889
 40
0.0001778594872889
 40
0.0001778594872889
 10
1589.532514870942
 20
1197.478670278451
 30
0.0
 10
1589.480992049152
 20
1197.449339621882
 30
0.0
 10
1589.429476256133
 20
1197.419996615715
 30
0.0
 10
1589.377966729943
 20
1197.390642616129
 30
0.0
  0
LINE
  5
9CA
330
94F
100
AcDbEntity
  8
0
  6
Continuous
 62
     7
370
    15
100
AcDbLine
 10
1597.223418588965
 20
1197.478670278446
 30
0.0
 11
1589.53251487093
 21
1197.478670278444
 31
0.0
  0
SPLINE
  5
9CB
330
94F
100
AcDbEntity
  8
0
  6
Continuous
 62
     7
370
    15
100
AcDbSpline
210
0.0
220
0.0
230
1.0
 70
     8
 71
     3
 72
     8
 73
     4
 74
     0
 42
0.0000000001
 43
0.0000000001
 40
0.0000000000000026
 40
0.0000000000000026
 40
0.0000000000000026
 40
0.0000000000000026
 40
0.0001778594872775
 40
0.0001778594872775
 40
0.0001778594872775
 40
0.0001778594872775
 10
1597.377966729951
 20
1197.390642616132
 30
0.0
 10
1597.326457203761
 20
1197.419996615718
 30
0.0
 10
1597.274941410741
 20
1197.449339621885
 30
0.0
 10
1597.22341858895
 20
1197.478670278454
 30
0.0
  0
SPLINE
  5
9CC
330
94F
100
AcDbEntity
  8
0
  6
Continuous
 62
     7
370
    15
100
AcDbSpline
210
0.0
220
0.0
230
1.0
 70
    24
 71
     3
 72
     8
 73
     4
 74
     0
 42
0.0000000001
 43
0.0000000001
 40
0.0
 40
0.0
 40
0.0
 40
0.0
 40
1.0
 40
1.0
 40
1.0
 40
1.0
 10
1597.377966729946
 20
1197.390642616134
 30
0.0
 10
1597.377966729946
 20
1197.34636113016
 30
0.0
 10
1597.377966729946
 20
1197.254941013353
 30
0.0
 10
1597.377966729946
 20
1197.13226011692
 30
0.0
  0
LINE
  5
9CD
330
94F
100
AcDbEntity
  8
0
  6
Continuous
 62
     7
370
    15
100
AcDbLine
 10
1597.163323837064
 20
1197.132260116919
 30
0.0
 11
1597.377966729946
 21
1197.132260116925
 31
0.0
  0
SPLINE
  5
9CE
330
94F
100
AcDbEntity
  8
0
  6
Continuous
 62
     7
370
    15
100
AcDbSpline
210
0.0
220
0.0
230
1.0
 70
     8
 71
     3
 72
    12
 73
     8
 74
     0
 42
0.0000000001
 43
0.0000000001
 40
0.0
 40
0.0
 40
0.0
 40
0.0
 40
0.5
 40
0.5
 40
0.75
 40
0.75
 40
1.0
 40
1.0
 40
1.0
 40
1.0
 10
1597.163323837062
 20
1197.13226011692
 30
0.0
 10
1596.578399904771
 20
1197.310904795134
 30
0.0
 10
1595.986548922736
 20
1197.420251178937
 30
0.0
 10
1595.082479144036
 20
1197.421272316079
 30
0.0
 10
1594.778394920308
 20
1197.394537001641
 30
0.0
 10
1594.181070017062
 20
1197.294585748209
 30
0.0
 10
1593.885654888386
 20
1197.22176060455
 30
0.0
 10
1593.592609622815
 20
1197.132260116913
 30
0.0
  0
SPLINE
  5
9CF
330
94F
100
AcDbEntity
  8
0
  6
Continuous
 62
     7
370
    15
100
AcDbSpline
210
0.0
220
0.0
230
1.0
 70
     8
 71
     3
 72
    12
 73
     8
 74
     0
 42
0.0000000001
 43
0.0000000001
 40
0.0
 40
0.0
 40
0.0
 40
0.0
 40
0.4999999999999999
 40
0.4999999999999999
 40
0.75
 40
0.75
 40
1.0
 40
1.0
 40
1.0
 40
1.0
 10
1593.163323837079
 20
1197.132260116912
 30
0.0
 10
1592.578399904789
 20
1197.310904795129
 30
0.0
 10
1591.986548922755
 20
1197.420251178933
 30
0.0
 10
1591.082479144055
 20
1197.421272316078
 30
0.0
 10
1590.778394920327
 20
1197.394537001641
 30
0.0
 10
1590.18107001708
 20
1197.294585748212
 30
0.0
 10
1589.885654888402
 20
1197.221760604554
 30
0.0
 10
1589.592609622831
 20
1197.132260116917
 30
0.0
  0
LINE
  5
9D0
330
94F
100
AcDbEntity
  8
0
  6
Continuous
 62
     7
370
    15
100
AcDbLine
 10
1589.592609622832
 20
1197.132260116921
 30
0.0
 11
1589.592609622824
 21
1194.478670278445
 31
0.0
  0
LINE
  5
9D1
330
94F
100
AcDbEntity
  8
0
  6
Continuous
 62
     7
370
    15
100
AcDbLine
 10
1589.592609622824
 20
1194.478670278445
 30
0.0
 11
1593.163323837081
 21
1194.478670278445
 31
0.0
  0
LINE
  5
9D2
330
94F
100
AcDbEntity
  8
0
  6
Continuous
 62
     7
370
    15
100
AcDbLine
 10
1597.163323837085
 20
1194.478670278445
 30
0.0
 11
1597.163323837064
 21
1197.132260116919
 31
0.0
  0
LINE
  5
9D3
330
94F
100
AcDbEntity
  8
0
  6
Continuous
 62
     7
370
    15
100
AcDbLine
 10
1593.592609622813
 20
1194.478670278445
 30
0.0
 11
1597.163323837085
 21
1194.478670278445
 31
0.0
  0
LINE
  5
9D4
330
94F
100
AcDbEntity
  8
0
  6
Continuous
 62
     7
370
    15
100
AcDbLine
 10
1589.931446647501
 20
1173.222783157726
 30
0.0
 11
1590.430036776193
 21
1173.222783157726
 31
0.0
  0
LINE
  5
9D5
330
94F
100
AcDbEntity
  8
0
  6
Continuous
 62
     7
370
    15
100
AcDbLine
 10
1590.430036776193
 20
1173.522783157727
 30
0.0
 11
1589.931446647501
 21
1173.522783157727
 31
0.0
  0
LINE
  5
9D6
330
94F
100
AcDbEntity
  8
0
  6
Continuous
 62
     7
370
    15
100
AcDbLine
 10
1596.325896683706
 20
1173.222783157726
 30
0.0
 11
1596.824894844563
 21
1173.222783157726
 31
0.0
  0
LINE
  5
9D7
330
94F
100
AcDbEntity
  8
0
  6
Continuous
 62
     7
370
    15
100
AcDbLine
 10
1596.824894844563
 20
1173.522783157727
 30
0.0
 11
1596.325896683706
 21
1173.522783157727
 31
0.0
  0
LINE
  5
9D8
330
94F
100
AcDbEntity
  8
0
  6
Continuous
 62
     7
370
    15
100
AcDbLine
 10
1589.377966729946
 20
1194.478670278445
 30
0.0
 11
1589.377966729946
 21
1197.132260116918
 31
0.0
  0
LINE
  5
9D9
330
94F
100
AcDbEntity
  8
0
  6
Continuous
 62
     7
370
    15
100
AcDbLine
 10
1589.377966729946
 20
1194.478670278445
 30
0.0
 11
1589.592609622824
 21
1194.478670278445
 31
0.0
  0
LINE
  5
9DA
330
94F
100
AcDbEntity
  8
0
  6
Continuous
 62
     7
370
    15
100
AcDbLine
 10
1597.377966729946
 20
1197.132260116925
 30
0.0
 11
1597.377966729946
 21
1194.478670278445
 31
0.0
  0
LINE
  5
9DB
330
94F
100
AcDbEntity
  8
0
  6
Continuous
 62
     7
370
    15
100
AcDbLine
 10
1597.163323837085
 20
1194.478670278445
 30
0.0
 11
1597.377966729946
 21
1194.478670278445
 31
0.0
  0
LINE
  5
9DC
330
94F
100
AcDbEntity
  8
0
  6
Continuous
 62
     7
370
    15
100
AcDbLine
 10
1597.027966729949
 20
1163.374387270301
 30
0.0
 11
1597.027966729949
 21
1163.412447504046
 31
0.0
  0
LINE
  5
9DD
330
94F
100
AcDbEntity
  8
0
  6
Continuous
 62
     7
370
    15
100
AcDbLine
 10
1589.727966729949
 20
1163.412447504046
 30
0.0
 11
1589.727966729949
 21
1163.374387270301
 31
0.0
  0
LINE
  5
9DE
330
94F
100
AcDbEntity
  8
0
  6
Continuous
 62
     7
370
    15
100
AcDbLine
 10
1593.073695418101
 20
1178.60550764878
 30
0.0
 11
1593.073695418101
 21
1178.605861927261
 31
0.0
  0
SPLINE
  5
9DF
330
94F
100
AcDbEntity
  8
0
  6
Continuous
 62
     7
370
    15
100
AcDbSpline
210
0.0
220
0.0
230
1.0
 70
     8
 71
     3
 72
     8
 73
     4
 74
     0
 42
0.0000000001
 43
0.0000000001
 40
0.0
 40
0.0
 40
0.0
 40
0.0
 40
1.0
 40
1.0
 40
1.0
 40
1.0
 10
1591.45296672993
 20
1178.605364052409
 30
0.0
 10
1591.983777039769
 20
1178.605411250813
 30
0.0
 10
1592.527235423701
 20
1178.605459403256
 30
0.0
 10
1593.07369541811
 20
1178.60550764878
 30
0.0
  0
LINE
  5
9E0
330
94F
100
AcDbEntity
  8
0
  6
Continuous
 62
     7
370
    15
100
AcDbLine
 10
1591.45296672993
 20
1178.606005523632
 30
0.0
 11
1591.45296672993
 21
1178.605364052409
 31
0.0
  0
LINE
  5
9E1
330
94F
100
AcDbEntity
  8
0
  6
Continuous
 62
     7
370
    15
100
AcDbLine
 10
1593.685859597514
 20
1178.605861927262
 30
0.0
 11
1593.685859597514
 21
1178.60550764878
 31
0.0
  0
LINE
  5
9E2
330
94F
100
AcDbEntity
  8
0
  6
Continuous
 62
     7
370
    15
100
AcDbLine
 10
1593.685859597514
 20
1178.60550764878
 30
0.0
 11
1593.073695418101
 21
1178.60550764878
 31
0.0
  0
LINE
  5
9E3
330
94F
100
AcDbEntity
  8
0
  6
Continuous
 62
     7
370
    15
100
AcDbLine
 10
1595.306588285691
 20
1178.605364052409
 30
0.0
 11
1595.306588285691
 21
1178.606005523632
 31
0.0
  0
SPLINE
  5
9E4
330
94F
100
AcDbEntity
  8
0
  6
Continuous
 62
     7
370
    15
100
AcDbSpline
210
0.0
220
0.0
230
1.0
 70
     8
 71
     3
 72
     8
 73
     4
 74
     0
 42
0.0000000001
 43
0.0000000001
 40
0.0
 40
0.0
 40
0.0
 40
0.0
 40
1.0
 40
1.0
 40
1.0
 40
1.0
 10
1593.685859597514
 20
1178.60550764878
 30
0.0
 10
1594.232319591921
 20
1178.605459403256
 30
0.0
 10
1594.775777975851
 20
1178.605411250813
 30
0.0
 10
1595.306588285691
 20
1178.605364052409
 30
0.0
  0
LINE
  5
9E5
330
94F
100
AcDbEntity
  8
0
  6
Continuous
 62
     7
370
    15
100
AcDbLine
 10
1595.306588285691
 20
1178.605272546579
 30
0.0
 11
1595.306588285691
 21
1178.605364052409
 31
0.0
  0
SPLINE
  5
9E6
330
94F
100
AcDbEntity
  8
0
  6
Continuous
 62
     7
370
    15
100
AcDbSpline
210
0.0
220
0.0
230
1.0
 70
     8
 71
     3
 72
     8
 73
     4
 74
     0
 42
0.0000000001
 43
0.0000000001
 40
0.0
 40
0.0
 40
0.0
 40
0.0
 40
1.0
 40
1.0
 40
1.0
 40
1.0
 10
1595.306588285691
 20
1178.605272546579
 30
0.0
 10
1594.775778709756
 20
1178.60522534824
 30
0.0
 10
1594.232339431555
 20
1178.605177197484
 30
0.0
 10
1593.685859597514
 20
1178.605128950208
 30
0.0
  0
LINE
  5
9E7
330
94F
100
AcDbEntity
  8
0
  6
Continuous
 62
     7
370
    15
100
AcDbLine
 10
1593.07369541811
 20
1178.605128950208
 30
0.0
 11
1593.685859597514
 21
1178.605128950208
 31
0.0
  0
LINE
  5
9E8
330
94F
100
AcDbEntity
  8
0
  6
Continuous
 62
     7
370
    15
100
AcDbLine
 10
1591.45296672993
 20
1178.605364052409
 30
0.0
 11
1591.45296672993
 21
1178.605272546579
 31
0.0
  0
LINE
  5
9E9
330
94F
100
AcDbEntity
  8
0
  6
Continuous
 62
     7
370
    15
100
AcDbLine
 10
1591.87438182435
 20
1178.605337352
 30
0.0
 11
1593.195784286353
 21
1178.605458231477
 31
0.0
  0
LINE
  5
9EA
330
94F
100
AcDbEntity
  8
0
  6
Continuous
 62
     7
370
    15
100
AcDbLine
 10
1591.87438182435
 20
1178.605299246989
 30
0.0
 11
1591.87438182435
 21
1178.605337352
 31
0.0
  0
LINE
  5
9EB
330
94F
100
AcDbEntity
  8
0
  6
Continuous
 62
     7
370
    15
100
AcDbLine
 10
1593.195784286353
 20
1178.605178367511
 30
0.0
 11
1591.87438182435
 21
1178.605299246989
 31
0.0
  0
LINE
  5
9EC
330
94F
100
AcDbEntity
  8
0
  6
Continuous
 62
     7
370
    15
100
AcDbLine
 10
1593.563770729269
 20
1178.605178367511
 30
0.0
 11
1593.195784286353
 21
1178.605178367511
 31
0.0
  0
LINE
  5
9ED
330
94F
100
AcDbEntity
  8
0
  6
Continuous
 62
     7
370
    15
100
AcDbLine
 10
1594.885173191276
 20
1178.605299246989
 30
0.0
 11
1593.563770729269
 21
1178.605178367511
 31
0.0
  0
LINE
  5
9EE
330
94F
100
AcDbEntity
  8
0
  6
Continuous
 62
     7
370
    15
100
AcDbLine
 10
1594.885173191276
 20
1178.605337352
 30
0.0
 11
1594.885173191276
 21
1178.605299246989
 31
0.0
  0
LINE
  5
9EF
330
94F
100
AcDbEntity
  8
0
  6
Continuous
 62
     7
370
    15
100
AcDbLine
 10
1593.563770729267
 20
1178.605458231477
 30
0.0
 11
1594.885173191276
 21
1178.605337352
 31
0.0
  0
LINE
  5
9F0
330
94F
100
AcDbEntity
  8
0
  6
Continuous
 62
     7
370
    15
100
AcDbLine
 10
1593.195784286353
 20
1178.605458231477
 30
0.0
 11
1593.563770729267
 21
1178.605458231477
 31
0.0
  0
LINE
  5
9F1
330
94F
100
AcDbEntity
  8
0
  6
Continuous
 62
     7
370
    15
100
AcDbLine
 10
1590.639874930625
 20
1173.088808561512
 30
0.0
 11
1596.116058529367
 21
1173.088808561512
 31
0.0
  0
SPLINE
  5
9F2
330
94F
100
AcDbEntity
  8
0
  6
Continuous
 62
     7
370
    15
100
AcDbSpline
210
0.0
220
0.0
230
1.0
 70
     8
 71
     3
 72
     8
 73
     4
 74
     0
 42
0.0000000001
 43
0.0000000001
 40
0.0
 40
0.0
 40
0.0
 40
0.0
 40
1.0
 40
1.0
 40
1.0
 40
1.0
 10
1596.116058529367
 20
1173.088808561512
 30
0.0
 10
1596.138678326168
 20
1173.177044253643
 30
0.0
 10
1596.166192810022
 20
1173.222783157727
 30
0.0
 10
1596.196989828696
 20
1173.222783157727
 30
0.0
  0
SPLINE
  5
9F3
330
94F
100
AcDbEntity
  8
0
  6
Continuous
 62
     7
370
    15
100
AcDbSpline
210
0.0
220
0.0
230
1.0
 70
     8
 71
     3
 72
     8
 73
     4
 74
     0
 42
0.0000000001
 43
0.0000000001
 40
0.0
 40
0.0
 40
0.0
 40
0.0
 40
1.0
 40
1.0
 40
1.0
 40
1.0
 10
1590.558943631313
 20
1173.222783157726
 30
0.0
 10
1590.589737945733
 20
1173.222783157726
 30
0.0
 10
1590.617257256519
 20
1173.17703597342
 30
0.0
 10
1590.639874930625
 20
1173.088808561512
 30
0.0
  0
LINE
  5
9F4
330
94F
100
AcDbEntity
  8
0
  6
Continuous
 62
     7
370
    15
100
AcDbLine
 10
1593.563770729269
 20
1178.605178367511
 30
0.0
 11
1593.563770729269
 21
1178.605458231477
 31
0.0
  0
LINE
  5
9F5
330
94F
100
AcDbEntity
  8
0
  6
Continuous
 62
     7
370
    15
100
AcDbLine
 10
1593.195784286353
 20
1178.605178367511
 30
0.0
 11
1593.195784286353
 21
1178.605458231477
 31
0.0
  0
SPLINE
  5
9F6
330
94F
100
AcDbEntity
  8
0
  6
Continuous
 62
     7
370
    15
100
AcDbSpline
210
0.0
220
0.0
230
1.0
 70
     8
 71
     3
 72
    14
 73
    10
 74
     0
 42
0.0000000001
 43
0.0000000001
 40
0.0
 40
0.0
 40
0.0
 40
0.0
 40
0.0003613767246407
 40
0.0003613767246407
 40
0.0003613767246407
 40
0.0006505237187482
 40
0.0006505237187482
 40
0.0006505237187482
 40
0.0009396707129638
 40
0.0009396707129638
 40
0.0009396707129638
 40
0.0009396707129638
 10
1595.917626403541
 20
1171.67464838529
 30
0.0
 10
1595.917966451438
 20
1171.72421467028
 30
0.0
 10
1595.918286989707
 20
1171.773780977869
 30
0.0
 10
1595.918602118671
 20
1171.823347290744
 30
0.0
 10
1595.91885426162
 20
1171.86300659763
 30
0.0
 10
1595.919102613572
 20
1171.902665908581
 30
0.0
 10
1595.919352416024
 20
1171.942325217975
 30
0.0
 10
1595.919602218477
 20
1171.981984527362
 30
0.0
 10
1595.919853306463
 20
1172.021643835461
 30
0.0
 10
1595.920111509717
 20
1172.061303135738
 30
0.0
  0
ELLIPSE
  5
9F7
330
94F
100
AcDbEntity
  8
0
  6
Continuous
 62
     7
370
    15
100
AcDbEllipse
 10
1611.192297590427
 20
1171.826630002571
 30
0.0
 11
15.27838025620821
 21
0.0
 31
0.0
210
0.0
220
0.0
230
1.0
 40
0.4514724886475861
 41
3.163627884299843
 42
3.49102994835765
  0
LINE
  5
9F8
330
94F
100
AcDbEntity
  8
0
  6
Continuous
 62
     7
370
    15
100
AcDbLine
 10
1589.918826783593
 20
1169.46504682193
 30
0.0
 11
1596.837258384164
 21
1169.46504682193
 31
0.0
  0
ELLIPSE
  5
9F9
330
94F
100
AcDbEntity
  8
0
  6
Continuous
 62
     7
370
    15
100
AcDbEllipse
 10
1575.588148652566
 20
1171.824355321436
 30
0.0
 11
15.25376687713927
 21
0.0
 31
0.0
210
0.0
220
0.0
230
1.0
 40
0.4514724886475868
 41
5.933511571716931
 42
6.261434858490935
  0
SPLINE
  5
9FA
330
94F
100
AcDbEntity
  8
0
  6
Continuous
 62
     7
370
    15
100
AcDbSpline
210
0.0
220
0.0
230
1.0
 70
     8
 71
     3
 72
    14
 73
    10
 74
     0
 42
0.0000000001
 43
0.0000000001
 40
0.0
 40
0.0
 40
0.0
 40
0.0
 40
0.0003614116962286
 40
0.0003614116962286
 40
0.0003614116962286
 40
0.0006506251867607
 40
0.0006506251867607
 40
0.0006506251867607
 40
0.0009398386774006
 40
0.0009398386774006
 40
0.0009398386774006
 40
0.0009398386774006
 10
1590.838307530539
 20
1171.674579271487
 30
0.0
 10
1590.837967430719
 20
1171.724150353143
 30
0.0
 10
1590.837646853113
 20
1171.773721457415
 30
0.0
 10
1590.837331689164
 20
1171.823292566976
 30
0.0
 10
1590.837079484637
 20
1171.862960994486
 30
0.0
 10
1590.836831075483
 20
1171.902629426067
 30
0.0
 10
1590.836581216233
 20
1171.94229785609
 30
0.0
 10
1590.836331356984
 20
1171.981966286105
 30
0.0
 10
1590.83608021283
 20
1172.021634714835
 30
0.0
 10
1590.835821950195
 20
1172.061303135738
 30
0.0
  0
ELLIPSE
  5
9FB
330
94F
100
AcDbEntity
  8
0
  6
Continuous
 62
     7
370
    15
100
AcDbEllipse
 10
1614.63272237684
 20
1171.851500596956
 30
0.0
 11
18.71838022620702
 21
0.0
 31
0.0
210
0.0
220
0.0
230
1.0
 40
0.4514724886475865
 41
2.994651911124197
 42
3.116763849258527
  0
ELLIPSE
  5
9FC
330
94F
100
AcDbEntity
  8
0
  6
Continuous
 62
     7
370
    15
100
AcDbEllipse
 10
1572.123211083066
 20
1171.851500597247
 30
0.0
 11
18.71838022619744
 21
0.0
 31
0.0
210
0.0
220
0.0
230
1.0
 40
0.4514724886475868
 41
0.0248288042968726
 42
0.1469407424309019
  0
SPLINE
  5
9FD
330
94F
100
AcDbEntity
  8
0
  6
Continuous
 62
     7
370
    15
100
AcDbSpline
210
0.0
220
0.0
230
1.0
 70
     8
 71
     3
 72
    10
 73
     6
 74
     0
 42
0.0000000001
 43
0.0000000001
 40
0.0
 40
0.0
 40
0.0
 40
0.0
 40
0.5
 40
0.5
 40
1.0
 40
1.0
 40
1.0
 40
1.0
 10
1596.892808203246
 20
1169.724854443066
 30
0.0
 10
1596.920698896218
 20
1169.68206184809
 30
0.0
 10
1596.945098126519
 20
1169.619973383807
 30
0.0
 10
1596.979522415639
 20
1169.469935872989
 30
0.0
 10
1596.989393887241
 20
1169.382013036496
 30
0.0
 10
1596.989393887241
 20
1169.291841741173
 30
0.0
  0
LINE
  5
9FE
330
94F
100
AcDbEntity
  8
0
  6
Continuous
 62
     7
370
    15
100
AcDbLine
 10
1596.989393887241
 20
1169.291841741173
 30
0.0
 11
1596.989393887241
 21
1166.322783157727
 31
0.0
  0
LINE
  5
9FF
330
94F
100
AcDbEntity
  8
0
  6
Continuous
 62
     7
370
    15
100
AcDbLine
 10
1596.874093046543
 20
1169.291841741173
 30
0.0
 11
1596.874093046543
 21
1166.322783157727
 31
0.0
  0
SPLINE
  5
A00
330
94F
100
AcDbEntity
  8
0
  6
Continuous
 62
     7
370
    15
100
AcDbSpline
210
0.0
220
0.0
230
1.0
 70
     8
 71
     3
 72
     8
 73
     4
 74
     0
 42
0.0000000001
 43
0.0000000001
 40
0.0
 40
0.0
 40
0.0
 40
0.0
 40
1.0
 40
1.0
 40
1.0
 40
1.0
 10
1596.874093046543
 20
1169.291841741173
 30
0.0
 10
1596.874093046543
 20
1169.363652456301
 30
0.0
 10
1596.858843354457
 20
1169.43084704647
 30
0.0
 10
1596.837258384164
 20
1169.46504682193
 30
0.0
  0
ELLIPSE
  5
A01
330
94F
100
AcDbEntity
  8
0
  6
Continuous
 62
     7
370
    15
100
AcDbEllipse
 10
1611.192297590427
 20
1172.154158497004
 30
0.0
 11
15.27838025620821
 21
0.0
 31
0.0
210
0.0
220
0.0
230
1.0
 40
0.4514724886475433
 41
3.163627884299836
 42
3.501499402035126
  0
LINE
  5
A02
330
94F
100
AcDbEntity
  8
0
  6
Continuous
 62
     7
370
    15
100
AcDbLine
 10
1589.881964592137
 20
1166.322783157727
 30
0.0
 11
1589.881964592137
 21
1169.291841741173
 31
0.0
  0
LINE
  5
A03
330
94F
100
AcDbEntity
  8
0
  6
Continuous
 62
     7
370
    15
100
AcDbLine
 10
1589.766572026555
 20
1166.322783157727
 30
0.0
 11
1589.766572026555
 21
1169.291841741173
 31
0.0
  0
SPLINE
  5
A04
330
94F
100
AcDbEntity
  8
0
  6
Continuous
 62
     7
370
    15
100
AcDbSpline
210
0.0
220
0.0
230
1.0
 70
     8
 71
     3
 72
    10
 73
     6
 74
     0
 42
0.0000000001
 43
0.0000000001
 40
0.0
 40
0.0
 40
0.0
 40
0.0
 40
0.5
 40
0.5
 40
1.0
 40
1.0
 40
1.0
 40
1.0
 10
1589.766572026555
 20
1169.291841741173
 30
0.0
 10
1589.766572026555
 20
1169.381767052526
 30
0.0
 10
1589.776402317513
 20
1169.469670171618
 30
0.0
 10
1589.810894217309
 20
1169.619980778398
 30
0.0
 10
1589.835389918733
 20
1169.682164599821
 30
0.0
 10
1589.863235108485
 20
1169.724854443066
 30
0.0
  0
SPLINE
  5
A05
330
94F
100
AcDbEntity
  8
0
  6
Continuous
 62
     7
370
    15
100
AcDbSpline
210
0.0
220
0.0
230
1.0
 70
     8
 71
     3
 72
     8
 73
     4
 74
     0
 42
0.0000000001
 43
0.0000000001
 40
0.0
 40
0.0
 40
0.0
 40
0.0
 40
1.0
 40
1.0
 40
1.0
 40
1.0
 10
1589.881964592137
 20
1169.291841741173
 30
0.0
 10
1589.881964592137
 20
1169.363654453027
 30
0.0
 10
1589.897226817585
 20
1169.430848425628
 30
0.0
 10
1589.918826783593
 20
1169.46504682193
 30
0.0
  0
ELLIPSE
  5
A06
330
94F
100
AcDbEntity
  8
0
  6
Continuous
 62
     7
370
    15
100
AcDbEllipse
 10
1575.588148652566
 20
1172.151883815868
 30
0.0
 11
15.25376687713927
 21
0.0
 31
0.0
210
0.0
220
0.0
230
1.0
 40
0.4514724886475421
 41
5.923024271176617
 42
6.261434858490929
  0
LINE
  5
A07
330
94F
100
AcDbEntity
  8
0
  6
Continuous
 62
     7
370
    15
100
AcDbLine
 10
1593.685859597514
 20
1178.605128950208
 30
0.0
 11
1593.685859597514
 21
1178.604774671727
 31
0.0
  0
LINE
  5
A08
330
94F
100
AcDbEntity
  8
0
  6
Continuous
 62
     7
370
    15
100
AcDbLine
 10
1593.685859597514
 20
1178.604774671727
 30
0.0
 11
1593.073695418127
 21
1178.604774671727
 31
0.0
  0
LINE
  5
A09
330
94F
100
AcDbEntity
  8
0
  6
Continuous
 62
     7
370
    15
100
AcDbLine
 10
1593.073695418127
 20
1178.604774671727
 30
0.0
 11
1593.073695418127
 21
1178.605128950208
 31
0.0
  0
SPLINE
  5
A0A
330
94F
100
AcDbEntity
  8
0
  6
Continuous
 62
     7
370
    15
100
AcDbSpline
210
0.0
220
0.0
230
1.0
 70
     8
 71
     3
 72
     8
 73
     4
 74
     0
 42
0.0000000001
 43
0.0000000001
 40
0.0
 40
0.0
 40
0.0
 40
0.0
 40
1.0
 40
1.0
 40
1.0
 40
1.0
 10
1591.452966729949
 20
1178.604631075356
 30
0.0
 10
1591.983776305885
 20
1178.604678273695
 30
0.0
 10
1592.527215584082
 20
1178.604726424451
 30
0.0
 10
1593.073695418127
 20
1178.604774671726
 30
0.0
  0
LINE
  5
A0B
330
94F
100
AcDbEntity
  8
0
  6
Continuous
 62
     7
370
    15
100
AcDbLine
 10
1591.452966729949
 20
1178.605272546579
 30
0.0
 11
1591.452966729949
 21
1178.604631075356
 31
0.0
  0
LINE
  5
A0C
330
94F
100
AcDbEntity
  8
0
  6
Continuous
 62
     7
370
    15
100
AcDbLine
 10
1595.306588285691
 20
1178.604631075357
 30
0.0
 11
1595.306588285691
 21
1178.605272546579
 31
0.0
  0
SPLINE
  5
A0D
330
94F
100
AcDbEntity
  8
0
  6
Continuous
 62
     7
370
    15
100
AcDbSpline
210
0.0
220
0.0
230
1.0
 70
     8
 71
     3
 72
     8
 73
     4
 74
     0
 42
0.0000000001
 43
0.0000000001
 40
0.0
 40
0.0
 40
0.0
 40
0.0
 40
1.0
 40
1.0
 40
1.0
 40
1.0
 10
1593.685859597514
 20
1178.604774671726
 30
0.0
 10
1594.232339431555
 20
1178.604726424451
 30
0.0
 10
1594.775778709756
 20
1178.604678273695
 30
0.0
 10
1595.306588285691
 20
1178.604631075356
 30
0.0
  0
LINE
  5
A0E
330
94F
100
AcDbEntity
  8
0
  6
Continuous
 62
     7
370
    15
100
AcDbLine
 10
1593.073695418129
 20
1178.604395973155
 30
0.0
 11
1593.685859597514
 21
1178.604395973155
 31
0.0
  0
LINE
  5
A0F
330
94F
100
AcDbEntity
  8
0
  6
Continuous
 62
     7
370
    15
100
AcDbLine
 10
1591.452966729949
 20
1178.604631075356
 30
0.0
 11
1591.452966729949
 21
1178.604539569525
 31
0.0
  0
LINE
  5
A10
330
94F
100
AcDbEntity
  8
0
  6
Continuous
 62
     7
370
    15
100
AcDbLine
 10
1595.306588285691
 20
1178.604539569525
 30
0.0
 11
1595.306588285691
 21
1178.604631075357
 31
0.0
  0
SPLINE
  5
A11
330
94F
100
AcDbEntity
  8
0
  6
Continuous
 62
     7
370
    15
100
AcDbSpline
210
0.0
220
0.0
230
1.0
 70
     8
 71
     3
 72
     8
 73
     4
 74
     0
 42
0.0000000001
 43
0.0000000001
 40
0.0
 40
0.0
 40
0.0
 40
0.0
 40
1.0
 40
1.0
 40
1.0
 40
1.0
 10
1595.306588285691
 20
1178.604539569525
 30
0.0
 10
1594.775777975851
 20
1178.604492371122
 30
0.0
 10
1594.232319591921
 20
1178.604444218679
 30
0.0
 10
1593.685859597514
 20
1178.604395973155
 30
0.0
  0
LINE
  5
A12
330
94F
100
AcDbEntity
  8
0
  6
Continuous
 62
     7
370
    15
100
AcDbLine
 10
1591.874381824369
 20
1178.604604374947
 30
0.0
 11
1593.195784286372
 21
1178.604725254424
 31
0.0
  0
LINE
  5
A13
330
94F
100
AcDbEntity
  8
0
  6
Continuous
 62
     7
370
    15
100
AcDbLine
 10
1591.874381824369
 20
1178.604604374947
 30
0.0
 11
1591.874381824369
 21
1178.604566269936
 31
0.0
  0
LINE
  5
A14
330
94F
100
AcDbEntity
  8
0
  6
Continuous
 62
     7
370
    15
100
AcDbLine
 10
1593.195784286372
 20
1178.604445390458
 30
0.0
 11
1591.874381824369
 21
1178.604566269936
 31
0.0
  0
LINE
  5
A15
330
94F
100
AcDbEntity
  8
0
  6
Continuous
 62
     7
370
    15
100
AcDbLine
 10
1593.195784286372
 20
1178.604445390458
 30
0.0
 11
1593.563770729267
 21
1178.604445390458
 31
0.0
  0
LINE
  5
A16
330
94F
100
AcDbEntity
  8
0
  6
Continuous
 62
     7
370
    15
100
AcDbLine
 10
1594.885173191276
 20
1178.604566269936
 30
0.0
 11
1593.563770729267
 21
1178.604445390458
 31
0.0
  0
LINE
  5
A17
330
94F
100
AcDbEntity
  8
0
  6
Continuous
 62
     7
370
    15
100
AcDbLine
 10
1594.885173191276
 20
1178.604566269936
 30
0.0
 11
1594.885173191276
 21
1178.604604374947
 31
0.0
  0
LINE
  5
A18
330
94F
100
AcDbEntity
  8
0
  6
Continuous
 62
     7
370
    15
100
AcDbLine
 10
1593.563770729267
 20
1178.604725254424
 30
0.0
 11
1594.885173191276
 21
1178.604604374947
 31
0.0
  0
LINE
  5
A19
330
94F
100
AcDbEntity
  8
0
  6
Continuous
 62
     7
370
    15
100
AcDbLine
 10
1593.563770729267
 20
1178.604725254424
 30
0.0
 11
1593.195784286372
 21
1178.604725254424
 31
0.0
  0
LINE
  5
A1A
330
94F
100
AcDbEntity
  8
0
  6
Continuous
 62
     7
370
    15
100
AcDbLine
 10
1593.563770729267
 20
1178.604725254424
 30
0.0
 11
1593.563770729267
 21
1178.604445390458
 31
0.0
  0
LINE
  5
A1B
330
94F
100
AcDbEntity
  8
0
  6
Continuous
 62
     7
370
    15
100
AcDbLine
 10
1593.195784286372
 20
1178.604445390458
 30
0.0
 11
1593.195784286372
 21
1178.604725254424
 31
0.0
  0
LINE
  5
A1C
330
94F
100
AcDbEntity
  8
0
  6
Continuous
 62
     7
370
    15
100
AcDbLine
 10
1589.881964592137
 20
1169.291841741173
 30
0.0
 11
1596.874093046543
 21
1169.291841741173
 31
0.0
  0
LINE
  5
A1D
330
94F
100
AcDbEntity
  8
0
  6
Continuous
 62
     7
370
    15
100
AcDbLine
 10
1597.377966729949
 20
1164.326336867526
 30
0.0
 11
1597.027966729949
 21
1164.326336867526
 31
0.0
  0
LINE
  5
A1E
330
94F
100
AcDbEntity
  8
0
  6
Continuous
 62
     7
370
    15
100
AcDbLine
 10
1589.727966729949
 20
1164.326336867526
 30
0.0
 11
1589.377966729949
 21
1164.326336867526
 31
0.0
  0
LINE
  5
A1F
330
94F
100
AcDbEntity
  8
0
  6
Continuous
 62
     7
370
    15
100
AcDbLine
 10
1589.377966729949
 20
1166.322783157727
 30
0.0
 11
1589.881964592137
 21
1166.322783157727
 31
0.0
  0
LINE
  5
A20
330
94F
100
AcDbEntity
  8
0
  6
Continuous
 62
     7
370
    15
100
AcDbLine
 10
1596.874093046543
 20
1166.322783157727
 30
0.0
 11
1597.377966729949
 21
1166.322783157727
 31
0.0
  0
LINE
  5
A21
330
94F
100
AcDbEntity
  8
0
  6
Continuous
 62
     7
370
    15
100
AcDbLine
 10
1597.027966729949
 20
1164.326336867526
 30
0.0
 11
1597.027966729949
 21
1163.412447504046
 31
0.0
  0
LINE
  5
A22
330
94F
100
AcDbEntity
  8
0
  6
Continuous
 62
     7
370
    15
100
AcDbLine
 10
1589.727966729949
 20
1163.412447504046
 30
0.0
 11
1589.727966729949
 21
1164.326336867526
 31
0.0
  0
ENDBLK
  5
951
330
94F
100
AcDbEntity
  8
0
100
AcDbBlockEnd
  0
BLOCK
  5
A25
330
A24
100
AcDbEntity
  8
0
100
AcDbBlockBegin
  2
2
 70
     0
 10
0.0
 20
0.0
 30
0.0
  3
2
  1

  0
LINE
  5
DCC
330
A24
100
AcDbEntity
  8
0
  6
Continuous
 62
     7
370
    15
100
AcDbLine
 10
1556.621398901474
 20
1197.478670278437
 30
0.0
 11
1556.021398901498
 21
1197.132260116918
 31
0.0
1001
AcDbBlockRepETag
1070
     1
1071
        0
1005
DCC
  0
LINE
  5
DCD
330
A24
100
AcDbEntity
  8
0
  6
Continuous
 62
     7
370
    15
100
AcDbLine
 10
1565.021398901481
 20
1197.132260116918
 30
0.0
 11
1564.421398901506
 21
1197.478670278437
 31
0.0
1001
AcDbBlockRepETag
1070
     1
1071
        1
1005
DCD
  0
LINE
  5
DCE
330
A24
100
AcDbEntity
  8
0
  6
Continuous
 62
     7
370
    15
100
AcDbLine
 10
1558.021398901491
 20
1194.478670278445
 30
0.0
 11
1558.021398901491
 21
1192.478670278445
 31
0.0
1001
AcDbBlockRepETag
1070
     1
1071
        2
1005
DCE
  0
LINE
  5
DCF
330
A24
100
AcDbEntity
  8
0
  6
Continuous
 62
     7
370
    15
100
AcDbLine
 10
1563.021398901489
 20
1192.478670278445
 30
0.0
 11
1563.021398901489
 21
1194.478670278445
 31
0.0
1001
AcDbBlockRepETag
1070
     1
1071
        3
1005
DCF
  0
LINE
  5
DD0
330
A24
100
AcDbEntity
  8
0
  6
Continuous
 62
     7
370
    15
100
AcDbLine
 10
1556.021398901489
 20
1197.132260116918
 30
0.0
 11
1556.021398901489
 21
1194.478670278445
 31
0.0
1001
AcDbBlockRepETag
1070
     1
1071
        4
1005
DD0
  0
LINE
  5
DD1
330
A24
100
AcDbEntity
  8
0
  6
Continuous
 62
     7
370
    15
100
AcDbLine
 10
1565.021398901491
 20
1194.478670278445
 30
0.0
 11
1565.021398901491
 21
1197.132260116918
 31
0.0
1001
AcDbBlockRepETag
1070
     1
1071
        5
1005
DD1
  0
LINE
  5
DD2
330
A24
100
AcDbEntity
  8
0
  6
Continuous
 62
     7
370
    15
100
AcDbLine
 10
1570.021061778581
 20
1181.17896628756
 30
0.0
 11
1558.165398901492
 21
1180.661336867541
 31
0.0
1001
AcDbBlockRepETag
1070
     1
1071
        6
1005
DD2
  0
LINE
  5
DD3
330
A24
100
AcDbEntity
  8
0
  6
Continuous
 62
     7
370
    15
100
AcDbLine
 10
1558.165398901492
 20
1180.661336867541
 30
0.0
 11
1557.76960822722
 21
1181.057127541812
 31
0.0
1001
AcDbBlockRepETag
1070
     1
1071
        7
1005
DD3
  0
ARC
  5
DD4
330
A24
100
AcDbEntity
  8
0
  6
Continuous
 62
     7
370
    15
100
AcDbCircle
 10
1557.516817552947
 20
1180.80433686754
 30
0.0
 40
0.3574999999983979
100
AcDbArc
 50
45.0
 51
90.0
1001
AcDbBlockRepETag
1070
     1
1071
        8
1005
DD4
  0
LINE
  5
DD5
330
A24
100
AcDbEntity
  8
0
  6
Continuous
 62
     7
370
    15
100
AcDbLine
 10
1557.516817552947
 20
1181.161836867538
 30
0.0
 11
1556.59239890149
 21
1181.161836867538
 31
0.0
1001
AcDbBlockRepETag
1070
     1
1071
        9
1005
DD5
  0
ARC
  5
DD6
330
A24
100
AcDbEntity
  8
0
  6
Continuous
 62
     7
370
    15
100
AcDbCircle
 10
1556.59239890149
 20
1180.804336867538
 30
0.0
 40
0.3574999999993338
100
AcDbArc
 50
90.0
 51
180.0
1001
AcDbBlockRepETag
1070
     1
1071
       10
1005
DD6
  0
LINE
  5
DD7
330
A24
100
AcDbEntity
  8
0
  6
Continuous
 62
     7
370
    15
100
AcDbLine
 10
1556.234898901491
 20
1169.518430124793
 30
0.0
 11
1556.234898901491
 21
1180.804336867538
 31
0.0
1001
AcDbBlockRepETag
1070
     1
1071
       11
1005
DD7
  0
LINE
  5
DD8
330
A24
100
AcDbEntity
  8
0
  6
Continuous
 62
     7
370
    15
100
AcDbLine
 10
1556.234898901491
 20
1169.518430124793
 30
0.0
 11
1556.321605551901
 21
1169.431723474382
 31
0.0
1001
AcDbBlockRepETag
1070
     1
1071
       12
1005
DD8
  0
ARC
  5
DD9
330
A24
100
AcDbEntity
  8
0
  6
Continuous
 62
     7
370
    15
100
AcDbCircle
 10
1556.422721821611
 20
1169.532839744093
 30
0.0
 40
0.1430000000008664
100
AcDbArc
 50
224.9999999999908
 51
315.0000000000092
1001
AcDbBlockRepETag
1070
     1
1071
       13
1005
DD9
  0
LINE
  5
DDA
330
A24
100
AcDbEntity
  8
0
  6
Continuous
 62
     7
370
    15
100
AcDbLine
 10
1556.798096821613
 20
1169.705982204674
 30
0.0
 11
1556.523838091322
 21
1169.431723474382
 31
0.0
1001
AcDbBlockRepETag
1070
     1
1071
       14
1005
DDA
  0
ARC
  5
DDB
330
A24
100
AcDbEntity
  8
0
  6
Continuous
 62
     7
370
    15
100
AcDbCircle
 10
1556.924492158751
 20
1169.579586867535
 30
0.0
 40
0.1787500000019121
100
AcDbArc
 50
44.99999999999078
 51
135.0000000000092
1001
AcDbBlockRepETag
1070
     1
1071
       15
1005
DDB
  0
LINE
  5
DDC
330
A24
100
AcDbEntity
  8
0
  6
Continuous
 62
     7
370
    15
100
AcDbLine
 10
1557.325146226177
 20
1169.431723474386
 30
0.0
 11
1557.05088749589
 21
1169.705982204674
 31
0.0
1001
AcDbBlockRepETag
1070
     1
1071
       16
1005
DDC
  0
ARC
  5
DDD
330
A24
100
AcDbEntity
  8
0
  6
Continuous
 62
     7
370
    15
100
AcDbCircle
 10
1557.426262495888
 20
1169.532839744097
 30
0.0
 40
0.1430000000017306
100
AcDbArc
 50
225.0000000000092
 51
314.9999999999908
1001
AcDbBlockRepETag
1070
     1
1071
       17
1005
DDD
  0
LINE
  5
DDE
330
A24
100
AcDbEntity
  8
0
  6
Continuous
 62
     7
370
    15
100
AcDbLine
 10
1557.801637495888
 20
1169.705982204676
 30
0.0
 11
1557.527378765598
 21
1169.431723474386
 31
0.0
1001
AcDbBlockRepETag
1070
     1
1071
       18
1005
DDE
  0
ARC
  5
DDF
330
A24
100
AcDbEntity
  8
0
  6
Continuous
 62
     7
370
    15
100
AcDbCircle
 10
1557.928032833025
 20
1169.57958686754
 30
0.0
 40
0.1787499999991789
100
AcDbArc
 50
45.00000000000921
 51
135.0000000000092
1001
AcDbBlockRepETag
1070
     1
1071
       19
1005
DDF
  0
LINE
  5
DE0
330
A24
100
AcDbEntity
  8
0
  6
Continuous
 62
     7
370
    15
100
AcDbLine
 10
1558.328686900452
 20
1169.431723474385
 30
0.0
 11
1558.054428170161
 21
1169.705982204676
 31
0.0
1001
AcDbBlockRepETag
1070
     1
1071
       20
1005
DE0
  0
ARC
  5
DE1
330
A24
100
AcDbEntity
  8
0
  6
Continuous
 62
     7
370
    15
100
AcDbCircle
 10
1558.429803170161
 20
1169.532839744093
 30
0.0
 40
0.142999999998093
100
AcDbArc
 50
224.9999999999908
 51
315.0000000000092
1001
AcDbBlockRepETag
1070
     1
1071
       21
1005
DE1
  0
LINE
  5
DE2
330
A24
100
AcDbEntity
  8
0
  6
Continuous
 62
     7
370
    15
100
AcDbLine
 10
1558.805178170159
 20
1169.705982204675
 30
0.0
 11
1558.530919439869
 21
1169.431723474385
 31
0.0
1001
AcDbBlockRepETag
1070
     1
1071
       22
1005
DE2
  0
ARC
  5
DE3
330
A24
100
AcDbEntity
  8
0
  6
Continuous
 62
     7
370
    15
100
AcDbCircle
 10
1558.931573507298
 20
1169.579586867536
 30
0.0
 40
0.1787500000028767
100
AcDbArc
 50
45.00000000000921
 51
134.9999999999908
1001
AcDbBlockRepETag
1070
     1
1071
       23
1005
DE3
  0
LINE
  5
DE4
330
A24
100
AcDbEntity
  8
0
  6
Continuous
 62
     7
370
    15
100
AcDbLine
 10
1559.332227574728
 20
1169.431723474383
 30
0.0
 11
1559.057968844437
 21
1169.705982204675
 31
0.0
1001
AcDbBlockRepETag
1070
     1
1071
       24
1005
DE4
  0
ARC
  5
DE5
330
A24
100
AcDbEntity
  8
0
  6
Continuous
 62
     7
370
    15
100
AcDbCircle
 10
1559.433343844436
 20
1169.532839744092
 30
0.0
 40
0.1429999999981131
100
AcDbArc
 50
224.9999999999908
 51
269.2906612603005
1001
AcDbBlockRepETag
1070
     1
1071
       25
1005
DE5
  0
ARC
  5
DE6
330
A24
100
AcDbEntity
  8
0
  6
Continuous
 62
     7
370
    15
100
AcDbCircle
 10
1559.429803170161
 20
1169.532839744093
 30
0.0
 40
0.1429999999980758
100
AcDbArc
 50
270.7093387077796
 51
315.0000000000092
1001
AcDbBlockRepETag
1070
     1
1071
       26
1005
DE6
  0
LINE
  5
DE7
330
A24
100
AcDbEntity
  8
0
  6
Continuous
 62
     7
370
    15
100
AcDbLine
 10
1559.805178170159
 20
1169.705982204674
 30
0.0
 11
1559.530919439869
 21
1169.431723474385
 31
0.0
1001
AcDbBlockRepETag
1070
     1
1071
       27
1005
DE7
  0
ARC
  5
DE8
330
A24
100
AcDbEntity
  8
0
  6
Continuous
 62
     7
370
    15
100
AcDbCircle
 10
1559.931573507298
 20
1169.579586867535
 30
0.0
 40
0.1787500000028567
100
AcDbArc
 50
44.99999999999078
 51
135.0
1001
AcDbBlockRepETag
1070
     1
1071
       28
1005
DE8
  0
LINE
  5
DE9
330
A24
100
AcDbEntity
  8
0
  6
Continuous
 62
     7
370
    15
100
AcDbLine
 10
1560.332227574728
 20
1169.431723474383
 30
0.0
 11
1560.057968844437
 21
1169.705982204674
 31
0.0
1001
AcDbBlockRepETag
1070
     1
1071
       29
1005
DE9
  0
ARC
  5
DEA
330
A24
100
AcDbEntity
  8
0
  6
Continuous
 62
     7
370
    15
100
AcDbCircle
 10
1560.433343844437
 20
1169.532839744092
 30
0.0
 40
0.1429999999981131
100
AcDbArc
 50
225.0000000000092
 51
269.2906612603395
1001
AcDbBlockRepETag
1070
     1
1071
       30
1005
DEA
  0
ARC
  5
DEB
330
A24
100
AcDbEntity
  8
0
  6
Continuous
 62
     7
370
    15
100
AcDbCircle
 10
1560.429803170161
 20
1169.532839744092
 30
0.0
 40
0.142999999998093
100
AcDbArc
 50
270.7093387077927
 51
314.9999999999908
1001
AcDbBlockRepETag
1070
     1
1071
       31
1005
DEB
  0
LINE
  5
DEC
330
A24
100
AcDbEntity
  8
0
  6
Continuous
 62
     7
370
    15
100
AcDbLine
 10
1560.805178170159
 20
1169.705982204674
 30
0.0
 11
1560.530919439869
 21
1169.431723474384
 31
0.0
1001
AcDbBlockRepETag
1070
     1
1071
       32
1005
DEC
  0
ARC
  5
DED
330
A24
100
AcDbEntity
  8
0
  6
Continuous
 62
     7
370
    15
100
AcDbCircle
 10
1560.931573507298
 20
1169.579586867534
 30
0.0
 40
0.1787500000028567
100
AcDbArc
 50
44.99999999999078
 51
135.0
1001
AcDbBlockRepETag
1070
     1
1071
       33
1005
DED
  0
LINE
  5
DEE
330
A24
100
AcDbEntity
  8
0
  6
Continuous
 62
     7
370
    15
100
AcDbLine
 10
1561.332227574728
 20
1169.431723474382
 30
0.0
 11
1561.057968844437
 21
1169.705982204674
 31
0.0
1001
AcDbBlockRepETag
1070
     1
1071
       34
1005
DEE
  0
ARC
  5
DEF
330
A24
100
AcDbEntity
  8
0
  6
Continuous
 62
     7
370
    15
100
AcDbCircle
 10
1561.433343844436
 20
1169.532839744091
 30
0.0
 40
0.1429999999981131
100
AcDbArc
 50
225.0000000000092
 51
267.9962426353137
1001
AcDbBlockRepETag
1070
     1
1071
       35
1005
DEF
  0
ARC
  5
DF0
330
A24
100
AcDbEntity
  8
0
  6
Continuous
 62
     7
370
    15
100
AcDbCircle
 10
1561.423343844437
 20
1169.532839744092
 30
0.0
 40
0.1429999999980938
100
AcDbArc
 50
272.0037573534106
 51
314.9999999999908
1001
AcDbBlockRepETag
1070
     1
1071
       36
1005
DF0
  0
LINE
  5
DF1
330
A24
100
AcDbEntity
  8
0
  6
Continuous
 62
     7
370
    15
100
AcDbLine
 10
1561.798718844427
 20
1169.705982204665
 30
0.0
 11
1561.524460114145
 21
1169.431723474383
 31
0.0
1001
AcDbBlockRepETag
1070
     1
1071
       37
1005
DF1
  0
ARC
  5
DF2
330
A24
100
AcDbEntity
  8
0
  6
Continuous
 62
     7
370
    15
100
AcDbCircle
 10
1561.925114181564
 20
1169.579586867528
 30
0.0
 40
0.1787500000000028
100
AcDbArc
 50
45.00000000000921
 51
135.0
1001
AcDbBlockRepETag
1070
     1
1071
       38
1005
DF2
  0
LINE
  5
DF3
330
A24
100
AcDbEntity
  8
0
  6
Continuous
 62
     7
370
    15
100
AcDbLine
 10
1562.325768248996
 20
1169.43172347437
 30
0.0
 11
1562.051509518701
 21
1169.705982204665
 31
0.0
1001
AcDbBlockRepETag
1070
     1
1071
       39
1005
DF3
  0
ARC
  5
DF4
330
A24
100
AcDbEntity
  8
0
  6
Continuous
 62
     7
370
    15
100
AcDbCircle
 10
1562.426884518705
 20
1169.53283974408
 30
0.0
 40
0.1430000000000626
100
AcDbArc
 50
225.0000000000092
 51
314.9999999999908
1001
AcDbBlockRepETag
1070
     1
1071
       40
1005
DF4
  0
LINE
  5
DF5
330
A24
100
AcDbEntity
  8
0
  6
Continuous
 62
     7
370
    15
100
AcDbLine
 10
1562.802259518705
 20
1169.70598220466
 30
0.0
 11
1562.528000788415
 21
1169.43172347437
 31
0.0
1001
AcDbBlockRepETag
1070
     1
1071
       41
1005
DF5
  0
ARC
  5
DF6
330
A24
100
AcDbEntity
  8
0
  6
Continuous
 62
     7
370
    15
100
AcDbCircle
 10
1562.928654855842
 20
1169.579586867523
 30
0.0
 40
0.178750000000043
100
AcDbArc
 50
45.0
 51
135.0
1001
AcDbBlockRepETag
1070
     1
1071
       42
1005
DF6
  0
LINE
  5
DF7
330
A24
100
AcDbEntity
  8
0
  6
Continuous
 62
     7
370
    15
100
AcDbLine
 10
1563.32930892327
 20
1169.431723474369
 30
0.0
 11
1563.055050192979
 21
1169.70598220466
 31
0.0
1001
AcDbBlockRepETag
1070
     1
1071
       43
1005
DF7
  0
ARC
  5
DF8
330
A24
100
AcDbEntity
  8
0
  6
Continuous
 62
     7
370
    15
100
AcDbCircle
 10
1563.43042519298
 20
1169.532839744079
 30
0.0
 40
0.142999999999942
100
AcDbArc
 50
225.0000000000092
 51
314.9999999999908
1001
AcDbBlockRepETag
1070
     1
1071
       44
1005
DF8
  0
LINE
  5
DF9
330
A24
100
AcDbEntity
  8
0
  6
Continuous
 62
     7
370
    15
100
AcDbLine
 10
1563.805800192977
 20
1169.705982204656
 30
0.0
 11
1563.53154146269
 21
1169.431723474369
 31
0.0
1001
AcDbBlockRepETag
1070
     1
1071
       45
1005
DF9
  0
ARC
  5
DFA
330
A24
100
AcDbEntity
  8
0
  6
Continuous
 62
     7
370
    15
100
AcDbCircle
 10
1563.932195530114
 20
1169.579586867519
 30
0.0
 40
0.1787500000000028
100
AcDbArc
 50
44.99999999999078
 51
135.0
1001
AcDbBlockRepETag
1070
     1
1071
       46
1005
DFA
  0
LINE
  5
DFB
330
A24
100
AcDbEntity
  8
0
  6
Continuous
 62
     7
370
    15
100
AcDbLine
 10
1564.332849597538
 20
1169.431723474369
 30
0.0
 11
1564.058590867251
 21
1169.705982204656
 31
0.0
1001
AcDbBlockRepETag
1070
     1
1071
       47
1005
DFB
  0
ARC
  5
DFC
330
A24
100
AcDbEntity
  8
0
  6
Continuous
 62
     7
370
    15
100
AcDbCircle
 10
1564.433965867248
 20
1169.532839744078
 30
0.0
 40
0.1430000000000827
100
AcDbArc
 50
224.9999999999908
 51
314.9999999999908
1001
AcDbBlockRepETag
1070
     1
1071
       48
1005
DFC
  0
LINE
  5
DFD
330
A24
100
AcDbEntity
  8
0
  6
Continuous
 62
     7
370
    15
100
AcDbLine
 10
1564.809340867252
 20
1169.705982204662
 30
0.0
 11
1564.535082136958
 21
1169.431723474369
 31
0.0
1001
AcDbBlockRepETag
1070
     1
1071
       49
1005
DFD
  0
ARC
  5
DFE
330
A24
100
AcDbEntity
  8
0
  6
Continuous
 62
     7
370
    15
100
AcDbCircle
 10
1564.935736204389
 20
1169.579586867525
 30
0.0
 40
0.1787500000000229
100
AcDbArc
 50
45.00000000000921
 51
134.9999999999908
1001
AcDbBlockRepETag
1070
     1
1071
       50
1005
DFE
  0
LINE
  5
DFF
330
A24
100
AcDbEntity
  8
0
  6
Continuous
 62
     7
370
    15
100
AcDbLine
 10
1565.336390271814
 20
1169.431723474374
 30
0.0
 11
1565.062131541526
 21
1169.705982204662
 31
0.0
1001
AcDbBlockRepETag
1070
     1
1071
       51
1005
DFF
  0
ARC
  5
E00
330
A24
100
AcDbEntity
  8
0
  6
Continuous
 62
     7
370
    15
100
AcDbCircle
 10
1565.437506541524
 20
1169.532839744084
 30
0.0
 40
0.1430000000000022
100
AcDbArc
 50
225.0000000000092
 51
315.0000000000092
1001
AcDbBlockRepETag
1070
     1
1071
       52
1005
E00
  0
LINE
  5
E01
330
A24
100
AcDbEntity
  8
0
  6
Continuous
 62
     7
370
    15
100
AcDbLine
 10
1565.812881541525
 20
1169.705982204665
 30
0.0
 11
1565.538622811233
 21
1169.431723474374
 31
0.0
1001
AcDbBlockRepETag
1070
     1
1071
       53
1005
E01
  0
ARC
  5
E02
330
A24
100
AcDbEntity
  8
0
  6
Continuous
 62
     7
370
    15
100
AcDbCircle
 10
1565.939276878662
 20
1169.579586867528
 30
0.0
 40
0.178750000000043
100
AcDbArc
 50
45.0
 51
135.0
1001
AcDbBlockRepETag
1070
     1
1071
       54
1005
E02
  0
LINE
  5
E03
330
A24
100
AcDbEntity
  8
0
  6
Continuous
 62
     7
370
    15
100
AcDbLine
 10
1566.33993094609
 20
1169.431723474374
 30
0.0
 11
1566.065672215799
 21
1169.705982204665
 31
0.0
1001
AcDbBlockRepETag
1070
     1
1071
       55
1005
E03
  0
ARC
  5
E04
330
A24
100
AcDbEntity
  8
0
  6
Continuous
 62
     7
370
    15
100
AcDbCircle
 10
1566.4410472158
 20
1169.532839744084
 30
0.0
 40
0.1430000000000224
100
AcDbArc
 50
224.9999999999908
 51
315.0000000000092
1001
AcDbBlockRepETag
1070
     1
1071
       56
1005
E04
  0
LINE
  5
E05
330
A24
100
AcDbEntity
  8
0
  6
Continuous
 62
     7
370
    15
100
AcDbLine
 10
1566.816422215799
 20
1169.705982204664
 30
0.0
 11
1566.542163485509
 21
1169.431723474374
 31
0.0
1001
AcDbBlockRepETag
1070
     1
1071
       57
1005
E05
  0
ARC
  5
E06
330
A24
100
AcDbEntity
  8
0
  6
Continuous
 62
     7
370
    15
100
AcDbCircle
 10
1566.942817552936
 20
1169.579586867527
 30
0.0
 40
0.1787500000001234
100
AcDbArc
 50
74.99999999998038
 51
135.0
1001
AcDbBlockRepETag
1070
     1
1071
       58
1005
E06
  0
LINE
  5
E07
330
A24
100
AcDbEntity
  8
0
  6
Continuous
 62
     7
370
    15
100
AcDbLine
 10
1570.236898901484
 20
1168.881996047628
 30
0.0
 11
1566.989081457248
 21
1169.752246108976
 31
0.0
1001
AcDbBlockRepETag
1070
     1
1071
       59
1005
E07
  0
LINE
  5
E08
330
A24
100
AcDbEntity
  8
0
  6
Continuous
 62
     7
370
    15
100
AcDbLine
 10
1570.236898901484
 20
1166.844718131545
 30
0.0
 11
1570.236898901484
 21
1168.881996047628
 31
0.0
1001
AcDbBlockRepETag
1070
     1
1071
       60
1005
E08
  0
LINE
  5
E09
330
A24
100
AcDbEntity
  8
0
  6
Continuous
 62
     7
370
    15
100
AcDbLine
 10
1568.806898901484
 20
1166.326336867526
 30
0.0
 11
1568.806898901484
 21
1164.326336867526
 31
0.0
1001
AcDbBlockRepETag
1070
     1
1071
       61
1005
E09
  0
LINE
  5
E0A
330
A24
100
AcDbEntity
  8
0
  6
Continuous
 62
     7
370
    15
100
AcDbLine
 10
1569.845122946806
 20
1164.23550403336
 30
0.0
 11
1568.806898901484
 21
1164.326336867526
 31
0.0
1001
AcDbBlockRepETag
1070
     1
1071
       62
1005
E0A
  0
LINE
  5
E0B
330
A24
100
AcDbEntity
  8
0
  6
Continuous
 62
     7
370
    15
100
AcDbLine
 10
1570.236898901483
 20
1163.843728078683
 30
0.0
 11
1569.845122946806
 21
1164.23550403336
 31
0.0
1001
AcDbBlockRepETag
1070
     1
1071
       63
1005
E0B
  0
LINE
  5
E0C
330
A24
100
AcDbEntity
  8
0
  6
Continuous
 62
     7
370
    15
100
AcDbLine
 10
1570.236898901483
 20
1162.538836867526
 30
0.0
 11
1570.236898901483
 21
1163.843728078683
 31
0.0
1001
AcDbBlockRepETag
1070
     1
1071
       64
1005
E0C
  0
LINE
  5
E0D
330
A24
100
AcDbEntity
  8
0
  6
Continuous
 62
     7
370
    15
100
AcDbLine
 10
1570.236898901483
 20
1162.538836867526
 30
0.0
 11
1569.879398901483
 21
1162.181336867525
 31
0.0
1001
AcDbBlockRepETag
1070
     1
1071
       65
1005
E0D
  0
LINE
  5
E0E
330
A24
100
AcDbEntity
  8
0
  6
Continuous
 62
     7
370
    15
100
AcDbLine
 10
1558.140824178671
 20
1162.181336867525
 30
0.0
 11
1569.879398901483
 21
1162.181336867525
 31
0.0
1001
AcDbBlockRepETag
1070
     1
1071
       66
1005
E0E
  0
LINE
  5
E0F
330
A24
100
AcDbEntity
  8
0
  6
Continuous
 62
     7
370
    15
100
AcDbLine
 10
1558.140824178671
 20
1162.181336867525
 30
0.0
 11
1557.432897534457
 21
1163.192487501244
 31
0.0
1001
AcDbBlockRepETag
1070
     1
1071
       67
1005
E0F
  0
LINE
  5
E10
330
A24
100
AcDbEntity
  8
0
  6
Continuous
 62
     7
370
    15
100
AcDbLine
 10
1555.271859682446
 20
1162.181336867525
 30
0.0
 11
1557.432897534457
 21
1163.192487501244
 31
0.0
1001
AcDbBlockRepETag
1070
     1
1071
       68
1005
E10
  0
LINE
  5
E11
330
A24
100
AcDbEntity
  8
0
  6
Continuous
 62
     7
370
    15
100
AcDbLine
 10
1549.16639890149
 20
1162.181336867525
 30
0.0
 11
1555.271859682446
 21
1162.181336867525
 31
0.0
1001
AcDbBlockRepETag
1070
     1
1071
       69
1005
E11
  0
LINE
  5
E15
330
A24
100
AcDbEntity
  8
0
  6
Continuous
 62
     7
370
    15
100
AcDbLine
 10
1549.16639890149
 20
1190.069620832961
 30
0.0
 11
1549.16639890149
 21
1162.181336867525
 31
0.0
1001
AcDbBlockRepETag
1070
     1
1071
       70
1005
E15
  0
LINE
  5
E16
330
A24
100
AcDbEntity
  8
0
  6
Continuous
 62
     7
370
    15
100
AcDbLine
 10
1549.16639890149
 20
1190.069620832961
 30
0.0
 11
1549.425448346974
 21
1190.328670278445
 31
0.0
1001
AcDbBlockRepETag
1070
     1
1071
       71
1005
E16
  0
LINE
  5
E17
330
A24
100
AcDbEntity
  8
0
  6
Continuous
 62
     7
370
    15
100
AcDbLine
 10
1549.425448346974
 20
1190.328670278445
 30
0.0
 11
1571.729379046278
 21
1190.328670278445
 31
0.0
1001
AcDbBlockRepETag
1070
     1
1071
       72
1005
E17
  0
LINE
  5
E18
330
A24
100
AcDbEntity
  8
0
  6
Continuous
 62
     7
370
    15
100
AcDbLine
 10
1571.729379046278
 20
1190.328670278445
 30
0.0
 11
1571.870869123463
 21
1190.126601506742
 31
0.0
1001
AcDbBlockRepETag
1070
     1
1071
       73
1005
E18
  0
LINE
  5
E19
330
A24
100
AcDbEntity
  8
0
  6
Continuous
 62
     7
370
    15
100
AcDbLine
 10
1570.661488168393
 20
1181.877869051071
 30
0.0
 11
1571.870869123463
 21
1190.126601506742
 31
0.0
1001
AcDbBlockRepETag
1070
     1
1071
       74
1005
E19
  0
LINE
  5
E1A
330
A24
100
AcDbEntity
  8
0
  6
Continuous
 62
     7
370
    15
100
AcDbLine
 10
1570.661488168393
 20
1181.877869051071
 30
0.0
 11
1570.021061778581
 21
1181.17896628756
 31
0.0
1001
AcDbBlockRepETag
1070
     1
1071
       75
1005
E1A
  0
LINE
  5
E1B
330
A24
100
AcDbEntity
  8
0
  6
Continuous
 62
     7
370
    15
100
AcDbLine
 10
1568.806898901484
 20
1166.326336867526
 30
0.0
 11
1569.880759296914
 21
1166.420287478336
 31
0.0
1001
AcDbBlockRepETag
1070
     1
1071
       76
1005
E1B
  0
LINE
  5
E1C
330
A24
100
AcDbEntity
  8
0
  6
Continuous
 62
     7
370
    15
100
AcDbLine
 10
1570.236898901484
 20
1166.844718131545
 30
0.0
 11
1569.880759296914
 21
1166.420287478336
 31
0.0
1001
AcDbBlockRepETag
1070
     1
1071
       77
1005
E1C
  0
LINE
  5
E1D
330
A24
100
AcDbEntity
  8
0
  6
Continuous
 62
     7
370
    15
100
AcDbLine
 10
1571.624347915544
 20
1190.478670278445
 30
0.0
 11
1568.66639890149
 21
1190.478670278445
 31
0.0
1001
AcDbBlockRepETag
1070
     1
1071
       78
1005
E1D
  0
LINE
  5
E1E
330
A24
100
AcDbEntity
  8
0
  6
Continuous
 62
     7
370
    15
100
AcDbLine
 10
1552.37639890149
 20
1190.478670278445
 30
0.0
 11
1549.575448346974
 21
1190.478670278445
 31
0.0
1001
AcDbBlockRepETag
1070
     1
1071
       79
1005
E1E
  0
LINE
  5
E1F
330
A24
100
AcDbEntity
  8
0
  6
Continuous
 62
     7
370
    15
100
AcDbLine
 10
1552.37639890149
 20
1190.478670278445
 30
0.0
 11
1552.37639890149
 21
1192.478670278445
 31
0.0
1001
AcDbBlockRepETag
1070
     1
1071
       80
1005
E1F
  0
LINE
  5
E20
330
A24
100
AcDbEntity
  8
0
  6
Continuous
 62
     7
370
    15
100
AcDbLine
 10
1568.66639890149
 20
1192.478670278445
 30
0.0
 11
1552.37639890149
 21
1192.478670278445
 31
0.0
1001
AcDbBlockRepETag
1070
     1
1071
       81
1005
E20
  0
LINE
  5
E21
330
A24
100
AcDbEntity
  8
0
  6
Continuous
 62
     7
370
    15
100
AcDbLine
 10
1568.66639890149
 20
1190.478670278445
 30
0.0
 11
1568.66639890149
 21
1192.478670278445
 31
0.0
1001
AcDbBlockRepETag
1070
     1
1071
       82
1005
E21
  0
LINE
  5
E22
330
A24
100
AcDbEntity
  8
0
  6
Continuous
 62
     7
370
    15
100
AcDbLine
 10
1571.729379046278
 20
1190.328670278445
 30
0.0
 11
1571.624347915544
 21
1190.478670278445
 31
0.0
1001
AcDbBlockRepETag
1070
     1
1071
       83
1005
E22
  0
LINE
  5
E23
330
A24
100
AcDbEntity
  8
0
  6
Continuous
 62
     7
370
    15
100
AcDbLine
 10
1549.575448346974
 20
1190.478670278445
 30
0.0
 11
1549.425448346974
 21
1190.328670278445
 31
0.0
1001
AcDbBlockRepETag
1070
     1
1071
       84
1005
E23
  0
LINE
  5
E24
330
A24
100
AcDbEntity
  8
0
  6
Continuous
 62
     7
370
    15
100
AcDbLine
 10
1569.106898901485
 20
1164.326336867526
 30
0.0
 11
1569.106898901485
 21
1166.322783157727
 31
0.0
1001
AcDbBlockRepETag
1070
     1
1071
       85
1005
E24
  0
LINE
  5
E25
330
A24
100
AcDbEntity
  8
0
  6
Continuous
 62
     7
370
    15
100
AcDbLine
 10
1568.806898901484
 20
1164.326336867526
 30
0.0
 11
1569.106898901485
 21
1164.326336867526
 31
0.0
1001
AcDbBlockRepETag
1070
     1
1071
       86
1005
E25
  0
LINE
  5
E26
330
A24
100
AcDbEntity
  8
0
  6
Continuous
 62
     7
370
    15
100
AcDbLine
 10
1569.106898901485
 20
1166.322783157727
 30
0.0
 11
1568.806898901484
 21
1166.322783157727
 31
0.0
1001
AcDbBlockRepETag
1070
     1
1071
       87
1005
E26
  0
LINE
  5
E27
330
A24
100
AcDbEntity
  8
0
  6
Continuous
 62
     7
370
    15
100
AcDbLine
 10
1555.378067320989
 20
1162.099947017479
 30
0.0
 11
1555.492872350697
 21
1161.822783157727
 31
0.0
1001
AcDbBlockRepETag
1070
     1
1071
       88
1005
E27
  0
LINE
  5
E28
330
A24
100
AcDbEntity
  8
0
  6
Continuous
 62
     7
370
    15
100
AcDbLine
 10
1557.420998268116
 20
1162.946156722772
 30
0.0
 11
1555.378067320989
 21
1162.099947017479
 31
0.0
1001
AcDbBlockRepETag
1070
     1
1071
       89
1005
E28
  0
LINE
  5
E29
330
A24
100
AcDbEntity
  8
0
  6
Continuous
 62
     7
370
    15
100
AcDbLine
 10
1555.492872350697
 20
1161.822783157727
 30
0.0
 11
1557.420998268116
 21
1162.621439062685
 31
0.0
1001
AcDbBlockRepETag
1070
     1
1071
       90
1005
E29
  0
LINE
  5
E2A
330
A24
100
AcDbEntity
  8
0
  6
Continuous
 62
     7
370
    15
100
AcDbLine
 10
1557.420998268116
 20
1162.621439062685
 30
0.0
 11
1557.420998268116
 21
1162.946156722772
 31
0.0
1001
AcDbBlockRepETag
1070
     1
1071
       91
1005
E2A
  0
LINE
  5
E2B
330
A24
100
AcDbEntity
  8
0
  6
Continuous
 62
     7
370
    15
100
AcDbLine
 10
1570.765798756485
 20
1192.52928617046
 30
0.0
 11
1569.772067618291
 21
1192.629968927443
 31
0.0
1001
AcDbBlockRepETag
1070
     1
1071
       92
1005
E2B
  0
LINE
  5
E2C
330
A24
100
AcDbEntity
  8
0
  6
Continuous
 62
     7
370
    15
100
AcDbLine
 10
1570.564195067604
 20
1190.539473125817
 30
0.0
 11
1570.765798756485
 21
1192.52928617046
 31
0.0
1001
AcDbBlockRepETag
1070
     1
1071
       93
1005
E2C
  0
LINE
  5
E2D
330
A24
100
AcDbEntity
  8
0
  6
Continuous
 62
     7
370
    15
100
AcDbLine
 10
1570.564195067604
 20
1190.539473125817
 30
0.0
 11
1569.57046392941
 21
1190.640155882801
 31
0.0
1001
AcDbBlockRepETag
1070
     1
1071
       94
1005
E2D
  0
LINE
  5
E2E
330
A24
100
AcDbEntity
  8
0
  6
Continuous
 62
     7
370
    15
100
AcDbLine
 10
1569.772067618291
 20
1192.629968927443
 30
0.0
 11
1569.57046392941
 21
1190.640155882801
 31
0.0
1001
AcDbBlockRepETag
1070
     1
1071
       95
1005
E2E
  0
LINE
  5
E2F
330
A24
100
AcDbEntity
  8
0
  6
Continuous
 62
     7
370
    15
100
AcDbLine
 10
1550.277464905786
 20
1192.52928617046
 30
0.0
 11
1550.479068594667
 21
1190.539473125817
 31
0.0
1001
AcDbBlockRepETag
1070
     1
1071
       96
1005
E2F
  0
LINE
  5
E30
330
A24
100
AcDbEntity
  8
0
  6
Continuous
 62
     7
370
    15
100
AcDbLine
 10
1551.472799732861
 20
1190.640155882801
 30
0.0
 11
1550.479068594667
 21
1190.539473125817
 31
0.0
1001
AcDbBlockRepETag
1070
     1
1071
       97
1005
E30
  0
LINE
  5
E31
330
A24
100
AcDbEntity
  8
0
  6
Continuous
 62
     7
370
    15
100
AcDbLine
 10
1550.277464905786
 20
1192.52928617046
 30
0.0
 11
1551.27119604398
 21
1192.629968927443
 31
0.0
1001
AcDbBlockRepETag
1070
     1
1071
       98
1005
E31
  0
LINE
  5
E32
330
A24
100
AcDbEntity
  8
0
  6
Continuous
 62
     7
370
    15
100
AcDbLine
 10
1551.472799732861
 20
1190.640155882801
 30
0.0
 11
1551.27119604398
 21
1192.629968927443
 31
0.0
1001
AcDbBlockRepETag
1070
     1
1071
       99
1005
E32
  0
SPLINE
  5
E33
330
A24
100
AcDbEntity
  8
0
  6
Continuous
 62
     7
370
    15
100
AcDbSpline
210
0.0
220
0.0
230
1.0
 70
     8
 71
     3
 72
     8
 73
     4
 74
     0
 42
0.0000000001
 43
0.0000000001
 40
0.0
 40
0.0
 40
0.0
 40
0.0
 40
1.0
 40
1.0
 40
1.0
 40
1.0
 10
1559.871398901493
 20
1197.390642616134
 30
0.0
 10
1559.393221450913
 20
1197.34636113016
 30
0.0
 10
1558.923672651788
 20
1197.254941013353
 30
0.0
 10
1558.459846088704
 20
1197.13226011692
 30
0.0
1001
AcDbBlockRepETag
1070
     1
1071
      100
1005
E33
  0
LINE
  5
E34
330
A24
100
AcDbEntity
  8
0
  6
Continuous
 62
     7
370
    15
100
AcDbLine
 10
1559.871398901494
 20
1196.478670278444
 30
0.0
 11
1559.871398901493
 21
1197.390642616133
 31
0.0
1001
AcDbBlockRepETag
1070
     1
1071
      101
1005
E34
  0
LINE
  5
E35
330
A24
100
AcDbEntity
  8
0
  6
Continuous
 62
     7
370
    15
100
AcDbLine
 10
1559.871398901494
 20
1196.478670278444
 30
0.0
 11
1561.171398901494
 21
1196.478670278444
 31
0.0
1001
AcDbBlockRepETag
1070
     1
1071
      102
1005
E35
  0
LINE
  5
E36
330
A24
100
AcDbEntity
  8
0
  6
Continuous
 62
     7
370
    15
100
AcDbLine
 10
1561.171398901494
 20
1197.390642616133
 30
0.0
 11
1561.171398901494
 21
1196.478670278444
 31
0.0
1001
AcDbBlockRepETag
1070
     1
1071
      103
1005
E36
  0
SPLINE
  5
E37
330
A24
100
AcDbEntity
  8
0
  6
Continuous
 62
     7
370
    15
100
AcDbSpline
210
0.0
220
0.0
230
1.0
 70
     8
 71
     3
 72
     8
 73
     4
 74
     0
 42
0.0000000001
 43
0.0000000001
 40
0.0
 40
0.0
 40
0.0
 40
0.0
 40
1.0
 40
1.0
 40
1.0
 40
1.0
 10
1562.582951714277
 20
1197.132260116919
 30
0.0
 10
1562.119125151193
 20
1197.254941013352
 30
0.0
 10
1561.649576352075
 20
1197.346361130159
 30
0.0
 10
1561.171398901494
 20
1197.390642616134
 30
0.0
1001
AcDbBlockRepETag
1070
     1
1071
      104
1005
E37
  0
LINE
  5
E38
330
A24
100
AcDbEntity
  8
0
  6
Continuous
 62
     7
370
    15
100
AcDbLine
 10
1562.582951714304
 20
1194.478670278445
 30
0.0
 11
1562.582951714279
 21
1197.132260116919
 31
0.0
1001
AcDbBlockRepETag
1070
     1
1071
      105
1005
E38
  0
LINE
  5
E39
330
A24
100
AcDbEntity
  8
0
  6
Continuous
 62
     7
370
    15
100
AcDbLine
 10
1558.459846088688
 20
1194.478670278445
 30
0.0
 11
1562.582951714304
 21
1194.478670278445
 31
0.0
1001
AcDbBlockRepETag
1070
     1
1071
      106
1005
E39
  0
LINE
  5
E3A
330
A24
100
AcDbEntity
  8
0
  6
Continuous
 62
     7
370
    15
100
AcDbLine
 10
1558.459846088712
 20
1197.132260116925
 30
0.0
 11
1558.459846088688
 21
1194.478670278445
 31
0.0
1001
AcDbBlockRepETag
1070
     1
1071
      107
1005
E3A
  0
LINE
  5
E3B
330
A24
100
AcDbEntity
  8
0
  6
Continuous
 62
     7
370
    15
100
AcDbLine
 10
1559.871398901494
 20
1197.478670278446
 30
0.0
 11
1556.621398901474
 21
1197.478670278437
 31
0.0
1001
AcDbBlockRepETag
1070
     1
1071
      108
1005
E3B
  0
LINE
  5
E3C
330
A24
100
AcDbEntity
  8
0
  6
Continuous
 62
     7
370
    15
100
AcDbLine
 10
1558.088073692745
 20
1197.132260116919
 30
0.0
 11
1558.459846088712
 21
1197.132260116925
 31
0.0
1001
AcDbBlockRepETag
1070
     1
1071
      109
1005
E3C
  0
SPLINE
  5
E3D
330
A24
100
AcDbEntity
  8
0
  6
Continuous
 62
     7
370
    15
100
AcDbSpline
210
0.0
220
0.0
230
1.0
 70
     8
 71
     3
 72
    12
 73
     8
 74
     0
 42
0.0000000001
 43
0.0000000001
 40
0.0
 40
0.0
 40
0.0
 40
0.0
 40
0.5
 40
0.5
 40
0.75
 40
0.75
 40
1.0
 40
1.0
 40
1.0
 40
1.0
 10
1558.088073692744
 20
1197.13226011692
 30
0.0
 10
1557.75036770298
 20
1197.310904795134
 30
0.0
 10
1557.408662379182
 20
1197.420251178937
 30
0.0
 10
1556.886697449083
 20
1197.421272316079
 30
0.0
 10
1556.711134340658
 20
1197.394537001641
 30
0.0
 10
1556.366268646975
 20
1197.294585748209
 30
0.0
 10
1556.195710642911
 20
1197.22176060455
 30
0.0
 10
1556.026520879949
 20
1197.132260116913
 30
0.0
1001
AcDbBlockRepETag
1070
     1
1071
      110
1005
E3D
  0
LINE
  5
E3E
330
A24
100
AcDbEntity
  8
0
  6
Continuous
 62
     7
370
    15
100
AcDbLine
 10
1556.026520879949
 20
1197.132260116915
 30
0.0
 11
1556.021398901491
 21
1197.132260116915
 31
0.0
1001
AcDbBlockRepETag
1070
     1
1071
      111
1005
E3E
  0
SPLINE
  5
E3F
330
A24
100
AcDbEntity
  8
0
  6
Continuous
 62
     7
370
    15
100
AcDbSpline
210
0.0
220
0.0
230
1.0
 70
    24
 71
     3
 72
     8
 73
     4
 74
     0
 42
0.0000000001
 43
0.0000000001
 40
0.0000000000000026
 40
0.0000000000000026
 40
0.0000000000000026
 40
0.0000000000000026
 40
0.0001778594872775
 40
0.0001778594872775
 40
0.0001778594872775
 40
0.0001778594872775
 10
1559.871398901494
 20
1197.390642616132
 30
0.0
 10
1559.871398901494
 20
1197.419996615718
 30
0.0
 10
1559.871398901494
 20
1197.449339621885
 30
0.0
 10
1559.871398901494
 20
1197.478670278454
 30
0.0
1001
AcDbBlockRepETag
1070
     1
1071
      112
1005
E3F
  0
LINE
  5
E40
330
A24
100
AcDbEntity
  8
0
  6
Continuous
 62
     7
370
    15
100
AcDbLine
 10
1565.021398901488
 20
1197.132260116916
 30
0.0
 11
1565.016276923033
 21
1197.132260116915
 31
0.0
1001
AcDbBlockRepETag
1070
     1
1071
      113
1005
E40
  0
SPLINE
  5
E41
330
A24
100
AcDbEntity
  8
0
  6
Continuous
 62
     7
370
    15
100
AcDbSpline
210
0.0
220
0.0
230
1.0
 70
     8
 71
     3
 72
    12
 73
     8
 74
     0
 42
0.0000000001
 43
0.0000000001
 40
0.0
 40
0.0
 40
0.0
 40
0.0
 40
0.4999999999999995
 40
0.4999999999999995
 40
0.7499999999999997
 40
0.7499999999999997
 40
1.0
 40
1.0
 40
1.0
 40
1.0
 10
1565.016276923032
 20
1197.132260116913
 30
0.0
 10
1564.678570933269
 20
1197.310904795129
 30
0.0
 10
1564.336865609472
 20
1197.420251178935
 30
0.0
 10
1563.814900679373
 20
1197.421272316081
 30
0.0
 10
1563.639337570947
 20
1197.394537001644
 30
0.0
 10
1563.294471877264
 20
1197.294585748216
 30
0.0
 10
1563.123913873196
 20
1197.221760604557
 30
0.0
 10
1562.954724110234
 20
1197.13226011692
 30
0.0
1001
AcDbBlockRepETag
1070
     1
1071
      114
1005
E41
  0
LINE
  5
E42
330
A24
100
AcDbEntity
  8
0
  6
Continuous
 62
     7
370
    15
100
AcDbLine
 10
1562.582951714279
 20
1197.132260116919
 30
0.0
 11
1562.954724110238
 21
1197.132260116925
 31
0.0
1001
AcDbBlockRepETag
1070
     1
1071
      115
1005
E42
  0
LINE
  5
E43
330
A24
100
AcDbEntity
  8
0
  6
Continuous
 62
     7
370
    15
100
AcDbLine
 10
1564.421398901506
 20
1197.478670278437
 30
0.0
 11
1561.171398901494
 21
1197.478670278444
 31
0.0
1001
AcDbBlockRepETag
1070
     1
1071
      116
1005
E43
  0
SPLINE
  5
E44
330
A24
100
AcDbEntity
  8
0
  6
Continuous
 62
     7
370
    15
100
AcDbSpline
210
0.0
220
0.0
230
1.0
 70
    24
 71
     3
 72
     8
 73
     4
 74
     0
 42
0.0000000001
 43
0.0000000001
 40
0.0000000000000137
 40
0.0000000000000137
 40
0.0000000000000137
 40
0.0000000000000137
 40
0.0001778594872846
 40
0.0001778594872846
 40
0.0001778594872846
 40
0.0001778594872846
 10
1561.171398901494
 20
1197.478670278451
 30
0.0
 10
1561.171398901494
 20
1197.449339621883
 30
0.0
 10
1561.171398901494
 20
1197.419996615716
 30
0.0
 10
1561.171398901494
 20
1197.390642616131
 30
0.0
1001
AcDbBlockRepETag
1070
     1
1071
      117
1005
E44
  0
LINE
  5
E45
330
A24
100
AcDbEntity
  8
0
  6
Continuous
 62
     7
370
    15
100
AcDbLine
 10
1562.582951714304
 20
1194.478670278445
 30
0.0
 11
1562.954724110226
 21
1194.478670278445
 31
0.0
1001
AcDbBlockRepETag
1070
     1
1071
      118
1005
E45
  0
LINE
  5
E46
330
A24
100
AcDbEntity
  8
0
  6
Continuous
 62
     7
370
    15
100
AcDbLine
 10
1562.954724110238
 20
1197.132260116925
 30
0.0
 11
1562.954724110226
 21
1194.478670278445
 31
0.0
1001
AcDbBlockRepETag
1070
     1
1071
      119
1005
E46
  0
LINE
  5
E47
330
A24
100
AcDbEntity
  8
0
  6
Continuous
 62
     7
370
    15
100
AcDbLine
 10
1558.088073692757
 20
1194.478670278445
 30
0.0
 11
1558.459846088688
 21
1194.478670278445
 31
0.0
1001
AcDbBlockRepETag
1070
     1
1071
      120
1005
E47
  0
LINE
  5
E48
330
A24
100
AcDbEntity
  8
0
  6
Continuous
 62
     7
370
    15
100
AcDbLine
 10
1558.088073692757
 20
1194.478670278445
 30
0.0
 11
1558.088073692745
 21
1197.132260116919
 31
0.0
1001
AcDbBlockRepETag
1070
     1
1071
      121
1005
E48
  0
LINE
  5
E49
330
A24
100
AcDbEntity
  8
0
  6
Continuous
 62
     7
370
    15
100
AcDbLine
 10
1556.026520879949
 20
1197.132260116915
 30
0.0
 11
1556.026520879948
 21
1194.478670278445
 31
0.0
1001
AcDbBlockRepETag
1070
     1
1071
      122
1005
E49
  0
LINE
  5
E4A
330
A24
100
AcDbEntity
  8
0
  6
Continuous
 62
     7
370
    15
100
AcDbLine
 10
1556.026520879948
 20
1194.478670278445
 30
0.0
 11
1558.088073692757
 21
1194.478670278445
 31
0.0
1001
AcDbBlockRepETag
1070
     1
1071
      123
1005
E4A
  0
LINE
  5
E4B
330
A24
100
AcDbEntity
  8
0
  6
Continuous
 62
     7
370
    15
100
AcDbLine
 10
1565.016276923033
 20
1194.478670278445
 30
0.0
 11
1565.016276923033
 21
1197.132260116915
 31
0.0
1001
AcDbBlockRepETag
1070
     1
1071
      124
1005
E4B
  0
LINE
  5
E4C
330
A24
100
AcDbEntity
  8
0
  6
Continuous
 62
     7
370
    15
100
AcDbLine
 10
1562.954724110226
 20
1194.478670278445
 30
0.0
 11
1565.016276923033
 21
1194.478670278445
 31
0.0
1001
AcDbBlockRepETag
1070
     1
1071
      125
1005
E4C
  0
LINE
  5
E4D
330
A24
100
AcDbEntity
  8
0
  6
Continuous
 62
     7
370
    15
100
AcDbLine
 10
1557.563913353355
 20
1163.005354089345
 30
0.0
 11
1557.420998268116
 21
1162.946156722772
 31
0.0
1001
AcDbBlockRepETag
1070
     1
1071
      126
1005
E4D
  0
LINE
  5
E4E
330
A24
100
AcDbEntity
  8
0
  6
Continuous
 62
     7
370
    15
100
AcDbLine
 10
1557.420998268116
 20
1162.621439062685
 30
0.0
 11
1557.740147023953
 21
1162.753634805767
 31
0.0
1001
AcDbBlockRepETag
1070
     1
1071
      127
1005
E4E
  0
LINE
  5
E4F
330
A24
100
AcDbEntity
  8
0
  6
Continuous
 62
     7
370
    15
100
AcDbLine
 10
1569.106898901485
 20
1164.300090268468
 30
0.0
 11
1569.106898901485
 21
1164.326336867526
 31
0.0
1001
AcDbBlockRepETag
1070
     1
1071
      128
1005
E4F
  0
LINE
  5
E50
330
A24
100
AcDbEntity
  8
0
  6
Continuous
 62
     7
370
    15
100
AcDbLine
 10
1563.812688027243
 20
1172.002176879723
 30
0.0
 11
1568.856898901484
 21
1169.724854443066
 31
0.0
1001
AcDbBlockRepETag
1070
     1
1071
      129
1005
E50
  0
SPLINE
  5
E51
330
A24
100
AcDbEntity
  8
0
  6
Continuous
 62
     7
370
    15
100
AcDbSpline
210
0.0
220
0.0
230
1.0
 70
     8
 71
     3
 72
    10
 73
     6
 74
     0
 42
0.0000000001
 43
0.0000000001
 40
0.0
 40
0.0
 40
0.0
 40
0.0
 40
0.5
 40
0.5
 40
1.0
 40
1.0
 40
1.0
 40
1.0
 10
1568.856898901484
 20
1169.724854443066
 30
0.0
 10
1568.93101785017
 20
1169.68206184809
 30
0.0
 10
1568.994063700073
 20
1169.619973383807
 30
0.0
 10
1569.08213509158
 20
1169.469935872989
 30
0.0
 10
1569.106898901485
 20
1169.382013036496
 30
0.0
 10
1569.106898901485
 20
1169.291841741173
 30
0.0
1001
AcDbBlockRepETag
1070
     1
1071
      130
1005
E51
  0
SPLINE
  5
E52
330
A24
100
AcDbEntity
  8
0
  6
Continuous
 62
     7
370
    15
100
AcDbSpline
210
0.0
220
0.0
230
1.0
 70
     8
 71
     3
 72
     8
 73
     4
 74
     0
 42
0.0000000001
 43
0.0000000001
 40
0.0
 40
0.0
 40
0.0
 40
0.0
 40
1.0
 40
1.0
 40
1.0
 40
1.0
 10
1568.806898901484
 20
1169.291841741173
 30
0.0
 10
1568.806898901484
 20
1169.363652456301
 30
0.0
 10
1568.766134650189
 20
1169.43084704647
 30
0.0
 10
1568.706898901484
 20
1169.46504682193
 30
0.0
1001
AcDbBlockRepETag
1070
     1
1071
      131
1005
E52
  0
LINE
  5
E53
330
A24
100
AcDbEntity
  8
0
  6
Continuous
 62
     7
370
    15
100
AcDbLine
 10
1568.706898901484
 20
1169.46504682193
 30
0.0
 11
1563.812688027243
 21
1171.67464838529
 31
0.0
1001
AcDbBlockRepETag
1070
     1
1071
      132
1005
E53
  0
LINE
  5
E54
330
A24
100
AcDbEntity
  8
0
  6
Continuous
 62
     7
370
    15
100
AcDbLine
 10
1563.812688027243
 20
1171.67464838529
 30
0.0
 11
1563.812688027243
 21
1172.002176879723
 31
0.0
1001
AcDbBlockRepETag
1070
     1
1071
      133
1005
E54
  0
LINE
  5
E55
330
A24
100
AcDbEntity
  8
0
  6
Continuous
 62
     7
370
    15
100
AcDbLine
 10
1568.806898901484
 20
1169.291841741173
 30
0.0
 11
1568.806898901484
 21
1169.265163392805
 31
0.0
1001
AcDbBlockRepETag
1070
     1
1071
      134
1005
E55
  0
LINE
  5
E56
330
A24
100
AcDbEntity
  8
0
  6
Continuous
 62
     7
370
    15
100
AcDbLine
 10
1569.106898901485
 20
1169.291841741173
 30
0.0
 11
1569.106898901485
 21
1169.184778635076
 31
0.0
1001
AcDbBlockRepETag
1070
     1
1071
      135
1005
E56
  0
LINE
  5
E57
330
A24
100
AcDbEntity
  8
0
  6
Continuous
 62
     7
370
    15
100
AcDbLine
 10
1569.106898901485
 20
1166.352583466584
 30
0.0
 11
1569.106898901485
 21
1166.322783157727
 31
0.0
1001
AcDbBlockRepETag
1070
     1
1071
      136
1005
E57
  0
ARC
  5
E58
330
A24
100
AcDbEntity
  8
0
  6
Continuous
 62
     7
370
    15
100
AcDbCircle
 10
1567.580695959883
 20
1180.933471102882
 30
0.0
 40
2.000000000000008
100
AcDbArc
 50
269.9923642742257
 51
354.21465389657
1001
AcDbBlockRepETag
1070
     1
1071
      137
1005
E58
  0
LINE
  5
E59
330
A24
100
AcDbEntity
  8
0
  6
Continuous
 62
     7
370
    15
100
AcDbLine
 10
1556.234898901491
 20
1178.934983123115
 30
0.0
 11
1567.580429422772
 21
1178.933471120642
 31
0.0
1001
AcDbBlockRepETag
1070
     1
1071
      138
1005
E59
  0
LINE
  5
E5A
330
A24
100
AcDbEntity
  8
0
  6
Continuous
 62
     7
370
    15
100
AcDbLine
 10
1550.479068594667
 20
1190.539473125817
 30
0.0
 11
1550.485229011776
 21
1190.478670278445
 31
0.0
1001
AcDbBlockRepETag
1070
     1
1071
      139
1005
E5A
  0
LINE
  5
E5B
330
A24
100
AcDbEntity
  8
0
  6
Continuous
 62
     7
370
    15
100
AcDbLine
 10
1551.48916111597
 20
1190.478670278445
 30
0.0
 11
1551.472799732861
 21
1190.640155882801
 31
0.0
1001
AcDbBlockRepETag
1070
     1
1071
      140
1005
E5B
  0
LINE
  5
E5C
330
A24
100
AcDbEntity
  8
0
  6
Continuous
 62
     7
370
    15
100
AcDbLine
 10
1569.57046392941
 20
1190.640155882801
 30
0.0
 11
1569.554102546301
 21
1190.478670278445
 31
0.0
1001
AcDbBlockRepETag
1070
     1
1071
      141
1005
E5C
  0
LINE
  5
E5D
330
A24
100
AcDbEntity
  8
0
  6
Continuous
 62
     7
370
    15
100
AcDbLine
 10
1569.570509004525
 20
1180.731867414001
 30
0.0
 11
1569.614007465878
 21
1181.161193912453
 31
0.0
1001
AcDbBlockRepETag
1070
     1
1071
      142
1005
E5D
  0
LINE
  5
E5E
330
A24
100
AcDbEntity
  8
0
  6
Continuous
 62
     7
370
    15
100
AcDbLine
 10
1570.558034650494
 20
1190.478670278445
 30
0.0
 11
1570.564195067604
 21
1190.539473125817
 31
0.0
1001
AcDbBlockRepETag
1070
     1
1071
      143
1005
E5E
  0
LINE
  5
E5F
330
A24
100
AcDbEntity
  8
0
  6
Continuous
 62
     7
370
    15
100
AcDbLine
 10
1556.66850824279
 20
1173.222783157726
 30
0.0
 11
1557.786507528442
 21
1173.222783157726
 31
0.0
1001
AcDbBlockRepETag
1070
     1
1071
      144
1005
E5F
  0
LINE
  5
E60
330
A24
100
AcDbEntity
  8
0
  6
Continuous
 62
     7
370
    15
100
AcDbLine
 10
1556.66850824279
 20
1173.522783157727
 30
0.0
 11
1556.66850824279
 21
1173.222783157726
 31
0.0
1001
AcDbBlockRepETag
1070
     1
1071
      145
1005
E60
  0
LINE
  5
E61
330
A24
100
AcDbEntity
  8
0
  6
Continuous
 62
     7
370
    15
100
AcDbLine
 10
1557.786507528442
 20
1173.522783157727
 30
0.0
 11
1556.66850824279
 21
1173.522783157727
 31
0.0
1001
AcDbBlockRepETag
1070
     1
1071
      146
1005
E61
  0
LINE
  5
E62
330
A24
100
AcDbEntity
  8
0
  6
Continuous
 62
     7
370
    15
100
AcDbLine
 10
1557.786507528442
 20
1173.222783157726
 30
0.0
 11
1557.786507528442
 21
1173.522783157727
 31
0.0
1001
AcDbBlockRepETag
1070
     1
1071
      147
1005
E62
  0
SPLINE
  5
E63
330
A24
100
AcDbEntity
  8
0
  6
Continuous
 62
     7
370
    15
100
AcDbSpline
210
0.0
220
0.0
230
1.0
 70
     8
 71
     3
 72
    10
 73
     6
 74
     0
 42
0.0000000001
 43
0.0000000001
 40
0.0
 40
0.0
 40
0.0
 40
0.0
 40
0.5
 40
0.5
 40
1.0
 40
1.0
 40
1.0
 40
1.0
 10
1560.180359454006
 20
1173.522783157727
 30
0.0
 10
1560.29416658541
 20
1173.522783157727
 30
0.0
 10
1560.405702886767
 20
1173.508089394117
 30
0.0
 10
1560.624281950182
 20
1173.449862862303
 30
0.0
 10
1560.730998098505
 20
1173.405982487992
 30
0.0
 10
1560.830359454007
 20
1173.348616182646
 30
0.0
1001
AcDbBlockRepETag
1070
     1
1071
      148
1005
E63
  0
LINE
  5
E64
330
A24
100
AcDbEntity
  8
0
  6
Continuous
 62
     7
370
    15
100
AcDbLine
 10
1562.956257657353
 20
1172.061303135738
 30
0.0
 11
1562.956257657353
 21
1172.388831630171
 31
0.0
1001
AcDbBlockRepETag
1070
     1
1071
      149
1005
E64
  0
SPLINE
  5
E65
330
A24
100
AcDbEntity
  8
0
  6
Continuous
 62
     7
370
    15
100
AcDbSpline
210
0.0
220
0.0
230
1.0
 70
     8
 71
     3
 72
     8
 73
     4
 74
     0
 42
0.0000000001
 43
0.0000000001
 40
0.0
 40
0.0
 40
0.0
 40
0.0
 40
1.0
 40
1.0
 40
1.0
 40
1.0
 10
1560.680359454004
 20
1173.088808561512
 30
0.0
 10
1560.527530752191
 20
1173.177044253643
 30
0.0
 10
1560.355563010156
 20
1173.222783157727
 30
0.0
 10
1560.180359454006
 20
1173.222783157727
 30
0.0
1001
AcDbBlockRepETag
1070
     1
1071
      150
1005
E65
  0
LINE
  5
E66
330
A24
100
AcDbEntity
  8
0
  6
Continuous
 62
     7
370
    15
100
AcDbLine
 10
1557.786507528442
 20
1173.522783157727
 30
0.0
 11
1560.180359454006
 21
1173.522783157727
 31
0.0
1001
AcDbBlockRepETag
1070
     1
1071
      151
1005
E66
  0
LINE
  5
E67
330
A24
100
AcDbEntity
  8
0
  6
Continuous
 62
     7
370
    15
100
AcDbLine
 10
1560.180359454006
 20
1173.222783157726
 30
0.0
 11
1557.786507528442
 21
1173.222783157726
 31
0.0
1001
AcDbBlockRepETag
1070
     1
1071
      152
1005
E67
  0
LINE
  5
E68
330
A24
100
AcDbEntity
  8
0
  6
Continuous
 62
     7
370
    15
100
AcDbLine
 10
1560.680359454004
 20
1173.088808561512
 30
0.0
 11
1562.956257657353
 21
1172.061303135738
 31
0.0
1001
AcDbBlockRepETag
1070
     1
1071
      153
1005
E68
  0
LINE
  5
E69
330
A24
100
AcDbEntity
  8
0
  6
Continuous
 62
     7
370
    15
100
AcDbLine
 10
1562.956257657353
 20
1172.388831630171
 30
0.0
 11
1560.830359454007
 21
1173.348616182646
 31
0.0
1001
AcDbBlockRepETag
1070
     1
1071
      154
1005
E69
  0
LINE
  5
E6A
330
A24
100
AcDbEntity
  8
0
  6
Continuous
 62
     7
370
    15
100
AcDbLine
 10
1556.66850824279
 20
1173.522783157727
 30
0.0
 11
1556.234898901491
 21
1173.522783157727
 31
0.0
1001
AcDbBlockRepETag
1070
     1
1071
      155
1005
E6A
  0
LINE
  5
E6B
330
A24
100
AcDbEntity
  8
0
  6
Continuous
 62
     7
370
    15
100
AcDbLine
 10
1556.234898901491
 20
1173.222783157726
 30
0.0
 11
1556.66850824279
 21
1173.222783157726
 31
0.0
1001
AcDbBlockRepETag
1070
     1
1071
      156
1005
E6B
  0
SPLINE
  5
E6C
330
A24
100
AcDbEntity
  8
0
  6
Continuous
 62
     7
370
    15
100
AcDbSpline
210
0.0
220
0.0
230
1.0
 70
    24
 71
     3
 72
    14
 73
    10
 74
     0
 42
0.0000000001
 43
0.0000000001
 40
0.0
 40
0.0
 40
0.0
 40
0.0
 40
0.0003613767246407
 40
0.0003613767246407
 40
0.0003613767246407
 40
0.0006505237187482
 40
0.0006505237187482
 40
0.0006505237187482
 40
0.0009396707129638
 40
0.0009396707129638
 40
0.0009396707129638
 40
0.0009396707129638
 10
1563.812688027243
 20
1171.67464838529
 30
0.0
 10
1563.702899975399
 20
1171.72421467028
 30
0.0
 10
1563.593111873499
 20
1171.773780977869
 30
0.0
 10
1563.48332375989
 20
1171.823347290744
 30
0.0
 10
1563.395479410825
 20
1171.86300659763
 30
0.0
 10
1563.307635052754
 20
1171.902665908581
 30
0.0
 10
1563.219790698134
 20
1171.942325217975
 30
0.0
 10
1563.131946343531
 20
1171.981984527362
 30
0.0
 10
1563.044101991778
 20
1172.021643835461
 30
0.0
 10
1562.956257657353
 20
1172.061303135738
 30
0.0
1001
AcDbBlockRepETag
1070
     1
1071
      157
1005
E6C
  0
SPLINE
  5
E6D
330
A24
100
AcDbEntity
  8
0
  6
Continuous
 62
     7
370
    15
100
AcDbSpline
210
0.0
220
0.0
230
1.0
 70
    24
 71
     3
 72
    14
 73
    10
 74
     0
 42
0.0000000001
 43
0.0000000001
 40
0.0
 40
0.0
 40
0.0
 40
0.0
 40
0.0003613767246407
 40
0.0003613767246407
 40
0.0003613767246407
 40
0.0006505237187482
 40
0.0006505237187482
 40
0.0006505237187482
 40
0.0009396707129638
 40
0.0009396707129638
 40
0.0009396707129638
 40
0.0009396707129638
 10
1563.812688027243
 20
1172.002176879723
 30
0.0
 10
1563.702899975399
 20
1172.051743164713
 30
0.0
 10
1563.593111873499
 20
1172.101309472302
 30
0.0
 10
1563.48332375989
 20
1172.150875785176
 30
0.0
 10
1563.395479410825
 20
1172.190535092062
 30
0.0
 10
1563.307635052754
 20
1172.230194403014
 30
0.0
 10
1563.219790698134
 20
1172.269853712408
 30
0.0
 10
1563.131946343531
 20
1172.309513021795
 30
0.0
 10
1563.044101991778
 20
1172.349172329894
 30
0.0
 10
1562.956257657353
 20
1172.388831630171
 30
0.0
1001
AcDbBlockRepETag
1070
     1
1071
      158
1005
E6D
  0
LINE
  5
E6E
330
A24
100
AcDbEntity
  8
0
  6
Continuous
 62
     7
370
    15
100
AcDbLine
 10
1561.904825112025
 20
1178.605128950208
 30
0.0
 11
1561.904867757962
 21
1178.925128947367
 31
0.0
1001
AcDbBlockRepETag
1070
     1
1071
      159
1005
E6E
  0
SPLINE
  5
E6F
330
A24
100
AcDbEntity
  8
0
  6
Continuous
 62
     7
370
    15
100
AcDbSpline
210
0.0
220
0.0
230
1.0
 70
    24
 71
     3
 72
     8
 73
     4
 74
     0
 42
0.0000000001
 43
0.0000000001
 40
0.0
 40
0.0
 40
0.0
 40
0.0
 40
1.0
 40
1.0
 40
1.0
 40
1.0
 10
1560.827328857263
 20
1178.605272546579
 30
0.0
 10
1561.181488457368
 20
1178.60522534824
 30
0.0
 10
1561.542794663477
 20
1178.605177197484
 30
0.0
 10
1561.904825112025
 20
1178.605128950208
 30
0.0
1001
AcDbBlockRepETag
1070
     1
1071
      160
1005
E6F
  0
LINE
  5
E70
330
A24
100
AcDbEntity
  8
0
  6
Continuous
 62
     7
370
    15
100
AcDbLine
 10
1560.827371503201
 20
1178.925272543737
 30
0.0
 11
1560.827328857263
 21
1178.605272546579
 31
0.0
1001
AcDbBlockRepETag
1070
     1
1071
      161
1005
E70
  0
LINE
  5
E71
330
A24
100
AcDbEntity
  8
0
  6
Continuous
 62
     7
370
    15
100
AcDbLine
 10
1560.827371726951
 20
1178.925272543707
 30
0.0
 11
1561.904867757963
 21
1178.925128947367
 31
0.0
1001
AcDbBlockRepETag
1070
     1
1071
      162
1005
E71
  0
LINE
  5
E72
330
A24
100
AcDbEntity
  8
0
  6
Continuous
 62
     7
370
    15
100
AcDbLine
 10
1560.827372939501
 20
1178.93437109073
 30
0.0
 11
1560.827372939501
 21
1178.925272543697
 31
0.0
1001
AcDbBlockRepETag
1070
     1
1071
      163
1005
E72
  0
LINE
  5
E73
330
A24
100
AcDbEntity
  8
0
  6
Continuous
 62
     7
370
    15
100
AcDbLine
 10
1560.827328857263
 20
1178.605272546579
 30
0.0
 11
1560.140701543339
 21
1178.605364052409
 31
0.0
1001
AcDbBlockRepETag
1070
     1
1071
      164
1005
E73
  0
LINE
  5
E74
330
A24
100
AcDbEntity
  8
0
  6
Continuous
 62
     7
370
    15
100
AcDbLine
 10
1560.140701543339
 20
1178.605364052409
 30
0.0
 11
1560.140744189277
 21
1178.925364049568
 31
0.0
1001
AcDbBlockRepETag
1070
     1
1071
      165
1005
E74
  0
LINE
  5
E75
330
A24
100
AcDbEntity
  8
0
  6
Continuous
 62
     7
370
    15
100
AcDbLine
 10
1560.140744189277
 20
1178.925364049568
 30
0.0
 11
1560.140745289952
 21
1178.934462596606
 31
0.0
1001
AcDbBlockRepETag
1070
     1
1071
      166
1005
E75
  0
LINE
  5
E76
330
A24
100
AcDbEntity
  8
0
  6
Continuous
 62
     7
370
    15
100
AcDbLine
 10
1561.904867757962
 20
1178.925128947367
 30
0.0
 11
1561.904868970513
 21
1178.93422749439
 31
0.0
1001
AcDbBlockRepETag
1070
     1
1071
      167
1005
E76
  0
LINE
  5
E77
330
A24
100
AcDbEntity
  8
0
  6
Continuous
 62
     7
370
    15
100
AcDbLine
 10
1566.327372666921
 20
1178.933638113707
 30
0.0
 11
1566.32737266692
 21
1178.924539566667
 31
0.0
1001
AcDbBlockRepETag
1070
     1
1071
      168
1005
E77
  0
LINE
  5
E78
330
A24
100
AcDbEntity
  8
0
  6
Continuous
 62
     7
370
    15
100
AcDbLine
 10
1566.32737145437
 20
1178.924539566684
 30
0.0
 11
1566.327328808433
 21
1178.604539569525
 31
0.0
1001
AcDbBlockRepETag
1070
     1
1071
      169
1005
E78
  0
LINE
  5
E79
330
A24
100
AcDbEntity
  8
0
  6
Continuous
 62
     7
370
    15
100
AcDbLine
 10
1566.327328808433
 20
1178.604539569525
 30
0.0
 11
1565.640701494498
 21
1178.604631075357
 31
0.0
1001
AcDbBlockRepETag
1070
     1
1071
      170
1005
E79
  0
LINE
  5
E7A
330
A24
100
AcDbEntity
  8
0
  6
Continuous
 62
     7
370
    15
100
AcDbLine
 10
1565.640701494498
 20
1178.604631075357
 30
0.0
 11
1565.640744140436
 21
1178.924631072515
 31
0.0
1001
AcDbBlockRepETag
1070
     1
1071
      171
1005
E7A
  0
LINE
  5
E7B
330
A24
100
AcDbEntity
  8
0
  6
Continuous
 62
     7
370
    15
100
AcDbLine
 10
1565.640744140436
 20
1178.924631072515
 30
0.0
 11
1565.640745352986
 21
1178.933729619538
 31
0.0
1001
AcDbBlockRepETag
1070
     1
1071
      172
1005
E7B
  0
LINE
  5
E7C
330
A24
100
AcDbEntity
  8
0
  6
Continuous
 62
     7
370
    15
100
AcDbLine
 10
1566.327371827862
 20
1178.924539566688
 30
0.0
 11
1567.404867709132
 21
1178.924395970367
 31
0.0
1001
AcDbBlockRepETag
1070
     1
1071
      173
1005
E7C
  0
LINE
  5
E7D
330
A24
100
AcDbEntity
  8
0
  6
Continuous
 62
     7
370
    15
100
AcDbLine
 10
1567.404867709132
 20
1178.924395970367
 30
0.0
 11
1567.404868921683
 21
1178.933494517337
 31
0.0
1001
AcDbBlockRepETag
1070
     1
1071
      174
1005
E7D
  0
LINE
  5
E7E
330
A24
100
AcDbEntity
  8
0
  6
Continuous
 62
     7
370
    15
100
AcDbLine
 10
1567.404825063194
 20
1178.604395973155
 30
0.0
 11
1567.404867709132
 21
1178.924395970367
 31
0.0
1001
AcDbBlockRepETag
1070
     1
1071
      175
1005
E7E
  0
SPLINE
  5
E7F
330
A24
100
AcDbEntity
  8
0
  6
Continuous
 62
     7
370
    15
100
AcDbSpline
210
0.0
220
0.0
230
1.0
 70
    24
 71
     3
 72
     8
 73
     4
 74
     0
 42
0.0000000001
 43
0.0000000001
 40
0.0
 40
0.0
 40
0.0
 40
0.0
 40
1.0
 40
1.0
 40
1.0
 40
1.0
 10
1566.327328808433
 20
1178.604539569525
 30
0.0
 10
1566.681488898206
 20
1178.604492371122
 30
0.0
 10
1567.04280775796
 20
1178.604444218679
 30
0.0
 10
1567.404825063194
 20
1178.604395973155
 30
0.0
1001
AcDbBlockRepETag
1070
     1
1071
      176
1005
E7F
  0
LINE
  5
E80
330
A24
100
AcDbEntity
  8
0
  6
Continuous
 62
     7
370
    15
100
AcDbLine
 10
1556.404825160877
 20
1178.605861927262
 30
0.0
 11
1556.404867806815
 21
1178.925861924474
 31
0.0
1001
AcDbBlockRepETag
1070
     1
1071
      177
1005
E80
  0
LINE
  5
E81
330
A24
100
AcDbEntity
  8
0
  6
Continuous
 62
     7
370
    15
100
AcDbLine
 10
1556.234898901491
 20
1178.605884573089
 30
0.0
 11
1556.404825160877
 21
1178.605861927262
 31
0.0
1001
AcDbBlockRepETag
1070
     1
1071
      178
1005
E81
  0
LINE
  5
E82
330
A24
100
AcDbEntity
  8
0
  6
Continuous
 62
     7
370
    15
100
AcDbLine
 10
1556.404867806815
 20
1178.925861924474
 30
0.0
 11
1556.404869019365
 21
1178.934960471443
 31
0.0
1001
AcDbBlockRepETag
1070
     1
1071
      179
1005
E82
  0
SPLINE
  5
E83
330
A24
100
AcDbEntity
  8
0
  6
Continuous
 62
     7
370
    15
100
AcDbSpline
210
0.0
220
0.0
230
1.0
 70
    24
 71
     3
 72
     8
 73
     4
 74
     0
 42
0.0000000001
 43
0.0000000001
 40
0.0
 40
0.0
 40
0.0
 40
0.0
 40
1.0
 40
1.0
 40
1.0
 40
1.0
 10
1559.063205288558
 20
1178.60550764878
 30
0.0
 10
1559.425222593814
 20
1178.605459403256
 30
0.0
 10
1559.786541453566
 20
1178.605411250813
 30
0.0
 10
1560.140701543339
 20
1178.605364052409
 30
0.0
1001
AcDbBlockRepETag
1070
     1
1071
      180
1005
E83
  0
LINE
  5
E84
330
A24
100
AcDbEntity
  8
0
  6
Continuous
 62
     7
370
    15
100
AcDbLine
 10
1559.063247934495
 20
1178.925507645938
 30
0.0
 11
1559.063205288558
 21
1178.60550764878
 31
0.0
1001
AcDbBlockRepETag
1070
     1
1071
      181
1005
E84
  0
LINE
  5
E85
330
A24
100
AcDbEntity
  8
0
  6
Continuous
 62
     7
370
    15
100
AcDbLine
 10
1559.063247934495
 20
1178.925507645938
 30
0.0
 11
1560.140744189277
 21
1178.925364049568
 31
0.0
1001
AcDbBlockRepETag
1070
     1
1071
      182
1005
E85
  0
LINE
  5
E86
330
A24
100
AcDbEntity
  8
0
  6
Continuous
 62
     7
370
    15
100
AcDbLine
 10
1559.063249147046
 20
1178.934606192961
 30
0.0
 11
1559.063247934495
 21
1178.925507645938
 31
0.0
1001
AcDbBlockRepETag
1070
     1
1071
      183
1005
E86
  0
LINE
  5
E87
330
A24
100
AcDbEntity
  8
0
  6
Continuous
 62
     7
370
    15
100
AcDbLine
 10
1564.563247885654
 20
1178.924774668885
 30
0.0
 11
1565.640744140436
 21
1178.924631072515
 31
0.0
1001
AcDbBlockRepETag
1070
     1
1071
      184
1005
E87
  0
LINE
  5
E88
330
A24
100
AcDbEntity
  8
0
  6
Continuous
 62
     7
370
    15
100
AcDbLine
 10
1564.563249098204
 20
1178.933873215908
 30
0.0
 11
1564.563247885654
 21
1178.924774668885
 31
0.0
1001
AcDbBlockRepETag
1070
     1
1071
      185
1005
E88
  0
SPLINE
  5
E89
330
A24
100
AcDbEntity
  8
0
  6
Continuous
 62
     7
370
    15
100
AcDbSpline
210
0.0
220
0.0
230
1.0
 70
    24
 71
     3
 72
     8
 73
     4
 74
     0
 42
0.0000000001
 43
0.0000000001
 40
0.0
 40
0.0
 40
0.0
 40
0.0
 40
1.0
 40
1.0
 40
1.0
 40
1.0
 10
1564.563205239716
 20
1178.604774671726
 30
0.0
 10
1564.925235688273
 20
1178.604726424451
 30
0.0
 10
1565.286541894375
 20
1178.604678273695
 30
0.0
 10
1565.640701494498
 20
1178.604631075356
 30
0.0
1001
AcDbBlockRepETag
1070
     1
1071
      186
1005
E89
  0
LINE
  5
E8A
330
A24
100
AcDbEntity
  8
0
  6
Continuous
 62
     7
370
    15
100
AcDbLine
 10
1564.563247885654
 20
1178.924774668885
 30
0.0
 11
1564.563205239716
 21
1178.604774671727
 31
0.0
1001
AcDbBlockRepETag
1070
     1
1071
      187
1005
E8A
  0
LINE
  5
E8B
330
A24
100
AcDbEntity
  8
0
  6
Continuous
 62
     7
370
    15
100
AcDbLine
 10
1556.021398901489
 20
1194.478670278445
 30
0.0
 11
1556.026520879948
 21
1194.478670278445
 31
0.0
1001
AcDbBlockRepETag
1070
     1
1071
      188
1005
E8B
  0
LINE
  5
E8C
330
A24
100
AcDbEntity
  8
0
  6
Continuous
 62
     7
370
    15
100
AcDbLine
 10
1565.016276923033
 20
1194.478670278445
 30
0.0
 11
1565.021398901491
 21
1194.478670278445
 31
0.0
1001
AcDbBlockRepETag
1070
     1
1071
      189
1005
E8C
  0
LINE
  5
E8D
330
A24
100
AcDbEntity
  8
0
  6
Continuous
 62
     8
370
    15
100
AcDbLine
 10
1556.234898901491
 20
1178.925884575984
 30
0.0
 11
1556.404867806815
 21
1178.925861924474
 31
0.0
1001
AcDbBlockRepETag
1070
     1
1071
      190
1005
E8D
  0
ENDBLK
  5
A26
330
A24
100
AcDbEntity
  8
0
100
AcDbBlockEnd
  0
BLOCK
  5
AEB
330
AEA
100
AcDbEntity
  8
0
100
AcDbBlockBegin
  2
3
 70
     0
 10
0.0
 20
0.0
 30
0.0
  3
3
  1

  0
LINE
  5
AED
330
AEA
100
AcDbEntity
  8
0
  6
Continuous
 62
     7
370
    15
100
AcDbLine
 10
1597.223418588967
 20
1140.206754566189
 30
0.0
 11
1594.027966729952
 21
1140.206754566189
 31
0.0
  0
LINE
  5
AEE
330
AEA
100
AcDbEntity
  8
0
  6
Continuous
 62
     7
370
    15
100
AcDbLine
 10
1594.027966729952
 20
1140.206754566189
 30
0.0
 11
1594.027966729952
 21
1141.656754566186
 31
0.0
  0
LINE
  5
AEF
330
AEA
100
AcDbEntity
  8
0
  6
Continuous
 62
     7
370
    15
100
AcDbLine
 10
1594.027966729952
 20
1141.656754566186
 30
0.0
 11
1592.727966729954
 21
1141.656754566186
 31
0.0
  0
LINE
  5
AF0
330
AEA
100
AcDbEntity
  8
0
  6
Continuous
 62
     7
370
    15
100
AcDbLine
 10
1592.727966729954
 20
1141.656754566186
 30
0.0
 11
1592.727966729954
 21
1140.206754566185
 31
0.0
  0
LINE
  5
AF1
330
AEA
100
AcDbEntity
  8
0
  6
Continuous
 62
     7
370
    15
100
AcDbLine
 10
1592.727966729954
 20
1140.206754566185
 30
0.0
 11
1589.532514870933
 21
1140.206754566185
 31
0.0
  0
ARC
  5
AF2
330
AEA
100
AcDbEntity
  8
0
  6
Continuous
 62
     7
370
    15
100
AcDbCircle
 10
1593.377966729949
 20
1139.556754566185
 30
0.0
 40
3.900000000003791
100
AcDbArc
 50
9.594068226905513
 51
170.4059317731352
  0
LINE
  5
AF3
330
AEA
100
AcDbEntity
  8
0
  6
Continuous
 62
     7
370
    15
100
AcDbLine
 10
1594.027966729946
 20
1138.906754566189
 30
0.0
 11
1597.223418588965
 21
1138.906754566189
 31
0.0
  0
ARC
  5
AF4
330
AEA
100
AcDbEntity
  8
0
  6
Continuous
 62
     7
370
    15
100
AcDbCircle
 10
1593.377966729949
 20
1139.556754566185
 30
0.0
 40
3.900000000003778
100
AcDbArc
 50
189.5940682268519
 51
350.4059317732016
  0
LINE
  5
AF5
330
AEA
100
AcDbEntity
  8
0
  6
Continuous
 62
     7
370
    15
100
AcDbLine
 10
1589.53251487093
 20
1138.906754566185
 30
0.0
 11
1592.727966729948
 21
1138.906754566185
 31
0.0
  0
LINE
  5
AF6
330
AEA
100
AcDbEntity
  8
0
  6
Continuous
 62
     7
370
    15
100
AcDbLine
 10
1592.727966729948
 20
1137.456754566184
 30
0.0
 11
1594.027966729946
 21
1137.456754566184
 31
0.0
  0
LINE
  5
AF7
330
AEA
100
AcDbEntity
  8
0
  6
Continuous
 62
     7
370
    15
100
AcDbLine
 10
1594.027966729946
 20
1137.456754566184
 30
0.0
 11
1594.027966729946
 21
1138.906754566189
 31
0.0
  0
LINE
  5
AF8
330
AEA
100
AcDbEntity
  8
0
  6
Continuous
 62
     7
370
    15
100
AcDbLine
 10
1592.727966729948
 20
1138.906754566185
 30
0.0
 11
1592.727966729948
 21
1137.456754566184
 31
0.0
  0
ARC
  5
AF9
330
AEA
100
AcDbEntity
  8
0
  6
Continuous
 62
     7
370
    15
100
AcDbCircle
 10
1593.377966729949
 20
1139.556754566185
 30
0.0
 40
4.500000000000699
100
AcDbArc
 50
87.26604445079237
 51
92.73395554931175
  0
SPLINE
  5
AFA
330
AEA
100
AcDbEntity
  8
0
  6
Continuous
 62
     7
370
    15
100
AcDbSpline
210
0.0
220
0.0
230
1.0
 70
    24
 71
     3
 72
    12
 73
     8
 74
     0
 42
0.0000000001
 43
0.0000000001
 40
0.0
 40
0.0
 40
0.0
 40
0.0
 40
0.4999999999999995
 40
0.4999999999999995
 40
0.7499999999999997
 40
0.7499999999999997
 40
1.0
 40
1.0
 40
1.0
 40
1.0
 10
1593.59260962281
 20
1144.051632587727
 30
0.0
 10
1594.1775335551
 20
1143.713926597964
 30
0.0
 10
1594.769384537134
 20
1143.372221274167
 30
0.0
 10
1595.673454315834
 20
1142.850256344068
 30
0.0
 10
1595.977538539561
 20
1142.674693235643
 30
0.0
 10
1596.574863442808
 20
1142.329827541959
 30
0.0
 10
1596.870278571491
 20
1142.159269537891
 30
0.0
 10
1597.163323837062
 20
1141.990079774929
 30
0.0
  0
ARC
  5
AFB
330
AEA
100
AcDbEntity
  8
0
  6
Continuous
 62
     7
370
    15
100
AcDbCircle
 10
1593.377966729949
 20
1139.556754566185
 30
0.0
 40
4.499999999989
100
AcDbArc
 50
27.26604445053337
 51
32.73395554962455
  0
SPLINE
  5
AFC
330
AEA
100
AcDbEntity
  8
0
  6
Continuous
 62
     7
370
    15
100
AcDbSpline
210
0.0
220
0.0
230
1.0
 70
    24
 71
     3
 72
     8
 73
     4
 74
     0
 42
0.0000000001
 43
0.0000000001
 40
0.0
 40
0.0
 40
0.0
 40
0.0
 40
1.0
 40
1.0
 40
1.0
 40
1.0
 10
1597.377966729946
 20
1141.618307378973
 30
0.0
 10
1597.377966729946
 20
1141.154480815888
 30
0.0
 10
1597.377966729946
 20
1140.68493201677
 30
0.0
 10
1597.377966729946
 20
1140.20675456619
 30
0.0
  0
SPLINE
  5
AFD
330
AEA
100
AcDbEntity
  8
0
  6
Continuous
 62
     7
370
    15
100
AcDbSpline
210
0.0
220
0.0
230
1.0
 70
    24
 71
     3
 72
     8
 73
     4
 74
     0
 42
0.0000000001
 43
0.0000000001
 40
0.0
 40
0.0
 40
0.0
 40
0.0
 40
1.0
 40
1.0
 40
1.0
 40
1.0
 10
1589.377966729946
 20
1141.618307378985
 30
0.0
 10
1589.377966729946
 20
1141.154480815895
 30
0.0
 10
1589.377966729946
 20
1140.684932016771
 30
0.0
 10
1589.377966729946
 20
1140.206754566184
 30
0.0
  0
ARC
  5
AFE
330
AEA
100
AcDbEntity
  8
0
  6
Continuous
 62
     7
370
    15
100
AcDbCircle
 10
1593.377966729949
 20
1139.556754566185
 30
0.0
 40
4.500000000001171
100
AcDbArc
 50
147.2660444507511
 51
152.7339555493617
  0
SPLINE
  5
AFF
330
AEA
100
AcDbEntity
  8
0
  6
Continuous
 62
     7
370
    15
100
AcDbSpline
210
0.0
220
0.0
230
1.0
 70
    24
 71
     3
 72
    12
 73
     8
 74
     0
 42
0.0000000001
 43
0.0000000001
 40
0.0
 40
0.0
 40
0.0
 40
0.0
 40
0.5
 40
0.5
 40
0.75
 40
0.75
 40
1.0
 40
1.0
 40
1.0
 40
1.0
 10
1589.592609622812
 20
1141.990079774918
 30
0.0
 10
1590.177533555106
 20
1142.327785764684
 30
0.0
 10
1590.769384537144
 20
1142.669491088483
 30
0.0
 10
1591.67345431585
 20
1143.191456018585
 30
0.0
 10
1591.97753853958
 20
1143.367019127012
 30
0.0
 10
1592.57486344283
 20
1143.711884820697
 30
0.0
 10
1592.870278571508
 20
1143.882442824762
 30
0.0
 10
1593.163323837081
 20
1144.051632587725
 30
0.0
  0
SPLINE
  5
B00
330
AEA
100
AcDbEntity
  8
0
  6
Continuous
 62
     7
370
    15
100
AcDbSpline
210
0.0
220
0.0
230
1.0
 70
    24
 71
     3
 72
     8
 73
     4
 74
     0
 42
0.0000000001
 43
0.0000000001
 40
0.000000000000003
 40
0.000000000000003
 40
0.000000000000003
 40
0.000000000000003
 40
0.0001778594872729
 40
0.0001778594872729
 40
0.0001778594872729
 40
0.0001778594872729
 10
1589.377966729952
 20
1140.206754566185
 30
0.0
 10
1589.429476256141
 20
1140.206754566185
 30
0.0
 10
1589.480992049159
 20
1140.206754566185
 30
0.0
 10
1589.532514870948
 20
1140.206754566185
 30
0.0
  0
SPLINE
  5
B01
330
AEA
100
AcDbEntity
  8
0
  6
Continuous
 62
     7
370
    15
100
AcDbSpline
210
0.0
220
0.0
230
1.0
 70
    24
 71
     3
 72
     8
 73
     4
 74
     0
 42
0.0000000001
 43
0.0000000001
 40
0.0000000000000137
 40
0.0000000000000137
 40
0.0000000000000137
 40
0.0000000000000137
 40
0.0001778594872846
 40
0.0001778594872846
 40
0.0001778594872846
 40
0.0001778594872846
 10
1597.223418588955
 20
1140.206754566189
 30
0.0
 10
1597.274941410744
 20
1140.206754566189
 30
0.0
 10
1597.326457203762
 20
1140.206754566189
 30
0.0
 10
1597.377966729951
 20
1140.206754566189
 30
0.0
  0
ARC
  5
B02
330
AEA
100
AcDbEntity
  8
0
  6
Continuous
 62
     7
370
    15
100
AcDbCircle
 10
1593.377966729949
 20
1139.556754566185
 30
0.0
 40
4.500000000001358
100
AcDbArc
 50
207.2660444506966
 51
212.7339555495526
  0
SPLINE
  5
B03
330
AEA
100
AcDbEntity
  8
0
  6
Continuous
 62
     7
370
    15
100
AcDbSpline
210
0.0
220
0.0
230
1.0
 70
    24
 71
     3
 72
     8
 73
     4
 74
     0
 42
0.0000000001
 43
0.0000000001
 40
0.0
 40
0.0
 40
0.0
 40
0.0
 40
1.0
 40
1.0
 40
1.0
 40
1.0
 10
1589.377966729946
 20
1137.495201753401
 30
0.0
 10
1589.377966729946
 20
1137.959028316479
 30
0.0
 10
1589.377966729946
 20
1138.42857711561
 30
0.0
 10
1589.377966729946
 20
1138.906754566185
 30
0.0
  0
SPLINE
  5
B04
330
AEA
100
AcDbEntity
  8
0
  6
Continuous
 62
     7
370
    15
100
AcDbSpline
210
0.0
220
0.0
230
1.0
 70
    24
 71
     3
 72
     8
 73
     4
 74
     0
 42
0.0000000001
 43
0.0000000001
 40
0.0
 40
0.0
 40
0.0
 40
0.0
 40
1.0
 40
1.0
 40
1.0
 40
1.0
 10
1597.377966729946
 20
1138.906754566188
 30
0.0
 10
1597.377966729946
 20
1138.428577115608
 30
0.0
 10
1597.377966729946
 20
1137.959028316483
 30
0.0
 10
1597.377966729946
 20
1137.4952017534
 30
0.0
  0
ARC
  5
B05
330
AEA
100
AcDbEntity
  8
0
  6
Continuous
 62
     7
370
    15
100
AcDbCircle
 10
1593.377966729949
 20
1139.556754566185
 30
0.0
 40
4.499999999988995
100
AcDbArc
 50
327.2660444504584
 51
332.7339555496123
  0
SPLINE
  5
B06
330
AEA
100
AcDbEntity
  8
0
  6
Continuous
 62
     7
370
    15
100
AcDbSpline
210
0.0
220
0.0
230
1.0
 70
    24
 71
     3
 72
    12
 73
     8
 74
     0
 42
0.0000000001
 43
0.0000000001
 40
0.0
 40
0.0
 40
0.0
 40
0.0
 40
0.5
 40
0.5
 40
0.75
 40
0.75
 40
1.0
 40
1.0
 40
1.0
 40
1.0
 10
1597.163323837062
 20
1137.123429357439
 30
0.0
 10
1596.578399904771
 20
1136.785723367675
 30
0.0
 10
1595.986548922736
 20
1136.444018043877
 30
0.0
 10
1595.082479144036
 20
1135.922053113778
 30
0.0
 10
1594.778394920308
 20
1135.746490005353
 30
0.0
 10
1594.181070017062
 20
1135.40162431167
 30
0.0
 10
1593.885654888386
 20
1135.231066307606
 30
0.0
 10
1593.592609622815
 20
1135.061876544644
 30
0.0
  0
ARC
  5
B07
330
AEA
100
AcDbEntity
  8
0
  6
Continuous
 62
     7
370
    15
100
AcDbCircle
 10
1593.377966729949
 20
1139.556754566185
 30
0.0
 40
4.500000000000834
100
AcDbArc
 50
267.2660444506753
 51
272.7339555492857
  0
SPLINE
  5
B08
330
AEA
100
AcDbEntity
  8
0
  6
Continuous
 62
     7
370
    15
100
AcDbSpline
210
0.0
220
0.0
230
1.0
 70
    24
 71
     3
 72
    12
 73
     8
 74
     0
 42
0.0000000001
 43
0.0000000001
 40
0.0
 40
0.0
 40
0.0
 40
0.0
 40
0.4999999999999999
 40
0.4999999999999999
 40
0.75
 40
0.75
 40
1.0
 40
1.0
 40
1.0
 40
1.0
 10
1593.163323837079
 20
1135.061876544643
 30
0.0
 10
1592.578399904789
 20
1135.399582534406
 30
0.0
 10
1591.986548922755
 20
1135.741287858204
 30
0.0
 10
1591.082479144055
 20
1136.263252788302
 30
0.0
 10
1590.778394920327
 20
1136.438815896728
 30
0.0
 10
1590.18107001708
 20
1136.783681590411
 30
0.0
 10
1589.885654888402
 20
1136.954239594476
 30
0.0
 10
1589.592609622831
 20
1137.123429357439
 30
0.0
  0
SPLINE
  5
B09
330
AEA
100
AcDbEntity
  8
0
  6
Continuous
 62
     7
370
    15
100
AcDbSpline
210
0.0
220
0.0
230
1.0
 70
    24
 71
     3
 72
     8
 73
     4
 74
     0
 42
0.0000000001
 43
0.0000000001
 40
0.0000000000000026
 40
0.0000000000000026
 40
0.0000000000000026
 40
0.0000000000000026
 40
0.0001778594872775
 40
0.0001778594872775
 40
0.0001778594872775
 40
0.0001778594872775
 10
1597.377966729951
 20
1138.906754566189
 30
0.0
 10
1597.326457203761
 20
1138.906754566189
 30
0.0
 10
1597.274941410741
 20
1138.906754566189
 30
0.0
 10
1597.22341858895
 20
1138.906754566189
 30
0.0
  0
SPLINE
  5
B0A
330
AEA
100
AcDbEntity
  8
0
  6
Continuous
 62
     7
370
    15
100
AcDbSpline
210
0.0
220
0.0
230
1.0
 70
    24
 71
     3
 72
     8
 73
     4
 74
     0
 42
0.0000000001
 43
0.0000000001
 40
0.0000000000000137
 40
0.0000000000000137
 40
0.0000000000000137
 40
0.0000000000000137
 40
0.0001778594872889
 40
0.0001778594872889
 40
0.0001778594872889
 40
0.0001778594872889
 10
1589.532514870942
 20
1138.906754566185
 30
0.0
 10
1589.480992049152
 20
1138.906754566185
 30
0.0
 10
1589.429476256133
 20
1138.906754566185
 30
0.0
 10
1589.377966729943
 20
1138.906754566185
 30
0.0
  0
LINE
  5
B0B
330
AEA
100
AcDbEntity
  8
0
  6
Continuous
 62
     7
370
    15
100
AcDbLine
 10
1589.377966729946
 20
1140.206754566185
 30
0.0
 11
1589.377966729946
 21
1138.906754566185
 31
0.0
  0
LINE
  5
B0C
330
AEA
100
AcDbEntity
  8
0
  6
Continuous
 62
     7
370
    15
100
AcDbLine
 10
1597.377966729948
 20
1138.906754566189
 30
0.0
 11
1597.377966729948
 21
1140.206754566189
 31
0.0
  0
LINE
  5
B0D
330
AEA
100
AcDbEntity
  8
0
  6
Continuous
 62
     7
370
    15
100
AcDbLine
 10
1598.477966729949
 20
1149.80115442118
 30
0.0
 11
1588.277966729949
 21
1149.80115442118
 31
0.0
  0
LINE
  5
B0E
330
AEA
100
AcDbEntity
  8
0
  6
Continuous
 62
     7
370
    15
100
AcDbLine
 10
1598.477966729949
 20
1149.80115442118
 30
0.0
 11
1598.477966729949
 21
1148.807423282986
 31
0.0
  0
LINE
  5
B0F
330
AEA
100
AcDbEntity
  8
0
  6
Continuous
 62
     7
370
    15
100
AcDbLine
 10
1588.277966729949
 20
1148.807423282986
 30
0.0
 11
1598.477966729949
 21
1148.807423282986
 31
0.0
  0
LINE
  5
B10
330
AEA
100
AcDbEntity
  8
0
  6
Continuous
 62
     7
370
    15
100
AcDbLine
 10
1588.277966729949
 20
1149.80115442118
 30
0.0
 11
1588.277966729949
 21
1148.807423282986
 31
0.0
  0
LINE
  5
B11
330
AEA
100
AcDbEntity
  8
0
  6
Continuous
 62
     7
370
    15
100
AcDbLine
 10
1589.777966729949
 20
1148.605819594105
 30
0.0
 11
1589.777966729949
 21
1148.300170309732
 31
0.0
  0
LINE
  5
B12
330
AEA
100
AcDbEntity
  8
0
  6
Continuous
 62
     7
370
    15
100
AcDbLine
 10
1589.777966729949
 20
1148.605819594105
 30
0.0
 11
1588.277966729949
 21
1148.605819594105
 31
0.0
  0
LINE
  5
B13
330
AEA
100
AcDbEntity
  8
0
  6
Continuous
 62
     7
370
    15
100
AcDbLine
 10
1598.477966729949
 20
1148.807423282986
 30
0.0
 11
1598.477966729949
 21
1148.605819594105
 31
0.0
  0
LINE
  5
B14
330
AEA
100
AcDbEntity
  8
0
  6
Continuous
 62
     7
370
    15
100
AcDbLine
 10
1598.477966729949
 20
1148.605819594105
 30
0.0
 11
1596.977966729949
 21
1148.605819594105
 31
0.0
  0
LINE
  5
B15
330
AEA
100
AcDbEntity
  8
0
  6
Continuous
 62
     7
370
    15
100
AcDbLine
 10
1596.977966729949
 20
1148.605819594105
 30
0.0
 11
1596.977966729949
 21
1148.300170309732
 31
0.0
  0
LINE
  5
B16
330
AEA
100
AcDbEntity
  8
0
  6
Continuous
 62
     7
370
    15
100
AcDbLine
 10
1596.977966729949
 20
1148.300170309732
 30
0.0
 11
1589.777966729949
 21
1148.300170309732
 31
0.0
  0
LINE
  5
B17
330
AEA
100
AcDbEntity
  8
0
  6
Continuous
 62
     7
370
    15
100
AcDbLine
 10
1588.277966729949
 20
1148.605819594105
 30
0.0
 11
1588.277966729949
 21
1148.807423282986
 31
0.0
  0
LINE
  5
B18
330
AEA
100
AcDbEntity
  8
0
  6
Continuous
 62
     7
370
    15
100
AcDbLine
 10
1598.477966729949
 20
1129.312820570481
 30
0.0
 11
1598.477966729949
 21
1130.306551708675
 31
0.0
  0
LINE
  5
B19
330
AEA
100
AcDbEntity
  8
0
  6
Continuous
 62
     7
370
    15
100
AcDbLine
 10
1588.277966729949
 20
1129.312820570481
 30
0.0
 11
1598.477966729949
 21
1129.312820570481
 31
0.0
  0
LINE
  5
B1A
330
AEA
100
AcDbEntity
  8
0
  6
Continuous
 62
     7
370
    15
100
AcDbLine
 10
1598.477966729949
 20
1130.306551708675
 30
0.0
 11
1588.277966729949
 21
1130.306551708675
 31
0.0
  0
LINE
  5
B1B
330
AEA
100
AcDbEntity
  8
0
  6
Continuous
 62
     7
370
    15
100
AcDbLine
 10
1588.277966729949
 20
1129.312820570481
 30
0.0
 11
1588.277966729949
 21
1130.306551708675
 31
0.0
  0
LINE
  5
B1C
330
AEA
100
AcDbEntity
  8
0
  6
Continuous
 62
     7
370
    15
100
AcDbLine
 10
1596.977966729949
 20
1130.508155397556
 30
0.0
 11
1598.477966729949
 21
1130.508155397556
 31
0.0
  0
LINE
  5
B1D
330
AEA
100
AcDbEntity
  8
0
  6
Continuous
 62
     7
370
    15
100
AcDbLine
 10
1598.477966729949
 20
1130.508155397556
 30
0.0
 11
1598.477966729949
 21
1130.306551708675
 31
0.0
  0
LINE
  5
B1E
330
AEA
100
AcDbEntity
  8
0
  6
Continuous
 62
     7
370
    15
100
AcDbLine
 10
1588.277966729949
 20
1130.508155397556
 30
0.0
 11
1589.777966729949
 21
1130.508155397556
 31
0.0
  0
LINE
  5
B1F
330
AEA
100
AcDbEntity
  8
0
  6
Continuous
 62
     7
370
    15
100
AcDbLine
 10
1589.777966729949
 20
1130.508155397556
 30
0.0
 11
1589.777966729949
 21
1130.813804681929
 31
0.0
  0
LINE
  5
B20
330
AEA
100
AcDbEntity
  8
0
  6
Continuous
 62
     7
370
    15
100
AcDbLine
 10
1596.977966729949
 20
1130.813804681929
 30
0.0
 11
1589.777966729949
 21
1130.813804681929
 31
0.0
  0
LINE
  5
B21
330
AEA
100
AcDbEntity
  8
0
  6
Continuous
 62
     7
370
    15
100
AcDbLine
 10
1596.977966729949
 20
1130.813804681929
 30
0.0
 11
1596.977966729949
 21
1130.508155397556
 31
0.0
  0
LINE
  5
B22
330
AEA
100
AcDbEntity
  8
0
  6
Continuous
 62
     7
370
    15
100
AcDbLine
 10
1588.277966729949
 20
1130.306551708675
 30
0.0
 11
1588.277966729949
 21
1130.508155397556
 31
0.0
  0
LINE
  5
B23
330
AEA
100
AcDbEntity
  8
0
  6
Continuous
 62
     7
370
    15
100
AcDbLine
 10
1599.372727788902
 20
1150.659703580239
 30
0.0
 11
1599.372727788902
 21
1147.701754566185
 31
0.0
  0
ELLIPSE
  5
B24
330
AEA
100
AcDbEntity
  8
0
  6
Continuous
 62
     7
370
    15
100
AcDbEllipse
 10
1597.227966729949
 20
1150.764734710973
 30
0.0
 11
2.149999999999977
 21
0.0
 31
0.0
210
0.0
220
0.0
230
1.0
 40
0.7002075382235939
 41
6.213361142196253
 42
6.283185307179586
  0
LINE
  5
B25
330
AEA
100
AcDbEntity
  8
0
  6
Continuous
 62
     7
370
    15
100
AcDbLine
 10
1599.377966729949
 20
1128.46080401167
 30
0.0
 11
1599.377966729949
 21
1150.764734710973
 31
0.0
  0
ARC
  5
B26
330
AEA
100
AcDbEntity
  8
0
  6
Continuous
 62
     7
370
    15
100
AcDbCircle
 10
1597.227966729949
 20
1128.46080401167
 30
0.0
 40
2.150000000000001
100
AcDbArc
 50
0.0
 51
4.000629961570866
  0
LINE
  5
B27
330
AEA
100
AcDbEntity
  8
0
  6
Continuous
 62
     7
370
    15
100
AcDbLine
 10
1599.372727788902
 20
1131.411754566185
 30
0.0
 11
1599.372727788902
 21
1128.610804011669
 31
0.0
  0
LINE
  5
B28
330
AEA
100
AcDbEntity
  8
0
  6
Continuous
 62
     7
370
    15
100
AcDbLine
 10
1599.372727788902
 20
1131.411754566185
 30
0.0
 11
1597.227966729949
 21
1131.411754566185
 31
0.0
  0
LINE
  5
B29
330
AEA
100
AcDbEntity
  8
0
  6
Continuous
 62
     7
370
    15
100
AcDbLine
 10
1599.372727788902
 20
1147.701754566185
 30
0.0
 11
1597.227966729949
 21
1147.701754566185
 31
0.0
  0
LINE
  5
B2A
330
AEA
100
AcDbEntity
  8
0
  6
Continuous
 62
     7
370
    15
100
AcDbLine
 10
1589.527966729949
 20
1131.411754566185
 30
0.0
 11
1587.383205670996
 21
1131.411754566185
 31
0.0
  0
LINE
  5
B2B
330
AEA
100
AcDbEntity
  8
0
  6
Continuous
 62
     7
370
    15
100
AcDbLine
 10
1587.383205670996
 20
1128.610804011669
 30
0.0
 11
1587.383205670996
 21
1131.411754566185
 31
0.0
  0
ARC
  5
B2C
330
AEA
100
AcDbEntity
  8
0
  6
Continuous
 62
     7
370
    15
100
AcDbCircle
 10
1589.527966729949
 20
1128.46080401167
 30
0.0
 40
2.150000000000001
100
AcDbArc
 50
175.9993700384291
 51
180.0
  0
LINE
  5
B2D
330
AEA
100
AcDbEntity
  8
0
  6
Continuous
 62
     7
370
    15
100
AcDbLine
 10
1587.377966729949
 20
1150.764734710973
 30
0.0
 11
1587.377966729949
 21
1128.46080401167
 31
0.0
  0
ELLIPSE
  5
B2E
330
AEA
100
AcDbEntity
  8
0
  6
Continuous
 62
     7
370
    15
100
AcDbEllipse
 10
1589.527966729949
 20
1150.764734710973
 30
0.0
 11
2.150000000000005
 21
0.0
 31
0.0
210
0.0
220
0.0
230
1.0
 40
0.7002075382235847
 41
3.141592653589793
 42
3.211416818573164
  0
LINE
  5
B2F
330
AEA
100
AcDbEntity
  8
0
  6
Continuous
 62
     7
370
    15
100
AcDbLine
 10
1587.383205670996
 20
1147.701754566185
 30
0.0
 11
1587.383205670996
 21
1150.659703580239
 31
0.0
  0
LINE
  5
B30
330
AEA
100
AcDbEntity
  8
0
  6
Continuous
 62
     7
370
    15
100
AcDbLine
 10
1587.383205670996
 20
1147.701754566185
 30
0.0
 11
1589.527966729949
 21
1147.701754566185
 31
0.0
  0
LINE
  5
B31
330
AEA
100
AcDbEntity
  8
0
  6
Continuous
 62
     7
370
    15
100
AcDbLine
 10
1597.227966729949
 20
1131.411754566185
 30
0.0
 11
1589.527966729949
 21
1131.411754566185
 31
0.0
  0
LINE
  5
B32
330
AEA
100
AcDbEntity
  8
0
  6
Continuous
 62
     7
370
    15
100
AcDbLine
 10
1589.527966729949
 20
1147.701754566185
 30
0.0
 11
1597.227966729949
 21
1147.701754566185
 31
0.0
  0
LINE
  5
B33
330
AEA
100
AcDbEntity
  8
0
  6
Continuous
 62
     7
370
    15
100
AcDbLine
 10
1587.377966729949
 20
1150.906224788159
 30
0.0
 11
1587.377966729949
 21
1150.764734710973
 31
0.0
  0
LINE
  5
B34
330
AEA
100
AcDbEntity
  8
0
  6
Continuous
 62
     7
370
    15
100
AcDbLine
 10
1589.377966729949
 20
1150.906224788159
 30
0.0
 11
1587.377966729949
 21
1150.906224788159
 31
0.0
  0
LINE
  5
B35
330
AEA
100
AcDbEntity
  8
0
  6
Continuous
 62
     7
370
    15
100
AcDbLine
 10
1589.377966729949
 20
1150.906224788159
 30
0.0
 11
1589.377966729949
 21
1150.659703580239
 31
0.0
  0
LINE
  5
B36
330
AEA
100
AcDbEntity
  8
0
  6
Continuous
 62
     7
370
    15
100
AcDbLine
 10
1587.383205670996
 20
1150.659703580239
 30
0.0
 11
1589.377966729949
 21
1150.659703580239
 31
0.0
  0
LINE
  5
B37
330
AEA
100
AcDbEntity
  8
0
  6
Continuous
 62
     7
370
    15
100
AcDbLine
 10
1589.377966729949
 20
1147.701754566185
 30
0.0
 11
1589.377966729949
 21
1148.605819594105
 31
0.0
  0
LINE
  5
B38
330
AEA
100
AcDbEntity
  8
0
  6
Continuous
 62
     7
370
    15
100
AcDbLine
 10
1589.377966729949
 20
1149.80115442118
 30
0.0
 11
1589.377966729949
 21
1150.659703580239
 31
0.0
  0
LINE
  5
B39
330
AEA
100
AcDbEntity
  8
0
  6
Continuous
 62
     7
370
    15
100
AcDbLine
 10
1597.377966729949
 20
1150.659703580239
 30
0.0
 11
1597.377966729949
 21
1149.80115442118
 31
0.0
  0
LINE
  5
B3A
330
AEA
100
AcDbEntity
  8
0
  6
Continuous
 62
     7
370
    15
100
AcDbLine
 10
1597.377966729949
 20
1148.605819594105
 30
0.0
 11
1597.377966729949
 21
1147.701754566185
 31
0.0
  0
LINE
  5
B3B
330
AEA
100
AcDbEntity
  8
0
  6
Continuous
 62
     7
370
    15
100
AcDbLine
 10
1597.377966729949
 20
1150.659703580239
 30
0.0
 11
1599.372727788902
 21
1150.659703580239
 31
0.0
  0
LINE
  5
B3C
330
AEA
100
AcDbEntity
  8
0
  6
Continuous
 62
     7
370
    15
100
AcDbLine
 10
1597.377966729949
 20
1150.659703580239
 30
0.0
 11
1597.377966729949
 21
1150.906224788159
 31
0.0
  0
LINE
  5
B3D
330
AEA
100
AcDbEntity
  8
0
  6
Continuous
 62
     7
370
    15
100
AcDbLine
 10
1599.377966729949
 20
1150.906224788159
 30
0.0
 11
1597.377966729949
 21
1150.906224788159
 31
0.0
  0
LINE
  5
B3E
330
AEA
100
AcDbEntity
  8
0
  6
Continuous
 62
     7
370
    15
100
AcDbLine
 10
1599.377966729949
 20
1150.764734710973
 30
0.0
 11
1599.377966729949
 21
1150.906224788159
 31
0.0
  0
LINE
  5
B3F
330
AEA
100
AcDbEntity
  8
0
  6
Continuous
 62
     7
370
    15
100
AcDbLine
 10
1589.377966729949
 20
1128.610804011669
 30
0.0
 11
1587.383205670996
 21
1128.610804011669
 31
0.0
  0
LINE
  5
B40
330
AEA
100
AcDbEntity
  8
0
  6
Continuous
 62
     7
370
    15
100
AcDbLine
 10
1589.377966729949
 20
1128.610804011669
 30
0.0
 11
1589.377966729949
 21
1129.312820570481
 31
0.0
  0
LINE
  5
B41
330
AEA
100
AcDbEntity
  8
0
  6
Continuous
 62
     7
370
    15
100
AcDbLine
 10
1589.377966729949
 20
1130.508155397556
 30
0.0
 11
1589.377966729949
 21
1131.411754566185
 31
0.0
  0
LINE
  5
B42
330
AEA
100
AcDbEntity
  8
0
  6
Continuous
 62
     7
370
    15
100
AcDbLine
 10
1599.372727788902
 20
1128.610804011669
 30
0.0
 11
1597.377966729949
 21
1128.610804011669
 31
0.0
  0
LINE
  5
B43
330
AEA
100
AcDbEntity
  8
0
  6
Continuous
 62
     7
370
    15
100
AcDbLine
 10
1597.377966729949
 20
1131.411754566185
 30
0.0
 11
1597.377966729949
 21
1130.508155397556
 31
0.0
  0
LINE
  5
B44
330
AEA
100
AcDbEntity
  8
0
  6
Continuous
 62
     7
370
    15
100
AcDbLine
 10
1597.377966729949
 20
1129.312820570481
 30
0.0
 11
1597.377966729949
 21
1128.610804011669
 31
0.0
  0
LINE
  5
B45
330
AEA
100
AcDbEntity
  8
0
  6
Continuous
 62
     7
370
    15
100
AcDbLine
 10
1587.377966729949
 20
1128.201754566185
 30
0.0
 11
1589.377966729949
 21
1128.201754566185
 31
0.0
  0
LINE
  5
B46
330
AEA
100
AcDbEntity
  8
0
  6
Continuous
 62
     7
370
    15
100
AcDbLine
 10
1587.377966729949
 20
1128.46080401167
 30
0.0
 11
1587.377966729949
 21
1128.201754566185
 31
0.0
  0
LINE
  5
B47
330
AEA
100
AcDbEntity
  8
0
  6
Continuous
 62
     7
370
    15
100
AcDbLine
 10
1589.377966729949
 20
1128.610804011669
 30
0.0
 11
1589.377966729949
 21
1128.201754566185
 31
0.0
  0
LINE
  5
B48
330
AEA
100
AcDbEntity
  8
0
  6
Continuous
 62
     7
370
    15
100
AcDbLine
 10
1599.377966729949
 20
1128.201754566185
 30
0.0
 11
1599.377966729949
 21
1128.46080401167
 31
0.0
  0
LINE
  5
B49
330
AEA
100
AcDbEntity
  8
0
  6
Continuous
 62
     7
370
    15
100
AcDbLine
 10
1597.377966729949
 20
1128.201754566185
 30
0.0
 11
1599.377966729949
 21
1128.201754566185
 31
0.0
  0
LINE
  5
B4A
330
AEA
100
AcDbEntity
  8
0
  6
Continuous
 62
     7
370
    15
100
AcDbLine
 10
1597.377966729949
 20
1128.201754566185
 30
0.0
 11
1597.377966729949
 21
1128.610804011669
 31
0.0
  0
LINE
  5
B4B
330
AEA
100
AcDbEntity
  8
0
  6
Continuous
 62
     7
370
    15
100
AcDbLine
 10
1589.777966729949
 20
1130.955901048736
 30
0.0
 11
1596.977966729949
 21
1130.945352360029
 31
0.0
  0
LINE
  5
B4C
330
AEA
100
AcDbEntity
  8
0
  6
Continuous
 62
     7
370
    15
100
AcDbLine
 10
1589.777966729949
 20
1130.823936472422
 30
0.0
 11
1596.977966729949
 21
1130.823936472422
 31
0.0
  0
LINE
  5
B4D
330
AEA
100
AcDbEntity
  8
0
  6
Continuous
 62
     7
370
    15
100
AcDbLine
 10
1589.777966729949
 20
1130.823936472422
 30
0.0
 11
1589.777966729949
 21
1130.955901048736
 31
0.0
  0
LINE
  5
B4E
330
AEA
100
AcDbEntity
  8
0
  6
Continuous
 62
     7
370
    15
100
AcDbLine
 10
1596.977966729949
 20
1130.945352360029
 30
0.0
 11
1596.977966729949
 21
1130.823936472422
 31
0.0
  0
LINE
  5
B4F
330
AEA
100
AcDbEntity
  8
0
  6
Continuous
 62
     7
370
    15
100
AcDbLine
 10
1596.977966729949
 20
1148.168622631632
 30
0.0
 11
1589.777966729949
 21
1148.158073942925
 31
0.0
  0
LINE
  5
B50
330
AEA
100
AcDbEntity
  8
0
  6
Continuous
 62
     7
370
    15
100
AcDbLine
 10
1596.977966729949
 20
1148.290038519239
 30
0.0
 11
1589.777966729949
 21
1148.290038519239
 31
0.0
  0
LINE
  5
B51
330
AEA
100
AcDbEntity
  8
0
  6
Continuous
 62
     7
370
    15
100
AcDbLine
 10
1589.777966729949
 20
1148.290038519239
 30
0.0
 11
1589.777966729949
 21
1148.158073942925
 31
0.0
  0
LINE
  5
B52
330
AEA
100
AcDbEntity
  8
0
  6
Continuous
 62
     7
370
    15
100
AcDbLine
 10
1596.977966729949
 20
1148.290038519239
 30
0.0
 11
1596.977966729949
 21
1148.168622631632
 31
0.0
  0
LINE
  5
B53
330
AEA
100
AcDbEntity
  8
0
  6
Continuous
 62
     7
370
    15
100
AcDbLine
 10
1589.777966729949
 20
1148.290038519239
 30
0.0
 11
1589.777966729949
 21
1148.300170309732
 31
0.0
  0
LINE
  5
B54
330
AEA
100
AcDbEntity
  8
0
  6
Continuous
 62
     7
370
    15
100
AcDbLine
 10
1596.977966729949
 20
1148.290038519239
 30
0.0
 11
1596.977966729949
 21
1148.300170309732
 31
0.0
  0
LINE
  5
B55
330
AEA
100
AcDbEntity
  8
0
  6
Continuous
 62
     7
370
    15
100
AcDbLine
 10
1589.777966729949
 20
1130.813804681929
 30
0.0
 11
1589.777966729949
 21
1130.823936472422
 31
0.0
  0
LINE
  5
B56
330
AEA
100
AcDbEntity
  8
0
  6
Continuous
 62
     7
370
    15
100
AcDbLine
 10
1596.977966729949
 20
1130.813804681929
 30
0.0
 11
1596.977966729949
 21
1130.823936472422
 31
0.0
  0
LINE
  5
B57
330
AEA
100
AcDbEntity
  8
0
  6
Continuous
 62
     7
370
    15
100
AcDbLine
 10
1589.777966729949
 20
1148.158073942925
 30
0.0
 11
1589.777966729949
 21
1147.701754566185
 31
0.0
  0
LINE
  5
B58
330
AEA
100
AcDbEntity
  8
0
  6
Continuous
 62
     7
370
    15
100
AcDbLine
 10
1589.777966729949
 20
1131.411754566185
 30
0.0
 11
1589.777966729949
 21
1130.955901048736
 31
0.0
  0
LINE
  5
B59
330
AEA
100
AcDbEntity
  8
0
  6
Continuous
 62
     7
370
    15
100
AcDbLine
 10
1596.977966729949
 20
1130.945352360029
 30
0.0
 11
1596.977966729949
 21
1131.411754566185
 31
0.0
  0
LINE
  5
B5A
330
AEA
100
AcDbEntity
  8
0
  6
Continuous
 62
     7
370
    15
100
AcDbLine
 10
1596.977966729949
 20
1147.701754566185
 30
0.0
 11
1596.977966729949
 21
1148.168622631632
 31
0.0
  0
LINE
  5
B5B
330
AEA
100
AcDbEntity
  8
0
  6
Continuous
 62
     7
370
    15
100
AcDbLine
 10
1596.989393887241
 20
1148.14225456618
 30
0.0
 11
1596.977966729949
 21
1148.14225456618
 31
0.0
  0
LINE
  5
B5C
330
AEA
100
AcDbEntity
  8
0
  6
Continuous
 62
     7
370
    15
100
AcDbLine
 10
1589.777966729949
 20
1148.14225456618
 30
0.0
 11
1589.766572026555
 21
1148.14225456618
 31
0.0
  0
SPLINE
  5
B5D
330
AEA
100
AcDbEntity
  8
0
  6
Continuous
 62
     7
370
    15
100
AcDbSpline
210
0.0
220
0.0
230
1.0
 70
     8
 71
     3
 72
     9
 73
     5
 74
     0
 42
0.0000000001
 43
0.0000000001
 40
0.0
 40
0.0
 40
0.0
 40
0.0
 40
0.9533312145574246
 40
1.0
 40
1.0
 40
1.0
 40
1.0
 10
1589.766572026555
 20
1148.14225456618
 30
0.0
 10
1589.767019020821
 20
1148.141239404272
 30
0.0
 10
1589.767487896967
 20
1148.140174546757
 30
0.0
 10
1589.777499500569
 20
1148.114619611436
 30
0.0
 10
1589.777966729949
 20
1148.113426993642
 30
0.0
  0
LINE
  5
B5E
330
AEA
100
AcDbEntity
  8
0
  6
Continuous
 62
     7
370
    15
100
AcDbLine
 10
1596.977966729949
 20
1148.113334896057
 30
0.0
 11
1596.989393887241
 21
1148.14225456618
 31
0.0
  0
LINE
  5
B5F
330
AEA
100
AcDbEntity
  8
0
  6
Continuous
 62
     7
370
    15
100
AcDbLine
 10
1596.977966729949
 20
1147.842254566179
 30
0.0
 11
1597.377966729949
 21
1147.842254566179
 31
0.0
  0
LINE
  5
B60
330
AEA
100
AcDbEntity
  8
0
  6
Continuous
 62
     7
370
    15
100
AcDbLine
 10
1597.377966729949
 20
1148.14225456618
 30
0.0
 11
1596.989393887241
 21
1148.14225456618
 31
0.0
  0
LINE
  5
B61
330
AEA
100
AcDbEntity
  8
0
  6
Continuous
 62
     7
370
    15
100
AcDbLine
 10
1589.377966729949
 20
1147.842254566179
 30
0.0
 11
1589.777966729949
 21
1147.842254566179
 31
0.0
  0
LINE
  5
B62
330
AEA
100
AcDbEntity
  8
0
  6
Continuous
 62
     7
370
    15
100
AcDbLine
 10
1589.766572026555
 20
1148.14225456618
 30
0.0
 11
1589.377966729949
 21
1148.14225456618
 31
0.0
  0
LINE
  5
B63
330
AEA
100
AcDbEntity
  8
0
  6
Continuous
 62
     7
370
    15
100
AcDbLine
 10
1597.027966729949
 20
1147.842254566179
 30
0.0
 11
1597.027966729949
 21
1147.701754566185
 31
0.0
  0
LINE
  5
B64
330
AEA
100
AcDbEntity
  8
0
  6
Continuous
 62
     7
370
    15
100
AcDbLine
 10
1589.727966729949
 20
1147.701754566185
 30
0.0
 11
1589.727966729949
 21
1147.842254566179
 31
0.0
  0
LINE
  5
B65
330
AEA
100
AcDbEntity
  8
0
  6
Continuous
 62
     8
370
    15
100
AcDbLine
 10
1597.227966729949
 20
1147.701754566185
 30
0.0
 11
1597.227966729949
 21
1141.886454117588
 31
0.0
  0
LINE
  5
B66
330
AEA
100
AcDbEntity
  8
0
  6
Continuous
 62
     8
370
    15
100
AcDbLine
 10
1597.227966729949
 20
1137.227055014782
 30
0.0
 11
1597.227966729949
 21
1131.411754566185
 31
0.0
  0
LINE
  5
B67
330
AEA
100
AcDbEntity
  8
0
  6
Continuous
 62
     8
370
    15
100
AcDbLine
 10
1589.527966729949
 20
1131.411754566185
 30
0.0
 11
1589.527966729949
 21
1137.227055014739
 31
0.0
  0
LINE
  5
B68
330
AEA
100
AcDbEntity
  8
0
  6
Continuous
 62
     8
370
    15
100
AcDbLine
 10
1589.527966729949
 20
1141.886454117631
 30
0.0
 11
1589.527966729949
 21
1147.701754566185
 31
0.0
  0
ENDBLK
  5
AEC
330
AEA
100
AcDbEntity
  8
0
100
AcDbBlockEnd
  0
BLOCK
  5
B6B
330
B6A
100
AcDbEntity
  8
0
100
AcDbBlockBegin
  2
4
 70
     0
 10
0.0
 20
0.0
 30
0.0
  3
4
  1

  0
LINE
  5
EA0
330
B6A
100
AcDbEntity
  8
0
  6
Continuous
 62
     7
370
    15
100
AcDbLine
 10
1639.480842273201
 20
1184.383298673227
 30
0.0
 11
1634.009082225703
 21
1187.542078512128
 31
0.0
1001
AcDbBlockRepETag
1070
     1
1071
        0
1005
EA0
  0
LINE
  5
EA1
330
B6A
100
AcDbEntity
  8
0
  6
Continuous
 62
     7
370
    15
100
AcDbLine
 10
1633.370194489262
 20
1170.519700620149
 30
0.0
 11
1638.461363555623
 21
1173.45876996231
 31
0.0
1001
AcDbBlockRepETag
1070
     1
1071
        1
1005
EA1
  0
LINE
  5
EA2
330
B6A
100
AcDbEntity
  8
0
  6
Continuous
 62
     7
370
    15
100
AcDbLine
 10
1633.871849987841
 20
1157.212243501954
 30
0.0
 11
1638.472416072736
 21
1159.868093771401
 31
0.0
1001
AcDbBlockRepETag
1070
     1
1071
        2
1005
EA2
  0
LINE
  5
EA3
330
B6A
100
AcDbEntity
  8
0
  6
Continuous
 62
     7
370
    15
100
AcDbLine
 10
1625.075622920967
 20
1170.764310876444
 30
0.0
 11
1625.075622920967
 21
1170.519348288541
 31
0.0
1001
AcDbBlockRepETag
1070
     1
1071
        3
1005
EA3
  0
LINE
  5
EA4
330
B6A
100
AcDbEntity
  8
0
  6
Continuous
 62
     7
370
    15
100
AcDbLine
 10
1633.536218169536
 20
1177.417657123604
 30
0.0
 11
1631.444632079889
 21
1178.625104071926
 31
0.0
1001
AcDbBlockRepETag
1070
     1
1071
        4
1005
EA4
  0
ELLIPSE
  5
EA5
330
B6A
100
AcDbEntity
  8
0
  6
Continuous
 62
     7
370
    15
100
AcDbEllipse
 10
1635.127061802567
 20
1178.127802011305
 30
0.0
 11
-0.8694786851597768
 21
2.460028750270481
 31
0.0
210
0.0
220
0.0
230
1.0
 40
0.6665152165797938
 41
1.624256970362022
 42
1.694081135345375
1001
AcDbBlockRepETag
1070
     1
1071
        5
1005
EA5
  0
LINE
  5
EA6
330
B6A
100
AcDbEntity
  8
0
  6
Continuous
 62
     7
370
    15
100
AcDbLine
 10
1617.835521544568
 20
1186.354717773609
 30
0.0
 11
1633.606781872111
 21
1177.250162982416
 31
0.0
1001
AcDbBlockRepETag
1070
     1
1071
        6
1005
EA6
  0
ELLIPSE
  5
EA7
330
B6A
100
AcDbEntity
  8
0
  6
Continuous
 62
     7
370
    15
100
AcDbEllipse
 10
1619.355801157976
 20
1187.232356985526
 30
0.0
 11
2.149999992772563
 21
1.241370326204133
 31
0.0
210
0.0
220
0.0
230
1.0
 40
0.000070372929743
 41
2.286329694412263
 42
2.356153859419331
1001
AcDbBlockRepETag
1070
     1
1071
        7
1005
EA7
  0
LINE
  5
EA8
330
B6A
100
AcDbEntity
  8
0
  6
Continuous
 62
     7
370
    15
100
AcDbLine
 10
1619.925862985095
 20
1185.274747928701
 30
0.0
 11
1617.945291859062
 21
1186.418107302672
 31
0.0
1001
AcDbBlockRepETag
1070
     1
1071
        8
1005
EA8
  0
ARC
  5
EA9
330
B6A
100
AcDbEntity
  8
0
  6
Continuous
 62
     7
370
    15
100
AcDbCircle
 10
1623.247262862461
 20
1184.97949731379
 30
0.0
 40
3.334496974204471
100
AcDbArc
 50
122.7693460044373
 51
174.9201342087491
1001
AcDbBlockRepETag
1070
     1
1071
        9
1005
EA9
  0
LINE
  5
EAA
330
B6A
100
AcDbEntity
  8
0
  6
Continuous
 62
     7
370
    15
100
AcDbLine
 10
1632.961207398212
 20
1181.1336862591
 30
0.0
 11
1621.442438303418
 21
1187.783330115876
 31
0.0
1001
AcDbBlockRepETag
1070
     1
1071
       10
1005
EAA
  0
ARC
  5
EAB
330
B6A
100
AcDbEntity
  8
0
  6
Continuous
 62
     7
370
    15
100
AcDbCircle
 10
1634.766031957256
 20
1178.329853457015
 30
0.0
 40
3.334496974204167
100
AcDbArc
 50
122.7693460044373
 51
174.9201342087503
1001
AcDbBlockRepETag
1070
     1
1071
       11
1005
EAB
  0
LINE
  5
EAC
330
B6A
100
AcDbEntity
  8
0
  6
Continuous
 62
     7
370
    15
100
AcDbLine
 10
1640.774313372409
 20
1183.971458463168
 30
0.0
 11
1640.071639796946
 21
1184.459315406132
 31
0.0
1001
AcDbBlockRepETag
1070
     1
1071
       12
1005
EAC
  0
LINE
  5
EAD
330
B6A
100
AcDbEntity
  8
0
  6
Continuous
 62
     7
370
    15
100
AcDbLine
 10
1633.56182435564
 20
1179.807777180235
 30
0.0
 11
1640.774313372409
 21
1183.971458463168
 31
0.0
1001
AcDbBlockRepETag
1070
     1
1071
       13
1005
EAD
  0
LINE
  5
EAE
330
B6A
100
AcDbEntity
  8
0
  6
Continuous
 62
     7
370
    15
100
AcDbLine
 10
1633.56182435564
 20
1179.807777180235
 30
0.0
 11
1632.859150780177
 21
1180.2956341232
 31
0.0
1001
AcDbBlockRepETag
1070
     1
1071
       14
1005
EAE
  0
LINE
  5
EAF
330
B6A
100
AcDbEntity
  8
0
  6
Continuous
 62
     7
370
    15
100
AcDbLine
 10
1640.071639796946
 20
1184.459315406132
 30
0.0
 11
1632.859150780177
 21
1180.2956341232
 31
0.0
1001
AcDbBlockRepETag
1070
     1
1071
       15
1005
EAF
  0
LINE
  5
EB0
330
B6A
100
AcDbEntity
  8
0
  6
Continuous
 62
     7
370
    15
100
AcDbLine
 10
1633.419269225997
 20
1178.265308556523
 30
0.0
 11
1633.56182435564
 21
1179.807777180235
 31
0.0
1001
AcDbBlockRepETag
1070
     1
1071
       16
1005
EB0
  0
LINE
  5
EB1
330
B6A
100
AcDbEntity
  8
0
  6
Continuous
 62
     7
370
    15
100
AcDbLine
 10
1633.419269225997
 20
1178.265308556523
 30
0.0
 11
1632.716594333445
 21
1178.753166259826
 31
0.0
1001
AcDbBlockRepETag
1070
     1
1071
       17
1005
EB1
  0
LINE
  5
EB2
330
B6A
100
AcDbEntity
  8
0
  6
Continuous
 62
     7
370
    15
100
AcDbLine
 10
1632.859150780177
 20
1180.2956341232
 30
0.0
 11
1632.716594333445
 21
1178.753166259826
 31
0.0
1001
AcDbBlockRepETag
1070
     1
1071
       18
1005
EB2
  0
LINE
  5
EB3
330
B6A
100
AcDbEntity
  8
0
  6
Continuous
 62
     7
370
    15
100
AcDbLine
 10
1634.479928913088
 20
1178.877614360585
 30
0.0
 11
1633.419269225997
 21
1178.265308556523
 31
0.0
1001
AcDbBlockRepETag
1070
     1
1071
       19
1005
EB3
  0
LINE
  5
EB4
330
B6A
100
AcDbEntity
  8
0
  6
Continuous
 62
     7
370
    15
100
AcDbLine
 10
1640.774313372409
 20
1183.971458463168
 30
0.0
 11
1640.631758242766
 21
1182.428989839455
 31
0.0
1001
AcDbBlockRepETag
1070
     1
1071
       20
1005
EB4
  0
LINE
  5
EB5
330
B6A
100
AcDbEntity
  8
0
  6
Continuous
 62
     7
370
    15
100
AcDbLine
 10
1640.631758242766
 20
1182.428989839455
 30
0.0
 11
1639.571097979448
 21
1181.816683702745
 31
0.0
1001
AcDbBlockRepETag
1070
     1
1071
       21
1005
EB5
  0
LINE
  5
EB6
330
B6A
100
AcDbEntity
  8
0
  6
Continuous
 62
     7
370
    15
100
AcDbLine
 10
1638.868456014122
 20
1174.214000283968
 30
0.0
 11
1639.571097979448
 21
1181.816683702745
 31
0.0
1001
AcDbBlockRepETag
1070
     1
1071
       22
1005
EB6
  0
LINE
  5
EB7
330
B6A
100
AcDbEntity
  8
0
  6
Continuous
 62
     7
370
    15
100
AcDbLine
 10
1634.44692002817
 20
1178.520458345479
 30
0.0
 11
1634.479928913088
 21
1178.877614360585
 31
0.0
1001
AcDbBlockRepETag
1070
     1
1071
       23
1005
EB7
  0
LINE
  5
EB8
330
B6A
100
AcDbEntity
  8
0
  6
Continuous
 62
     7
370
    15
100
AcDbLine
 10
1634.946727650859
 20
1178.231926914952
 30
0.0
 11
1633.536218169536
 21
1177.417657123604
 31
0.0
1001
AcDbBlockRepETag
1070
     1
1071
       24
1005
EB8
  0
LINE
  5
EB9
330
B6A
100
AcDbEntity
  8
0
  6
Continuous
 62
     7
370
    15
100
AcDbLine
 10
1634.946727650859
 20
1178.231926914952
 30
0.0
 11
1635.121044382122
 21
1177.843816700295
 31
0.0
1001
AcDbBlockRepETag
1070
     1
1071
       25
1005
EB9
  0
LINE
  5
EBA
330
B6A
100
AcDbEntity
  8
0
  6
Continuous
 62
     7
370
    15
100
AcDbLine
 10
1633.706830587941
 20
1177.027408454653
 30
0.0
 11
1635.121044382122
 21
1177.843816700295
 31
0.0
1001
AcDbBlockRepETag
1070
     1
1071
       26
1005
EBA
  0
LINE
  5
EBB
330
B6A
100
AcDbEntity
  8
0
  6
Continuous
 62
     7
370
    15
100
AcDbLine
 10
1633.606781872111
 20
1177.250162982416
 30
0.0
 11
1633.706830587941
 21
1177.027408454653
 31
0.0
1001
AcDbBlockRepETag
1070
     1
1071
       27
1005
EBB
  0
LINE
  5
EBC
330
B6A
100
AcDbEntity
  8
0
  6
Continuous
 62
     7
370
    15
100
AcDbLine
 10
1632.398818949474
 20
1170.476398296706
 30
0.0
 11
1624.015599717142
 21
1174.893262472319
 31
0.0
1001
AcDbBlockRepETag
1070
     1
1071
       28
1005
EBC
  0
LINE
  5
EBD
330
B6A
100
AcDbEntity
  8
0
  6
Continuous
 62
     7
370
    15
100
AcDbLine
 10
1624.015599717142
 20
1174.893262472319
 30
0.0
 11
1623.735733447773
 21
1175.378005829231
 31
0.0
1001
AcDbBlockRepETag
1070
     1
1071
       29
1005
EBD
  0
ARC
  5
EBE
330
B6A
100
AcDbEntity
  8
0
  6
Continuous
 62
     7
370
    15
100
AcDbCircle
 10
1623.284027906661
 20
1175.129105222531
 30
0.0
 40
0.5157416096145933
100
AcDbArc
 50
28.85582031229057
 51
58.04530499104629
1001
AcDbBlockRepETag
1070
     1
1071
       30
1005
EBE
  0
LINE
  5
EBF
330
B6A
100
AcDbEntity
  8
0
  6
Continuous
 62
     7
370
    15
100
AcDbLine
 10
1623.556983394882
 20
1175.566694881158
 30
0.0
 11
1622.90332100661
 21
1175.944046145761
 31
0.0
1001
AcDbBlockRepETag
1070
     1
1071
       31
1005
EBF
  0
ARC
  5
EC0
330
B6A
100
AcDbEntity
  8
0
  6
Continuous
 62
     7
370
    15
100
AcDbCircle
 10
1622.804639185783
 20
1175.82306503542
 30
0.0
 40
0.1561234473769922
100
AcDbArc
 50
50.79657730934814
 51
189.2139159314153
1001
AcDbBlockRepETag
1070
     1
1071
       32
1005
EC0
  0
LINE
  5
EC1
330
B6A
100
AcDbEntity
  8
0
  6
Continuous
 62
     7
370
    15
100
AcDbLine
 10
1622.650530136142
 20
1166.58266263739
 30
0.0
 11
1622.650530136142
 21
1175.798066402665
 31
0.0
1001
AcDbBlockRepETag
1070
     1
1071
       33
1005
EC1
  0
LINE
  5
EC2
330
B6A
100
AcDbEntity
  8
0
  6
Continuous
 62
     7
370
    15
100
AcDbLine
 10
1622.650530136142
 20
1166.58266263739
 30
0.0
 11
1622.711840959108
 21
1166.476469177271
 31
0.0
1001
AcDbBlockRepETag
1070
     1
1071
       34
1005
EC2
  0
LWPOLYLINE
  5
EC3
330
B6A
100
AcDbEntity
  8
0
  6
Continuous
 62
     7
370
    15
100
AcDbPolyline
 90
        9
 70
   128
 43
0.0
 10
1622.854840935566
 20
1166.393917048033
 10
1622.839518251226
 20
1166.38824122628
 10
1622.822036528717
 20
1166.387543001907
 10
1622.803067812709
 20
1166.39184886406
 10
1622.783341111973
 20
1166.400993100235
 10
1622.763614081964
 20
1166.414625018016
 10
1622.744645365956
 20
1166.432219969193
 10
1622.727163972719
 20
1166.453101970662
 10
1622.711840959108
 20
1166.476469177271
1001
AcDbBlockRepETag
1070
     1
1071
       35
1005
EC3
  0
LINE
  5
EC4
330
B6A
100
AcDbEntity
  8
0
  6
Continuous
 62
     7
370
    15
100
AcDbLine
 10
1623.04877109791
 20
1166.5059069419
 30
0.0
 11
1622.854840935566
 21
1166.393917048033
 31
0.0
1001
AcDbBlockRepETag
1070
     1
1071
       36
1005
EC4
  0
LWPOLYLINE
  5
EC5
330
B6A
100
AcDbEntity
  8
0
  6
Continuous
 62
     7
370
    15
100
AcDbPolyline
 90
        9
 70
   128
 43
0.0
 10
1623.04877109791
 20
1166.5059069419
 10
1623.067924864925
 20
1166.513001196312
 10
1623.089776688789
 20
1166.513874356979
 10
1623.113487583799
 20
1166.508492124345
 10
1623.138146124355
 20
1166.497061258795
 10
1623.162804664912
 20
1166.480021979422
 10
1623.186515559922
 20
1166.458028195392
 10
1623.208367713058
 20
1166.431925265834
 10
1623.2275211508
 20
1166.402716732831
1001
AcDbBlockRepETag
1070
     1
1071
       37
1005
EC5
  0
LINE
  5
EC6
330
B6A
100
AcDbEntity
  8
0
  6
Continuous
 62
     7
370
    15
100
AcDbLine
 10
1623.421451313145
 20
1166.066819839517
 30
0.0
 11
1623.2275211508
 21
1166.402716732831
 31
0.0
1001
AcDbBlockRepETag
1070
     1
1071
       38
1005
EC6
  0
LWPOLYLINE
  5
EC7
330
B6A
100
AcDbEntity
  8
0
  6
Continuous
 62
     7
370
    15
100
AcDbPolyline
 90
        9
 70
   128
 43
0.0
 10
1623.564451289603
 20
1165.984267710279
 10
1623.549128605264
 20
1165.978591888525
 10
1623.531646882755
 20
1165.977893664153
 10
1623.512678166747
 20
1165.982199526306
 10
1623.49295146601
 20
1165.991343762481
 10
1623.473224765273
 20
1166.004975490177
 10
1623.454256049266
 20
1166.022570441354
 10
1623.436774326757
 20
1166.043452632907
 10
1623.421451313145
 20
1166.066819839517
1001
AcDbBlockRepETag
1070
     1
1071
       39
1005
EC7
  0
LINE
  5
EC8
330
B6A
100
AcDbEntity
  8
0
  6
Continuous
 62
     7
370
    15
100
AcDbLine
 10
1623.75838178122
 20
1166.096257414061
 30
0.0
 11
1623.564451289603
 21
1165.984267710279
 31
0.0
1001
AcDbBlockRepETag
1070
     1
1071
       40
1005
EC8
  0
LWPOLYLINE
  5
EC9
330
B6A
100
AcDbEntity
  8
0
  6
Continuous
 62
     7
370
    15
100
AcDbPolyline
 90
        9
 70
   128
 43
0.0
 10
1623.75838178122
 20
1166.096257414061
 10
1623.777535218962
 20
1166.103351858558
 10
1623.799387372098
 20
1166.10422482914
 10
1623.823098267108
 20
1166.098842596505
 10
1623.847756807665
 20
1166.087411730955
 10
1623.87241501895
 20
1166.070372641667
 10
1623.89612591396
 20
1166.048378857638
 10
1623.917978067096
 20
1166.02227592808
 10
1623.937131504838
 20
1165.993067395077
1001
AcDbBlockRepETag
1070
     1
1071
       41
1005
EC9
  0
LINE
  5
ECA
330
B6A
100
AcDbEntity
  8
0
  6
Continuous
 62
     7
370
    15
100
AcDbLine
 10
1624.131061996455
 20
1165.657170311678
 30
0.0
 11
1623.937131504838
 21
1165.993067395077
 31
0.0
1001
AcDbBlockRepETag
1070
     1
1071
       42
1005
ECA
  0
LWPOLYLINE
  5
ECB
330
B6A
100
AcDbEntity
  8
0
  6
Continuous
 62
     7
370
    15
100
AcDbPolyline
 90
        9
 70
   128
 43
0.0
 10
1624.274061972913
 20
1165.57461818244
 10
1624.258738959301
 20
1165.568942550771
 10
1624.241257236792
 20
1165.568244326398
 10
1624.222288520784
 20
1165.572550188552
 10
1624.202561820048
 20
1165.581694424726
 10
1624.182835119311
 20
1165.595326152422
 10
1624.163866403303
 20
1165.612921103599
 10
1624.146384680794
 20
1165.633803295153
 10
1624.131061996455
 20
1165.657170311678
1001
AcDbBlockRepETag
1070
     1
1071
       43
1005
ECB
  0
LINE
  5
ECC
330
B6A
100
AcDbEntity
  8
0
  6
Continuous
 62
     7
370
    15
100
AcDbLine
 10
1624.467992135257
 20
1165.686608076306
 30
0.0
 11
1624.274061972913
 21
1165.57461818244
 31
0.0
1001
AcDbBlockRepETag
1070
     1
1071
       44
1005
ECC
  0
LWPOLYLINE
  5
ECD
330
B6A
100
AcDbEntity
  8
0
  6
Continuous
 62
     7
370
    15
100
AcDbPolyline
 90
        9
 70
   128
 43
0.0
 10
1624.467992135257
 20
1165.686608076306
 10
1624.487145573
 20
1165.693702520803
 10
1624.508997726136
 20
1165.694575491385
 10
1624.532708621146
 20
1165.689193258751
 10
1624.557367161703
 20
1165.677762393201
 10
1624.58202570226
 20
1165.660723113828
 10
1624.605736597269
 20
1165.638729329798
 10
1624.627588421133
 20
1165.612626590325
 10
1624.646742188148
 20
1165.583417867237
1001
AcDbBlockRepETag
1070
     1
1071
       45
1005
ECD
  0
LINE
  5
ECE
330
B6A
100
AcDbEntity
  8
0
  6
Continuous
 62
     7
370
    15
100
AcDbLine
 10
1624.840672350492
 20
1165.247520973923
 30
0.0
 11
1624.646742188148
 21
1165.583417867237
 31
0.0
1001
AcDbBlockRepETag
1070
     1
1071
       46
1005
ECE
  0
ARC
  5
ECF
330
B6A
100
AcDbEntity
  8
0
  6
Continuous
 62
     7
370
    15
100
AcDbCircle
 10
1625.022282125546
 20
1165.347822252225
 30
0.0
 40
0.2074667607696195
100
AcDbArc
 50
208.9114351028612
 51
237.5361085201062
1001
AcDbBlockRepETag
1070
     1
1071
       47
1005
ECF
  0
ARC
  5
ED0
330
B6A
100
AcDbEntity
  8
0
  6
Continuous
 62
     7
370
    15
100
AcDbCircle
 10
1624.951625379023
 20
1165.231216492381
 30
0.0
 40
0.0712188813430768
100
AcDbArc
 50
235.1419925165937
 51
294.5081100514943
1001
AcDbBlockRepETag
1070
     1
1071
       48
1005
ED0
  0
LINE
  5
ED1
330
B6A
100
AcDbEntity
  8
0
  6
Continuous
 62
     7
370
    15
100
AcDbLine
 10
1625.175098703075
 20
1165.278404143569
 30
0.0
 11
1624.981168540731
 21
1165.166414249703
 31
0.0
1001
AcDbBlockRepETag
1070
     1
1071
       49
1005
ED1
  0
LWPOLYLINE
  5
ED2
330
B6A
100
AcDbEntity
  8
0
  6
Continuous
 62
     7
370
    15
100
AcDbPolyline
 90
        9
 70
   128
 43
0.0
 10
1625.175098703075
 20
1165.278404143569
 10
1625.19425247009
 20
1165.285498397982
 10
1625.216104293954
 20
1165.286371558649
 10
1625.239815188964
 20
1165.280989326014
 10
1625.264473729521
 20
1165.269558460464
 10
1625.289132270077
 20
1165.252519181092
 10
1625.312843165088
 20
1165.230525397062
 10
1625.334695647496
 20
1165.204422277419
 10
1625.353848755966
 20
1165.175213934501
1001
AcDbBlockRepETag
1070
     1
1071
       50
1005
ED2
  0
LINE
  5
ED3
330
B6A
100
AcDbEntity
  8
0
  6
Continuous
 62
     7
370
    15
100
AcDbLine
 10
1625.547778918311
 20
1164.839317041187
 30
0.0
 11
1625.353848755966
 21
1165.175213934501
 31
0.0
1001
AcDbBlockRepETag
1070
     1
1071
       51
1005
ED3
  0
ARC
  5
ED4
330
B6A
100
AcDbEntity
  8
0
  6
Continuous
 62
     7
370
    15
100
AcDbCircle
 10
1625.729390091907
 20
1164.939619633901
 30
0.0
 40
0.2074686204713921
100
AcDbArc
 50
208.9115661321113
 51
237.5359774908294
1001
AcDbBlockRepETag
1070
     1
1071
       52
1005
ED4
  0
ARC
  5
ED5
330
B6A
100
AcDbEntity
  8
0
  6
Continuous
 62
     7
370
    15
100
AcDbCircle
 10
1625.658732324211
 20
1164.823013261253
 30
0.0
 40
0.0712196727464935
100
AcDbArc
 50
235.1420660006144
 51
294.5077772661248
1001
AcDbBlockRepETag
1070
     1
1071
       53
1005
ED5
  0
LINE
  5
ED6
330
B6A
100
AcDbEntity
  8
0
  6
Continuous
 62
     7
370
    15
100
AcDbLine
 10
1625.882205600166
 20
1164.870200020748
 30
0.0
 11
1625.688275437822
 21
1164.758210126882
 31
0.0
1001
AcDbBlockRepETag
1070
     1
1071
       54
1005
ED6
  0
LWPOLYLINE
  5
ED7
330
B6A
100
AcDbEntity
  8
0
  6
Continuous
 62
     7
370
    15
100
AcDbPolyline
 90
        9
 70
   128
 43
0.0
 10
1625.882205600166
 20
1164.870200020748
 10
1625.90135936718
 20
1164.877294275161
 10
1625.923211191044
 20
1164.878167435827
 10
1625.946922086054
 20
1164.872785203193
 10
1625.971580626611
 20
1164.861354337643
 10
1625.996239167168
 20
1164.844315058271
 10
1626.019950062178
 20
1164.822321274241
 10
1626.041801886042
 20
1164.796218534768
 10
1626.060955653057
 20
1164.76700981168
1001
AcDbBlockRepETag
1070
     1
1071
       55
1005
ED7
  0
LINE
  5
ED8
330
B6A
100
AcDbEntity
  8
0
  6
Continuous
 62
     7
370
    15
100
AcDbLine
 10
1626.254885815401
 20
1164.431112918365
 30
0.0
 11
1626.060955653057
 21
1164.76700981168
 31
0.0
1001
AcDbBlockRepETag
1070
     1
1071
       56
1005
ED8
  0
ARC
  5
ED9
330
B6A
100
AcDbEntity
  8
0
  6
Continuous
 62
     7
370
    15
100
AcDbCircle
 10
1626.438160483711
 20
1164.532736766201
 30
0.0
 40
0.2095638577925727
100
AcDbArc
 50
209.0079007686365
 51
236.6165781651053
1001
AcDbBlockRepETag
1070
     1
1071
       57
1005
ED9
  0
ARC
  5
EDA
330
B6A
100
AcDbEntity
  8
0
  6
Continuous
 62
     7
370
    15
100
AcDbCircle
 10
1626.361409682508
 20
1164.416115136231
 30
0.0
 40
0.0699527201306143
100
AcDbArc
 50
236.5491501562526
 51
294.8570130049493
1001
AcDbBlockRepETag
1070
     1
1071
       58
1005
EDA
  0
LINE
  5
EDB
330
B6A
100
AcDbEntity
  8
0
  6
Continuous
 62
     7
370
    15
100
AcDbLine
 10
1626.584744832549
 20
1164.464632754636
 30
0.0
 11
1626.390814670205
 21
1164.352642860769
 31
0.0
1001
AcDbBlockRepETag
1070
     1
1071
       59
1005
EDB
  0
LWPOLYLINE
  5
EDC
330
B6A
100
AcDbEntity
  8
0
  6
Continuous
 62
     7
370
    15
100
AcDbPolyline
 90
        9
 70
   128
 43
0.0
 10
1626.584744832549
 20
1164.464632754636
 10
1626.603898599563
 20
1164.471727009048
 10
1626.625750423427
 20
1164.472600169715
 10
1626.649461318437
 20
1164.467217937081
 10
1626.674119858994
 20
1164.45578707153
 10
1626.698778399551
 20
1164.438747792158
 10
1626.722489294561
 20
1164.416754008128
 10
1626.744341776969
 20
1164.390650888486
 10
1626.763494885439
 20
1164.361442545567
1001
AcDbBlockRepETag
1070
     1
1071
       60
1005
EDC
  0
LINE
  5
EDD
330
B6A
100
AcDbEntity
  8
0
  6
Continuous
 62
     7
370
    15
100
AcDbLine
 10
1626.957425047784
 20
1164.025545652253
 30
0.0
 11
1626.763494885439
 21
1164.361442545567
 31
0.0
1001
AcDbBlockRepETag
1070
     1
1071
       61
1005
EDD
  0
LWPOLYLINE
  5
EDE
330
B6A
100
AcDbEntity
  8
0
  6
Continuous
 62
     7
370
    15
100
AcDbPolyline
 90
        9
 70
   128
 43
0.0
 10
1627.100425353514
 20
1163.94299333293
 10
1627.085102339903
 20
1163.937317701261
 10
1627.067620617394
 20
1163.936619476888
 10
1627.048651901386
 20
1163.940925339042
 10
1627.028925200649
 20
1163.950069575216
 10
1627.009198499912
 20
1163.963701302912
 10
1626.990229783904
 20
1163.98129625409
 10
1626.972748061395
 20
1164.002178445644
 10
1626.957425047784
 20
1164.025545652253
1001
AcDbBlockRepETag
1070
     1
1071
       62
1005
EDE
  0
LINE
  5
EDF
330
B6A
100
AcDbEntity
  8
0
  6
Continuous
 62
     7
370
    15
100
AcDbLine
 10
1627.294355515858
 20
1164.054983226797
 30
0.0
 11
1627.100425353514
 21
1163.94299333293
 31
0.0
1001
AcDbBlockRepETag
1070
     1
1071
       63
1005
EDF
  0
LWPOLYLINE
  5
EE0
330
B6A
100
AcDbEntity
  8
0
  6
Continuous
 62
     7
370
    15
100
AcDbPolyline
 90
        9
 70
   128
 43
0.0
 10
1627.294355515858
 20
1164.054983226797
 10
1627.313508624328
 20
1164.062077861379
 10
1627.335361106737
 20
1164.062950641875
 10
1627.359072001747
 20
1164.057568409241
 10
1627.383730542304
 20
1164.046137543691
 10
1627.408389082861
 20
1164.029098264318
 10
1627.432099977871
 20
1164.007104480289
 10
1627.453951801735
 20
1163.981001740816
 10
1627.473105568749
 20
1163.951793017728
1001
AcDbBlockRepETag
1070
     1
1071
       64
1005
EE0
  0
LINE
  5
EE1
330
B6A
100
AcDbEntity
  8
0
  6
Continuous
 62
     7
370
    15
100
AcDbLine
 10
1627.667035731094
 20
1163.615896124413
 30
0.0
 11
1627.473105568749
 21
1163.951793017728
 31
0.0
1001
AcDbBlockRepETag
1070
     1
1071
       65
1005
EE1
  0
LWPOLYLINE
  5
EE2
330
B6A
100
AcDbEntity
  8
0
  6
Continuous
 62
     7
370
    15
100
AcDbPolyline
 90
        9
 70
   128
 43
0.0
 10
1627.81003537828
 20
1163.53334418526
 10
1627.794713023212
 20
1163.527668173422
 10
1627.777231300703
 20
1163.526969949049
 10
1627.758262584696
 20
1163.531275811203
 10
1627.738535883959
 20
1163.540420047377
 10
1627.718808524678
 20
1163.554052155243
 10
1627.699839808669
 20
1163.57164710642
 10
1627.682358086161
 20
1163.592529297974
 10
1627.667035731094
 20
1163.615896124413
1001
AcDbBlockRepETag
1070
     1
1071
       66
1005
EE2
  0
LINE
  5
EE3
330
B6A
100
AcDbEntity
  8
0
  6
Continuous
 62
     7
370
    15
100
AcDbLine
 10
1628.003965540624
 20
1163.645334079127
 30
0.0
 11
1627.81003537828
 21
1163.53334418526
 31
0.0
1001
AcDbBlockRepETag
1070
     1
1071
       67
1005
EE3
  0
LWPOLYLINE
  5
EE4
330
B6A
100
AcDbEntity
  8
0
  6
Continuous
 62
     7
370
    15
100
AcDbPolyline
 90
        9
 70
   128
 43
0.0
 10
1628.003965540624
 20
1163.645334079127
 10
1628.023119307638
 20
1163.652428333539
 10
1628.044971131502
 20
1163.653301494206
 10
1628.068682026512
 20
1163.647919261572
 10
1628.093340567069
 20
1163.636488396021
 10
1628.117999107626
 20
1163.619449116649
 10
1628.141710002636
 20
1163.597455332619
 10
1628.163562485044
 20
1163.571352212976
 10
1628.182715593515
 20
1163.542143870058
1001
AcDbBlockRepETag
1070
     1
1071
       68
1005
EE4
  0
LINE
  5
EE5
330
B6A
100
AcDbEntity
  8
0
  6
Continuous
 62
     7
370
    15
100
AcDbLine
 10
1628.376645755859
 20
1163.206246976744
 30
0.0
 11
1628.182715593515
 21
1163.542143870058
 31
0.0
1001
AcDbBlockRepETag
1070
     1
1071
       69
1005
EE5
  0
LWPOLYLINE
  5
EE6
330
B6A
100
AcDbEntity
  8
0
  6
Continuous
 62
     7
370
    15
100
AcDbPolyline
 90
        9
 70
   128
 43
0.0
 10
1628.519646061589
 20
1163.123694657421
 10
1628.504323047977
 20
1163.118019025752
 10
1628.486841325469
 20
1163.117320801379
 10
1628.46787260946
 20
1163.121626663533
 10
1628.448145908724
 20
1163.130770899708
 10
1628.428419207987
 20
1163.144402627403
 10
1628.409450491979
 20
1163.161997578581
 10
1628.39196876947
 20
1163.182879770134
 10
1628.376645755859
 20
1163.206246976744
1001
AcDbBlockRepETag
1070
     1
1071
       70
1005
EE6
  0
LINE
  5
EE7
330
B6A
100
AcDbEntity
  8
0
  6
Continuous
 62
     7
370
    15
100
AcDbLine
 10
1628.713576223933
 20
1163.235684551287
 30
0.0
 11
1628.519646061589
 21
1163.123694657421
 31
0.0
1001
AcDbBlockRepETag
1070
     1
1071
       71
1005
EE7
  0
LWPOLYLINE
  5
EE8
330
B6A
100
AcDbEntity
  8
0
  6
Continuous
 62
     7
370
    15
100
AcDbPolyline
 90
        9
 70
   128
 43
0.0
 10
1628.713576223933
 20
1163.235684551287
 10
1628.732729990948
 20
1163.2427788057
 10
1628.754581814812
 20
1163.243651966366
 10
1628.778292709822
 20
1163.238269733732
 10
1628.802951250379
 20
1163.226838868182
 10
1628.827609790936
 20
1163.209799588809
 10
1628.851320685945
 20
1163.18780580478
 10
1628.873172509809
 20
1163.161703065307
 10
1628.892326276824
 20
1163.132494342219
1001
AcDbBlockRepETag
1070
     1
1071
       72
1005
EE8
  0
LINE
  5
EE9
330
B6A
100
AcDbEntity
  8
0
  6
Continuous
 62
     7
370
    15
100
AcDbLine
 10
1629.086256439169
 20
1162.796597448904
 30
0.0
 11
1628.892326276824
 21
1163.132494342219
 31
0.0
1001
AcDbBlockRepETag
1070
     1
1071
       73
1005
EE9
  0
LWPOLYLINE
  5
EEA
330
B6A
100
AcDbEntity
  8
0
  6
Continuous
 62
     7
370
    15
100
AcDbPolyline
 90
        9
 70
   128
 43
0.0
 10
1629.229256744899
 20
1162.714045129582
 10
1629.213933731287
 20
1162.708369497913
 10
1629.196452008778
 20
1162.70767127354
 10
1629.17748329277
 20
1162.711977135693
 10
1629.157756592034
 20
1162.721121371868
 10
1629.138029891297
 20
1162.734753099564
 10
1629.119061175289
 20
1162.752348050742
 10
1629.10157945278
 20
1162.773230242295
 10
1629.086256439169
 20
1162.796597448904
1001
AcDbBlockRepETag
1070
     1
1071
       74
1005
EEA
  0
LINE
  5
EEB
330
B6A
100
AcDbEntity
  8
0
  6
Continuous
 62
     7
370
    15
100
AcDbLine
 10
1629.423186907243
 20
1162.826035023448
 30
0.0
 11
1629.229256744899
 21
1162.714045129582
 31
0.0
1001
AcDbBlockRepETag
1070
     1
1071
       75
1005
EEB
  0
LWPOLYLINE
  5
EEC
330
B6A
100
AcDbEntity
  8
0
  6
Continuous
 62
     7
370
    15
100
AcDbPolyline
 90
        9
 70
   128
 43
0.0
 10
1629.423186907243
 20
1162.826035023448
 10
1629.442340015713
 20
1162.83312965803
 10
1629.464192498122
 20
1162.834002438527
 10
1629.487903393131
 20
1162.828620205893
 10
1629.512561933688
 20
1162.817189340343
 10
1629.537220474245
 20
1162.80015006097
 10
1629.560931369255
 20
1162.778156276941
 10
1629.582783193119
 20
1162.752053537468
 10
1629.601936960134
 20
1162.722844814379
1001
AcDbBlockRepETag
1070
     1
1071
       76
1005
EEC
  0
LINE
  5
EED
330
B6A
100
AcDbEntity
  8
0
  6
Continuous
 62
     7
370
    15
100
AcDbLine
 10
1629.795867122478
 20
1162.386947921065
 30
0.0
 11
1629.601936960134
 21
1162.722844814379
 31
0.0
1001
AcDbBlockRepETag
1070
     1
1071
       77
1005
EED
  0
LWPOLYLINE
  5
EEE
330
B6A
100
AcDbEntity
  8
0
  6
Continuous
 62
     7
370
    15
100
AcDbPolyline
 90
        9
 70
   128
 43
0.0
 10
1629.938866769664
 20
1162.304395981912
 10
1629.923543756052
 20
1162.298720350243
 10
1629.906062692088
 20
1162.298021745701
 10
1629.88709397608
 20
1162.302327607854
 10
1629.867366616799
 20
1162.311472224199
 10
1629.847639916062
 20
1162.325103951894
 10
1629.828671200054
 20
1162.342698903072
 10
1629.811189477545
 20
1162.363581094626
 10
1629.795867122478
 20
1162.386947921065
1001
AcDbBlockRepETag
1070
     1
1071
       78
1005
EEE
  0
LINE
  5
EEF
330
B6A
100
AcDbEntity
  8
0
  6
Continuous
 62
     7
370
    15
100
AcDbLine
 10
1630.132796932008
 20
1162.416385875778
 30
0.0
 11
1629.938866769664
 21
1162.304395981912
 31
0.0
1001
AcDbBlockRepETag
1070
     1
1071
       79
1005
EEF
  0
ARC
  5
EF0
330
B6A
100
AcDbEntity
  8
0
  6
Continuous
 62
     7
370
    15
100
AcDbCircle
 10
1630.170366012683
 20
1162.312396953071
 30
0.0
 40
0.1105673182666947
100
AcDbArc
 50
40.14463338046963
 51
109.8637560598036
1001
AcDbBlockRepETag
1070
     1
1071
       80
1005
EF0
  0
LINE
  5
EF1
330
B6A
100
AcDbEntity
  8
0
  6
Continuous
 62
     7
370
    15
100
AcDbLine
 10
1632.551439273377
 20
1160.347314969878
 30
0.0
 11
1630.254885815432
 21
1162.383681837948
 31
0.0
1001
AcDbBlockRepETag
1070
     1
1071
       81
1005
EF1
  0
LINE
  5
EF2
330
B6A
100
AcDbEntity
  8
0
  6
Continuous
 62
     7
370
    15
100
AcDbLine
 10
1632.551439273377
 20
1158.683794410509
 30
0.0
 11
1632.551439273377
 21
1160.347314969878
 31
0.0
1001
AcDbBlockRepETag
1070
     1
1071
       82
1005
EF2
  0
LINE
  5
EF3
330
B6A
100
AcDbEntity
  8
0
  6
Continuous
 62
     7
370
    15
100
AcDbLine
 10
1632.551439273377
 20
1158.683794410509
 30
0.0
 11
1632.299610536436
 21
1158.48260705295
 31
0.0
1001
AcDbBlockRepETag
1070
     1
1071
       83
1005
EF3
  0
LINE
  5
EF4
330
B6A
100
AcDbEntity
  8
0
  6
Continuous
 62
     7
370
    15
100
AcDbLine
 10
1631.540277108595
 20
1158.844246364332
 30
0.0
 11
1632.299610536436
 21
1158.48260705295
 31
0.0
1001
AcDbBlockRepETag
1070
     1
1071
       84
1005
EF4
  0
LINE
  5
EF5
330
B6A
100
AcDbEntity
  8
0
  6
Continuous
 62
     7
370
    15
100
AcDbLine
 10
1631.540277108595
 20
1158.844246364332
 30
0.0
 11
1631.540277108595
 21
1157.211164758051
 31
0.0
1001
AcDbBlockRepETag
1070
     1
1071
       85
1005
EF5
  0
LINE
  5
EF6
330
B6A
100
AcDbEntity
  8
0
  6
Continuous
 62
     7
370
    15
100
AcDbLine
 10
1632.274411989382
 20
1156.713189006117
 30
0.0
 11
1631.540277108595
 21
1157.211164758051
 31
0.0
1001
AcDbBlockRepETag
1070
     1
1071
       86
1005
EF6
  0
LINE
  5
EF7
330
B6A
100
AcDbEntity
  8
0
  6
Continuous
 62
     7
370
    15
100
AcDbLine
 10
1632.551439273377
 20
1156.233363510212
 30
0.0
 11
1632.274411989382
 21
1156.713189006117
 31
0.0
1001
AcDbBlockRepETag
1070
     1
1071
       87
1005
EF7
  0
LINE
  5
EF8
330
B6A
100
AcDbEntity
  8
0
  6
Continuous
 62
     7
370
    15
100
AcDbLine
 10
1632.551439273377
 20
1155.167866572059
 30
0.0
 11
1632.551439273377
 21
1156.233363510212
 31
0.0
1001
AcDbBlockRepETag
1070
     1
1071
       88
1005
EF8
  0
LINE
  5
EF9
330
B6A
100
AcDbEntity
  8
0
  6
Continuous
 62
     7
370
    15
100
AcDbLine
 10
1632.551439273377
 20
1155.167866572059
 30
0.0
 11
1632.298649061454
 21
1155.021885973505
 31
0.0
1001
AcDbBlockRepETag
1070
     1
1071
       89
1005
EF9
  0
LINE
  5
EFA
330
B6A
100
AcDbEntity
  8
0
  6
Continuous
 62
     7
370
    15
100
AcDbLine
 10
1623.99822270321
 20
1159.81362011519
 30
0.0
 11
1632.298649061454
 21
1155.021885973505
 31
0.0
1001
AcDbBlockRepETag
1070
     1
1071
       90
1005
EFA
  0
LINE
  5
EFB
330
B6A
100
AcDbEntity
  8
0
  6
Continuous
 62
     7
370
    15
100
AcDbLine
 10
1623.99822270321
 20
1159.81362011519
 30
0.0
 11
1623.497643266357
 21
1160.928244179523
 31
0.0
1001
AcDbBlockRepETag
1070
     1
1071
       91
1005
EFB
  0
LINE
  5
EFC
330
B6A
100
AcDbEntity
  8
0
  6
Continuous
 62
     7
370
    15
100
AcDbLine
 10
1621.969558565668
 20
1160.984742993742
 30
0.0
 11
1623.497643266357
 21
1160.928244179523
 31
0.0
1001
AcDbBlockRepETag
1070
     1
1071
       92
1005
EFC
  0
LINE
  5
EFD
330
B6A
100
AcDbEntity
  8
0
  6
Continuous
 62
     7
370
    15
100
AcDbLine
 10
1617.652345907948
 20
1163.477016811504
 30
0.0
 11
1621.969558565668
 21
1160.984742993742
 31
0.0
1001
AcDbBlockRepETag
1070
     1
1071
       93
1005
EFD
  0
LINE
  5
F01
330
B6A
100
AcDbEntity
  8
0
  6
Continuous
 62
     7
370
    15
100
AcDbLine
 10
1617.652345907947
 20
1186.248938543669
 30
0.0
 11
1617.652345907948
 21
1163.477016811504
 31
0.0
1001
AcDbBlockRepETag
1070
     1
1071
       94
1005
F01
  0
LINE
  5
F02
330
B6A
100
AcDbEntity
  8
0
  6
Continuous
 62
     7
370
    15
100
AcDbLine
 10
1617.652345907947
 20
1186.248938543669
 30
0.0
 11
1617.835521544568
 21
1186.354717773609
 31
0.0
1001
AcDbBlockRepETag
1070
     1
1071
       95
1005
F02
  0
LINE
  5
F03
330
B6A
100
AcDbEntity
  8
0
  6
Continuous
 62
     7
370
    15
100
AcDbLine
 10
1632.851669714566
 20
1170.785656407611
 30
0.0
 11
1633.706830587941
 21
1177.027408454653
 31
0.0
1001
AcDbBlockRepETag
1070
     1
1071
       96
1005
F03
  0
LINE
  5
F04
330
B6A
100
AcDbEntity
  8
0
  6
Continuous
 62
     7
370
    15
100
AcDbLine
 10
1632.851669714566
 20
1170.785656407611
 30
0.0
 11
1632.398818949474
 21
1170.476398296706
 31
0.0
1001
AcDbBlockRepETag
1070
     1
1071
       97
1005
F04
  0
LINE
  5
F05
330
B6A
100
AcDbEntity
  8
0
  6
Continuous
 62
     7
370
    15
100
AcDbLine
 10
1631.444632079889
 20
1178.625104071926
 30
0.0
 11
1632.775779704011
 21
1179.393559238303
 31
0.0
1001
AcDbBlockRepETag
1070
     1
1071
       98
1005
F05
  0
LINE
  5
F06
330
B6A
100
AcDbEntity
  8
0
  6
Continuous
 62
     7
370
    15
100
AcDbLine
 10
1634.946727650859
 20
1178.231926914952
 30
0.0
 11
1634.154085041805
 21
1178.689509753234
 31
0.0
1001
AcDbBlockRepETag
1070
     1
1071
       99
1005
F06
  0
LINE
  5
F07
330
B6A
100
AcDbEntity
  8
0
  6
Continuous
 62
     7
370
    15
100
AcDbLine
 10
1634.265883508747
 20
1171.602064653253
 30
0.0
 11
1635.121044382122
 21
1177.843816700295
 31
0.0
1001
AcDbBlockRepETag
1070
     1
1071
      100
1005
F07
  0
LINE
  5
F08
330
B6A
100
AcDbEntity
  8
0
  6
Continuous
 62
     7
370
    15
100
AcDbLine
 10
1634.265883508747
 20
1171.602064653253
 30
0.0
 11
1632.851669714566
 21
1170.785656407611
 31
0.0
1001
AcDbBlockRepETag
1070
     1
1071
      101
1005
F08
  0
ARC
  5
F09
330
B6A
100
AcDbEntity
  8
0
  6
Continuous
 62
     7
370
    15
100
AcDbCircle
 10
1639.008824738203
 20
1183.520285513075
 30
0.0
 40
0.967410821246594
100
AcDbArc
 50
46.93777820342485
 51
128.5505521020435
1001
AcDbBlockRepETag
1070
     1
1071
      102
1005
F09
  0
LINE
  5
F0A
330
B6A
100
AcDbEntity
  8
0
  6
Continuous
 62
     7
370
    15
100
AcDbLine
 10
1638.405929583846
 20
1184.276857472586
 30
0.0
 11
1632.961207398212
 21
1181.1336862591
 31
0.0
1001
AcDbBlockRepETag
1070
     1
1071
      103
1005
F0A
  0
ARC
  5
F0B
330
B6A
100
AcDbEntity
  8
0
  6
Continuous
 62
     7
370
    15
100
AcDbCircle
 10
1630.983601135449
 20
1191.665624723712
 30
0.0
 40
4.241849713456413
100
AcDbArc
 50
297.629484537377
 51
302.3651389299281
1001
AcDbBlockRepETag
1070
     1
1071
      104
1005
F0B
  0
SPLINE
  5
F0C
330
B6A
100
AcDbEntity
  8
0
  6
Continuous
 62
     7
370
    15
100
AcDbSpline
210
0.0
220
0.0
230
1.0
 70
     8
 71
     3
 72
    12
 73
     8
 74
     0
 42
0.0000000001
 43
0.0000000001
 40
0.0
 40
0.0
 40
0.0
 40
0.0
 40
0.4999999999999995
 40
0.4999999999999995
 40
0.7499999999999997
 40
0.7499999999999997
 40
1.0
 40
1.0
 40
1.0
 40
1.0
 10
1632.950767430916
 20
1187.907493812021
 30
0.0
 10
1632.298369556506
 20
1187.952449115778
 30
0.0
 10
1631.638245562034
 20
1187.939624428526
 30
0.0
 10
1630.629886749234
 20
1187.784481479698
 30
0.0
 10
1630.290724868092
 20
1187.710188163806
 30
0.0
 10
1629.624495507832
 20
1187.525519012886
 30
0.0
 10
1629.295002745813
 20
1187.41508712628
 30
0.0
 10
1628.968153222635
 20
1187.291448006929
 30
0.0
1001
AcDbBlockRepETag
1070
     1
1071
      105
1005
F0C
  0
ARC
  5
F0D
330
B6A
100
AcDbEntity
  8
0
  6
Continuous
 62
     7
370
    15
100
AcDbCircle
 10
1629.872414223047
 20
1194.509743747417
 30
0.0
 40
7.274714635894185
100
AcDbArc
 50
259.5544039177927
 51
262.8595543960045
1001
AcDbBlockRepETag
1070
     1
1071
      106
1005
F0D
  0
SPLINE
  5
F0E
330
B6A
100
AcDbEntity
  8
0
  6
Continuous
 62
     7
370
    15
100
AcDbSpline
210
0.0
220
0.0
230
1.0
 70
     8
 71
     3
 72
     8
 73
     4
 74
     0
 42
0.0000000001
 43
0.0000000001
 40
0.0
 40
0.0
 40
0.0
 40
0.0
 40
1.0
 40
1.0
 40
1.0
 40
1.0
 10
1628.553494995304
 20
1187.355588907386
 30
0.0
 10
1628.225520087253
 20
1187.645098750452
 30
0.0
 10
1627.893498947298
 20
1187.911418731101
 30
0.0
 10
1627.555376429382
 20
1188.142770346382
 30
0.0
1001
AcDbBlockRepETag
1070
     1
1071
      107
1005
F0E
  0
SPLINE
  5
F0F
330
B6A
100
AcDbEntity
  8
0
  6
Continuous
 62
     7
370
    15
100
AcDbSpline
210
0.0
220
0.0
230
1.0
 70
     8
 71
     3
 72
     8
 73
     4
 74
     0
 42
0.0000000001
 43
0.0000000001
 40
0.0000000000000137
 40
0.0000000000000137
 40
0.0000000000000137
 40
0.0000000000000137
 40
0.0001778594872846
 40
0.0001778594872846
 40
0.0001778594872846
 40
0.0001778594872846
 10
1627.664658467897
 20
1188.277735703226
 30
0.0
 10
1627.628226331223
 20
1188.232754200272
 30
0.0
 10
1627.591799164642
 20
1188.187765482541
 30
0.0
 10
1627.555376429379
 20
1188.142770346379
 30
0.0
1001
AcDbBlockRepETag
1070
     1
1071
      108
1005
F0F
  0
LWPOLYLINE
  5
F10
330
B6A
100
AcDbEntity
  8
0
  6
Continuous
 62
     7
370
    15
100
AcDbPolyline
 90
       32
 70
   128
 43
0.0
 10
1633.102948896116
 20
1191.417194672682
 10
1633.294223642368
 20
1191.245935372493
 10
1633.45789286139
 20
1191.065393469903
 10
1633.592615262655
 20
1190.877048300072
 10
1633.697287125568
 20
1190.682442591449
 10
1633.771050860543
 20
1190.483170680514
 10
1633.813302746903
 20
1190.280864730626
 10
1633.8236962256
 20
1190.077182186426
 10
1633.802146015121
 20
1189.873791422435
 10
1633.74882959321
 20
1189.672358151984
 10
1633.664182257788
 20
1189.474533451872
 10
1633.548899102582
 20
1189.281936654735
 10
1633.403922834055
 20
1189.096146034883
 10
1633.230442454317
 20
1188.918683601519
 10
1633.029877456055
 20
1188.751002933309
 10
1632.803872224904
 20
1188.594477583208
 10
1632.554277929479
 20
1188.450389863452
 10
1632.28313869193
 20
1188.319919820642
 10
1631.992676112155
 20
1188.204136301756
 10
1631.685268523645
 20
1188.10398802016
 10
1631.363435188416
 20
1188.020295191881
 10
1631.029811601588
 20
1187.95374364297
 10
1630.687131381414
 20
1187.9048773962
 10
1630.33820157386
 20
1187.874098861148
 10
1629.985880262089
 20
1187.861658189445
 10
1629.633053188136
 20
1187.867658026898
 10
1629.282610703847
 20
1187.892049331621
 10
1628.93742472182
 20
1187.934632514547
 10
1628.60032105654
 20
1187.995058199766
 10
1628.274062302217
 20
1188.072831786559
 10
1627.961320832465
 20
1188.167316110589
 10
1627.664659043964
 20
1188.277736766275
1001
AcDbBlockRepETag
1070
     1
1071
      109
1005
F10
  0
SPLINE
  5
F11
330
B6A
100
AcDbEntity
  8
0
  6
Continuous
 62
     7
370
    15
100
AcDbSpline
210
0.0
220
0.0
230
1.0
 70
     8
 71
     3
 72
     8
 73
     4
 74
     0
 42
0.0000000001
 43
0.0000000001
 40
0.000000000000003
 40
0.000000000000003
 40
0.000000000000003
 40
0.000000000000003
 40
0.0001778594872729
 40
0.0001778594872729
 40
0.0001778594872729
 40
0.0001778594872729
 10
1633.212230678868
 20
1191.408402793673
 30
0.0
 10
1633.175807943604
 20
1191.411345134818
 30
0.0
 10
1633.139380777023
 20
1191.414275941243
 30
0.0
 10
1633.10294864035
 20
1191.417193794544
 30
0.0
1001
AcDbBlockRepETag
1070
     1
1071
      110
1005
F11
  0
SPLINE
  5
F12
330
B6A
100
AcDbEntity
  8
0
  6
Continuous
 62
     7
370
    15
100
AcDbSpline
210
0.0
220
0.0
230
1.0
 70
     8
 71
     3
 72
     8
 73
     4
 74
     0
 42
0.0000000001
 43
0.0000000001
 40
0.0
 40
0.0
 40
0.0
 40
0.0
 40
1.0
 40
1.0
 40
1.0
 40
1.0
 10
1634.210349244806
 20
1190.621221354667
 30
0.0
 10
1633.88237433675
 20
1190.910731197737
 30
0.0
 10
1633.550353196791
 20
1191.177051178389
 30
0.0
 10
1633.212230678871
 20
1191.408402793673
 30
0.0
1001
AcDbBlockRepETag
1070
     1
1071
      111
1005
F12
  0
ARC
  5
F13
330
B6A
100
AcDbEntity
  8
0
  6
Continuous
 62
     7
370
    15
100
AcDbCircle
 10
1632.626312999321
 20
1189.740516062855
 30
0.0
 40
1.812405363584308
100
AcDbArc
 50
20.72328619983664
 51
29.07354523248295
1001
AcDbBlockRepETag
1070
     1
1071
      112
1005
F13
  0
SPLINE
  5
F14
330
B6A
100
AcDbEntity
  8
0
  6
Continuous
 62
     7
370
    15
100
AcDbSpline
210
0.0
220
0.0
230
1.0
 70
     8
 71
     3
 72
    12
 73
     8
 74
     0
 42
0.0000000001
 43
0.0000000001
 40
0.0
 40
0.0
 40
0.0
 40
0.0
 40
0.5
 40
0.5
 40
0.75
 40
0.75
 40
1.0
 40
1.0
 40
1.0
 40
1.0
 10
1634.321456581949
 20
1190.38184425533
 30
0.0
 10
1634.146647098356
 20
1190.15109364963
 30
0.0
 10
1633.969767407131
 20
1189.859297964175
 30
0.0
 10
1633.699578477559
 20
1189.278018612322
 30
0.0
 10
1633.608700325403
 20
1189.060394150572
 30
0.0
 10
1633.430184706346
 20
1188.594173849835
 30
0.0
 10
1633.341897386853
 20
1188.344497025175
 30
0.0
 10
1633.25431832107
 20
1188.082730010902
 30
0.0
1001
AcDbBlockRepETag
1070
     1
1071
      113
1005
F14
  0
LINE
  5
F15
330
B6A
100
AcDbEntity
  8
0
  6
Continuous
 62
     7
370
    15
100
AcDbLine
 10
1628.968153067107
 20
1187.291448602748
 30
0.0
 11
1628.968153067107
 21
1185.124684500727
 31
0.0
1001
AcDbBlockRepETag
1070
     1
1071
      114
1005
F15
  0
LINE
  5
F16
330
B6A
100
AcDbEntity
  8
0
  6
Continuous
 62
     7
370
    15
100
AcDbLine
 10
1632.950767492127
 20
1185.740730033659
 30
0.0
 11
1632.950767492127
 21
1187.90749413568
 31
0.0
1001
AcDbBlockRepETag
1070
     1
1071
      115
1005
F16
  0
LINE
  5
F17
330
B6A
100
AcDbEntity
  8
0
  6
Continuous
 62
     7
370
    15
100
AcDbLine
 10
1628.968153067107
 20
1185.124684500727
 30
0.0
 11
1632.950767492127
 21
1185.740730033659
 31
0.0
1001
AcDbBlockRepETag
1070
     1
1071
      116
1005
F17
  0
LINE
  5
F18
330
B6A
100
AcDbEntity
  8
0
  6
Continuous
 62
     7
370
    15
100
AcDbLine
 10
1627.664659043964
 20
1188.277736766275
 30
0.0
 11
1629.924184519859
 21
1189.582133058653
 31
0.0
1001
AcDbBlockRepETag
1070
     1
1071
      117
1005
F18
  0
LINE
  5
F19
330
B6A
100
AcDbEntity
  8
0
  6
Continuous
 62
     7
370
    15
100
AcDbLine
 10
1629.924184519859
 20
1189.582133058653
 30
0.0
 11
1630.94948892795
 21
1188.990237422715
 31
0.0
1001
AcDbBlockRepETag
1070
     1
1071
      118
1005
F19
  0
LINE
  5
F1A
330
B6A
100
AcDbEntity
  8
0
  6
Continuous
 62
     7
370
    15
100
AcDbLine
 10
1630.94948892795
 20
1188.990237422715
 30
0.0
 11
1631.86872749904
 21
1189.520902554281
 31
0.0
1001
AcDbBlockRepETag
1070
     1
1071
      119
1005
F1A
  0
LINE
  5
F1B
330
B6A
100
AcDbEntity
  8
0
  6
Continuous
 62
     7
370
    15
100
AcDbLine
 10
1631.86872749904
 20
1189.520902554281
 30
0.0
 11
1630.843423090949
 21
1190.112798190219
 31
0.0
1001
AcDbBlockRepETag
1070
     1
1071
      120
1005
F1B
  0
LINE
  5
F1C
330
B6A
100
AcDbEntity
  8
0
  6
Continuous
 62
     7
370
    15
100
AcDbLine
 10
1630.843423090949
 20
1190.112798190219
 30
0.0
 11
1633.102948896116
 21
1191.417194672682
 31
0.0
1001
AcDbBlockRepETag
1070
     1
1071
      121
1005
F1C
  0
LINE
  5
F1D
330
B6A
100
AcDbEntity
  8
0
  6
Continuous
 62
     7
370
    15
100
AcDbLine
 10
1621.442438303418
 20
1187.783330115876
 30
0.0
 11
1625.936557089407
 21
1190.37772966768
 31
0.0
1001
AcDbBlockRepETag
1070
     1
1071
      122
1005
F1D
  0
ARC
  5
F1E
330
B6A
100
AcDbEntity
  8
0
  6
Continuous
 62
     7
370
    15
100
AcDbCircle
 10
1628.771629331344
 20
1186.256814733824
 30
0.0
 40
1.39070929600966
100
AcDbArc
 50
198.032963706057
 51
243.7445922714224
1001
AcDbBlockRepETag
1070
     1
1071
      123
1005
F1E
  0
ARC
  5
F1F
330
B6A
100
AcDbEntity
  8
0
  6
Continuous
 62
     7
370
    15
100
AcDbCircle
 10
1629.859960963532
 20
1187.857901570737
 30
0.0
 40
3.318882186762116
100
AcDbArc
 50
239.116869842852
 51
318.1888056250684
1001
AcDbBlockRepETag
1070
     1
1071
      124
1005
F1F
  0
ARC
  5
F20
330
B6A
100
AcDbEntity
  8
0
  6
Continuous
 62
     7
370
    15
100
AcDbCircle
 10
1632.944470575298
 20
1171.257533003407
 30
0.0
 40
0.8329980783310663
100
AcDbArc
 50
238.9856011112848
 51
1.196762580633106
1001
AcDbBlockRepETag
1070
     1
1071
      125
1005
F20
  0
ARC
  5
F21
330
B6A
100
AcDbEntity
  8
0
  6
Continuous
 62
     7
370
    15
100
AcDbCircle
 10
1629.872414223048
 20
1192.342979645396
 30
0.0
 40
7.274714635894357
100
AcDbArc
 50
259.5544039177927
 51
262.8595543960029
1001
AcDbBlockRepETag
1070
     1
1071
      126
1005
F21
  0
LINE
  5
F22
330
B6A
100
AcDbEntity
  8
0
  6
Continuous
 62
     7
370
    15
100
AcDbLine
 10
1628.5534952493
 20
1185.188825203788
 30
0.0
 11
1628.5534952493
 21
1187.355589305809
 31
0.0
1001
AcDbBlockRepETag
1070
     1
1071
      127
1005
F22
  0
SPLINE
  5
F23
330
B6A
100
AcDbEntity
  8
0
  6
Continuous
 62
     7
370
    15
100
AcDbSpline
210
0.0
220
0.0
230
1.0
 70
     8
 71
     3
 72
     8
 73
     4
 74
     0
 42
0.0000000001
 43
0.0000000001
 40
0.0
 40
0.0
 40
0.0
 40
0.0
 40
1.0
 40
1.0
 40
1.0
 40
1.0
 10
1626.636137613839
 20
1188.673435619068
 30
0.0
 10
1626.298015095923
 20
1188.832471953331
 30
0.0
 10
1625.965993955964
 20
1188.949495421182
 30
0.0
 10
1625.638019047913
 20
1189.038657346696
 30
0.0
1001
AcDbBlockRepETag
1070
     1
1071
      128
1005
F23
  0
LINE
  5
F24
330
B6A
100
AcDbEntity
  8
0
  6
Continuous
 62
     7
370
    15
100
AcDbLine
 10
1626.636137645952
 20
1187.928772558403
 30
0.0
 11
1626.636137645952
 21
1188.67343607258
 31
0.0
1001
AcDbBlockRepETag
1070
     1
1071
      129
1005
F24
  0
LINE
  5
F25
330
B6A
100
AcDbEntity
  8
0
  6
Continuous
 62
     7
370
    15
100
AcDbLine
 10
1626.636137645952
 20
1187.928772558403
 30
0.0
 11
1627.555376875587
 21
1187.398107046668
 31
0.0
1001
AcDbBlockRepETag
1070
     1
1071
      130
1005
F25
  0
LINE
  5
F26
330
B6A
100
AcDbEntity
  8
0
  6
Continuous
 62
     7
370
    15
100
AcDbLine
 10
1627.555376875587
 20
1188.142770560844
 30
0.0
 11
1627.555376875587
 21
1187.398107046668
 31
0.0
1001
AcDbBlockRepETag
1070
     1
1071
      131
1005
F26
  0
LINE
  5
F27
330
B6A
100
AcDbEntity
  8
0
  6
Continuous
 62
     7
370
    15
100
AcDbLine
 10
1625.638019272239
 20
1186.871893660226
 30
0.0
 11
1628.5534952493
 21
1185.188825203788
 31
0.0
1001
AcDbBlockRepETag
1070
     1
1071
      132
1005
F27
  0
LINE
  5
F28
330
B6A
100
AcDbEntity
  8
0
  6
Continuous
 62
     7
370
    15
100
AcDbLine
 10
1625.638019272239
 20
1189.038657762247
 30
0.0
 11
1625.638019272239
 21
1186.871893660226
 31
0.0
1001
AcDbBlockRepETag
1070
     1
1071
      133
1005
F28
  0
LINE
  5
F29
330
B6A
100
AcDbEntity
  8
0
  6
Continuous
 62
     7
370
    15
100
AcDbLine
 10
1629.924183861314
 20
1189.826921235301
 30
0.0
 11
1628.898879123951
 21
1190.418817061324
 31
0.0
1001
AcDbBlockRepETag
1070
     1
1071
      134
1005
F29
  0
LINE
  5
F2A
330
B6A
100
AcDbEntity
  8
0
  6
Continuous
 62
     7
370
    15
100
AcDbLine
 10
1632.292991670222
 20
1191.194404875676
 30
0.0
 11
1629.924183861314
 21
1189.826921235301
 31
0.0
1001
AcDbBlockRepETag
1070
     1
1071
      135
1005
F2A
  0
LINE
  5
F2B
330
B6A
100
AcDbEntity
  8
0
  6
Continuous
 62
     7
370
    15
100
AcDbLine
 10
1632.505008757478
 20
1191.072010016451
 30
0.0
 11
1632.292991670222
 21
1191.194404875676
 31
0.0
1001
AcDbBlockRepETag
1070
     1
1071
      136
1005
F2B
  0
LINE
  5
F2C
330
B6A
100
AcDbEntity
  8
0
  6
Continuous
 62
     7
370
    15
100
AcDbLine
 10
1631.161506015206
 20
1189.112630359969
 30
0.0
 11
1630.843423090949
 21
1189.296255723566
 31
0.0
1001
AcDbBlockRepETag
1070
     1
1071
      137
1005
F2C
  0
LINE
  5
F2D
330
B6A
100
AcDbEntity
  8
0
  6
Continuous
 62
     7
370
    15
100
AcDbLine
 10
1629.004945290223
 20
1189.296256103736
 30
0.0
 11
1626.636137645952
 21
1187.928772558403
 31
0.0
1001
AcDbBlockRepETag
1070
     1
1071
      138
1005
F2D
  0
LINE
  5
F2E
330
B6A
100
AcDbEntity
  8
0
  6
Continuous
 62
     7
370
    15
100
AcDbLine
 10
1628.898879123951
 20
1190.418817061324
 30
0.0
 11
1628.686862036695
 21
1190.296422202099
 31
0.0
1001
AcDbBlockRepETag
1070
     1
1071
      139
1005
F2E
  0
LINE
  5
F2F
330
B6A
100
AcDbEntity
  8
0
  6
Continuous
 62
     7
370
    15
100
AcDbLine
 10
1633.254318314726
 20
1188.08273029556
 30
0.0
 11
1633.254318314726
 21
1185.915966193539
 31
0.0
1001
AcDbBlockRepETag
1070
     1
1071
      140
1005
F2F
  0
ARC
  5
F30
330
B6A
100
AcDbEntity
  8
0
  6
Continuous
 62
     7
370
    15
100
AcDbCircle
 10
1630.983601135459
 20
1189.498860621674
 30
0.0
 40
4.241849713436291
100
AcDbArc
 50
297.6294845373594
 51
302.3651389299461
1001
AcDbBlockRepETag
1070
     1
1071
      141
1005
F30
  0
LINE
  5
F31
330
B6A
100
AcDbEntity
  8
0
  6
Continuous
 62
     7
370
    15
100
AcDbLine
 10
1634.321456268778
 20
1188.215080658121
 30
0.0
 11
1634.321456268778
 21
1190.381844760142
 31
0.0
1001
AcDbBlockRepETag
1070
     1
1071
      142
1005
F31
  0
LINE
  5
F32
330
B6A
100
AcDbEntity
  8
0
  6
Continuous
 62
     7
370
    15
100
AcDbLine
 10
1633.254318314726
 20
1185.915966193539
 30
0.0
 11
1634.321456268778
 21
1188.215080658121
 31
0.0
1001
AcDbBlockRepETag
1070
     1
1071
      143
1005
F32
  0
SPLINE
  5
F33
330
B6A
100
AcDbEntity
  8
0
  6
Continuous
 62
     7
370
    15
100
AcDbSpline
210
0.0
220
0.0
230
1.0
 70
     8
 71
     3
 72
     8
 73
     4
 74
     0
 42
0.0000000001
 43
0.0000000001
 40
0.0000000000000026
 40
0.0000000000000026
 40
0.0000000000000026
 40
0.0000000000000026
 40
0.0001778594872775
 40
0.0001778594872775
 40
0.0001778594872775
 40
0.0001778594872775
 10
1626.636137613836
 20
1188.673435619064
 30
0.0
 10
1626.672560349101
 20
1188.718430755227
 30
0.0
 10
1626.708987515683
 20
1188.76341947296
 30
0.0
 10
1626.745419652357
 20
1188.808400975915
 30
0.0
1001
AcDbBlockRepETag
1070
     1
1071
      144
1005
F33
  0
LINE
  5
F34
330
B6A
100
AcDbEntity
  8
0
  6
Continuous
 62
     7
370
    15
100
AcDbLine
 10
1629.004945290223
 20
1190.112798570389
 30
0.0
 11
1626.745419814329
 21
1188.80840227801
 31
0.0
1001
AcDbBlockRepETag
1070
     1
1071
      145
1005
F34
  0
LINE
  5
F35
330
B6A
100
AcDbEntity
  8
0
  6
Continuous
 62
     7
370
    15
100
AcDbLine
 10
1629.004945290223
 20
1190.112798570389
 30
0.0
 11
1629.004945290223
 21
1189.296256103736
 31
0.0
1001
AcDbBlockRepETag
1070
     1
1071
      146
1005
F35
  0
ARC
  5
F36
330
B6A
100
AcDbEntity
  8
0
  6
Continuous
 62
     7
370
    15
100
AcDbCircle
 10
1629.97587162479
 20
1185.149617761631
 30
0.0
 40
7.275238922974081
100
AcDbArc
 50
79.55450286848848
 51
82.85941788902896
1001
AcDbBlockRepETag
1070
     1
1071
      147
1005
F36
  0
SPLINE
  5
F37
330
B6A
100
AcDbEntity
  8
0
  6
Continuous
 62
     7
370
    15
100
AcDbSpline
210
0.0
220
0.0
230
1.0
 70
     8
 71
     3
 72
     8
 73
     4
 74
     0
 42
0.0000000001
 43
0.0000000001
 40
0.0
 40
0.0
 40
0.0
 40
0.0
 40
1.0
 40
1.0
 40
1.0
 40
1.0
 10
1631.294873297406
 20
1192.304289793985
 30
0.0
 10
1631.622848205453
 20
1192.215127868472
 30
0.0
 10
1631.954869345417
 20
1192.098104400619
 30
0.0
 10
1632.292991863329
 20
1191.939068066358
 30
0.0
1001
AcDbBlockRepETag
1070
     1
1071
      148
1005
F37
  0
SPLINE
  5
F38
330
B6A
100
AcDbEntity
  8
0
  6
Continuous
 62
     7
370
    15
100
AcDbSpline
210
0.0
220
0.0
230
1.0
 70
     8
 71
     3
 72
     8
 73
     4
 74
     0
 42
0.0000000001
 43
0.0000000001
 40
0.0000000000000137
 40
0.0000000000000137
 40
0.0000000000000137
 40
0.0000000000000137
 40
0.0001778594872889
 40
0.0001778594872889
 40
0.0001778594872889
 40
0.0001778594872889
 10
1632.183709824811
 20
1191.947859067228
 30
0.0
 10
1632.220141961485
 20
1191.944941213928
 30
0.0
 10
1632.256569128066
 20
1191.942010407503
 30
0.0
 10
1632.292991863331
 20
1191.939068066357
 30
0.0
1001
AcDbBlockRepETag
1070
     1
1071
      149
1005
F38
  0
LWPOLYLINE
  5
F39
330
B6A
100
AcDbEntity
  8
0
  6
Continuous
 62
     7
370
    15
100
AcDbPolyline
 90
       32
 70
   128
 43
0.0
 10
1626.745419814329
 20
1188.80840227801
 10
1626.554144244896
 20
1188.979661863327
 10
1626.39047519051
 20
1189.160203480789
 10
1626.255752789246
 20
1189.34854865062
 10
1626.151081420241
 20
1189.543154264201
 10
1626.077317191357
 20
1189.742425890009
 10
1626.03506563427
 20
1189.944732029982
 10
1626.024672484845
 20
1190.148414764266
 10
1626.046222366052
 20
1190.351805718342
 10
1626.09953845869
 20
1190.553238418539
 10
1626.184186123385
 20
1190.751063688905
 10
1626.299469607863
 20
1190.943660295958
 10
1626.444445547118
 20
1191.129450725725
 10
1626.617926256128
 20
1191.306913349174
 10
1626.818490595846
 20
1191.474594017383
 10
1627.044495826996
 20
1191.631119367484
 10
1627.294090122422
 20
1191.77520708724
 10
1627.565229359971
 20
1191.90567713005
 10
1627.85569259829
 20
1192.021460648937
 10
1628.163099857528
 20
1192.121608740447
 10
1628.484933522029
 20
1192.205301758812
 10
1628.818556779584
 20
1192.271853497808
 10
1629.161236670486
 20
1192.320719174323
 10
1629.510166807313
 20
1192.351498279629
 10
1629.862488448356
 20
1192.363938761247
 10
1630.215315193037
 20
1192.357938733709
 10
1630.565757348054
 20
1192.333547238901
 10
1630.910943823989
 20
1192.290964341102
 10
1631.248046995361
 20
1192.230538750927
 10
1631.574305749684
 20
1192.152765164134
 10
1631.8870470548
 20
1192.05828112523
 10
1632.183709666481
 20
1191.947860184417
1001
AcDbBlockRepETag
1070
     1
1071
      150
1005
F39
  0
ARC
  5
F3A
330
B6A
100
AcDbEntity
  8
0
  6
Continuous
 62
     7
370
    15
100
AcDbCircle
 10
1627.221916898796
 20
1189.919300791345
 30
0.0
 40
1.812253800136937
100
AcDbArc
 50
200.7229789419287
 51
209.0739474271809
1001
AcDbBlockRepETag
1070
     1
1071
      151
1005
F3A
  0
SPLINE
  5
F3B
330
B6A
100
AcDbEntity
  8
0
  6
Continuous
 62
     7
370
    15
100
AcDbSpline
210
0.0
220
0.0
230
1.0
 70
     8
 71
     3
 72
    12
 73
     8
 74
     0
 42
0.0000000001
 43
0.0000000001
 40
0.0
 40
0.0
 40
0.0
 40
0.0
 40
0.5
 40
0.5
 40
0.75
 40
0.75
 40
1.0
 40
1.0
 40
1.0
 40
1.0
 10
1625.526911710763
 20
1189.278034446051
 30
0.0
 10
1625.701721194355
 20
1189.800526392927
 30
0.0
 10
1625.878600885579
 20
1190.270893648397
 30
0.0
 10
1626.148789815149
 20
1190.853840600549
 30
0.0
 10
1626.239667967305
 20
1191.027804111584
 30
0.0
 10
1626.41818358636
 20
1191.330795857067
 30
0.0
 10
1626.506470905853
 20
1191.461543277868
 30
0.0
 10
1626.594049971635
 20
1191.57714869046
 30
0.0
1001
AcDbBlockRepETag
1070
     1
1071
      152
1005
F3B
  0
ARC
  5
F3C
330
B6A
100
AcDbEntity
  8
0
  6
Continuous
 62
     7
370
    15
100
AcDbCircle
 10
1628.864595839945
 20
1187.994551482261
 30
0.0
 40
4.241507166783139
100
AcDbArc
 50
117.629293201268
 51
122.3653302660325
1001
AcDbBlockRepETag
1070
     1
1071
      153
1005
F3C
  0
SPLINE
  5
F3D
330
B6A
100
AcDbEntity
  8
0
  6
Continuous
 62
     7
370
    15
100
AcDbSpline
210
0.0
220
0.0
230
1.0
 70
     8
 71
     3
 72
    12
 73
     8
 74
     0
 42
0.0000000001
 43
0.0000000001
 40
0.0
 40
0.0
 40
0.0
 40
0.0
 40
0.4999999999999999
 40
0.4999999999999999
 40
0.75
 40
0.75
 40
1.0
 40
1.0
 40
1.0
 40
1.0
 10
1626.897600861795
 20
1191.752384889342
 30
0.0
 10
1627.549998736205
 20
1191.999170926765
 30
0.0
 10
1628.210122730678
 20
1192.190567184034
 30
0.0
 10
1629.218481543477
 20
1192.347377733171
 30
0.0
 10
1629.557643424621
 20
1192.378010098351
 30
0.0
 10
1630.22387278488
 20
1192.399450694023
 30
0.0
 10
1630.553365546894
 20
1192.390953176771
 30
0.0
 10
1630.880215070071
 20
1192.368430694444
 30
0.0
1001
AcDbBlockRepETag
1070
     1
1071
      154
1005
F3D
  0
LINE
  5
F3E
330
B6A
100
AcDbEntity
  8
0
  6
Continuous
 62
     7
370
    15
100
AcDbLine
 10
1632.183709666481
 20
1191.947860184417
 30
0.0
 11
1629.924183861314
 21
1190.643463701954
 31
0.0
1001
AcDbBlockRepETag
1070
     1
1071
      155
1005
F3E
  0
LINE
  5
F3F
330
B6A
100
AcDbEntity
  8
0
  6
Continuous
 62
     7
370
    15
100
AcDbLine
 10
1629.924183861314
 20
1190.643463701954
 30
0.0
 11
1628.898879123951
 21
1191.235359527977
 31
0.0
1001
AcDbBlockRepETag
1070
     1
1071
      156
1005
F3F
  0
LINE
  5
F40
330
B6A
100
AcDbEntity
  8
0
  6
Continuous
 62
     7
370
    15
100
AcDbLine
 10
1628.898879123951
 20
1191.235359527977
 30
0.0
 11
1627.97964055286
 21
1190.704694396411
 31
0.0
1001
AcDbBlockRepETag
1070
     1
1071
      157
1005
F40
  0
LINE
  5
F41
330
B6A
100
AcDbEntity
  8
0
  6
Continuous
 62
     7
370
    15
100
AcDbLine
 10
1627.97964055286
 20
1190.704694396411
 30
0.0
 11
1629.004945290223
 21
1190.112798570389
 31
0.0
1001
AcDbBlockRepETag
1070
     1
1071
      158
1005
F41
  0
ELLIPSE
  5
F42
330
B6A
100
AcDbEntity
  8
0
  6
Continuous
 62
     7
370
    15
100
AcDbEllipse
 10
1640.571784017704
 20
1181.270973241823
 30
0.0
 11
-0.8694786851597484
 21
2.460028750270481
 31
0.0
210
0.0
220
0.0
230
1.0
 40
0.6665152165798101
 41
4.835673788935188
 42
4.905497953918541
1001
AcDbBlockRepETag
1070
     1
1071
      159
1005
F42
  0
LINE
  5
F43
330
B6A
100
AcDbEntity
  8
0
  6
Continuous
 62
     7
370
    15
100
AcDbLine
 10
1640.691495048855
 20
1183.075347109149
 30
0.0
 11
1642.014090813997
 21
1182.311828825877
 31
0.0
1001
AcDbBlockRepETag
1070
     1
1071
      160
1005
F43
  0
LINE
  5
F44
330
B6A
100
AcDbEntity
  8
0
  6
Continuous
 62
     7
370
    15
100
AcDbLine
 10
1625.526911947758
 20
1187.111270713251
 30
0.0
 11
1625.526911947758
 21
1189.278034815272
 31
0.0
1001
AcDbBlockRepETag
1070
     1
1071
      161
1005
F44
  0
ARC
  5
F45
330
B6A
100
AcDbEntity
  8
0
  6
Continuous
 62
     7
370
    15
100
AcDbCircle
 10
1627.221916898799
 20
1187.752536689326
 30
0.0
 40
1.812253800140589
100
AcDbArc
 50
200.7229789419409
 51
209.0739474271809
1001
AcDbBlockRepETag
1070
     1
1071
      162
1005
F45
  0
LINE
  5
F46
330
B6A
100
AcDbEntity
  8
0
  6
Continuous
 62
     7
370
    15
100
AcDbLine
 10
1630.843423090949
 20
1190.112798190219
 30
0.0
 11
1630.843423090949
 21
1189.296255723566
 31
0.0
1001
AcDbBlockRepETag
1070
     1
1071
      163
1005
F46
  0
LINE
  5
F47
330
B6A
100
AcDbEntity
  8
0
  6
Continuous
 62
     7
370
    15
100
AcDbLine
 10
1633.813032743655
 20
1171.292806542349
 30
0.0
 11
1632.398818949474
 21
1170.476398296706
 31
0.0
1001
AcDbBlockRepETag
1070
     1
1071
      164
1005
F47
  0
LINE
  5
F48
330
B6A
100
AcDbEntity
  8
0
  6
Continuous
 62
     7
370
    15
100
AcDbLine
 10
1634.265883508747
 20
1171.602064653253
 30
0.0
 11
1633.813032743655
 21
1171.292806542349
 31
0.0
1001
AcDbBlockRepETag
1070
     1
1071
      165
1005
F48
  0
LINE
  5
F49
330
B6A
100
AcDbEntity
  8
0
  6
Continuous
 62
     7
370
    15
100
AcDbLine
 10
1639.469886767925
 20
1174.558438859621
 30
0.0
 11
1638.926736379898
 21
1174.844608635732
 31
0.0
1001
AcDbBlockRepETag
1070
     1
1071
      166
1005
F49
  0
ARC
  5
F4A
330
B6A
100
AcDbEntity
  8
0
  6
Continuous
 62
     7
370
    15
100
AcDbCircle
 10
1635.786269228242
 20
1167.132455213128
 30
0.0
 40
0.1952185809841589
100
AcDbArc
 50
24.86301394684365
 51
82.32957423946377
1001
AcDbBlockRepETag
1070
     1
1071
      167
1005
F4A
  0
LINE
  5
F4B
330
B6A
100
AcDbEntity
  8
0
  6
Continuous
 62
     7
370
    15
100
AcDbLine
 10
1635.981247236886
 20
1167.183611976648
 30
0.0
 11
1635.963394095275
 21
1167.214534905134
 31
0.0
1001
AcDbBlockRepETag
1070
     1
1071
      168
1005
F4B
  0
LINE
  5
F4C
330
B6A
100
AcDbEntity
  8
0
  6
Continuous
 62
     7
370
    15
100
AcDbLine
 10
1636.494254725694
 20
1166.908075586363
 30
0.0
 11
1636.39201569083
 21
1166.849035061026
 31
0.0
1001
AcDbBlockRepETag
1070
     1
1071
      169
1005
F4C
  0
LWPOLYLINE
  5
F4D
330
B6A
100
AcDbEntity
  8
0
  6
Continuous
 62
     7
370
    15
100
AcDbPolyline
 90
        9
 70
   128
 43
0.0
 10
1636.494254725694
 20
1166.908075586363
 10
1636.513407834164
 20
1166.915170220945
 10
1636.535260316573
 20
1166.916043001442
 10
1636.558971211583
 20
1166.910660768808
 10
1636.58362975214
 20
1166.899229903258
 10
1636.608288292696
 20
1166.882190623885
 10
1636.631999187707
 20
1166.860196839856
 10
1636.65385101157
 20
1166.834094100383
 10
1636.673004778585
 20
1166.804885377294
1001
AcDbBlockRepETag
1070
     1
1071
      170
1005
F4D
  0
LINE
  5
F4E
330
B6A
100
AcDbEntity
  8
0
  6
Continuous
 62
     7
370
    15
100
AcDbLine
 10
1636.854201324323
 20
1166.49104337461
 30
0.0
 11
1636.673004778585
 21
1166.804885377294
 31
0.0
1001
AcDbBlockRepETag
1070
     1
1071
      171
1005
F4E
  0
LINE
  5
F4F
330
B6A
100
AcDbEntity
  8
0
  6
Continuous
 62
     7
370
    15
100
AcDbLine
 10
1637.009934588115
 20
1166.386436544827
 30
0.0
 11
1636.999873345122
 21
1166.382070163523
 31
0.0
1001
AcDbBlockRepETag
1070
     1
1071
      172
1005
F4F
  0
LINE
  5
F50
330
B6A
100
AcDbEntity
  8
0
  6
Continuous
 62
     7
370
    15
100
AcDbLine
 10
1637.203864750459
 20
1166.498426438693
 30
0.0
 11
1637.009934588115
 21
1166.386436544827
 31
0.0
1001
AcDbBlockRepETag
1070
     1
1071
      173
1005
F50
  0
ARC
  5
F51
330
B6A
100
AcDbEntity
  8
0
  6
Continuous
 62
     7
370
    15
100
AcDbCircle
 10
1637.241433831134
 20
1166.394437515986
 30
0.0
 40
0.1105673182667479
100
AcDbArc
 50
40.14463338047803
 51
109.8637560597458
1001
AcDbBlockRepETag
1070
     1
1071
      174
1005
F51
  0
LINE
  5
F52
330
B6A
100
AcDbEntity
  8
0
  6
Continuous
 62
     7
370
    15
100
AcDbLine
 10
1637.325953633883
 20
1166.465722400863
 30
0.0
 11
1639.622507091828
 21
1164.429355532793
 31
0.0
1001
AcDbBlockRepETag
1070
     1
1071
      175
1005
F52
  0
LINE
  5
F53
330
B6A
100
AcDbEntity
  8
0
  6
Continuous
 62
     7
370
    15
100
AcDbLine
 10
1639.622507091828
 20
1164.429355532793
 30
0.0
 11
1639.622507091828
 21
1162.765834973424
 31
0.0
1001
AcDbBlockRepETag
1070
     1
1071
      176
1005
F53
  0
LINE
  5
F54
330
B6A
100
AcDbEntity
  8
0
  6
Continuous
 62
     7
370
    15
100
AcDbLine
 10
1639.370678354886
 20
1162.564647615865
 30
0.0
 11
1639.622507091828
 21
1162.765834973424
 31
0.0
1001
AcDbBlockRepETag
1070
     1
1071
      177
1005
F54
  0
LINE
  5
F55
330
B6A
100
AcDbEntity
  8
0
  6
Continuous
 62
     7
370
    15
100
AcDbLine
 10
1638.611344927046
 20
1162.926286927247
 30
0.0
 11
1639.370678354886
 21
1162.564647615865
 31
0.0
1001
AcDbBlockRepETag
1070
     1
1071
      178
1005
F55
  0
LINE
  5
F56
330
B6A
100
AcDbEntity
  8
0
  6
Continuous
 62
     7
370
    15
100
AcDbLine
 10
1638.611344927046
 20
1162.92338519097
 30
0.0
 11
1638.611344927046
 21
1162.926286927247
 31
0.0
1001
AcDbBlockRepETag
1070
     1
1071
      179
1005
F56
  0
LINE
  5
F57
330
B6A
100
AcDbEntity
  8
0
  6
Continuous
 62
     7
370
    15
100
AcDbLine
 10
1639.345479807833
 20
1160.795229569032
 30
0.0
 11
1638.806408444488
 21
1161.160890581205
 31
0.0
1001
AcDbBlockRepETag
1070
     1
1071
      180
1005
F57
  0
LINE
  5
F58
330
B6A
100
AcDbEntity
  8
0
  6
Continuous
 62
     7
370
    15
100
AcDbLine
 10
1639.622507091828
 20
1160.315404073127
 30
0.0
 11
1639.345479807833
 21
1160.795229569032
 31
0.0
1001
AcDbBlockRepETag
1070
     1
1071
      181
1005
F58
  0
LINE
  5
F59
330
B6A
100
AcDbEntity
  8
0
  6
Continuous
 62
     7
370
    15
100
AcDbLine
 10
1639.622507091828
 20
1159.249907134975
 30
0.0
 11
1639.622507091828
 21
1160.315404073127
 31
0.0
1001
AcDbBlockRepETag
1070
     1
1071
      182
1005
F59
  0
LINE
  5
F5A
330
B6A
100
AcDbEntity
  8
0
  6
Continuous
 62
     7
370
    15
100
AcDbLine
 10
1639.369716879905
 20
1159.103926536421
 30
0.0
 11
1639.622507091828
 21
1159.249907134975
 31
0.0
1001
AcDbBlockRepETag
1070
     1
1071
      183
1005
F5A
  0
LINE
  5
F5B
330
B6A
100
AcDbEntity
  8
0
  6
Continuous
 62
     7
370
    15
100
AcDbLine
 10
1639.369716879905
 20
1159.103926536421
 30
0.0
 11
1638.259205373559
 21
1159.745011183163
 31
0.0
1001
AcDbBlockRepETag
1070
     1
1071
      184
1005
F5B
  0
LINE
  5
F5C
330
B6A
100
AcDbEntity
  8
0
  6
Continuous
 62
     7
370
    15
100
AcDbLine
 10
1630.568711084808
 20
1165.010284742438
 30
0.0
 11
1630.740013328586
 21
1164.628851560632
 31
0.0
1001
AcDbBlockRepETag
1070
     1
1071
      185
1005
F5C
  0
LINE
  5
F5D
330
B6A
100
AcDbEntity
  8
0
  6
Continuous
 62
     7
370
    15
100
AcDbLine
 10
1630.568711084808
 20
1165.010284742438
 30
0.0
 11
1629.040626384119
 21
1165.066783556657
 31
0.0
1001
AcDbBlockRepETag
1070
     1
1071
      186
1005
F5D
  0
LINE
  5
F5E
330
B6A
100
AcDbEntity
  8
0
  6
Continuous
 62
     7
370
    15
100
AcDbLine
 10
1629.040626384119
 20
1165.066783556657
 30
0.0
 11
1626.541188500713
 21
1166.509678333869
 31
0.0
1001
AcDbBlockRepETag
1070
     1
1071
      187
1005
F5E
  0
LINE
  5
F5F
330
B6A
100
AcDbEntity
  8
0
  6
Continuous
 62
     7
370
    15
100
AcDbLine
 10
1626.541188500713
 20
1166.509678333869
 30
0.0
 11
1625.373598423443
 21
1169.519020371523
 31
0.0
1001
AcDbBlockRepETag
1070
     1
1071
      188
1005
F5F
  0
LINE
  5
F60
330
B6A
100
AcDbEntity
  8
0
  6
Continuous
 62
     7
370
    15
100
AcDbLine
 10
1626.385335785693
 20
1169.609484937431
 30
0.0
 11
1625.373598423443
 21
1169.519020371523
 31
0.0
1001
AcDbBlockRepETag
1070
     1
1071
      189
1005
F60
  0
LINE
  5
F61
330
B6A
100
AcDbEntity
  8
0
  6
Continuous
 62
     7
370
    15
100
AcDbLine
 10
1626.385335785693
 20
1169.609484937431
 30
0.0
 11
1626.310177294609
 21
1169.803198273275
 31
0.0
1001
AcDbBlockRepETag
1070
     1
1071
      190
1005
F61
  0
LINE
  5
F62
330
B6A
100
AcDbEntity
  8
0
  6
Continuous
 62
     7
370
    15
100
AcDbLine
 10
1625.403152748508
 20
1172.14095955357
 30
0.0
 11
1624.723413726398
 21
1173.89291629304
 31
0.0
1001
AcDbBlockRepETag
1070
     1
1071
      191
1005
F62
  0
LINE
  5
F63
330
B6A
100
AcDbEntity
  8
0
  6
Continuous
 62
     7
370
    15
100
AcDbLine
 10
1624.723413726398
 20
1173.89291629304
 30
0.0
 11
1624.723413726398
 21
1174.52033696189
 31
0.0
1001
AcDbBlockRepETag
1070
     1
1071
      192
1005
F63
  0
LINE
  5
F64
330
B6A
100
AcDbEntity
  8
0
  6
Continuous
 62
     7
370
    15
100
AcDbLine
 10
1639.810939066075
 20
1181.955142070507
 30
0.0
 11
1640.603581675129
 21
1181.497559232225
 31
0.0
1001
AcDbBlockRepETag
1070
     1
1071
      193
1005
F64
  0
LINE
  5
F65
330
B6A
100
AcDbEntity
  8
0
  6
Continuous
 62
     7
370
    15
100
AcDbLine
 10
1640.777898406392
 20
1181.109449017568
 30
0.0
 11
1640.603581675129
 21
1181.497559232225
 31
0.0
1001
AcDbBlockRepETag
1070
     1
1071
      194
1005
F65
  0
LINE
  5
F66
330
B6A
100
AcDbEntity
  8
0
  6
Continuous
 62
     7
370
    15
100
AcDbLine
 10
1640.777898406392
 20
1181.109449017568
 30
0.0
 11
1639.922737533017
 21
1174.867696970526
 31
0.0
1001
AcDbBlockRepETag
1070
     1
1071
      195
1005
F66
  0
LINE
  5
F67
330
B6A
100
AcDbEntity
  8
0
  6
Continuous
 62
     7
370
    15
100
AcDbLine
 10
1639.469886767925
 20
1174.558438859621
 30
0.0
 11
1639.922737533017
 21
1174.867696970526
 31
0.0
1001
AcDbBlockRepETag
1070
     1
1071
      196
1005
F67
  0
LINE
  5
F68
330
B6A
100
AcDbEntity
  8
0
  6
Continuous
 62
     7
370
    15
100
AcDbLine
 10
1642.192112035937
 20
1181.925857168168
 30
0.0
 11
1642.092063320106
 21
1182.148611695931
 31
0.0
1001
AcDbBlockRepETag
1070
     1
1071
      197
1005
F68
  0
LINE
  5
F69
330
B6A
100
AcDbEntity
  8
0
  6
Continuous
 62
     7
370
    15
100
AcDbLine
 10
1640.777898406392
 20
1181.109449017568
 30
0.0
 11
1642.192112035937
 21
1181.925857168168
 31
0.0
1001
AcDbBlockRepETag
1070
     1
1071
      198
1005
F69
  0
LINE
  5
F6A
330
B6A
100
AcDbEntity
  8
0
  6
Continuous
 62
     7
370
    15
100
AcDbLine
 10
1642.014090813997
 20
1182.311828825877
 30
0.0
 11
1640.603581675129
 21
1181.497559232225
 31
0.0
1001
AcDbBlockRepETag
1070
     1
1071
      199
1005
F6A
  0
LINE
  5
F6B
330
B6A
100
AcDbEntity
  8
0
  6
Continuous
 62
     7
370
    15
100
AcDbLine
 10
1642.192112035937
 20
1181.925857168168
 30
0.0
 11
1641.336951162562
 21
1175.684105121126
 31
0.0
1001
AcDbBlockRepETag
1070
     1
1071
      200
1005
F6B
  0
LINE
  5
F6C
330
B6A
100
AcDbEntity
  8
0
  6
Continuous
 62
     7
370
    15
100
AcDbLine
 10
1639.922737533017
 20
1174.867696970526
 30
0.0
 11
1641.336951162562
 21
1175.684105121126
 31
0.0
1001
AcDbBlockRepETag
1070
     1
1071
      201
1005
F6C
  0
LINE
  5
F6D
330
B6A
100
AcDbEntity
  8
0
  6
Continuous
 62
     7
370
    15
100
AcDbLine
 10
1629.924183861314
 20
1190.643463701954
 30
0.0
 11
1629.924183861314
 21
1189.826921235301
 31
0.0
1001
AcDbBlockRepETag
1070
     1
1071
      202
1005
F6D
  0
LINE
  5
F6E
330
B6A
100
AcDbEntity
  8
0
  6
Continuous
 62
     7
370
    15
100
AcDbLine
 10
1632.292991670222
 20
1191.939068389852
 30
0.0
 11
1632.292991670222
 21
1191.194404875676
 31
0.0
1001
AcDbBlockRepETag
1070
     1
1071
      203
1005
F6E
  0
LINE
  5
F6F
330
B6A
100
AcDbEntity
  8
0
  6
Continuous
 62
     7
370
    15
100
AcDbLine
 10
1628.898879123951
 20
1191.235359527977
 30
0.0
 11
1628.898879123951
 21
1190.418817061324
 31
0.0
1001
AcDbBlockRepETag
1070
     1
1071
      204
1005
F6F
  0
ARC
  5
F70
330
B6A
100
AcDbEntity
  8
0
  6
Continuous
 62
     7
370
    15
100
AcDbCircle
 10
1637.955064261315
 20
1174.219013774363
 30
0.0
 40
0.9134055119075485
100
AcDbArc
 50
303.6624099718982
 51
359.6855139596835
1001
AcDbBlockRepETag
1070
     1
1071
      205
1005
F70
  0
LINE
  5
F71
330
B6A
100
AcDbEntity
  8
0
  6
Continuous
 62
     7
370
    15
100
AcDbLine
 10
1620.188160439443
 20
1186.29573444287
 30
0.0
 11
1619.919613891622
 21
1186.140705820689
 31
0.0
1001
AcDbBlockRepETag
1070
     1
1071
      206
1005
F71
  0
LINE
  5
F72
330
B6A
100
AcDbEntity
  8
0
  6
Continuous
 62
     7
370
    15
100
AcDbLine
 10
1619.919613891622
 20
1186.140705820689
 30
0.0
 11
1619.777058556184
 21
1187.847765212481
 31
0.0
1001
AcDbBlockRepETag
1070
     1
1071
      207
1005
F72
  0
LINE
  5
F73
330
B6A
100
AcDbEntity
  8
0
  6
Continuous
 62
     7
370
    15
100
AcDbLine
 10
1619.777058556184
 20
1187.847765212481
 30
0.0
 11
1626.989547572953
 21
1192.011446495413
 31
0.0
1001
AcDbBlockRepETag
1070
     1
1071
      208
1005
F73
  0
LINE
  5
F74
330
B6A
100
AcDbEntity
  8
0
  6
Continuous
 62
     7
370
    15
100
AcDbLine
 10
1626.989547572953
 20
1192.011446495413
 30
0.0
 11
1627.007942984808
 21
1191.79116591016
 31
0.0
1001
AcDbBlockRepETag
1070
     1
1071
      209
1005
F74
  0
LINE
  5
F75
330
B6A
100
AcDbEntity
  8
0
  6
Continuous
 62
     7
370
    15
100
AcDbLine
 10
1619.919613891622
 20
1186.140705820689
 30
0.0
 11
1619.216939904569
 21
1186.464138756775
 31
0.0
1001
AcDbBlockRepETag
1070
     1
1071
      210
1005
F75
  0
LINE
  5
F76
330
B6A
100
AcDbEntity
  8
0
  6
Continuous
 62
     7
370
    15
100
AcDbLine
 10
1619.074384527972
 20
1188.171198172327
 30
0.0
 11
1619.216939904569
 21
1186.464138756775
 31
0.0
1001
AcDbBlockRepETag
1070
     1
1071
      211
1005
F76
  0
LINE
  5
F77
330
B6A
100
AcDbEntity
  8
0
  6
Continuous
 62
     7
370
    15
100
AcDbLine
 10
1619.074384527972
 20
1188.171198172327
 30
0.0
 11
1619.777058556184
 21
1187.847765212481
 31
0.0
1001
AcDbBlockRepETag
1070
     1
1071
      212
1005
F77
  0
LINE
  5
F78
330
B6A
100
AcDbEntity
  8
0
  6
Continuous
 62
     7
370
    15
100
AcDbLine
 10
1626.286873544741
 20
1192.33487945526
 30
0.0
 11
1626.989547572953
 21
1192.011446495413
 31
0.0
1001
AcDbBlockRepETag
1070
     1
1071
      213
1005
F78
  0
LINE
  5
F79
330
B6A
100
AcDbEntity
  8
0
  6
Continuous
 62
     7
370
    15
100
AcDbLine
 10
1626.286873544741
 20
1192.33487945526
 30
0.0
 11
1619.074384527972
 21
1188.171198172327
 31
0.0
1001
AcDbBlockRepETag
1070
     1
1071
      214
1005
F79
  0
LINE
  5
F7A
330
B6A
100
AcDbEntity
  8
0
  6
Continuous
 62
     7
370
    15
100
AcDbLine
 10
1617.945291859062
 20
1186.418107302672
 30
0.0
 11
1619.162122083498
 21
1187.120568438933
 31
0.0
1001
AcDbBlockRepETag
1070
     1
1071
      215
1005
F7A
  0
LINE
  5
F7B
330
B6A
100
AcDbEntity
  8
0
  6
Continuous
 62
     7
370
    15
100
AcDbLine
 10
1640.88410039747
 20
1175.374847010222
 30
0.0
 11
1639.469886767925
 21
1174.558438859621
 31
0.0
1001
AcDbBlockRepETag
1070
     1
1071
      216
1005
F7B
  0
LINE
  5
F7C
330
B6A
100
AcDbEntity
  8
0
  6
Continuous
 62
     7
370
    15
100
AcDbLine
 10
1641.336951162562
 20
1175.684105121126
 30
0.0
 11
1640.88410039747
 21
1175.374847010222
 31
0.0
1001
AcDbBlockRepETag
1070
     1
1071
      217
1005
F7C
  0
LINE
  5
F7D
330
B6A
100
AcDbEntity
  8
0
  6
Continuous
 62
     7
370
    15
100
AcDbLine
 10
1633.965653067558
 20
1161.16372321552
 30
0.0
 11
1632.551439273377
 21
1160.347314969878
 31
0.0
1001
AcDbBlockRepETag
1070
     1
1071
      218
1005
F7D
  0
LINE
  5
F7E
330
B6A
100
AcDbEntity
  8
0
  6
Continuous
 62
     7
370
    15
100
AcDbLine
 10
1630.254885815432
 20
1162.383681837948
 30
0.0
 11
1631.669099609613
 21
1163.20009008359
 31
0.0
1001
AcDbBlockRepETag
1070
     1
1071
      219
1005
F7E
  0
LINE
  5
F7F
330
B6A
100
AcDbEntity
  8
0
  6
Continuous
 62
     7
370
    15
100
AcDbLine
 10
1633.965653067558
 20
1161.16372321552
 30
0.0
 11
1631.669099609613
 21
1163.20009008359
 31
0.0
1001
AcDbBlockRepETag
1070
     1
1071
      220
1005
F7F
  0
ELLIPSE
  5
F80
330
B6A
100
AcDbEntity
  8
0
  6
Continuous
 62
     7
370
    15
100
AcDbEllipse
 10
1647.003868781721
 20
1176.947270688795
 30
0.0
 11
16.96035847926168
 21
-11.05760153533967
 31
0.0
210
0.0
220
0.0
230
1.0
 40
0.7162356471594333
 41
4.286648105075516
 42
4.339031928350161
1001
AcDbBlockRepETag
1070
     1
1071
      221
1005
F80
  0
LWPOLYLINE
  5
F81
330
B6A
100
AcDbEntity
  8
0
  6
Continuous
 62
     7
370
    15
100
AcDbPolyline
 90
        4
 70
   128
 43
0.0
 10
1633.443457071867
 20
1169.66971441474
 10
1633.675706622041
 20
1169.413437144549
 10
1633.861562534809
 20
1169.208357176776
 10
1634.047395727792
 20
1169.003263332811
1001
AcDbBlockRepETag
1070
     1
1071
      222
1005
F81
  0
ELLIPSE
  5
F82
330
B6A
100
AcDbEntity
  8
0
  6
Continuous
 62
     7
370
    15
100
AcDbEllipse
 10
1644.596303496416
 20
1175.486160179795
 30
0.0
 11
13.82114003824389
 21
-9.010933318060553
 31
0.0
210
0.0
220
0.0
230
1.0
 40
0.7162356471594331
 41
4.38561118133572
 42
4.724021768650029
1001
AcDbBlockRepETag
1070
     1
1071
      223
1005
F82
  0
LINE
  5
F83
330
B6A
100
AcDbEntity
  8
0
  6
Continuous
 62
     7
370
    15
100
AcDbLine
 10
1638.30356312062
 20
1165.482817217011
 30
0.0
 11
1633.332904406497
 21
1162.613317020377
 31
0.0
1001
AcDbBlockRepETag
1070
     1
1071
      224
1005
F83
  0
ELLIPSE
  5
F84
330
B6A
100
AcDbEntity
  8
0
  6
Continuous
 62
     7
370
    15
100
AcDbEllipse
 10
1619.41680568523
 20
1160.956316225245
 30
0.0
 11
13.84344173995899
 21
-9.02547330148289
 31
0.0
210
0.0
220
0.0
230
1.0
 40
0.7162356471594342
 41
0.8623613306119249
 42
1.200232848347214
1001
AcDbBlockRepETag
1070
     1
1071
      225
1005
F84
  0
SPLINE
  5
F85
330
B6A
100
AcDbEntity
  8
0
  6
Continuous
 62
     7
370
    15
100
AcDbSpline
210
0.0
220
0.0
230
1.0
 70
     8
 71
     3
 72
    14
 73
    10
 74
     0
 42
0.0000000001
 43
0.0000000001
 40
0.0
 40
0.0
 40
0.0
 40
0.0
 40
0.0003613767246407
 40
0.0003613767246407
 40
0.0003613767246407
 40
0.0006505237187482
 40
0.0006505237187482
 40
0.0006505237187482
 40
0.0009396707129638
 40
0.0009396707129638
 40
0.0009396707129638
 40
0.0009396707129638
 10
1630.455666428915
 20
1166.929983831725
 30
0.0
 10
1630.377794102789
 20
1167.015133845435
 30
0.0
 10
1630.299935536658
 20
1167.100291861941
 30
0.0
 10
1630.222080787204
 20
1167.185452095642
 30
0.0
 10
1630.159787160302
 20
1167.253591032088
 30
0.0
 10
1630.097496207672
 20
1167.321731523031
 30
0.0
 10
1630.035204231823
 20
1167.389871419193
 30
0.0
 10
1629.972912255986
 20
1167.458011315342
 30
0.0
 10
1629.910619373155
 20
1167.526150684517
 30
0.0
 10
1629.848321471322
 20
1167.594287135749
 30
0.0
1001
AcDbBlockRepETag
1070
     1
1071
      226
1005
F85
  0
ELLIPSE
  5
F86
330
B6A
100
AcDbEntity
  8
0
  6
Continuous
 62
     7
370
    15
100
AcDbEllipse
 10
1616.945105081422
 20
1159.594715763366
 30
0.0
 11
16.96035847927035
 21
-11.0576015353453
 31
0.0
210
0.0
220
0.0
230
1.0
 40
0.7162356471594349
 41
1.247096883388499
 42
1.361112772389387
1001
AcDbBlockRepETag
1070
     1
1071
      227
1005
F86
  0
LINE
  5
F87
330
B6A
100
AcDbEntity
  8
0
  6
Continuous
 62
     7
370
    15
100
AcDbLine
 10
1628.221789014807
 20
1169.174613685597
 30
0.0
 11
1631.393923164958
 21
1171.005847751566
 31
0.0
1001
AcDbBlockRepETag
1070
     1
1071
      228
1005
F87
  0
LINE
  5
F88
330
B6A
100
AcDbEntity
  8
0
  6
Continuous
 62
     7
370
    15
100
AcDbLine
 10
1633.965653067558
 20
1159.500202656151
 30
0.0
 11
1632.551439273377
 21
1158.683794410509
 31
0.0
1001
AcDbBlockRepETag
1070
     1
1071
      229
1005
F88
  0
LINE
  5
F89
330
B6A
100
AcDbEntity
  8
0
  6
Continuous
 62
     7
370
    15
100
AcDbLine
 10
1633.965653067558
 20
1159.500202656151
 30
0.0
 11
1633.965653067558
 21
1161.16372321552
 31
0.0
1001
AcDbBlockRepETag
1070
     1
1071
      230
1005
F89
  0
SPLINE
  5
F8A
330
B6A
100
AcDbEntity
  8
0
  6
Continuous
 62
     7
370
    15
100
AcDbSpline
210
0.0
220
0.0
230
1.0
 70
     8
 71
     3
 72
    10
 73
     6
 74
     0
 42
0.0000000001
 43
0.0000000001
 40
0.0
 40
0.0
 40
0.0
 40
0.0
 40
0.5
 40
0.5
 40
1.0
 40
1.0
 40
1.0
 40
1.0
 10
1633.332904480364
 20
1162.613316616743
 30
0.0
 10
1633.365592793462
 20
1162.536733967032
 30
0.0
 10
1633.392920080253
 20
1162.450340765589
 30
0.0
 10
1633.430854310142
 20
1162.277825781029
 30
0.0
 10
1633.441384783543
 20
1162.191894934347
 30
0.0
 10
1633.441384783543
 20
1162.118266391655
 30
0.0
1001
AcDbBlockRepETag
1070
     1
1071
      231
1005
F8A
  0
LINE
  5
F8B
330
B6A
100
AcDbEntity
  8
0
  6
Continuous
 62
     7
370
    15
100
AcDbLine
 10
1633.441385126208
 20
1162.118266506797
 30
0.0
 11
1633.441385126208
 21
1161.628594565133
 31
0.0
1001
AcDbBlockRepETag
1070
     1
1071
      232
1005
F8B
  0
LINE
  5
F8C
330
B6A
100
AcDbEntity
  8
0
  6
Continuous
 62
     7
370
    15
100
AcDbLine
 10
1633.31078323793
 20
1162.287793659007
 30
0.0
 11
1633.31078323793
 21
1161.744399957089
 31
0.0
1001
AcDbBlockRepETag
1070
     1
1071
      233
1005
F8C
  0
SPLINE
  5
F8D
330
B6A
100
AcDbEntity
  8
0
  6
Continuous
 62
     7
370
    15
100
AcDbSpline
210
0.0
220
0.0
230
1.0
 70
     8
 71
     3
 72
     8
 73
     4
 74
     0
 42
0.0000000001
 43
0.0000000001
 40
0.0
 40
0.0
 40
0.0
 40
0.0
 40
1.0
 40
1.0
 40
1.0
 40
1.0
 10
1633.310782755521
 20
1162.287793879252
 30
0.0
 10
1633.310782755521
 20
1162.346430258884
 30
0.0
 10
1633.292741237686
 20
1162.42416250297
 30
0.0
 10
1633.266118116953
 20
1162.485079360688
 30
0.0
1001
AcDbBlockRepETag
1070
     1
1071
      234
1005
F8D
  0
LINE
  5
F8E
330
B6A
100
AcDbEntity
  8
0
  6
Continuous
 62
     7
370
    15
100
AcDbLine
 10
1630.455666157748
 20
1166.662543367088
 30
0.0
 11
1630.455666157748
 21
1166.92998371713
 31
0.0
1001
AcDbBlockRepETag
1070
     1
1071
      235
1005
F8E
  0
ELLIPSE
  5
F8F
330
B6A
100
AcDbEntity
  8
0
  6
Continuous
 62
     7
370
    15
100
AcDbEllipse
 10
1619.41680568523
 20
1160.688875842485
 30
0.0
 11
13.84344173995865
 21
-9.025473301483941
 31
0.0
210
0.0
220
0.0
230
1.0
 40
0.7162356471594298
 41
0.8728307842894547
 42
1.200232848347266
1001
AcDbBlockRepETag
1070
     1
1071
      236
1005
F8F
  0
LINE
  5
F90
330
B6A
100
AcDbEntity
  8
0
  6
Continuous
 62
     7
370
    15
100
AcDbLine
 10
1639.954847525262
 20
1161.823870844582
 30
0.0
 11
1638.575989318774
 21
1161.027872945268
 31
0.0
1001
AcDbBlockRepETag
1070
     1
1071
      237
1005
F90
  0
LINE
  5
F91
330
B6A
100
AcDbEntity
  8
0
  6
Continuous
 62
     7
370
    15
100
AcDbLine
 10
1638.575989318774
 20
1161.027872945268
 30
0.0
 11
1638.575989318774
 21
1160.097016437293
 31
0.0
1001
AcDbBlockRepETag
1070
     1
1071
      238
1005
F91
  0
LINE
  5
F92
330
B6A
100
AcDbEntity
  8
0
  6
Continuous
 62
     7
370
    15
100
AcDbLine
 10
1633.414109529777
 20
1157.715805613955
 30
0.0
 11
1633.414109529777
 21
1158.047983171817
 31
0.0
1001
AcDbBlockRepETag
1070
     1
1071
      239
1005
F92
  0
LINE
  5
F93
330
B6A
100
AcDbEntity
  8
0
  6
Continuous
 62
     7
370
    15
100
AcDbLine
 10
1633.414109529777
 20
1158.047983171817
 30
0.0
 11
1632.035251673141
 21
1157.251985474468
 31
0.0
1001
AcDbBlockRepETag
1070
     1
1071
      240
1005
F93
  0
LINE
  5
F94
330
B6A
100
AcDbEntity
  8
0
  6
Continuous
 62
     7
370
    15
100
AcDbLine
 10
1632.035251673141
 20
1157.251985474468
 30
0.0
 11
1632.035251673141
 21
1158.608510491684
 31
0.0
1001
AcDbBlockRepETag
1070
     1
1071
      241
1005
F94
  0
LINE
  5
F95
330
B6A
100
AcDbEntity
  8
0
  6
Continuous
 62
     7
370
    15
100
AcDbLine
 10
1633.441385126208
 20
1162.118266506797
 30
0.0
 11
1638.548691167193
 21
1165.066651526117
 31
0.0
1001
AcDbBlockRepETag
1070
     1
1071
      242
1005
F95
  0
LINE
  5
F96
330
B6A
100
AcDbEntity
  8
0
  6
Continuous
 62
     7
370
    15
100
AcDbLine
 10
1638.548691167193
 20
1162.642293927801
 30
0.0
 11
1638.548691167193
 21
1165.066651526117
 31
0.0
1001
AcDbBlockRepETag
1070
     1
1071
      243
1005
F96
  0
LINE
  5
F97
330
B6A
100
AcDbEntity
  8
0
  6
Continuous
 62
     7
370
    15
100
AcDbLine
 10
1638.548691167193
 20
1162.642293927801
 30
0.0
 11
1638.84657307403
 21
1162.814257492271
 31
0.0
1001
AcDbBlockRepETag
1070
     1
1071
      244
1005
F97
  0
LINE
  5
F98
330
B6A
100
AcDbEntity
  8
0
  6
Continuous
 62
     7
370
    15
100
AcDbLine
 10
1639.954847525262
 20
1162.901881080786
 30
0.0
 11
1639.954847525262
 21
1161.823870844582
 31
0.0
1001
AcDbBlockRepETag
1070
     1
1071
      245
1005
F98
  0
LINE
  5
F99
330
B6A
100
AcDbEntity
  8
0
  6
Continuous
 62
     7
370
    15
100
AcDbLine
 10
1633.713824330616
 20
1159.299015298592
 30
0.0
 11
1632.299610536436
 21
1158.48260705295
 31
0.0
1001
AcDbBlockRepETag
1070
     1
1071
      246
1005
F99
  0
LINE
  5
F9A
330
B6A
100
AcDbEntity
  8
0
  6
Continuous
 62
     7
370
    15
100
AcDbLine
 10
1633.965653067558
 20
1159.500202656151
 30
0.0
 11
1633.713824330616
 21
1159.299015298592
 31
0.0
1001
AcDbBlockRepETag
1070
     1
1071
      247
1005
F9A
  0
LINE
  5
F9B
330
B6A
100
AcDbEntity
  8
0
  6
Continuous
 62
     7
370
    15
100
AcDbLine
 10
1624.064743930323
 20
1167.399070883032
 30
0.0
 11
1622.650530136142
 21
1166.58266263739
 31
0.0
1001
AcDbBlockRepETag
1070
     1
1071
      248
1005
F9B
  0
LINE
  5
F9C
330
B6A
100
AcDbEntity
  8
0
  6
Continuous
 62
     7
370
    15
100
AcDbLine
 10
1624.064743930323
 20
1167.399070883032
 30
0.0
 11
1624.064743930323
 21
1174.867370471872
 31
0.0
1001
AcDbBlockRepETag
1070
     1
1071
      249
1005
F9C
  0
LINE
  5
F9D
330
B6A
100
AcDbEntity
  8
0
  6
Continuous
 62
     7
370
    15
100
AcDbLine
 10
1631.547010726189
 20
1163.232794121421
 30
0.0
 11
1630.132796932008
 21
1162.416385875778
 31
0.0
1001
AcDbBlockRepETag
1070
     1
1071
      250
1005
F9D
  0
ARC
  5
F9E
330
B6A
100
AcDbEntity
  8
0
  6
Continuous
 62
     7
370
    15
100
AcDbCircle
 10
1631.584579806864
 20
1163.128805198713
 30
0.0
 40
0.1105673182666603
100
AcDbArc
 50
40.14463338046963
 51
109.8637560597914
1001
AcDbBlockRepETag
1070
     1
1071
      251
1005
F9E
  0
SPLINE
  5
F9F
330
B6A
100
AcDbEntity
  8
0
  6
Continuous
 62
     7
370
    15
100
AcDbSpline
210
0.0
220
0.0
230
1.0
 70
     8
 71
     3
 72
    10
 73
     6
 74
     0
 42
0.0000000001
 43
0.0000000001
 40
0.0
 40
0.0
 40
0.0
 40
0.0
 40
0.5
 40
0.5
 40
1.0
 40
1.0
 40
1.0
 40
1.0
 10
1638.548691100536
 20
1165.066651570312
 30
0.0
 10
1638.548691100536
 20
1165.140079257053
 30
0.0
 10
1638.524318246894
 20
1165.217900360921
 30
0.0
 10
1638.43758235145
 20
1165.362547205666
 30
0.0
 10
1638.375536973589
 20
1165.42914237858
 30
0.0
 10
1638.303563284517
 20
1165.48281686535
 30
0.0
1001
AcDbBlockRepETag
1070
     1
1071
      252
1005
F9F
  0
LINE
  5
FA0
330
B6A
100
AcDbEntity
  8
0
  6
Continuous
 62
     7
370
    15
100
AcDbLine
 10
1629.795867122478
 20
1162.386947921065
 30
0.0
 11
1631.210080916659
 21
1163.203356166707
 31
0.0
1001
AcDbBlockRepETag
1070
     1
1071
      253
1005
FA0
  0
LINE
  5
FA1
330
B6A
100
AcDbEntity
  8
0
  6
Continuous
 62
     7
370
    15
100
AcDbLine
 10
1629.601936960134
 20
1162.722844814379
 30
0.0
 11
1631.016150754315
 21
1163.539253060022
 31
0.0
1001
AcDbBlockRepETag
1070
     1
1071
      254
1005
FA1
  0
LINE
  5
FA2
330
B6A
100
AcDbEntity
  8
0
  6
Continuous
 62
     7
370
    15
100
AcDbLine
 10
1631.016150754315
 20
1163.539253060022
 30
0.0
 11
1631.210080916659
 21
1163.203356166707
 31
0.0
1001
AcDbBlockRepETag
1070
     1
1071
      255
1005
FA2
  0
LWPOLYLINE
  5
FA3
330
B6A
100
AcDbEntity
  8
0
  6
Continuous
 62
     7
370
    15
100
AcDbPolyline
 90
        9
 70
   128
 43
0.0
 10
1631.210080916659
 20
1163.203356166707
 10
1631.225403271726
 20
1163.179989340268
 10
1631.242884994235
 20
1163.159107148714
 10
1631.261853710243
 20
1163.141512197537
 10
1631.28158041098
 20
1163.127880469841
 10
1631.301307770261
 20
1163.118735853497
 10
1631.320276486269
 20
1163.114429991343
 10
1631.337757550233
 20
1163.115128595886
 10
1631.351558008942
 20
1163.119961111573
1001
AcDbBlockRepETag
1070
     1
1071
      256
1005
FA3
  0
LINE
  5
FA4
330
B6A
100
AcDbEntity
  8
0
  6
Continuous
 62
     7
370
    15
100
AcDbLine
 10
1630.837400701424
 20
1163.64244326909
 30
0.0
 11
1629.423186907243
 21
1162.826035023448
 31
0.0
1001
AcDbBlockRepETag
1070
     1
1071
      257
1005
FA4
  0
LWPOLYLINE
  5
FA5
330
B6A
100
AcDbEntity
  8
0
  6
Continuous
 62
     7
370
    15
100
AcDbPolyline
 90
        9
 70
   128
 43
0.0
 10
1631.016150754315
 20
1163.539253060022
 10
1630.9969969873
 20
1163.56846178311
 10
1630.975145163436
 20
1163.594564522583
 10
1630.951434268426
 20
1163.616558306612
 10
1630.926775727869
 20
1163.633597585985
 10
1630.902117187313
 20
1163.645028451536
 10
1630.878406292302
 20
1163.650410684169
 10
1630.856553809894
 20
1163.649537903673
 10
1630.837400701424
 20
1163.64244326909
1001
AcDbBlockRepETag
1070
     1
1071
      258
1005
FA5
  0
LINE
  5
FA6
330
B6A
100
AcDbEntity
  8
0
  6
Continuous
 62
     7
370
    15
100
AcDbLine
 10
1631.82311999914
 20
1158.709540135228
 30
0.0
 11
1631.82311999914
 21
1157.374446483213
 31
0.0
1001
AcDbBlockRepETag
1070
     1
1071
      259
1005
FA6
  0
LINE
  5
FA7
330
B6A
100
AcDbEntity
  8
0
  6
Continuous
 62
     7
370
    15
100
AcDbLine
 10
1631.540277108595
 20
1157.211164758051
 30
0.0
 11
1631.82311999914
 21
1157.374446483213
 31
0.0
1001
AcDbBlockRepETag
1070
     1
1071
      260
1005
FA7
  0
LINE
  5
FA8
330
B6A
100
AcDbEntity
  8
0
  6
Continuous
 62
     7
370
    15
100
AcDbLine
 10
1629.086256439169
 20
1162.796597448904
 30
0.0
 11
1630.500470233349
 21
1163.613005694547
 31
0.0
1001
AcDbBlockRepETag
1070
     1
1071
      261
1005
FA8
  0
LINE
  5
FA9
330
B6A
100
AcDbEntity
  8
0
  6
Continuous
 62
     7
370
    15
100
AcDbLine
 10
1628.892326276824
 20
1163.132494342219
 30
0.0
 11
1630.306540071005
 21
1163.948902587861
 31
0.0
1001
AcDbBlockRepETag
1070
     1
1071
      262
1005
FA9
  0
LINE
  5
FAA
330
B6A
100
AcDbEntity
  8
0
  6
Continuous
 62
     7
370
    15
100
AcDbLine
 10
1630.306540071005
 20
1163.948902587861
 30
0.0
 11
1630.500470233349
 21
1163.613005694547
 31
0.0
1001
AcDbBlockRepETag
1070
     1
1071
      263
1005
FAA
  0
LINE
  5
FAB
330
B6A
100
AcDbEntity
  8
0
  6
Continuous
 62
     7
370
    15
100
AcDbLine
 10
1631.82311999914
 20
1157.374446483213
 30
0.0
 11
1632.035251673141
 21
1157.251985474468
 31
0.0
1001
AcDbBlockRepETag
1070
     1
1071
      264
1005
FAB
  0
LWPOLYLINE
  5
FAC
330
B6A
100
AcDbEntity
  8
0
  6
Continuous
 62
     7
370
    15
100
AcDbPolyline
 90
        9
 70
   128
 43
0.0
 10
1630.500470233349
 20
1163.613005694547
 10
1630.515793246961
 20
1163.589638487938
 10
1630.53327496947
 20
1163.568756296384
 10
1630.552243685478
 20
1163.551161345206
 10
1630.571970386214
 20
1163.537529617511
 10
1630.591697086951
 20
1163.528385381336
 10
1630.610665802959
 20
1163.524079519183
 10
1630.628147525468
 20
1163.524777743555
 10
1630.641947325633
 20
1163.529610639413
1001
AcDbBlockRepETag
1070
     1
1071
      265
1005
FAC
  0
LINE
  5
FAD
330
B6A
100
AcDbEntity
  8
0
  6
Continuous
 62
     7
370
    15
100
AcDbLine
 10
1630.127790018114
 20
1164.05209279693
 30
0.0
 11
1628.713576223933
 21
1163.235684551287
 31
0.0
1001
AcDbBlockRepETag
1070
     1
1071
      266
1005
FAD
  0
LWPOLYLINE
  5
FAE
330
B6A
100
AcDbEntity
  8
0
  6
Continuous
 62
     7
370
    15
100
AcDbPolyline
 90
        9
 70
   128
 43
0.0
 10
1630.306540071005
 20
1163.948902587861
 10
1630.28738630399
 20
1163.978111310949
 10
1630.265534480126
 20
1164.004214050422
 10
1630.241823585117
 20
1164.026207834452
 10
1630.21716504456
 20
1164.043247113824
 10
1630.192506504003
 20
1164.054677979375
 10
1630.168795608993
 20
1164.060060212009
 10
1630.146943785129
 20
1164.059187051342
 10
1630.127790018114
 20
1164.05209279693
1001
AcDbBlockRepETag
1070
     1
1071
      267
1005
FAE
  0
LINE
  5
FAF
330
B6A
100
AcDbEntity
  8
0
  6
Continuous
 62
     7
370
    15
100
AcDbLine
 10
1632.551439273377
 20
1156.233363510212
 30
0.0
 11
1633.965653067558
 21
1157.049771755854
 31
0.0
1001
AcDbBlockRepETag
1070
     1
1071
      268
1005
FAF
  0
LINE
  5
FB0
330
B6A
100
AcDbEntity
  8
0
  6
Continuous
 62
     7
370
    15
100
AcDbLine
 10
1632.274411989382
 20
1156.713189006117
 30
0.0
 11
1633.688625783563
 21
1157.52959725176
 31
0.0
1001
AcDbBlockRepETag
1070
     1
1071
      269
1005
FB0
  0
LINE
  5
FB1
330
B6A
100
AcDbEntity
  8
0
  6
Continuous
 62
     7
370
    15
100
AcDbLine
 10
1633.688625783563
 20
1157.52959725176
 30
0.0
 11
1633.965653067558
 21
1157.049771755854
 31
0.0
1001
AcDbBlockRepETag
1070
     1
1071
      270
1005
FB1
  0
LINE
  5
FB2
330
B6A
100
AcDbEntity
  8
0
  6
Continuous
 62
     7
370
    15
100
AcDbLine
 10
1633.149554420218
 20
1157.895258263932
 30
0.0
 11
1633.688625783563
 21
1157.52959725176
 31
0.0
1001
AcDbBlockRepETag
1070
     1
1071
      271
1005
FB2
  0
LINE
  5
FB3
330
B6A
100
AcDbEntity
  8
0
  6
Continuous
 62
     7
370
    15
100
AcDbLine
 10
1632.551439273377
 20
1155.167866572059
 30
0.0
 11
1633.965653067558
 21
1155.984274817702
 31
0.0
1001
AcDbBlockRepETag
1070
     1
1071
      272
1005
FB3
  0
LINE
  5
FB4
330
B6A
100
AcDbEntity
  8
0
  6
Continuous
 62
     7
370
    15
100
AcDbLine
 10
1633.965653067558
 20
1157.049771755854
 30
0.0
 11
1633.965653067558
 21
1155.984274817702
 31
0.0
1001
AcDbBlockRepETag
1070
     1
1071
      273
1005
FB4
  0
LINE
  5
FB5
330
B6A
100
AcDbEntity
  8
0
  6
Continuous
 62
     7
370
    15
100
AcDbLine
 10
1628.376645755859
 20
1163.206246976744
 30
0.0
 11
1629.790859550039
 21
1164.022655222386
 31
0.0
1001
AcDbBlockRepETag
1070
     1
1071
      274
1005
FB5
  0
LINE
  5
FB6
330
B6A
100
AcDbEntity
  8
0
  6
Continuous
 62
     7
370
    15
100
AcDbLine
 10
1628.182715593515
 20
1163.542143870058
 30
0.0
 11
1629.596929387695
 21
1164.358552115701
 31
0.0
1001
AcDbBlockRepETag
1070
     1
1071
      275
1005
FB6
  0
LINE
  5
FB7
330
B6A
100
AcDbEntity
  8
0
  6
Continuous
 62
     7
370
    15
100
AcDbLine
 10
1629.596929387695
 20
1164.358552115701
 30
0.0
 11
1629.790859550039
 21
1164.022655222386
 31
0.0
1001
AcDbBlockRepETag
1070
     1
1071
      276
1005
FB7
  0
LWPOLYLINE
  5
FB8
330
B6A
100
AcDbEntity
  8
0
  6
Continuous
 62
     7
370
    15
100
AcDbPolyline
 90
        9
 70
   128
 43
0.0
 10
1629.790859550039
 20
1164.022655222386
 10
1629.806182563651
 20
1163.999288015777
 10
1629.82366428616
 20
1163.978405824223
 10
1629.842633002168
 20
1163.960810873046
 10
1629.862359702905
 20
1163.94717914535
 10
1629.882086403641
 20
1163.938034909175
 10
1629.901055119649
 20
1163.933729047022
 10
1629.918536842158
 20
1163.934427271394
 10
1629.932337300867
 20
1163.939259787082
1001
AcDbBlockRepETag
1070
     1
1071
      277
1005
FB8
  0
ARC
  5
FB9
330
B6A
100
AcDbEntity
  8
0
  6
Continuous
 62
     7
370
    15
100
AcDbCircle
 10
1618.681954006694
 20
1147.207949577386
 30
0.0
 40
24.08056732924473
100
AcDbArc
 50
68.03338456679998
 51
73.34669226728438
1001
AcDbBlockRepETag
1070
     1
1071
      278
1005
FB9
  0
SPLINE
  5
FBA
330
B6A
100
AcDbEntity
  8
0
  6
Continuous
 62
     7
370
    15
100
AcDbSpline
210
0.0
220
0.0
230
1.0
 70
     8
 71
     3
 72
    10
 73
     6
 74
     0
 42
0.0000000001
 43
0.0000000001
 40
0.0
 40
0.0
 40
0.0
 40
0.0
 40
0.5
 40
0.5
 40
1.0
 40
1.0
 40
1.0
 40
1.0
 10
1627.689682490939
 20
1169.540314889301
 30
0.0
 10
1627.784301848339
 20
1169.502024416392
 30
0.0
 10
1627.876265658066
 20
1169.452056794846
 30
0.0
 10
1628.055113668178
 20
1169.329309493406
 30
0.0
 10
1628.141711671278
 20
1169.256347410869
 30
0.0
 10
1628.221789034076
 20
1169.174613742253
 30
0.0
1001
AcDbBlockRepETag
1070
     1
1071
      279
1005
FBA
  0
LINE
  5
FBB
330
B6A
100
AcDbEntity
  8
0
  6
Continuous
 62
     7
370
    15
100
AcDbLine
 10
1629.848321509628
 20
1167.326846481337
 30
0.0
 11
1629.848321509628
 21
1167.594286831378
 31
0.0
1001
AcDbBlockRepETag
1070
     1
1071
      280
1005
FBB
  0
SPLINE
  5
FBC
330
B6A
100
AcDbEntity
  8
0
  6
Continuous
 62
     7
370
    15
100
AcDbSpline
210
0.0
220
0.0
230
1.0
 70
     8
 71
     3
 72
     8
 73
     4
 74
     0
 42
0.0000000001
 43
0.0000000001
 40
0.0
 40
0.0
 40
0.0
 40
0.0
 40
1.0
 40
1.0
 40
1.0
 40
1.0
 10
1628.100462952097
 20
1169.014891376852
 30
0.0
 10
1627.976402128978
 20
1169.140091223683
 30
0.0
 10
1627.835346894325
 20
1169.236405311437
 30
0.0
 10
1627.689682490939
 20
1169.295352645735
 30
0.0
1001
AcDbBlockRepETag
1070
     1
1071
      281
1005
FBC
  0
ARC
  5
FBD
330
B6A
100
AcDbEntity
  8
0
  6
Continuous
 62
     7
370
    15
100
AcDbCircle
 10
1618.681954006692
 20
1146.962986989478
 30
0.0
 40
24.0805673292494
100
AcDbArc
 50
68.03338456679998
 51
73.34669226728438
1001
AcDbBlockRepETag
1070
     1
1071
      282
1005
FBD
  0
LINE
  5
FBE
330
B6A
100
AcDbEntity
  8
0
  6
Continuous
 62
     7
370
    15
100
AcDbLine
 10
1625.582959683016
 20
1170.033527588993
 30
0.0
 11
1625.582959683016
 21
1170.278490176897
 31
0.0
1001
AcDbBlockRepETag
1070
     1
1071
      283
1005
FBE
  0
ELLIPSE
  5
FBF
330
B6A
100
AcDbEntity
  8
0
  6
Continuous
 62
     7
370
    15
100
AcDbEllipse
 10
1616.945105081422
 20
1159.327275380606
 30
0.0
 11
16.96035847926995
 21
-11.05760153534655
 31
0.0
210
0.0
220
0.0
230
1.0
 40
0.7162356471594295
 41
1.24709688338855
 42
1.369208821522878
1001
AcDbBlockRepETag
1070
     1
1071
      284
1005
FBF
  0
LINE
  5
FC0
330
B6A
100
AcDbEntity
  8
0
  6
Continuous
 62
     7
370
    15
100
AcDbLine
 10
1629.418179334804
 20
1164.461742324769
 30
0.0
 11
1628.003965540624
 21
1163.645334079127
 31
0.0
1001
AcDbBlockRepETag
1070
     1
1071
      285
1005
FC0
  0
LWPOLYLINE
  5
FC1
330
B6A
100
AcDbEntity
  8
0
  6
Continuous
 62
     7
370
    15
100
AcDbPolyline
 90
        9
 70
   128
 43
0.0
 10
1629.596929387695
 20
1164.358552115701
 10
1629.577776279225
 20
1164.387760458619
 10
1629.555923796817
 20
1164.413863578261
 10
1629.532212901807
 20
1164.435857362291
 10
1629.50755436125
 20
1164.452896641664
 10
1629.482895820693
 20
1164.464327507214
 10
1629.459184925683
 20
1164.469709739848
 10
1629.437333101819
 20
1164.468836579181
 10
1629.418179334804
 20
1164.461742324769
1001
AcDbBlockRepETag
1070
     1
1071
      286
1005
FC1
  0
LINE
  5
FC2
330
B6A
100
AcDbEntity
  8
0
  6
Continuous
 62
     7
370
    15
100
AcDbLine
 10
1627.667035731094
 20
1163.615896124413
 30
0.0
 11
1629.081249525274
 21
1164.432304370055
 31
0.0
1001
AcDbBlockRepETag
1070
     1
1071
      287
1005
FC2
  0
LINE
  5
FC3
330
B6A
100
AcDbEntity
  8
0
  6
Continuous
 62
     7
370
    15
100
AcDbLine
 10
1627.473105568749
 20
1163.951793017728
 30
0.0
 11
1628.88731936293
 21
1164.76820126337
 31
0.0
1001
AcDbBlockRepETag
1070
     1
1071
      288
1005
FC3
  0
LINE
  5
FC4
330
B6A
100
AcDbEntity
  8
0
  6
Continuous
 62
     7
370
    15
100
AcDbLine
 10
1628.88731936293
 20
1164.76820126337
 30
0.0
 11
1629.081249525274
 21
1164.432304370055
 31
0.0
1001
AcDbBlockRepETag
1070
     1
1071
      289
1005
FC4
  0
LWPOLYLINE
  5
FC5
330
B6A
100
AcDbEntity
  8
0
  6
Continuous
 62
     7
370
    15
100
AcDbPolyline
 90
        9
 70
   128
 43
0.0
 10
1629.081249525274
 20
1164.432304370055
 10
1629.096571880342
 20
1164.408937543616
 10
1629.11405360285
 20
1164.388055352062
 10
1629.133022318859
 20
1164.370460400885
 10
1629.152749678139
 20
1164.35682829302
 10
1629.172476378876
 20
1164.347684056845
 10
1629.191445094884
 20
1164.343378194692
 10
1629.208926817393
 20
1164.344076419064
 10
1629.222726617558
 20
1164.348909314922
1001
AcDbBlockRepETag
1070
     1
1071
      290
1005
FC5
  0
LINE
  5
FC6
330
B6A
100
AcDbEntity
  8
0
  6
Continuous
 62
     7
370
    15
100
AcDbLine
 10
1628.708569310039
 20
1164.871391472439
 30
0.0
 11
1627.294355515858
 21
1164.054983226797
 31
0.0
1001
AcDbBlockRepETag
1070
     1
1071
      291
1005
FC6
  0
LWPOLYLINE
  5
FC7
330
B6A
100
AcDbEntity
  8
0
  6
Continuous
 62
     7
370
    15
100
AcDbPolyline
 90
        9
 70
   128
 43
0.0
 10
1628.88731936293
 20
1164.76820126337
 10
1628.868165595915
 20
1164.797409986458
 10
1628.846313772051
 20
1164.823512725931
 10
1628.822602877042
 20
1164.845506509961
 10
1628.797944336485
 20
1164.862545789334
 10
1628.773285795928
 20
1164.873976654884
 10
1628.749574900918
 20
1164.879358887517
 10
1628.727722418509
 20
1164.878486107021
 10
1628.708569310039
 20
1164.871391472439
1001
AcDbBlockRepETag
1070
     1
1071
      292
1005
FC7
  0
LINE
  5
FC8
330
B6A
100
AcDbEntity
  8
0
  6
Continuous
 62
     7
370
    15
100
AcDbLine
 10
1632.298649061454
 20
1155.021885973505
 30
0.0
 11
1633.712862855634
 21
1155.838294219148
 31
0.0
1001
AcDbBlockRepETag
1070
     1
1071
      293
1005
FC8
  0
LINE
  5
FC9
330
B6A
100
AcDbEntity
  8
0
  6
Continuous
 62
     7
370
    15
100
AcDbLine
 10
1633.965653067558
 20
1155.984274817702
 30
0.0
 11
1633.712862855634
 21
1155.838294219148
 31
0.0
1001
AcDbBlockRepETag
1070
     1
1071
      294
1005
FC9
  0
SPLINE
  5
FCA
330
B6A
100
AcDbEntity
  8
0
  6
Continuous
 62
     7
370
    15
100
AcDbSpline
210
0.0
220
0.0
230
1.0
 70
     8
 71
     3
 72
    14
 73
    10
 74
     0
 42
0.0000000001
 43
0.0000000001
 40
0.0
 40
0.0
 40
0.0
 40
0.0
 40
0.0003613767246407
 40
0.0003613767246407
 40
0.0003613767246407
 40
0.0006505237187482
 40
0.0006505237187482
 40
0.0006505237187482
 40
0.0009396707129638
 40
0.0009396707129638
 40
0.0009396707129638
 40
0.0009396707129638
 10
1630.455666428915
 20
1166.662543448965
 30
0.0
 10
1630.377794102789
 20
1166.747693462675
 30
0.0
 10
1630.299935536658
 20
1166.832851479181
 30
0.0
 10
1630.222080787204
 20
1166.918011712883
 30
0.0
 10
1630.159787160302
 20
1166.986150649329
 30
0.0
 10
1630.097496207672
 20
1167.054291140272
 30
0.0
 10
1630.035204231823
 20
1167.122431036433
 30
0.0
 10
1629.972912255986
 20
1167.190570932582
 30
0.0
 10
1629.910619373155
 20
1167.258710301757
 30
0.0
 10
1629.848321471322
 20
1167.326846752989
 30
0.0
1001
AcDbBlockRepETag
1070
     1
1071
      295
1005
FCA
  0
LINE
  5
FCB
330
B6A
100
AcDbEntity
  8
0
  6
Continuous
 62
     7
370
    15
100
AcDbLine
 10
1626.957425047784
 20
1164.025545652253
 30
0.0
 11
1628.371638841965
 21
1164.841953897895
 31
0.0
1001
AcDbBlockRepETag
1070
     1
1071
      296
1005
FCB
  0
LINE
  5
FCC
330
B6A
100
AcDbEntity
  8
0
  6
Continuous
 62
     7
370
    15
100
AcDbLine
 10
1626.763494885439
 20
1164.361442545567
 30
0.0
 11
1628.17770867962
 21
1165.177850791209
 31
0.0
1001
AcDbBlockRepETag
1070
     1
1071
      297
1005
FCC
  0
LINE
  5
FCD
330
B6A
100
AcDbEntity
  8
0
  6
Continuous
 62
     7
370
    15
100
AcDbLine
 10
1628.17770867962
 20
1165.177850791209
 30
0.0
 11
1628.371638841965
 21
1164.841953897895
 31
0.0
1001
AcDbBlockRepETag
1070
     1
1071
      298
1005
FCD
  0
LWPOLYLINE
  5
FCE
330
B6A
100
AcDbEntity
  8
0
  6
Continuous
 62
     7
370
    15
100
AcDbPolyline
 90
        9
 70
   128
 43
0.0
 10
1628.371638841965
 20
1164.841953897895
 10
1628.386961855576
 20
1164.818586691286
 10
1628.404443578085
 20
1164.797704499732
 10
1628.423412294093
 20
1164.780109548555
 10
1628.44313899483
 20
1164.766477820859
 10
1628.462865695566
 20
1164.757333584685
 10
1628.481834411574
 20
1164.753027722531
 10
1628.499316134083
 20
1164.753725946904
 10
1628.513115934248
 20
1164.758558842761
1001
AcDbBlockRepETag
1070
     1
1071
      299
1005
FCE
  0
LINE
  5
FCF
330
B6A
100
AcDbEntity
  8
0
  6
Continuous
 62
     7
370
    15
100
AcDbLine
 10
1627.99895862673
 20
1165.281041000278
 30
0.0
 11
1626.584744832549
 21
1164.464632754636
 31
0.0
1001
AcDbBlockRepETag
1070
     1
1071
      300
1005
FCF
  0
LWPOLYLINE
  5
FD0
330
B6A
100
AcDbEntity
  8
0
  6
Continuous
 62
     7
370
    15
100
AcDbPolyline
 90
        9
 70
   128
 43
0.0
 10
1628.17770867962
 20
1165.177850791209
 10
1628.15855557115
 20
1165.207059134128
 10
1628.136703088741
 20
1165.233162253771
 10
1628.112992193732
 20
1165.2551560378
 10
1628.088333653175
 20
1165.272195317173
 10
1628.063675112618
 20
1165.283626182723
 10
1628.039964217608
 20
1165.289008415357
 10
1628.018112393744
 20
1165.28813525469
 10
1627.99895862673
 20
1165.281041000278
1001
AcDbBlockRepETag
1070
     1
1071
      301
1005
FD0
  0
LWPOLYLINE
  5
FD1
330
B6A
100
AcDbEntity
  8
0
  6
Continuous
 62
     7
370
    15
100
AcDbPolyline
 90
        9
 70
   128
 43
0.0
 10
1625.582959683016
 20
1170.278490176897
 10
1625.445599481724
 20
1170.329504952456
 10
1625.325373949985
 20
1170.393328023773
 10
1625.225824410892
 20
1170.46807926183
 10
1625.14988237532
 20
1170.551556153747
 10
1625.099785577509
 20
1170.641300522552
 10
1625.077009157156
 20
1170.734667908144
 10
1625.082224829659
 20
1170.828908923597
 10
1625.115277507787
 20
1170.921246619685
1001
AcDbBlockRepETag
1070
     1
1071
      302
1005
FD1
  0
LINE
  5
FD2
330
B6A
100
AcDbEntity
  8
0
  6
Continuous
 62
     7
370
    15
100
AcDbLine
 10
1625.115277507787
 20
1170.921246619685
 30
0.0
 11
1625.568145724309
 21
1171.841913541204
 31
0.0
1001
AcDbBlockRepETag
1070
     1
1071
      303
1005
FD2
  0
LINE
  5
FD3
330
B6A
100
AcDbEntity
  8
0
  6
Continuous
 62
     7
370
    15
100
AcDbLine
 10
1625.568145724309
 20
1171.841913541204
 30
0.0
 11
1625.226639524356
 21
1172.039060874038
 31
0.0
1001
AcDbBlockRepETag
1070
     1
1071
      304
1005
FD3
  0
LINE
  5
FD4
330
B6A
100
AcDbEntity
  8
0
  6
Continuous
 62
     7
370
    15
100
AcDbLine
 10
1625.226639524356
 20
1172.039060874038
 30
0.0
 11
1627.233728426729
 21
1173.19772863444
 31
0.0
1001
AcDbBlockRepETag
1070
     1
1071
      305
1005
FD4
  0
LINE
  5
FD5
330
B6A
100
AcDbEntity
  8
0
  6
Continuous
 62
     7
370
    15
100
AcDbLine
 10
1633.201977855776
 20
1157.925521778369
 30
0.0
 11
1633.201977855776
 21
1157.859698035428
 31
0.0
1001
AcDbBlockRepETag
1070
     1
1071
      306
1005
FD5
  0
LINE
  5
FD6
330
B6A
100
AcDbEntity
  8
0
  6
Continuous
 62
     7
370
    15
100
AcDbLine
 10
1627.669099609581
 20
1165.247521164008
 30
0.0
 11
1626.254885815401
 21
1164.431112918365
 31
0.0
1001
AcDbBlockRepETag
1070
     1
1071
      307
1005
FD6
  0
LINE
  5
FD7
330
B6A
100
AcDbEntity
  8
0
  6
Continuous
 62
     7
370
    15
100
AcDbLine
 10
1626.060955653057
 20
1164.76700981168
 30
0.0
 11
1627.475169447237
 21
1165.583418057322
 31
0.0
1001
AcDbBlockRepETag
1070
     1
1071
      308
1005
FD7
  0
LINE
  5
FD8
330
B6A
100
AcDbEntity
  8
0
  6
Continuous
 62
     7
370
    15
100
AcDbLine
 10
1627.475169447237
 20
1165.583418057322
 30
0.0
 11
1627.669099609581
 21
1165.247521164008
 31
0.0
1001
AcDbBlockRepETag
1070
     1
1071
      309
1005
FD8
  0
LINE
  5
FD9
330
B6A
100
AcDbEntity
  8
0
  6
Continuous
 62
     7
370
    15
100
AcDbLine
 10
1626.322850242803
 20
1164.357749455704
 30
0.0
 11
1627.737064036983
 21
1165.174157701347
 31
0.0
1001
AcDbBlockRepETag
1070
     1
1071
      310
1005
FD9
  0
ARC
  5
FDA
330
B6A
100
AcDbEntity
  8
0
  6
Continuous
 62
     7
370
    15
100
AcDbCircle
 10
1627.77583615129
 20
1165.233174204773
 30
0.0
 40
0.0706132036129864
100
AcDbArc
 50
236.6962581870576
 51
293.0696382642556
1001
AcDbBlockRepETag
1070
     1
1071
      311
1005
FDA
  0
ARC
  5
FDB
330
B6A
100
AcDbEntity
  8
0
  6
Continuous
 62
     7
370
    15
100
AcDbCircle
 10
1627.852374277891
 20
1165.349145011843
 30
0.0
 40
0.2095638577927502
100
AcDbArc
 50
209.0079007686946
 51
236.6165781651342
1001
AcDbBlockRepETag
1070
     1
1071
      312
1005
FDB
  0
LINE
  5
FDC
330
B6A
100
AcDbEntity
  8
0
  6
Continuous
 62
     7
370
    15
100
AcDbLine
 10
1627.296419394346
 20
1165.686608266391
 30
0.0
 11
1625.882205600166
 21
1164.870200020748
 31
0.0
1001
AcDbBlockRepETag
1070
     1
1071
      313
1005
FDC
  0
LWPOLYLINE
  5
FDD
330
B6A
100
AcDbEntity
  8
0
  6
Continuous
 62
     7
370
    15
100
AcDbPolyline
 90
        9
 70
   128
 43
0.0
 10
1627.475169447237
 20
1165.583418057322
 10
1627.456015680223
 20
1165.61262678041
 10
1627.434163856358
 20
1165.638729519884
 10
1627.410452961349
 20
1165.660723303913
 10
1627.385794420792
 20
1165.677762583285
 10
1627.361135880235
 20
1165.689193448836
 10
1627.337424985225
 20
1165.69457568147
 10
1627.315573161361
 20
1165.693702520803
 10
1627.296419394346
 20
1165.686608266391
1001
AcDbBlockRepETag
1070
     1
1071
      314
1005
FDD
  0
LINE
  5
FDE
330
B6A
100
AcDbEntity
  8
0
  6
Continuous
 62
     7
370
    15
100
AcDbLine
 10
1626.961992712491
 20
1165.655725286829
 30
0.0
 11
1625.547778918311
 21
1164.839317041187
 31
0.0
1001
AcDbBlockRepETag
1070
     1
1071
      315
1005
FDE
  0
LINE
  5
FDF
330
B6A
100
AcDbEntity
  8
0
  6
Continuous
 62
     7
370
    15
100
AcDbLine
 10
1625.353848755966
 20
1165.175213934501
 30
0.0
 11
1626.768062550147
 21
1165.991622180143
 31
0.0
1001
AcDbBlockRepETag
1070
     1
1071
      316
1005
FDF
  0
LINE
  5
FE0
330
B6A
100
AcDbEntity
  8
0
  6
Continuous
 62
     7
370
    15
100
AcDbLine
 10
1626.768062550147
 20
1165.991622180143
 30
0.0
 11
1626.961992712491
 21
1165.655725286829
 31
0.0
1001
AcDbBlockRepETag
1070
     1
1071
      317
1005
FE0
  0
LINE
  5
FE1
330
B6A
100
AcDbEntity
  8
0
  6
Continuous
 62
     7
370
    15
100
AcDbLine
 10
1637.325953633883
 20
1166.465722400863
 30
0.0
 11
1638.740167263428
 21
1167.282130551463
 31
0.0
1001
AcDbBlockRepETag
1070
     1
1071
      318
1005
FE1
  0
LINE
  5
FE2
330
B6A
100
AcDbEntity
  8
0
  6
Continuous
 62
     7
370
    15
100
AcDbLine
 10
1639.622507091828
 20
1164.429355532793
 30
0.0
 11
1641.036720721373
 21
1165.245763683393
 31
0.0
1001
AcDbBlockRepETag
1070
     1
1071
      319
1005
FE2
  0
LINE
  5
FE3
330
B6A
100
AcDbEntity
  8
0
  6
Continuous
 62
     7
370
    15
100
AcDbLine
 10
1638.740167263428
 20
1167.282130551463
 30
0.0
 11
1641.036720721373
 21
1165.245763683393
 31
0.0
1001
AcDbBlockRepETag
1070
     1
1071
      320
1005
FE3
  0
LINE
  5
FE4
330
B6A
100
AcDbEntity
  8
0
  6
Continuous
 62
     7
370
    15
100
AcDbLine
 10
1627.032240972247
 20
1165.580980657625
 30
0.0
 11
1625.618027178066
 21
1164.764572411983
 31
0.0
1001
AcDbBlockRepETag
1070
     1
1071
      321
1005
FE4
  0
ARC
  5
FE5
330
B6A
100
AcDbEntity
  8
0
  6
Continuous
 62
     7
370
    15
100
AcDbCircle
 10
1627.073178886922
 20
1165.640091438592
 30
0.0
 40
0.0719026931656591
100
AcDbArc
 50
235.2949755442359
 51
292.7346467167946
1001
AcDbBlockRepETag
1070
     1
1071
      322
1005
FE5
  0
ARC
  5
FE6
330
B6A
100
AcDbEntity
  8
0
  6
Continuous
 62
     7
370
    15
100
AcDbCircle
 10
1638.328080710015
 20
1160.071288085868
 30
0.0
 40
0.2492400978244951
100
AcDbArc
 50
305.3873853156791
 51
5.925036172096867
1001
AcDbBlockRepETag
1070
     1
1071
      323
1005
FE6
  0
ARC
  5
FE7
330
B6A
100
AcDbEntity
  8
0
  6
Continuous
 62
     7
370
    15
100
AcDbCircle
 10
1627.143603886089
 20
1165.756027879544
 30
0.0
 40
0.2074686204722852
100
AcDbArc
 50
208.9115661321872
 51
237.5359774907645
1001
AcDbBlockRepETag
1070
     1
1071
      324
1005
FE7
  0
LINE
  5
FE8
330
B6A
100
AcDbEntity
  8
0
  6
Continuous
 62
     7
370
    15
100
AcDbLine
 10
1626.589312497256
 20
1166.094812389212
 30
0.0
 11
1625.175098703075
 21
1165.278404143569
 31
0.0
1001
AcDbBlockRepETag
1070
     1
1071
      325
1005
FE8
  0
LWPOLYLINE
  5
FE9
330
B6A
100
AcDbEntity
  8
0
  6
Continuous
 62
     7
370
    15
100
AcDbPolyline
 90
        9
 70
   128
 43
0.0
 10
1626.768062550147
 20
1165.991622180143
 10
1626.748909441677
 20
1166.020830523062
 10
1626.727056959268
 20
1166.046933642705
 10
1626.703346064259
 20
1166.068927426734
 10
1626.678687523702
 20
1166.085966706107
 10
1626.654028983145
 20
1166.097397571657
 10
1626.630318088135
 20
1166.102779804291
 10
1626.60846626427
 20
1166.101906643625
 10
1626.589312497256
 20
1166.094812389212
1001
AcDbBlockRepETag
1070
     1
1071
      326
1005
FE9
  0
LINE
  5
FEA
330
B6A
100
AcDbEntity
  8
0
  6
Continuous
 62
     7
370
    15
100
AcDbLine
 10
1632.368797057808
 20
1163.517044109731
 30
0.0
 11
1632.888036353295
 21
1163.217293644815
 31
0.0
1001
AcDbBlockRepETag
1070
     1
1071
      327
1005
FEA
  0
LINE
  5
FEB
330
B6A
100
AcDbEntity
  8
0
  6
Continuous
 62
     7
370
    15
100
AcDbLine
 10
1641.036720721373
 20
1163.582243124024
 30
0.0
 11
1639.622507091828
 21
1162.765834973424
 31
0.0
1001
AcDbBlockRepETag
1070
     1
1071
      328
1005
FEB
  0
LINE
  5
FEC
330
B6A
100
AcDbEntity
  8
0
  6
Continuous
 62
     7
370
    15
100
AcDbLine
 10
1641.036720721373
 20
1165.245763683393
 30
0.0
 11
1641.036720721373
 21
1163.582243124024
 31
0.0
1001
AcDbBlockRepETag
1070
     1
1071
      329
1005
FEC
  0
LINE
  5
FED
330
B6A
100
AcDbEntity
  8
0
  6
Continuous
 62
     7
370
    15
100
AcDbLine
 10
1626.254886144673
 20
1166.063929219565
 30
0.0
 11
1624.840672350492
 21
1165.247520973923
 31
0.0
1001
AcDbBlockRepETag
1070
     1
1071
      330
1005
FED
  0
LINE
  5
FEE
330
B6A
100
AcDbEntity
  8
0
  6
Continuous
 62
     7
370
    15
100
AcDbLine
 10
1624.646742188148
 20
1165.583417867237
 30
0.0
 11
1626.060955982328
 21
1166.39982611288
 31
0.0
1001
AcDbBlockRepETag
1070
     1
1071
      331
1005
FEE
  0
LINE
  5
FEF
330
B6A
100
AcDbEntity
  8
0
  6
Continuous
 62
     7
370
    15
100
AcDbLine
 10
1626.060955982328
 20
1166.39982611288
 30
0.0
 11
1626.254886144673
 21
1166.063929219565
 31
0.0
1001
AcDbBlockRepETag
1070
     1
1071
      332
1005
FEF
  0
LINE
  5
FF0
330
B6A
100
AcDbEntity
  8
0
  6
Continuous
 62
     7
370
    15
100
AcDbLine
 10
1626.325134404429
 20
1165.989184590362
 30
0.0
 11
1624.910920610248
 21
1165.172776344719
 31
0.0
1001
AcDbBlockRepETag
1070
     1
1071
      333
1005
FF0
  0
ARC
  5
FF1
330
B6A
100
AcDbEntity
  8
0
  6
Continuous
 62
     7
370
    15
100
AcDbCircle
 10
1626.366071924171
 20
1166.048294623742
 30
0.0
 40
0.0719018537236251
100
AcDbArc
 50
235.2948950869266
 51
292.7349837371709
1001
AcDbBlockRepETag
1070
     1
1071
      334
1005
FF1
  0
ARC
  5
FF2
330
B6A
100
AcDbEntity
  8
0
  6
Continuous
 62
     7
370
    15
100
AcDbCircle
 10
1626.436495919727
 20
1166.164230497868
 30
0.0
 40
0.2074667607698116
100
AcDbArc
 50
208.9114351028726
 51
237.5361085200772
1001
AcDbBlockRepETag
1070
     1
1071
      335
1005
FF2
  0
LINE
  5
FF3
330
B6A
100
AcDbEntity
  8
0
  6
Continuous
 62
     7
370
    15
100
AcDbLine
 10
1625.882205929438
 20
1166.503016321948
 30
0.0
 11
1624.467992135257
 21
1165.686608076306
 31
0.0
1001
AcDbBlockRepETag
1070
     1
1071
      336
1005
FF3
  0
LWPOLYLINE
  5
FF4
330
B6A
100
AcDbEntity
  8
0
  6
Continuous
 62
     7
370
    15
100
AcDbPolyline
 90
        9
 70
   128
 43
0.0
 10
1626.060955982328
 20
1166.39982611288
 10
1626.041802215314
 20
1166.429034835968
 10
1626.01995039145
 20
1166.455137575441
 10
1625.99623949644
 20
1166.47713135947
 10
1625.971580955884
 20
1166.494170638843
 10
1625.946922415326
 20
1166.505601504393
 10
1625.923211520317
 20
1166.510983737027
 10
1625.90135936718
 20
1166.510110766446
 10
1625.882205929438
 20
1166.503016321948
1001
AcDbBlockRepETag
1070
     1
1071
      337
1005
FF4
  0
ARC
  5
FF5
330
B6A
100
AcDbEntity
  8
0
  6
Continuous
 62
     7
370
    15
100
AcDbCircle
 10
1625.678953649867
 20
1170.641586158155
 30
0.0
 40
0.615589201662271
100
AcDbArc
 50
191.4533795375746
 51
261.0287782470092
1001
AcDbBlockRepETag
1070
     1
1071
      338
1005
FF5
  0
LINE
  5
FF6
330
B6A
100
AcDbEntity
  8
0
  6
Continuous
 62
     7
370
    15
100
AcDbLine
 10
1625.545275790636
 20
1166.47357855732
 30
0.0
 11
1624.131061996455
 21
1165.657170311678
 31
0.0
1001
AcDbBlockRepETag
1070
     1
1071
      339
1005
FF6
  0
LINE
  5
FF7
330
B6A
100
AcDbEntity
  8
0
  6
Continuous
 62
     7
370
    15
100
AcDbLine
 10
1623.937131504838
 20
1165.993067395077
 30
0.0
 11
1625.351345299019
 21
1166.809475640719
 31
0.0
1001
AcDbBlockRepETag
1070
     1
1071
      340
1005
FF7
  0
LINE
  5
FF8
330
B6A
100
AcDbEntity
  8
0
  6
Continuous
 62
     7
370
    15
100
AcDbLine
 10
1625.351345299019
 20
1166.809475640719
 30
0.0
 11
1625.545275790636
 21
1166.47357855732
 31
0.0
1001
AcDbBlockRepETag
1070
     1
1071
      341
1005
FF8
  0
LWPOLYLINE
  5
FF9
330
B6A
100
AcDbEntity
  8
0
  6
Continuous
 62
     7
370
    15
100
AcDbPolyline
 90
        9
 70
   128
 43
0.0
 10
1625.545275790636
 20
1166.47357855732
 10
1625.560598474975
 20
1166.450211540795
 10
1625.578080197484
 20
1166.429329349242
 10
1625.597048913492
 20
1166.411734398065
 10
1625.616775614228
 20
1166.398102670369
 10
1625.636502314965
 20
1166.388958434194
 10
1625.655471030973
 20
1166.38465257204
 10
1625.672952753482
 20
1166.385350796413
 10
1625.686752882919
 20
1166.390183502186
1001
AcDbBlockRepETag
1070
     1
1071
      342
1005
FF9
  0
LINE
  5
FFA
330
B6A
100
AcDbEntity
  8
0
  6
Continuous
 62
     7
370
    15
100
AcDbLine
 10
1625.172595575401
 20
1166.912665659703
 30
0.0
 11
1623.75838178122
 21
1166.096257414061
 31
0.0
1001
AcDbBlockRepETag
1070
     1
1071
      343
1005
FFA
  0
LWPOLYLINE
  5
FFB
330
B6A
100
AcDbEntity
  8
0
  6
Continuous
 62
     7
370
    15
100
AcDbPolyline
 90
        9
 70
   128
 43
0.0
 10
1625.351345299019
 20
1166.809475640719
 10
1625.332191861276
 20
1166.838684173722
 10
1625.31033970814
 20
1166.86478710328
 10
1625.286628813131
 20
1166.88678088731
 10
1625.261970601846
 20
1166.903819976598
 10
1625.237312061289
 20
1166.915250842148
 10
1625.213601166279
 20
1166.920633074782
 10
1625.191749013143
 20
1166.9197601042
 10
1625.172595575401
 20
1166.912665659703
1001
AcDbBlockRepETag
1070
     1
1071
      344
1005
FFB
  0
LINE
  5
FFC
330
B6A
100
AcDbEntity
  8
0
  6
Continuous
 62
     7
370
    15
100
AcDbLine
 10
1640.784891984431
 20
1163.381055766465
 30
0.0
 11
1639.370678354886
 21
1162.564647615865
 31
0.0
1001
AcDbBlockRepETag
1070
     1
1071
      345
1005
FFC
  0
LINE
  5
FFD
330
B6A
100
AcDbEntity
  8
0
  6
Continuous
 62
     7
370
    15
100
AcDbLine
 10
1640.784891984431
 20
1163.381055766465
 30
0.0
 11
1641.036720721373
 21
1163.582243124024
 31
0.0
1001
AcDbBlockRepETag
1070
     1
1071
      346
1005
FFD
  0
LINE
  5
FFE
330
B6A
100
AcDbEntity
  8
0
  6
Continuous
 62
     7
370
    15
100
AcDbLine
 10
1624.835665107326
 20
1166.883228085159
 30
0.0
 11
1623.421451313145
 21
1166.066819839517
 31
0.0
1001
AcDbBlockRepETag
1070
     1
1071
      347
1005
FFE
  0
LINE
  5
FFF
330
B6A
100
AcDbEntity
  8
0
  6
Continuous
 62
     7
370
    15
100
AcDbLine
 10
1623.2275211508
 20
1166.402716732831
 30
0.0
 11
1624.641734944981
 21
1167.219124978474
 31
0.0
1001
AcDbBlockRepETag
1070
     1
1071
      348
1005
FFF
  0
LINE
  5
1000
330
B6A
100
AcDbEntity
  8
0
  6
Continuous
 62
     7
370
    15
100
AcDbLine
 10
1624.641734944981
 20
1167.219124978474
 30
0.0
 11
1624.835665107326
 21
1166.883228085159
 31
0.0
1001
AcDbBlockRepETag
1070
     1
1071
      349
1005
1000
  0
LWPOLYLINE
  5
1001
330
B6A
100
AcDbEntity
  8
0
  6
Continuous
 62
     7
370
    15
100
AcDbPolyline
 90
        9
 70
   128
 43
0.0
 10
1624.835665107326
 20
1166.883228085159
 10
1624.850988120937
 20
1166.85986087855
 10
1624.868469843447
 20
1166.838978686996
 10
1624.887438559454
 20
1166.821383735819
 10
1624.907165260191
 20
1166.807752008123
 10
1624.926891960928
 20
1166.798607771949
 10
1624.945860676936
 20
1166.794301909795
 10
1624.963342399444
 20
1166.795000134168
 10
1624.977142528881
 20
1166.79983283994
1001
AcDbBlockRepETag
1070
     1
1071
      350
1005
1001
  0
LINE
  5
1002
330
B6A
100
AcDbEntity
  8
0
  6
Continuous
 62
     7
370
    15
100
AcDbLine
 10
1624.462984892091
 20
1167.322315187542
 30
0.0
 11
1623.04877109791
 21
1166.5059069419
 31
0.0
1001
AcDbBlockRepETag
1070
     1
1071
      351
1005
1002
  0
LWPOLYLINE
  5
1003
330
B6A
100
AcDbEntity
  8
0
  6
Continuous
 62
     7
370
    15
100
AcDbPolyline
 90
        9
 70
   128
 43
0.0
 10
1624.641734944981
 20
1167.219124978474
 10
1624.622581507239
 20
1167.248333511477
 10
1624.600729354103
 20
1167.274436441035
 10
1624.577018459093
 20
1167.296430225064
 10
1624.552359918536
 20
1167.313469504437
 10
1624.527701377979
 20
1167.324900369987
 10
1624.503990482969
 20
1167.330282602621
 10
1624.482138659105
 20
1167.329409441955
 10
1624.462984892091
 20
1167.322315187542
1001
AcDbBlockRepETag
1070
     1
1071
      352
1005
1003
  0
LINE
  5
1004
330
B6A
100
AcDbEntity
  8
0
  6
Continuous
 62
     7
370
    15
100
AcDbLine
 10
1638.618078380004
 20
1167.314834589293
 30
0.0
 11
1637.203864750459
 21
1166.498426438693
 31
0.0
1001
AcDbBlockRepETag
1070
     1
1071
      353
1005
1004
  0
ARC
  5
1005
330
B6A
100
AcDbEntity
  8
0
  6
Continuous
 62
     7
370
    15
100
AcDbCircle
 10
1638.655647460678
 20
1167.210845666586
 30
0.0
 40
0.1105673182666397
100
AcDbArc
 50
40.14463338043291
 51
109.8637560598036
1001
AcDbBlockRepETag
1070
     1
1071
      354
1005
1005
  0
LINE
  5
1006
330
B6A
100
AcDbEntity
  8
0
  6
Continuous
 62
     7
370
    15
100
AcDbLine
 10
1636.673004778585
 20
1166.804885377294
 30
0.0
 11
1638.08721840813
 21
1167.621293527895
 31
0.0
1001
AcDbBlockRepETag
1070
     1
1071
      355
1005
1006
  0
LINE
  5
1007
330
B6A
100
AcDbEntity
  8
0
  6
Continuous
 62
     7
370
    15
100
AcDbLine
 10
1638.08721840813
 20
1167.621293527895
 30
0.0
 11
1638.281148570474
 21
1167.28539663458
 31
0.0
1001
AcDbBlockRepETag
1070
     1
1071
      356
1005
1007
  0
LWPOLYLINE
  5
1008
330
B6A
100
AcDbEntity
  8
0
  6
Continuous
 62
     7
370
    15
100
AcDbPolyline
 90
        9
 70
   128
 43
0.0
 10
1638.281148570474
 20
1167.28539663458
 10
1638.296470925541
 20
1167.262029808141
 10
1638.31395264805
 20
1167.241147616587
 10
1638.332921364058
 20
1167.22355266541
 10
1638.352648064795
 20
1167.209920937714
 10
1638.372375424076
 20
1167.20077632137
 10
1638.391344140083
 20
1167.196470459216
 10
1638.408825204048
 20
1167.197169063758
 10
1638.422625662757
 20
1167.202001579446
1001
AcDbBlockRepETag
1070
     1
1071
      357
1005
1008
  0
LINE
  5
1009
330
B6A
100
AcDbEntity
  8
0
  6
Continuous
 62
     7
370
    15
100
AcDbLine
 10
1624.126054753288
 20
1167.292877422914
 30
0.0
 11
1622.711840959108
 21
1166.476469177271
 31
0.0
1001
AcDbBlockRepETag
1070
     1
1071
      358
1005
1009
  0
LWPOLYLINE
  5
100A
330
B6A
100
AcDbEntity
  8
0
  6
Continuous
 62
     7
370
    15
100
AcDbPolyline
 90
        9
 70
   128
 43
0.0
 10
1624.126054753288
 20
1167.292877422914
 10
1624.1413777669
 20
1167.269510216304
 10
1624.158859160137
 20
1167.248628214836
 10
1624.177827876145
 20
1167.231033263658
 10
1624.197554906154
 20
1167.217401345878
 10
1624.21728160689
 20
1167.208257109703
 10
1624.236250322898
 20
1167.203951247549
 10
1624.253732045407
 20
1167.204649471922
 10
1624.267531845572
 20
1167.20948236778
1001
AcDbBlockRepETag
1070
     1
1071
      359
1005
100A
  0
LINE
  5
100B
330
B6A
100
AcDbEntity
  8
0
  6
Continuous
 62
     7
370
    15
100
AcDbLine
 10
1638.614099289451
 20
1162.924975250541
 30
0.0
 11
1638.611344927046
 21
1162.92338519097
 31
0.0
1001
AcDbBlockRepETag
1070
     1
1071
      360
1005
100B
  0
LINE
  5
100C
330
B6A
100
AcDbEntity
  8
0
  6
Continuous
 62
     7
370
    15
100
AcDbLine
 10
1638.611344927046
 20
1162.92338519097
 30
0.0
 11
1638.548691661101
 21
1162.887216230418
 31
0.0
1001
AcDbBlockRepETag
1070
     1
1071
      361
1005
100C
  0
LINE
  5
100D
330
B6A
100
AcDbEntity
  8
0
  6
Continuous
 62
     7
370
    15
100
AcDbLine
 10
1624.064743930323
 20
1167.399070883032
 30
0.0
 11
1624.126054753288
 21
1167.292877422914
 31
0.0
1001
AcDbBlockRepETag
1070
     1
1071
      362
1005
100D
  0
LINE
  5
100E
330
B6A
100
AcDbEntity
  8
0
  6
Continuous
 62
     7
370
    15
100
AcDbLine
 10
1637.908468355239
 20
1167.724483736963
 30
0.0
 11
1636.494254725694
 21
1166.908075586363
 31
0.0
1001
AcDbBlockRepETag
1070
     1
1071
      363
1005
100E
  0
LWPOLYLINE
  5
100F
330
B6A
100
AcDbEntity
  8
0
  6
Continuous
 62
     7
370
    15
100
AcDbPolyline
 90
        9
 70
   128
 43
0.0
 10
1638.08721840813
 20
1167.621293527895
 10
1638.068064641115
 20
1167.650502250983
 10
1638.046212817251
 20
1167.676604990456
 10
1638.022501922241
 20
1167.698598774485
 10
1637.997843381684
 20
1167.715638053858
 10
1637.973184841127
 20
1167.727068919408
 10
1637.949473946117
 20
1167.732451152042
 10
1637.927621463709
 20
1167.731578371545
 10
1637.908468355239
 20
1167.724483736963
1001
AcDbBlockRepETag
1070
     1
1071
      364
1005
100F
  0
LINE
  5
1010
330
B6A
100
AcDbEntity
  8
0
  6
Continuous
 62
     7
370
    15
100
AcDbLine
 10
1639.954847880258
 20
1162.068793067006
 30
0.0
 11
1640.025558556591
 21
1162.109613471566
 31
0.0
1001
AcDbBlockRepETag
1070
     1
1071
      365
1005
1010
  0
LINE
  5
1011
330
B6A
100
AcDbEntity
  8
0
  6
Continuous
 62
     7
370
    15
100
AcDbLine
 10
1640.025558556591
 20
1162.109613471566
 30
0.0
 11
1640.025558556591
 21
1162.942701329343
 31
0.0
1001
AcDbBlockRepETag
1070
     1
1071
      366
1005
1011
  0
LINE
  5
1012
330
B6A
100
AcDbEntity
  8
0
  6
Continuous
 62
     7
370
    15
100
AcDbLine
 10
1635.963394095275
 20
1167.214534905134
 30
0.0
 11
1637.37760772482
 21
1168.030943055734
 31
0.0
1001
AcDbBlockRepETag
1070
     1
1071
      367
1005
1012
  0
LINE
  5
1013
330
B6A
100
AcDbEntity
  8
0
  6
Continuous
 62
     7
370
    15
100
AcDbLine
 10
1637.37760772482
 20
1168.030943055734
 30
0.0
 11
1637.571537887164
 21
1167.695046162419
 31
0.0
1001
AcDbBlockRepETag
1070
     1
1071
      368
1005
1013
  0
LWPOLYLINE
  5
1014
330
B6A
100
AcDbEntity
  8
0
  6
Continuous
 62
     7
370
    15
100
AcDbPolyline
 90
        9
 70
   128
 43
0.0
 10
1637.571537887164
 20
1167.695046162419
 10
1637.586860900776
 20
1167.671678955811
 10
1637.604342623285
 20
1167.650796764257
 10
1637.623311339293
 20
1167.633201813079
 10
1637.643038040029
 20
1167.619570085383
 10
1637.662764740766
 20
1167.610425849209
 10
1637.681733456774
 20
1167.606119987055
 10
1637.699215179283
 20
1167.606818211428
 10
1637.713014979448
 20
1167.611651107286
1001
AcDbBlockRepETag
1070
     1
1071
      369
1005
1014
  0
LINE
  5
1015
330
B6A
100
AcDbEntity
  8
0
  6
Continuous
 62
     7
370
    15
100
AcDbLine
 10
1625.226639524356
 20
1172.039060874038
 30
0.0
 11
1625.226639524356
 21
1171.794098286134
 31
0.0
1001
AcDbBlockRepETag
1070
     1
1071
      370
1005
1015
  0
LINE
  5
1016
330
B6A
100
AcDbEntity
  8
0
  6
Continuous
 62
     7
370
    15
100
AcDbLine
 10
1625.226639524356
 20
1171.794098286134
 30
0.0
 11
1625.474299839199
 21
1171.651127029604
 31
0.0
1001
AcDbBlockRepETag
1070
     1
1071
      371
1005
1016
  0
LINE
  5
1017
330
B6A
100
AcDbEntity
  8
0
  6
Continuous
 62
     7
370
    15
100
AcDbLine
 10
1637.198857671929
 20
1168.134133264802
 30
0.0
 11
1635.806880785513
 21
1167.330562112768
 31
0.0
1001
AcDbBlockRepETag
1070
     1
1071
      372
1005
1017
  0
LWPOLYLINE
  5
1018
330
B6A
100
AcDbEntity
  8
0
  6
Continuous
 62
     7
370
    15
100
AcDbPolyline
 90
        9
 70
   128
 43
0.0
 10
1637.37760772482
 20
1168.030943055734
 10
1637.358453957805
 20
1168.060151778822
 10
1637.336602133941
 20
1168.086254518295
 10
1637.312891238931
 20
1168.108248302324
 10
1637.288232698374
 20
1168.125287581697
 10
1637.263574157817
 20
1168.136718447247
 10
1637.239863262808
 20
1168.142100679882
 10
1637.218011438944
 20
1168.141227519215
 10
1637.198857671929
 20
1168.134133264802
1001
AcDbBlockRepETag
1070
     1
1071
      373
1005
1018
  0
LINE
  5
1019
330
B6A
100
AcDbEntity
  8
0
  6
Continuous
 62
     7
370
    15
100
AcDbLine
 10
1639.345479807833
 20
1160.795229569032
 30
0.0
 11
1640.759693437377
 21
1161.611637719632
 31
0.0
1001
AcDbBlockRepETag
1070
     1
1071
      374
1005
1019
  0
LINE
  5
101A
330
B6A
100
AcDbEntity
  8
0
  6
Continuous
 62
     7
370
    15
100
AcDbLine
 10
1639.622507091828
 20
1160.315404073127
 30
0.0
 11
1641.036720721373
 21
1161.131812223727
 31
0.0
1001
AcDbBlockRepETag
1070
     1
1071
      375
1005
101A
  0
LINE
  5
101B
330
B6A
100
AcDbEntity
  8
0
  6
Continuous
 62
     7
370
    15
100
AcDbLine
 10
1640.759693437377
 20
1161.611637719632
 30
0.0
 11
1641.036720721373
 21
1161.131812223727
 31
0.0
1001
AcDbBlockRepETag
1070
     1
1071
      376
1005
101B
  0
LINE
  5
101C
330
B6A
100
AcDbEntity
  8
0
  6
Continuous
 62
     7
370
    15
100
AcDbLine
 10
1640.025558556591
 20
1162.109613471566
 30
0.0
 11
1640.759693437377
 21
1161.611637719632
 31
0.0
1001
AcDbBlockRepETag
1070
     1
1071
      377
1005
101C
  0
LINE
  5
101D
330
B6A
100
AcDbEntity
  8
0
  6
Continuous
 62
     7
370
    15
100
AcDbLine
 10
1639.622507091828
 20
1159.249907134975
 30
0.0
 11
1641.036720721373
 21
1160.066315285575
 31
0.0
1001
AcDbBlockRepETag
1070
     1
1071
      378
1005
101D
  0
LINE
  5
101E
330
B6A
100
AcDbEntity
  8
0
  6
Continuous
 62
     7
370
    15
100
AcDbLine
 10
1641.036720721373
 20
1161.131812223727
 30
0.0
 11
1641.036720721373
 21
1160.066315285575
 31
0.0
1001
AcDbBlockRepETag
1070
     1
1071
      379
1005
101E
  0
LINE
  5
101F
330
B6A
100
AcDbEntity
  8
0
  6
Continuous
 62
     7
370
    15
100
AcDbLine
 10
1636.66799704151
 20
1168.440592583573
 30
0.0
 11
1636.861927203854
 21
1168.104695690259
 31
0.0
1001
AcDbBlockRepETag
1070
     1
1071
      380
1005
101F
  0
LWPOLYLINE
  5
1020
330
B6A
100
AcDbEntity
  8
0
  6
Continuous
 62
     7
370
    15
100
AcDbPolyline
 90
        9
 70
   128
 43
0.0
 10
1636.861927203854
 20
1168.104695690259
 10
1636.877250217466
 20
1168.08132848365
 10
1636.894731939975
 20
1168.060446292096
 10
1636.913700655983
 20
1168.042851340919
 10
1636.933427356719
 20
1168.029219613223
 10
1636.953154057456
 20
1168.020075377048
 10
1636.972122773464
 20
1168.015769514894
 10
1636.989604495973
 20
1168.016467739267
 10
1637.003404954682
 20
1168.021300254955
1001
AcDbBlockRepETag
1070
     1
1071
      381
1005
1020
  0
LINE
  5
1021
330
B6A
100
AcDbEntity
  8
0
  6
Continuous
 62
     7
370
    15
100
AcDbLine
 10
1636.489246988619
 20
1168.543782792642
 30
0.0
 11
1635.244932985369
 21
1167.825455608589
 31
0.0
1001
AcDbBlockRepETag
1070
     1
1071
      382
1005
1021
  0
LWPOLYLINE
  5
1022
330
B6A
100
AcDbEntity
  8
0
  6
Continuous
 62
     7
370
    15
100
AcDbPolyline
 90
        9
 70
   128
 43
0.0
 10
1636.66799704151
 20
1168.440592583573
 10
1636.64884393304
 20
1168.469800926492
 10
1636.626991450631
 20
1168.495904046134
 10
1636.603280555621
 20
1168.517897830164
 10
1636.578622015065
 20
1168.534937109537
 10
1636.553963474508
 20
1168.546367975087
 10
1636.530252579498
 20
1168.551750207721
 10
1636.508400755634
 20
1168.550877047054
 10
1636.489246988619
 20
1168.543782792642
1001
AcDbBlockRepETag
1070
     1
1071
      383
1005
1022
  0
LINE
  5
1023
330
B6A
100
AcDbEntity
  8
0
  6
Continuous
 62
     7
370
    15
100
AcDbLine
 10
1635.958387016745
 20
1168.850241731243
 30
0.0
 11
1636.152317179089
 21
1168.514344837928
 31
0.0
1001
AcDbBlockRepETag
1070
     1
1071
      384
1005
1023
  0
LWPOLYLINE
  5
1024
330
B6A
100
AcDbEntity
  8
0
  6
Continuous
 62
     7
370
    15
100
AcDbPolyline
 90
        9
 70
   128
 43
0.0
 10
1636.152317179089
 20
1168.514344837928
 10
1636.167639534156
 20
1168.490978011489
 10
1636.185121256665
 20
1168.470095819935
 10
1636.204089972673
 20
1168.452500868758
 10
1636.223817331955
 20
1168.438868760893
 10
1636.243544032691
 20
1168.429724524718
 10
1636.262512748699
 20
1168.425418662564
 10
1636.279994471208
 20
1168.426116886937
 10
1636.293794271373
 20
1168.430949782795
1001
AcDbBlockRepETag
1070
     1
1071
      385
1005
1024
  0
LINE
  5
1025
330
B6A
100
AcDbEntity
  8
0
  6
Continuous
 62
     7
370
    15
100
AcDbLine
 10
1635.779636963854
 20
1168.953431940312
 30
0.0
 11
1634.705686860775
 21
1168.333453742411
 31
0.0
1001
AcDbBlockRepETag
1070
     1
1071
      386
1005
1025
  0
LWPOLYLINE
  5
1026
330
B6A
100
AcDbEntity
  8
0
  6
Continuous
 62
     7
370
    15
100
AcDbPolyline
 90
        9
 70
   128
 43
0.0
 10
1635.958387016745
 20
1168.850241731243
 10
1635.93923324973
 20
1168.879450454331
 10
1635.917381425866
 20
1168.905553193804
 10
1635.893670530856
 20
1168.927546977833
 10
1635.869011990299
 20
1168.944586257206
 10
1635.844353449742
 20
1168.956017122757
 10
1635.820642554733
 20
1168.96139935539
 10
1635.798790072324
 20
1168.960526574894
 10
1635.779636963854
 20
1168.953431940312
1001
AcDbBlockRepETag
1070
     1
1071
      387
1005
1026
  0
LINE
  5
1027
330
B6A
100
AcDbEntity
  8
0
  6
Continuous
 62
     7
370
    15
100
AcDbLine
 10
1639.369716879905
 20
1159.103926536421
 30
0.0
 11
1640.783930509449
 21
1159.920334687021
 31
0.0
1001
AcDbBlockRepETag
1070
     1
1071
      388
1005
1027
  0
LINE
  5
1028
330
B6A
100
AcDbEntity
  8
0
  6
Continuous
 62
     7
370
    15
100
AcDbLine
 10
1640.783930509449
 20
1159.920334687021
 30
0.0
 11
1641.036720721373
 21
1160.066315285575
 31
0.0
1001
AcDbBlockRepETag
1070
     1
1071
      389
1005
1028
  0
LINE
  5
1029
330
B6A
100
AcDbEntity
  8
0
  6
Continuous
 62
     7
370
    15
100
AcDbLine
 10
1635.248776333435
 20
1169.259891259082
 30
0.0
 11
1635.442706495779
 21
1168.923994365768
 31
0.0
1001
AcDbBlockRepETag
1070
     1
1071
      390
1005
1029
  0
LWPOLYLINE
  5
102A
330
B6A
100
AcDbEntity
  8
0
  6
Continuous
 62
     7
370
    15
100
AcDbPolyline
 90
        9
 70
   128
 43
0.0
 10
1635.442706495779
 20
1168.923994365768
 10
1635.458029509391
 20
1168.900627159159
 10
1635.4755112319
 20
1168.879744967605
 10
1635.494479947908
 20
1168.862150016428
 10
1635.514206648644
 20
1168.848518288732
 10
1635.533933349381
 20
1168.839374052557
 10
1635.552902065389
 20
1168.835068190404
 10
1635.570383787898
 20
1168.835766414776
 10
1635.584183588063
 20
1168.840599310634
1001
AcDbBlockRepETag
1070
     1
1071
      391
1005
102A
  0
LINE
  5
102B
330
B6A
100
AcDbEntity
  8
0
  6
Continuous
 62
     7
370
    15
100
AcDbLine
 10
1635.070026280544
 20
1169.363081468151
 30
0.0
 11
1634.188822853011
 21
1168.854373557588
 31
0.0
1001
AcDbBlockRepETag
1070
     1
1071
      392
1005
102B
  0
LWPOLYLINE
  5
102C
330
B6A
100
AcDbEntity
  8
0
  6
Continuous
 62
     7
370
    15
100
AcDbPolyline
 90
        9
 70
   128
 43
0.0
 10
1635.248776333435
 20
1169.259891259082
 10
1635.229623224965
 20
1169.289099602001
 10
1635.207770742557
 20
1169.315202721644
 10
1635.184059847546
 20
1169.337196505673
 10
1635.15940130699
 20
1169.354235785046
 10
1635.134742766433
 20
1169.365666650596
 10
1635.111031871423
 20
1169.37104888323
 10
1635.089180047559
 20
1169.370175722563
 10
1635.070026280544
 20
1169.363081468151
1001
AcDbBlockRepETag
1070
     1
1071
      393
1005
102C
  0
LINE
  5
102D
330
B6A
100
AcDbEntity
  8
0
  6
Continuous
 62
     7
370
    15
100
AcDbLine
 10
1630.636980418318
 20
1164.858271513618
 30
0.0
 11
1630.312809579357
 21
1164.67113167167
 31
0.0
1001
AcDbBlockRepETag
1070
     1
1071
      394
1005
102D
  0
LINE
  5
102E
330
B6A
100
AcDbEntity
  8
0
  6
Continuous
 62
     7
370
    15
100
AcDbLine
 10
1623.500388079867
 20
1160.922132535284
 30
0.0
 11
1623.403439791579
 21
1160.931727466764
 31
0.0
1001
AcDbBlockRepETag
1070
     1
1071
      395
1005
102E
  0
LINE
  5
102F
330
B6A
100
AcDbEntity
  8
0
  6
Continuous
 62
     7
370
    15
100
AcDbLine
 10
1628.859209061334
 20
1164.808886478366
 30
0.0
 11
1629.289978005894
 21
1165.057564096808
 31
0.0
1001
AcDbBlockRepETag
1070
     1
1071
      396
1005
102F
  0
LINE
  5
1030
330
B6A
100
AcDbEntity
  8
0
  6
Continuous
 62
     7
370
    15
100
AcDbLine
 10
1630.312809579357
 20
1164.67113167167
 30
0.0
 11
1631.043845020417
 21
1164.598781623517
 31
0.0
1001
AcDbBlockRepETag
1070
     1
1071
      397
1005
1030
  0
LINE
  5
1031
330
B6A
100
AcDbEntity
  8
0
  6
Continuous
 62
     7
370
    15
100
AcDbLine
 10
1631.270650383144
 20
1164.485015924243
 30
0.0
 11
1632.33219449551
 21
1163.543738911325
 31
0.0
1001
AcDbBlockRepETag
1070
     1
1071
      398
1005
1031
  0
LINE
  5
1032
330
B6A
100
AcDbEntity
  8
0
  6
Continuous
 62
     7
370
    15
100
AcDbLine
 10
1634.546237101052
 20
1169.665458525195
 30
0.0
 11
1634.740167263396
 21
1169.329561631881
 31
0.0
1001
AcDbBlockRepETag
1070
     1
1071
      399
1005
1032
  0
ARC
  5
1033
330
B6A
100
AcDbEntity
  8
0
  6
Continuous
 62
     7
370
    15
100
AcDbCircle
 10
1632.482797955046
 20
1163.711797568541
 30
0.0
 40
0.2256659351555937
100
AcDbArc
 50
228.1353293584285
 51
239.6569981542194
1001
AcDbBlockRepETag
1070
     1
1071
      400
1005
1033
  0
LINE
  5
1034
330
B6A
100
AcDbEntity
  8
0
  6
Continuous
 62
     7
370
    15
100
AcDbLine
 10
1634.161506262184
 20
1168.882909254958
 30
0.0
 11
1634.808131690798
 21
1169.25619816922
 31
0.0
1001
AcDbBlockRepETag
1070
     1
1071
      401
1005
1034
  0
ARC
  5
1035
330
B6A
100
AcDbEntity
  8
0
  6
Continuous
 62
     7
370
    15
100
AcDbCircle
 10
1634.846903805105
 20
1169.315214672647
 30
0.0
 40
0.0706132036132562
100
AcDbArc
 50
236.6962581871695
 51
293.0696382641444
1001
AcDbBlockRepETag
1070
     1
1071
      402
1005
1035
  0
ARC
  5
1036
330
B6A
100
AcDbEntity
  8
0
  6
Continuous
 62
     7
370
    15
100
AcDbCircle
 10
1634.923441931706
 20
1169.431185479716
 30
0.0
 40
0.209563857792392
100
AcDbArc
 50
209.0079007686478
 51
236.6165781651342
1001
AcDbBlockRepETag
1070
     1
1071
      403
1005
1036
  0
LINE
  5
1037
330
B6A
100
AcDbEntity
  8
0
  6
Continuous
 62
     7
370
    15
100
AcDbLine
 10
1634.367487048161
 20
1169.768648734264
 30
0.0
 11
1633.701971846562
 21
1169.384454986174
 31
0.0
1001
AcDbBlockRepETag
1070
     1
1071
      404
1005
1037
  0
LWPOLYLINE
  5
1038
330
B6A
100
AcDbEntity
  8
0
  6
Continuous
 62
     7
370
    15
100
AcDbPolyline
 90
        9
 70
   128
 43
0.0
 10
1634.546237101052
 20
1169.665458525195
 10
1634.527083334037
 20
1169.694667248283
 10
1634.505231510173
 20
1169.720769987756
 10
1634.481520615164
 20
1169.742763771786
 10
1634.456862074606
 20
1169.759803051158
 10
1634.43220353405
 20
1169.771233916709
 10
1634.40849263904
 20
1169.776616149343
 10
1634.386640815176
 20
1169.775742988676
 10
1634.367487048161
 20
1169.768648734264
1001
AcDbBlockRepETag
1070
     1
1071
      405
1005
1038
  0
LINE
  5
1039
330
B6A
100
AcDbEntity
  8
0
  6
Continuous
 62
     7
370
    15
100
AcDbLine
 10
1633.839130203962
 20
1170.073662648016
 30
0.0
 11
1634.033060366306
 21
1169.737765754702
 31
0.0
1001
AcDbBlockRepETag
1070
     1
1071
      406
1005
1039
  0
LINE
  5
103A
330
B6A
100
AcDbEntity
  8
0
  6
Continuous
 62
     7
370
    15
100
AcDbLine
 10
1622.347543850823
 20
1160.970767560141
 30
0.0
 11
1622.408680982674
 21
1160.765032723234
 31
0.0
1001
AcDbBlockRepETag
1070
     1
1071
      407
1005
103A
  0
LINE
  5
103B
330
B6A
100
AcDbEntity
  8
0
  6
Continuous
 62
     7
370
    15
100
AcDbLine
 10
1622.408680982674
 20
1160.765032723234
 30
0.0
 11
1623.62500412784
 21
1160.644654171131
 31
0.0
1001
AcDbBlockRepETag
1070
     1
1071
      408
1005
103B
  0
LINE
  5
103C
330
B6A
100
AcDbEntity
  8
0
  6
Continuous
 62
     7
370
    15
100
AcDbLine
 10
1634.103308626061
 20
1169.663021125498
 30
0.0
 11
1633.674079276244
 21
1169.415232296182
 31
0.0
1001
AcDbBlockRepETag
1070
     1
1071
      409
1005
103C
  0
ARC
  5
103D
330
B6A
100
AcDbEntity
  8
0
  6
Continuous
 62
     7
370
    15
100
AcDbCircle
 10
1634.144246540737
 20
1169.722131906465
 30
0.0
 40
0.0719026931655495
100
AcDbArc
 50
235.2949755441998
 51
292.7346467168236
1001
AcDbBlockRepETag
1070
     1
1071
      410
1005
103D
  0
ARC
  5
103E
330
B6A
100
AcDbEntity
  8
0
  6
Continuous
 62
     7
370
    15
100
AcDbCircle
 10
1634.214671539903
 20
1169.838068347416
 30
0.0
 40
0.2074686204714945
100
AcDbArc
 50
208.9115661321227
 51
237.5359774908294
1001
AcDbBlockRepETag
1070
     1
1071
      411
1005
103E
  0
ARC
  5
103F
330
B6A
100
AcDbEntity
  8
0
  6
Continuous
 62
     7
370
    15
100
AcDbCircle
 10
1630.976989991147
 20
1164.182533730589
 30
0.0
 40
0.4215826174133602
100
AcDbArc
 50
45.84780910499318
 51
80.87545303117
1001
AcDbBlockRepETag
1070
     1
1071
      412
1005
103F
  0
LINE
  5
1040
330
B6A
100
AcDbEntity
  8
0
  6
Continuous
 62
     7
370
    15
100
AcDbLine
 10
1633.660380151071
 20
1170.176852857085
 30
0.0
 11
1633.223199246751
 21
1169.924473693062
 31
0.0
1001
AcDbBlockRepETag
1070
     1
1071
      413
1005
1040
  0
LWPOLYLINE
  5
1041
330
B6A
100
AcDbEntity
  8
0
  6
Continuous
 62
     7
370
    15
100
AcDbPolyline
 90
        9
 70
   128
 43
0.0
 10
1633.839130203962
 20
1170.073662648016
 10
1633.819977095491
 20
1170.102870990934
 10
1633.798124613083
 20
1170.128974110577
 10
1633.774413718073
 20
1170.150967894607
 10
1633.749755177516
 20
1170.168007173979
 10
1633.725096636959
 20
1170.17943803953
 10
1633.701385741949
 20
1170.184820272164
 10
1633.679533918086
 20
1170.183947111497
 10
1633.660380151071
 20
1170.176852857085
1001
AcDbBlockRepETag
1070
     1
1071
      414
1005
1041
  0
LINE
  5
1042
330
B6A
100
AcDbEntity
  8
0
  6
Continuous
 62
     7
370
    15
100
AcDbLine
 10
1633.155981156072
 20
1170.440370939136
 30
0.0
 11
1633.325953798488
 21
1170.145969687438
 31
0.0
1001
AcDbBlockRepETag
1070
     1
1071
      415
1005
1042
  0
LINE
  5
1043
330
B6A
100
AcDbEntity
  8
0
  6
Continuous
 62
     7
370
    15
100
AcDbLine
 10
1633.396202058244
 20
1170.071225058235
 30
0.0
 11
1633.196433795938
 21
1169.955901295141
 31
0.0
1001
AcDbBlockRepETag
1070
     1
1071
      416
1005
1043
  0
ARC
  5
1044
330
B6A
100
AcDbEntity
  8
0
  6
Continuous
 62
     7
370
    15
100
AcDbCircle
 10
1633.437139577986
 20
1170.130335091615
 30
0.0
 40
0.0719018537235313
100
AcDbArc
 50
235.2948950869448
 51
292.734983737212
1001
AcDbBlockRepETag
1070
     1
1071
      417
1005
1044
  0
ARC
  5
1045
330
B6A
100
AcDbEntity
  8
0
  6
Continuous
 62
     7
370
    15
100
AcDbCircle
 10
1633.507563573541
 20
1170.246270965741
 30
0.0
 40
0.2074667607692576
100
AcDbArc
 50
208.9114351028143
 51
237.5361085201062
1001
AcDbBlockRepETag
1070
     1
1071
      418
1005
1045
  0
LINE
  5
1047
330
B6A
100
AcDbEntity
  8
0
  6
Continuous
 62
     7
370
    15
100
AcDbLine
 10
1630.704887223075
 20
1164.632328052064
 30
0.0
 11
1630.731541647399
 21
1164.647715323699
 31
0.0
1001
AcDbBlockRepETag
1070
     1
1071
      419
1005
1047
  0
LINE
  5
1048
330
B6A
100
AcDbEntity
  8
0
  6
Continuous
 62
     7
370
    15
100
AcDbLine
 10
1626.026501262943
 20
1169.895933157953
 30
0.0
 11
1625.373598423443
 21
1169.519020371523
 31
0.0
1001
AcDbBlockRepETag
1070
     1
1071
      420
1005
1048
  0
LINE
  5
1049
330
B6A
100
AcDbEntity
  8
0
  6
Continuous
 62
     8
370
    15
100
AcDbLine
 10
1633.839167740999
 20
1171.310653963357
 30
0.0
 11
1638.868456014122
 21
1174.214000283968
 31
0.0
1001
AcDbBlockRepETag
1070
     1
1071
      421
1005
1049
  0
LINE
  5
104A
330
B6A
100
AcDbEntity
  8
0
  6
Continuous
 62
     8
370
    15
100
AcDbLine
 10
1633.742961632372
 20
1186.968731572821
 30
0.0
 11
1638.405929583846
 21
1184.276857472586
 31
0.0
1001
AcDbBlockRepETag
1070
     1
1071
      422
1005
104A
  0
LINE
  5
104B
330
B6A
100
AcDbEntity
  8
0
  6
Continuous
 62
     8
370
    15
100
AcDbLine
 10
1638.575989318774
 20
1160.097016437293
 30
0.0
 11
1633.798611936019
 21
1157.339095178233
 31
0.0
1001
AcDbBlockRepETag
1070
     1
1071
      423
1005
104B
  0
LINE
  5
104C
330
B6A
100
AcDbEntity
  8
0
  6
Continuous
 62
     8
370
    15
100
AcDbLine
 10
1622.650530136142
 20
1175.798066402665
 30
0.0
 11
1622.903361836369
 21
1175.944023036432
 31
0.0
1001
AcDbBlockRepETag
1070
     1
1071
      424
1005
104C
  0
LINE
  5
104D
330
B6A
100
AcDbEntity
  8
0
  6
Continuous
 62
     8
370
    15
100
AcDbLine
 10
1630.784517601799
 20
1171.326925465591
 30
0.0
 11
1627.689682418179
 21
1169.540315143156
 31
0.0
1001
AcDbBlockRepETag
1070
     1
1071
      425
1005
104D
  0
LINE
  5
104E
330
B6A
100
AcDbEntity
  8
0
  6
Continuous
 62
     8
370
    15
100
AcDbLine
 10
1631.72850723895
 20
1163.147412665131
 30
0.0
 11
1632.368797057808
 21
1163.517044109731
 31
0.0
1001
AcDbBlockRepETag
1070
     1
1071
      426
1005
104E
  0
LINE
  5
104F
330
B6A
100
AcDbEntity
  8
0
  6
Continuous
 62
     8
370
    15
100
AcDbLine
 10
1636.876300925558
 20
1166.474395351818
 30
0.0
 11
1638.281148570474
 21
1167.28539663458
 31
0.0
1001
AcDbBlockRepETag
1070
     1
1071
      427
1005
104F
  0
LINE
  5
1050
330
B6A
100
AcDbEntity
  8
0
  6
Continuous
 62
     8
370
    15
100
AcDbLine
 10
1636.272222246606
 20
1166.944967209005
 30
0.0
 11
1637.571537887164
 21
1167.695046162419
 31
0.0
1001
AcDbBlockRepETag
1070
     1
1071
      428
1005
1050
  0
LINE
  5
1051
330
B6A
100
AcDbEntity
  8
0
  6
Continuous
 62
     8
370
    15
100
AcDbLine
 10
1635.384332122775
 20
1167.699548599552
 30
0.0
 11
1636.66799704151
 21
1168.440592583573
 31
0.0
1001
AcDbBlockRepETag
1070
     1
1071
      429
1005
1051
  0
LINE
  5
1052
330
B6A
100
AcDbEntity
  8
0
  6
Continuous
 62
     8
370
    15
100
AcDbLine
 10
1635.691815773175
 20
1167.429204739557
 30
0.0
 11
1636.861927203854
 21
1168.104695690259
 31
0.0
1001
AcDbBlockRepETag
1070
     1
1071
      430
1005
1052
  0
LINE
  5
1053
330
B6A
100
AcDbEntity
  8
0
  6
Continuous
 62
     8
370
    15
100
AcDbLine
 10
1634.83940349994
 20
1168.204266296966
 30
0.0
 11
1635.958387016745
 21
1168.850241731243
 31
0.0
1001
AcDbBlockRepETag
1070
     1
1071
      431
1005
1053
  0
LINE
  5
1054
330
B6A
100
AcDbEntity
  8
0
  6
Continuous
 62
     8
370
    15
100
AcDbLine
 10
1635.134475232726
 20
1167.926757189448
 30
0.0
 11
1636.152317179089
 21
1168.514344837928
 31
0.0
1001
AcDbBlockRepETag
1070
     1
1071
      432
1005
1054
  0
LINE
  5
1055
330
B6A
100
AcDbEntity
  8
0
  6
Continuous
 62
     8
370
    15
100
AcDbLine
 10
1634.316923259976
 20
1168.721943930305
 30
0.0
 11
1635.248776333435
 21
1169.259891259082
 31
0.0
1001
AcDbBlockRepETag
1070
     1
1071
      433
1005
1055
  0
LINE
  5
1056
330
B6A
100
AcDbEntity
  8
0
  6
Continuous
 62
     8
370
    15
100
AcDbLine
 10
1634.599758824213
 20
1168.437371033042
 30
0.0
 11
1635.442706495779
 21
1168.923994365768
 31
0.0
1001
AcDbBlockRepETag
1070
     1
1071
      434
1005
1056
  0
LINE
  5
1057
330
B6A
100
AcDbEntity
  8
0
  6
Continuous
 62
     8
370
    15
100
AcDbLine
 10
1631.043845020417
 20
1164.598781623517
 30
0.0
 11
1629.893725190003
 21
1163.934831577993
 31
0.0
1001
AcDbBlockRepETag
1070
     1
1071
      435
1005
1057
  0
LINE
  5
1058
330
B6A
100
AcDbEntity
  8
0
  6
Continuous
 62
     8
370
    15
100
AcDbLine
 10
1630.315397659273
 20
1163.933560264816
 30
0.0
 11
1631.270650383144
 21
1164.485015924243
 31
0.0
1001
AcDbBlockRepETag
1070
     1
1071
      436
1005
1058
  0
LINE
  5
1059
330
B6A
100
AcDbEntity
  8
0
  6
Continuous
 62
     8
370
    15
100
AcDbLine
 10
1631.695839809359
 20
1163.176379170482
 30
0.0
 11
1632.33219449551
 21
1163.543738911325
 31
0.0
1001
AcDbBlockRepETag
1070
     1
1071
      437
1005
1059
  0
LINE
  5
105A
330
B6A
100
AcDbEntity
  8
0
  6
Continuous
 62
     8
370
    15
100
AcDbLine
 10
1633.824764549428
 20
1169.248961286536
 30
0.0
 11
1634.546237101052
 21
1169.665458525195
 31
0.0
1001
AcDbBlockRepETag
1070
     1
1071
      438
1005
105A
  0
LINE
  5
105B
330
B6A
100
AcDbEntity
  8
0
  6
Continuous
 62
     8
370
    15
100
AcDbLine
 10
1634.740167263396
 20
1169.329561631881
 30
0.0
 11
1634.092375264345
 21
1168.955599270841
 31
0.0
1001
AcDbBlockRepETag
1070
     1
1071
      439
1005
105B
  0
LINE
  5
105C
330
B6A
100
AcDbEntity
  8
0
  6
Continuous
 62
     8
370
    15
100
AcDbLine
 10
1633.341736064576
 20
1169.786523123286
 30
0.0
 11
1633.839130203962
 21
1170.073662648016
 31
0.0
1001
AcDbBlockRepETag
1070
     1
1071
      440
1005
105C
  0
LINE
  5
105D
330
B6A
100
AcDbEntity
  8
0
  6
Continuous
 62
     8
370
    15
100
AcDbLine
 10
1634.033060366306
 20
1169.737765754702
 30
0.0
 11
1633.605480176572
 21
1169.490928965237
 31
0.0
1001
AcDbBlockRepETag
1070
     1
1071
      441
1005
105D
  0
LINE
  5
105E
330
B6A
100
AcDbEntity
  8
0
  6
Continuous
 62
     8
370
    15
100
AcDbLine
 10
1632.879545821271
 20
1170.336114240653
 30
0.0
 11
1633.036422143403
 21
1170.426677013737
 31
0.0
1001
AcDbBlockRepETag
1070
     1
1071
      442
1005
105E
  0
LINE
  5
105F
330
B6A
100
AcDbEntity
  8
0
  6
Continuous
 62
     8
370
    15
100
AcDbLine
 10
1633.325953798488
 20
1170.145969687438
 30
0.0
 11
1633.130857209763
 21
1170.033342824098
 31
0.0
1001
AcDbBlockRepETag
1070
     1
1071
      443
1005
105F
  0
ENDBLK
  5
B6C
330
B6A
100
AcDbEntity
  8
0
100
AcDbBlockEnd
  0
ENDSEC
  0
SECTION
  2
ENTITIES
  0
INSERT
  5
A23
330
1F
100
AcDbEntity
  8
0
100
AcDbBlockReference
  2
1
 10
0.0
 20
0.0
 30
0.0
  0
INSERT
  5
AE9
330
1F
100
AcDbEntity
  8
0
100
AcDbBlockReference
  2
2
 10
0.0
 20
0.0
 30
0.0
  0
INSERT
  5
B69
330
1F
100
AcDbEntity
  8
0
100
AcDbBlockReference
  2
3
 10
0.0
 20
0.0
 30
0.0
  0
INSERT
  5
D2D
330
1F
100
AcDbEntity
  8
0
100
AcDbBlockReference
  2
4
 10
0.0
 20
0.0
 30
0.0
  0
ENDSEC
  0
SECTION
  2
OBJECTS
  0
DICTIONARY
  5
C
330
0
100
AcDbDictionary
281
     1
  3
ACAD_COLOR
350
6B
  3
ACAD_GROUP
350
D
  3
ACAD_LAYOUT
350
1A
  3
ACAD_MATERIAL
350
6A
  3
ACAD_MLEADERSTYLE
350
12D
  3
ACAD_MLINESTYLE
350
17
  3
ACAD_PLOTSETTINGS
350
19
  3
ACAD_PLOTSTYLENAME
350
E
  3
ACAD_SCALELIST
350
10C
  3
ACAD_TABLESTYLE
350
7E
  3
ACAD_VISUALSTYLE
350
EF
  3
ACDB_RECOMPOSE_DATA
350
15D
  3
AcDbVariableDictionary
350
5E
  3
DWGPROPS
350
1071
  0
DICTIONARY
  5
13C
330
10
100
AcDbDictionary
280
     1
281
     1
  3
ADSK_XREC_LAYER_RECONCILED
360
DC3
  0
DICTIONARY
  5
E8F
330
A24
100
AcDbDictionary
280
     1
281
     1
  0
DICTIONARY
  5
1060
330
B6A
100
AcDbDictionary
280
     1
281
     1
  0
DICTIONARY
  5
6B
102
{ACAD_REACTORS
330
C
102
}
330
C
100
AcDbDictionary
281
     1
  0
DICTIONARY
  5
D
102
{ACAD_REACTORS
330
C
102
}
330
C
100
AcDbDictionary
281
     1
  0
DICTIONARY
  5
1A
102
{ACAD_REACTORS
330
C
102
}
330
C
100
AcDbDictionary
281
     1
  3
Layout1
350
D3
  3
Layout2
350
D7
  3
Model
350
22
  0
DICTIONARY
  5
6A
102
{ACAD_REACTORS
330
C
102
}
330
C
100
AcDbDictionary
281
     1
  3
ByBlock
350
ED
  3
ByLayer
350
EC
  3
Global
350
EE
  0
DICTIONARY
  5
12D
102
{ACAD_REACTORS
330
C
102
}
330
C
100
AcDbDictionary
281
     1
  3
Annotative
350
13B
  3
Standard
350
12E
  0
DICTIONARY
  5
17
102
{ACAD_REACTORS
330
C
102
}
330
C
100
AcDbDictionary
281
     1
  3
Standard
350
18
  0
DICTIONARY
  5
19
102
{ACAD_REACTORS
330
C
102
}
330
C
100
AcDbDictionary
281
     1
  0
ACDBDICTIONARYWDFLT
  5
E
102
{ACAD_REACTORS
330
C
102
}
330
C
100
AcDbDictionary
281
     1
  3
Normal
350
F
100
AcDbDictionaryWithDefault
340
F
  0
DICTIONARY
  5
10C
102
{ACAD_REACTORS
330
C
102
}
330
C
100
AcDbDictionary
281
     1
  3
A0
350
10D
  3
A1
350
188
  3
A2
350
189
  3
A3
350
18A
  3
A4
350
18B
  3
A5
350
18C
  3
A6
350
18D
  3
A7
350
18E
  3
A8
350
18F
  3
A9
350
190
  3
B0
350
191
  3
B1
350
192
  3
B2
350
193
  3
B3
350
194
  3
B4
350
195
  3
B5
350
196
  3
B6
350
197
  3
B7
350
198
  3
B8
350
199
  3
B9
350
19A
  3
C0
350
19B
  3
C1
350
19C
  3
C2
350
19D
  3
C3
350
19E
  3
C4
350
19F
  3
C5
350
1A0
  3
C6
350
1A1
  3
C7
350
1A2
  3
C8
350
1A3
  3
C9
350
1A4
  3
D0
350
1A5
  3
D1
350
1A6
  3
D2
350
1A7
  0
DICTIONARY
  5
7E
102
{ACAD_REACTORS
330
C
102
}
330
C
100
AcDbDictionary
281
     1
  3
Standard
350
7F
  0
DICTIONARY
  5
EF
102
{ACAD_REACTORS
330
C
102
}
330
C
100
AcDbDictionary
281
     1
  3
2dWireframe
350
F5
  3
3D Hidden
350
F7
  3
3dWireframe
350
F6
  3
Basic
350
F4
  3
Brighten
350
FB
  3
ColorChange
350
FF
  3
Conceptual
350
F8
  3
Dim
350
FA
  3
Facepattern
350
FE
  3
Flat
350
F0
  3
FlatWithEdges
350
F1
  3
Gouraud
350
F2
  3
GouraudWithEdges
350
F3
  3
Linepattern
350
FD
  3
Realistic
350
F9
  3
Thicken
350
FC
  0
XRECORD
  5
15D
102
{ACAD_REACTORS
330
C
102
}
330
C
100
AcDbXrecord
280
     1
 90
        1
330
7F
  0
DICTIONARY
  5
5E
102
{ACAD_REACTORS
330
C
102
}
330
C
100
AcDbDictionary
281
     1
  3
CANNOSCALE
350
146
  3
CMLEADERSTYLE
350
145
  3
CTABLESTYLE
350
84
  3
DIMASSOC
350
5F
  3
HIDETEXT
350
63
  3
INDEXCTL
350
106D
  3
LIGHTINGUNITS
350
106B
  3
MSLTSCALE
350
106A
  3
PSOLHEIGHT
350
106F
  3
PSOLWIDTH
350
106E
  3
SORTENTS
350
106C
  0
XRECORD
  5
1071
102
{ACAD_REACTORS
330
C
102
}
330
C
100
AcDbXrecord
280
     1
  1
DWGPROPS COOKIE
  2

  3

  4

  6

  7

  8
orhan kara
  9

300
=
301
=
302
=
303
=
304
=
305
=
306
=
307
=
308
=
309
=
 40
0.0013331944444444
 41
2458536.422806123
 42
2459089.544716447
  1

 90
        0
  0
XRECORD
  5
DC3
102
{ACAD_REACTORS
330
13C
102
}
330
13C
100
AcDbXrecord
280
     1
290
     1
  0
LAYOUT
  5
D3
102
{ACAD_XDICTIONARY
360
1075
102
}
102
{ACAD_REACTORS
330
1A
102
}
330
1A
100
AcDbPlotSettings
  1

  2
C:\Documents and Settings\basas\Application Data\Autodesk\AutoCAD 2005\R16.1\enu\plotters\Default Windows System Printer.pc3
  4

  6

 40
0.0
 41
0.0
 42
0.0
 43
0.0
 44
0.0
 45
0.0
 46
0.0
 47
0.0
 48
0.0
 49
0.0
140
0.0
141
0.0
142
1.0
143
1.0
 70
   688
 72
     0
 73
     0
 74
     5
  7

 75
    16
147
1.0
148
0.0
149
0.0
100
AcDbLayout
  1
Layout1
 70
     1
 71
     1
 10
0.0
 20
0.0
 11
12.0
 21
9.0
 12
0.0
 22
0.0
 32
0.0
 14
0.0
 24
0.0
 34
0.0
 15
0.0
 25
0.0
 35
0.0
146
0.0
 13
0.0
 23
0.0
 33
0.0
 16
1.0
 26
0.0
 36
0.0
 17
0.0
 27
1.0
 37
0.0
 76
     0
330
D2
  0
LAYOUT
  5
D7
102
{ACAD_XDICTIONARY
360
1077
102
}
102
{ACAD_REACTORS
330
1A
102
}
330
1A
100
AcDbPlotSettings
  1

  2
C:\Documents and Settings\basas\Application Data\Autodesk\AutoCAD 2005\R16.1\enu\plotters\Default Windows System Printer.pc3
  4

  6

 40
0.0
 41
0.0
 42
0.0
 43
0.0
 44
0.0
 45
0.0
 46
0.0
 47
0.0
 48
0.0
 49
0.0
140
0.0
141
0.0
142
1.0
143
1.0
 70
   688
 72
     0
 73
     0
 74
     5
  7

 75
    16
147
1.0
148
0.0
149
0.0
100
AcDbLayout
  1
Layout2
 70
     1
 71
     2
 10
0.0
 20
0.0
 11
12.0
 21
9.0
 12
0.0
 22
0.0
 32
0.0
 14
0.0
 24
0.0
 34
0.0
 15
0.0
 25
0.0
 35
0.0
146
0.0
 13
0.0
 23
0.0
 33
0.0
 16
1.0
 26
0.0
 36
0.0
 17
0.0
 27
1.0
 37
0.0
 76
     0
330
D6
  0
LAYOUT
  5
22
102
{ACAD_XDICTIONARY
360
1072
102
}
102
{ACAD_REACTORS
330
1A
102
}
330
1A
100
AcDbPlotSettings
  1

  2
none_device
  4
ISO_A4_(210.00_x_297.00_MM)
  6

 40
7.5
 41
20.0
 42
7.5
 43
20.0
 44
210.0
 45
297.0
 46
11.54999923706054
 47
-13.65000009536743
 48
0.0
 49
0.0
140
0.0
141
0.0
142
1.0
143
8.704084754739808
 70
 11952
 72
     1
 73
     0
 74
     0
  7

 75
     0
147
0.1148885871608098
148
0.0
149
0.0
100
AcDbLayout
  1
Model
 70
     1
 71
     0
 10
0.0
 20
0.0
 11
12.0
 21
9.0
 12
0.0
 22
0.0
 32
0.0
 14
0.0
 24
0.0
 34
0.0
 15
0.0
 25
0.0
 35
0.0
146
0.0
 13
0.0
 23
0.0
 33
0.0
 16
1.0
 26
0.0
 36
0.0
 17
0.0
 27
1.0
 37
0.0
 76
     0
330
1F
331
EA
1001
ACAD_PSEXT
1000
None
1000
None
1000
Not applicable
1000
The layout will not be plotted unless a new plotter configuration name is selected.
1070
     0
  0
MATERIAL
  5
ED
102
{ACAD_XDICTIONARY
360
107B
102
}
102
{ACAD_REACTORS
330
6A
102
}
330
6A
100
AcDbMaterial
  1
ByBlock
  0
MATERIAL
  5
EC
102
{ACAD_XDICTIONARY
360
1079
102
}
102
{ACAD_REACTORS
330
6A
102
}
330
6A
100
AcDbMaterial
  1
ByLayer
  0
MATERIAL
  5
EE
102
{ACAD_XDICTIONARY
360
173
102
}
102
{ACAD_REACTORS
330
6A
102
}
330
6A
100
AcDbMaterial
  1
Global
 43
0.0007999999797903
 43
0.0
 43
0.0
 43
0.0
 43
0.0
 43
0.0007999999797903
 43
0.0
 43
0.0
 43
0.0
 43
0.0
 43
1.0
 43
0.0
 43
0.0
 43
0.0
 43
0.0
 43
1.0
 49
0.0007999999797903
 49
0.0
 49
0.0
 49
0.0
 49
0.0
 49
0.0007999999797903
 49
0.0
 49
0.0
 49
0.0
 49
0.0
 49
1.0
 49
0.0
 49
0.0
 49
0.0
 49
0.0
 49
1.0
142
0.0007999999797903
142
0.0
142
0.0
142
0.0
142
0.0
142
0.0007999999797903
142
0.0
142
0.0
142
0.0
142
0.0
142
1.0
142
0.0
142
0.0
142
0.0
142
0.0
142
1.0
144
0.0007999999797903
144
0.0
144
0.0
144
0.0
144
0.0
144
0.0007999999797903
144
0.0
144
0.0
144
0.0
144
0.0
144
1.0
144
0.0
144
0.0
144
0.0
144
0.0
144
1.0
1001
ACAD
1070
    -1
1070
     3
1070
     0
1000

1071
        0
1070
     0
  0
MLEADERSTYLE
  5
13B
102
{ACAD_REACTORS
330
12D
102
}
330
12D
100
AcDbMLeaderStyle
170
     2
171
     1
172
     0
 90
        2
 40
0.0
 41
0.0
173
     1
 91
-1056964608
340
14
 92
       -2
290
     1
 42
2.0
291
     1
 43
8.0
  3
Standard
 44
4.0
300

342
11
174
     1
178
     1
175
     1
176
     0
 93
-1056964608
 45
4.0
292
     0
297
     0
 46
4.0
 94
-1056964608
 47
1.0
 49
1.0
140
1.0
293
     1
141
0.0
294
     1
177
     0
142
1.0
295
     0
296
     1
143
3.75
1001
ACAD_MLEADERVER
1070
     2
  0
MLEADERSTYLE
  5
12E
102
{ACAD_REACTORS
330
12D
102
}
330
12D
100
AcDbMLeaderStyle
170
     2
171
     1
172
     0
 90
        2
 40
0.0
 41
0.0
173
     1
 91
-1056964608
340
14
 92
       -2
290
     1
 42
2.0
291
     1
 43
8.0
  3
Standard
 44
4.0
300

342
11
174
     1
178
     1
175
     1
176
     0
 93
-1056964608
 45
4.0
292
     0
297
     0
 46
4.0
 94
-1056964608
 47
1.0
 49
1.0
140
1.0
293
     1
141
0.0
294
     1
177
     0
142
1.0
295
     0
296
     0
143
3.75
1001
ACAD_MLEADERVER
1070
     2
  0
MLINESTYLE
  5
18
102
{ACAD_REACTORS
330
17
102
}
330
17
100
AcDbMlineStyle
  2
STANDARD
 70
     0
  3

 62
   256
 51
90.0
 52
90.0
 71
     2
 49
0.5
 62
   256
  6
BYLAYER
 49
-0.5
 62
   256
  6
BYLAYER
  0
ACDBPLACEHOLDER
  5
F
102
{ACAD_REACTORS
330
E
102
}
330
E
  0
SCALE
  5
10D
102
{ACAD_REACTORS
330
10C
102
}
330
10C
100
AcDbScale
 70
     0
300
1:1
140
1.0
141
1.0
290
     1
  0
SCALE
  5
188
102
{ACAD_REACTORS
330
10C
102
}
330
10C
100
AcDbScale
 70
     0
300
1:2
140
1.0
141
2.0
290
     0
  0
SCALE
  5
189
102
{ACAD_REACTORS
330
10C
102
}
330
10C
100
AcDbScale
 70
     0
300
1:4
140
1.0
141
4.0
290
     0
  0
SCALE
  5
18A
102
{ACAD_REACTORS
330
10C
102
}
330
10C
100
AcDbScale
 70
     0
300
1:5
140
1.0
141
5.0
290
     0
  0
SCALE
  5
18B
102
{ACAD_REACTORS
330
10C
102
}
330
10C
100
AcDbScale
 70
     0
300
1:8
140
1.0
141
8.0
290
     0
  0
SCALE
  5
18C
102
{ACAD_REACTORS
330
10C
102
}
330
10C
100
AcDbScale
 70
     0
300
1:10
140
1.0
141
10.0
290
     0
  0
SCALE
  5
18D
102
{ACAD_REACTORS
330
10C
102
}
330
10C
100
AcDbScale
 70
     0
300
1:16
140
1.0
141
16.0
290
     0
  0
SCALE
  5
18E
102
{ACAD_REACTORS
330
10C
102
}
330
10C
100
AcDbScale
 70
     0
300
1:20
140
1.0
141
20.0
290
     0
  0
SCALE
  5
18F
102
{ACAD_REACTORS
330
10C
102
}
330
10C
100
AcDbScale
 70
     0
300
1:30
140
1.0
141
30.0
290
     0
  0
SCALE
  5
190
102
{ACAD_REACTORS
330
10C
102
}
330
10C
100
AcDbScale
 70
     0
300
1:40
140
1.0
141
40.0
290
     0
  0
SCALE
  5
191
102
{ACAD_REACTORS
330
10C
102
}
330
10C
100
AcDbScale
 70
     0
300
1:50
140
1.0
141
50.0
290
     0
  0
SCALE
  5
192
102
{ACAD_REACTORS
330
10C
102
}
330
10C
100
AcDbScale
 70
     0
300
1:100
140
1.0
141
100.0
290
     0
  0
SCALE
  5
193
102
{ACAD_REACTORS
330
10C
102
}
330
10C
100
AcDbScale
 70
     0
300
2:1
140
2.0
141
1.0
290
     0
  0
SCALE
  5
194
102
{ACAD_REACTORS
330
10C
102
}
330
10C
100
AcDbScale
 70
     0
300
4:1
140
4.0
141
1.0
290
     0
  0
SCALE
  5
195
102
{ACAD_REACTORS
330
10C
102
}
330
10C
100
AcDbScale
 70
     0
300
8:1
140
8.0
141
1.0
290
     0
  0
SCALE
  5
196
102
{ACAD_REACTORS
330
10C
102
}
330
10C
100
AcDbScale
 70
     0
300
10:1
140
10.0
141
1.0
290
     0
  0
SCALE
  5
197
102
{ACAD_REACTORS
330
10C
102
}
330
10C
100
AcDbScale
 70
     0
300
100:1
140
100.0
141
1.0
290
     0
  0
SCALE
  5
198
102
{ACAD_REACTORS
330
10C
102
}
330
10C
100
AcDbScale
 70
     0
300
1/128" = 1'-0"
140
0.0078125
141
12.0
290
     0
  0
SCALE
  5
199
102
{ACAD_REACTORS
330
10C
102
}
330
10C
100
AcDbScale
 70
     0
300
1/64" = 1'-0"
140
0.015625
141
12.0
290
     0
  0
SCALE
  5
19A
102
{ACAD_REACTORS
330
10C
102
}
330
10C
100
AcDbScale
 70
     0
300
1/32" = 1'-0"
140
0.03125
141
12.0
290
     0
  0
SCALE
  5
19B
102
{ACAD_REACTORS
330
10C
102
}
330
10C
100
AcDbScale
 70
     0
300
1/16" = 1'-0"
140
0.0625
141
12.0
290
     0
  0
SCALE
  5
19C
102
{ACAD_REACTORS
330
10C
102
}
330
10C
100
AcDbScale
 70
     0
300
3/32" = 1'-0"
140
0.09375
141
12.0
290
     0
  0
SCALE
  5
19D
102
{ACAD_REACTORS
330
10C
102
}
330
10C
100
AcDbScale
 70
     0
300
1/8" = 1'-0"
140
0.125
141
12.0
290
     0
  0
SCALE
  5
19E
102
{ACAD_REACTORS
330
10C
102
}
330
10C
100
AcDbScale
 70
     0
300
3/16" = 1'-0"
140
0.1875
141
12.0
290
     0
  0
SCALE
  5
19F
102
{ACAD_REACTORS
330
10C
102
}
330
10C
100
AcDbScale
 70
     0
300
1/4" = 1'-0"
140
0.25
141
12.0
290
     0
  0
SCALE
  5
1A0
102
{ACAD_REACTORS
330
10C
102
}
330
10C
100
AcDbScale
 70
     0
300
3/8" = 1'-0"
140
0.375
141
12.0
290
     0
  0
SCALE
  5
1A1
102
{ACAD_REACTORS
330
10C
102
}
330
10C
100
AcDbScale
 70
     0
300
1/2" = 1'-0"
140
0.5
141
12.0
290
     0
  0
SCALE
  5
1A2
102
{ACAD_REACTORS
330
10C
102
}
330
10C
100
AcDbScale
 70
     0
300
3/4" = 1'-0"
140
0.75
141
12.0
290
     0
  0
SCALE
  5
1A3
102
{ACAD_REACTORS
330
10C
102
}
330
10C
100
AcDbScale
 70
     0
300
1" = 1'-0"
140
1.0
141
12.0
290
     0
  0
SCALE
  5
1A4
102
{ACAD_REACTORS
330
10C
102
}
330
10C
100
AcDbScale
 70
     0
300
1-1/2" = 1'-0"
140
1.5
141
12.0
290
     0
  0
SCALE
  5
1A5
102
{ACAD_REACTORS
330
10C
102
}
330
10C
100
AcDbScale
 70
     0
300
3" = 1'-0"
140
3.0
141
12.0
290
     0
  0
SCALE
  5
1A6
102
{ACAD_REACTORS
330
10C
102
}
330
10C
100
AcDbScale
 70
     0
300
6" = 1'-0"
140
6.0
141
12.0
290
     0
  0
SCALE
  5
1A7
102
{ACAD_REACTORS
330
10C
102
}
330
10C
100
AcDbScale
 70
     0
300
1'-0" = 1'-0"
140
12.0
141
12.0
290
     0
  0
TABLESTYLE
  5
7F
102
{ACAD_XDICTIONARY
360
162
102
}
102
{ACAD_REACTORS
330
7E
102
}
330
7E
100
AcDbTableStyle
  3
Standard
 70
     0
 71
     0
 40
1.5
 41
1.5
280
     0
281
     0
  7
Standard
140
4.5
170
     2
 62
     0
 63
     7
283
     0
274
    -2
284
     1
 64
     0
275
    -2
285
     1
 65
     0
276
    -2
286
     1
 66
     0
277
    -2
287
     1
 67
     0
278
    -2
288
     1
 68
     0
279
    -2
289
     1
 69
     0
  7
Standard
140
6.0
170
     5
 62
     0
 63
     7
283
     0
274
    -2
284
     1
 64
     0
275
    -2
285
     1
 65
     0
276
    -2
286
     1
 66
     0
277
    -2
287
     1
 67
     0
278
    -2
288
     1
 68
     0
279
    -2
289
     1
 69
     0
  7
Standard
140
4.5
170
     5
 62
     0
 63
     7
283
     0
274
    -2
284
     1
 64
     0
275
    -2
285
     1
 65
     0
276
    -2
286
     1
 66
     0
277
    -2
287
     1
 67
     0
278
    -2
288
     1
 68
     0
279
    -2
289
     1
 69
     0
  0
VISUALSTYLE
  5
F5
102
{ACAD_REACTORS
330
EF
102
}
330
EF
100
AcDbVisualStyle
  2
2dWireframe
 70
     4
 71
     0
 72
     2
 73
     1
 90
        0
 40
-0.6
 41
-30.0
 62
     5
 63
     7
 74
     1
 91
        4
 64
     7
 65
   257
 75
     1
175
     1
 42
1.0
 92
        0
 66
   257
 43
1.0
 76
     1
 77
     6
 78
     2
 67
     7
 79
     5
170
     0
171
     0
290
     0
174
     0
 93
        1
 44
0.0
173
     0
291
     0
 45
0.0
1001
ACAD
1000
AcDbSavedByObjectVersion
1070
     0
  0
VISUALSTYLE
  5
F7
102
{ACAD_REACTORS
330
EF
102
}
330
EF
100
AcDbVisualStyle
  2
3D Hidden
 70
     6
 71
     1
 72
     2
 73
     2
 90
        0
 40
-0.6
 41
-30.0
 62
     5
 63
     7
 74
     2
 91
        2
 64
     7
 65
   257
 75
     2
175
     1
 42
40.0
 92
        0
 66
   257
 43
1.0
 76
     1
 77
     6
 78
     2
 67
     7
 79
     3
170
     0
171
     0
290
     0
174
     0
 93
        1
 44
0.0
173
     0
291
     0
 45
0.0
1001
ACAD
1000
AcDbSavedByObjectVersion
1070
     0
  0
VISUALSTYLE
  5
F6
102
{ACAD_REACTORS
330
EF
102
}
330
EF
100
AcDbVisualStyle
  2
3dWireframe
 70
     5
 71
     0
 72
     2
 73
     1
 90
        0
 40
-0.6
 41
-30.0
 62
     5
 63
     7
 74
     1
 91
        4
 64
     7
 65
   257
 75
     1
175
     1
 42
1.0
 92
        0
 66
   257
 43
1.0
 76
     1
 77
     6
 78
     2
 67
     7
 79
     5
170
     0
171
     0
290
     0
174
     0
 93
        1
 44
0.0
173
     0
291
     0
 45
0.0
1001
ACAD
1000
AcDbSavedByObjectVersion
1070
     0
  0
VISUALSTYLE
  5
F4
102
{ACAD_REACTORS
330
EF
102
}
330
EF
100
AcDbVisualStyle
  2
Basic
 70
     7
 71
     1
 72
     0
 73
     1
 90
        0
 40
-0.6
 41
-30.0
 62
     5
 63
     7
 74
     0
 91
        4
 64
     7
 65
   257
 75
     1
175
     1
 42
1.0
 92
        8
 66
     7
 43
1.0
 76
     1
 77
     6
 78
     2
 67
     7
 79
     5
170
     0
171
     0
290
     0
174
     0
 93
        1
 44
0.0
173
     0
291
     1
 45
0.0
1001
ACAD
1000
AcDbSavedByObjectVersion
1070
     0
  0
VISUALSTYLE
  5
FB
102
{ACAD_REACTORS
330
EF
102
}
330
EF
100
AcDbVisualStyle
  2
Brighten
 70
    12
 71
     2
 72
     2
 73
     1
 90
        0
 40
-0.6
 41
-30.0
 62
     5
 63
     7
 74
     1
 91
        4
 64
     7
 65
   257
 75
     1
175
     1
 42
1.0
 92
        8
 66
     7
 43
1.0
 76
     1
 77
     6
 78
     2
 67
     7
 79
     5
170
     0
171
     0
290
     0
174
     0
 93
        1
 44
50.0
173
     0
291
     1
 45
0.0
1001
ACAD
1000
AcDbSavedByObjectVersion
1070
     0
  0
VISUALSTYLE
  5
FF
102
{ACAD_REACTORS
330
EF
102
}
330
EF
100
AcDbVisualStyle
  2
ColorChange
 70
    16
 71
     2
 72
     2
 73
     3
 90
        0
 40
-0.6
 41
-30.0
 62
     5
 63
     8
 74
     1
 91
        4
 64
     7
 65
   257
 75
     1
175
     1
 42
1.0
 92
        8
 66
     8
 43
1.0
 76
     1
 77
     6
 78
     2
 67
     7
 79
     5
170
     0
171
     0
290
     0
174
     0
 93
        1
 44
0.0
173
     0
291
     1
 45
0.0
1001
ACAD
1000
AcDbSavedByObjectVersion
1070
     0
  0
VISUALSTYLE
  5
F8
102
{ACAD_REACTORS
330
EF
102
}
330
EF
100
AcDbVisualStyle
  2
Conceptual
 70
     9
 71
     3
 72
     2
 73
     1
 90
        0
 40
-0.6
 41
-30.0
 62
     5
 63
     7
 74
     2
 91
        2
 64
     7
 65
   257
 75
     1
175
     1
 42
40.0
 92
        8
 66
     7
 43
1.0
 76
     1
 77
     6
 78
     2
 67
     7
 79
     3
170
     0
171
     0
290
     0
174
     0
 93
        1
 44
0.0
173
     0
291
     0
 45
0.0
1001
ACAD
1000
AcDbSavedByObjectVersion
1070
     0
  0
VISUALSTYLE
  5
FA
102
{ACAD_REACTORS
330
EF
102
}
330
EF
100
AcDbVisualStyle
  2
Dim
 70
    11
 71
     2
 72
     2
 73
     1
 90
        0
 40
-0.6
 41
-30.0
 62
     5
 63
     7
 74
     1
 91
        4
 64
     7
 65
   257
 75
     1
175
     1
 42
1.0
 92
        8
 66
     7
 43
1.0
 76
     1
 77
     6
 78
     2
 67
     7
 79
     5
170
     0
171
     0
290
     0
174
     0
 93
        1
 44
-50.0
173
     0
291
     1
 45
0.0
1001
ACAD
1000
AcDbSavedByObjectVersion
1070
     0
  0
VISUALSTYLE
  5
FE
102
{ACAD_REACTORS
330
EF
102
}
330
EF
100
AcDbVisualStyle
  2
Facepattern
 70
    15
 71
     2
 72
     2
 73
     1
 90
        0
 40
-0.6
 41
-30.0
 62
     5
 63
     7
 74
     1
 91
        4
 64
     7
 65
   257
 75
     1
175
     1
 42
1.0
 92
        8
 66
     7
 43
1.0
 76
     1
 77
     6
 78
     2
 67
     7
 79
     5
170
     0
171
     0
290
     0
174
     0
 93
        1
 44
0.0
173
     0
291
     1
 45
0.0
1001
ACAD
1000
AcDbSavedByObjectVersion
1070
     0
  0
VISUALSTYLE
  5
F0
102
{ACAD_REACTORS
330
EF
102
}
330
EF
100
AcDbVisualStyle
  2
Flat
 70
     0
 71
     2
 72
     1
 73
     1
 90
        2
 40
-0.6
 41
30.0
 62
     5
 63
     7
 74
     0
 91
        4
 64
     7
 65
   257
 75
     1
175
     1
 42
1.0
 92
        8
 66
     7
 43
1.0
 76
     1
 77
     6
 78
     2
 67
     7
 79
     5
170
     0
171
     0
290
     0
174
     0
 93
        1
 44
0.0
173
     0
291
     1
 45
0.0
1001
ACAD
1000
AcDbSavedByObjectVersion
1070
     0
  0
VISUALSTYLE
  5
F1
102
{ACAD_REACTORS
330
EF
102
}
330
EF
100
AcDbVisualStyle
  2
FlatWithEdges
 70
     1
 71
     2
 72
     1
 73
     1
 90
        2
 40
-0.6
 41
30.0
 62
     5
 63
     7
 74
     1
 91
        4
 64
     7
 65
   257
 75
     1
175
     1
 42
1.0
 92
        0
 66
   257
 43
1.0
 76
     1
 77
     6
 78
     2
 67
     7
 79
     5
170
     0
171
     0
290
     0
174
     0
 93
        1
 44
0.0
173
     0
291
     1
 45
0.0
1001
ACAD
1000
AcDbSavedByObjectVersion
1070
     0
  0
VISUALSTYLE
  5
F2
102
{ACAD_REACTORS
330
EF
102
}
330
EF
100
AcDbVisualStyle
  2
Gouraud
 70
     2
 71
     2
 72
     2
 73
     1
 90
        2
 40
-0.6
 41
30.0
 62
     5
 63
     7
 74
     0
 91
        4
 64
     7
 65
   257
 75
     1
175
     1
 42
1.0
 92
        0
 66
     7
 43
1.0
 76
     1
 77
     6
 78
     2
 67
     7
 79
     5
170
     0
171
     0
290
     0
174
     0
 93
        1
 44
0.0
173
     0
291
     1
 45
0.0
1001
ACAD
1000
AcDbSavedByObjectVersion
1070
     0
  0
VISUALSTYLE
  5
F3
102
{ACAD_REACTORS
330
EF
102
}
330
EF
100
AcDbVisualStyle
  2
GouraudWithEdges
 70
     3
 71
     2
 72
     2
 73
     1
 90
        2
 40
-0.6
 41
30.0
 62
     5
 63
     7
 74
     1
 91
        4
 64
     7
 65
   257
 75
     1
175
     1
 42
1.0
 92
        0
 66
   257
 43
1.0
 76
     1
 77
     6
 78
     2
 67
     7
 79
     5
170
     0
171
     0
290
     0
174
     0
 93
        1
 44
0.0
173
     0
291
     1
 45
0.0
1001
ACAD
1000
AcDbSavedByObjectVersion
1070
     0
  0
VISUALSTYLE
  5
FD
102
{ACAD_REACTORS
330
EF
102
}
330
EF
100
AcDbVisualStyle
  2
Linepattern
 70
    14
 71
     2
 72
     2
 73
     1
 90
        0
 40
-0.6
 41
-30.0
 62
     5
 63
     7
 74
     1
 91
        4
 64
     7
 65
   257
 75
     7
175
     7
 42
1.0
 92
        8
 66
     7
 43
1.0
 76
     1
 77
     6
 78
     2
 67
     7
 79
     5
170
     0
171
     0
290
     0
174
     0
 93
        1
 44
0.0
173
     0
291
     1
 45
0.0
1001
ACAD
1000
AcDbSavedByObjectVersion
1070
     0
  0
VISUALSTYLE
  5
F9
102
{ACAD_REACTORS
330
EF
102
}
330
EF
100
AcDbVisualStyle
  2
Realistic
 70
     8
 71
     2
 72
     2
 73
     1
 90
        0
 40
-0.6
 41
-30.0
 62
     5
 63
     7
 74
     1
 91
        0
 64
     7
 65
   257
 75
     1
175
     1
 42
1.0
 92
        8
 66
     8
 43
1.0
 76
     1
 77
     6
 78
     2
 67
     7
 79
     5
170
     0
171
     0
290
     0
174
     0
 93
       13
 44
0.0
173
     0
291
     0
 45
0.0
1001
ACAD
1000
AcDbSavedByObjectVersion
1070
     0
  0
VISUALSTYLE
  5
FC
102
{ACAD_REACTORS
330
EF
102
}
330
EF
100
AcDbVisualStyle
  2
Thicken
 70
    13
 71
     2
 72
     2
 73
     1
 90
        0
 40
-0.6
 41
-30.0
 62
     5
 63
     7
 74
     1
 91
        4
 64
     7
 65
   257
 75
     1
175
     1
 42
1.0
 92
       12
 66
     7
 43
1.0
 76
     1
 77
     6
 78
     2
 67
     7
 79
     5
170
     0
171
     0
290
     0
174
     0
 93
        1
 44
0.0
173
     0
291
     1
 45
0.0
1001
ACAD
1000
AcDbSavedByObjectVersion
1070
     0
  0
DICTIONARYVAR
  5
146
102
{ACAD_REACTORS
330
5E
102
}
330
5E
100
DictionaryVariables
280
     0
  1
1:1
  0
DICTIONARYVAR
  5
145
102
{ACAD_REACTORS
330
5E
102
}
330
5E
100
DictionaryVariables
280
     0
  1
STANDARD
  0
DICTIONARYVAR
  5
84
102
{ACAD_REACTORS
330
5E
102
}
330
5E
100
DictionaryVariables
280
     0
  1
STANDARD
  0
DICTIONARYVAR
  5
5F
102
{ACAD_REACTORS
330
5E
102
}
330
5E
100
DictionaryVariables
280
     0
  1
2
  0
DICTIONARYVAR
  5
63
102
{ACAD_REACTORS
330
5E
102
}
330
5E
100
DictionaryVariables
280
     0
  1
1
  0
DICTIONARYVAR
  5
106D
102
{ACAD_REACTORS
330
5E
102
}
330
5E
100
DictionaryVariables
280
     0
  1
0
  0
DICTIONARYVAR
  5
106B
102
{ACAD_REACTORS
330
5E
102
}
330
5E
100
DictionaryVariables
280
     0
  1
2
  0
DICTIONARYVAR
  5
106A
102
{ACAD_REACTORS
330
5E
102
}
330
5E
100
DictionaryVariables
280
     0
  1
1
  0
DICTIONARYVAR
  5
106F
102
{ACAD_REACTORS
330
5E
102
}
330
5E
100
DictionaryVariables
280
     0
  1
80.000000
  0
DICTIONARYVAR
  5
106E
102
{ACAD_REACTORS
330
5E
102
}
330
5E
100
DictionaryVariables
280
     0
  1
5.000000
  0
DICTIONARYVAR
  5
106C
102
{ACAD_REACTORS
330
5E
102
}
330
5E
100
DictionaryVariables
280
     0
  1
127
  0
DICTIONARY
  5
1075
330
D3
100
AcDbDictionary
280
     1
281
     1
  3
ACAD_XREC_ROUNDTRIP
360
1076
  0
DICTIONARY
  5
1077
330
D7
100
AcDbDictionary
280
     1
281
     1
  3
ACAD_XREC_ROUNDTRIP
360
1078
  0
DICTIONARY
  5
1072
330
22
100
AcDbDictionary
280
     1
281
     1
  3
ACAD_XREC_ROUNDTRIP
360
1073
  0
DICTIONARY
  5
107B
330
ED
100
AcDbDictionary
280
     1
281
     1
  3
ACAD_XREC_ROUNDTRIP
360
107C
  0
DICTIONARY
  5
1079
330
EC
100
AcDbDictionary
280
     1
281
     1
  3
ACAD_XREC_ROUNDTRIP
360
107A
  0
DICTIONARY
  5
173
330
EE
100
AcDbDictionary
280
     1
281
     1
  3
ACAD_XREC_ROUNDTRIP
360
107D
  3
BUMPTILE
360
175
  3
DIFFUSETILE
360
174
  3
OPACITYTILE
360
176
  3
REFLECTIONTILE
360
177
  0
DICTIONARY
  5
162
330
7F
100
AcDbDictionary
280
     1
281
     1
  3
ACAD_ROUNDTRIP_2008_TABLESTYLE_CELLSTYLEMAP
360
1070
  3
ACAD_XREC_ROUNDTRIP
360
1074
  0
XRECORD
  5
1076
102
{ACAD_REACTORS
330
1075
102
}
330
1075
100
AcDbXrecord
280
     1
102
SHADEPLOT
 70
     0
102
SHADEPLOTRESLEVEL
 70
     2
102
SHADEPLOTCUSTOMDPI
 70
   300
  0
XRECORD
  5
1078
102
{ACAD_REACTORS
330
1077
102
}
330
1077
100
AcDbXrecord
280
     1
102
SHADEPLOT
 70
     0
102
SHADEPLOTRESLEVEL
 70
     2
102
SHADEPLOTCUSTOMDPI
 70
   300
  0
XRECORD
  5
1073
102
{ACAD_REACTORS
330
1072
102
}
330
1072
100
AcDbXrecord
280
     1
102
SHADEPLOT
 70
     0
102
SHADEPLOTRESLEVEL
 70
     2
102
SHADEPLOTCUSTOMDPI
 70
   300
  0
XRECORD
  5
107C
102
{ACAD_REACTORS
330
107B
102
}
330
107B
100
AcDbXrecord
280
     1
102
MATERIAL
148
0.0
149
0.0
149
0.0
 93
        0
 94
       63
282
     0
 72
     1
 77
     1
171
     1
175
     1
179
     1
273
     0
  0
XRECORD
  5
107A
102
{ACAD_REACTORS
330
1079
102
}
330
1079
100
AcDbXrecord
280
     1
102
MATERIAL
148
0.0
149
0.0
149
0.0
 93
        0
 94
       63
282
     0
 72
     1
 77
     1
171
     1
175
     1
179
     1
273
     0
  0
XRECORD
  5
107D
102
{ACAD_REACTORS
330
173
102
}
330
173
100
AcDbXrecord
280
     1
102
MATERIAL
148
0.0
149
0.0
149
0.0
 93
        0
 94
       63
282
     0
 72
     1
 77
     1
171
     1
175
     1
179
     1
273
     0
  0
XRECORD
  5
175
102
{ACAD_REACTORS
330
173
102
}
330
173
100
AcDbXrecord
280
     1
270
     1
271
     1
  0
XRECORD
  5
174
102
{ACAD_REACTORS
330
173
102
}
330
173
100
AcDbXrecord
280
     1
270
     1
271
     1
  0
XRECORD
  5
176
102
{ACAD_REACTORS
330
173
102
}
330
173
100
AcDbXrecord
280
     1
270
     1
271
     1
  0
XRECORD
  5
177
102
{ACAD_REACTORS
330
173
102
}
330
173
100
AcDbXrecord
280
     1
270
     1
271
     1
  0
CELLSTYLEMAP
  5
1070
102
{ACAD_REACTORS
330
162
102
}
330
162
100
AcDbCellStyleMap
 90
        3
300
CELLSTYLE
  1
TABLEFORMAT_BEGIN
 90
        5
170
     1
 91
        0
 92
    32768
 62
   257
 93
        1
300
CONTENTFORMAT
  1
CONTENTFORMAT_BEGIN
 90
        0
 91
        0
 92
      512
 93
        0
300

 40
0.0
140
1.0
 94
        5
 62
     0
340
11
144
6.0
309
CONTENTFORMAT_END
171
     1
301
MARGIN
  1
CELLMARGIN_BEGIN
 40
1.5
 40
1.5
 40
1.5
 40
1.5
 40
4.5
 40
4.5
309
CELLMARGIN_END
 94
        6
 95
        1
302
GRIDFORMAT
  1
GRIDFORMAT_BEGIN
 90
        0
 91
        1
 62
     0
 92
       -2
340
14
 93
        0
 40
1.125
309
GRIDFORMAT_END
 95
        2
302
GRIDFORMAT
  1
GRIDFORMAT_BEGIN
 90
        0
 91
        1
 62
     0
 92
       -2
340
14
 93
        0
 40
1.125
309
GRIDFORMAT_END
 95
        4
302
GRIDFORMAT
  1
GRIDFORMAT_BEGIN
 90
        0
 91
        1
 62
     0
 92
       -2
340
14
 93
        0
 40
1.125
309
GRIDFORMAT_END
 95
        8
302
GRIDFORMAT
  1
GRIDFORMAT_BEGIN
 90
        0
 91
        1
 62
     0
 92
       -2
340
14
 93
        0
 40
1.125
309
GRIDFORMAT_END
 95
       16
302
GRIDFORMAT
  1
GRIDFORMAT_BEGIN
 90
        0
 91
        1
 62
     0
 92
       -2
340
14
 93
        0
 40
1.125
309
GRIDFORMAT_END
 95
       32
302
GRIDFORMAT
  1
GRIDFORMAT_BEGIN
 90
        0
 91
        1
 62
     0
 92
       -2
340
14
 93
        0
 40
1.125
309
GRIDFORMAT_END
309
TABLEFORMAT_END
  1
CELLSTYLE_BEGIN
 90
        1
 91
        1
300
_TITLE
309
CELLSTYLE_END
300
CELLSTYLE
  1
TABLEFORMAT_BEGIN
 90
        5
170
     1
 91
        0
 92
        0
 62
   257
 93
        1
300
CONTENTFORMAT
  1
CONTENTFORMAT_BEGIN
 90
        0
 91
        0
 92
      512
 93
        0
300

 40
0.0
140
1.0
 94
        5
 62
     0
340
11
144
4.5
309
CONTENTFORMAT_END
171
     1
301
MARGIN
  1
CELLMARGIN_BEGIN
 40
1.5
 40
1.5
 40
1.5
 40
1.5
 40
4.5
 40
4.5
309
CELLMARGIN_END
 94
        6
 95
        1
302
GRIDFORMAT
  1
GRIDFORMAT_BEGIN
 90
        0
 91
        1
 62
     0
 92
       -2
340
14
 93
        0
 40
1.125
309
GRIDFORMAT_END
 95
        2
302
GRIDFORMAT
  1
GRIDFORMAT_BEGIN
 90
        0
 91
        1
 62
     0
 92
       -2
340
14
 93
        0
 40
1.125
309
GRIDFORMAT_END
 95
        4
302
GRIDFORMAT
  1
GRIDFORMAT_BEGIN
 90
        0
 91
        1
 62
     0
 92
       -2
340
14
 93
        0
 40
1.125
309
GRIDFORMAT_END
 95
        8
302
GRIDFORMAT
  1
GRIDFORMAT_BEGIN
 90
        0
 91
        1
 62
     0
 92
       -2
340
14
 93
        0
 40
1.125
309
GRIDFORMAT_END
 95
       16
302
GRIDFORMAT
  1
GRIDFORMAT_BEGIN
 90
        0
 91
        1
 62
     0
 92
       -2
340
14
 93
        0
 40
1.125
309
GRIDFORMAT_END
 95
       32
302
GRIDFORMAT
  1
GRIDFORMAT_BEGIN
 90
        0
 91
        1
 62
     0
 92
       -2
340
14
 93
        0
 40
1.125
309
GRIDFORMAT_END
309
TABLEFORMAT_END
  1
CELLSTYLE_BEGIN
 90
        2
 91
        1
300
_HEADER
309
CELLSTYLE_END
300
CELLSTYLE
  1
TABLEFORMAT_BEGIN
 90
        5
170
     1
 91
        0
 92
        0
 62
   257
 93
        1
300
CONTENTFORMAT
  1
CONTENTFORMAT_BEGIN
 90
        0
 91
        0
 92
      512
 93
        0
300

 40
0.0
140
1.0
 94
        2
 62
     0
340
11
144
4.5
309
CONTENTFORMAT_END
171
     1
301
MARGIN
  1
CELLMARGIN_BEGIN
 40
1.5
 40
1.5
 40
1.5
 40
1.5
 40
4.5
 40
4.5
309
CELLMARGIN_END
 94
        6
 95
        1
302
GRIDFORMAT
  1
GRIDFORMAT_BEGIN
 90
        0
 91
        1
 62
     0
 92
       -2
340
14
 93
        0
 40
1.125
309
GRIDFORMAT_END
 95
        2
302
GRIDFORMAT
  1
GRIDFORMAT_BEGIN
 90
        0
 91
        1
 62
     0
 92
       -2
340
14
 93
        0
 40
1.125
309
GRIDFORMAT_END
 95
        4
302
GRIDFORMAT
  1
GRIDFORMAT_BEGIN
 90
        0
 91
        1
 62
     0
 92
       -2
340
14
 93
        0
 40
1.125
309
GRIDFORMAT_END
 95
        8
302
GRIDFORMAT
  1
GRIDFORMAT_BEGIN
 90
        0
 91
        1
 62
     0
 92
       -2
340
14
 93
        0
 40
1.125
309
GRIDFORMAT_END
 95
       16
302
GRIDFORMAT
  1
GRIDFORMAT_BEGIN
 90
        0
 91
        1
 62
     0
 92
       -2
340
14
 93
        0
 40
1.125
309
GRIDFORMAT_END
 95
       32
302
GRIDFORMAT
  1
GRIDFORMAT_BEGIN
 90
        0
 91
        1
 62
     0
 92
       -2
340
14
 93
        0
 40
1.125
309
GRIDFORMAT_END
309
TABLEFORMAT_END
  1
CELLSTYLE_BEGIN
 90
        3
 91
        2
300
_DATA
309
CELLSTYLE_END
  0
XRECORD
  5
1074
102
{ACAD_REACTORS
330
162
102
}
330
162
100
AcDbXrecord
280
     1
102
ACAD_ROUNDTRIP_PRE2007_TABLESTYLE
 90
      512
 91
        0
  1

 92
      512
 93
        0
  2

 94
      512
 95
        0
  3

  0
ENDSEC
  0
EOF
