  0
SECTION
  2
HEADER
  9
$ACADVER
  1
AC1015
  9
$ACADMAINTVER
 70
    20
  9
$DWGCODEPAGE
  3
ANSI_1254
  9
$INSBASE
 10
0.0
 20
0.0
 30
0.0
  9
$EXTMIN
 10
1655.851078440296
 20
1356.29112817848
 30
0.0
  9
$EXTMAX
 10
1758.282505269277
 20
1424.512734392097
 30
0.0
  9
$LIMMIN
 10
0.0
 20
0.0
  9
$LIMMAX
 10
420.0
 20
297.0
  9
$ORTHOMODE
 70
     1
  9
$REGENMODE
 70
     1
  9
$FILLMODE
 70
     1
  9
$QTEXTMODE
 70
     0
  9
$MIRRTEXT
 70
     0
  9
$LTSCALE
 40
1.0
  9
$ATTMODE
 70
     1
  9
$TEXTSIZE
 40
2.5
  9
$TRACEWID
 40
1.0
  9
$TEXTSTYLE
  7
Standard
  9
$CLAYER
  8
0
  9
$CELTYPE
  6
ByLayer
  9
$CECOLOR
 62
   256
  9
$CELTSCALE
 40
1.0
  9
$DISPSILH
 70
     0
  9
$DIMSCALE
 40
1.0
  9
$DIMASZ
 40
2.5
  9
$DIMEXO
 40
0.625
  9
$DIMDLI
 40
3.75
  9
$DIMRND
 40
0.0
  9
$DIMDLE
 40
0.0
  9
$DIMEXE
 40
1.25
  9
$DIMTP
 40
0.0
  9
$DIMTM
 40
0.0
  9
$DIMTXT
 40
2.5
  9
$DIMCEN
 40
2.5
  9
$DIMTSZ
 40
0.0
  9
$DIMTOL
 70
     0
  9
$DIMLIM
 70
     0
  9
$DIMTIH
 70
     0
  9
$DIMTOH
 70
     0
  9
$DIMSE1
 70
     0
  9
$DIMSE2
 70
     0
  9
$DIMTAD
 70
     1
  9
$DIMZIN
 70
     8
  9
$DIMBLK
  1

  9
$DIMASO
 70
     1
  9
$DIMSHO
 70
     1
  9
$DIMPOST
  1

  9
$DIMAPOST
  1

  9
$DIMALT
 70
     0
  9
$DIMALTD
 70
     3
  9
$DIMALTF
 40
0.03937007874016
  9
$DIMLFAC
 40
1.0
  9
$DIMTOFL
 70
     1
  9
$DIMTVP
 40
0.0
  9
$DIMTIX
 70
     0
  9
$DIMSOXD
 70
     0
  9
$DIMSAH
 70
     0
  9
$DIMBLK1
  1

  9
$DIMBLK2
  1

  9
$DIMSTYLE
  2
ISO-25
  9
$DIMCLRD
 70
     0
  9
$DIMCLRE
 70
     0
  9
$DIMCLRT
 70
     0
  9
$DIMTFAC
 40
1.0
  9
$DIMGAP
 40
0.625
  9
$DIMJUST
 70
     0
  9
$DIMSD1
 70
     0
  9
$DIMSD2
 70
     0
  9
$DIMTOLJ
 70
     0
  9
$DIMTZIN
 70
     8
  9
$DIMALTZ
 70
     0
  9
$DIMALTTZ
 70
     0
  9
$DIMUPT
 70
     0
  9
$DIMDEC
 70
     2
  9
$DIMTDEC
 70
     2
  9
$DIMALTU
 70
     2
  9
$DIMALTTD
 70
     3
  9
$DIMTXSTY
  7
Standard
  9
$DIMAUNIT
 70
     0
  9
$DIMADEC
 70
     0
  9
$DIMALTRND
 40
0.0
  9
$DIMAZIN
 70
     0
  9
$DIMDSEP
 70
    44
  9
$DIMATFIT
 70
     3
  9
$DIMFRAC
 70
     0
  9
$DIMLDRBLK
  1

  9
$DIMLUNIT
 70
     2
  9
$DIMLWD
 70
    -2
  9
$DIMLWE
 70
    -2
  9
$DIMTMOVE
 70
     0
  9
$LUNITS
 70
     2
  9
$LUPREC
 70
     4
  9
$SKETCHINC
 40
1.0
  9
$FILLETRAD
 40
0.0
  9
$AUNITS
 70
     0
  9
$AUPREC
 70
     0
  9
$MENU
  1
.
  9
$ELEVATION
 40
0.0
  9
$PELEVATION
 40
0.0
  9
$THICKNESS
 40
0.0
  9
$LIMCHECK
 70
     0
  9
$CHAMFERA
 40
0.0
  9
$CHAMFERB
 40
0.0
  9
$CHAMFERC
 40
0.0
  9
$CHAMFERD
 40
0.0
  9
$SKPOLY
 70
     0
  9
$TDCREATE
 40
2458480.690475602
  9
$TDUCREATE
 40
2458480.565475602
  9
$TDUPDATE
 40
2459089.544499259
  9
$TDUUPDATE
 40
2459089.419499259
  9
$TDINDWG
 40
0.0012083449
  9
$TDUSRTIMER
 40
0.0012083449
  9
$USRTIMER
 70
     1
  9
$ANGBASE
 50
0.0
  9
$ANGDIR
 70
     0
  9
$PDMODE
 70
     0
  9
$PDSIZE
 40
0.0
  9
$PLINEWID
 40
0.0
  9
$SPLFRAME
 70
     0
  9
$SPLINETYPE
 70
     6
  9
$SPLINESEGS
 70
     8
  9
$HANDSEED
  5
F21
  9
$SURFTAB1
 70
     6
  9
$SURFTAB2
 70
     6
  9
$SURFTYPE
 70
     6
  9
$SURFU
 70
     6
  9
$SURFV
 70
     6
  9
$UCSBASE
  2

  9
$UCSNAME
  2

  9
$UCSORG
 10
0.0
 20
0.0
 30
0.0
  9
$UCSXDIR
 10
1.0
 20
0.0
 30
0.0
  9
$UCSYDIR
 10
0.0
 20
1.0
 30
0.0
  9
$UCSORTHOREF
  2

  9
$UCSORTHOVIEW
 70
     0
  9
$UCSORGTOP
 10
0.0
 20
0.0
 30
0.0
  9
$UCSORGBOTTOM
 10
0.0
 20
0.0
 30
0.0
  9
$UCSORGLEFT
 10
0.0
 20
0.0
 30
0.0
  9
$UCSORGRIGHT
 10
0.0
 20
0.0
 30
0.0
  9
$UCSORGFRONT
 10
0.0
 20
0.0
 30
0.0
  9
$UCSORGBACK
 10
0.0
 20
0.0
 30
0.0
  9
$PUCSBASE
  2

  9
$PUCSNAME
  2

  9
$PUCSORG
 10
0.0
 20
0.0
 30
0.0
  9
$PUCSXDIR
 10
1.0
 20
0.0
 30
0.0
  9
$PUCSYDIR
 10
0.0
 20
1.0
 30
0.0
  9
$PUCSORTHOREF
  2

  9
$PUCSORTHOVIEW
 70
     0
  9
$PUCSORGTOP
 10
0.0
 20
0.0
 30
0.0
  9
$PUCSORGBOTTOM
 10
0.0
 20
0.0
 30
0.0
  9
$PUCSORGLEFT
 10
0.0
 20
0.0
 30
0.0
  9
$PUCSORGRIGHT
 10
0.0
 20
0.0
 30
0.0
  9
$PUCSORGFRONT
 10
0.0
 20
0.0
 30
0.0
  9
$PUCSORGBACK
 10
0.0
 20
0.0
 30
0.0
  9
$USERI1
 70
     0
  9
$USERI2
 70
     0
  9
$USERI3
 70
     0
  9
$USERI4
 70
     0
  9
$USERI5
 70
     0
  9
$USERR1
 40
0.0
  9
$USERR2
 40
0.0
  9
$USERR3
 40
0.0
  9
$USERR4
 40
0.0
  9
$USERR5
 40
0.0
  9
$WORLDVIEW
 70
     1
  9
$SHADEDGE
 70
     3
  9
$SHADEDIF
 70
    70
  9
$TILEMODE
 70
     1
  9
$MAXACTVP
 70
    64
  9
$PINSBASE
 10
0.0
 20
0.0
 30
0.0
  9
$PLIMCHECK
 70
     0
  9
$PEXTMIN
 10
0.0
 20
0.0
 30
0.0
  9
$PEXTMAX
 10
0.0
 20
0.0
 30
0.0
  9
$PLIMMIN
 10
0.0
 20
0.0
  9
$PLIMMAX
 10
12.0
 20
9.0
  9
$UNITMODE
 70
     0
  9
$VISRETAIN
 70
     1
  9
$PLINEGEN
 70
     0
  9
$PSLTSCALE
 70
     1
  9
$TREEDEPTH
 70
  3020
  9
$CMLSTYLE
  2
Standard
  9
$CMLJUST
 70
     0
  9
$CMLSCALE
 40
20.0
  9
$PROXYGRAPHICS
 70
     1
  9
$MEASUREMENT
 70
     1
  9
$CELWEIGHT
370
    -1
  9
$ENDCAPS
280
     0
  9
$JOINSTYLE
280
     0
  9
$LWDISPLAY
290
     0
  9
$INSUNITS
 70
     4
  9
$HYPERLINKBASE
  1

  9
$STYLESHEET
  1

  9
$XEDIT
290
     1
  9
$CEPSNTYPE
380
     0
  9
$PSTYLEMODE
290
     1
  9
$FINGERPRINTGUID
  2
{3081DBC1-5696-4352-A8BE-3D5B2D3F93B9}
  9
$VERSIONGUID
  2
{169CA803-299B-4C25-96FF-7ECCB688BC54}
  9
$EXTNAMES
290
     1
  9
$PSVPSCALE
 40
0.0
  9
$OLESTARTUP
290
     0
  0
ENDSEC
  0
SECTION
  2
CLASSES
  0
CLASS
  1
ACDBDICTIONARYWDFLT
  2
AcDbDictionaryWithDefault
  3
ObjectDBX Classes
 90
        0
280
     0
281
     0
  0
CLASS
  1
ACDBPLACEHOLDER
  2
AcDbPlaceHolder
  3
ObjectDBX Classes
 90
        0
280
     0
281
     0
  0
CLASS
  1
LAYOUT
  2
AcDbLayout
  3
ObjectDBX Classes
 90
        0
280
     0
281
     0
  0
CLASS
  1
DICTIONARYVAR
  2
AcDbDictionaryVar
  3
ObjectDBX Classes
 90
        0
280
     0
281
     0
  0
CLASS
  1
TABLESTYLE
  2
AcDbTableStyle
  3
ObjectDBX Classes
 90
     4095
280
     0
281
     0
  0
CLASS
  1
MATERIAL
  2
AcDbMaterial
  3
ObjectDBX Classes
 90
     1153
280
     0
281
     0
  0
CLASS
  1
VISUALSTYLE
  2
AcDbVisualStyle
  3
ObjectDBX Classes
 90
     4095
280
     0
281
     0
  0
CLASS
  1
SCALE
  2
AcDbScale
  3
ObjectDBX Classes
 90
     1153
280
     0
281
     0
  0
CLASS
  1
MLEADERSTYLE
  2
AcDbMLeaderStyle
  3
ACDB_MLEADERSTYLE_CLASS
 90
     4095
280
     0
281
     0
  0
CLASS
  1
CELLSTYLEMAP
  2
AcDbCellStyleMap
  3
ObjectDBX Classes
 90
     1152
280
     0
281
     0
  0
CLASS
  1
ACAD_EVALUATION_GRAPH
  2
AcDbEvalGraph
  3
ObjectDBX Classes
 90
    33921
280
     0
281
     0
  0
CLASS
  1
ACAECUSTOBJ
  2
AcAeEditorObj
  3
AcAeEditorObj
 90
    33792
280
     0
281
     0
  0
CLASS
  1
ACDB_DYNAMICBLOCKPURGEPREVENTER_VERSION
  2
AcDbDynamicBlockPurgePreventer
  3
ObjectDBX Classes
 90
    33921
280
     0
281
     0
  0
ENDSEC
  0
SECTION
  2
TABLES
  0
TABLE
  2
VPORT
  5
8
330
0
100
AcDbSymbolTable
 70
     1
  0
VPORT
  5
EA
330
8
100
AcDbSymbolTableRecord
100
AcDbViewportTableRecord
  2
*Active
 70
     0
 10
0.0
 20
0.0
 11
1.0
 21
1.0
 12
1741.005628696887
 22
1403.692142979966
 13
0.0
 23
0.0
 14
10.0
 24
10.0
 15
10.0
 25
10.0
 16
0.0
 26
0.0
 36
1.0
 17
0.0
 27
0.0
 37
0.0
 40
184.7560845654989
 41
1.903110047846889
 42
50.0
 43
0.0
 44
0.0
 50
0.0
 51
0.0
 71
     0
 72
  1000
 73
     1
 74
     3
 75
     0
 76
     0
 77
     0
 78
     0
281
     0
 65
     1
110
0.0
120
0.0
130
0.0
111
1.0
121
0.0
131
0.0
112
0.0
122
1.0
132
0.0
 79
     0
146
0.0
  0
ENDTAB
  0
TABLE
  2
LTYPE
  5
5
330
0
100
AcDbSymbolTable
 70
     1
  0
LTYPE
  5
14
330
5
100
AcDbSymbolTableRecord
100
AcDbLinetypeTableRecord
  2
ByBlock
 70
     0
  3

 72
    65
 73
     0
 40
0.0
  0
LTYPE
  5
15
330
5
100
AcDbSymbolTableRecord
100
AcDbLinetypeTableRecord
  2
ByLayer
 70
     0
  3

 72
    65
 73
     0
 40
0.0
  0
LTYPE
  5
16
330
5
100
AcDbSymbolTableRecord
100
AcDbLinetypeTableRecord
  2
Continuous
 70
     0
  3
Solid line
 72
    65
 73
     0
 40
0.0
  0
ENDTAB
  0
TABLE
  2
LAYER
  5
2
330
0
100
AcDbSymbolTable
 70
     1
  0
LAYER
  5
10
102
{ACAD_XDICTIONARY
360
13C
102
}
330
2
100
AcDbSymbolTableRecord
100
AcDbLayerTableRecord
  2
0
 70
     0
 62
     7
  6
Continuous
370
    -3
390
F
  0
ENDTAB
  0
TABLE
  2
STYLE
  5
3
330
0
100
AcDbSymbolTable
 70
     2
  0
STYLE
  5
11
330
3
100
AcDbSymbolTableRecord
100
AcDbTextStyleTableRecord
  2
Standard
 70
     0
 40
0.0
 41
1.0
 50
0.0
 71
     0
 42
2.5
  3
txt
  4

  0
STYLE
  5
132
330
3
100
AcDbSymbolTableRecord
100
AcDbTextStyleTableRecord
  2
Annotative
 70
     0
 40
0.0
 41
1.0
 50
0.0
 71
     0
 42
2.5
  3
txt.shx
  4

1001
AcadAnnotative
1000
AnnotativeData
1002
{
1070
     1
1070
     1
1002
}
  0
ENDTAB
  0
TABLE
  2
VIEW
  5
6
330
0
100
AcDbSymbolTable
 70
     0
  0
ENDTAB
  0
TABLE
  2
UCS
  5
7
330
0
100
AcDbSymbolTable
 70
     0
  0
ENDTAB
  0
TABLE
  2
APPID
  5
9
330
0
100
AcDbSymbolTable
 70
    12
  0
APPID
  5
12
330
9
100
AcDbSymbolTableRecord
100
AcDbRegAppTableRecord
  2
ACAD
 70
     0
  0
APPID
  5
9E
330
9
100
AcDbSymbolTableRecord
100
AcDbRegAppTableRecord
  2
ACAD_PSEXT
 70
     0
  0
APPID
  5
133
330
9
100
AcDbSymbolTableRecord
100
AcDbRegAppTableRecord
  2
AcadAnnoPO
 70
     0
  0
APPID
  5
134
330
9
100
AcDbSymbolTableRecord
100
AcDbRegAppTableRecord
  2
AcadAnnotative
 70
     0
  0
APPID
  5
135
330
9
100
AcDbSymbolTableRecord
100
AcDbRegAppTableRecord
  2
ACAD_DSTYLE_DIMJAG
 70
     0
  0
APPID
  5
136
330
9
100
AcDbSymbolTableRecord
100
AcDbRegAppTableRecord
  2
ACAD_DSTYLE_DIMTALN
 70
     0
  0
APPID
  5
165
330
9
100
AcDbSymbolTableRecord
100
AcDbRegAppTableRecord
  2
ACAD_MLEADERVER
 70
     0
  0
APPID
  5
D59
330
9
100
AcDbSymbolTableRecord
100
AcDbRegAppTableRecord
  2
ACAUTHENVIRON
 70
     0
  0
APPID
  5
D5E
330
9
100
AcDbSymbolTableRecord
100
AcDbRegAppTableRecord
  2
ACAD_EXEMPT_FROM_CAD_STANDARDS
 70
     0
  0
APPID
  5
D64
330
9
100
AcDbSymbolTableRecord
100
AcDbRegAppTableRecord
  2
AcDbDynamicBlockTrueName
 70
     0
  0
APPID
  5
D65
330
9
100
AcDbSymbolTableRecord
100
AcDbRegAppTableRecord
  2
AcDbDynamicBlockGUID
 70
     0
  0
APPID
  5
D67
330
9
100
AcDbSymbolTableRecord
100
AcDbRegAppTableRecord
  2
AcDbBlockRepETag
 70
     0
  0
ENDTAB
  0
TABLE
  2
DIMSTYLE
  5
A
330
0
100
AcDbSymbolTable
 70
     2
100
AcDbDimStyleTable
 71
     2
340
27
340
137
  0
DIMSTYLE
105
27
330
A
100
AcDbSymbolTableRecord
100
AcDbDimStyleTableRecord
  2
ISO-25
 70
     0
 41
2.5
 42
0.625
 43
3.75
 44
1.25
 73
     0
 74
     0
 77
     1
 78
     8
140
2.5
141
2.5
143
0.03937007874016
147
0.625
171
     3
172
     1
271
     2
272
     2
274
     3
278
    44
283
     0
284
     8
340
11
  0
DIMSTYLE
105
137
330
A
100
AcDbSymbolTableRecord
100
AcDbDimStyleTableRecord
  2
Annotative
 70
     0
 40
0.0
 41
2.5
 42
0.625
 43
3.75
 44
1.25
 73
     0
 74
     0
 77
     1
 78
     8
140
2.5
141
2.5
143
0.03937007874016
147
0.625
171
     3
172
     1
271
     2
272
     2
274
     3
278
    44
283
     0
284
     8
340
11
1001
AcadAnnotative
1000
AnnotativeData
1002
{
1070
     1
1070
     1
1002
}
1001
ACAD_DSTYLE_DIMJAG
1070
   388
1040
1.5
1001
ACAD_DSTYLE_DIMTALN
1070
   392
1070
     0
  0
ENDTAB
  0
TABLE
  2
BLOCK_RECORD
  5
1
330
0
100
AcDbSymbolTable
 70
     5
  0
BLOCK_RECORD
  5
1F
330
1
100
AcDbSymbolTableRecord
100
AcDbBlockTableRecord
  2
*Model_Space
340
22
  0
BLOCK_RECORD
  5
D2
330
1
100
AcDbSymbolTableRecord
100
AcDbBlockTableRecord
  2
*Paper_Space
340
D3
  0
BLOCK_RECORD
  5
D6
330
1
100
AcDbSymbolTableRecord
100
AcDbBlockTableRecord
  2
*Paper_Space0
340
D7
  0
BLOCK_RECORD
  5
8E5
330
1
100
AcDbSymbolTableRecord
100
AcDbBlockTableRecord
  2
1
340
0
310
2800000020000000200000000100080000000000000400000000000000000000000000000000000000000000000080000080000000808000800000008000800080800000C0C0C000C0DCC000F0CAA6000020400000206000002080000020A0000020C0000020E00000400000004020000040400000406000004080000040A0
310
000040C0000040E00000600000006020000060400000606000006080000060A0000060C0000060E00000800000008020000080400000806000008080000080A0000080C0000080E00000A0000000A0200000A0400000A0600000A0800000A0A00000A0C00000A0E00000C0000000C0200000C0400000C0600000C0800000C0
310
A00000C0C00000C0E00000E0000000E0200000E0400000E0600000E0800000E0A00000E0C00000E0E00040000000400020004000400040006000400080004000A0004000C0004000E00040200000402020004020400040206000402080004020A0004020C0004020E000404000004040200040404000404060004040800040
310
40A0004040C0004040E00040600000406020004060400040606000406080004060A0004060C0004060E00040800000408020004080400040806000408080004080A0004080C0004080E00040A0000040A0200040A0400040A0600040A0800040A0A00040A0C00040A0E00040C0000040C0200040C0400040C0600040C08000
310
40C0A00040C0C00040C0E00040E0000040E0200040E0400040E0600040E0800040E0A00040E0C00040E0E00080000000800020008000400080006000800080008000A0008000C0008000E00080200000802020008020400080206000802080008020A0008020C0008020E00080400000804020008040400080406000804080
310
008040A0008040C0008040E00080600000806020008060400080606000806080008060A0008060C0008060E00080800000808020008080400080806000808080008080A0008080C0008080E00080A0000080A0200080A0400080A0600080A0800080A0A00080A0C00080A0E00080C0000080C0200080C0400080C0600080C0
310
800080C0A00080C0C00080C0E00080E0000080E0200080E0400080E0600080E0800080E0A00080E0C00080E0E000C0000000C0002000C0004000C0006000C0008000C000A000C000C000C000E000C0200000C0202000C0204000C0206000C0208000C020A000C020C000C020E000C0400000C0402000C0404000C0406000C0
310
408000C040A000C040C000C040E000C0600000C0602000C0604000C0606000C0608000C060A000C060C000C060E000C0800000C0802000C0804000C0806000C0808000C080A000C080C000C080E000C0A00000C0A02000C0A04000C0A06000C0A08000C0A0A000C0A0C000C0A0E000C0C00000C0C02000C0C04000C0C06000
310
C0C08000C0C0A000F0FBFF00A4A0A000808080000000FF0000FF000000FFFF00FF000000FF00FF00FFFF0000FFFFFF0000000000000000000000000000000000000000000000000000000000000000000000000000000000000000FFFFFFFFFFFFFFFFFFFF000000000000000000000000000000000000000000FFFFFFFFFF
310
FFFFFFFFFFFFFF0000000000000000000000000000000000000000FF00FFFFFFFFFFFFFFFF00FF0000000000000000000000000000000000000000FFFFFF000000000000FFFFFF0000000000000000000000000000000000000000FFFFFF000000000000FFFFFF0000000000000000000000000000000000000000FF00FF00
310
0000000000FF00FF0000000000000000000000000000000000000000FF00FF000000000000FF00FF0000000000000000000000000000000000000000FF00FFFFFFFFFFFFFFFF00FF0000000000000000000000000000000000000000FFFFFFFF00000000FFFFFFFF0000000000000000000000000000000000000000FF00FF
310
FF00000000FFFF00FF0000000000000000000000000000000000000000FF00FFFFFFFFFFFFFFFF00FF0000000000000000000000000000000000000000FF00FFFFFFFFFFFFFFFF00FF0000000000000000000000000000000000000000FF00FFFFFFFFFFFFFFFF00FF0000000000000000000000000000000000000000FF00
310
FF000000000000FF00FF0000000000000000000000000000000000000000FF00FFFFFFFFFFFFFFFF00FF0000000000000000000000000000000000000000FF00FF000000000000FF00FF0000000000000000000000000000000000000000FF00FF000000000000FF00FF0000000000000000000000000000000000000000FF
310
00FF000000000000FF00FF0000000000000000000000000000000000000000FF00FF000000000000FF00FF0000000000000000000000000000000000000000FF00FF000000000000FF00FF0000000000000000000000000000000000000000FF00FF000000000000FF00FF0000000000000000000000000000000000000000
310
FF00FF000000000000FF00FF0000000000000000000000000000000000000000FFFFFF000000000000FFFFFF000000000000000000000000000000000000000000FF0000000000000000FFFF000000000000000000000000000000000000000000FFFFFFFFFFFFFFFFFFFF0000000000000000000000000000000000000000
310
00000000FF00000000FF00000000000000000000000000000000000000000000000000FFFFFFFFFFFFFFFF000000000000000000000000000000000000000000000000FF0000FFFF0000FF000000000000000000000000000000000000000000000000FFFF00FFFF00FFFF0000000000000000000000000000000000000000
310
00000000FFFFFFFFFFFFFFFF0000000000000000000000000000000000000000000000000000000000000000000000000000000000000000
102
{BLKREFS
331
9B9
102
}
1001
ACAD
1000
DesignCenter Data
1002
{
1070
     1
1070
     4
1002
}
  0
BLOCK_RECORD
  5
9BA
102
{ACAD_XDICTIONARY
360
D5A
102
}
330
1
100
AcDbSymbolTableRecord
100
AcDbBlockTableRecord
  2
2
340
0
310
2800000020000000200000000100080000000000000400000000000000000000000000000000000000000000000080000080000000808000800000008000800080800000C0C0C000C0DCC000F0CAA6000020400000206000002080000020A0000020C0000020E00000400000004020000040400000406000004080000040A0
310
000040C0000040E00000600000006020000060400000606000006080000060A0000060C0000060E00000800000008020000080400000806000008080000080A0000080C0000080E00000A0000000A0200000A0400000A0600000A0800000A0A00000A0C00000A0E00000C0000000C0200000C0400000C0600000C0800000C0
310
A00000C0C00000C0E00000E0000000E0200000E0400000E0600000E0800000E0A00000E0C00000E0E00040000000400020004000400040006000400080004000A0004000C0004000E00040200000402020004020400040206000402080004020A0004020C0004020E000404000004040200040404000404060004040800040
310
40A0004040C0004040E00040600000406020004060400040606000406080004060A0004060C0004060E00040800000408020004080400040806000408080004080A0004080C0004080E00040A0000040A0200040A0400040A0600040A0800040A0A00040A0C00040A0E00040C0000040C0200040C0400040C0600040C08000
310
40C0A00040C0C00040C0E00040E0000040E0200040E0400040E0600040E0800040E0A00040E0C00040E0E00080000000800020008000400080006000800080008000A0008000C0008000E00080200000802020008020400080206000802080008020A0008020C0008020E00080400000804020008040400080406000804080
310
008040A0008040C0008040E00080600000806020008060400080606000806080008060A0008060C0008060E00080800000808020008080400080806000808080008080A0008080C0008080E00080A0000080A0200080A0400080A0600080A0800080A0A00080A0C00080A0E00080C0000080C0200080C0400080C0600080C0
310
800080C0A00080C0C00080C0E00080E0000080E0200080E0400080E0600080E0800080E0A00080E0C00080E0E000C0000000C0002000C0004000C0006000C0008000C000A000C000C000C000E000C0200000C0202000C0204000C0206000C0208000C020A000C020C000C020E000C0400000C0402000C0404000C0406000C0
310
408000C040A000C040C000C040E000C0600000C0602000C0604000C0606000C0608000C060A000C060C000C060E000C0800000C0802000C0804000C0806000C0808000C080A000C080C000C080E000C0A00000C0A02000C0A04000C0A06000C0A08000C0A0A000C0A0C000C0A0E000C0C00000C0C02000C0C04000C0C06000
310
C0C08000C0C0A000F0FBFF00A4A0A000808080000000FF0000FF000000FFFF00FF000000FF00FF00FFFF0000FFFFFF0000000000000000000000000000000000000000000000000000000000000000000000000000000000000000FF00000000000000000000000000000000000000000000000000000000FFFFFFFFFFFFFF
310
FFFFFFFFFFFFFFFFFFFF0000000000000000000000000000FF00000000FFFF00000000000000000000FF00000000000000000000000000FF00000000000000000000000000000000FFFF0000000000000000000000000000FFFF0000000000000000000000000000FFFF0000000000000000000000000000FF000000000000
310
00000000000000000000FF0000000000000000000000000000FF00000000000000000000000000000000FF00000000000000000000000000FF0000000000FFFFFFFFFFFFFFFFFFFFFFFFFF000000000000000000000000FF000000000000FF00000000000000FFFFFF0000000000000000000000000000FF000000000000FF
310
0000000000FFFFFF00000000000000000000000000000000FF000000000000FFFFFFFFFFFFFF000000000000000000000000000000000000FF000000000000FFFFFFFFFF0000000000000000000000000000000000000000FF000000000000FFFFFFFFFFFFFFFFFFFFFF0000000000000000000000000000FF000000000000
310
FFFF0000000000FFFFFFFFFFFF000000000000000000000000FF000000000000000000000000000000000000FF000000000000000000000000FF000000000000000000000000000000000000FF000000000000000000000000FF00000000000000000000000000000000000000FF0000000000000000000000FF0000000000
310
0000000000000000000000000000FF0000000000000000000000FF00000000000000000000000000000000000000FF0000000000000000000000FF00000000000000000000000000000000000000FF0000000000000000000000FF0000000000000000000000000000000000000000FF00000000000000000000FF00000000
310
00000000000000000000000000000000FF00000000000000000000FFFFFFFFFFFFFFFFFFFFFFFFFFFFFFFFFFFFFFFFFFFF000000000000000000000000FFFF0000000000000000000000000000FFFFFF000000000000000000000000FFFFFFFFFFFFFFFFFFFFFFFFFFFFFFFFFFFFFFFF000000000000000000000000000000
310
00000000FF00000000FF00000000000000000000000000000000000000000000000000FFFFFFFFFFFFFFFF000000000000000000000000000000000000000000000000FFFFFF0000FFFFFF000000000000000000000000000000000000000000000000FFFFFFFFFFFFFFFF0000000000000000000000000000000000000000
310
00000000FFFFFFFFFFFFFFFF0000000000000000000000000000000000000000000000000000000000000000000000000000000000000000
102
{BLKREFS
331
A7E
102
}
1001
AcDbDynamicBlockGUID
1000
{8E27EA33-1E76-4B71-A491-F1764EB88EBA}
1001
AcDbBlockRepETag
1070
     1
1071
      190
1001
ACAD
1000
DesignCenter Data
1002
{
1070
     1
1070
     4
1002
}
  0
BLOCK_RECORD
  5
A7F
330
1
100
AcDbSymbolTableRecord
100
AcDbBlockTableRecord
  2
3
340
0
310
2800000020000000200000000100080000000000000400000000000000000000000000000000000000000000000080000080000000808000800000008000800080800000C0C0C000C0DCC000F0CAA6000020400000206000002080000020A0000020C0000020E00000400000004020000040400000406000004080000040A0
310
000040C0000040E00000600000006020000060400000606000006080000060A0000060C0000060E00000800000008020000080400000806000008080000080A0000080C0000080E00000A0000000A0200000A0400000A0600000A0800000A0A00000A0C00000A0E00000C0000000C0200000C0400000C0600000C0800000C0
310
A00000C0C00000C0E00000E0000000E0200000E0400000E0600000E0800000E0A00000E0C00000E0E00040000000400020004000400040006000400080004000A0004000C0004000E00040200000402020004020400040206000402080004020A0004020C0004020E000404000004040200040404000404060004040800040
310
40A0004040C0004040E00040600000406020004060400040606000406080004060A0004060C0004060E00040800000408020004080400040806000408080004080A0004080C0004080E00040A0000040A0200040A0400040A0600040A0800040A0A00040A0C00040A0E00040C0000040C0200040C0400040C0600040C08000
310
40C0A00040C0C00040C0E00040E0000040E0200040E0400040E0600040E0800040E0A00040E0C00040E0E00080000000800020008000400080006000800080008000A0008000C0008000E00080200000802020008020400080206000802080008020A0008020C0008020E00080400000804020008040400080406000804080
310
008040A0008040C0008040E00080600000806020008060400080606000806080008060A0008060C0008060E00080800000808020008080400080806000808080008080A0008080C0008080E00080A0000080A0200080A0400080A0600080A0800080A0A00080A0C00080A0E00080C0000080C0200080C0400080C0600080C0
310
800080C0A00080C0C00080C0E00080E0000080E0200080E0400080E0600080E0800080E0A00080E0C00080E0E000C0000000C0002000C0004000C0006000C0008000C000A000C000C000C000E000C0200000C0202000C0204000C0206000C0208000C020A000C020C000C020E000C0400000C0402000C0404000C0406000C0
310
408000C040A000C040C000C040E000C0600000C0602000C0604000C0606000C0608000C060A000C060C000C060E000C0800000C0802000C0804000C0806000C0808000C080A000C080C000C080E000C0A00000C0A02000C0A04000C0A06000C0A08000C0A0A000C0A0C000C0A0E000C0C00000C0C02000C0C04000C0C06000
310
C0C08000C0C0A000F0FBFF00A4A0A000808080000000FF0000FF000000FFFF00FF000000FF00FF00FFFF0000FFFFFF0000000000000000000000000000000000000000000000000000000000000000000000000000000000FFFFFFFF0000000000000000FFFFFFFF00000000000000000000000000000000FFFFFFFF000000
310
0000000000FFFFFFFF00000000000000000000000000000000FFFFFFFFFFFFFFFFFFFFFFFFFFFFFFFF00000000000000000000000000000000FFFFFFFFFFFFFFFFFFFFFFFFFFFFFFFF00000000000000000000000000000000FFFFFFFFFFFFFFFFFFFFFFFFFFFFFFFF00000000000000000000000000000000FF0000A40000
310
000000000000A40000FF00000000000000000000000000000000FF0000A40000000000000000A40000FF00000000000000000000000000000000FF0000A40000000000000000A40000FF00000000000000000000000000000000FF0000A40000000000000000A40000FF00000000000000000000000000000000FF0000A400
310
0000FFFF000000A40000FF00000000000000000000000000000000FF0000A400FFFFFF00FFFF00A40000FF00000000000000000000000000000000FF0000FFFF00FF00FF0000FFFF0000FF00000000000000000000000000000000FF0000FF00FF00FFFFFFFF00FF0000FF00000000000000000000000000000000FF0000FF
310
FF0000FFFF0000FFFF0000FF00000000000000000000000000000000FF0000FFFFFFFFFFFFFFFFFFFF0000FF00000000000000000000000000000000FF0000FFFFFFFFFFFFFFFFFFFF0000FF00000000000000000000000000000000FF0000FFFF0000FFFF0000FFFF0000FF00000000000000000000000000000000FF0000
310
FF00FF00FFFFFFFF00FF0000FF00000000000000000000000000000000FF0000FFFF00FF00FF0000FFFF0000FF00000000000000000000000000000000FF0000A400FFFFFF00FFFF00A40000FF00000000000000000000000000000000FF0000A4000000FFFF000000A40000FF00000000000000000000000000000000FF00
310
00A40000000000000000A40000FF00000000000000000000000000000000FF0000A40000000000000000A40000FF00000000000000000000000000000000FF0000A40000000000000000A40000FF00000000000000000000000000000000FF0000A40000000000000000A40000FF00000000000000000000000000000000FF
310
FFFFFFFFFFFFFFFFFFFFFFFFFFFFFF00000000000000000000000000000000FFFFFFFFFFFFFFFFFFFFFFFFFFFFFFFF00000000000000000000000000000000FFFFFFFFFFFFFFFFFFFFFFFFFFFFFFFF00000000000000000000000000000000FFFFFFFF0000000000000000FFFFFFFF00000000000000000000000000000000
310
FFFFFFFF0000000000000000FFFFFFFF00000000000000000000000000000000000000000000000000000000000000000000000000000000
102
{BLKREFS
331
AF2
102
}
1001
ACAD
1000
DesignCenter Data
1002
{
1070
     1
1070
     4
1002
}
  0
BLOCK_RECORD
  5
AF3
102
{ACAD_XDICTIONARY
360
F03
102
}
330
1
100
AcDbSymbolTableRecord
100
AcDbBlockTableRecord
  2
4
340
0
310
2800000020000000200000000100080000000000000400000000000000000000000000000000000000000000000080000080000000808000800000008000800080800000C0C0C000C0DCC000F0CAA6000020400000206000002080000020A0000020C0000020E00000400000004020000040400000406000004080000040A0
310
000040C0000040E00000600000006020000060400000606000006080000060A0000060C0000060E00000800000008020000080400000806000008080000080A0000080C0000080E00000A0000000A0200000A0400000A0600000A0800000A0A00000A0C00000A0E00000C0000000C0200000C0400000C0600000C0800000C0
310
A00000C0C00000C0E00000E0000000E0200000E0400000E0600000E0800000E0A00000E0C00000E0E00040000000400020004000400040006000400080004000A0004000C0004000E00040200000402020004020400040206000402080004020A0004020C0004020E000404000004040200040404000404060004040800040
310
40A0004040C0004040E00040600000406020004060400040606000406080004060A0004060C0004060E00040800000408020004080400040806000408080004080A0004080C0004080E00040A0000040A0200040A0400040A0600040A0800040A0A00040A0C00040A0E00040C0000040C0200040C0400040C0600040C08000
310
40C0A00040C0C00040C0E00040E0000040E0200040E0400040E0600040E0800040E0A00040E0C00040E0E00080000000800020008000400080006000800080008000A0008000C0008000E00080200000802020008020400080206000802080008020A0008020C0008020E00080400000804020008040400080406000804080
310
008040A0008040C0008040E00080600000806020008060400080606000806080008060A0008060C0008060E00080800000808020008080400080806000808080008080A0008080C0008080E00080A0000080A0200080A0400080A0600080A0800080A0A00080A0C00080A0E00080C0000080C0200080C0400080C0600080C0
310
800080C0A00080C0C00080C0E00080E0000080E0200080E0400080E0600080E0800080E0A00080E0C00080E0E000C0000000C0002000C0004000C0006000C0008000C000A000C000C000C000E000C0200000C0202000C0204000C0206000C0208000C020A000C020C000C020E000C0400000C0402000C0404000C0406000C0
310
408000C040A000C040C000C040E000C0600000C0602000C0604000C0606000C0608000C060A000C060C000C060E000C0800000C0802000C0804000C0806000C0808000C080A000C080C000C080E000C0A00000C0A02000C0A04000C0A06000C0A08000C0A0A000C0A0C000C0A0E000C0C00000C0C02000C0C04000C0C06000
310
C0C08000C0C0A000F0FBFF00A4A0A000808080000000FF0000FF000000FFFF00FF000000FF00FF00FFFF0000FFFFFF000000000000000000000000000000000000000000000000000000000000000000000000000000000000000000000000FF000000000000000000000000000000000000000000000000000000000000FF
310
FFFFFF0000000000000000000000000000000000000000000000FF0000FFFFFFFFFF00FF0000000000000000000000000000000000000000FFFFFFFFFF0000FFFFFF0000FFFF000000000000000000000000000000000000FFFFFF00000000FFFFFF00000000FFFF0000000000000000000000000000000000FF0000000000
310
FFFF0000000000FFFF00000000000000000000000000000000FFFFFF000000FFFFA4FF000000000000FFFF0000000000000000000000000000FFFFFF00FFFFFFFFFFFFFFFF0000000000FF0000000000000000000000000000FF00FFFFFF0000FFFFFFFFFFFFFF000000FF000000000000000000000000000000FFFFFFFF00
310
0000FF00FFFFFFFFFF0000FF00000000000000000000000000000000FFFFFFFF0000FFFF00FFFFFFFF0000FF000000000000000000000000000000000000FFFFFFFFFFFFFF0000FFFF000000FF0000000000000000000000000000FFFFFFFFA4A4FFFF00FFFFFFFFFF000000FF00000000000000000000000000FFFFFFA4A4
310
0000FFFF000000FFFFFF000000FF00000000000000000000000000FFFFFF00000000FF000000000000FF000000FF00000000000000000000000000FFFFFF000000FFFF00000000000000000000FF00000000000000000000000000FFFFFF000000FFFF00000000000000000000FF000000000000000000000000FF00FF0000
310
0000FFFF00000000000000000000FF000000000000000000000000FF00FF00000000FFFFFFFF0000000000000000FF000000000000000000000000FF00FF0000000000FFFF00FF00000000000000FF000000000000000000000000FFFFFF00000000FFFFFF0000FFFF0000000000FF00000000000000000000000000FF00FF
310
FFFFFFFF00FFFF000000FFFF000000FF00000000000000000000000000FFFFFFFF000000000000FF00000000FF0000FF000000000000000000000000000000FFFFA400FFFFFFFFFFFFFF000000FFFFFF0000000000000000000000000000000000FFA4FFFFFFFFFF0000FFFF00FFFFFF000000000000000000000000000000
310
000000FFFFFF0000FFFFFF00FFFFFFFF00000000000000000000000000000000000000FFFFFFFFFFFFFFFFFFFFFFFFFF00000000000000000000000000000000000000FFFFFFFFFFFFFFFFFFFF00000000000000000000000000000000000000000000FFFFFFFFFFFFFFFF0000000000000000000000000000000000000000
310
00000000000000FFFF0000000000000000000000000000000000000000000000000000000000000000000000000000000000000000000000
102
{BLKREFS
331
C8E
102
}
1001
AcDbDynamicBlockGUID
1000
{355AE7D1-5712-4053-9846-5748129D888C}
1001
AcDbBlockRepETag
1070
     1
1071
      404
1001
ACAD
1000
DesignCenter Data
1002
{
1070
     1
1070
     4
1002
}
  0
ENDTAB
  0
ENDSEC
  0
SECTION
  2
BLOCKS
  0
BLOCK
  5
20
330
1F
100
AcDbEntity
  8
0
100
AcDbBlockBegin
  2
*Model_Space
 70
     0
 10
0.0
 20
0.0
 30
0.0
  3
*Model_Space
  1

  0
ENDBLK
  5
21
330
1F
100
AcDbEntity
  8
0
100
AcDbBlockEnd
  0
BLOCK
  5
D4
330
D2
100
AcDbEntity
 67
     1
  8
0
100
AcDbBlockBegin
  2
*Paper_Space
 70
     0
 10
0.0
 20
0.0
 30
0.0
  3
*Paper_Space
  1

  0
ENDBLK
  5
D5
330
D2
100
AcDbEntity
 67
     1
  8
0
100
AcDbBlockEnd
  0
BLOCK
  5
D8
330
D6
100
AcDbEntity
 67
     1
  8
0
100
AcDbBlockBegin
  2
*Paper_Space0
 70
     0
 10
0.0
 20
0.0
 30
0.0
  3
*Paper_Space0
  1

  0
ENDBLK
  5
D9
330
D6
100
AcDbEntity
 67
     1
  8
0
100
AcDbBlockEnd
  0
BLOCK
  5
8E6
330
8E5
100
AcDbEntity
  8
0
100
AcDbBlockBegin
  2
1
 70
     0
 10
0.0
 20
0.0
 30
0.0
  3
1
  1

  0
LINE
  5
8E8
330
8E5
100
AcDbEntity
  8
0
  6
Continuous
 62
     7
370
    15
100
AcDbLine
 10
1697.64044798284
 20
1403.673227143819
 30
0.0
 11
1697.64044798284
 21
1403.373226722116
 31
0.0
  0
LINE
  5
8E9
330
8E5
100
AcDbEntity
  8
0
  6
Continuous
 62
     7
370
    15
100
AcDbLine
 10
1704.533896281637
 20
1403.373226722116
 30
0.0
 11
1704.533896281637
 21
1403.673227143819
 31
0.0
  0
LINE
  5
8EA
330
8E5
100
AcDbEntity
  8
0
  6
Continuous
 62
     7
370
    15
100
AcDbLine
 10
1698.586968112059
 20
1420.829113771553
 30
0.0
 11
1698.586968112059
 21
1418.980412383909
 31
0.0
  0
LINE
  5
8EB
330
8E5
100
AcDbEntity
  8
0
  6
Continuous
 62
     7
370
    15
100
AcDbLine
 10
1703.586968465961
 20
1418.980412383909
 30
0.0
 11
1703.586968465961
 21
1420.829113771553
 31
0.0
  0
LINE
  5
8EC
330
8E5
100
AcDbEntity
  8
0
  6
Continuous
 62
     7
370
    15
100
AcDbLine
 10
1704.736968375064
 20
1393.562891351841
 30
0.0
 11
1697.436967970125
 21
1393.562891351841
 31
0.0
  0
LINE
  5
8ED
330
8E5
100
AcDbEntity
  8
0
  6
Continuous
 62
     7
370
    15
100
AcDbLine
 10
1705.086967780508
 20
1400.088722084994
 30
0.0
 11
1707.086968108334
 21
1400.088722084994
 31
0.0
  0
LINE
  5
8EE
330
8E5
100
AcDbEntity
  8
0
  6
Continuous
 62
     7
370
    15
100
AcDbLine
 10
1705.086967780508
 20
1416.42006506526
 30
0.0
 11
1707.086968108334
 21
1416.42006506526
 31
0.0
  0
LINE
  5
8EF
330
8E5
100
AcDbEntity
  8
0
  6
Continuous
 62
     7
370
    15
100
AcDbLine
 10
1707.086968108334
 20
1416.42006506526
 30
0.0
 11
1707.086968108334
 21
1400.088722084994
 31
0.0
  0
LINE
  5
8F0
330
8E5
100
AcDbEntity
  8
0
  6
Continuous
 62
     7
370
    15
100
AcDbLine
 10
1705.086967780508
 20
1416.42006506526
 30
0.0
 11
1705.086967780508
 21
1400.088722084994
 31
0.0
  0
LINE
  5
8F1
330
8E5
100
AcDbEntity
  8
0
  6
Continuous
 62
     7
370
    15
100
AcDbLine
 10
1707.086968108334
 20
1416.679114302034
 30
0.0
 11
1707.086968108334
 21
1416.42006506526
 31
0.0
  0
LINE
  5
8F2
330
8E5
100
AcDbEntity
  8
0
  6
Continuous
 62
     7
370
    15
100
AcDbLine
 10
1707.081729418851
 20
1416.829114978547
 30
0.0
 11
1705.086967780508
 21
1416.829114978547
 31
0.0
  0
ARC
  5
8F3
330
8E5
100
AcDbEntity
  8
0
  6
Continuous
 62
     7
370
    15
100
AcDbCircle
 10
1704.936968004026
 20
1416.679114126489
 30
0.0
 40
2.150000000000005
100
AcDbArc
 50
0.0
 51
4.000629961570866
  0
LINE
  5
8F4
330
8E5
100
AcDbEntity
  8
0
  6
Continuous
 62
     7
370
    15
100
AcDbLine
 10
1705.086967780508
 20
1416.42006506526
 30
0.0
 11
1705.086967780508
 21
1416.829114978547
 31
0.0
  0
LINE
  5
8F5
330
8E5
100
AcDbEntity
  8
0
  6
Continuous
 62
     7
370
    15
100
AcDbLine
 10
1697.08696809902
 20
1400.088722084994
 30
0.0
 11
1697.08696809902
 21
1416.42006506526
 31
0.0
  0
LINE
  5
8F6
330
8E5
100
AcDbEntity
  8
0
  6
Continuous
 62
     7
370
    15
100
AcDbLine
 10
1697.08696809902
 20
1400.088722084994
 30
0.0
 11
1695.086968004025
 21
1400.088722084994
 31
0.0
  0
LINE
  5
8F7
330
8E5
100
AcDbEntity
  8
0
  6
Continuous
 62
     7
370
    15
100
AcDbLine
 10
1695.086968004025
 20
1400.088722084994
 30
0.0
 11
1695.086968004025
 21
1416.42006506526
 31
0.0
  0
LINE
  5
8F8
330
8E5
100
AcDbEntity
  8
0
  6
Continuous
 62
     7
370
    15
100
AcDbLine
 10
1695.086968004025
 20
1416.42006506526
 30
0.0
 11
1697.08696809902
 21
1416.42006506526
 31
0.0
  0
LINE
  5
8F9
330
8E5
100
AcDbEntity
  8
0
  6
Continuous
 62
     7
370
    15
100
AcDbLine
 10
1697.08696809902
 20
1416.829114978547
 30
0.0
 11
1695.092206944983
 21
1416.829114978547
 31
0.0
  0
LINE
  5
8FA
330
8E5
100
AcDbEntity
  8
0
  6
Continuous
 62
     7
370
    15
100
AcDbLine
 10
1695.086968004025
 20
1416.42006506526
 30
0.0
 11
1695.086968004025
 21
1416.679114302034
 31
0.0
  0
ARC
  5
8FB
330
8E5
100
AcDbEntity
  8
0
  6
Continuous
 62
     7
370
    15
100
AcDbCircle
 10
1697.236968004025
 20
1416.679114126489
 30
0.0
 40
2.150000000000034
100
AcDbArc
 50
175.9993700384291
 51
180.0
  0
LINE
  5
8FC
330
8E5
100
AcDbEntity
  8
0
  6
Continuous
 62
     7
370
    15
100
AcDbLine
 10
1697.08696809902
 20
1416.829114978547
 30
0.0
 11
1697.08696809902
 21
1416.42006506526
 31
0.0
  0
LINE
  5
8FD
330
8E5
100
AcDbEntity
  8
0
  6
Continuous
 62
     7
370
    15
100
AcDbLine
 10
1697.08696809902
 20
1396.017860819931
 30
0.0
 11
1695.086968004025
 21
1396.017860819931
 31
0.0
  0
LINE
  5
8FE
330
8E5
100
AcDbEntity
  8
0
  6
Continuous
 62
     7
370
    15
100
AcDbLine
 10
1695.086968004025
 20
1396.017860819931
 30
0.0
 11
1695.086968004025
 21
1400.088722084994
 31
0.0
  0
LINE
  5
8FF
330
8E5
100
AcDbEntity
  8
0
  6
Continuous
 62
     7
370
    15
100
AcDbLine
 10
1697.08696809902
 20
1396.017860819931
 30
0.0
 11
1697.08696809902
 21
1400.088722084994
 31
0.0
  0
LINE
  5
900
330
8E5
100
AcDbEntity
  8
0
  6
Continuous
 62
     7
370
    15
100
AcDbLine
 10
1707.086968108334
 20
1396.017860819931
 30
0.0
 11
1705.086967780508
 21
1396.017860819931
 31
0.0
  0
LINE
  5
901
330
8E5
100
AcDbEntity
  8
0
  6
Continuous
 62
     7
370
    15
100
AcDbLine
 10
1707.086968108334
 20
1400.088722084994
 30
0.0
 11
1707.086968108334
 21
1396.017860819931
 31
0.0
  0
LINE
  5
902
330
8E5
100
AcDbEntity
  8
0
  6
Continuous
 62
     7
370
    15
100
AcDbLine
 10
1705.086967780508
 20
1400.088722084994
 30
0.0
 11
1705.086967780508
 21
1396.017860819931
 31
0.0
  0
LINE
  5
903
330
8E5
100
AcDbEntity
  8
0
  6
Continuous
 62
     7
370
    15
100
AcDbLine
 10
1705.086967780508
 20
1395.191780723045
 30
0.0
 11
1707.086968108334
 21
1395.191780723045
 31
0.0
  0
LINE
  5
904
330
8E5
100
AcDbEntity
  8
0
  6
Continuous
 62
     7
370
    15
100
AcDbLine
 10
1707.086968108334
 20
1395.191780723045
 30
0.0
 11
1707.086968108334
 21
1396.017860819931
 31
0.0
  0
LINE
  5
905
330
8E5
100
AcDbEntity
  8
0
  6
Continuous
 62
     7
370
    15
100
AcDbLine
 10
1705.086967780508
 20
1395.191780723045
 30
0.0
 11
1705.086967780508
 21
1396.017860819931
 31
0.0
  0
LINE
  5
906
330
8E5
100
AcDbEntity
  8
0
  6
Continuous
 62
     7
370
    15
100
AcDbLine
 10
1705.086967780508
 20
1392.331780715259
 30
0.0
 11
1707.086968108334
 21
1392.331780715259
 31
0.0
  0
LINE
  5
907
330
8E5
100
AcDbEntity
  8
0
  6
Continuous
 62
     7
370
    15
100
AcDbLine
 10
1707.086968108334
 20
1395.191780723045
 30
0.0
 11
1707.086968108334
 21
1392.331780715259
 31
0.0
  0
LINE
  5
908
330
8E5
100
AcDbEntity
  8
0
  6
Continuous
 62
     7
370
    15
100
AcDbLine
 10
1705.086967780508
 20
1395.191780723045
 30
0.0
 11
1705.086967780508
 21
1392.331780715259
 31
0.0
  0
LINE
  5
909
330
8E5
100
AcDbEntity
  8
0
  6
Continuous
 62
     7
370
    15
100
AcDbLine
 10
1697.08696809902
 20
1392.331780715259
 30
0.0
 11
1695.086968004025
 21
1392.331780715259
 31
0.0
  0
LINE
  5
90A
330
8E5
100
AcDbEntity
  8
0
  6
Continuous
 62
     7
370
    15
100
AcDbLine
 10
1695.086968004025
 20
1395.191780723045
 30
0.0
 11
1697.08696809902
 21
1395.191780723045
 31
0.0
  0
LINE
  5
90B
330
8E5
100
AcDbEntity
  8
0
  6
Continuous
 62
     7
370
    15
100
AcDbLine
 10
1695.086968004025
 20
1392.331780715259
 30
0.0
 11
1695.086968004025
 21
1395.191780723045
 31
0.0
  0
LINE
  5
90C
330
8E5
100
AcDbEntity
  8
0
  6
Continuous
 62
     7
370
    15
100
AcDbLine
 10
1697.08696809902
 20
1392.331780715259
 30
0.0
 11
1697.08696809902
 21
1395.191780723045
 31
0.0
  0
LINE
  5
90D
330
8E5
100
AcDbEntity
  8
0
  6
Continuous
 62
     7
370
    15
100
AcDbLine
 10
1695.086968004025
 20
1396.017860819931
 30
0.0
 11
1695.086968004025
 21
1395.191780723045
 31
0.0
  0
LINE
  5
90E
330
8E5
100
AcDbEntity
  8
0
  6
Continuous
 62
     7
370
    15
100
AcDbLine
 10
1697.08696809902
 20
1396.017860819931
 30
0.0
 11
1697.08696809902
 21
1395.191780723045
 31
0.0
  0
LINE
  5
90F
330
8E5
100
AcDbEntity
  8
0
  6
Continuous
 62
     7
370
    15
100
AcDbLine
 10
1706.186967774548
 20
1418.980412383909
 30
0.0
 11
1695.986967988566
 21
1418.980412383909
 31
0.0
  0
LINE
  5
910
330
8E5
100
AcDbEntity
  8
0
  6
Continuous
 62
     7
370
    15
100
AcDbLine
 10
1706.186967774548
 20
1418.879730825658
 30
0.0
 11
1706.186967774548
 21
1418.980412383909
 31
0.0
  0
LINE
  5
911
330
8E5
100
AcDbEntity
  8
0
  6
Continuous
 62
     7
370
    15
100
AcDbLine
 10
1695.986967988566
 20
1418.879730825658
 30
0.0
 11
1706.186967774548
 21
1418.879730825658
 31
0.0
  0
LINE
  5
912
330
8E5
100
AcDbEntity
  8
0
  6
Continuous
 62
     7
370
    15
100
AcDbLine
 10
1695.986967988566
 20
1418.879730825658
 30
0.0
 11
1695.986967988566
 21
1418.980412383909
 31
0.0
  0
LINE
  5
913
330
8E5
100
AcDbEntity
  8
0
  6
Continuous
 62
     7
370
    15
100
AcDbLine
 10
1697.486968118019
 20
1416.889917304153
 30
0.0
 11
1695.986967988566
 21
1416.889917304153
 31
0.0
  0
LINE
  5
914
330
8E5
100
AcDbEntity
  8
0
  6
Continuous
 62
     7
370
    15
100
AcDbLine
 10
1706.186967774548
 20
1416.889917304153
 30
0.0
 11
1704.686968460001
 21
1416.889917304153
 31
0.0
  0
LINE
  5
915
330
8E5
100
AcDbEntity
  8
0
  6
Continuous
 62
     7
370
    15
100
AcDbLine
 10
1704.686968460001
 20
1416.889917304153
 30
0.0
 11
1704.686968460001
 21
1407.078613725836
 31
0.0
  0
LINE
  5
916
330
8E5
100
AcDbEntity
  8
0
  6
Continuous
 62
     7
370
    15
100
AcDbLine
 10
1704.686968460001
 20
1407.078613725836
 30
0.0
 11
1697.486968118019
 21
1407.078613725836
 31
0.0
  0
LINE
  5
917
330
8E5
100
AcDbEntity
  8
0
  6
Continuous
 62
     7
370
    15
100
AcDbLine
 10
1697.486968118019
 20
1416.889917304153
 30
0.0
 11
1697.486968118019
 21
1407.078613725836
 31
0.0
  0
LINE
  5
918
330
8E5
100
AcDbEntity
  8
0
  6
Continuous
 62
     7
370
    15
100
AcDbLine
 10
1706.186967774548
 20
1418.879730825658
 30
0.0
 11
1706.186967774548
 21
1416.889917304153
 31
0.0
  0
LINE
  5
919
330
8E5
100
AcDbEntity
  8
0
  6
Continuous
 62
     7
370
    15
100
AcDbLine
 10
1695.986967988566
 20
1416.889917304153
 30
0.0
 11
1695.986967988566
 21
1418.879730825658
 31
0.0
  0
LINE
  5
91A
330
8E5
100
AcDbEntity
  8
0
  6
Continuous
 62
     7
370
    15
100
AcDbLine
 10
1697.486968118019
 20
1405.185864505703
 30
0.0
 11
1704.686968460001
 21
1405.185864505703
 31
0.0
  0
LINE
  5
91B
330
8E5
100
AcDbEntity
  8
0
  6
Continuous
 62
     7
370
    15
100
AcDbLine
 10
1697.486968118019
 20
1407.078613725836
 30
0.0
 11
1697.486968118019
 21
1405.185864505703
 31
0.0
  0
LINE
  5
91C
330
8E5
100
AcDbEntity
  8
0
  6
Continuous
 62
     7
370
    15
100
AcDbLine
 10
1704.686968460001
 20
1407.078613725836
 30
0.0
 11
1704.686968460001
 21
1405.185864505703
 31
0.0
  0
LINE
  5
91D
330
8E5
100
AcDbEntity
  8
0
  6
Continuous
 62
     7
370
    15
100
AcDbLine
 10
1705.086967780508
 20
1416.829114978547
 30
0.0
 11
1704.686968460001
 21
1416.829114978547
 31
0.0
  0
LINE
  5
91E
330
8E5
100
AcDbEntity
  8
0
  6
Continuous
 62
     7
370
    15
100
AcDbLine
 10
1697.486968118019
 20
1416.829114978547
 30
0.0
 11
1697.08696809902
 21
1416.829114978547
 31
0.0
  0
ARC
  5
91F
330
8E5
100
AcDbEntity
  8
0
  6
Continuous
 62
     7
370
    15
100
AcDbCircle
 10
1704.936968004026
 20
1416.679114126489
 30
0.0
 40
2.150000000000003
100
AcDbArc
 50
4.000629961570866
 51
54.45125599712439
  0
ARC
  5
920
330
8E5
100
AcDbEntity
  8
0
  6
Continuous
 62
     7
370
    15
100
AcDbCircle
 10
1697.236968004025
 20
1416.679114126489
 30
0.0
 40
2.150000000000003
100
AcDbArc
 50
125.5487440028756
 51
175.9993700384291
  0
LINE
  5
921
330
8E5
100
AcDbEntity
  8
0
  6
Continuous
 62
     7
370
    15
100
AcDbLine
 10
1704.686968460001
 20
1405.18385564291
 30
0.0
 11
1703.015589959241
 21
1405.18385564291
 31
0.0
  0
LINE
  5
922
330
8E5
100
AcDbEntity
  8
0
  6
Continuous
 62
     7
370
    15
100
AcDbLine
 10
1699.16196806661
 20
1405.18385564291
 30
0.0
 11
1697.486968118019
 21
1405.18385564291
 31
0.0
  0
LWPOLYLINE
  5
923
330
8E5
100
AcDbEntity
  8
0
  6
Continuous
 62
     7
370
    15
100
AcDbPolyline
 90
        9
 70
   128
 43
0.0
 10
1703.015589959241
 20
1405.18563912564
 10
1702.813191212036
 20
1405.185657752092
 10
1702.610737982459
 20
1405.18567544722
 10
1702.40822933919
 20
1405.185693142349
 10
1702.205665747888
 20
1405.185711768801
 10
1702.003046742894
 20
1405.18572946393
 10
1701.800373255528
 20
1405.185747159059
 10
1701.59764435447
 20
1405.185764854188
 10
1701.394860971041
 20
1405.185783480639
  0
LINE
  5
924
330
8E5
100
AcDbEntity
  8
0
  6
Continuous
 62
     7
370
    15
100
AcDbLine
 10
1701.394860971041
 20
1405.185783480639
 30
0.0
 11
1700.782696589149
 21
1405.185783480639
 31
0.0
  0
LWPOLYLINE
  5
925
330
8E5
100
AcDbEntity
  8
0
  6
Continuous
 62
     7
370
    15
100
AcDbPolyline
 90
        9
 70
   128
 43
0.0
 10
1700.782696589149
 20
1405.185783480639
 10
1700.57991320572
 20
1405.185764854188
 10
1700.377184304662
 20
1405.185747159059
 10
1700.174510817297
 20
1405.18572946393
 10
1699.971891812302
 20
1405.185711768801
 10
1699.769328221001
 20
1405.185693142349
 10
1699.566819577731
 20
1405.18567544722
 10
1699.364366348155
 20
1405.185657752092
 10
1699.16196806661
 20
1405.18563912564
  0
LINE
  5
926
330
8E5
100
AcDbEntity
  8
0
  6
Continuous
 62
     7
370
    15
100
AcDbLine
 10
1697.486968118019
 20
1405.185864505703
 30
0.0
 11
1697.486968118019
 21
1405.18385564291
 31
0.0
  0
LINE
  5
927
330
8E5
100
AcDbEntity
  8
0
  6
Continuous
 62
     7
370
    15
100
AcDbLine
 10
1704.686968460001
 20
1405.185864505703
 30
0.0
 11
1704.686968460001
 21
1405.18385564291
 31
0.0
  0
LINE
  5
928
330
8E5
100
AcDbEntity
  8
0
  6
Continuous
 62
     7
370
    15
100
AcDbLine
 10
1703.015589959241
 20
1405.176541035409
 30
0.0
 11
1703.015589959241
 21
1405.18563912564
 31
0.0
  0
LWPOLYLINE
  5
929
330
8E5
100
AcDbEntity
  8
0
  6
Continuous
 62
     7
370
    15
100
AcDbPolyline
 90
        9
 70
   128
 43
0.0
 10
1701.394860971041
 20
1405.176684459085
 10
1701.59764435447
 20
1405.176666763956
 10
1701.800373255528
 20
1405.176649068827
 10
1702.003046742894
 20
1405.176630442376
 10
1702.205665747888
 20
1405.176612747247
 10
1702.40822933919
 20
1405.176595052118
 10
1702.610737982459
 20
1405.176576425667
 10
1702.813191212036
 20
1405.176558730538
 10
1703.015589959241
 20
1405.176541035409
  0
LINE
  5
92A
330
8E5
100
AcDbEntity
  8
0
  6
Continuous
 62
     7
370
    15
100
AcDbLine
 10
1701.394860971041
 20
1405.185783480639
 30
0.0
 11
1701.394860971041
 21
1405.176684459085
 31
0.0
  0
LINE
  5
92B
330
8E5
100
AcDbEntity
  8
0
  6
Continuous
 62
     7
370
    15
100
AcDbLine
 10
1701.394860971041
 20
1405.176684459085
 30
0.0
 11
1701.394860971041
 21
1404.856684816415
 31
0.0
  0
LINE
  5
92C
330
8E5
100
AcDbEntity
  8
0
  6
Continuous
 62
     7
370
    15
100
AcDbLine
 10
1701.394860971041
 20
1404.856684816415
 30
0.0
 11
1700.782696589149
 21
1404.856684816415
 31
0.0
  0
LINE
  5
92D
330
8E5
100
AcDbEntity
  8
0
  6
Continuous
 62
     7
370
    15
100
AcDbLine
 10
1700.782696589149
 20
1404.856684816415
 30
0.0
 11
1700.782696589149
 21
1405.176684459085
 31
0.0
  0
LINE
  5
92E
330
8E5
100
AcDbEntity
  8
0
  6
Continuous
 62
     7
370
    15
100
AcDbLine
 10
1700.782696589149
 20
1405.176684459085
 30
0.0
 11
1700.782696589149
 21
1405.185783480639
 31
0.0
  0
LINE
  5
92F
330
8E5
100
AcDbEntity
  8
0
  6
Continuous
 62
     7
370
    15
100
AcDbLine
 10
1703.015589959241
 20
1404.856540461416
 30
0.0
 11
1703.015589959241
 21
1405.176541035409
 31
0.0
  0
SPLINE
  5
930
330
8E5
100
AcDbEntity
  8
0
  6
Continuous
 62
     7
370
    15
100
AcDbSpline
210
0.0
220
0.0
230
1.0
 70
     8
 71
     3
 72
     8
 73
     4
 74
     0
 42
0.0000000001
 43
0.0000000001
 40
0.0
 40
0.0
 40
0.0
 40
0.0
 40
1.0
 40
1.0
 40
1.0
 40
1.0
 10
1701.39486087161
 20
1404.856684473877
 30
0.0
 10
1701.941340705631
 20
1404.856636226601
 30
0.0
 10
1702.484779983836
 20
1404.856588075845
 30
0.0
 10
1703.015589559768
 20
1404.856540877507
 30
0.0
  0
LINE
  5
931
330
8E5
100
AcDbEntity
  8
0
  6
Continuous
 62
     7
370
    15
100
AcDbLine
 10
1699.16196806661
 20
1405.176541035409
 30
0.0
 11
1699.16196806661
 21
1404.856540461416
 31
0.0
  0
LWPOLYLINE
  5
932
330
8E5
100
AcDbEntity
  8
0
  6
Continuous
 62
     7
370
    15
100
AcDbPolyline
 90
        9
 70
   128
 43
0.0
 10
1699.161967600949
 20
1405.176541035409
 10
1699.364365882493
 20
1405.176558730538
 10
1699.566819577731
 20
1405.176576425667
 10
1699.769328221001
 20
1405.176595052118
 10
1699.971891812302
 20
1405.176612747247
 10
1700.174510351635
 20
1405.176630442376
 10
1700.377184304662
 20
1405.176649068827
 10
1700.57991320572
 20
1405.176666763956
 10
1700.782696589149
 20
1405.176684459085
  0
SPLINE
  5
933
330
8E5
100
AcDbEntity
  8
0
  6
Continuous
 62
     7
370
    15
100
AcDbSpline
210
0.0
220
0.0
230
1.0
 70
     8
 71
     3
 72
     8
 73
     4
 74
     0
 42
0.0000000001
 43
0.0000000001
 40
0.0
 40
0.0
 40
0.0
 40
0.0
 40
1.0
 40
1.0
 40
1.0
 40
1.0
 10
1699.161968004026
 20
1404.856540877507
 30
0.0
 10
1699.692642072152
 20
1404.856588063796
 30
0.0
 10
1700.236192693665
 20
1404.856636224468
 30
0.0
 10
1700.782696692204
 20
1404.856684473877
 30
0.0
  0
LINE
  5
934
330
8E5
100
AcDbEntity
  8
0
  6
Continuous
 62
     7
370
    15
100
AcDbLine
 10
1699.16196806661
 20
1405.18563912564
 30
0.0
 11
1699.16196806661
 21
1405.176541035409
 31
0.0
  0
LINE
  5
935
330
8E5
100
AcDbEntity
  8
0
  6
Continuous
 62
     7
370
    15
100
AcDbLine
 10
1700.904785528101
 20
1404.856355128224
 30
0.0
 11
1699.583383149721
 21
1404.856476200158
 31
0.0
  0
LINE
  5
936
330
8E5
100
AcDbEntity
  8
0
  6
Continuous
 62
     7
370
    15
100
AcDbLine
 10
1700.904785528101
 20
1404.856355128224
 30
0.0
 11
1701.272772032089
 21
1404.856355128224
 31
0.0
  0
LINE
  5
937
330
8E5
100
AcDbEntity
  8
0
  6
Continuous
 62
     7
370
    15
100
AcDbLine
 10
1702.59417441047
 20
1404.856476200158
 30
0.0
 11
1701.272772032089
 21
1404.856355128224
 31
0.0
  0
LINE
  5
938
330
8E5
100
AcDbEntity
  8
0
  6
Continuous
 62
     7
370
    15
100
AcDbLine
 10
1702.59417441047
 20
1404.856476200158
 30
0.0
 11
1702.59417441047
 21
1404.856514384384
 31
0.0
  0
LINE
  5
939
330
8E5
100
AcDbEntity
  8
0
  6
Continuous
 62
     7
370
    15
100
AcDbLine
 10
1701.272772032089
 20
1404.856635456319
 30
0.0
 11
1702.59417441047
 21
1404.856514384384
 31
0.0
  0
LINE
  5
93A
330
8E5
100
AcDbEntity
  8
0
  6
Continuous
 62
     7
370
    15
100
AcDbLine
 10
1701.272772032089
 20
1404.856635456319
 30
0.0
 11
1700.904785528101
 21
1404.856635456319
 31
0.0
  0
LINE
  5
93B
330
8E5
100
AcDbEntity
  8
0
  6
Continuous
 62
     7
370
    15
100
AcDbLine
 10
1699.583383149721
 20
1404.856514384384
 30
0.0
 11
1700.904785528101
 21
1404.856635456319
 31
0.0
  0
LINE
  5
93C
330
8E5
100
AcDbEntity
  8
0
  6
Continuous
 62
     7
370
    15
100
AcDbLine
 10
1699.583383149721
 20
1404.856514384384
 30
0.0
 11
1699.583383149721
 21
1404.856476200158
 31
0.0
  0
LINE
  5
93D
330
8E5
100
AcDbEntity
  8
0
  6
Continuous
 62
     7
370
    15
100
AcDbLine
 10
1700.782696589149
 20
1404.856305768127
 30
0.0
 11
1701.394860971041
 21
1404.856305768127
 31
0.0
  0
SPLINE
  5
93E
330
8E5
100
AcDbEntity
  8
0
  6
Continuous
 62
     7
370
    15
100
AcDbSpline
210
0.0
220
0.0
230
1.0
 70
     8
 71
     3
 72
     8
 73
     4
 74
     0
 42
0.0000000001
 43
0.0000000001
 40
0.0
 40
0.0
 40
0.0
 40
0.0
 40
1.0
 40
1.0
 40
1.0
 40
1.0
 10
1700.782696692205
 20
1404.856305775305
 30
0.0
 10
1700.236192693665
 20
1404.856354024714
 30
0.0
 10
1699.692642072152
 20
1404.856402185386
 30
0.0
 10
1699.161968004026
 20
1404.856449371676
 30
0.0
  0
LINE
  5
93F
330
8E5
100
AcDbEntity
  8
0
  6
Continuous
 62
     7
370
    15
100
AcDbLine
 10
1699.16196806661
 20
1404.856540461416
 30
0.0
 11
1699.16196806661
 21
1404.856449191804
 31
0.0
  0
LINE
  5
940
330
8E5
100
AcDbEntity
  8
0
  6
Continuous
 62
     7
370
    15
100
AcDbLine
 10
1703.015589959241
 20
1404.856449191804
 30
0.0
 11
1703.015589959241
 21
1404.856540461416
 31
0.0
  0
SPLINE
  5
941
330
8E5
100
AcDbEntity
  8
0
  6
Continuous
 62
     7
370
    15
100
AcDbSpline
210
0.0
220
0.0
230
1.0
 70
     8
 71
     3
 72
     8
 73
     4
 74
     0
 42
0.0000000001
 43
0.0000000001
 40
0.0
 40
0.0
 40
0.0
 40
0.0
 40
1.0
 40
1.0
 40
1.0
 40
1.0
 10
1703.015589559768
 20
1404.856449371676
 30
0.0
 10
1702.48477998383
 20
1404.856402173337
 30
0.0
 10
1701.941340705639
 20
1404.85635402258
 30
0.0
 10
1701.394860871574
 20
1404.856305775305
 30
0.0
  0
LINE
  5
942
330
8E5
100
AcDbEntity
  8
0
  6
Continuous
 62
     7
370
    15
100
AcDbLine
 10
1701.272772032089
 20
1404.856635456319
 30
0.0
 11
1701.272772032089
 21
1404.856355128224
 31
0.0
  0
LINE
  5
943
330
8E5
100
AcDbEntity
  8
0
  6
Continuous
 62
     7
370
    15
100
AcDbLine
 10
1700.904785528101
 20
1404.856355128224
 30
0.0
 11
1700.904785528101
 21
1404.856635456319
 31
0.0
  0
LINE
  5
944
330
8E5
100
AcDbEntity
  8
0
  6
Continuous
 62
     7
370
    15
100
AcDbLine
 10
1697.08696809902
 20
1393.09660056687
 30
0.0
 11
1697.436967970125
 21
1393.09660056687
 31
0.0
  0
LINE
  5
945
330
8E5
100
AcDbEntity
  8
0
  6
Continuous
 62
     7
370
    15
100
AcDbLine
 10
1697.436967970125
 20
1393.09660056687
 30
0.0
 11
1697.436967970125
 21
1393.524831119513
 31
0.0
  0
LINE
  5
946
330
8E5
100
AcDbEntity
  8
0
  6
Continuous
 62
     7
370
    15
100
AcDbLine
 10
1697.436967970125
 20
1393.524831119513
 30
0.0
 11
1704.736968375064
 21
1393.524831119513
 31
0.0
  0
LINE
  5
947
330
8E5
100
AcDbEntity
  8
0
  6
Continuous
 62
     7
370
    15
100
AcDbLine
 10
1704.736968375064
 20
1393.524831119513
 30
0.0
 11
1704.736968375064
 21
1393.09660056687
 31
0.0
  0
LINE
  5
948
330
8E5
100
AcDbEntity
  8
0
  6
Continuous
 62
     7
370
    15
100
AcDbLine
 10
1704.736968375064
 20
1393.09660056687
 30
0.0
 11
1705.086967780508
 21
1393.09660056687
 31
0.0
  0
LINE
  5
949
330
8E5
100
AcDbEntity
  8
0
  6
Continuous
 62
     7
370
    15
100
AcDbLine
 10
1706.686967856504
 20
1392.331780715259
 30
0.0
 11
1706.686967856504
 21
1392.250390922064
 31
0.0
  0
LINE
  5
94A
330
8E5
100
AcDbEntity
  8
0
  6
Continuous
 62
     7
370
    15
100
AcDbLine
 10
1706.686967856504
 20
1392.250390922064
 30
0.0
 11
1695.486967993921
 21
1392.250390922064
 31
0.0
  0
LINE
  5
94B
330
8E5
100
AcDbEntity
  8
0
  6
Continuous
 62
     7
370
    15
100
AcDbLine
 10
1695.486967993921
 20
1392.250390922064
 30
0.0
 11
1695.486967993921
 21
1392.331780715259
 31
0.0
  0
LINE
  5
94C
330
8E5
100
AcDbEntity
  8
0
  6
Continuous
 62
     7
370
    15
100
AcDbLine
 10
1695.486967993921
 20
1392.250390922064
 30
0.0
 11
1695.486967993921
 21
1391.973226995552
 31
0.0
  0
LINE
  5
94D
330
8E5
100
AcDbEntity
  8
0
  6
Continuous
 62
     7
370
    15
100
AcDbLine
 10
1706.686967856504
 20
1392.250390922064
 30
0.0
 11
1706.686967856504
 21
1391.973226995552
 31
0.0
  0
LINE
  5
94E
330
8E5
100
AcDbEntity
  8
0
  6
Continuous
 62
     7
370
    15
100
AcDbLine
 10
1706.686967856504
 20
1391.973226995552
 30
0.0
 11
1695.486967993921
 21
1391.973226995552
 31
0.0
  0
LINE
  5
94F
330
8E5
100
AcDbEntity
  8
0
  6
Continuous
 62
     7
370
    15
100
AcDbLine
 10
1702.586967836387
 20
1403.673227143819
 30
0.0
 11
1702.586967836387
 21
1403.373226722116
 31
0.0
  0
LINE
  5
950
330
8E5
100
AcDbEntity
  8
0
  6
Continuous
 62
     7
370
    15
100
AcDbLine
 10
1702.586967836387
 20
1403.673227143819
 30
0.0
 11
1699.58696781031
 21
1403.673227143819
 31
0.0
  0
LINE
  5
951
330
8E5
100
AcDbEntity
  8
0
  6
Continuous
 62
     7
370
    15
100
AcDbLine
 10
1699.58696781031
 20
1403.373226722116
 30
0.0
 11
1702.586967836387
 21
1403.373226722116
 31
0.0
  0
LINE
  5
952
330
8E5
100
AcDbEntity
  8
0
  6
Continuous
 62
     7
370
    15
100
AcDbLine
 10
1699.58696781031
 20
1403.373226722116
 30
0.0
 11
1699.58696781031
 21
1403.673227143819
 31
0.0
  0
LINE
  5
953
330
8E5
100
AcDbEntity
  8
0
  6
Continuous
 62
     7
370
    15
100
AcDbLine
 10
1698.139038042419
 20
1403.373226722116
 30
0.0
 11
1698.139038042419
 21
1403.673227143819
 31
0.0
  0
LINE
  5
954
330
8E5
100
AcDbEntity
  8
0
  6
Continuous
 62
     7
370
    15
100
AcDbLine
 10
1699.58696781031
 20
1403.673227143819
 30
0.0
 11
1698.139038042419
 21
1403.673227143819
 31
0.0
  0
LINE
  5
955
330
8E5
100
AcDbEntity
  8
0
  6
Continuous
 62
     7
370
    15
100
AcDbLine
 10
1698.139038042419
 20
1403.373226722116
 30
0.0
 11
1699.58696781031
 21
1403.373226722116
 31
0.0
  0
LINE
  5
956
330
8E5
100
AcDbEntity
  8
0
  6
Continuous
 62
     7
370
    15
100
AcDbLine
 10
1704.034898302771
 20
1403.673227143819
 30
0.0
 11
1704.034898302771
 21
1403.373226722116
 31
0.0
  0
LINE
  5
957
330
8E5
100
AcDbEntity
  8
0
  6
Continuous
 62
     7
370
    15
100
AcDbLine
 10
1704.034898302771
 20
1403.673227143819
 30
0.0
 11
1702.586967836387
 21
1403.673227143819
 31
0.0
  0
LINE
  5
958
330
8E5
100
AcDbEntity
  8
0
  6
Continuous
 62
     7
370
    15
100
AcDbLine
 10
1702.586967836387
 20
1403.373226722116
 30
0.0
 11
1704.034898302771
 21
1403.373226722116
 31
0.0
  0
LINE
  5
959
330
8E5
100
AcDbEntity
  8
0
  6
Continuous
 62
     7
370
    15
100
AcDbLine
 10
1701.301610901274
 20
1423.482703243727
 30
0.0
 11
1700.872325211085
 21
1423.482703243727
 31
0.0
  0
LINE
  5
95A
330
8E5
100
AcDbEntity
  8
0
  6
Continuous
 62
     7
370
    15
100
AcDbLine
 10
1701.301610901274
 20
1423.482703243727
 30
0.0
 11
1701.301610901274
 21
1420.829113771553
 31
0.0
  0
LINE
  5
95B
330
8E5
100
AcDbEntity
  8
0
  6
Continuous
 62
     7
370
    15
100
AcDbLine
 10
1700.872325211085
 20
1420.829113771553
 30
0.0
 11
1701.301610901274
 21
1420.829113771553
 31
0.0
  0
LINE
  5
95C
330
8E5
100
AcDbEntity
  8
0
  6
Continuous
 62
     7
370
    15
100
AcDbLine
 10
1700.872325211085
 20
1420.829113771553
 30
0.0
 11
1700.872325211085
 21
1423.482703243727
 31
0.0
  0
SPLINE
  5
95D
330
8E5
100
AcDbEntity
  8
0
  6
Continuous
 62
     7
370
    15
100
AcDbSpline
210
0.0
220
0.0
230
1.0
 70
     8
 71
     3
 72
    12
 73
     8
 74
     0
 42
0.0000000001
 43
0.0000000001
 40
0.0
 40
0.0
 40
0.0
 40
0.0
 40
0.5000000000000001
 40
0.5000000000000001
 40
0.75
 40
0.75
 40
1.0
 40
1.0
 40
1.0
 40
1.0
 10
1700.872325111137
 20
1423.482703964925
 30
0.0
 10
1700.287401178859
 20
1423.661348643136
 30
0.0
 10
1699.695550196837
 20
1423.770695026929
 30
0.0
 10
1698.791480418157
 20
1423.771716164078
 30
0.0
 10
1698.487396194436
 20
1423.744980849643
 30
0.0
 10
1697.890071291202
 20
1423.645029596221
 30
0.0
 10
1697.594656162473
 20
1423.572204452551
 30
0.0
 10
1697.301610896908
 20
1423.482703964916
 30
0.0
  0
LINE
  5
95E
330
8E5
100
AcDbEntity
  8
0
  6
Continuous
 62
     7
370
    15
100
AcDbLine
 10
1697.08696809902
 20
1423.482703243727
 30
0.0
 11
1697.301610944115
 21
1423.482703243727
 31
0.0
  0
SPLINE
  5
95F
330
8E5
100
AcDbEntity
  8
0
  6
Continuous
 62
     7
370
    15
100
AcDbSpline
210
0.0
220
0.0
230
1.0
 70
    24
 71
     3
 72
     8
 73
     4
 74
     0
 42
0.0000000001
 43
0.0000000001
 40
0.0
 40
0.0
 40
0.0
 40
0.0
 40
1.0
 40
1.0
 40
1.0
 40
1.0
 10
1697.086968004021
 20
1423.482703964918
 30
0.0
 10
1697.086968004021
 20
1423.605384861345
 30
0.0
 10
1697.086968004023
 20
1423.696804978158
 30
0.0
 10
1697.086968004023
 20
1423.74108646413
 30
0.0
  0
SPLINE
  5
960
330
8E5
100
AcDbEntity
  8
0
  6
Continuous
 62
     7
370
    15
100
AcDbSpline
210
0.0
220
0.0
230
1.0
 70
     8
 71
     3
 72
     8
 73
     4
 74
     0
 42
0.0000000001
 43
0.0000000001
 40
0.0000000000000103
 40
0.0000000000000103
 40
0.0000000000000103
 40
0.0000000000000103
 40
0.0001778594872831
 40
0.0001778594872831
 40
0.0001778594872831
 40
0.0001778594872831
 10
1697.241516145035
 20
1423.829114126459
 30
0.0
 10
1697.189993323247
 20
1423.799783469891
 30
0.0
 10
1697.138477530231
 20
1423.770440463726
 30
0.0
 10
1697.086968004044
 20
1423.741086464142
 30
0.0
  0
LINE
  5
961
330
8E5
100
AcDbEntity
  8
0
  6
Continuous
 62
     7
370
    15
100
AcDbLine
 10
1704.932419455863
 20
1423.829114263291
 30
0.0
 11
1697.241516190834
 21
1423.829114263291
 31
0.0
  0
SPLINE
  5
962
330
8E5
100
AcDbEntity
  8
0
  6
Continuous
 62
     7
370
    15
100
AcDbSpline
210
0.0
220
0.0
230
1.0
 70
     8
 71
     3
 72
     8
 73
     4
 74
     0
 42
0.0000000001
 43
0.0000000001
 40
0.0000000000000113
 40
0.0000000000000113
 40
0.0000000000000113
 40
0.0000000000000113
 40
0.0001778594872781
 40
0.0001778594872781
 40
0.0001778594872781
 40
0.0001778594872781
 10
1705.086968004003
 20
1423.741086464144
 30
0.0
 10
1705.035458477817
 20
1423.770440463728
 30
0.0
 10
1704.983942684803
 20
1423.799783469892
 30
0.0
 10
1704.932419863017
 20
1423.829114126459
 30
0.0
  0
SPLINE
  5
963
330
8E5
100
AcDbEntity
  8
0
  6
Continuous
 62
     7
370
    15
100
AcDbSpline
210
0.0
220
0.0
230
1.0
 70
    24
 71
     3
 72
     8
 73
     4
 74
     0
 42
0.0000000001
 43
0.0000000001
 40
0.0
 40
0.0
 40
0.0
 40
0.0
 40
1.0
 40
1.0
 40
1.0
 40
1.0
 10
1705.086968004032
 20
1423.741086464138
 30
0.0
 10
1705.086968004032
 20
1423.696804978167
 30
0.0
 10
1705.086968004023
 20
1423.605384861347
 30
0.0
 10
1705.086968004023
 20
1423.482703964919
 30
0.0
  0
LINE
  5
964
330
8E5
100
AcDbEntity
  8
0
  6
Continuous
 62
     7
370
    15
100
AcDbLine
 10
1704.872324935414
 20
1423.482703243727
 30
0.0
 11
1705.086967780508
 21
1423.482703243727
 31
0.0
  0
SPLINE
  5
965
330
8E5
100
AcDbEntity
  8
0
  6
Continuous
 62
     7
370
    15
100
AcDbSpline
210
0.0
220
0.0
230
1.0
 70
     8
 71
     3
 72
    12
 73
     8
 74
     0
 42
0.0000000001
 43
0.0000000001
 40
0.0
 40
0.0
 40
0.0
 40
0.0
 40
0.5000000000000002
 40
0.5000000000000002
 40
0.7500000000000001
 40
0.7500000000000001
 40
1.0
 40
1.0
 40
1.0
 40
1.0
 10
1704.872325111145
 20
1423.482703964918
 30
0.0
 10
1704.287401178864
 20
1423.66134864313
 30
0.0
 10
1703.69555019678
 20
1423.770695026938
 30
0.0
 10
1702.791480418095
 20
1423.771716164076
 30
0.0
 10
1702.487396194373
 20
1423.744980849638
 30
0.0
 10
1701.890071291136
 20
1423.645029596207
 30
0.0
 10
1701.594656162466
 20
1423.57220445255
 30
0.0
 10
1701.3016108969
 20
1423.482703964915
 30
0.0
  0
LINE
  5
966
330
8E5
100
AcDbEntity
  8
0
  6
Continuous
 62
     7
370
    15
100
AcDbLine
 10
1704.872324935414
 20
1420.829113771553
 30
0.0
 11
1704.872324935414
 21
1423.482703243727
 31
0.0
  0
LINE
  5
967
330
8E5
100
AcDbEntity
  8
0
  6
Continuous
 62
     7
370
    15
100
AcDbLine
 10
1701.301610901274
 20
1420.829113771553
 30
0.0
 11
1704.872324935414
 21
1420.829113771553
 31
0.0
  0
LINE
  5
968
330
8E5
100
AcDbEntity
  8
0
  6
Continuous
 62
     7
370
    15
100
AcDbLine
 10
1697.301610944115
 20
1423.482703243727
 30
0.0
 11
1697.301610944115
 21
1420.829113771553
 31
0.0
  0
LINE
  5
969
330
8E5
100
AcDbEntity
  8
0
  6
Continuous
 62
     7
370
    15
100
AcDbLine
 10
1697.301610944115
 20
1420.829113771553
 30
0.0
 11
1700.872325211085
 21
1420.829113771553
 31
0.0
  0
LINE
  5
96A
330
8E5
100
AcDbEntity
  8
0
  6
Continuous
 62
     7
370
    15
100
AcDbLine
 10
1698.139038042419
 20
1403.673227143819
 30
0.0
 11
1697.64044798284
 21
1403.673227143819
 31
0.0
  0
LINE
  5
96B
330
8E5
100
AcDbEntity
  8
0
  6
Continuous
 62
     7
370
    15
100
AcDbLine
 10
1697.64044798284
 20
1403.373226722116
 30
0.0
 11
1698.139038042419
 21
1403.373226722116
 31
0.0
  0
LINE
  5
96C
330
8E5
100
AcDbEntity
  8
0
  6
Continuous
 62
     7
370
    15
100
AcDbLine
 10
1704.533896281637
 20
1403.673227143819
 30
0.0
 11
1704.034898302771
 21
1403.673227143819
 31
0.0
  0
LINE
  5
96D
330
8E5
100
AcDbEntity
  8
0
  6
Continuous
 62
     7
370
    15
100
AcDbLine
 10
1704.034898302771
 20
1403.373226722116
 30
0.0
 11
1704.533896281637
 21
1403.373226722116
 31
0.0
  0
LINE
  5
96E
330
8E5
100
AcDbEntity
  8
0
  6
Continuous
 62
     7
370
    15
100
AcDbLine
 10
1697.08696809902
 20
1420.829113771553
 30
0.0
 11
1697.08696809902
 21
1423.482703243727
 31
0.0
  0
LINE
  5
96F
330
8E5
100
AcDbEntity
  8
0
  6
Continuous
 62
     7
370
    15
100
AcDbLine
 10
1697.08696809902
 20
1420.829113771553
 30
0.0
 11
1697.301610944115
 21
1420.829113771553
 31
0.0
  0
LINE
  5
970
330
8E5
100
AcDbEntity
  8
0
  6
Continuous
 62
     7
370
    15
100
AcDbLine
 10
1705.086967780508
 20
1423.482703243727
 30
0.0
 11
1705.086967780508
 21
1420.829113771553
 31
0.0
  0
LINE
  5
971
330
8E5
100
AcDbEntity
  8
0
  6
Continuous
 62
     7
370
    15
100
AcDbLine
 10
1704.872324935414
 20
1420.829113771553
 30
0.0
 11
1705.086967780508
 21
1420.829113771553
 31
0.0
  0
LINE
  5
972
330
8E5
100
AcDbEntity
  8
0
  6
Continuous
 62
     7
370
    15
100
AcDbLine
 10
1704.736968375064
 20
1393.524831119513
 30
0.0
 11
1704.736968375064
 21
1393.562891351841
 31
0.0
  0
LINE
  5
973
330
8E5
100
AcDbEntity
  8
0
  6
Continuous
 62
     7
370
    15
100
AcDbLine
 10
1697.436967970125
 20
1393.562891351841
 30
0.0
 11
1697.436967970125
 21
1393.524831119513
 31
0.0
  0
LINE
  5
974
330
8E5
100
AcDbEntity
  8
0
  6
Continuous
 62
     7
370
    15
100
AcDbLine
 10
1701.394860971041
 20
1404.856305768127
 30
0.0
 11
1701.394860971041
 21
1404.855951865549
 31
0.0
  0
LINE
  5
975
330
8E5
100
AcDbEntity
  8
0
  6
Continuous
 62
     7
370
    15
100
AcDbLine
 10
1701.394860971041
 20
1404.855951865549
 30
0.0
 11
1700.782696589149
 21
1404.855951865549
 31
0.0
  0
LINE
  5
976
330
8E5
100
AcDbEntity
  8
0
  6
Continuous
 62
     7
370
    15
100
AcDbLine
 10
1700.782696589149
 20
1404.855951865549
 30
0.0
 11
1700.782696589149
 21
1404.856305768127
 31
0.0
  0
LINE
  5
977
330
8E5
100
AcDbEntity
  8
0
  6
Continuous
 62
     7
370
    15
100
AcDbLine
 10
1699.16196806661
 20
1404.856449191804
 30
0.0
 11
1699.16196806661
 21
1404.85580751055
 31
0.0
  0
SPLINE
  5
978
330
8E5
100
AcDbEntity
  8
0
  6
Continuous
 62
     7
370
    15
100
AcDbSpline
210
0.0
220
0.0
230
1.0
 70
     8
 71
     3
 72
     8
 73
     4
 74
     0
 42
0.0000000001
 43
0.0000000001
 40
0.0
 40
0.0
 40
0.0
 40
0.0
 40
1.0
 40
1.0
 40
1.0
 40
1.0
 10
1699.161968004007
 20
1404.855807900453
 30
0.0
 10
1699.692778313846
 20
1404.855855098857
 30
0.0
 10
1700.236236697778
 20
1404.8559032513
 30
0.0
 10
1700.782696692186
 20
1404.855951496824
 30
0.0
  0
LINE
  5
979
330
8E5
100
AcDbEntity
  8
0
  6
Continuous
 62
     7
370
    15
100
AcDbLine
 10
1703.015589959241
 20
1404.85580751055
 30
0.0
 11
1703.015589959241
 21
1404.856449191804
 31
0.0
  0
SPLINE
  5
97A
330
8E5
100
AcDbEntity
  8
0
  6
Continuous
 62
     7
370
    15
100
AcDbSpline
210
0.0
220
0.0
230
1.0
 70
     8
 71
     3
 72
     8
 73
     4
 74
     0
 42
0.0000000001
 43
0.0000000001
 40
0.0
 40
0.0
 40
0.0
 40
0.0
 40
1.0
 40
1.0
 40
1.0
 40
1.0
 10
1701.394860871591
 20
1404.855951496824
 30
0.0
 10
1701.941320865998
 20
1404.8559032513
 30
0.0
 10
1702.484779249928
 20
1404.855855098857
 30
0.0
 10
1703.015589559768
 20
1404.855807900453
 30
0.0
  0
LINE
  5
97B
330
8E5
100
AcDbEntity
  8
0
  6
Continuous
 62
     7
370
    15
100
AcDbLine
 10
1701.272772032089
 20
1404.855902505452
 30
0.0
 11
1702.59417441047
 21
1404.855781433518
 31
0.0
  0
LINE
  5
97C
330
8E5
100
AcDbEntity
  8
0
  6
Continuous
 62
     7
370
    15
100
AcDbLine
 10
1700.904785528101
 20
1404.855902505452
 30
0.0
 11
1701.272772032089
 21
1404.855902505452
 31
0.0
  0
LINE
  5
97D
330
8E5
100
AcDbEntity
  8
0
  6
Continuous
 62
     7
370
    15
100
AcDbLine
 10
1699.583383149721
 20
1404.855781433518
 30
0.0
 11
1700.904785528101
 21
1404.855902505452
 31
0.0
  0
LINE
  5
97E
330
8E5
100
AcDbEntity
  8
0
  6
Continuous
 62
     7
370
    15
100
AcDbLine
 10
1699.583383149721
 20
1404.855743249292
 30
0.0
 11
1699.583383149721
 21
1404.855781433518
 31
0.0
  0
LINE
  5
97F
330
8E5
100
AcDbEntity
  8
0
  6
Continuous
 62
     7
370
    15
100
AcDbLine
 10
1700.904785528101
 20
1404.855622177357
 30
0.0
 11
1699.583383149721
 21
1404.855743249292
 31
0.0
  0
LINE
  5
980
330
8E5
100
AcDbEntity
  8
0
  6
Continuous
 62
     7
370
    15
100
AcDbLine
 10
1701.272772032089
 20
1404.855622177357
 30
0.0
 11
1700.904785528101
 21
1404.855622177357
 31
0.0
  0
LINE
  5
981
330
8E5
100
AcDbEntity
  8
0
  6
Continuous
 62
     7
370
    15
100
AcDbLine
 10
1702.59417441047
 20
1404.855743249292
 30
0.0
 11
1701.272772032089
 21
1404.855622177357
 31
0.0
  0
LINE
  5
982
330
8E5
100
AcDbEntity
  8
0
  6
Continuous
 62
     7
370
    15
100
AcDbLine
 10
1702.59417441047
 20
1404.855781433518
 30
0.0
 11
1702.59417441047
 21
1404.855743249292
 31
0.0
  0
LINE
  5
983
330
8E5
100
AcDbEntity
  8
0
  6
Continuous
 62
     7
370
    15
100
AcDbLine
 10
1699.16196806661
 20
1404.85580751055
 30
0.0
 11
1699.16196806661
 21
1404.855716240937
 31
0.0
  0
LINE
  5
984
330
8E5
100
AcDbEntity
  8
0
  6
Continuous
 62
     7
370
    15
100
AcDbLine
 10
1703.015589959241
 20
1404.855716240937
 30
0.0
 11
1703.015589959241
 21
1404.85580751055
 31
0.0
  0
SPLINE
  5
985
330
8E5
100
AcDbEntity
  8
0
  6
Continuous
 62
     7
370
    15
100
AcDbSpline
210
0.0
220
0.0
230
1.0
 70
     8
 71
     3
 72
     8
 73
     4
 74
     0
 42
0.0000000001
 43
0.0000000001
 40
0.0
 40
0.0
 40
0.0
 40
0.0
 40
1.0
 40
1.0
 40
1.0
 40
1.0
 10
1703.015589559768
 20
1404.855716394623
 30
0.0
 10
1702.484779983833
 20
1404.855669196284
 30
0.0
 10
1701.941340705632
 20
1404.855621045527
 30
0.0
 10
1701.394860871591
 20
1404.855572798252
 30
0.0
  0
LINE
  5
986
330
8E5
100
AcDbEntity
  8
0
  6
Continuous
 62
     7
370
    15
100
AcDbLine
 10
1700.782696589149
 20
1404.855572817261
 30
0.0
 11
1701.394860971041
 21
1404.855572817261
 31
0.0
  0
LINE
  5
987
330
8E5
100
AcDbEntity
  8
0
  6
Continuous
 62
     7
370
    15
100
AcDbLine
 10
1698.34887619435
 20
1403.239252244467
 30
0.0
 11
1703.825060150839
 21
1403.239252244467
 31
0.0
  0
SPLINE
  5
988
330
8E5
100
AcDbEntity
  8
0
  6
Continuous
 62
     7
370
    15
100
AcDbSpline
210
0.0
220
0.0
230
1.0
 70
     8
 71
     3
 72
     8
 73
     4
 74
     0
 42
0.0000000001
 43
0.0000000001
 40
0.0
 40
0.0
 40
0.0
 40
0.0
 40
1.0
 40
1.0
 40
1.0
 40
1.0
 10
1703.825059803443
 20
1403.239252409556
 30
0.0
 10
1703.847679600244
 20
1403.327488101687
 30
0.0
 10
1703.875194084098
 20
1403.373227005771
 30
0.0
 10
1703.905991102772
 20
1403.373227005771
 30
0.0
  0
SPLINE
  5
989
330
8E5
100
AcDbEntity
  8
0
  6
Continuous
 62
     7
370
    15
100
AcDbSpline
210
0.0
220
0.0
230
1.0
 70
     8
 71
     3
 72
     8
 73
     4
 74
     0
 42
0.0000000001
 43
0.0000000001
 40
0.0
 40
0.0
 40
0.0
 40
0.0
 40
1.0
 40
1.0
 40
1.0
 40
1.0
 10
1698.26794490539
 20
1403.373227005771
 30
0.0
 10
1698.29873921981
 20
1403.373227005771
 30
0.0
 10
1698.326258530595
 20
1403.327479821464
 30
0.0
 10
1698.348876204701
 20
1403.239252409556
 30
0.0
  0
LINE
  5
98A
330
8E5
100
AcDbEntity
  8
0
  6
Continuous
 62
     7
370
    15
100
AcDbLine
 10
1701.272772032089
 20
1404.855902505452
 30
0.0
 11
1701.272772032089
 21
1404.855622177357
 31
0.0
  0
LINE
  5
98B
330
8E5
100
AcDbEntity
  8
0
  6
Continuous
 62
     7
370
    15
100
AcDbLine
 10
1700.904785528101
 20
1404.855622177357
 30
0.0
 11
1700.904785528101
 21
1404.855902505452
 31
0.0
  0
SPLINE
  5
98C
330
8E5
100
AcDbEntity
  8
0
  6
Continuous
 62
     7
370
    15
100
AcDbSpline
210
0.0
220
0.0
230
1.0
 70
     8
 71
     3
 72
    14
 73
    10
 74
     0
 42
0.0000000001
 43
0.0000000001
 40
0.0
 40
0.0
 40
0.0
 40
0.0
 40
0.0003613767246407
 40
0.0003613767246407
 40
0.0003613767246407
 40
0.0006505237187482
 40
0.0006505237187482
 40
0.0006505237187482
 40
0.0009396707129638
 40
0.0009396707129638
 40
0.0009396707129638
 40
0.0009396707129638
 10
1703.626627677617
 20
1401.825092233334
 30
0.0
 10
1703.626967725514
 20
1401.874658518324
 30
0.0
 10
1703.627288263783
 20
1401.924224825913
 30
0.0
 10
1703.627603392748
 20
1401.973791138788
 30
0.0
 10
1703.627855535697
 20
1402.013450445674
 30
0.0
 10
1703.628103887649
 20
1402.053109756626
 30
0.0
 10
1703.628353690101
 20
1402.092769066019
 30
0.0
 10
1703.628603492553
 20
1402.132428375406
 30
0.0
 10
1703.628854580539
 20
1402.172087683505
 30
0.0
 10
1703.629112783793
 20
1402.211746983782
 30
0.0
  0
ELLIPSE
  5
98D
330
8E5
100
AcDbEntity
  8
0
  6
Continuous
 62
     7
370
    15
100
AcDbEllipse
 10
1718.901298864504
 20
1401.977073850616
 30
0.0
 11
15.27838025620818
 21
0.0
 31
0.0
210
0.0
220
0.0
230
1.0
 40
0.4514724886475869
 41
3.163627884299843
 42
3.491029948357653
  0
LINE
  5
98E
330
8E5
100
AcDbEntity
  8
0
  6
Continuous
 62
     7
370
    15
100
AcDbLine
 10
1697.627828096293
 20
1399.615490542138
 30
0.0
 11
1704.546259588815
 21
1399.615490542138
 31
0.0
  0
ELLIPSE
  5
98F
330
8E5
100
AcDbEntity
  8
0
  6
Continuous
 62
     7
370
    15
100
AcDbEllipse
 10
1683.297149926642
 20
1401.974799169479
 30
0.0
 11
15.2537668771393
 21
0.0
 31
0.0
210
0.0
220
0.0
230
1.0
 40
0.4514724886475878
 41
5.933511571716929
 42
6.261434858490935
  0
SPLINE
  5
990
330
8E5
100
AcDbEntity
  8
0
  6
Continuous
 62
     7
370
    15
100
AcDbSpline
210
0.0
220
0.0
230
1.0
 70
     8
 71
     3
 72
    14
 73
    10
 74
     0
 42
0.0000000001
 43
0.0000000001
 40
0.0
 40
0.0
 40
0.0
 40
0.0
 40
0.0003614116962286
 40
0.0003614116962286
 40
0.0003614116962286
 40
0.0006506251867607
 40
0.0006506251867607
 40
0.0006506251867607
 40
0.0009398386774006
 40
0.0009398386774006
 40
0.0009398386774006
 40
0.0009398386774006
 10
1698.547308804615
 20
1401.825023119531
 30
0.0
 10
1698.546968704796
 20
1401.874594201187
 30
0.0
 10
1698.54664812719
 20
1401.924165305459
 30
0.0
 10
1698.546332963241
 20
1401.97373641502
 30
0.0
 10
1698.546080758713
 20
1402.01340484253
 30
0.0
 10
1698.54583234956
 20
1402.053073274111
 30
0.0
 10
1698.54558249031
 20
1402.092741704134
 30
0.0
 10
1698.54533263106
 20
1402.132410134149
 30
0.0
 10
1698.545081486907
 20
1402.172078562879
 30
0.0
 10
1698.544823224272
 20
1402.211746983782
 30
0.0
  0
ELLIPSE
  5
991
330
8E5
100
AcDbEntity
  8
0
  6
Continuous
 62
     7
370
    15
100
AcDbEllipse
 10
1722.341723650917
 20
1402.001944445
 30
0.0
 11
18.71838022620699
 21
0.0
 31
0.0
210
0.0
220
0.0
230
1.0
 40
0.4514724886475873
 41
2.9946519111242
 42
3.116763849258523
  0
ELLIPSE
  5
992
330
8E5
100
AcDbEntity
  8
0
  6
Continuous
 62
     7
370
    15
100
AcDbEllipse
 10
1679.832212357142
 20
1402.001944445291
 30
0.0
 11
18.71838022619747
 21
0.0
 31
0.0
210
0.0
220
0.0
230
1.0
 40
0.4514724886475875
 41
0.0248288042968792
 42
0.1469407424309047
  0
SPLINE
  5
993
330
8E5
100
AcDbEntity
  8
0
  6
Continuous
 62
     7
370
    15
100
AcDbSpline
210
0.0
220
0.0
230
1.0
 70
     8
 71
     3
 72
    10
 73
     6
 74
     0
 42
0.0000000001
 43
0.0000000001
 40
0.0
 40
0.0
 40
0.0
 40
0.0
 40
0.5
 40
0.5
 40
1.0
 40
1.0
 40
1.0
 40
1.0
 10
1704.601809477323
 20
1399.87529829111
 30
0.0
 10
1704.629700170294
 20
1399.832505696134
 30
0.0
 10
1704.654099400595
 20
1399.770417231851
 30
0.0
 10
1704.688523689715
 20
1399.620379721033
 30
0.0
 10
1704.698395161318
 20
1399.532456884541
 30
0.0
 10
1704.698395161318
 20
1399.442285589217
 30
0.0
  0
LINE
  5
994
330
8E5
100
AcDbEntity
  8
0
  6
Continuous
 62
     7
370
    15
100
AcDbLine
 10
1704.698394856669
 20
1399.442285498018
 30
0.0
 11
1704.698394856669
 21
1396.473227034668
 31
0.0
  0
LINE
  5
995
330
8E5
100
AcDbEntity
  8
0
  6
Continuous
 62
     7
370
    15
100
AcDbLine
 10
1704.583094327964
 20
1399.442285498018
 30
0.0
 11
1704.583094327964
 21
1396.473227034668
 31
0.0
  0
SPLINE
  5
996
330
8E5
100
AcDbEntity
  8
0
  6
Continuous
 62
     7
370
    15
100
AcDbSpline
210
0.0
220
0.0
230
1.0
 70
     8
 71
     3
 72
     8
 73
     4
 74
     0
 42
0.0000000001
 43
0.0000000001
 40
0.0
 40
0.0
 40
0.0
 40
0.0
 40
1.0
 40
1.0
 40
1.0
 40
1.0
 10
1704.583094320619
 20
1399.442285589217
 30
0.0
 10
1704.583094320619
 20
1399.514096304345
 30
0.0
 10
1704.567844628533
 20
1399.581290894514
 30
0.0
 10
1704.54625965824
 20
1399.615490669974
 30
0.0
  0
ELLIPSE
  5
997
330
8E5
100
AcDbEntity
  8
0
  6
Continuous
 62
     7
370
    15
100
AcDbEllipse
 10
1718.901298864504
 20
1402.304602345048
 30
0.0
 11
15.27838025620818
 21
0.0
 31
0.0
210
0.0
220
0.0
230
1.0
 40
0.4514724886475442
 41
3.165728782546788
 42
3.501499402035128
  0
LINE
  5
998
330
8E5
100
AcDbEntity
  8
0
  6
Continuous
 62
     7
370
    15
100
AcDbLine
 10
1697.475573386319
 20
1396.473227034668
 30
0.0
 11
1697.475573386319
 21
1399.442285498018
 31
0.0
  0
SPLINE
  5
999
330
8E5
100
AcDbEntity
  8
0
  6
Continuous
 62
     7
370
    15
100
AcDbSpline
210
0.0
220
0.0
230
1.0
 70
     8
 71
     3
 72
    10
 73
     6
 74
     0
 42
0.0000000001
 43
0.0000000001
 40
0.0
 40
0.0
 40
0.0
 40
0.0
 40
0.5
 40
0.5
 40
1.0
 40
1.0
 40
1.0
 40
1.0
 10
1697.475573300632
 20
1399.442285589217
 30
0.0
 10
1697.475573300632
 20
1399.53221090057
 30
0.0
 10
1697.485403591589
 20
1399.620114019662
 30
0.0
 10
1697.519895491385
 20
1399.770424626442
 30
0.0
 10
1697.54439119281
 20
1399.832608447865
 30
0.0
 10
1697.572236382562
 20
1399.87529829111
 30
0.0
  0
SPLINE
  5
99A
330
8E5
100
AcDbEntity
  8
0
  6
Continuous
 62
     7
370
    15
100
AcDbSpline
210
0.0
220
0.0
230
1.0
 70
     8
 71
     3
 72
     8
 73
     4
 74
     0
 42
0.0000000001
 43
0.0000000001
 40
0.0
 40
0.0
 40
0.0
 40
0.0
 40
1.0
 40
1.0
 40
1.0
 40
1.0
 10
1697.590965866214
 20
1399.442285589217
 30
0.0
 10
1697.590965866214
 20
1399.514098301071
 30
0.0
 10
1697.606228091661
 20
1399.581292273672
 30
0.0
 10
1697.62782805767
 20
1399.615490669974
 30
0.0
  0
LINE
  5
99B
330
8E5
100
AcDbEntity
  8
0
  6
Continuous
 62
     7
370
    15
100
AcDbLine
 10
1697.590965883128
 20
1396.473227034668
 30
0.0
 11
1697.590965883128
 21
1399.442285498018
 31
0.0
  0
ELLIPSE
  5
99C
330
8E5
100
AcDbEntity
  8
0
  6
Continuous
 62
     7
370
    15
100
AcDbEllipse
 10
1683.297149926642
 20
1402.302327663912
 30
0.0
 11
15.2537668771393
 21
0.0
 31
0.0
210
0.0
220
0.0
230
1.0
 40
0.4514724886475449
 41
5.923024271176624
 42
6.256892766614223
  0
LINE
  5
99D
330
8E5
100
AcDbEntity
  8
0
  6
Continuous
 62
     7
370
    15
100
AcDbLine
 10
1699.16196806661
 20
1404.855716240937
 30
0.0
 11
1699.16196806661
 21
1404.855074559683
 31
0.0
  0
LINE
  5
99E
330
8E5
100
AcDbEntity
  8
0
  6
Continuous
 62
     7
370
    15
100
AcDbLine
 10
1700.782696589149
 20
1404.855218914683
 30
0.0
 11
1700.782696589149
 21
1404.855572817261
 31
0.0
  0
SPLINE
  5
99F
330
8E5
100
AcDbEntity
  8
0
  6
Continuous
 62
     7
370
    15
100
AcDbSpline
210
0.0
220
0.0
230
1.0
 70
     8
 71
     3
 72
     8
 73
     4
 74
     0
 42
0.0000000001
 43
0.0000000001
 40
0.0
 40
0.0
 40
0.0
 40
0.0
 40
1.0
 40
1.0
 40
1.0
 40
1.0
 10
1699.161968004026
 20
1404.855074923401
 30
0.0
 10
1699.692777579962
 20
1404.855122121739
 30
0.0
 10
1700.236216858159
 20
1404.855170272496
 30
0.0
 10
1700.782696692204
 20
1404.855218519771
 30
0.0
  0
LINE
  5
9A0
330
8E5
100
AcDbEntity
  8
0
  6
Continuous
 62
     7
370
    15
100
AcDbLine
 10
1701.394860971041
 20
1404.855572817261
 30
0.0
 11
1701.394860971041
 21
1404.855218914683
 31
0.0
  0
LINE
  5
9A1
330
8E5
100
AcDbEntity
  8
0
  6
Continuous
 62
     7
370
    15
100
AcDbLine
 10
1701.394860971041
 20
1404.855218914683
 30
0.0
 11
1700.782696589149
 21
1404.855218914683
 31
0.0
  0
LINE
  5
9A2
330
8E5
100
AcDbEntity
  8
0
  6
Continuous
 62
     7
370
    15
100
AcDbLine
 10
1703.015589959241
 20
1404.855074559683
 30
0.0
 11
1703.015589959241
 21
1404.855716240937
 31
0.0
  0
SPLINE
  5
9A3
330
8E5
100
AcDbEntity
  8
0
  6
Continuous
 62
     7
370
    15
100
AcDbSpline
210
0.0
220
0.0
230
1.0
 70
     8
 71
     3
 72
     8
 73
     4
 74
     0
 42
0.0000000001
 43
0.0000000001
 40
0.0
 40
0.0
 40
0.0
 40
0.0
 40
1.0
 40
1.0
 40
1.0
 40
1.0
 10
1701.394860871591
 20
1404.855218519771
 30
0.0
 10
1701.941340705632
 20
1404.855170272495
 30
0.0
 10
1702.484779983833
 20
1404.855122121739
 30
0.0
 10
1703.015589559768
 20
1404.8550749234
 30
0.0
  0
LINE
  5
9A4
330
8E5
100
AcDbEntity
  8
0
  6
Continuous
 62
     7
370
    15
100
AcDbLine
 10
1701.272772032089
 20
1404.855169554586
 30
0.0
 11
1702.59417441047
 21
1404.855048482651
 31
0.0
  0
LINE
  5
9A5
330
8E5
100
AcDbEntity
  8
0
  6
Continuous
 62
     7
370
    15
100
AcDbLine
 10
1701.272772032089
 20
1404.855169554586
 30
0.0
 11
1700.904785528101
 21
1404.855169554586
 31
0.0
  0
LINE
  5
9A6
330
8E5
100
AcDbEntity
  8
0
  6
Continuous
 62
     7
370
    15
100
AcDbLine
 10
1699.583383149721
 20
1404.855048482651
 30
0.0
 11
1700.904785528101
 21
1404.855169554586
 31
0.0
  0
LINE
  5
9A7
330
8E5
100
AcDbEntity
  8
0
  6
Continuous
 62
     7
370
    15
100
AcDbLine
 10
1699.583383149721
 20
1404.855048482651
 30
0.0
 11
1699.583383149721
 21
1404.855010298426
 31
0.0
  0
LINE
  5
9A8
330
8E5
100
AcDbEntity
  8
0
  6
Continuous
 62
     7
370
    15
100
AcDbLine
 10
1700.904785528101
 20
1404.854889226491
 30
0.0
 11
1699.583383149721
 21
1404.855010298426
 31
0.0
  0
LINE
  5
9A9
330
8E5
100
AcDbEntity
  8
0
  6
Continuous
 62
     7
370
    15
100
AcDbLine
 10
1700.904785528101
 20
1404.854889226491
 30
0.0
 11
1701.272772032089
 21
1404.854889226491
 31
0.0
  0
LINE
  5
9AA
330
8E5
100
AcDbEntity
  8
0
  6
Continuous
 62
     7
370
    15
100
AcDbLine
 10
1702.59417441047
 20
1404.855010298426
 30
0.0
 11
1701.272772032089
 21
1404.854889226491
 31
0.0
  0
LINE
  5
9AB
330
8E5
100
AcDbEntity
  8
0
  6
Continuous
 62
     7
370
    15
100
AcDbLine
 10
1702.59417441047
 20
1404.855010298426
 30
0.0
 11
1702.59417441047
 21
1404.855048482651
 31
0.0
  0
LINE
  5
9AC
330
8E5
100
AcDbEntity
  8
0
  6
Continuous
 62
     7
370
    15
100
AcDbLine
 10
1703.015589959241
 20
1404.854983290071
 30
0.0
 11
1703.015589959241
 21
1404.855074559683
 31
0.0
  0
SPLINE
  5
9AD
330
8E5
100
AcDbEntity
  8
0
  6
Continuous
 62
     7
370
    15
100
AcDbSpline
210
0.0
220
0.0
230
1.0
 70
     8
 71
     3
 72
     8
 73
     4
 74
     0
 42
0.0000000001
 43
0.0000000001
 40
0.0
 40
0.0
 40
0.0
 40
0.0
 40
1.0
 40
1.0
 40
1.0
 40
1.0
 10
1703.015589559768
 20
1404.85498341757
 30
0.0
 10
1702.484779249928
 20
1404.854936219166
 30
0.0
 10
1701.941320865998
 20
1404.854888066723
 30
0.0
 10
1701.394860871591
 20
1404.854839821199
 30
0.0
  0
LINE
  5
9AE
330
8E5
100
AcDbEntity
  8
0
  6
Continuous
 62
     7
370
    15
100
AcDbLine
 10
1700.782696589149
 20
1404.854839866395
 30
0.0
 11
1701.394860971041
 21
1404.854839866395
 31
0.0
  0
LINE
  5
9AF
330
8E5
100
AcDbEntity
  8
0
  6
Continuous
 62
     7
370
    15
100
AcDbLine
 10
1699.16196806661
 20
1404.855074559683
 30
0.0
 11
1699.16196806661
 21
1404.854983290071
 31
0.0
  0
LINE
  5
9B0
330
8E5
100
AcDbEntity
  8
0
  6
Continuous
 62
     7
370
    15
100
AcDbLine
 10
1701.272772032089
 20
1404.855169554586
 30
0.0
 11
1701.272772032089
 21
1404.854889226491
 31
0.0
  0
LINE
  5
9B1
330
8E5
100
AcDbEntity
  8
0
  6
Continuous
 62
     7
370
    15
100
AcDbLine
 10
1700.904785528101
 20
1404.854889226491
 30
0.0
 11
1700.904785528101
 21
1404.855169554586
 31
0.0
  0
LINE
  5
9B2
330
8E5
100
AcDbEntity
  8
0
  6
Continuous
 62
     7
370
    15
100
AcDbLine
 10
1697.590965883128
 20
1399.442285498018
 30
0.0
 11
1704.583094327964
 21
1399.442285498018
 31
0.0
  0
LINE
  5
9B3
330
8E5
100
AcDbEntity
  8
0
  6
Continuous
 62
     7
370
    15
100
AcDbLine
 10
1705.086967780508
 20
1394.476780691995
 30
0.0
 11
1704.736968375064
 21
1394.476780691995
 31
0.0
  0
LINE
  5
9B4
330
8E5
100
AcDbEntity
  8
0
  6
Continuous
 62
     7
370
    15
100
AcDbLine
 10
1697.436967970125
 20
1394.476780691995
 30
0.0
 11
1697.08696809902
 21
1394.476780691995
 31
0.0
  0
LINE
  5
9B5
330
8E5
100
AcDbEntity
  8
0
  6
Continuous
 62
     7
370
    15
100
AcDbLine
 10
1704.583094327964
 20
1396.473227034668
 30
0.0
 11
1705.086967780508
 21
1396.473227034668
 31
0.0
  0
LINE
  5
9B6
330
8E5
100
AcDbEntity
  8
0
  6
Continuous
 62
     7
370
    15
100
AcDbLine
 10
1697.08696809902
 20
1396.473227034668
 30
0.0
 11
1697.590965883128
 21
1396.473227034668
 31
0.0
  0
LINE
  5
9B7
330
8E5
100
AcDbEntity
  8
0
  6
Continuous
 62
     7
370
    15
100
AcDbLine
 10
1704.736968375064
 20
1394.476780691995
 30
0.0
 11
1704.736968375064
 21
1393.562891351841
 31
0.0
  0
LINE
  5
9B8
330
8E5
100
AcDbEntity
  8
0
  6
Continuous
 62
     7
370
    15
100
AcDbLine
 10
1697.436967970125
 20
1393.562891351841
 30
0.0
 11
1697.436967970125
 21
1394.476780691995
 31
0.0
  0
ENDBLK
  5
8E7
330
8E5
100
AcDbEntity
  8
0
100
AcDbBlockEnd
  0
BLOCK
  5
9BB
330
9BA
100
AcDbEntity
  8
0
100
AcDbBlockBegin
  2
2
 70
     0
 10
0.0
 20
0.0
 30
0.0
  3
2
  1

  0
LINE
  5
C98
330
9BA
100
AcDbEntity
  8
0
  6
Continuous
 62
     7
370
    15
100
AcDbLine
 10
1671.706078794646
 20
1423.482703243727
 30
0.0
 11
1671.10607795124
 21
1423.829114263291
 31
0.0
1001
AcDbBlockRepETag
1070
     1
1071
        0
1005
C98
  0
LINE
  5
C99
330
9BA
100
AcDbEntity
  8
0
  6
Continuous
 62
     7
370
    15
100
AcDbLine
 10
1663.306078628498
 20
1423.829114263291
 30
0.0
 11
1662.706078250753
 21
1423.482703243727
 31
0.0
1001
AcDbBlockRepETag
1070
     1
1071
        1
1005
C99
  0
LINE
  5
C9A
330
9BA
100
AcDbEntity
  8
0
  6
Continuous
 62
     7
370
    15
100
AcDbLine
 10
1664.706078578579
 20
1420.829113771553
 30
0.0
 11
1664.706078578579
 21
1418.829113443727
 31
0.0
1001
AcDbBlockRepETag
1070
     1
1071
        2
1005
C9A
  0
LINE
  5
C9B
330
9BA
100
AcDbEntity
  8
0
  6
Continuous
 62
     7
370
    15
100
AcDbLine
 10
1669.70607846682
 20
1418.829113443727
 30
0.0
 11
1669.70607846682
 21
1420.829113771553
 31
0.0
1001
AcDbBlockRepETag
1070
     1
1071
        3
1005
C9B
  0
LINE
  5
C9C
330
9BA
100
AcDbEntity
  8
0
  6
Continuous
 62
     7
370
    15
100
AcDbLine
 10
1662.706078250753
 20
1423.482703243727
 30
0.0
 11
1662.706078250753
 21
1420.829113771553
 31
0.0
1001
AcDbBlockRepETag
1070
     1
1071
        4
1005
C9C
  0
LINE
  5
C9D
330
9BA
100
AcDbEntity
  8
0
  6
Continuous
 62
     7
370
    15
100
AcDbLine
 10
1671.706078794646
 20
1420.829113771553
 30
0.0
 11
1671.706078794646
 21
1423.482703243727
 31
0.0
1001
AcDbBlockRepETag
1070
     1
1071
        5
1005
C9D
  0
LINE
  5
C9E
330
9BA
100
AcDbEntity
  8
0
  6
Continuous
 62
     7
370
    15
100
AcDbLine
 10
1656.110127909901
 20
1416.679114302034
 30
0.0
 11
1678.414058160829
 21
1416.679114302034
 31
0.0
1001
AcDbBlockRepETag
1070
     1
1071
        6
1005
C9E
  0
LINE
  5
C9F
330
9BA
100
AcDbEntity
  8
0
  6
Continuous
 62
     7
370
    15
100
AcDbLine
 10
1678.555548411655
 20
1416.47704524302
 30
0.0
 11
1678.414058160829
 21
1416.679114302034
 31
0.0
1001
AcDbBlockRepETag
1070
     1
1071
        7
1005
C9F
  0
LINE
  5
CA0
330
9BA
100
AcDbEntity
  8
0
  6
Continuous
 62
     7
370
    15
100
AcDbLine
 10
1677.101809752034
 20
1406.561644015248
 30
0.0
 11
1678.555548411655
 21
1416.47704524302
 31
0.0
1001
AcDbBlockRepETag
1070
     1
1071
        8
1005
CA0
  0
LINE
  5
CA1
330
9BA
100
AcDbEntity
  8
0
  6
Continuous
 62
     7
370
    15
100
AcDbLine
 10
1677.101809752034
 20
1406.561644015248
 30
0.0
 11
1676.705740612792
 21
1406.129409757788
 31
0.0
1001
AcDbBlockRepETag
1070
     1
1071
        9
1005
CA1
  0
LINE
  5
CA2
330
9BA
100
AcDbEntity
  8
0
  6
Continuous
 62
     7
370
    15
100
AcDbLine
 10
1676.705740612792
 20
1406.129409757788
 30
0.0
 11
1664.850078278082
 21
1405.611780670817
 31
0.0
1001
AcDbBlockRepETag
1070
     1
1071
       10
1005
CA2
  0
LINE
  5
CA3
330
9BA
100
AcDbEntity
  8
0
  6
Continuous
 62
     7
370
    15
100
AcDbLine
 10
1664.850078278082
 20
1405.611780670817
 30
0.0
 11
1664.454287604289
 21
1406.007571344609
 31
0.0
1001
AcDbBlockRepETag
1070
     1
1071
       11
1005
CA3
  0
ARC
  5
CA4
330
9BA
100
AcDbEntity
  8
0
  6
Continuous
 62
     7
370
    15
100
AcDbCircle
 10
1664.201497059446
 20
1405.754780715583
 30
0.0
 40
0.3574999999983979
100
AcDbArc
 50
45.0
 51
90.0
1001
AcDbBlockRepETag
1070
     1
1071
       12
1005
CA4
  0
LINE
  5
CA5
330
9BA
100
AcDbEntity
  8
0
  6
Continuous
 62
     7
370
    15
100
AcDbLine
 10
1664.201496855216
 20
1406.112280872996
 30
0.0
 11
1663.277078640508
 21
1406.112280872996
 31
0.0
1001
AcDbBlockRepETag
1070
     1
1071
       13
1005
CA5
  0
ARC
  5
CA6
330
9BA
100
AcDbEntity
  8
0
  6
Continuous
 62
     7
370
    15
100
AcDbCircle
 10
1663.277078407989
 20
1405.754780715582
 30
0.0
 40
0.3574999999993338
100
AcDbArc
 50
90.0
 51
180.0
1001
AcDbBlockRepETag
1070
     1
1071
       14
1005
CA6
  0
LINE
  5
CA7
330
9BA
100
AcDbEntity
  8
0
  6
Continuous
 62
     7
370
    15
100
AcDbLine
 10
1662.919578363048
 20
1399.668873952115
 30
0.0
 11
1662.919578363048
 21
1405.754780595536
 31
0.0
1001
AcDbBlockRepETag
1070
     1
1071
       15
1005
CA7
  0
LINE
  5
CA8
330
9BA
100
AcDbEntity
  8
0
  6
Continuous
 62
     7
370
    15
100
AcDbLine
 10
1662.919578363048
 20
1399.668873952115
 30
0.0
 11
1663.006284960406
 21
1399.582167354757
 31
0.0
1001
AcDbBlockRepETag
1070
     1
1071
       16
1005
CA8
  0
ARC
  5
CA9
330
9BA
100
AcDbEntity
  8
0
  6
Continuous
 62
     7
370
    15
100
AcDbCircle
 10
1663.10740132811
 20
1399.683283592137
 30
0.0
 40
0.1430000000009167
100
AcDbArc
 50
225.0000000000092
 51
314.9999999999908
1001
AcDbBlockRepETag
1070
     1
1071
       17
1005
CA9
  0
LINE
  5
CAA
330
9BA
100
AcDbEntity
  8
0
  6
Continuous
 62
     7
370
    15
100
AcDbLine
 10
1663.482776132273
 20
1399.856426020498
 30
0.0
 11
1663.208517466532
 21
1399.582167354757
 31
0.0
1001
AcDbBlockRepETag
1070
     1
1071
       18
1005
CAA
  0
ARC
  5
CAB
330
9BA
100
AcDbEntity
  8
0
  6
Continuous
 62
     7
370
    15
100
AcDbCircle
 10
1663.60917166525
 20
1399.730030715579
 30
0.0
 40
0.1787500000019121
100
AcDbArc
 50
44.99999999999078
 51
135.0
1001
AcDbBlockRepETag
1070
     1
1071
       19
1005
CAB
  0
LINE
  5
CAC
330
9BA
100
AcDbEntity
  8
0
  6
Continuous
 62
     7
370
    15
100
AcDbLine
 10
1664.009825547086
 20
1399.582167354757
 30
0.0
 11
1663.735566881346
 21
1399.856426020498
 31
0.0
1001
AcDbBlockRepETag
1070
     1
1071
       20
1005
CAC
  0
ARC
  5
CAD
330
9BA
100
AcDbEntity
  8
0
  6
Continuous
 62
     7
370
    15
100
AcDbCircle
 10
1664.110942002387
 20
1399.683283592142
 30
0.0
 40
0.1430000000017306
100
AcDbArc
 50
225.0000000000092
 51
314.9999999999908
1001
AcDbBlockRepETag
1070
     1
1071
       21
1005
CAD
  0
LINE
  5
CAE
330
9BA
100
AcDbEntity
  8
0
  6
Continuous
 62
     7
370
    15
100
AcDbLine
 10
1664.486317184614
 20
1399.856426020498
 30
0.0
 11
1664.212058053213
 21
1399.582167354757
 31
0.0
1001
AcDbBlockRepETag
1070
     1
1071
       22
1005
CAE
  0
ARC
  5
CAF
330
9BA
100
AcDbEntity
  8
0
  6
Continuous
 62
     7
370
    15
100
AcDbCircle
 10
1664.612712339524
 20
1399.730030715583
 30
0.0
 40
0.1787499999991487
100
AcDbArc
 50
45.00000000000921
 51
135.0000000000092
1001
AcDbBlockRepETag
1070
     1
1071
       23
1005
CAF
  0
LINE
  5
CB0
330
9BA
100
AcDbEntity
  8
0
  6
Continuous
 62
     7
370
    15
100
AcDbLine
 10
1665.013366599428
 20
1399.582167354757
 30
0.0
 11
1664.739107468026
 21
1399.856426020498
 31
0.0
1001
AcDbBlockRepETag
1070
     1
1071
       24
1005
CB0
  0
ARC
  5
CB1
330
9BA
100
AcDbEntity
  8
0
  6
Continuous
 62
     7
370
    15
100
AcDbCircle
 10
1665.11448267666
 20
1399.683283592137
 30
0.0
 40
0.1429999999981031
100
AcDbArc
 50
225.0000000000092
 51
315.0000000000092
1001
AcDbBlockRepETag
1070
     1
1071
       25
1005
CB1
  0
LINE
  5
CB2
330
9BA
100
AcDbEntity
  8
0
  6
Continuous
 62
     7
370
    15
100
AcDbLine
 10
1665.489857771295
 20
1399.856426020498
 30
0.0
 11
1665.215599105554
 21
1399.582167354757
 31
0.0
1001
AcDbBlockRepETag
1070
     1
1071
       26
1005
CB2
  0
ARC
  5
CB3
330
9BA
100
AcDbEntity
  8
0
  6
Continuous
 62
     7
370
    15
100
AcDbCircle
 10
1665.616253013797
 20
1399.73003071558
 30
0.0
 40
0.1787500000028366
100
AcDbArc
 50
45.00000000000921
 51
135.0000000000092
1001
AcDbBlockRepETag
1070
     1
1071
       27
1005
CB3
  0
LINE
  5
CB4
330
9BA
100
AcDbEntity
  8
0
  6
Continuous
 62
     7
370
    15
100
AcDbLine
 10
1666.016907186108
 20
1399.582167354757
 30
0.0
 11
1665.742648520368
 21
1399.856426020498
 31
0.0
1001
AcDbBlockRepETag
1070
     1
1071
       28
1005
CB4
  0
ARC
  5
CB5
330
9BA
100
AcDbEntity
  8
0
  6
Continuous
 62
     7
370
    15
100
AcDbCircle
 10
1666.118023350935
 20
1399.683283592136
 30
0.0
 40
0.1429999999981433
100
AcDbArc
 50
225.0000000000092
 51
269.2906612603265
1001
AcDbBlockRepETag
1070
     1
1071
       29
1005
CB5
  0
ARC
  5
CB6
330
9BA
100
AcDbEntity
  8
0
  6
Continuous
 62
     7
370
    15
100
AcDbCircle
 10
1666.11448267666
 20
1399.683283592137
 30
0.0
 40
0.1429999999981053
100
AcDbArc
 50
270.7093387078057
 51
315.0000000000092
1001
AcDbBlockRepETag
1070
     1
1071
       30
1005
CB6
  0
LINE
  5
CB7
330
9BA
100
AcDbEntity
  8
0
  6
Continuous
 62
     7
370
    15
100
AcDbLine
 10
1666.489857469546
 20
1399.856426020498
 30
0.0
 11
1666.215598803806
 21
1399.582167354757
 31
0.0
1001
AcDbBlockRepETag
1070
     1
1071
       31
1005
CB7
  0
ARC
  5
CB8
330
9BA
100
AcDbEntity
  8
0
  6
Continuous
 62
     7
370
    15
100
AcDbCircle
 10
1666.616253013797
 20
1399.730030715579
 30
0.0
 40
0.1787500000028667
100
AcDbArc
 50
45.00000000000921
 51
135.0000000000092
1001
AcDbBlockRepETag
1070
     1
1071
       32
1005
CB8
  0
LINE
  5
CB9
330
9BA
100
AcDbEntity
  8
0
  6
Continuous
 62
     7
370
    15
100
AcDbLine
 10
1667.01690688436
 20
1399.582167354757
 30
0.0
 11
1666.742648218619
 21
1399.856426020498
 31
0.0
1001
AcDbBlockRepETag
1070
     1
1071
       33
1005
CB9
  0
ARC
  5
CBA
330
9BA
100
AcDbEntity
  8
0
  6
Continuous
 62
     7
370
    15
100
AcDbCircle
 10
1667.118023350935
 20
1399.683283592136
 30
0.0
 40
0.1429999999981031
100
AcDbArc
 50
224.9999999999908
 51
269.2906612603265
1001
AcDbBlockRepETag
1070
     1
1071
       34
1005
CBA
  0
ARC
  5
CBB
330
9BA
100
AcDbEntity
  8
0
  6
Continuous
 62
     7
370
    15
100
AcDbCircle
 10
1667.11448267666
 20
1399.683283592137
 30
0.0
 40
0.1429999999981031
100
AcDbArc
 50
270.7093387078057
 51
315.0000000000092
1001
AcDbBlockRepETag
1070
     1
1071
       35
1005
CBB
  0
LINE
  5
CBC
330
9BA
100
AcDbEntity
  8
0
  6
Continuous
 62
     7
370
    15
100
AcDbLine
 10
1667.489857633459
 20
1399.856426020498
 30
0.0
 11
1667.215598967718
 21
1399.582167354757
 31
0.0
1001
AcDbBlockRepETag
1070
     1
1071
       36
1005
CBC
  0
ARC
  5
CBD
330
9BA
100
AcDbEntity
  8
0
  6
Continuous
 62
     7
370
    15
100
AcDbCircle
 10
1667.616253013797
 20
1399.730030715579
 30
0.0
 40
0.1787500000028466
100
AcDbArc
 50
45.00000000000921
 51
134.9999999999908
1001
AcDbBlockRepETag
1070
     1
1071
       37
1005
CBD
  0
LINE
  5
CBE
330
9BA
100
AcDbEntity
  8
0
  6
Continuous
 62
     7
370
    15
100
AcDbLine
 10
1668.016907048272
 20
1399.582167354757
 30
0.0
 11
1667.742648382532
 21
1399.856426020498
 31
0.0
1001
AcDbBlockRepETag
1070
     1
1071
       38
1005
CBE
  0
ARC
  5
CBF
330
9BA
100
AcDbEntity
  8
0
  6
Continuous
 62
     7
370
    15
100
AcDbCircle
 10
1668.118023350935
 20
1399.683283592135
 30
0.0
 40
0.1429999999981131
100
AcDbArc
 50
225.0000000000092
 51
267.9962426353137
1001
AcDbBlockRepETag
1070
     1
1071
       39
1005
CBF
  0
ARC
  5
CC0
330
9BA
100
AcDbEntity
  8
0
  6
Continuous
 62
     7
370
    15
100
AcDbCircle
 10
1668.108023350935
 20
1399.683283592136
 30
0.0
 40
0.1429999999981232
100
AcDbArc
 50
272.0037573534106
 51
314.9999999999908
1001
AcDbBlockRepETag
1070
     1
1071
       40
1005
CC0
  0
LINE
  5
CC1
330
9BA
100
AcDbEntity
  8
0
  6
Continuous
 62
     7
370
    15
100
AcDbLine
 10
1668.483398143994
 20
1399.856426020498
 30
0.0
 11
1668.209139478254
 21
1399.582167354757
 31
0.0
1001
AcDbBlockRepETag
1070
     1
1071
       41
1005
CC1
  0
ARC
  5
CC2
330
9BA
100
AcDbEntity
  8
0
  6
Continuous
 62
     7
370
    15
100
AcDbCircle
 10
1668.609793688063
 20
1399.730030715572
 30
0.0
 40
0.1787499999999727
100
AcDbArc
 50
44.99999999999078
 51
135.0000000000092
1001
AcDbBlockRepETag
1070
     1
1071
       42
1005
CC2
  0
LINE
  5
CC3
330
9BA
100
AcDbEntity
  8
0
  6
Continuous
 62
     7
370
    15
100
AcDbLine
 10
1669.010447558808
 20
1399.582167354757
 30
0.0
 11
1668.736188893067
 21
1399.856426020498
 31
0.0
1001
AcDbBlockRepETag
1070
     1
1071
       43
1005
CC3
  0
ARC
  5
CC4
330
9BA
100
AcDbEntity
  8
0
  6
Continuous
 62
     7
370
    15
100
AcDbCircle
 10
1669.111564025205
 20
1399.683283592124
 30
0.0
 40
0.1430000000000424
100
AcDbArc
 50
224.9999999999908
 51
314.9999999999908
1001
AcDbBlockRepETag
1070
     1
1071
       44
1005
CC4
  0
LINE
  5
CC5
330
9BA
100
AcDbEntity
  8
0
  6
Continuous
 62
     7
370
    15
100
AcDbLine
 10
1669.486939196336
 20
1399.856426020498
 30
0.0
 11
1669.212680530595
 21
1399.582167354757
 31
0.0
1001
AcDbBlockRepETag
1070
     1
1071
       45
1005
CC5
  0
ARC
  5
CC6
330
9BA
100
AcDbEntity
  8
0
  6
Continuous
 62
     7
370
    15
100
AcDbCircle
 10
1669.613334362341
 20
1399.730030715567
 30
0.0
 40
0.1787500000000229
100
AcDbArc
 50
44.99999999999078
 51
135.0000000000092
1001
AcDbBlockRepETag
1070
     1
1071
       46
1005
CC6
  0
LINE
  5
CC7
330
9BA
100
AcDbEntity
  8
0
  6
Continuous
 62
     7
370
    15
100
AcDbLine
 10
1670.013988611149
 20
1399.582167354757
 30
0.0
 11
1669.739729945409
 21
1399.856426020498
 31
0.0
1001
AcDbBlockRepETag
1070
     1
1071
       47
1005
CC7
  0
ARC
  5
CC8
330
9BA
100
AcDbEntity
  8
0
  6
Continuous
 62
     7
370
    15
100
AcDbCircle
 10
1670.115104699479
 20
1399.683283592123
 30
0.0
 40
0.142999999999952
100
AcDbArc
 50
225.0000000000276
 51
314.9999999999908
1001
AcDbBlockRepETag
1070
     1
1071
       48
1005
CC8
  0
LINE
  5
CC9
330
9BA
100
AcDbEntity
  8
0
  6
Continuous
 62
     7
370
    15
100
AcDbLine
 10
1670.490479317354
 20
1399.856426020498
 30
0.0
 11
1670.216220651614
 21
1399.582167354757
 31
0.0
1001
AcDbBlockRepETag
1070
     1
1071
       49
1005
CC9
  0
ARC
  5
CCA
330
9BA
100
AcDbEntity
  8
0
  6
Continuous
 62
     7
370
    15
100
AcDbCircle
 10
1670.616875036613
 20
1399.730030715563
 30
0.0
 40
0.1787500000000028
100
AcDbArc
 50
45.0
 51
135.0
1001
AcDbBlockRepETag
1070
     1
1071
       50
1005
CCA
  0
LINE
  5
CCB
330
9BA
100
AcDbEntity
  8
0
  6
Continuous
 62
     7
370
    15
100
AcDbLine
 10
1671.017528732168
 20
1399.582167354757
 30
0.0
 11
1670.743270066427
 21
1399.856426020498
 31
0.0
1001
AcDbBlockRepETag
1070
     1
1071
       51
1005
CCB
  0
ARC
  5
CCC
330
9BA
100
AcDbEntity
  8
0
  6
Continuous
 62
     7
370
    15
100
AcDbCircle
 10
1671.118645373747
 20
1399.683283592122
 30
0.0
 40
0.1430000000000424
100
AcDbArc
 50
224.9999999999908
 51
314.9999999999908
1001
AcDbBlockRepETag
1070
     1
1071
       52
1005
CCC
  0
LINE
  5
CCD
330
9BA
100
AcDbEntity
  8
0
  6
Continuous
 62
     7
370
    15
100
AcDbLine
 10
1671.494020369696
 20
1399.856426020498
 30
0.0
 11
1671.219761703955
 21
1399.582167354757
 31
0.0
1001
AcDbBlockRepETag
1070
     1
1071
       53
1005
CCD
  0
ARC
  5
CCE
330
9BA
100
AcDbEntity
  8
0
  6
Continuous
 62
     7
370
    15
100
AcDbCircle
 10
1671.620415710887
 20
1399.73003071557
 30
0.0
 40
0.1787500000000129
100
AcDbArc
 50
44.99999999999078
 51
135.0000000000092
1001
AcDbBlockRepETag
1070
     1
1071
       54
1005
CCE
  0
LINE
  5
CCF
330
9BA
100
AcDbEntity
  8
0
  6
Continuous
 62
     7
370
    15
100
AcDbLine
 10
1672.021069784509
 20
1399.582167354757
 30
0.0
 11
1671.746811118769
 21
1399.856426020498
 31
0.0
1001
AcDbBlockRepETag
1070
     1
1071
       55
1005
CCF
  0
ARC
  5
CD0
330
9BA
100
AcDbEntity
  8
0
  6
Continuous
 62
     7
370
    15
100
AcDbCircle
 10
1672.122186048023
 20
1399.683283592128
 30
0.0
 40
0.1430000000000123
100
AcDbArc
 50
224.9999999999908
 51
314.9999999999908
1001
AcDbBlockRepETag
1070
     1
1071
       56
1005
CD0
  0
LINE
  5
CD1
330
9BA
100
AcDbEntity
  8
0
  6
Continuous
 62
     7
370
    15
100
AcDbLine
 10
1672.497561422037
 20
1399.856426020498
 30
0.0
 11
1672.223302756297
 21
1399.582167354757
 31
0.0
1001
AcDbBlockRepETag
1070
     1
1071
       57
1005
CD1
  0
ARC
  5
CD2
330
9BA
100
AcDbEntity
  8
0
  6
Continuous
 62
     7
370
    15
100
AcDbCircle
 10
1672.623956385161
 20
1399.730030715572
 30
0.0
 40
0.178750000000043
100
AcDbArc
 50
45.0
 51
135.0
1001
AcDbBlockRepETag
1070
     1
1071
       58
1005
CD2
  0
LINE
  5
CD3
330
9BA
100
AcDbEntity
  8
0
  6
Continuous
 62
     7
370
    15
100
AcDbLine
 10
1673.024610836851
 20
1399.582167354757
 30
0.0
 11
1672.75035217111
 21
1399.856426020498
 31
0.0
1001
AcDbBlockRepETag
1070
     1
1071
       59
1005
CD3
  0
ARC
  5
CD4
330
9BA
100
AcDbEntity
  8
0
  6
Continuous
 62
     7
370
    15
100
AcDbCircle
 10
1673.125726722299
 20
1399.683283592128
 30
0.0
 40
0.1430000000000324
100
AcDbArc
 50
224.9999999999908
 51
314.9999999999908
1001
AcDbBlockRepETag
1070
     1
1071
       60
1005
CD4
  0
LINE
  5
CD5
330
9BA
100
AcDbEntity
  8
0
  6
Continuous
 62
     7
370
    15
100
AcDbLine
 10
1673.501101543056
 20
1399.856426020498
 30
0.0
 11
1673.226842877316
 21
1399.582167354757
 31
0.0
1001
AcDbBlockRepETag
1070
     1
1071
       61
1005
CD5
  0
ARC
  5
CD6
330
9BA
100
AcDbEntity
  8
0
  6
Continuous
 62
     7
370
    15
100
AcDbCircle
 10
1673.627497059435
 20
1399.730030715571
 30
0.0
 40
0.1787500000001033
100
AcDbArc
 50
74.99999999997702
 51
135.0000000000092
1001
AcDbBlockRepETag
1070
     1
1071
       62
1005
CD6
  0
LINE
  5
CD7
330
9BA
100
AcDbEntity
  8
0
  6
Continuous
 62
     7
370
    15
100
AcDbLine
 10
1676.92157834475
 20
1399.032439769591
 30
0.0
 11
1673.673761297809
 21
1399.902689935053
 31
0.0
1001
AcDbBlockRepETag
1070
     1
1071
       63
1005
CD7
  0
LINE
  5
CD8
330
9BA
100
AcDbEntity
  8
0
  6
Continuous
 62
     7
370
    15
100
AcDbLine
 10
1675.491579097556
 20
1396.476780728782
 30
0.0
 11
1676.565438729572
 21
1396.570731385956
 31
0.0
1001
AcDbBlockRepETag
1070
     1
1071
       64
1005
CD8
  0
LINE
  5
CD9
330
9BA
100
AcDbEntity
  8
0
  6
Continuous
 62
     7
370
    15
100
AcDbLine
 10
1675.491579097556
 20
1396.476780728782
 30
0.0
 11
1675.491579097556
 21
1394.476780691995
 31
0.0
1001
AcDbBlockRepETag
1070
     1
1071
       65
1005
CD9
  0
LINE
  5
CDA
330
9BA
100
AcDbEntity
  8
0
  6
Continuous
 62
     7
370
    15
100
AcDbLine
 10
1676.529802602576
 20
1394.38594786997
 30
0.0
 11
1675.491579097556
 21
1394.476780691995
 31
0.0
1001
AcDbBlockRepETag
1070
     1
1071
       66
1005
CDA
  0
LINE
  5
CDB
330
9BA
100
AcDbEntity
  8
0
  6
Continuous
 62
     7
370
    15
100
AcDbLine
 10
1676.92157834475
 20
1393.99417192407
 30
0.0
 11
1676.529802602576
 21
1394.38594786997
 31
0.0
1001
AcDbBlockRepETag
1070
     1
1071
       67
1005
CDB
  0
LINE
  5
CDC
330
9BA
100
AcDbEntity
  8
0
  6
Continuous
 62
     7
370
    15
100
AcDbLine
 10
1676.92157834475
 20
1392.689280701681
 30
0.0
 11
1676.92157834475
 21
1393.99417192407
 31
0.0
1001
AcDbBlockRepETag
1070
     1
1071
       68
1005
CDC
  0
LINE
  5
CDD
330
9BA
100
AcDbEntity
  8
0
  6
Continuous
 62
     7
370
    15
100
AcDbLine
 10
1676.92157834475
 20
1392.689280701681
 30
0.0
 11
1676.564078998613
 21
1392.331780715259
 31
0.0
1001
AcDbBlockRepETag
1070
     1
1071
       69
1005
CDD
  0
LINE
  5
CDE
330
9BA
100
AcDbEntity
  8
0
  6
Continuous
 62
     7
370
    15
100
AcDbLine
 10
1664.825503469305
 20
1392.331780715259
 30
0.0
 11
1676.564078998613
 21
1392.331780715259
 31
0.0
1001
AcDbBlockRepETag
1070
     1
1071
       70
1005
CDE
  0
LINE
  5
CDF
330
9BA
100
AcDbEntity
  8
0
  6
Continuous
 62
     7
370
    15
100
AcDbLine
 10
1664.825503469305
 20
1392.331780715259
 30
0.0
 11
1664.117577240663
 21
1393.342931342423
 31
0.0
1001
AcDbBlockRepETag
1070
     1
1071
       71
1005
CDF
  0
LINE
  5
CE0
330
9BA
100
AcDbEntity
  8
0
  6
Continuous
 62
     7
370
    15
100
AcDbLine
 10
1661.956539132493
 20
1392.331780715259
 30
0.0
 11
1664.117577240663
 21
1393.342931342423
 31
0.0
1001
AcDbBlockRepETag
1070
     1
1071
       72
1005
CE0
  0
LINE
  5
CE1
330
9BA
100
AcDbEntity
  8
0
  6
Continuous
 62
     7
370
    15
100
AcDbLine
 10
1655.851078440296
 20
1392.331780715259
 30
0.0
 11
1661.956539132493
 21
1392.331780715259
 31
0.0
1001
AcDbBlockRepETag
1070
     1
1071
       73
1005
CE1
  0
LINE
  5
CE5
330
9BA
100
AcDbEntity
  8
0
  6
Continuous
 62
     7
370
    15
100
AcDbLine
 10
1655.851078440296
 20
1416.42006506526
 30
0.0
 11
1655.851078440296
 21
1392.331780715259
 31
0.0
1001
AcDbBlockRepETag
1070
     1
1071
       74
1005
CE5
  0
LINE
  5
CE6
330
9BA
100
AcDbEntity
  8
0
  6
Continuous
 62
     7
370
    15
100
AcDbLine
 10
1656.110127909901
 20
1416.679114302034
 30
0.0
 11
1655.851078440296
 21
1416.42006506526
 31
0.0
1001
AcDbBlockRepETag
1070
     1
1071
       75
1005
CE6
  0
LINE
  5
CE7
330
9BA
100
AcDbEntity
  8
0
  6
Continuous
 62
     7
370
    15
100
AcDbLine
 10
1676.92157834475
 20
1396.995162091563
 30
0.0
 11
1676.565438729572
 21
1396.570731385956
 31
0.0
1001
AcDbBlockRepETag
1070
     1
1071
       76
1005
CE7
  0
LINE
  5
CE8
330
9BA
100
AcDbEntity
  8
0
  6
Continuous
 62
     7
370
    15
100
AcDbLine
 10
1676.92157834475
 20
1396.995162091563
 30
0.0
 11
1676.92157834475
 21
1399.032439769591
 31
0.0
1001
AcDbBlockRepETag
1070
     1
1071
       77
1005
CE8
  0
LINE
  5
CE9
330
9BA
100
AcDbEntity
  8
0
  6
Continuous
 62
     7
370
    15
100
AcDbLine
 10
1675.351077911305
 20
1418.829113443727
 30
0.0
 11
1659.061078435602
 21
1418.829113443727
 31
0.0
1001
AcDbBlockRepETag
1070
     1
1071
       78
1005
CE9
  0
LINE
  5
CEA
330
9BA
100
AcDbEntity
  8
0
  6
Continuous
 62
     7
370
    15
100
AcDbLine
 10
1675.351077911305
 20
1416.829114978547
 30
0.0
 11
1675.351077911305
 21
1418.829113443727
 31
0.0
1001
AcDbBlockRepETag
1070
     1
1071
       79
1005
CEA
  0
LINE
  5
CEB
330
9BA
100
AcDbEntity
  8
0
  6
Continuous
 62
     7
370
    15
100
AcDbLine
 10
1678.309027326154
 20
1416.829114978547
 30
0.0
 11
1675.351077911305
 21
1416.829114978547
 31
0.0
1001
AcDbBlockRepETag
1070
     1
1071
       80
1005
CEB
  0
LINE
  5
CEC
330
9BA
100
AcDbEntity
  8
0
  6
Continuous
 62
     7
370
    15
100
AcDbLine
 10
1659.061078435602
 20
1416.829114978547
 30
0.0
 11
1656.260127887922
 21
1416.829114978547
 31
0.0
1001
AcDbBlockRepETag
1070
     1
1071
       81
1005
CEC
  0
LINE
  5
CED
330
9BA
100
AcDbEntity
  8
0
  6
Continuous
 62
     7
370
    15
100
AcDbLine
 10
1659.061078435602
 20
1418.829113443727
 30
0.0
 11
1659.061078435602
 21
1416.829114978547
 31
0.0
1001
AcDbBlockRepETag
1070
     1
1071
       82
1005
CED
  0
LWPOLYLINE
  5
CEE
330
9BA
100
AcDbEntity
  8
0
  6
Continuous
 62
     7
370
    15
100
AcDbPolyline
 90
        4
 70
   128
 43
0.0
 10
1678.414058160829
 20
1416.679114302034
 10
1678.379023668217
 20
1416.729150538678
 10
1678.344005939411
 20
1416.779158835644
 10
1678.309027326154
 20
1416.829114978547
1001
AcDbBlockRepETag
1070
     1
1071
       83
1005
CEE
  0
LWPOLYLINE
  5
CEF
330
9BA
100
AcDbEntity
  8
0
  6
Continuous
 62
     7
370
    15
100
AcDbPolyline
 90
        4
 70
   128
 43
0.0
 10
1656.260127887922
 20
1416.829114978547
 10
1656.210172909173
 20
1416.779158835644
 10
1656.160163913714
 20
1416.729150538678
 10
1656.110127909901
 20
1416.679114302034
1001
AcDbBlockRepETag
1070
     1
1071
       84
1005
CEF
  0
LINE
  5
CF0
330
9BA
100
AcDbEntity
  8
0
  6
Continuous
 62
     7
370
    15
100
AcDbLine
 10
1664.105677732127
 20
1392.771882902245
 30
0.0
 11
1664.105677732127
 21
1393.09660056687
 31
0.0
1001
AcDbBlockRepETag
1070
     1
1071
       85
1005
CF0
  0
LINE
  5
CF1
330
9BA
100
AcDbEntity
  8
0
  6
Continuous
 62
     7
370
    15
100
AcDbLine
 10
1664.105677732127
 20
1393.09660056687
 30
0.0
 11
1662.062746926071
 21
1392.250390922064
 31
0.0
1001
AcDbBlockRepETag
1070
     1
1071
       86
1005
CF1
  0
LINE
  5
CF2
330
9BA
100
AcDbEntity
  8
0
  6
Continuous
 62
     7
370
    15
100
AcDbLine
 10
1662.177551758336
 20
1391.973226995552
 30
0.0
 11
1664.105677732127
 21
1392.771882902245
 31
0.0
1001
AcDbBlockRepETag
1070
     1
1071
       87
1005
CF2
  0
LINE
  5
CF3
330
9BA
100
AcDbEntity
  8
0
  6
Continuous
 62
     7
370
    15
100
AcDbLine
 10
1662.062746926071
 20
1392.250390922064
 30
0.0
 11
1662.177551758336
 21
1391.973226995552
 31
0.0
1001
AcDbBlockRepETag
1070
     1
1071
       88
1005
CF3
  0
LINE
  5
CF4
330
9BA
100
AcDbEntity
  8
0
  6
Continuous
 62
     7
370
    15
100
AcDbLine
 10
1675.491579097556
 20
1394.476780691995
 30
0.0
 11
1675.791578587937
 21
1394.476780691995
 31
0.0
1001
AcDbBlockRepETag
1070
     1
1071
       89
1005
CF4
  0
LINE
  5
CF5
330
9BA
100
AcDbEntity
  8
0
  6
Continuous
 62
     7
370
    15
100
AcDbLine
 10
1675.791578587937
 20
1396.473227034668
 30
0.0
 11
1675.491579097556
 21
1396.473227034668
 31
0.0
1001
AcDbBlockRepETag
1070
     1
1071
       90
1005
CF5
  0
LINE
  5
CF6
330
9BA
100
AcDbEntity
  8
0
  6
Continuous
 62
     7
370
    15
100
AcDbLine
 10
1675.791578587937
 20
1394.476780691995
 30
0.0
 11
1675.791578587937
 21
1396.473227034668
 31
0.0
1001
AcDbBlockRepETag
1070
     1
1071
       91
1005
CF6
  0
LINE
  5
CF7
330
9BA
100
AcDbEntity
  8
0
  6
Continuous
 62
     7
370
    15
100
AcDbLine
 10
1676.456747797178
 20
1418.980412383909
 30
0.0
 11
1676.255142536806
 21
1416.990598862405
 31
0.0
1001
AcDbBlockRepETag
1070
     1
1071
       92
1005
CF7
  0
LINE
  5
CF8
330
9BA
100
AcDbEntity
  8
0
  6
Continuous
 62
     7
370
    15
100
AcDbLine
 10
1677.248874899792
 20
1416.889917304153
 30
0.0
 11
1676.255142536806
 21
1416.990598862405
 31
0.0
1001
AcDbBlockRepETag
1070
     1
1071
       93
1005
CF8
  0
LINE
  5
CF9
330
9BA
100
AcDbEntity
  8
0
  6
Continuous
 62
     7
370
    15
100
AcDbLine
 10
1677.248874899792
 20
1416.889917304153
 30
0.0
 11
1677.450478297519
 21
1418.879730825658
 31
0.0
1001
AcDbBlockRepETag
1070
     1
1071
       94
1005
CF9
  0
LINE
  5
CFA
330
9BA
100
AcDbEntity
  8
0
  6
Continuous
 62
     7
370
    15
100
AcDbLine
 10
1677.450478297519
 20
1418.879730825658
 30
0.0
 11
1676.456747797178
 21
1418.980412383909
 31
0.0
1001
AcDbBlockRepETag
1070
     1
1071
       95
1005
CFA
  0
LINE
  5
CFB
330
9BA
100
AcDbEntity
  8
0
  6
Continuous
 62
     7
370
    15
100
AcDbLine
 10
1656.962144409167
 20
1418.879730825658
 30
0.0
 11
1657.955875549792
 21
1418.980412383909
 31
0.0
1001
AcDbBlockRepETag
1070
     1
1071
       96
1005
CFB
  0
LINE
  5
CFC
330
9BA
100
AcDbEntity
  8
0
  6
Continuous
 62
     7
370
    15
100
AcDbLine
 10
1658.157479238557
 20
1416.990598862405
 30
0.0
 11
1657.16374815614
 21
1416.889917304153
 31
0.0
1001
AcDbBlockRepETag
1070
     1
1071
       97
1005
CFC
  0
LINE
  5
CFD
330
9BA
100
AcDbEntity
  8
0
  6
Continuous
 62
     7
370
    15
100
AcDbLine
 10
1656.962144409167
 20
1418.879730825658
 30
0.0
 11
1657.16374815614
 21
1416.889917304153
 31
0.0
1001
AcDbBlockRepETag
1070
     1
1071
       98
1005
CFD
  0
LINE
  5
CFE
330
9BA
100
AcDbEntity
  8
0
  6
Continuous
 62
     7
370
    15
100
AcDbLine
 10
1658.157479238557
 20
1416.990598862405
 30
0.0
 11
1657.955875549792
 21
1418.980412383909
 31
0.0
1001
AcDbBlockRepETag
1070
     1
1071
       99
1005
CFE
  0
LINE
  5
CFF
330
9BA
100
AcDbEntity
  8
0
  6
Continuous
 62
     7
370
    15
100
AcDbLine
 10
1665.144525688934
 20
1420.829113771553
 30
0.0
 11
1669.267631356465
 21
1420.829113771553
 31
0.0
1001
AcDbBlockRepETag
1070
     1
1071
      100
1005
CFF
  0
LINE
  5
D00
330
9BA
100
AcDbEntity
  8
0
  6
Continuous
 62
     7
370
    15
100
AcDbLine
 10
1665.144525688934
 20
1423.482703243727
 30
0.0
 11
1665.144525688934
 21
1420.829113771553
 31
0.0
1001
AcDbBlockRepETag
1070
     1
1071
      101
1005
D00
  0
SPLINE
  5
D01
330
9BA
100
AcDbEntity
  8
0
  6
Continuous
 62
     7
370
    15
100
AcDbSpline
210
0.0
220
0.0
230
1.0
 70
     8
 71
     3
 72
     8
 73
     4
 74
     0
 42
0.0000000001
 43
0.0000000001
 40
0.0
 40
0.0
 40
0.0
 40
0.0
 40
1.0
 40
1.0
 40
1.0
 40
1.0
 10
1666.556078407996
 20
1423.741086464138
 30
0.0
 10
1666.077900957434
 20
1423.696804978167
 30
0.0
 10
1665.608352158269
 20
1423.605384861347
 30
0.0
 10
1665.144525595202
 20
1423.482703964919
 30
0.0
1001
AcDbBlockRepETag
1070
     1
1071
      102
1005
D01
  0
LINE
  5
D02
330
9BA
100
AcDbEntity
  8
0
  6
Continuous
 62
     7
370
    15
100
AcDbLine
 10
1666.556078229892
 20
1422.829114099378
 30
0.0
 11
1666.556078229892
 21
1423.741085653538
 31
0.0
1001
AcDbBlockRepETag
1070
     1
1071
      103
1005
D02
  0
SPLINE
  5
D03
330
9BA
100
AcDbEntity
  8
0
  6
Continuous
 62
     7
370
    15
100
AcDbSpline
210
0.0
220
0.0
230
1.0
 70
     8
 71
     3
 72
     8
 73
     4
 74
     0
 42
0.0000000001
 43
0.0000000001
 40
0.0
 40
0.0
 40
0.0
 40
0.0
 40
1.0
 40
1.0
 40
1.0
 40
1.0
 10
1669.267631220782
 20
1423.482703964918
 30
0.0
 10
1668.803804657717
 20
1423.605384861346
 30
0.0
 10
1668.334255858548
 20
1423.69680497816
 30
0.0
 10
1667.856078407987
 20
1423.741086464133
 30
0.0
1001
AcDbBlockRepETag
1070
     1
1071
      104
1005
D03
  0
LINE
  5
D04
330
9BA
100
AcDbEntity
  8
0
  6
Continuous
 62
     7
370
    15
100
AcDbLine
 10
1669.267631356465
 20
1420.829113771553
 30
0.0
 11
1669.267631356465
 21
1423.482703243727
 31
0.0
1001
AcDbBlockRepETag
1070
     1
1071
      105
1005
D04
  0
LINE
  5
D05
330
9BA
100
AcDbEntity
  8
0
  6
Continuous
 62
     7
370
    15
100
AcDbLine
 10
1666.556078229892
 20
1422.829114099378
 30
0.0
 11
1667.856078815507
 21
1422.829114099378
 31
0.0
1001
AcDbBlockRepETag
1070
     1
1071
      106
1005
D05
  0
LINE
  5
D06
330
9BA
100
AcDbEntity
  8
0
  6
Continuous
 62
     7
370
    15
100
AcDbLine
 10
1667.856078815507
 20
1423.741085653538
 30
0.0
 11
1667.856078815507
 21
1422.829114099378
 31
0.0
1001
AcDbBlockRepETag
1070
     1
1071
      107
1005
D06
  0
LINE
  5
D07
330
9BA
100
AcDbEntity
  8
0
  6
Continuous
 62
     7
370
    15
100
AcDbLine
 10
1669.267631356465
 20
1423.482703243727
 30
0.0
 11
1669.639403221058
 21
1423.482703243727
 31
0.0
1001
AcDbBlockRepETag
1070
     1
1071
      108
1005
D07
  0
LINE
  5
D08
330
9BA
100
AcDbEntity
  8
0
  6
Continuous
 62
     7
370
    15
100
AcDbLine
 10
1669.639403221058
 20
1423.482703243727
 30
0.0
 11
1669.639403221058
 21
1420.829113771553
 31
0.0
1001
AcDbBlockRepETag
1070
     1
1071
      109
1005
D08
  0
LINE
  5
D09
330
9BA
100
AcDbEntity
  8
0
  6
Continuous
 62
     7
370
    15
100
AcDbLine
 10
1669.267631356465
 20
1420.829113771553
 30
0.0
 11
1669.639403221058
 21
1420.829113771553
 31
0.0
1001
AcDbBlockRepETag
1070
     1
1071
      110
1005
D09
  0
LINE
  5
D0A
330
9BA
100
AcDbEntity
  8
0
  6
Continuous
 62
     7
370
    15
100
AcDbLine
 10
1671.706078794646
 20
1423.482703243727
 30
0.0
 11
1671.700956520485
 21
1423.482703243727
 31
0.0
1001
AcDbBlockRepETag
1070
     1
1071
      111
1005
D0A
  0
SPLINE
  5
D0B
330
9BA
100
AcDbEntity
  8
0
  6
Continuous
 62
     7
370
    15
100
AcDbSpline
210
0.0
220
0.0
230
1.0
 70
     8
 71
     3
 72
    12
 73
     8
 74
     0
 42
0.0000000001
 43
0.0000000001
 40
0.0
 40
0.0
 40
0.0
 40
0.0
 40
0.499999999999999
 40
0.499999999999999
 40
0.7499999999999995
 40
0.7499999999999995
 40
1.0
 40
1.0
 40
1.0
 40
1.0
 10
1671.700956429541
 20
1423.482703964925
 30
0.0
 10
1671.363250439784
 20
1423.661348643138
 30
0.0
 10
1671.021545115972
 20
1423.770695026932
 30
0.0
 10
1670.499580185884
 20
1423.771716164081
 30
0.0
 10
1670.324017077462
 20
1423.744980849646
 30
0.0
 10
1669.979151383784
 20
1423.645029596223
 30
0.0
 10
1669.808593379691
 20
1423.572204452554
 30
0.0
 10
1669.639403616733
 20
1423.482703964919
 30
0.0
1001
AcDbBlockRepETag
1070
     1
1071
      112
1005
D0B
  0
LINE
  5
D0C
330
9BA
100
AcDbEntity
  8
0
  6
Continuous
 62
     7
370
    15
100
AcDbLine
 10
1671.10607795124
 20
1423.829114263291
 30
0.0
 11
1667.856078815507
 21
1423.829114263291
 31
0.0
1001
AcDbBlockRepETag
1070
     1
1071
      113
1005
D0C
  0
SPLINE
  5
D0D
330
9BA
100
AcDbEntity
  8
0
  6
Continuous
 62
     7
370
    15
100
AcDbSpline
210
0.0
220
0.0
230
1.0
 70
    24
 71
     3
 72
     8
 73
     4
 74
     0
 42
0.0000000001
 43
0.0000000001
 40
0.0000000000000103
 40
0.0000000000000103
 40
0.0000000000000103
 40
0.0000000000000103
 40
0.0001778594872795
 40
0.0001778594872795
 40
0.0001778594872795
 40
0.0001778594872795
 10
1667.856078407992
 20
1423.829114126459
 30
0.0
 10
1667.856078407992
 20
1423.799783469892
 30
0.0
 10
1667.856078407992
 20
1423.770440463727
 30
0.0
 10
1667.856078407992
 20
1423.741086464144
 30
0.0
1001
AcDbBlockRepETag
1070
     1
1071
      114
1005
D0D
  0
LINE
  5
D0E
330
9BA
100
AcDbEntity
  8
0
  6
Continuous
 62
     7
370
    15
100
AcDbLine
 10
1662.711200524914
 20
1423.482703243727
 30
0.0
 11
1662.706078250753
 21
1423.482703243727
 31
0.0
1001
AcDbBlockRepETag
1070
     1
1071
      115
1005
D0E
  0
LINE
  5
D0F
330
9BA
100
AcDbEntity
  8
0
  6
Continuous
 62
     7
370
    15
100
AcDbLine
 10
1666.556078229892
 20
1423.829114263291
 30
0.0
 11
1663.306078628498
 21
1423.829114263291
 31
0.0
1001
AcDbBlockRepETag
1070
     1
1071
      116
1005
D0F
  0
LINE
  5
D10
330
9BA
100
AcDbEntity
  8
0
  6
Continuous
 62
     7
370
    15
100
AcDbLine
 10
1664.772753358679
 20
1423.482703243727
 30
0.0
 11
1665.144525688934
 21
1423.482703243727
 31
0.0
1001
AcDbBlockRepETag
1070
     1
1071
      117
1005
D10
  0
SPLINE
  5
D11
330
9BA
100
AcDbEntity
  8
0
  6
Continuous
 62
     7
370
    15
100
AcDbSpline
210
0.0
220
0.0
230
1.0
 70
     8
 71
     3
 72
    12
 73
     8
 74
     0
 42
0.0000000001
 43
0.0000000001
 40
0.0
 40
0.0
 40
0.0
 40
0.0
 40
0.5000000000000002
 40
0.5000000000000002
 40
0.7500000000000001
 40
0.7500000000000001
 40
1.0
 40
1.0
 40
1.0
 40
1.0
 10
1664.772753199244
 20
1423.482703964918
 30
0.0
 10
1664.435047209486
 20
1423.66134864313
 30
0.0
 10
1664.093341885662
 20
1423.770695026938
 30
0.0
 10
1663.571376955572
 20
1423.771716164076
 30
0.0
 10
1663.39581384715
 20
1423.744980849638
 30
0.0
 10
1663.050948153473
 20
1423.645029596207
 30
0.0
 10
1662.880390149412
 20
1423.57220445255
 30
0.0
 10
1662.711200386453
 20
1423.482703964915
 30
0.0
1001
AcDbBlockRepETag
1070
     1
1071
      118
1005
D11
  0
SPLINE
  5
D12
330
9BA
100
AcDbEntity
  8
0
  6
Continuous
 62
     7
370
    15
100
AcDbSpline
210
0.0
220
0.0
230
1.0
 70
    24
 71
     3
 72
     8
 73
     4
 74
     0
 42
0.0000000001
 43
0.0000000001
 40
0.0000000000000113
 40
0.0000000000000113
 40
0.0000000000000113
 40
0.0000000000000113
 40
0.0001778594872781
 40
0.0001778594872781
 40
0.0001778594872781
 40
0.0001778594872781
 10
1666.556078407992
 20
1423.741086464144
 30
0.0
 10
1666.556078407992
 20
1423.770440463728
 30
0.0
 10
1666.556078407992
 20
1423.799783469892
 30
0.0
 10
1666.556078407992
 20
1423.829114126459
 30
0.0
1001
AcDbBlockRepETag
1070
     1
1071
      119
1005
D12
  0
LINE
  5
D13
330
9BA
100
AcDbEntity
  8
0
  6
Continuous
 62
     7
370
    15
100
AcDbLine
 10
1664.772753358679
 20
1420.829113771553
 30
0.0
 11
1664.772753358679
 21
1423.482703243727
 31
0.0
1001
AcDbBlockRepETag
1070
     1
1071
      120
1005
D13
  0
LINE
  5
D14
330
9BA
100
AcDbEntity
  8
0
  6
Continuous
 62
     7
370
    15
100
AcDbLine
 10
1664.772753358679
 20
1420.829113771553
 30
0.0
 11
1665.144525688934
 21
1420.829113771553
 31
0.0
1001
AcDbBlockRepETag
1070
     1
1071
      121
1005
D14
  0
LINE
  5
D15
330
9BA
100
AcDbEntity
  8
0
  6
Continuous
 62
     7
370
    15
100
AcDbLine
 10
1671.700956520485
 20
1420.829113771553
 30
0.0
 11
1671.700956520485
 21
1423.482703243727
 31
0.0
1001
AcDbBlockRepETag
1070
     1
1071
      122
1005
D15
  0
LINE
  5
D16
330
9BA
100
AcDbEntity
  8
0
  6
Continuous
 62
     7
370
    15
100
AcDbLine
 10
1669.639403221058
 20
1420.829113771553
 30
0.0
 11
1671.700956520485
 21
1420.829113771553
 31
0.0
1001
AcDbBlockRepETag
1070
     1
1071
      123
1005
D16
  0
LINE
  5
D17
330
9BA
100
AcDbEntity
  8
0
  6
Continuous
 62
     7
370
    15
100
AcDbLine
 10
1662.711200524914
 20
1423.482703243727
 30
0.0
 11
1662.711200524914
 21
1420.829113771553
 31
0.0
1001
AcDbBlockRepETag
1070
     1
1071
      124
1005
D17
  0
LINE
  5
D18
330
9BA
100
AcDbEntity
  8
0
  6
Continuous
 62
     7
370
    15
100
AcDbLine
 10
1662.711200524914
 20
1420.829113771553
 30
0.0
 11
1664.772753358679
 21
1420.829113771553
 31
0.0
1001
AcDbBlockRepETag
1070
     1
1071
      125
1005
D18
  0
LINE
  5
D19
330
9BA
100
AcDbEntity
  8
0
  6
Continuous
 62
     7
370
    15
100
AcDbLine
 10
1675.791578587937
 20
1394.450534100989
 30
0.0
 11
1675.791578587937
 21
1394.476780691995
 31
0.0
1001
AcDbBlockRepETag
1070
     1
1071
      126
1005
D19
  0
LINE
  5
D1A
330
9BA
100
AcDbEntity
  8
0
  6
Continuous
 62
     7
370
    15
100
AcDbLine
 10
1664.248592906492
 20
1393.155797932642
 30
0.0
 11
1664.105677732127
 21
1393.09660056687
 31
0.0
1001
AcDbBlockRepETag
1070
     1
1071
      127
1005
D1A
  0
LINE
  5
D1B
330
9BA
100
AcDbEntity
  8
0
  6
Continuous
 62
     7
370
    15
100
AcDbLine
 10
1664.105677732127
 20
1392.771882902245
 30
0.0
 11
1664.424826611625
 21
1392.904078670191
 31
0.0
1001
AcDbBlockRepETag
1070
     1
1071
      128
1005
D1B
  0
SPLINE
  5
D1C
330
9BA
100
AcDbEntity
  8
0
  6
Continuous
 62
     7
370
    15
100
AcDbSpline
210
0.0
220
0.0
230
1.0
 70
     8
 71
     3
 72
     8
 73
     4
 74
     0
 42
0.0000000001
 43
0.0000000001
 40
0.0
 40
0.0
 40
0.0
 40
0.0
 40
1.0
 40
1.0
 40
1.0
 40
1.0
 10
1675.491578407983
 20
1399.442285589217
 30
0.0
 10
1675.491578407983
 20
1399.514096304345
 30
0.0
 10
1675.450814156688
 20
1399.581290894514
 30
0.0
 10
1675.391578407983
 20
1399.615490669974
 30
0.0
1001
AcDbBlockRepETag
1070
     1
1071
      129
1005
D1C
  0
LWPOLYLINE
  5
D1D
330
9BA
100
AcDbEntity
  8
0
  6
Continuous
 62
     7
370
    15
100
AcDbPolyline
 90
        9
 70
   128
 43
0.0
 10
1675.39157926743
 20
1399.615490542138
 10
1674.799878370809
 20
1399.88262691849
 10
1674.200410243916
 20
1400.153270189995
 10
1673.594176989841
 20
1400.426968199546
 10
1672.98219375019
 20
1400.703261805112
 10
1672.365484979796
 20
1400.981688605035
 10
1671.745084446716
 20
1401.261782472367
 10
1671.12203057562
 20
1401.543073554868
 10
1670.497367379116
 20
1401.825092000301
1001
AcDbBlockRepETag
1070
     1
1071
      130
1005
D1D
  0
LINE
  5
D1E
330
9BA
100
AcDbEntity
  8
0
  6
Continuous
 62
     7
370
    15
100
AcDbLine
 10
1670.497367379116
 20
1401.825092000301
 30
0.0
 11
1670.497367379116
 21
1402.152620454664
 31
0.0
1001
AcDbBlockRepETag
1070
     1
1071
      131
1005
D1E
  0
LWPOLYLINE
  5
D1F
330
9BA
100
AcDbEntity
  8
0
  6
Continuous
 62
     7
370
    15
100
AcDbPolyline
 90
        9
 70
   128
 43
0.0
 10
1670.497367379116
 20
1402.152620454664
 10
1671.141985093104
 20
1401.861593325967
 10
1671.784852851974
 20
1401.571356890137
 10
1672.424824197637
 20
1401.282427099878
 10
1673.060757328617
 20
1400.995320839221
 10
1673.691517894017
 20
1400.710549404258
 10
1674.31598178749
 20
1400.428621297116
 10
1674.933035147237
 20
1400.150038500662
 10
1675.541578081297
 20
1399.87529834115
1001
AcDbBlockRepETag
1070
     1
1071
      132
1005
D1F
  0
SPLINE
  5
D20
330
9BA
100
AcDbEntity
  8
0
  6
Continuous
 62
     7
370
    15
100
AcDbSpline
210
0.0
220
0.0
230
1.0
 70
     8
 71
     3
 72
    10
 73
     6
 74
     0
 42
0.0000000001
 43
0.0000000001
 40
0.0
 40
0.0
 40
0.0
 40
0.0
 40
0.5
 40
0.5
 40
1.0
 40
1.0
 40
1.0
 40
1.0
 10
1675.541578407983
 20
1399.87529829111
 30
0.0
 10
1675.615697356669
 20
1399.832505696134
 30
0.0
 10
1675.678743206572
 20
1399.770417231851
 30
0.0
 10
1675.766814598079
 20
1399.620379721033
 30
0.0
 10
1675.791578407984
 20
1399.532456884541
 30
0.0
 10
1675.791578407984
 20
1399.442285589217
 30
0.0
1001
AcDbBlockRepETag
1070
     1
1071
      133
1005
D20
  0
LINE
  5
D21
330
9BA
100
AcDbEntity
  8
0
  6
Continuous
 62
     7
370
    15
100
AcDbLine
 10
1675.491579097556
 20
1399.442285498018
 30
0.0
 11
1675.491579097556
 21
1399.415607297207
 31
0.0
1001
AcDbBlockRepETag
1070
     1
1071
      134
1005
D21
  0
LINE
  5
D22
330
9BA
100
AcDbEntity
  8
0
  6
Continuous
 62
     7
370
    15
100
AcDbLine
 10
1675.791578587937
 20
1399.442285498018
 30
0.0
 11
1675.791578587937
 21
1399.335222517485
 31
0.0
1001
AcDbBlockRepETag
1070
     1
1071
      135
1005
D22
  0
LINE
  5
D23
330
9BA
100
AcDbEntity
  8
0
  6
Continuous
 62
     7
370
    15
100
AcDbLine
 10
1675.791578587937
 20
1396.50302726158
 30
0.0
 11
1675.791578587937
 21
1396.473227034668
 31
0.0
1001
AcDbBlockRepETag
1070
     1
1071
      136
1005
D23
  0
ARC
  5
D24
330
9BA
100
AcDbEntity
  8
0
  6
Continuous
 62
     7
370
    15
100
AcDbCircle
 10
1674.046162085514
 20
1407.302389872533
 30
0.0
 40
2.219959128578646
100
AcDbArc
 50
287.3862200328296
 51
327.0400710528952
1001
AcDbBlockRepETag
1070
     1
1071
      137
1005
D24
  0
LINE
  5
D25
330
9BA
100
AcDbEntity
  8
0
  6
Continuous
 62
     7
370
    15
100
AcDbLine
 10
1662.919578363048
 20
1405.185426784093
 30
0.0
 11
1674.709510278749
 21
1405.18385564291
 31
0.0
1001
AcDbBlockRepETag
1070
     1
1071
      138
1005
D25
  0
LINE
  5
D26
330
9BA
100
AcDbEntity
  8
0
  6
Continuous
 62
     7
370
    15
100
AcDbLine
 10
1657.16374815614
 20
1416.889917304153
 30
0.0
 11
1657.169908505725
 21
1416.829114978547
 31
0.0
1001
AcDbBlockRepETag
1070
     1
1071
      139
1005
D26
  0
LINE
  5
D27
330
9BA
100
AcDbEntity
  8
0
  6
Continuous
 62
     7
370
    15
100
AcDbLine
 10
1658.173840626236
 20
1416.829114978547
 30
0.0
 11
1658.157479238557
 21
1416.990598862405
 31
0.0
1001
AcDbBlockRepETag
1070
     1
1071
      140
1005
D27
  0
LINE
  5
D28
330
9BA
100
AcDbEntity
  8
0
  6
Continuous
 62
     7
370
    15
100
AcDbLine
 10
1676.255142536806
 20
1416.990598862405
 30
0.0
 11
1676.238782924461
 21
1416.829114978547
 31
0.0
1001
AcDbBlockRepETag
1070
     1
1071
      141
1005
D28
  0
LINE
  5
D29
330
9BA
100
AcDbEntity
  8
0
  6
Continuous
 62
     7
370
    15
100
AcDbLine
 10
1677.242713269638
 20
1416.829114978547
 30
0.0
 11
1677.248874899792
 21
1416.889917304153
 31
0.0
1001
AcDbBlockRepETag
1070
     1
1071
      142
1005
D29
  0
LINE
  5
D2A
330
9BA
100
AcDbEntity
  8
0
  6
Continuous
 62
     7
370
    15
100
AcDbLine
 10
1663.353187718289
 20
1403.673227143819
 30
0.0
 11
1663.353187718289
 21
1403.373226722116
 31
0.0
1001
AcDbBlockRepETag
1070
     1
1071
      143
1005
D2A
  0
LINE
  5
D2B
330
9BA
100
AcDbEntity
  8
0
  6
Continuous
 62
     7
370
    15
100
AcDbLine
 10
1664.471186918067
 20
1403.373226722116
 30
0.0
 11
1664.471186918067
 21
1403.673227143819
 31
0.0
1001
AcDbBlockRepETag
1070
     1
1071
      144
1005
D2B
  0
LINE
  5
D2C
330
9BA
100
AcDbEntity
  8
0
  6
Continuous
 62
     7
370
    15
100
AcDbLine
 10
1664.471186918067
 20
1403.673227143819
 30
0.0
 11
1663.353187718289
 21
1403.673227143819
 31
0.0
1001
AcDbBlockRepETag
1070
     1
1071
      145
1005
D2C
  0
LINE
  5
D2D
330
9BA
100
AcDbEntity
  8
0
  6
Continuous
 62
     7
370
    15
100
AcDbLine
 10
1663.353187718289
 20
1403.373226722116
 30
0.0
 11
1664.471186918067
 21
1403.373226722116
 31
0.0
1001
AcDbBlockRepETag
1070
     1
1071
      146
1005
D2D
  0
SPLINE
  5
D2E
330
9BA
100
AcDbEntity
  8
0
  6
Continuous
 62
     7
370
    15
100
AcDbSpline
210
0.0
220
0.0
230
1.0
 70
     8
 71
     3
 72
    10
 73
     6
 74
     0
 42
0.0000000001
 43
0.0000000001
 40
0.0
 40
0.0
 40
0.0
 40
0.0
 40
0.5
 40
0.5
 40
1.0
 40
1.0
 40
1.0
 40
1.0
 10
1666.865038960505
 20
1403.673227005771
 30
0.0
 10
1666.978846091909
 20
1403.673227005771
 30
0.0
 10
1667.090382393266
 20
1403.658533242161
 30
0.0
 10
1667.308961456682
 20
1403.600306710347
 30
0.0
 10
1667.415677605004
 20
1403.556426336036
 30
0.0
 10
1667.515038960506
 20
1403.499060030691
 30
0.0
1001
AcDbBlockRepETag
1070
     1
1071
      147
1005
D2E
  0
LINE
  5
D2F
330
9BA
100
AcDbEntity
  8
0
  6
Continuous
 62
     7
370
    15
100
AcDbLine
 10
1669.640937109338
 20
1402.211747330959
 30
0.0
 11
1669.640937109338
 21
1402.539275785322
 31
0.0
1001
AcDbBlockRepETag
1070
     1
1071
      148
1005
D2F
  0
SPLINE
  5
D30
330
9BA
100
AcDbEntity
  8
0
  6
Continuous
 62
     7
370
    15
100
AcDbSpline
210
0.0
220
0.0
230
1.0
 70
     8
 71
     3
 72
     8
 73
     4
 74
     0
 42
0.0000000001
 43
0.0000000001
 40
0.0
 40
0.0
 40
0.0
 40
0.0
 40
1.0
 40
1.0
 40
1.0
 40
1.0
 10
1667.365038960503
 20
1403.239252409556
 30
0.0
 10
1667.21221025869
 20
1403.327488101687
 30
0.0
 10
1667.040242516655
 20
1403.373227005771
 30
0.0
 10
1666.865038960505
 20
1403.373227005771
 30
0.0
1001
AcDbBlockRepETag
1070
     1
1071
      149
1005
D30
  0
LINE
  5
D31
330
9BA
100
AcDbEntity
  8
0
  6
Continuous
 62
     7
370
    15
100
AcDbLine
 10
1664.471186918067
 20
1403.673227143819
 30
0.0
 11
1666.865038906085
 21
1403.673227143819
 31
0.0
1001
AcDbBlockRepETag
1070
     1
1071
      150
1005
D31
  0
LINE
  5
D32
330
9BA
100
AcDbEntity
  8
0
  6
Continuous
 62
     7
370
    15
100
AcDbLine
 10
1666.865038906085
 20
1403.373226722116
 30
0.0
 11
1664.471186918067
 21
1403.373226722116
 31
0.0
1001
AcDbBlockRepETag
1070
     1
1071
      151
1005
D32
  0
LWPOLYLINE
  5
D33
330
9BA
100
AcDbEntity
  8
0
  6
Continuous
 62
     7
370
    15
100
AcDbPolyline
 90
        4
 70
   128
 43
0.0
 10
1667.365038988041
 20
1403.239252244467
 10
1668.120802600729
 20
1402.898045455451
 10
1668.879854713427
 20
1402.555355069573
 10
1669.640937109338
 20
1402.211747330959
1001
AcDbBlockRepETag
1070
     1
1071
      152
1005
D33
  0
LWPOLYLINE
  5
D34
330
9BA
100
AcDbEntity
  8
0
  6
Continuous
 62
     7
370
    15
100
AcDbPolyline
 90
        4
 70
   128
 43
0.0
 10
1669.640937109338
 20
1402.539275785322
 10
1668.930265341746
 20
1402.860123862858
 10
1668.221291375207
 20
1403.180206393237
 10
1667.515038733231
 20
1403.499059577818
1001
AcDbBlockRepETag
1070
     1
1071
      153
1005
D34
  0
LINE
  5
D35
330
9BA
100
AcDbEntity
  8
0
  6
Continuous
 62
     7
370
    15
100
AcDbLine
 10
1663.353187718289
 20
1403.673227143819
 30
0.0
 11
1662.919578363048
 21
1403.673227143819
 31
0.0
1001
AcDbBlockRepETag
1070
     1
1071
      154
1005
D35
  0
LINE
  5
D36
330
9BA
100
AcDbEntity
  8
0
  6
Continuous
 62
     7
370
    15
100
AcDbLine
 10
1662.919578363048
 20
1403.373226722116
 30
0.0
 11
1663.353187718289
 21
1403.373226722116
 31
0.0
1001
AcDbBlockRepETag
1070
     1
1071
      155
1005
D36
  0
SPLINE
  5
D37
330
9BA
100
AcDbEntity
  8
0
  6
Continuous
 62
     7
370
    15
100
AcDbSpline
210
0.0
220
0.0
230
1.0
 70
    24
 71
     3
 72
    14
 73
    10
 74
     0
 42
0.0000000001
 43
0.0000000001
 40
0.0
 40
0.0
 40
0.0
 40
0.0
 40
0.0003613767246407
 40
0.0003613767246407
 40
0.0003613767246407
 40
0.0006505237187482
 40
0.0006505237187482
 40
0.0006505237187482
 40
0.0009396707129638
 40
0.0009396707129638
 40
0.0009396707129638
 40
0.0009396707129638
 10
1670.497367533742
 20
1401.825092233334
 30
0.0
 10
1670.387579481898
 20
1401.874658518324
 30
0.0
 10
1670.277791379997
 20
1401.924224825913
 30
0.0
 10
1670.168003266389
 20
1401.973791138788
 30
0.0
 10
1670.080158917324
 20
1402.013450445674
 30
0.0
 10
1669.992314559253
 20
1402.053109756626
 30
0.0
 10
1669.904470204633
 20
1402.092769066019
 30
0.0
 10
1669.816625850029
 20
1402.132428375406
 30
0.0
 10
1669.728781498277
 20
1402.172087683505
 30
0.0
 10
1669.640937163851
 20
1402.211746983782
 30
0.0
1001
AcDbBlockRepETag
1070
     1
1071
      156
1005
D37
  0
SPLINE
  5
D38
330
9BA
100
AcDbEntity
  8
0
  6
Continuous
 62
     7
370
    15
100
AcDbSpline
210
0.0
220
0.0
230
1.0
 70
    24
 71
     3
 72
    14
 73
    10
 74
     0
 42
0.0000000001
 43
0.0000000001
 40
0.0
 40
0.0
 40
0.0
 40
0.0
 40
0.0003613767246407
 40
0.0003613767246407
 40
0.0003613767246407
 40
0.0006505237187482
 40
0.0006505237187482
 40
0.0006505237187482
 40
0.0009396707129638
 40
0.0009396707129638
 40
0.0009396707129638
 40
0.0009396707129638
 10
1670.497367533742
 20
1402.152620727767
 30
0.0
 10
1670.387579481898
 20
1402.202187012757
 30
0.0
 10
1670.277791379997
 20
1402.251753320346
 30
0.0
 10
1670.168003266389
 20
1402.30131963322
 30
0.0
 10
1670.080158917324
 20
1402.340978940106
 30
0.0
 10
1669.992314559253
 20
1402.380638251058
 30
0.0
 10
1669.904470204633
 20
1402.420297560452
 30
0.0
 10
1669.816625850029
 20
1402.459956869838
 30
0.0
 10
1669.728781498277
 20
1402.499616177938
 30
0.0
 10
1669.640937163851
 20
1402.539275478215
 30
0.0
1001
AcDbBlockRepETag
1070
     1
1071
      157
1005
D38
  0
LINE
  5
D39
330
9BA
100
AcDbEntity
  8
0
  6
Continuous
 62
     7
370
    15
100
AcDbLine
 10
1663.089504686045
 20
1404.856305768127
 30
0.0
 11
1663.089547526883
 21
1405.176305410797
 31
0.0
1001
AcDbBlockRepETag
1070
     1
1071
      158
1005
D39
  0
LINE
  5
D3A
330
9BA
100
AcDbEntity
  8
0
  6
Continuous
 62
     7
370
    15
100
AcDbLine
 10
1662.919578363048
 20
1404.856328119869
 30
0.0
 11
1663.089504686045
 21
1404.856305768127
 31
0.0
1001
AcDbBlockRepETag
1070
     1
1071
      159
1005
D3A
  0
LINE
  5
D3B
330
9BA
100
AcDbEntity
  8
0
  6
Continuous
 62
     7
370
    15
100
AcDbLine
 10
1663.089547526883
 20
1405.176305410797
 30
0.0
 11
1663.089548458206
 21
1405.185404432351
 31
0.0
1001
AcDbBlockRepETag
1070
     1
1071
      160
1005
D3B
  0
LINE
  5
D3C
330
9BA
100
AcDbEntity
  8
0
  6
Continuous
 62
     7
370
    15
100
AcDbLine
 10
1673.012051951932
 20
1405.184081954295
 30
0.0
 11
1673.012051951932
 21
1405.174983864064
 31
0.0
1001
AcDbBlockRepETag
1070
     1
1071
      161
1005
D3C
  0
LINE
  5
D3D
330
9BA
100
AcDbEntity
  8
0
  6
Continuous
 62
     7
370
    15
100
AcDbLine
 10
1673.01205102061
 20
1405.174983864064
 30
0.0
 11
1673.012008179771
 21
1404.854983290071
 31
0.0
1001
AcDbBlockRepETag
1070
     1
1071
      162
1005
D3D
  0
LINE
  5
D3E
330
9BA
100
AcDbEntity
  8
0
  6
Continuous
 62
     7
370
    15
100
AcDbLine
 10
1673.012008179771
 20
1404.854983290071
 30
0.0
 11
1672.32538129841
 21
1404.855074559683
 31
0.0
1001
AcDbBlockRepETag
1070
     1
1071
      163
1005
D3E
  0
LINE
  5
D3F
330
9BA
100
AcDbEntity
  8
0
  6
Continuous
 62
     7
370
    15
100
AcDbLine
 10
1672.32538129841
 20
1404.855074559683
 30
0.0
 11
1672.325423207926
 21
1405.175075133676
 31
0.0
1001
AcDbBlockRepETag
1070
     1
1071
      164
1005
D3F
  0
LINE
  5
D40
330
9BA
100
AcDbEntity
  8
0
  6
Continuous
 62
     7
370
    15
100
AcDbLine
 10
1672.325423207926
 20
1405.175075133676
 30
0.0
 11
1672.325425070571
 21
1405.184173223908
 31
0.0
1001
AcDbBlockRepETag
1070
     1
1071
      165
1005
D40
  0
LWPOLYLINE
  5
D41
330
9BA
100
AcDbEntity
  8
0
  6
Continuous
 62
     7
370
    15
100
AcDbPolyline
 90
        9
 70
   128
 43
0.0
 10
1673.01205102061
 20
1405.174983864064
 10
1673.147027601349
 20
1405.174965237612
 10
1673.281922225701
 20
1405.174947542483
 10
1673.416733031022
 20
1405.174929847355
 10
1673.551461879956
 20
1405.174911220903
 10
1673.686106909858
 20
1405.174893525774
 10
1673.820669983374
 20
1405.174875830645
 10
1673.955150169181
 20
1405.174858135516
 10
1674.089547467279
 20
1405.174839509065
1001
AcDbBlockRepETag
1070
     1
1071
      166
1005
D41
  0
LINE
  5
D42
330
9BA
100
AcDbEntity
  8
0
  6
Continuous
 62
     7
370
    15
100
AcDbLine
 10
1674.08950462644
 20
1404.854839866395
 30
0.0
 11
1674.089547467279
 21
1405.174839509065
 31
0.0
1001
AcDbBlockRepETag
1070
     1
1071
      167
1005
D42
  0
SPLINE
  5
D43
330
9BA
100
AcDbEntity
  8
0
  6
Continuous
 62
     7
370
    15
100
AcDbSpline
210
0.0
220
0.0
230
1.0
 70
    24
 71
     3
 72
     8
 73
     4
 74
     0
 42
0.0000000001
 43
0.0000000001
 40
0.0
 40
0.0
 40
0.0
 40
0.0
 40
1.0
 40
1.0
 40
1.0
 40
1.0
 10
1673.012008314932
 20
1404.85498341757
 30
0.0
 10
1673.366168404705
 20
1404.854936219166
 30
0.0
 10
1673.727487264459
 20
1404.854888066723
 30
0.0
 10
1674.089504569693
 20
1404.854839821199
 30
0.0
1001
AcDbBlockRepETag
1070
     1
1071
      168
1005
D43
  0
LINE
  5
D44
330
9BA
100
AcDbEntity
  8
0
  6
Continuous
 62
     7
370
    15
100
AcDbLine
 10
1674.089547467279
 20
1405.174839509065
 30
0.0
 11
1674.089549329924
 21
1405.183938530619
 31
0.0
1001
AcDbBlockRepETag
1070
     1
1071
      169
1005
D44
  0
LINE
  5
D45
330
9BA
100
AcDbEntity
  8
0
  6
Continuous
 62
     7
370
    15
100
AcDbLine
 10
1667.512051050412
 20
1405.17571681493
 30
0.0
 11
1667.512008209573
 21
1404.855716240937
 31
0.0
1001
AcDbBlockRepETag
1070
     1
1071
      170
1005
D45
  0
LWPOLYLINE
  5
D46
330
9BA
100
AcDbEntity
  8
0
  6
Continuous
 62
     7
370
    15
100
AcDbPolyline
 90
        9
 70
   128
 43
0.0
 10
1667.512051050412
 20
1405.17571681493
 10
1667.647028562473
 20
1405.175698188479
 10
1667.781922255503
 20
1405.17568049335
 10
1667.916733060824
 20
1405.175662798221
 10
1668.051461909758
 20
1405.175644171769
 10
1668.186107870983
 20
1405.17562647664
 10
1668.320670013177
 20
1405.175608781511
 10
1668.455150198983
 20
1405.175591086383
 10
1668.589547497081
 20
1405.175572459931
1001
AcDbBlockRepETag
1070
     1
1071
      171
1005
D46
  0
LINE
  5
D47
330
9BA
100
AcDbEntity
  8
0
  6
Continuous
 62
     7
370
    15
100
AcDbLine
 10
1668.589504656243
 20
1404.855572817261
 30
0.0
 11
1668.589547497081
 21
1405.175572459931
 31
0.0
1001
AcDbBlockRepETag
1070
     1
1071
      172
1005
D47
  0
SPLINE
  5
D48
330
9BA
100
AcDbEntity
  8
0
  6
Continuous
 62
     7
370
    15
100
AcDbSpline
210
0.0
220
0.0
230
1.0
 70
    24
 71
     3
 72
     8
 73
     4
 74
     0
 42
0.0000000001
 43
0.0000000001
 40
0.0
 40
0.0
 40
0.0
 40
0.0
 40
1.0
 40
1.0
 40
1.0
 40
1.0
 10
1667.512008363762
 20
1404.855716394623
 30
0.0
 10
1667.866167963867
 20
1404.855669196284
 30
0.0
 10
1668.227474169976
 20
1404.855621045527
 30
0.0
 10
1668.589504618523
 20
1404.855572798252
 30
0.0
1001
AcDbBlockRepETag
1070
     1
1071
      173
1005
D48
  0
LINE
  5
D49
330
9BA
100
AcDbEntity
  8
0
  6
Continuous
 62
     7
370
    15
100
AcDbLine
 10
1667.512051981734
 20
1405.184814905162
 30
0.0
 11
1667.512051050412
 21
1405.17571681493
 31
0.0
1001
AcDbBlockRepETag
1070
     1
1071
      174
1005
D49
  0
LINE
  5
D4A
330
9BA
100
AcDbEntity
  8
0
  6
Continuous
 62
     7
370
    15
100
AcDbLine
 10
1667.512008209573
 20
1404.855716240937
 30
0.0
 11
1666.825381328212
 21
1404.85580751055
 31
0.0
1001
AcDbBlockRepETag
1070
     1
1071
      175
1005
D4A
  0
LINE
  5
D4B
330
9BA
100
AcDbEntity
  8
0
  6
Continuous
 62
     7
370
    15
100
AcDbLine
 10
1666.825381328212
 20
1404.85580751055
 30
0.0
 11
1666.825423237728
 21
1405.175808084542
 31
0.0
1001
AcDbBlockRepETag
1070
     1
1071
      176
1005
D4B
  0
LINE
  5
D4C
330
9BA
100
AcDbEntity
  8
0
  6
Continuous
 62
     7
370
    15
100
AcDbLine
 10
1666.825423237728
 20
1405.175808084542
 30
0.0
 11
1666.825425100373
 21
1405.184906174774
 31
0.0
1001
AcDbBlockRepETag
1070
     1
1071
      177
1005
D4C
  0
LINE
  5
D4D
330
9BA
100
AcDbEntity
  8
0
  6
Continuous
 62
     7
370
    15
100
AcDbLine
 10
1668.589547497081
 20
1405.175572459931
 30
0.0
 11
1668.589548428404
 21
1405.184671481485
 31
0.0
1001
AcDbBlockRepETag
1070
     1
1071
      178
1005
D4D
  0
LWPOLYLINE
  5
D4E
330
9BA
100
AcDbEntity
  8
0
  6
Continuous
 62
     7
370
    15
100
AcDbPolyline
 90
        9
 70
   128
 43
0.0
 10
1665.747927256721
 20
1405.175951508219
 10
1665.882324554818
 20
1405.17593381309
 10
1666.016804740625
 20
1405.175916117961
 10
1666.151367348479
 20
1405.17589749151
 10
1666.286013309705
 20
1405.175879796381
 10
1666.420741227316
 20
1405.175862101252
 10
1666.555552963959
 20
1405.1758434748
 10
1666.690446656989
 20
1405.175825779671
 10
1666.825423237728
 20
1405.175808084542
1001
AcDbBlockRepETag
1070
     1
1071
      179
1005
D4E
  0
LINE
  5
D4F
330
9BA
100
AcDbEntity
  8
0
  6
Continuous
 62
     7
370
    15
100
AcDbLine
 10
1665.747928653704
 20
1405.18504959845
 30
0.0
 11
1665.747927256721
 21
1405.175951508219
 31
0.0
1001
AcDbBlockRepETag
1070
     1
1071
      180
1005
D4F
  0
LINE
  5
D50
330
9BA
100
AcDbEntity
  8
0
  6
Continuous
 62
     7
370
    15
100
AcDbLine
 10
1665.747927256721
 20
1405.175951508219
 30
0.0
 11
1665.747884881543
 21
1404.855951865549
 31
0.0
1001
AcDbBlockRepETag
1070
     1
1071
      181
1005
D50
  0
SPLINE
  5
D51
330
9BA
100
AcDbEntity
  8
0
  6
Continuous
 62
     7
370
    15
100
AcDbSpline
210
0.0
220
0.0
230
1.0
 70
    24
 71
     3
 72
     8
 73
     4
 74
     0
 42
0.0000000001
 43
0.0000000001
 40
0.0
 40
0.0
 40
0.0
 40
0.0
 40
1.0
 40
1.0
 40
1.0
 40
1.0
 10
1665.747884795057
 20
1404.855951496824
 30
0.0
 10
1666.109902100313
 20
1404.8559032513
 30
0.0
 10
1666.471220960065
 20
1404.855855098857
 30
0.0
 10
1666.825381049838
 20
1404.855807900453
 30
0.0
1001
AcDbBlockRepETag
1070
     1
1071
      182
1005
D51
  0
LWPOLYLINE
  5
D52
330
9BA
100
AcDbEntity
  8
0
  6
Continuous
 62
     7
370
    15
100
AcDbPolyline
 90
        9
 70
   128
 43
0.0
 10
1671.247927692579
 20
1405.175218557353
 10
1671.382324990677
 20
1405.175200862224
 10
1671.516804245161
 20
1405.175182235772
 10
1671.651367318677
 20
1405.175164540643
 10
1671.786013279902
 20
1405.175146845514
 10
1671.920741197514
 20
1405.175129150386
 10
1672.055552934157
 20
1405.175110523934
 10
1672.190446627187
 20
1405.175092828805
 10
1672.325423207926
 20
1405.175075133676
1001
AcDbBlockRepETag
1070
     1
1071
      183
1005
D52
  0
LINE
  5
D53
330
9BA
100
AcDbEntity
  8
0
  6
Continuous
 62
     7
370
    15
100
AcDbLine
 10
1671.247928623902
 20
1405.184316647584
 30
0.0
 11
1671.247927692579
 21
1405.175218557353
 31
0.0
1001
AcDbBlockRepETag
1070
     1
1071
      184
1005
D53
  0
LINE
  5
D54
330
9BA
100
AcDbEntity
  8
0
  6
Continuous
 62
     7
370
    15
100
AcDbLine
 10
1671.247927692579
 20
1405.175218557353
 30
0.0
 11
1671.247884851741
 21
1404.855218914683
 31
0.0
1001
AcDbBlockRepETag
1070
     1
1071
      185
1005
D54
  0
SPLINE
  5
D55
330
9BA
100
AcDbEntity
  8
0
  6
Continuous
 62
     7
370
    15
100
AcDbSpline
210
0.0
220
0.0
230
1.0
 70
    24
 71
     3
 72
     8
 73
     4
 74
     0
 42
0.0000000001
 43
0.0000000001
 40
0.0
 40
0.0
 40
0.0
 40
0.0
 40
1.0
 40
1.0
 40
1.0
 40
1.0
 10
1671.247884746215
 20
1404.855218519771
 30
0.0
 10
1671.609915194772
 20
1404.855170272495
 30
0.0
 10
1671.971221400874
 20
1404.855122121739
 30
0.0
 10
1672.325381000997
 20
1404.8550749234
 30
0.0
1001
AcDbBlockRepETag
1070
     1
1071
      186
1005
D55
  0
LINE
  5
D56
330
9BA
100
AcDbEntity
  8
0
  6
Continuous
 62
     7
370
    15
100
AcDbLine
 10
1662.706078250753
 20
1420.829113771553
 30
0.0
 11
1662.711200524914
 21
1420.829113771553
 31
0.0
1001
AcDbBlockRepETag
1070
     1
1071
      187
1005
D56
  0
LINE
  5
D57
330
9BA
100
AcDbEntity
  8
0
  6
Continuous
 62
     7
370
    15
100
AcDbLine
 10
1671.700956520485
 20
1420.829113771553
 30
0.0
 11
1671.706078794646
 21
1420.829113771553
 31
0.0
1001
AcDbBlockRepETag
1070
     1
1071
      188
1005
D57
  0
LWPOLYLINE
  5
D58
330
9BA
100
AcDbEntity
  8
0
  6
Continuous
 62
     8
370
    15
100
AcDbPolyline
 90
        3
 70
   128
 43
0.0
 10
1662.919578363048
 20
1405.176328693862
 10
1662.955150228786
 20
1405.176324037249
 10
1663.089547526883
 20
1405.176305410797
1001
AcDbBlockRepETag
1070
     1
1071
      189
1005
D58
  0
ENDBLK
  5
9BC
330
9BA
100
AcDbEntity
  8
0
100
AcDbBlockEnd
  0
BLOCK
  5
A80
330
A7F
100
AcDbEntity
  8
0
100
AcDbBlockBegin
  2
3
 70
     0
 10
0.0
 20
0.0
 30
0.0
  3
3
  1

  0
LINE
  5
A82
330
A7F
100
AcDbEntity
  8
0
  6
Continuous
 62
     7
370
    15
100
AcDbLine
 10
1701.736967883326
 20
1368.296128553691
 30
0.0
 11
1701.736967883326
 21
1369.746127953175
 31
0.0
  0
LINE
  5
A83
330
A7F
100
AcDbEntity
  8
0
  6
Continuous
 62
     7
370
    15
100
AcDbLine
 10
1701.736967883326
 20
1369.746127953175
 30
0.0
 11
1700.436968229033
 21
1369.746127953175
 31
0.0
  0
LINE
  5
A84
330
A7F
100
AcDbEntity
  8
0
  6
Continuous
 62
     7
370
    15
100
AcDbLine
 10
1700.436968229033
 20
1369.746127953175
 30
0.0
 11
1700.436968229033
 21
1368.296128553691
 31
0.0
  0
LINE
  5
A85
330
A7F
100
AcDbEntity
  8
0
  6
Continuous
 62
     7
370
    15
100
AcDbLine
 10
1700.436968229033
 20
1368.296128553691
 30
0.0
 11
1697.241516190834
 21
1368.296128553691
 31
0.0
  0
ARC
  5
A86
330
A7F
100
AcDbEntity
  8
0
  6
Continuous
 62
     7
370
    15
100
AcDbCircle
 10
1701.086968004026
 20
1367.646128146173
 30
0.0
 40
3.899999999967599
100
AcDbArc
 50
9.594068226997602
 51
170.4059317730559
  0
LINE
  5
A87
330
A7F
100
AcDbEntity
  8
0
  6
Continuous
 62
     7
370
    15
100
AcDbLine
 10
1704.932419455863
 20
1368.296128553691
 30
0.0
 11
1701.736967883326
 21
1368.296128553691
 31
0.0
  0
ARC
  5
A88
330
A7F
100
AcDbEntity
  8
0
  6
Continuous
 62
     7
370
    15
100
AcDbCircle
 10
1701.086968004026
 20
1367.646128146173
 30
0.0
 40
3.899999999967599
100
AcDbArc
 50
189.594068226944
 51
350.4059317731095
  0
LINE
  5
A89
330
A7F
100
AcDbEntity
  8
0
  6
Continuous
 62
     7
370
    15
100
AcDbLine
 10
1697.241516190834
 20
1366.996127968076
 30
0.0
 11
1700.436968229033
 21
1366.996127968076
 31
0.0
  0
LINE
  5
A8A
330
A7F
100
AcDbEntity
  8
0
  6
Continuous
 62
     7
370
    15
100
AcDbLine
 10
1700.436968229033
 20
1366.996127968076
 30
0.0
 11
1700.436968229033
 21
1365.546128102931
 31
0.0
  0
LINE
  5
A8B
330
A7F
100
AcDbEntity
  8
0
  6
Continuous
 62
     7
370
    15
100
AcDbLine
 10
1700.436968229033
 20
1365.546128102931
 30
0.0
 11
1701.736967883326
 21
1365.546128102931
 31
0.0
  0
LINE
  5
A8C
330
A7F
100
AcDbEntity
  8
0
  6
Continuous
 62
     7
370
    15
100
AcDbLine
 10
1701.736967883326
 20
1365.546128102931
 30
0.0
 11
1701.736967883326
 21
1366.996127968076
 31
0.0
  0
LINE
  5
A8D
330
A7F
100
AcDbEntity
  8
0
  6
Continuous
 62
     7
370
    15
100
AcDbLine
 10
1701.736967883326
 20
1366.996127968076
 30
0.0
 11
1704.932419455863
 21
1366.996127968076
 31
0.0
  0
ARC
  5
A8E
330
A7F
100
AcDbEntity
  8
0
  6
Continuous
 62
     7
370
    15
100
AcDbCircle
 10
1701.086968004026
 20
1367.646128146173
 30
0.0
 40
4.500000000001463
100
AcDbArc
 50
147.2660444507511
 51
152.7339555494199
  0
SPLINE
  5
A8F
330
A7F
100
AcDbEntity
  8
0
  6
Continuous
 62
     7
370
    15
100
AcDbSpline
210
0.0
220
0.0
230
1.0
 70
    24
 71
     3
 72
    12
 73
     8
 74
     0
 42
0.0000000001
 43
0.0000000001
 40
0.0
 40
0.0
 40
0.0
 40
0.0
 40
0.5
 40
0.5
 40
0.75
 40
0.75
 40
1.0
 40
1.0
 40
1.0
 40
1.0
 10
1697.301610896891
 20
1370.079453354927
 30
0.0
 10
1697.886534829181
 20
1370.41715934469
 30
0.0
 10
1698.478385811233
 20
1370.758864668478
 30
0.0
 10
1699.382455589932
 20
1371.280829598576
 30
0.0
 10
1699.686539813659
 20
1371.456392707001
 30
0.0
 10
1700.283864716904
 20
1371.801258400684
 30
0.0
 10
1700.579279845578
 20
1371.971816404746
 30
0.0
 10
1700.872325111149
 20
1372.141006167709
 30
0.0
  0
ARC
  5
A90
330
A7F
100
AcDbEntity
  8
0
  6
Continuous
 62
     7
370
    15
100
AcDbCircle
 10
1701.086968004026
 20
1367.646128146173
 30
0.0
 40
4.500000000000465
100
AcDbArc
 50
87.26604445079237
 51
92.7339555493644
  0
SPLINE
  5
A91
330
A7F
100
AcDbEntity
  8
0
  6
Continuous
 62
     7
370
    15
100
AcDbSpline
210
0.0
220
0.0
230
1.0
 70
    24
 71
     3
 72
    12
 73
     8
 74
     0
 42
0.0000000001
 43
0.0000000001
 40
0.0
 40
0.0
 40
0.0
 40
0.0
 40
0.499999999999999
 40
0.499999999999999
 40
0.7499999999999995
 40
0.7499999999999995
 40
1.0
 40
1.0
 40
1.0
 40
1.0
 10
1701.301610896904
 20
1372.141006167725
 30
0.0
 10
1701.886534829184
 20
1371.803300177967
 30
0.0
 10
1702.478385811207
 20
1371.461594854156
 30
0.0
 10
1703.38245558989
 20
1370.939629924068
 30
0.0
 10
1703.686539813612
 20
1370.764066815645
 30
0.0
 10
1704.283864716848
 20
1370.419201121968
 30
0.0
 10
1704.579279845575
 20
1370.248643117875
 30
0.0
 10
1704.87232511114
 20
1370.079453354916
 30
0.0
  0
ARC
  5
A92
330
A7F
100
AcDbEntity
  8
0
  6
Continuous
 62
     7
370
    15
100
AcDbCircle
 10
1701.086968004026
 20
1367.646128146173
 30
0.0
 40
4.499999999959808
100
AcDbArc
 50
27.26604444981675
 51
32.73395555021005
  0
SPLINE
  5
A93
330
A7F
100
AcDbEntity
  8
0
  6
Continuous
 62
     7
370
    15
100
AcDbSpline
210
0.0
220
0.0
230
1.0
 70
    24
 71
     3
 72
     8
 73
     4
 74
     0
 42
0.0000000001
 43
0.0000000001
 40
0.0
 40
0.0
 40
0.0
 40
0.0
 40
1.0
 40
1.0
 40
1.0
 40
1.0
 10
1705.086968004025
 20
1369.707680958966
 30
0.0
 10
1705.086968004025
 20
1369.243854395901
 30
0.0
 10
1705.086968004023
 20
1368.774305596732
 30
0.0
 10
1705.086968004023
 20
1368.296128146171
 30
0.0
  0
SPLINE
  5
A94
330
A7F
100
AcDbEntity
  8
0
  6
Continuous
 62
     7
370
    15
100
AcDbSpline
210
0.0
220
0.0
230
1.0
 70
    24
 71
     3
 72
     8
 73
     4
 74
     0
 42
0.0000000001
 43
0.0000000001
 40
0.0
 40
0.0
 40
0.0
 40
0.0
 40
1.0
 40
1.0
 40
1.0
 40
1.0
 10
1697.086968004011
 20
1369.707680958959
 30
0.0
 10
1697.086968004011
 20
1369.243854395875
 30
0.0
 10
1697.086968004023
 20
1368.77430559675
 30
0.0
 10
1697.086968004023
 20
1368.29612814617
 30
0.0
  0
SPLINE
  5
A95
330
A7F
100
AcDbEntity
  8
0
  6
Continuous
 62
     7
370
    15
100
AcDbSpline
210
0.0
220
0.0
230
1.0
 70
    24
 71
     3
 72
     8
 73
     4
 74
     0
 42
0.0000000001
 43
0.0000000001
 40
0.0000000000000103
 40
0.0000000000000103
 40
0.0000000000000103
 40
0.0000000000000103
 40
0.0001778594872795
 40
0.0001778594872795
 40
0.0001778594872795
 40
0.0001778594872795
 10
1704.932419863016
 20
1368.296128146176
 30
0.0
 10
1704.983942684802
 20
1368.296128146176
 30
0.0
 10
1705.035458477817
 20
1368.296128146176
 30
0.0
 10
1705.086968004003
 20
1368.296128146176
 30
0.0
  0
SPLINE
  5
A96
330
A7F
100
AcDbEntity
  8
0
  6
Continuous
 62
     7
370
    15
100
AcDbSpline
210
0.0
220
0.0
230
1.0
 70
    24
 71
     3
 72
     8
 73
     4
 74
     0
 42
0.0000000001
 43
0.0000000001
 40
0.000000000000008
 40
0.000000000000008
 40
0.000000000000008
 40
0.000000000000008
 40
0.0001778594872915
 40
0.0001778594872915
 40
0.0001778594872915
 40
0.0001778594872915
 10
1697.086968004037
 20
1368.296128146173
 30
0.0
 10
1697.138477530227
 20
1368.296128146173
 30
0.0
 10
1697.189993323245
 20
1368.296128146173
 30
0.0
 10
1697.241516145035
 20
1368.296128146173
 30
0.0
  0
ARC
  5
A97
330
A7F
100
AcDbEntity
  8
0
  6
Continuous
 62
     7
370
    15
100
AcDbCircle
 10
1701.086968004026
 20
1367.646128146173
 30
0.0
 40
4.500000000000732
100
AcDbArc
 50
267.2660444506753
 51
272.7339555493377
  0
SPLINE
  5
A98
330
A7F
100
AcDbEntity
  8
0
  6
Continuous
 62
     7
370
    15
100
AcDbSpline
210
0.0
220
0.0
230
1.0
 70
    24
 71
     3
 72
    12
 73
     8
 74
     0
 42
0.0000000001
 43
0.0000000001
 40
0.0
 40
0.0
 40
0.0
 40
0.0
 40
0.5000000000000001
 40
0.5000000000000001
 40
0.75
 40
0.75
 40
1.0
 40
1.0
 40
1.0
 40
1.0
 10
1700.872325111137
 20
1363.151250124621
 30
0.0
 10
1700.287401178859
 20
1363.488956114378
 30
0.0
 10
1699.695550196837
 20
1363.830661438188
 30
0.0
 10
1698.791480418157
 20
1364.352626368275
 30
0.0
 10
1698.487396194436
 20
1364.528189476697
 30
0.0
 10
1697.890071291202
 20
1364.873055170373
 30
0.0
 10
1697.594656162473
 20
1365.043613174468
 30
0.0
 10
1697.301610896908
 20
1365.212802937426
 30
0.0
  0
ARC
  5
A99
330
A7F
100
AcDbEntity
  8
0
  6
Continuous
 62
     7
370
    15
100
AcDbCircle
 10
1701.086968004026
 20
1367.646128146173
 30
0.0
 40
4.499999999962216
100
AcDbArc
 50
207.2660444497294
 51
212.733955550275
  0
SPLINE
  5
A9A
330
A7F
100
AcDbEntity
  8
0
  6
Continuous
 62
     7
370
    15
100
AcDbSpline
210
0.0
220
0.0
230
1.0
 70
    24
 71
     3
 72
     8
 73
     4
 74
     0
 42
0.0000000001
 43
0.0000000001
 40
0.0
 40
0.0
 40
0.0
 40
0.0
 40
1.0
 40
1.0
 40
1.0
 40
1.0
 10
1697.086968004021
 20
1365.58457533339
 30
0.0
 10
1697.086968004021
 20
1366.048401896455
 30
0.0
 10
1697.086968004023
 20
1366.517950695618
 30
0.0
 10
1697.086968004023
 20
1366.996128146178
 30
0.0
  0
SPLINE
  5
A9B
330
A7F
100
AcDbEntity
  8
0
  6
Continuous
 62
     7
370
    15
100
AcDbSpline
210
0.0
220
0.0
230
1.0
 70
    24
 71
     3
 72
     8
 73
     4
 74
     0
 42
0.0000000001
 43
0.0000000001
 40
0.0
 40
0.0
 40
0.0
 40
0.0
 40
1.0
 40
1.0
 40
1.0
 40
1.0
 10
1705.086968004032
 20
1366.99612814618
 30
0.0
 10
1705.086968004032
 20
1366.517950695618
 30
0.0
 10
1705.086968004023
 20
1366.048401896453
 30
0.0
 10
1705.086968004023
 20
1365.584575333386
 30
0.0
  0
ARC
  5
A9C
330
A7F
100
AcDbEntity
  8
0
  6
Continuous
 62
     7
370
    15
100
AcDbCircle
 10
1701.086968004026
 20
1367.646128146173
 30
0.0
 40
4.499999999959761
100
AcDbArc
 50
327.266044449743
 51
332.7339555501832
  0
SPLINE
  5
A9D
330
A7F
100
AcDbEntity
  8
0
  6
Continuous
 62
     7
370
    15
100
AcDbSpline
210
0.0
220
0.0
230
1.0
 70
    24
 71
     3
 72
    12
 73
     8
 74
     0
 42
0.0000000001
 43
0.0000000001
 40
0.0
 40
0.0
 40
0.0
 40
0.0
 40
0.5000000000000002
 40
0.5000000000000002
 40
0.7500000000000001
 40
0.7500000000000001
 40
1.0
 40
1.0
 40
1.0
 40
1.0
 10
1704.872325111145
 20
1365.212802937428
 30
0.0
 10
1704.287401178864
 20
1364.87509694767
 30
0.0
 10
1703.69555019678
 20
1364.533391623846
 30
0.0
 10
1702.791480418095
 20
1364.011426693756
 30
0.0
 10
1702.487396194373
 20
1363.835863585334
 30
0.0
 10
1701.890071291136
 20
1363.490997891657
 30
0.0
 10
1701.594656162466
 20
1363.320439887596
 30
0.0
 10
1701.3016108969
 20
1363.151250124637
 30
0.0
  0
SPLINE
  5
A9E
330
A7F
100
AcDbEntity
  8
0
  6
Continuous
 62
     7
370
    15
100
AcDbSpline
210
0.0
220
0.0
230
1.0
 70
    24
 71
     3
 72
     8
 73
     4
 74
     0
 42
0.0000000001
 43
0.0000000001
 40
0.0000000000000113
 40
0.0000000000000113
 40
0.0000000000000113
 40
0.0000000000000113
 40
0.0001778594872781
 40
0.0001778594872781
 40
0.0001778594872781
 40
0.0001778594872781
 10
1705.086968004003
 20
1366.996128146176
 30
0.0
 10
1705.035458477817
 20
1366.996128146176
 30
0.0
 10
1704.983942684803
 20
1366.996128146176
 30
0.0
 10
1704.932419863017
 20
1366.996128146176
 30
0.0
  0
SPLINE
  5
A9F
330
A7F
100
AcDbEntity
  8
0
  6
Continuous
 62
     7
370
    15
100
AcDbSpline
210
0.0
220
0.0
230
1.0
 70
    24
 71
     3
 72
     8
 73
     4
 74
     0
 42
0.0000000001
 43
0.0000000001
 40
0.0000000000000103
 40
0.0000000000000103
 40
0.0000000000000103
 40
0.0000000000000103
 40
0.0001778594872831
 40
0.0001778594872831
 40
0.0001778594872831
 40
0.0001778594872831
 10
1697.241516145035
 20
1366.996128146173
 30
0.0
 10
1697.189993323247
 20
1366.996128146173
 30
0.0
 10
1697.138477530231
 20
1366.996128146173
 30
0.0
 10
1697.086968004044
 20
1366.996128146173
 30
0.0
  0
LINE
  5
AA0
330
A7F
100
AcDbEntity
  8
0
  6
Continuous
 62
     7
370
    15
100
AcDbLine
 10
1697.08696809902
 20
1368.296128553691
 30
0.0
 11
1697.08696809902
 21
1366.996127968076
 31
0.0
  0
LINE
  5
AA1
330
A7F
100
AcDbEntity
  8
0
  6
Continuous
 62
     7
370
    15
100
AcDbLine
 10
1705.086967780508
 20
1366.996127968076
 30
0.0
 11
1705.086967780508
 21
1368.296128553691
 31
0.0
  0
LINE
  5
AA2
330
A7F
100
AcDbEntity
  8
0
  6
Continuous
 62
     7
370
    15
100
AcDbLine
 10
1706.186967774548
 20
1377.890528035703
 30
0.0
 11
1706.186967774548
 21
1376.896797535363
 31
0.0
  0
LINE
  5
AA3
330
A7F
100
AcDbEntity
  8
0
  6
Continuous
 62
     7
370
    15
100
AcDbLine
 10
1695.986967988566
 20
1376.896797535363
 30
0.0
 11
1706.186967774548
 21
1376.896797535363
 31
0.0
  0
LINE
  5
AA4
330
A7F
100
AcDbEntity
  8
0
  6
Continuous
 62
     7
370
    15
100
AcDbLine
 10
1695.986967988566
 20
1377.890528035703
 30
0.0
 11
1695.986967988566
 21
1376.896797535363
 31
0.0
  0
LINE
  5
AA5
330
A7F
100
AcDbEntity
  8
0
  6
Continuous
 62
     7
370
    15
100
AcDbLine
 10
1706.186967774548
 20
1377.890528035703
 30
0.0
 11
1695.986967988566
 21
1377.890528035703
 31
0.0
  0
LINE
  5
AA6
330
A7F
100
AcDbEntity
  8
0
  6
Continuous
 62
     7
370
    15
100
AcDbLine
 10
1697.486968118019
 20
1376.695192274991
 30
0.0
 11
1697.486968118019
 21
1376.632454661074
 31
0.0
  0
LINE
  5
AA7
330
A7F
100
AcDbEntity
  8
0
  6
Continuous
 62
     7
370
    15
100
AcDbLine
 10
1697.486968118019
 20
1376.695192274991
 30
0.0
 11
1695.986967988566
 21
1376.695192274991
 31
0.0
  0
LINE
  5
AA8
330
A7F
100
AcDbEntity
  8
0
  6
Continuous
 62
     7
370
    15
100
AcDbLine
 10
1706.186967774548
 20
1376.695192274991
 30
0.0
 11
1704.686968460001
 21
1376.695192274991
 31
0.0
  0
LINE
  5
AA9
330
A7F
100
AcDbEntity
  8
0
  6
Continuous
 62
     7
370
    15
100
AcDbLine
 10
1704.686968460001
 20
1376.695192274991
 30
0.0
 11
1704.686968460001
 21
1376.643004683199
 31
0.0
  0
LINE
  5
AAA
330
A7F
100
AcDbEntity
  8
0
  6
Continuous
 62
     7
370
    15
100
AcDbLine
 10
1704.686968460001
 20
1376.643004683199
 30
0.0
 11
1697.486968118019
 21
1376.632454661074
 31
0.0
  0
LINE
  5
AAB
330
A7F
100
AcDbEntity
  8
0
  6
Continuous
 62
     7
370
    15
100
AcDbLine
 10
1695.986967988566
 20
1376.695192274991
 30
0.0
 11
1695.986967988566
 21
1376.896797535363
 31
0.0
  0
LINE
  5
AAC
330
A7F
100
AcDbEntity
  8
0
  6
Continuous
 62
     7
370
    15
100
AcDbLine
 10
1706.186967774548
 20
1376.896797535363
 30
0.0
 11
1706.186967774548
 21
1376.695192274991
 31
0.0
  0
LINE
  5
AAD
330
A7F
100
AcDbEntity
  8
0
  6
Continuous
 62
     7
370
    15
100
AcDbLine
 10
1695.986967988566
 20
1357.402194147351
 30
0.0
 11
1695.986967988566
 21
1358.395925287976
 31
0.0
  0
LINE
  5
AAE
330
A7F
100
AcDbEntity
  8
0
  6
Continuous
 62
     7
370
    15
100
AcDbLine
 10
1706.186967774548
 20
1358.395925287976
 30
0.0
 11
1695.986967988566
 21
1358.395925287976
 31
0.0
  0
LINE
  5
AAF
330
A7F
100
AcDbEntity
  8
0
  6
Continuous
 62
     7
370
    15
100
AcDbLine
 10
1695.986967988566
 20
1357.402194147351
 30
0.0
 11
1706.186967774548
 21
1357.402194147351
 31
0.0
  0
LINE
  5
AB0
330
A7F
100
AcDbEntity
  8
0
  6
Continuous
 62
     7
370
    15
100
AcDbLine
 10
1706.186967774548
 20
1357.402194147351
 30
0.0
 11
1706.186967774548
 21
1358.395925287976
 31
0.0
  0
LINE
  5
AB1
330
A7F
100
AcDbEntity
  8
0
  6
Continuous
 62
     7
370
    15
100
AcDbLine
 10
1704.686968460001
 20
1358.649717907309
 30
0.0
 11
1704.686968460001
 21
1358.597528976741
 31
0.0
  0
LINE
  5
AB2
330
A7F
100
AcDbEntity
  8
0
  6
Continuous
 62
     7
370
    15
100
AcDbLine
 10
1704.686968460001
 20
1358.597528976741
 30
0.0
 11
1706.186967774548
 21
1358.597528976741
 31
0.0
  0
LINE
  5
AB3
330
A7F
100
AcDbEntity
  8
0
  6
Continuous
 62
     7
370
    15
100
AcDbLine
 10
1695.986967988566
 20
1358.395925287976
 30
0.0
 11
1695.986967988566
 21
1358.597528976741
 31
0.0
  0
LINE
  5
AB4
330
A7F
100
AcDbEntity
  8
0
  6
Continuous
 62
     7
370
    15
100
AcDbLine
 10
1695.986967988566
 20
1358.597528976741
 30
0.0
 11
1697.486968118019
 21
1358.597528976741
 31
0.0
  0
LINE
  5
AB5
330
A7F
100
AcDbEntity
  8
0
  6
Continuous
 62
     7
370
    15
100
AcDbLine
 10
1697.486968118019
 20
1358.660266590658
 30
0.0
 11
1697.486968118019
 21
1358.597528976741
 31
0.0
  0
LINE
  5
AB6
330
A7F
100
AcDbEntity
  8
0
  6
Continuous
 62
     7
370
    15
100
AcDbLine
 10
1697.486968118019
 20
1358.660266590658
 30
0.0
 11
1704.686968460001
 21
1358.649717907309
 31
0.0
  0
LINE
  5
AB7
330
A7F
100
AcDbEntity
  8
0
  6
Continuous
 62
     7
370
    15
100
AcDbLine
 10
1706.186967774548
 20
1358.597528976741
 30
0.0
 11
1706.186967774548
 21
1358.395925287976
 31
0.0
  0
LINE
  5
AB8
330
A7F
100
AcDbEntity
  8
0
  6
Continuous
 62
     7
370
    15
100
AcDbLine
 10
1707.081729418851
 20
1375.791127649489
 30
0.0
 11
1704.936968035318
 21
1375.791127649489
 31
0.0
  0
LINE
  5
AB9
330
A7F
100
AcDbEntity
  8
0
  6
Continuous
 62
     7
370
    15
100
AcDbLine
 10
1707.081729418851
 20
1378.749077064338
 30
0.0
 11
1707.081729418851
 21
1375.791127649489
 31
0.0
  0
ELLIPSE
  5
ABA
330
A7F
100
AcDbEntity
  8
0
  6
Continuous
 62
     7
370
    15
100
AcDbEllipse
 10
1704.936968004026
 20
1378.85410829096
 30
0.0
 11
2.150000000000005
 21
0.0
 31
0.0
210
0.0
220
0.0
230
1.0
 40
0.7002075382235714
 41
6.213361142196252
 42
6.283185307179586
  0
LINE
  5
ABB
330
A7F
100
AcDbEntity
  8
0
  6
Continuous
 62
     7
370
    15
100
AcDbLine
 10
1707.086968108334
 20
1356.550177648085
 30
0.0
 11
1707.086968108334
 21
1378.854107899013
 31
0.0
  0
ARC
  5
ABC
330
A7F
100
AcDbEntity
  8
0
  6
Continuous
 62
     7
370
    15
100
AcDbCircle
 10
1704.936968004026
 20
1356.550177591657
 30
0.0
 40
2.150000000000005
100
AcDbArc
 50
0.0
 51
4.000629961570866
  0
LINE
  5
ABD
330
A7F
100
AcDbEntity
  8
0
  6
Continuous
 62
     7
370
    15
100
AcDbLine
 10
1707.081729418851
 20
1359.501128173786
 30
0.0
 11
1707.081729418851
 21
1356.700177626106
 31
0.0
  0
LINE
  5
ABE
330
A7F
100
AcDbEntity
  8
0
  6
Continuous
 62
     7
370
    15
100
AcDbLine
 10
1704.936968035318
 20
1359.501128173786
 30
0.0
 11
1707.081729418851
 21
1359.501128173786
 31
0.0
  0
LINE
  5
ABF
330
A7F
100
AcDbEntity
  8
0
  6
Continuous
 62
     7
370
    15
100
AcDbLine
 10
1695.092206944983
 20
1375.791127649489
 30
0.0
 11
1695.092206944983
 21
1378.749077064338
 31
0.0
  0
LINE
  5
AC0
330
A7F
100
AcDbEntity
  8
0
  6
Continuous
 62
     7
370
    15
100
AcDbLine
 10
1695.092206944983
 20
1375.791127649489
 30
0.0
 11
1697.236968077041
 21
1375.791127649489
 31
0.0
  0
LINE
  5
AC1
330
A7F
100
AcDbEntity
  8
0
  6
Continuous
 62
     7
370
    15
100
AcDbLine
 10
1697.236968077041
 20
1359.501128173786
 30
0.0
 11
1695.092206944983
 21
1359.501128173786
 31
0.0
  0
LINE
  5
AC2
330
A7F
100
AcDbEntity
  8
0
  6
Continuous
 62
     7
370
    15
100
AcDbLine
 10
1695.092206944983
 20
1356.700177626106
 30
0.0
 11
1695.092206944983
 21
1359.501128173786
 31
0.0
  0
ARC
  5
AC3
330
A7F
100
AcDbEntity
  8
0
  6
Continuous
 62
     7
370
    15
100
AcDbCircle
 10
1697.236968004025
 20
1356.550177591657
 30
0.0
 40
2.150000000000034
100
AcDbArc
 50
175.9993700384291
 51
180.0
  0
LINE
  5
AC4
330
A7F
100
AcDbEntity
  8
0
  6
Continuous
 62
     7
370
    15
100
AcDbLine
 10
1695.086968004025
 20
1378.854107899013
 30
0.0
 11
1695.086968004025
 21
1356.550177648085
 31
0.0
  0
ELLIPSE
  5
AC5
330
A7F
100
AcDbEntity
  8
0
  6
Continuous
 62
     7
370
    15
100
AcDbEllipse
 10
1697.236968004025
 20
1378.85410829096
 30
0.0
 11
2.149999999999977
 21
0.0
 31
0.0
210
0.0
220
0.0
230
1.0
 40
0.7002075382235807
 41
3.141592653589793
 42
3.211416818573165
  0
LINE
  5
AC6
330
A7F
100
AcDbEntity
  8
0
  6
Continuous
 62
     7
370
    15
100
AcDbLine
 10
1697.236968077041
 20
1375.791127649489
 30
0.0
 11
1704.936968035318
 21
1375.791127649489
 31
0.0
  0
LINE
  5
AC7
330
A7F
100
AcDbEntity
  8
0
  6
Continuous
 62
     7
370
    15
100
AcDbLine
 10
1704.936968035318
 20
1359.501128173786
 30
0.0
 11
1697.236968077041
 21
1359.501128173786
 31
0.0
  0
LINE
  5
AC8
330
A7F
100
AcDbEntity
  8
0
  6
Continuous
 62
     7
370
    15
100
AcDbLine
 10
1705.086967780508
 20
1378.749077064338
 30
0.0
 11
1707.081729418851
 21
1378.749077064338
 31
0.0
  0
LINE
  5
AC9
330
A7F
100
AcDbEntity
  8
0
  6
Continuous
 62
     7
370
    15
100
AcDbLine
 10
1705.086967780508
 20
1378.749077064338
 30
0.0
 11
1705.086967780508
 21
1378.995598149839
 31
0.0
  0
LINE
  5
ACA
330
A7F
100
AcDbEntity
  8
0
  6
Continuous
 62
     7
370
    15
100
AcDbLine
 10
1707.086968108334
 20
1378.995598149839
 30
0.0
 11
1705.086967780508
 21
1378.995598149839
 31
0.0
  0
LINE
  5
ACB
330
A7F
100
AcDbEntity
  8
0
  6
Continuous
 62
     7
370
    15
100
AcDbLine
 10
1707.086968108334
 20
1378.995598149839
 30
0.0
 11
1707.086968108334
 21
1378.854107899013
 31
0.0
  0
LINE
  5
ACC
330
A7F
100
AcDbEntity
  8
0
  6
Continuous
 62
     7
370
    15
100
AcDbLine
 10
1695.086968004025
 20
1378.995598149839
 30
0.0
 11
1695.086968004025
 21
1378.854107899013
 31
0.0
  0
LINE
  5
ACD
330
A7F
100
AcDbEntity
  8
0
  6
Continuous
 62
     7
370
    15
100
AcDbLine
 10
1697.08696809902
 20
1378.995598149839
 30
0.0
 11
1695.086968004025
 21
1378.995598149839
 31
0.0
  0
LINE
  5
ACE
330
A7F
100
AcDbEntity
  8
0
  6
Continuous
 62
     7
370
    15
100
AcDbLine
 10
1697.08696809902
 20
1378.995598149839
 30
0.0
 11
1697.08696809902
 21
1378.749077064338
 31
0.0
  0
LINE
  5
ACF
330
A7F
100
AcDbEntity
  8
0
  6
Continuous
 62
     7
370
    15
100
AcDbLine
 10
1695.092206944983
 20
1378.749077064338
 30
0.0
 11
1697.08696809902
 21
1378.749077064338
 31
0.0
  0
LINE
  5
AD0
330
A7F
100
AcDbEntity
  8
0
  6
Continuous
 62
     7
370
    15
100
AcDbLine
 10
1697.08696809902
 20
1375.791127649489
 30
0.0
 11
1697.08696809902
 21
1376.695192274991
 31
0.0
  0
LINE
  5
AD1
330
A7F
100
AcDbEntity
  8
0
  6
Continuous
 62
     7
370
    15
100
AcDbLine
 10
1697.08696809902
 20
1377.890528035703
 30
0.0
 11
1697.08696809902
 21
1378.749077064338
 31
0.0
  0
LINE
  5
AD2
330
A7F
100
AcDbEntity
  8
0
  6
Continuous
 62
     7
370
    15
100
AcDbLine
 10
1705.086967780508
 20
1378.749077064338
 30
0.0
 11
1705.086967780508
 21
1377.890528035703
 31
0.0
  0
LINE
  5
AD3
330
A7F
100
AcDbEntity
  8
0
  6
Continuous
 62
     7
370
    15
100
AcDbLine
 10
1705.086967780508
 20
1376.695192274991
 30
0.0
 11
1705.086967780508
 21
1375.791127649489
 31
0.0
  0
LINE
  5
AD4
330
A7F
100
AcDbEntity
  8
0
  6
Continuous
 62
     7
370
    15
100
AcDbLine
 10
1697.08696809902
 20
1356.700177626106
 30
0.0
 11
1695.092206944983
 21
1356.700177626106
 31
0.0
  0
LINE
  5
AD5
330
A7F
100
AcDbEntity
  8
0
  6
Continuous
 62
     7
370
    15
100
AcDbLine
 10
1697.08696809902
 20
1356.700177626106
 30
0.0
 11
1697.08696809902
 21
1357.402194147351
 31
0.0
  0
LINE
  5
AD6
330
A7F
100
AcDbEntity
  8
0
  6
Continuous
 62
     7
370
    15
100
AcDbLine
 10
1697.08696809902
 20
1358.597528976741
 30
0.0
 11
1697.08696809902
 21
1359.501128173786
 31
0.0
  0
LINE
  5
AD7
330
A7F
100
AcDbEntity
  8
0
  6
Continuous
 62
     7
370
    15
100
AcDbLine
 10
1707.081729418851
 20
1356.700177626106
 30
0.0
 11
1705.086967780508
 21
1356.700177626106
 31
0.0
  0
LINE
  5
AD8
330
A7F
100
AcDbEntity
  8
0
  6
Continuous
 62
     7
370
    15
100
AcDbLine
 10
1705.086967780508
 20
1359.501128173786
 30
0.0
 11
1705.086967780508
 21
1358.597528976741
 31
0.0
  0
LINE
  5
AD9
330
A7F
100
AcDbEntity
  8
0
  6
Continuous
 62
     7
370
    15
100
AcDbLine
 10
1705.086967780508
 20
1357.402194147351
 30
0.0
 11
1705.086967780508
 21
1356.700177626106
 31
0.0
  0
LINE
  5
ADA
330
A7F
100
AcDbEntity
  8
0
  6
Continuous
 62
     7
370
    15
100
AcDbLine
 10
1695.086968004025
 20
1356.29112817848
 30
0.0
 11
1697.08696809902
 21
1356.29112817848
 31
0.0
  0
LINE
  5
ADB
330
A7F
100
AcDbEntity
  8
0
  6
Continuous
 62
     7
370
    15
100
AcDbLine
 10
1695.086968004025
 20
1356.29112817848
 30
0.0
 11
1695.086968004025
 21
1356.550177648085
 31
0.0
  0
LINE
  5
ADC
330
A7F
100
AcDbEntity
  8
0
  6
Continuous
 62
     7
370
    15
100
AcDbLine
 10
1697.08696809902
 20
1356.700177626106
 30
0.0
 11
1697.08696809902
 21
1356.29112817848
 31
0.0
  0
LINE
  5
ADD
330
A7F
100
AcDbEntity
  8
0
  6
Continuous
 62
     7
370
    15
100
AcDbLine
 10
1707.086968108334
 20
1356.550177648085
 30
0.0
 11
1707.086968108334
 21
1356.29112817848
 31
0.0
  0
LINE
  5
ADE
330
A7F
100
AcDbEntity
  8
0
  6
Continuous
 62
     7
370
    15
100
AcDbLine
 10
1705.086967780508
 20
1356.29112817848
 30
0.0
 11
1707.086968108334
 21
1356.29112817848
 31
0.0
  0
LINE
  5
ADF
330
A7F
100
AcDbEntity
  8
0
  6
Continuous
 62
     7
370
    15
100
AcDbLine
 10
1705.086967780508
 20
1356.29112817848
 30
0.0
 11
1705.086967780508
 21
1356.700177626106
 31
0.0
  0
LINE
  5
AE0
330
A7F
100
AcDbEntity
  8
0
  6
Continuous
 62
     7
370
    15
100
AcDbLine
 10
1697.486968118019
 20
1376.632454661074
 30
0.0
 11
1697.486968118019
 21
1375.791127649489
 31
0.0
  0
LINE
  5
AE1
330
A7F
100
AcDbEntity
  8
0
  6
Continuous
 62
     7
370
    15
100
AcDbLine
 10
1697.486968118019
 20
1359.501128173786
 30
0.0
 11
1697.486968118019
 21
1358.660266590658
 31
0.0
  0
LINE
  5
AE2
330
A7F
100
AcDbEntity
  8
0
  6
Continuous
 62
     7
370
    15
100
AcDbLine
 10
1704.686968460001
 20
1358.649717907309
 30
0.0
 11
1704.686968460001
 21
1359.501128173786
 31
0.0
  0
LINE
  5
AE3
330
A7F
100
AcDbEntity
  8
0
  6
Continuous
 62
     7
370
    15
100
AcDbLine
 10
1704.686968460001
 20
1375.791127649489
 30
0.0
 11
1704.686968460001
 21
1376.643004683199
 31
0.0
  0
LINE
  5
AE4
330
A7F
100
AcDbEntity
  8
0
  6
Continuous
 62
     7
370
    15
100
AcDbLine
 10
1704.698394856669
 20
1376.231628326121
 30
0.0
 11
1704.686968460001
 21
1376.231628326121
 31
0.0
  0
LINE
  5
AE5
330
A7F
100
AcDbEntity
  8
0
  6
Continuous
 62
     7
370
    15
100
AcDbLine
 10
1697.486968118019
 20
1376.231628326121
 30
0.0
 11
1697.475573386319
 21
1376.231628326121
 31
0.0
  0
SPLINE
  5
AE6
330
A7F
100
AcDbEntity
  8
0
  6
Continuous
 62
     7
370
    15
100
AcDbSpline
210
0.0
220
0.0
230
1.0
 70
     8
 71
     3
 72
     9
 73
     5
 74
     0
 42
0.0000000001
 43
0.0000000001
 40
0.0
 40
0.0
 40
0.0
 40
0.0
 40
0.9533334626741336
 40
1.0
 40
1.0
 40
1.0
 40
1.0
 10
1697.475573386319
 20
1376.231628326121
 30
0.0
 10
1697.476020108008
 20
1376.230612013379
 30
0.0
 10
1697.476488697129
 20
1376.229545951207
 30
0.0
 10
1697.48650088393
 20
1376.203992651176
 30
0.0
 10
1697.486968118019
 20
1376.202800167146
 30
0.0
  0
LINE
  5
AE7
330
A7F
100
AcDbEntity
  8
0
  6
Continuous
 62
     7
370
    15
100
AcDbLine
 10
1704.686968460001
 20
1376.202708897534
 30
0.0
 11
1704.698394856669
 21
1376.231628326121
 31
0.0
  0
LINE
  5
AE8
330
A7F
100
AcDbEntity
  8
0
  6
Continuous
 62
     7
370
    15
100
AcDbLine
 10
1697.08696809902
 20
1375.931628835741
 30
0.0
 11
1697.486968118019
 21
1375.931628835741
 31
0.0
  0
LINE
  5
AE9
330
A7F
100
AcDbEntity
  8
0
  6
Continuous
 62
     7
370
    15
100
AcDbLine
 10
1697.475573386319
 20
1376.231628326121
 30
0.0
 11
1697.08696809902
 21
1376.231628326121
 31
0.0
  0
LINE
  5
AEA
330
A7F
100
AcDbEntity
  8
0
  6
Continuous
 62
     7
370
    15
100
AcDbLine
 10
1704.686968460001
 20
1375.931628835741
 30
0.0
 11
1705.086967780508
 21
1375.931628835741
 31
0.0
  0
LINE
  5
AEB
330
A7F
100
AcDbEntity
  8
0
  6
Continuous
 62
     7
370
    15
100
AcDbLine
 10
1705.086967780508
 20
1376.231628326121
 30
0.0
 11
1704.698394856669
 21
1376.231628326121
 31
0.0
  0
LINE
  5
AEC
330
A7F
100
AcDbEntity
  8
0
  6
Continuous
 62
     7
370
    15
100
AcDbLine
 10
1704.736968375064
 20
1375.931628835741
 30
0.0
 11
1704.736968375064
 21
1375.791127649489
 31
0.0
  0
LINE
  5
AED
330
A7F
100
AcDbEntity
  8
0
  6
Continuous
 62
     7
370
    15
100
AcDbLine
 10
1697.436967970125
 20
1375.791127649489
 30
0.0
 11
1697.436967970125
 21
1375.931628835741
 31
0.0
  0
LINE
  5
AEE
330
A7F
100
AcDbEntity
  8
0
  6
Continuous
 62
     8
370
    15
100
AcDbLine
 10
1704.936968035318
 20
1375.791127649489
 30
0.0
 11
1704.936968035318
 21
1369.975827490333
 31
0.0
  0
LINE
  5
AEF
330
A7F
100
AcDbEntity
  8
0
  6
Continuous
 62
     8
370
    15
100
AcDbLine
 10
1704.936968035318
 20
1365.316428565773
 30
0.0
 11
1704.936968035318
 21
1359.501128173786
 31
0.0
  0
LINE
  5
AF0
330
A7F
100
AcDbEntity
  8
0
  6
Continuous
 62
     8
370
    15
100
AcDbLine
 10
1697.236968077041
 20
1375.791127649489
 30
0.0
 11
1697.236968077041
 21
1369.975827490333
 31
0.0
  0
LINE
  5
AF1
330
A7F
100
AcDbEntity
  8
0
  6
Continuous
 62
     8
370
    15
100
AcDbLine
 10
1697.236968077041
 20
1365.316428565773
 30
0.0
 11
1697.236968077041
 21
1359.501128173786
 31
0.0
  0
ENDBLK
  5
A81
330
A7F
100
AcDbEntity
  8
0
100
AcDbBlockEnd
  0
BLOCK
  5
AF4
330
AF3
100
AcDbEntity
  8
0
100
AcDbBlockBegin
  2
4
 70
     0
 10
0.0
 20
0.0
 30
0.0
  3
4
  1

  0
LINE
  5
D6B
330
AF3
100
AcDbEntity
  8
0
  6
Continuous
 62
     7
370
    15
100
AcDbLine
 10
1654.584049384283
 20
1375.166511442196
 30
0.0
 11
1649.421808209836
 21
1371.849793966105
 31
0.0
1001
AcDbBlockRepETag
1070
     1
1071
        0
1005
D6B
  0
LINE
  5
D6C
330
AF3
100
AcDbEntity
  8
0
  6
Continuous
 62
     7
370
    15
100
AcDbLine
 10
1655.882471936703
 20
1374.095724641757
 30
0.0
 11
1655.882867106597
 21
1373.971151028467
 31
0.0
1001
AcDbBlockRepETag
1070
     1
1071
        1
1005
D6C
  0
LINE
  5
D6D
330
AF3
100
AcDbEntity
  8
0
  6
Continuous
 62
     7
370
    15
100
AcDbLine
 10
1660.882841711846
 20
1373.987011857336
 30
0.0
 11
1660.881973835274
 21
1374.260601829433
 31
0.0
1001
AcDbBlockRepETag
1070
     1
1071
        2
1005
D6D
  0
LINE
  5
D6E
330
AF3
100
AcDbEntity
  8
0
  6
Continuous
 62
     7
370
    15
100
AcDbLine
 10
1660.6183630414
 20
1379.887320992195
 30
0.0
 11
1660.34470963859
 21
1379.9582430208
 31
0.0
1001
AcDbBlockRepETag
1070
     1
1071
        3
1005
D6E
  0
LINE
  5
D6F
330
AF3
100
AcDbEntity
  8
0
  6
Continuous
 62
     7
370
    15
100
AcDbLine
 10
1656.383105263905
 20
1379.945675963837
 30
0.0
 11
1656.130385376265
 21
1379.878464552345
 31
0.0
1001
AcDbBlockRepETag
1070
     1
1071
        4
1005
D6F
  0
LINE
  5
D70
330
AF3
100
AcDbEntity
  8
0
  6
Continuous
 62
     7
370
    15
100
AcDbLine
 10
1650.901617132144
 20
1359.934345544085
 30
0.0
 11
1656.051651126125
 21
1358.351612014592
 31
0.0
1001
AcDbBlockRepETag
1070
     1
1071
        5
1005
D70
  0
LINE
  5
D71
330
AF3
100
AcDbEntity
  8
0
  6
Continuous
 62
     7
370
    15
100
AcDbLine
 10
1659.746844961548
 20
1353.179065535482
 30
0.0
 11
1658.10519196506
 21
1353.683586329785
 31
0.0
1001
AcDbBlockRepETag
1070
     1
1071
        6
1005
D71
  0
LINE
  5
D72
330
AF3
100
AcDbEntity
  8
0
  6
Continuous
 62
     7
370
    15
100
AcDbLine
 10
1660.320038108516
 20
1353.547339636493
 30
0.0
 11
1658.678385112028
 21
1354.051860430797
 31
0.0
1001
AcDbBlockRepETag
1070
     1
1071
        7
1005
D72
  0
LINE
  5
D73
330
AF3
100
AcDbEntity
  8
0
  6
Continuous
 62
     7
370
    15
100
AcDbLine
 10
1660.893230723539
 20
1353.915613395733
 30
0.0
 11
1659.251577727052
 21
1354.420134190036
 31
0.0
1001
AcDbBlockRepETag
1070
     1
1071
        8
1005
D73
  0
LINE
  5
D74
330
AF3
100
AcDbEntity
  8
0
  6
Continuous
 62
     7
370
    15
100
AcDbLine
 10
1661.466423870507
 20
1354.283887496744
 30
0.0
 11
1659.824770874019
 21
1354.788408291047
 31
0.0
1001
AcDbBlockRepETag
1070
     1
1071
        9
1005
D74
  0
LINE
  5
D75
330
AF3
100
AcDbEntity
  8
0
  6
Continuous
 62
     7
370
    15
100
AcDbLine
 10
1650.694160530233
 20
1348.629551677209
 30
0.0
 11
1656.18821076836
 21
1346.941093400086
 31
0.0
1001
AcDbBlockRepETag
1070
     1
1071
       10
1005
D75
  0
LINE
  5
D76
330
AF3
100
AcDbEntity
  8
0
  6
Continuous
 62
     7
370
    15
100
AcDbLine
 10
1662.039617017474
 20
1354.652161597755
 30
0.0
 11
1660.397964020987
 21
1355.156682392059
 31
0.0
1001
AcDbBlockRepETag
1070
     1
1071
       11
1005
D76
  0
LINE
  5
D77
330
AF3
100
AcDbEntity
  8
0
  6
Continuous
 62
     7
370
    15
100
AcDbLine
 10
1662.612809632498
 20
1355.020435356995
 30
0.0
 11
1660.97115663601
 21
1355.524956151298
 31
0.0
1001
AcDbBlockRepETag
1070
     1
1071
       12
1005
D77
  0
LINE
  5
D78
330
AF3
100
AcDbEntity
  8
0
  6
Continuous
 62
     7
370
    15
100
AcDbLine
 10
1663.180290763982
 20
1355.38503951293
 30
0.0
 11
1661.538637767494
 21
1355.889560307234
 31
0.0
1001
AcDbBlockRepETag
1070
     1
1071
       13
1005
D78
  0
LINE
  5
D79
330
AF3
100
AcDbEntity
  8
0
  6
Continuous
 62
     7
370
    15
100
AcDbLine
 10
1663.751461459575
 20
1355.75201419774
 30
0.0
 11
1662.109808463087
 21
1356.256534992043
 31
0.0
1001
AcDbBlockRepETag
1070
     1
1071
       14
1005
D79
  0
LINE
  5
D7A
330
AF3
100
AcDbEntity
  8
0
  6
Continuous
 62
     7
370
    15
100
AcDbLine
 10
1651.538580552449
 20
1355.701669330798
 30
0.0
 11
1649.896927364848
 21
1356.206190183835
 31
0.0
1001
AcDbBlockRepETag
1070
     1
1071
       15
1005
D7A
  0
LINE
  5
D7B
330
AF3
100
AcDbEntity
  8
0
  6
Continuous
 62
     7
370
    15
100
AcDbLine
 10
1652.111773699417
 20
1356.069943431809
 30
0.0
 11
1650.470120511815
 21
1356.574464284847
 31
0.0
1001
AcDbBlockRepETag
1070
     1
1071
       16
1005
D7B
  0
LINE
  5
D7C
330
AF3
100
AcDbEntity
  8
0
  6
Continuous
 62
     7
370
    15
100
AcDbLine
 10
1664.322632155167
 20
1356.118988882549
 30
0.0
 11
1662.680979158679
 21
1356.623509676853
 31
0.0
1001
AcDbBlockRepETag
1070
     1
1071
       17
1005
D7C
  0
LINE
  5
D7D
330
AF3
100
AcDbEntity
  8
0
  6
Continuous
 62
     7
370
    15
100
AcDbLine
 10
1652.6532743362
 20
1356.447956924152
 30
0.0
 11
1651.043313126839
 21
1356.942738044086
 31
0.0
1001
AcDbBlockRepETag
1070
     1
1071
       18
1005
D7D
  0
LINE
  5
D7E
330
AF3
100
AcDbEntity
  8
0
  6
Continuous
 62
     7
370
    15
100
AcDbLine
 10
1664.895825036162
 20
1356.487262812675
 30
0.0
 11
1663.254172039675
 21
1356.991783606978
 31
0.0
1001
AcDbBlockRepETag
1070
     1
1071
       19
1005
D7E
  0
LINE
  5
D7F
330
AF3
100
AcDbEntity
  8
0
  6
Continuous
 62
     7
370
    15
100
AcDbLine
 10
1653.068689485126
 20
1356.864720127956
 30
0.0
 11
1651.616506273807
 21
1357.311012145097
 31
0.0
1001
AcDbBlockRepETag
1070
     1
1071
       20
1005
D7F
  0
LINE
  5
D80
330
AF3
100
AcDbEntity
  8
0
  6
Continuous
 62
     7
370
    15
100
AcDbLine
 10
1665.469017917158
 20
1356.8555367428
 30
0.0
 11
1663.82736492067
 21
1357.360057537104
 31
0.0
1001
AcDbBlockRepETag
1070
     1
1071
       21
1005
D80
  0
LINE
  5
D81
330
AF3
100
AcDbEntity
  8
0
  6
Continuous
 62
     7
370
    15
100
AcDbLine
 10
1653.465579615147
 20
1357.287176530792
 30
0.0
 11
1652.189699420774
 21
1357.679286246109
 31
0.0
1001
AcDbBlockRepETag
1070
     1
1071
       22
1005
D81
  0
LINE
  5
D82
330
AF3
100
AcDbEntity
  8
0
  6
Continuous
 62
     7
370
    15
100
AcDbLine
 10
1653.844249976005
 20
1357.715231816573
 30
0.0
 11
1652.762892035798
 21
1358.047560005348
 31
0.0
1001
AcDbBlockRepETag
1070
     1
1071
       23
1005
D82
  0
LINE
  5
D83
330
AF3
100
AcDbEntity
  8
0
  6
Continuous
 62
     7
370
    15
100
AcDbLine
 10
1654.201418287135
 20
1358.144470332757
 30
0.0
 11
1653.330373167282
 21
1358.412164161284
 31
0.0
1001
AcDbBlockRepETag
1070
     1
1071
       24
1005
D83
  0
LINE
  5
D84
330
AF3
100
AcDbEntity
  8
0
  6
Continuous
 62
     7
370
    15
100
AcDbLine
 10
1654.540986112586
 20
1358.582622339605
 30
0.0
 11
1653.901543862874
 21
1358.779138846093
 31
0.0
1001
AcDbBlockRepETag
1070
     1
1071
       25
1005
D84
  0
LINE
  5
D85
330
AF3
100
AcDbEntity
  8
0
  6
Continuous
 62
     7
370
    15
100
AcDbLine
 10
1658.657009311596
 20
1367.687086286063
 30
0.0
 11
1656.967515563719
 21
1366.601593909793
 31
0.0
1001
AcDbBlockRepETag
1070
     1
1071
       26
1005
D85
  0
ARC
  5
D86
330
AF3
100
AcDbEntity
  8
0
  6
Continuous
 62
     7
370
    15
100
AcDbCircle
 10
1655.96932772309
 20
1367.486123067631
 30
0.0
 40
2.695184323261742
100
AcDbArc
 50
4.276160424056085
 51
70.00640204342771
1001
AcDbBlockRepETag
1070
     1
1071
       27
1005
D86
  0
LINE
  5
D87
330
AF3
100
AcDbEntity
  8
0
  6
Continuous
 62
     7
370
    15
100
AcDbLine
 10
1656.8908520564
 20
1370.01887087179
 30
0.0
 11
1666.195220863031
 21
1375.996887315056
 31
0.0
1001
AcDbBlockRepETag
1070
     1
1071
       28
1005
D87
  0
ARC
  5
D88
330
AF3
100
AcDbEntity
  8
0
  6
Continuous
 62
     7
370
    15
100
AcDbCircle
 10
1665.269397796699
 20
1373.460883533239
 30
0.0
 40
2.699715453810436
100
AcDbArc
 50
4.338266776282488
 51
69.94429569120493
1001
AcDbBlockRepETag
1070
     1
1071
       29
1005
D88
  0
LINE
  5
D89
330
AF3
100
AcDbEntity
  8
0
  6
Continuous
 62
     7
370
    15
100
AcDbLine
 10
1669.561198728634
 20
1374.692980505248
 30
0.0
 11
1667.961378118227
 21
1373.665102729329
 31
0.0
1001
AcDbBlockRepETag
1070
     1
1071
       30
1005
D89
  0
ELLIPSE
  5
D8A
330
AF3
100
AcDbEntity
  8
0
  6
Continuous
 62
     7
370
    15
100
AcDbEllipse
 10
1667.886823757998
 20
1375.154758122729
 30
0.0
 11
2.137450455963559
 21
-1.162901128075134
 31
0.0
210
0.0
220
0.0
230
1.0
 40
0.2255603715321244
 41
0.7323695216787212
 42
0.8021936866621034
1001
AcDbBlockRepETag
1070
     1
1071
       31
1005
D8A
  0
LINE
  5
D8B
330
AF3
100
AcDbEntity
  8
0
  6
Continuous
 62
     7
370
    15
100
AcDbLine
 10
1656.912251344949
 20
1366.427421998863
 30
0.0
 11
1669.651600612672
 21
1374.612398431083
 31
0.0
1001
AcDbBlockRepETag
1070
     1
1071
       32
1005
D8B
  0
ELLIPSE
  5
D8C
330
AF3
100
AcDbEntity
  8
0
  6
Continuous
 62
     7
370
    15
100
AcDbEllipse
 10
1655.147474234176
 20
1366.969781525966
 30
0.0
 11
0.9357147906137017
 21
2.449303144935782
 31
0.0
210
0.0
220
0.0
230
0.9999999999999998
 40
0.7033531169407028
 41
4.75937946955018
 42
4.829203634533548
1001
AcDbBlockRepETag
1070
     1
1071
       33
1005
D8C
  0
LINE
  5
D8D
330
AF3
100
AcDbEntity
  8
0
  6
Continuous
 62
     7
370
    15
100
AcDbLine
 10
1656.83201020729
 20
1366.194571316778
 30
0.0
 11
1656.912251344949
 21
1366.427421998863
 31
0.0
1001
AcDbBlockRepETag
1070
     1
1071
       34
1005
D8D
  0
LINE
  5
D8E
330
AF3
100
AcDbEntity
  8
0
  6
Continuous
 62
     7
370
    15
100
AcDbLine
 10
1655.190357210803
 20
1366.699092111082
 30
0.0
 11
1656.83201020729
 21
1366.194571316778
 31
0.0
1001
AcDbBlockRepETag
1070
     1
1071
       35
1005
D8E
  0
LINE
  5
D8F
330
AF3
100
AcDbEntity
  8
0
  6
Continuous
 62
     7
370
    15
100
AcDbLine
 10
1655.190357210803
 20
1366.699092111082
 30
0.0
 11
1655.330162828588
 21
1367.104793126833
 31
0.0
1001
AcDbBlockRepETag
1070
     1
1071
       36
1005
D8F
  0
LINE
  5
D90
330
AF3
100
AcDbEntity
  8
0
  6
Continuous
 62
     7
370
    15
100
AcDbLine
 10
1656.967515563719
 20
1366.601593909793
 30
0.0
 11
1655.330162828588
 21
1367.104793126833
 31
0.0
1001
AcDbBlockRepETag
1070
     1
1071
       37
1005
D90
  0
LINE
  5
D91
330
AF3
100
AcDbEntity
  8
0
  6
Continuous
 62
     7
370
    15
100
AcDbLine
 10
1669.800297828291
 20
1374.475517101695
 30
0.0
 11
1669.651600612672
 21
1374.612398431083
 31
0.0
1001
AcDbBlockRepETag
1070
     1
1071
       38
1005
D91
  0
LINE
  5
D92
330
AF3
100
AcDbEntity
  8
0
  6
Continuous
 62
     7
370
    15
100
AcDbLine
 10
1669.868715464081
 20
1352.907497315424
 30
0.0
 11
1669.800297828291
 21
1374.475517101695
 31
0.0
1001
AcDbBlockRepETag
1070
     1
1071
       39
1005
D92
  0
LINE
  5
D96
330
AF3
100
AcDbEntity
  8
0
  6
Continuous
 62
     7
370
    15
100
AcDbLine
 10
1666.381455805214
 20
1350.666948169544
 30
0.0
 11
1669.868715464081
 21
1352.907497315424
 31
0.0
1001
AcDbBlockRepETag
1070
     1
1071
       40
1005
D96
  0
LINE
  5
D97
330
AF3
100
AcDbEntity
  8
0
  6
Continuous
 62
     7
370
    15
100
AcDbLine
 10
1665.144262410323
 20
1350.779259846197
 30
0.0
 11
1666.381455805214
 21
1350.666948169544
 31
0.0
1001
AcDbBlockRepETag
1070
     1
1071
       41
1005
D97
  0
LINE
  5
D98
330
AF3
100
AcDbEntity
  8
0
  6
Continuous
 62
     7
370
    15
100
AcDbLine
 10
1665.144262410323
 20
1350.779259846197
 30
0.0
 11
1664.742787717926
 21
1349.614111058887
 31
0.0
1001
AcDbBlockRepETag
1070
     1
1071
       42
1005
D98
  0
LINE
  5
D99
330
AF3
100
AcDbEntity
  8
0
  6
Continuous
 62
     7
370
    15
100
AcDbLine
 10
1658.038058466579
 20
1345.306351710007
 30
0.0
 11
1664.742787717926
 21
1349.614111058887
 31
0.0
1001
AcDbBlockRepETag
1070
     1
1071
       43
1005
D99
  0
LINE
  5
D9A
330
AF3
100
AcDbEntity
  8
0
  6
Continuous
 62
     7
370
    15
100
AcDbLine
 10
1658.038058466579
 20
1345.306351710007
 30
0.0
 11
1657.832849947354
 21
1345.495254659196
 31
0.0
1001
AcDbBlockRepETag
1070
     1
1071
       44
1005
D9A
  0
LINE
  5
D9B
330
AF3
100
AcDbEntity
  8
0
  6
Continuous
 62
     7
370
    15
100
AcDbLine
 10
1657.829143682056
 20
1346.663620130746
 30
0.0
 11
1657.832849947354
 21
1345.495254659196
 31
0.0
1001
AcDbBlockRepETag
1070
     1
1071
       45
1005
D9B
  0
LINE
  5
D9C
330
AF3
100
AcDbEntity
  8
0
  6
Continuous
 62
     7
370
    15
100
AcDbLine
 10
1658.051801712506
 20
1347.158177821875
 30
0.0
 11
1657.829143682056
 21
1346.663620130746
 31
0.0
1001
AcDbBlockRepETag
1070
     1
1071
       46
1005
D9C
  0
LINE
  5
D9D
330
AF3
100
AcDbEntity
  8
0
  6
Continuous
 62
     7
370
    15
100
AcDbLine
 10
1658.644546465584
 20
1347.62050883608
 30
0.0
 11
1658.051801712506
 21
1347.158177821875
 31
0.0
1001
AcDbBlockRepETag
1070
     1
1071
       47
1005
D9D
  0
LINE
  5
D9E
330
AF3
100
AcDbEntity
  8
0
  6
Continuous
 62
     7
370
    15
100
AcDbLine
 10
1658.644546465584
 20
1347.62050883608
 30
0.0
 11
1658.638865891903
 21
1349.411256559713
 31
0.0
1001
AcDbBlockRepETag
1070
     1
1071
       48
1005
D9E
  0
LINE
  5
D9F
330
AF3
100
AcDbEntity
  8
0
  6
Continuous
 62
     7
370
    15
100
AcDbLine
 10
1658.025241992643
 20
1349.101298285506
 30
0.0
 11
1658.638865891903
 21
1349.411256559713
 31
0.0
1001
AcDbBlockRepETag
1070
     1
1071
       49
1005
D9F
  0
LINE
  5
DA0
330
AF3
100
AcDbEntity
  8
0
  6
Continuous
 62
     7
370
    15
100
AcDbLine
 10
1658.025241992643
 20
1349.101298285506
 30
0.0
 11
1657.820620009331
 21
1349.350628236863
 31
0.0
1001
AcDbBlockRepETag
1070
     1
1071
       50
1005
DA0
  0
LINE
  5
DA1
330
AF3
100
AcDbEntity
  8
0
  6
Continuous
 62
     7
370
    15
100
AcDbLine
 10
1657.814833556458
 20
1351.174753385478
 30
0.0
 11
1657.820620009331
 21
1349.350628236863
 31
0.0
1001
AcDbBlockRepETag
1070
     1
1071
       51
1005
DA1
  0
LINE
  5
DA2
330
AF3
100
AcDbEntity
  8
0
  6
Continuous
 62
     7
370
    15
100
AcDbLine
 10
1659.667419414201
 20
1353.145819064299
 30
0.0
 11
1657.814833556458
 21
1351.174753385478
 31
0.0
1001
AcDbBlockRepETag
1070
     1
1071
       52
1005
DA2
  0
LWPOLYLINE
  5
DA3
330
AF3
100
AcDbEntity
  8
0
  6
Continuous
 62
     7
370
    15
100
AcDbPolyline
 90
        9
 70
   128
 43
0.0
 10
1659.667419414201
 20
1353.145819064299
 10
1659.680505048814
 20
1353.15831920535
 10
1659.693826968339
 20
1353.168250505326
 10
1659.707157574776
 20
1353.175443337225
 10
1659.720268590052
 20
1353.179774429657
 10
1659.732936375456
 20
1353.181170284565
 10
1659.744943532764
 20
1353.179606534771
 10
1659.756084228971
 20
1353.175109693937
 10
1659.766168993044
 20
1353.167757313917
1001
AcDbBlockRepETag
1070
     1
1071
       53
1005
DA3
  0
LINE
  5
DA4
330
AF3
100
AcDbEntity
  8
0
  6
Continuous
 62
     7
370
    15
100
AcDbLine
 10
1659.923596453515
 20
1353.022839248672
 30
0.0
 11
1659.766168993044
 21
1353.167757313917
 31
0.0
1001
AcDbBlockRepETag
1070
     1
1071
       54
1005
DA4
  0
LWPOLYLINE
  5
DA5
330
AF3
100
AcDbEntity
  8
0
  6
Continuous
 62
     7
370
    15
100
AcDbPolyline
 90
        9
 70
   128
 43
0.0
 10
1660.039105449805
 20
1353.097053275815
 10
1660.026779218859
 20
1353.073177881114
 10
1660.012695764501
 20
1353.052273258255
 10
1659.997396759986
 20
1353.035142821822
 10
1659.981470179933
 20
1353.022444680511
 10
1659.965527458474
 20
1353.014666934372
 10
1659.950182228684
 20
1353.012108583702
 10
1659.936024240125
 20
1353.014868202462
 10
1659.923596453515
 20
1353.022839248672
1001
AcDbBlockRepETag
1070
     1
1071
       55
1005
DA5
  0
LINE
  5
DA6
330
AF3
100
AcDbEntity
  8
0
  6
Continuous
 62
     7
370
    15
100
AcDbLine
 10
1660.194974963747
 20
1353.443263282898
 30
0.0
 11
1660.039105449805
 21
1353.097053275815
 31
0.0
1001
AcDbBlockRepETag
1070
     1
1071
       56
1005
DA6
  0
LWPOLYLINE
  5
DA7
330
AF3
100
AcDbEntity
  8
0
  6
Continuous
 62
     7
370
    15
100
AcDbPolyline
 90
        9
 70
   128
 43
0.0
 10
1660.194974963747
 20
1353.443263282898
 10
1660.210383418353
 20
1353.473107640785
 10
1660.227987469667
 20
1353.499238456942
 10
1660.24711122498
 20
1353.520651606719
 10
1660.267019583362
 20
1353.536524264565
 10
1660.286947452911
 20
1353.546246209702
 10
1660.30612899048
 20
1353.549444043804
 10
1660.323827407741
 20
1353.545994909986
 10
1660.339361608067
 20
1353.536031073156
1001
AcDbBlockRepETag
1070
     1
1071
       57
1005
DA7
  0
LINE
  5
DA8
330
AF3
100
AcDbEntity
  8
0
  6
Continuous
 62
     7
370
    15
100
AcDbLine
 10
1660.496789068539
 20
1353.391113007912
 30
0.0
 11
1660.339361608067
 21
1353.536031073156
 31
0.0
1001
AcDbBlockRepETag
1070
     1
1071
       58
1005
DA8
  0
LWPOLYLINE
  5
DA9
330
AF3
100
AcDbEntity
  8
0
  6
Continuous
 62
     7
370
    15
100
AcDbPolyline
 90
        9
 70
   128
 43
0.0
 10
1660.612298596773
 20
1353.465327376827
 10
1660.599971833882
 20
1353.441451640353
 10
1660.585888379524
 20
1353.420547017495
 10
1660.570589375009
 20
1353.403416581061
 10
1660.554662794956
 20
1353.390718439751
 10
1660.538720605442
 20
1353.382941035384
 10
1660.523375375651
 20
1353.380382684714
 10
1660.509216855149
 20
1353.383141961701
 10
1660.496789068539
 20
1353.391113007912
1001
AcDbBlockRepETag
1070
     1
1071
       59
1005
DA9
  0
LINE
  5
DAA
330
AF3
100
AcDbEntity
  8
0
  6
Continuous
 62
     7
370
    15
100
AcDbLine
 10
1660.768168110715
 20
1353.81153738391
 30
0.0
 11
1660.612298596773
 21
1353.465327376827
 31
0.0
1001
AcDbBlockRepETag
1070
     1
1071
       60
1005
DAA
  0
LWPOLYLINE
  5
DAB
330
AF3
100
AcDbEntity
  8
0
  6
Continuous
 62
     7
370
    15
100
AcDbPolyline
 90
        9
 70
   128
 43
0.0
 10
1660.768168110715
 20
1353.81153738391
 10
1660.78357656532
 20
1353.841381741796
 10
1660.801180616634
 20
1353.867512557953
 10
1660.820304371947
 20
1353.888925707731
 10
1660.84021273033
 20
1353.904798365577
 10
1660.860140599879
 20
1353.914520310714
 10
1660.879322137447
 20
1353.917718144816
 10
1660.897020022765
 20
1353.914268669225
 10
1660.912554755035
 20
1353.904305174168
1001
AcDbBlockRepETag
1070
     1
1071
       61
1005
DAB
  0
LINE
  5
DAC
330
AF3
100
AcDbEntity
  8
0
  6
Continuous
 62
     7
370
    15
100
AcDbLine
 10
1661.069982215507
 20
1353.759387108923
 30
0.0
 11
1660.912554755035
 21
1353.904305174168
 31
0.0
1001
AcDbBlockRepETag
1070
     1
1071
       62
1005
DAC
  0
LWPOLYLINE
  5
DAD
330
AF3
100
AcDbEntity
  8
0
  6
Continuous
 62
     7
370
    15
100
AcDbPolyline
 90
        9
 70
   128
 43
0.0
 10
1661.185491743741
 20
1353.833601477838
 10
1661.17316498085
 20
1353.809725741365
 10
1661.159081526492
 20
1353.788821118506
 10
1661.143782521977
 20
1353.771690682073
 10
1661.127855941924
 20
1353.758992540762
 10
1661.111913752409
 20
1353.751215136395
 10
1661.096568522619
 20
1353.748656785725
 10
1661.082410002117
 20
1353.751416062713
 10
1661.069982215507
 20
1353.759387108923
1001
AcDbBlockRepETag
1070
     1
1071
       63
1005
DAD
  0
LINE
  5
DAE
330
AF3
100
AcDbEntity
  8
0
  6
Continuous
 62
     7
370
    15
100
AcDbLine
 10
1661.341361257682
 20
1354.179811484921
 30
0.0
 11
1661.185491743741
 21
1353.833601477838
 31
0.0
1001
AcDbBlockRepETag
1070
     1
1071
       64
1005
DAE
  0
LWPOLYLINE
  5
DAF
330
AF3
100
AcDbEntity
  8
0
  6
Continuous
 62
     7
370
    15
100
AcDbPolyline
 90
        9
 70
   128
 43
0.0
 10
1661.341361257682
 20
1354.179811484921
 10
1661.356769180343
 20
1354.209655501035
 10
1661.374373763602
 20
1354.235786658964
 10
1661.393497518915
 20
1354.257199808742
 10
1661.413405877297
 20
1354.273072466588
 10
1661.433333746846
 20
1354.282794411725
 10
1661.452515284415
 20
1354.285992245827
 10
1661.470213169732
 20
1354.282542770236
 10
1661.485747902003
 20
1354.272579275179
1001
AcDbBlockRepETag
1070
     1
1071
       65
1005
DAF
  0
LINE
  5
DB0
330
AF3
100
AcDbEntity
  8
0
  6
Continuous
 62
     7
370
    15
100
AcDbLine
 10
1661.643175362474
 20
1354.127661209934
 30
0.0
 11
1661.485747902003
 21
1354.272579275179
 31
0.0
1001
AcDbBlockRepETag
1070
     1
1071
       66
1005
DB0
  0
LWPOLYLINE
  5
DB1
330
AF3
100
AcDbEntity
  8
0
  6
Continuous
 62
     7
370
    15
100
AcDbPolyline
 90
        9
 70
   128
 43
0.0
 10
1661.758684358764
 20
1354.201875237078
 10
1661.746358127818
 20
1354.177999842376
 10
1661.732274673459
 20
1354.157095219518
 10
1661.716975668944
 20
1354.139964783084
 10
1661.701048556948
 20
1354.127266300002
 10
1661.685106367433
 20
1354.119488895635
 10
1661.669761137642
 20
1354.116930544965
 10
1661.65560261714
 20
1354.119689821952
 10
1661.643175362474
 20
1354.127661209934
1001
AcDbBlockRepETag
1070
     1
1071
       67
1005
DB1
  0
LINE
  5
DB2
330
AF3
100
AcDbEntity
  8
0
  6
Continuous
 62
     7
370
    15
100
AcDbLine
 10
1661.914553872706
 20
1354.548085244161
 30
0.0
 11
1661.758684358764
 21
1354.201875237078
 31
0.0
1001
AcDbBlockRepETag
1070
     1
1071
       68
1005
DB2
  0
LWPOLYLINE
  5
DB3
330
AF3
100
AcDbEntity
  8
0
  6
Continuous
 62
     7
370
    15
100
AcDbPolyline
 90
        9
 70
   128
 43
0.0
 10
1661.914553872706
 20
1354.548085244161
 10
1661.929962327311
 20
1354.577929602047
 10
1661.947566378626
 20
1354.604060418204
 10
1661.966690133939
 20
1354.625473567982
 10
1661.986598492321
 20
1354.641346225828
 10
1662.00652636187
 20
1354.651068170964
 10
1662.025707899439
 20
1354.654266005067
 10
1662.0434063167
 20
1354.650816871248
 10
1662.058940517026
 20
1354.640853034419
1001
AcDbBlockRepETag
1070
     1
1071
       69
1005
DB3
  0
LINE
  5
DB4
330
AF3
100
AcDbEntity
  8
0
  6
Continuous
 62
     7
370
    15
100
AcDbLine
 10
1662.216367977498
 20
1354.495934969174
 30
0.0
 11
1662.058940517026
 21
1354.640853034419
 31
0.0
1001
AcDbBlockRepETag
1070
     1
1071
       70
1005
DB4
  0
LWPOLYLINE
  5
DB5
330
AF3
100
AcDbEntity
  8
0
  6
Continuous
 62
     7
370
    15
100
AcDbPolyline
 90
        9
 70
   128
 43
0.0
 10
1662.331877505732
 20
1354.570149338089
 10
1662.319550742841
 20
1354.546273601616
 10
1662.305467288483
 20
1354.525368978757
 10
1662.290168283968
 20
1354.508238542324
 10
1662.274241703915
 20
1354.495540401013
 10
1662.258299514401
 20
1354.487762996646
 10
1662.24295428461
 20
1354.485204645976
 10
1662.228795764108
 20
1354.487963922963
 10
1662.216367977498
 20
1354.495934969174
1001
AcDbBlockRepETag
1070
     1
1071
       71
1005
DB5
  0
LINE
  5
DB6
330
AF3
100
AcDbEntity
  8
0
  6
Continuous
 62
     7
370
    15
100
AcDbLine
 10
1662.487747019673
 20
1354.916359345172
 30
0.0
 11
1662.331877505732
 21
1354.570149338089
 31
0.0
1001
AcDbBlockRepETag
1070
     1
1071
       72
1005
DB6
  0
LWPOLYLINE
  5
DB7
330
AF3
100
AcDbEntity
  8
0
  6
Continuous
 62
     7
370
    15
100
AcDbPolyline
 90
        9
 70
   128
 43
0.0
 10
1662.487747019673
 20
1354.916359345172
 10
1662.503154942335
 20
1354.946203361286
 10
1662.520759525593
 20
1354.972334519215
 10
1662.539883280906
 20
1354.993747668993
 10
1662.559791639289
 20
1355.009620326839
 10
1662.579719508838
 20
1355.019342271976
 10
1662.598901046407
 20
1355.022540106078
 10
1662.616598931723
 20
1355.019090630487
 10
1662.632133663994
 20
1355.00912713543
1001
AcDbBlockRepETag
1070
     1
1071
       73
1005
DB7
  0
LINE
  5
DB8
330
AF3
100
AcDbEntity
  8
0
  6
Continuous
 62
     7
370
    15
100
AcDbLine
 10
1662.789561124466
 20
1354.864209070185
 30
0.0
 11
1662.632133663994
 21
1355.00912713543
 31
0.0
1001
AcDbBlockRepETag
1070
     1
1071
       74
1005
DB8
  0
ARC
  5
DB9
330
AF3
100
AcDbEntity
  8
0
  6
Continuous
 62
     7
370
    15
100
AcDbCircle
 10
1662.818422659638
 20
1354.897732400548
 30
0.0
 40
0.0442357535386833
100
AcDbArc
 50
229.273563450837
 51
306.2482445149565
1001
AcDbBlockRepETag
1070
     1
1071
       75
1005
DB9
  0
ARC
  5
DBA
330
AF3
100
AcDbEntity
  8
0
  6
Continuous
 62
     7
370
    15
100
AcDbCircle
 10
1662.734766964154
 20
1355.001794553692
 30
0.0
 40
0.1777214745680512
100
AcDbArc
 50
308.1619307179205
 51
337.8380750512359
1001
AcDbBlockRepETag
1070
     1
1071
       76
1005
DBA
  0
LINE
  5
DBB
330
AF3
100
AcDbEntity
  8
0
  6
Continuous
 62
     7
370
    15
100
AcDbLine
 10
1663.055228151157
 20
1355.280963501108
 30
0.0
 11
1662.899358637216
 21
1354.934753494025
 31
0.0
1001
AcDbBlockRepETag
1070
     1
1071
       77
1005
DBB
  0
LWPOLYLINE
  5
DBC
330
AF3
100
AcDbEntity
  8
0
  6
Continuous
 62
     7
370
    15
100
AcDbPolyline
 90
        9
 70
   128
 43
0.0
 10
1663.055228151157
 20
1355.280963501108
 10
1663.070636605763
 20
1355.310807858994
 10
1663.088240657077
 20
1355.336938675151
 10
1663.10736441239
 20
1355.358351824929
 10
1663.127272770773
 20
1355.374224482775
 10
1663.147200640322
 20
1355.383946427912
 10
1663.166382177891
 20
1355.387144262014
 10
1663.184080063208
 20
1355.383694786423
 10
1663.199614795478
 20
1355.373731291366
1001
AcDbBlockRepETag
1070
     1
1071
       78
1005
DBC
  0
LINE
  5
DBD
330
AF3
100
AcDbEntity
  8
0
  6
Continuous
 62
     7
370
    15
100
AcDbLine
 10
1663.35704225595
 20
1355.228813226121
 30
0.0
 11
1663.199614795478
 21
1355.373731291366
 31
0.0
1001
AcDbBlockRepETag
1070
     1
1071
       79
1005
DBD
  0
ARC
  5
DBE
330
AF3
100
AcDbEntity
  8
0
  6
Continuous
 62
     7
370
    15
100
AcDbCircle
 10
1663.386105513947
 20
1355.263043718129
 30
0.0
 40
0.0449043377475267
100
AcDbArc
 50
229.6672156186428
 51
308.2487118890486
1001
AcDbBlockRepETag
1070
     1
1071
       80
1005
DBE
  0
ARC
  5
DBF
330
AF3
100
AcDbEntity
  8
0
  6
Continuous
 62
     7
370
    15
100
AcDbCircle
 10
1663.30854695499
 20
1355.367107794942
 30
0.0
 40
0.1746790912678753
100
AcDbArc
 50
307.0958657408283
 51
338.0199238272779
1001
AcDbBlockRepETag
1070
     1
1071
       81
1005
DBF
  0
LINE
  5
DC0
330
AF3
100
AcDbEntity
  8
0
  6
Continuous
 62
     7
370
    15
100
AcDbLine
 10
1663.62639884675
 20
1355.647938185917
 30
0.0
 11
1663.470529332808
 21
1355.301728178834
 31
0.0
1001
AcDbBlockRepETag
1070
     1
1071
       82
1005
DC0
  0
LWPOLYLINE
  5
DC1
330
AF3
100
AcDbEntity
  8
0
  6
Continuous
 62
     7
370
    15
100
AcDbPolyline
 90
        9
 70
   128
 43
0.0
 10
1663.62639884675
 20
1355.647938185917
 10
1663.641806769411
 20
1355.677782202031
 10
1663.65941135267
 20
1355.70391335996
 10
1663.678535107982
 20
1355.725326509738
 10
1663.698443466365
 20
1355.741199167584
 10
1663.718371335914
 20
1355.75092111272
 10
1663.737552873483
 20
1355.754118946823
 10
1663.7552507588
 20
1355.750669471232
 10
1663.770785491071
 20
1355.740705976175
1001
AcDbBlockRepETag
1070
     1
1071
       83
1005
DC1
  0
LINE
  5
DC2
330
AF3
100
AcDbEntity
  8
0
  6
Continuous
 62
     7
370
    15
100
AcDbLine
 10
1663.928212951542
 20
1355.59578791093
 30
0.0
 11
1663.770785491071
 21
1355.740705976175
 31
0.0
1001
AcDbBlockRepETag
1070
     1
1071
       84
1005
DC2
  0
ARC
  5
DC3
330
AF3
100
AcDbEntity
  8
0
  6
Continuous
 62
     7
370
    15
100
AcDbCircle
 10
1663.957276175707
 20
1355.6300178652
 30
0.0
 40
0.0449039059344969
100
AcDbArc
 50
229.6668044414516
 51
308.2487690564328
1001
AcDbBlockRepETag
1070
     1
1071
       85
1005
DC3
  0
ARC
  5
DC4
330
AF3
100
AcDbEntity
  8
0
  6
Continuous
 62
     7
370
    15
100
AcDbCircle
 10
1663.879718622371
 20
1355.734081361084
 30
0.0
 40
0.1746775887357251
100
AcDbArc
 50
307.0957294147905
 51
338.0200601533037
1001
AcDbBlockRepETag
1070
     1
1071
       86
1005
DC4
  0
LINE
  5
DC5
330
AF3
100
AcDbEntity
  8
0
  6
Continuous
 62
     7
370
    15
100
AcDbLine
 10
1664.19756927637
 20
1356.01491269984
 30
0.0
 11
1664.041699762428
 21
1355.668702692757
 31
0.0
1001
AcDbBlockRepETag
1070
     1
1071
       87
1005
DC5
  0
LWPOLYLINE
  5
DC6
330
AF3
100
AcDbEntity
  8
0
  6
Continuous
 62
     7
370
    15
100
AcDbPolyline
 90
        9
 70
   128
 43
0.0
 10
1664.19756927637
 20
1356.01491269984
 10
1664.212977730975
 20
1356.044757057726
 10
1664.230581782289
 20
1356.070887873884
 10
1664.249705537603
 20
1356.092301023661
 10
1664.269613895985
 20
1356.108173681507
 10
1664.289541765534
 20
1356.117895626644
 10
1664.308723303103
 20
1356.121093460746
 10
1664.326421454392
 20
1356.117644156042
 10
1664.341955920691
 20
1356.107680490098
1001
AcDbBlockRepETag
1070
     1
1071
       88
1005
DC6
  0
LINE
  5
DC7
330
AF3
100
AcDbEntity
  8
0
  6
Continuous
 62
     7
370
    15
100
AcDbLine
 10
1664.499383381162
 20
1355.962762424854
 30
0.0
 11
1664.341955920691
 21
1356.107680490098
 31
0.0
1001
AcDbBlockRepETag
1070
     1
1071
       89
1005
DC7
  0
LWPOLYLINE
  5
DC8
330
AF3
100
AcDbEntity
  8
0
  6
Continuous
 62
     7
370
    15
100
AcDbPolyline
 90
        9
 70
   128
 43
0.0
 10
1664.614892643424
 20
1356.036976622883
 10
1664.602566146506
 20
1356.013101057295
 10
1664.588482692147
 20
1355.992196434437
 10
1664.573183687632
 20
1355.975065998003
 10
1664.557257107579
 20
1355.962367856692
 10
1664.541314918064
 20
1355.954590452326
 10
1664.525969688274
 20
1355.952032101656
 10
1664.511811167772
 20
1355.954791378643
 10
1664.499383381162
 20
1355.962762424854
1001
AcDbBlockRepETag
1070
     1
1071
       90
1005
DC8
  0
LINE
  5
DC9
330
AF3
100
AcDbEntity
  8
0
  6
Continuous
 62
     7
370
    15
100
AcDbLine
 10
1664.770762423338
 20
1356.383186800852
 30
0.0
 11
1664.614892643424
 21
1356.036976622883
 31
0.0
1001
AcDbBlockRepETag
1070
     1
1071
       91
1005
DC9
  0
LWPOLYLINE
  5
DCA
330
AF3
100
AcDbEntity
  8
0
  6
Continuous
 62
     7
370
    15
100
AcDbPolyline
 90
        9
 70
   128
 43
0.0
 10
1664.770762423338
 20
1356.383186800852
 10
1664.786170611971
 20
1356.413030987852
 10
1664.803774929257
 20
1356.439161974895
 10
1664.82289868457
 20
1356.460575124673
 10
1664.842806776981
 20
1356.476447611633
 10
1664.86273464653
 20
1356.48616955677
 10
1664.881916184099
 20
1356.489367390872
 10
1664.899614335388
 20
1356.485918086167
 10
1664.915148801686
 20
1356.475954420224
1001
AcDbBlockRepETag
1070
     1
1071
       92
1005
DCA
  0
LINE
  5
DCB
330
AF3
100
AcDbEntity
  8
0
  6
Continuous
 62
     7
370
    15
100
AcDbLine
 10
1665.07257652813
 20
1356.331036525865
 30
0.0
 11
1664.915148801686
 21
1356.475954420224
 31
0.0
1001
AcDbBlockRepETag
1070
     1
1071
       93
1005
DCB
  0
LWPOLYLINE
  5
DCC
330
AF3
100
AcDbEntity
  8
0
  6
Continuous
 62
     7
370
    15
100
AcDbPolyline
 90
        9
 70
   128
 43
0.0
 10
1665.188085790392
 20
1356.405250723894
 10
1665.175759027501
 20
1356.381374987421
 10
1665.161675573143
 20
1356.360470364563
 10
1665.146376568628
 20
1356.343339928129
 10
1665.130449988575
 20
1356.330641786818
 10
1665.11450779906
 20
1356.322864382451
 10
1665.09916256927
 20
1356.320306031781
 10
1665.085004048768
 20
1356.323065308769
 10
1665.07257652813
 20
1356.331036525865
1001
AcDbBlockRepETag
1070
     1
1071
       94
1005
DCC
  0
LINE
  5
DCD
330
AF3
100
AcDbEntity
  8
0
  6
Continuous
 62
     7
370
    15
100
AcDbLine
 10
1665.343955304333
 20
1356.751460730977
 30
0.0
 11
1665.188085790392
 21
1356.405250723894
 31
0.0
1001
AcDbBlockRepETag
1070
     1
1071
       95
1005
DCD
  0
LWPOLYLINE
  5
DCE
330
AF3
100
AcDbEntity
  8
0
  6
Continuous
 62
     7
370
    15
100
AcDbPolyline
 90
        9
 70
   128
 43
0.0
 10
1665.343955304333
 20
1356.751460730977
 10
1665.359363492967
 20
1356.781304917977
 10
1665.376967810253
 20
1356.807435905021
 10
1665.396091565566
 20
1356.828849054798
 10
1665.415999923948
 20
1356.844721712644
 10
1665.435927793497
 20
1356.854443657781
 10
1665.455109331066
 20
1356.857641491883
 10
1665.472807216383
 20
1356.854192016293
 10
1665.488341948654
 20
1356.844228521235
1001
AcDbBlockRepETag
1070
     1
1071
       96
1005
DCE
  0
LINE
  5
DCF
330
AF3
100
AcDbEntity
  8
0
  6
Continuous
 62
     7
370
    15
100
AcDbLine
 10
1665.645769409125
 20
1356.69931045599
 30
0.0
 11
1665.488341948654
 21
1356.844228521235
 31
0.0
1001
AcDbBlockRepETag
1070
     1
1071
       97
1005
DCF
  0
LWPOLYLINE
  5
DD0
330
AF3
100
AcDbEntity
  8
0
  6
Continuous
 62
     7
370
    15
100
AcDbPolyline
 90
        9
 70
   128
 43
0.0
 10
1665.761278671387
 20
1356.77352465402
 10
1665.748951908497
 20
1356.749648917546
 10
1665.734868720111
 20
1356.728744465574
 10
1665.719569715596
 20
1356.71161402914
 10
1665.703642869571
 20
1356.698915716944
 10
1665.687700680056
 20
1356.691138312577
 10
1665.672355450266
 20
1356.688579961907
 10
1665.658196929763
 20
1356.691339238894
 10
1665.645769409125
 20
1356.69931045599
1001
AcDbBlockRepETag
1070
     1
1071
       98
1005
DD0
  0
LINE
  5
DD1
330
AF3
100
AcDbEntity
  8
0
  6
Continuous
 62
     7
370
    15
100
AcDbLine
 10
1665.761278671387
 20
1356.77352465402
 30
0.0
 11
1665.810556659192
 21
1356.882978594534
 31
0.0
1001
AcDbBlockRepETag
1070
     1
1071
       99
1005
DD1
  0
LINE
  5
DD2
330
AF3
100
AcDbEntity
  8
0
  6
Continuous
 62
     7
370
    15
100
AcDbLine
 10
1665.793270938959
 20
1362.332140228276
 30
0.0
 11
1665.810556659192
 21
1356.882978594534
 31
0.0
1001
AcDbBlockRepETag
1070
     1
1071
      100
1005
DD2
  0
LWPOLYLINE
  5
DD3
330
AF3
100
AcDbEntity
  8
0
  6
Continuous
 62
     7
370
    15
100
AcDbPolyline
 90
        9
 70
   128
 43
0.0
 10
1665.793270938959
 20
1362.332140228276
 10
1665.789149223982
 20
1362.392067065678
 10
1665.777338955072
 20
1362.444649237333
 10
1665.758294018613
 20
1362.487866309478
 10
1665.732745936373
 20
1362.520056713464
 10
1665.701677003776
 20
1362.53998404535
 10
1665.666280701198
 20
1362.54688265476
 10
1665.62791762606
 20
1362.540486986555
 10
1665.588061886962
 20
1362.521043096282
1001
AcDbBlockRepETag
1070
     1
1071
      101
1005
DD3
  0
LINE
  5
DD4
330
AF3
100
AcDbEntity
  8
0
  6
Continuous
 62
     7
370
    15
100
AcDbLine
 10
1665.588061886962
 20
1362.521043096282
 30
0.0
 11
1665.060061378795
 21
1362.181805068912
 31
0.0
1001
AcDbBlockRepETag
1070
     1
1071
      102
1005
DD4
  0
ARC
  5
DD5
330
AF3
100
AcDbEntity
  8
0
  6
Continuous
 62
     7
370
    15
100
AcDbCircle
 10
1665.317361000278
 20
1361.834123855459
 30
0.0
 40
0.4325336072537948
100
AcDbArc
 50
126.5030940861053
 51
158.1243400319659
1001
AcDbBlockRepETag
1070
     1
1071
      103
1005
DD5
  0
LINE
  5
DD6
330
AF3
100
AcDbEntity
  8
0
  6
Continuous
 62
     7
370
    15
100
AcDbLine
 10
1664.915972139565
 20
1361.995283105579
 30
0.0
 11
1664.691032301182
 21
1361.495657354075
 31
0.0
1001
AcDbBlockRepETag
1070
     1
1071
      104
1005
DD6
  0
LINE
  5
DD7
330
AF3
100
AcDbEntity
  8
0
  6
Continuous
 62
     7
370
    15
100
AcDbLine
 10
1664.691032301182
 20
1361.495657354075
 30
0.0
 11
1657.917956293654
 21
1357.608401664794
 31
0.0
1001
AcDbBlockRepETag
1070
     1
1071
      105
1005
DD7
  0
LINE
  5
DD8
330
AF3
100
AcDbEntity
  8
0
  6
Continuous
 62
     7
370
    15
100
AcDbLine
 10
1657.917956293654
 20
1357.608401664794
 30
0.0
 11
1657.69050557572
 21
1357.850065590274
 31
0.0
1001
AcDbBlockRepETag
1070
     1
1071
      106
1005
DD8
  0
LINE
  5
DD9
330
AF3
100
AcDbEntity
  8
0
  6
Continuous
 62
     7
370
    15
100
AcDbLine
 10
1656.83201020729
 20
1366.194571316778
 30
0.0
 11
1657.69050557572
 21
1357.850065590274
 31
0.0
1001
AcDbBlockRepETag
1070
     1
1071
      107
1005
DD9
  0
LINE
  5
DDA
330
AF3
100
AcDbEntity
  8
0
  6
Continuous
 62
     7
370
    15
100
AcDbLine
 10
1655.190357210803
 20
1366.699092111082
 30
0.0
 11
1656.048852579232
 21
1358.354586384578
 31
0.0
1001
AcDbBlockRepETag
1070
     1
1071
      108
1005
DDA
  0
LINE
  5
DDB
330
AF3
100
AcDbEntity
  8
0
  6
Continuous
 62
     7
370
    15
100
AcDbLine
 10
1657.69050557572
 20
1357.850065590274
 30
0.0
 11
1656.048852579232
 21
1358.354586384578
 31
0.0
1001
AcDbBlockRepETag
1070
     1
1071
      109
1005
DDB
  0
LINE
  5
DDC
330
AF3
100
AcDbEntity
  8
0
  6
Continuous
 62
     7
370
    15
100
AcDbLine
 10
1655.992952380092
 20
1367.53063252762
 30
0.0
 11
1655.330162828588
 21
1367.104793126833
 31
0.0
1001
AcDbBlockRepETag
1070
     1
1071
      110
1005
DDC
  0
LINE
  5
DDD
330
AF3
100
AcDbEntity
  8
0
  6
Continuous
 62
     7
370
    15
100
AcDbLine
 10
1657.380710020506
 20
1368.079324800224
 30
0.0
 11
1658.657009311596
 21
1367.687086286063
 31
0.0
1001
AcDbBlockRepETag
1070
     1
1071
      111
1005
DDD
  0
LINE
  5
DDE
330
AF3
100
AcDbEntity
  8
0
  6
Continuous
 62
     7
370
    15
100
AcDbLine
 10
1648.345195944095
 20
1371.551496053919
 30
0.0
 11
1648.912499627671
 21
1372.006317565259
 31
0.0
1001
AcDbBlockRepETag
1070
     1
1071
      112
1005
DDE
  0
LINE
  5
DDF
330
AF3
100
AcDbEntity
  8
0
  6
Continuous
 62
     7
370
    15
100
AcDbLine
 10
1657.284929336419
 20
1369.433261690513
 30
0.0
 11
1648.912499627671
 21
1372.006317565259
 31
0.0
1001
AcDbBlockRepETag
1070
     1
1071
      113
1005
DDF
  0
LINE
  5
DE0
330
AF3
100
AcDbEntity
  8
0
  6
Continuous
 62
     7
370
    15
100
AcDbLine
 10
1656.717625652843
 20
1368.978440179173
 30
0.0
 11
1657.284929336419
 21
1369.433261690513
 31
0.0
1001
AcDbBlockRepETag
1070
     1
1071
      114
1005
DE0
  0
LINE
  5
DE1
330
AF3
100
AcDbEntity
  8
0
  6
Continuous
 62
     7
370
    15
100
AcDbLine
 10
1648.345195944095
 20
1371.551496053919
 30
0.0
 11
1656.717625652843
 21
1368.978440179173
 31
0.0
1001
AcDbBlockRepETag
1070
     1
1071
      115
1005
DE1
  0
LINE
  5
DE2
330
AF3
100
AcDbEntity
  8
0
  6
Continuous
 62
     7
370
    15
100
AcDbLine
 10
1657.405731975402
 20
1367.725618720994
 30
0.0
 11
1657.284929336419
 21
1369.433261690513
 31
0.0
1001
AcDbBlockRepETag
1070
     1
1071
      116
1005
DE2
  0
LINE
  5
DE3
330
AF3
100
AcDbEntity
  8
0
  6
Continuous
 62
     7
370
    15
100
AcDbLine
 10
1657.405731975402
 20
1367.725618720994
 30
0.0
 11
1656.838427227938
 21
1367.270796526111
 31
0.0
1001
AcDbBlockRepETag
1070
     1
1071
      117
1005
DE3
  0
LINE
  5
DE4
330
AF3
100
AcDbEntity
  8
0
  6
Continuous
 62
     7
370
    15
100
AcDbLine
 10
1656.717625652843
 20
1368.978440179173
 30
0.0
 11
1656.838427227938
 21
1367.270796526111
 31
0.0
1001
AcDbBlockRepETag
1070
     1
1071
      118
1005
DE4
  0
LINE
  5
DE5
330
AF3
100
AcDbEntity
  8
0
  6
Continuous
 62
     7
370
    15
100
AcDbLine
 10
1655.631980590429
 20
1367.298709166499
 30
0.0
 11
1655.607187432794
 21
1367.649187136521
 31
0.0
1001
AcDbBlockRepETag
1070
     1
1071
      119
1005
DE5
  0
LINE
  5
DE6
330
AF3
100
AcDbEntity
  8
0
  6
Continuous
 62
     7
370
    15
100
AcDbLine
 10
1650.292881517644
 20
1361.045472247804
 30
0.0
 11
1649.697236645437
 21
1369.465461996014
 31
0.0
1001
AcDbBlockRepETag
1070
     1
1071
      120
1005
DE6
  0
LINE
  5
DE7
330
AF3
100
AcDbEntity
  8
0
  6
Continuous
 62
     7
370
    15
100
AcDbLine
 10
1649.697236645437
 20
1369.465461996014
 30
0.0
 11
1648.46599751919
 21
1369.843852400857
 31
0.0
1001
AcDbBlockRepETag
1070
     1
1071
      121
1005
DE7
  0
LINE
  5
DE8
330
AF3
100
AcDbEntity
  8
0
  6
Continuous
 62
     7
370
    15
100
AcDbLine
 10
1648.46599751919
 20
1369.843852400857
 30
0.0
 11
1648.345195944095
 21
1371.551496053919
 31
0.0
1001
AcDbBlockRepETag
1070
     1
1071
      122
1005
DE8
  0
LINE
  5
DE9
330
AF3
100
AcDbEntity
  8
0
  6
Continuous
 62
     7
370
    15
100
AcDbLine
 10
1656.838427227938
 20
1367.270796526111
 30
0.0
 11
1655.607187432794
 21
1367.649187136521
 31
0.0
1001
AcDbBlockRepETag
1070
     1
1071
      123
1005
DE9
  0
ARC
  5
DEA
330
AF3
100
AcDbEntity
  8
0
  6
Continuous
 62
     7
370
    15
100
AcDbCircle
 10
1650.117161041124
 20
1370.662761196134
 30
0.0
 40
1.37537118615409
100
AcDbArc
 50
70.75528176499982
 51
120.7264535558616
1001
AcDbBlockRepETag
1070
     1
1071
      124
1005
DEA
  0
LINE
  5
DEB
330
AF3
100
AcDbEntity
  8
0
  6
Continuous
 62
     7
370
    15
100
AcDbLine
 10
1656.8908520564
 20
1370.01887087179
 30
0.0
 11
1650.570488354371
 21
1371.961275827075
 31
0.0
1001
AcDbBlockRepETag
1070
     1
1071
      125
1005
DEB
  0
LWPOLYLINE
  5
DEC
330
AF3
100
AcDbEntity
  8
0
  6
Continuous
 62
     7
370
    15
100
AcDbPolyline
 90
       32
 70
   128
 43
0.0
 10
1660.882841711846
 20
1373.987011857336
 10
1660.882227610224
 20
1373.960710255328
 10
1660.862166019325
 20
1373.842495166038
 10
1660.814012589999
 20
1373.725827751768
 10
1660.738312961016
 20
1373.612029552644
 10
1660.635925144503
 20
1373.50239027562
 10
1660.508009665666
 20
1373.398152383106
 10
1660.356014625232
 20
1373.300496231475
 10
1660.181663522008
 20
1373.210529161206
 10
1659.986930783446
 20
1373.129269775378
 10
1659.774023622284
 20
1373.057639368544
 10
1659.545353620654
 20
1372.996448933827
 10
1659.30351174803
 20
1372.946392188237
 10
1659.051239082219
 20
1372.908036381789
 10
1658.791393201672
 20
1372.881815952683
 10
1658.526917810848
 20
1372.868027715148
 10
1658.260811053318
 20
1372.866828471581
 10
1657.996086470097
 20
1372.878231348223
 10
1657.735744529936
 20
1372.902107471099
 10
1657.482733871226
 20
1372.938185751303
 10
1657.239922733618
 20
1372.986058128012
 10
1657.010060948518
 20
1373.045181649983
 10
1656.79575409735
 20
1373.114886922605
 10
1656.599429142866
 20
1373.194383617742
 10
1656.423311014621
 20
1373.282771206357
 10
1656.269395920003
 20
1373.379048676454
 10
1656.139426333886
 20
1373.48212424038
 10
1656.034876709955
 20
1373.590830841626
 10
1655.956929916472
 20
1373.703936428203
 10
1655.906470044334
 20
1373.820159299453
 10
1655.88406796868
 20
1373.938183153593
 10
1655.882867106597
 20
1373.971151028467
1001
AcDbBlockRepETag
1070
     1
1071
      126
1005
DEC
  0
LINE
  5
DED
330
AF3
100
AcDbEntity
  8
0
  6
Continuous
 62
     7
370
    15
100
AcDbLine
 10
1662.869980734291
 20
1377.0188163065
 30
0.0
 11
1666.195220863031
 21
1375.996887315056
 31
0.0
1001
AcDbBlockRepETag
1070
     1
1071
      127
1005
DED
  0
ARC
  5
DEE
330
AF3
100
AcDbEntity
  8
0
  6
Continuous
 62
     7
370
    15
100
AcDbCircle
 10
1658.624825804468
 20
1384.159964565159
 30
0.0
 40
7.996839928067413
100
AcDbArc
 50
280.5348365485689
 51
283.3806124389464
1001
AcDbBlockRepETag
1070
     1
1071
      128
1005
DEE
  0
SPLINE
  5
DEF
330
AF3
100
AcDbEntity
  8
0
  6
Continuous
 62
     7
370
    15
100
AcDbSpline
210
0.0
220
0.0
230
1.0
 70
     8
 71
     3
 72
    12
 73
     8
 74
     0
 42
0.0000000001
 43
0.0000000001
 40
0.0
 40
0.0
 40
0.0
 40
0.0
 40
0.5
 40
0.5
 40
0.75
 40
0.75
 40
1.0
 40
1.0
 40
1.0
 40
1.0
 10
1660.086914432874
 20
1376.297920464472
 30
0.0
 10
1659.413398257016
 20
1376.481497844573
 30
0.0
 10
1658.732108700437
 20
1376.603307110461
 30
0.0
 10
1657.691890381413
 20
1376.640734516239
 30
0.0
 10
1657.342089454373
 20
1376.629077612528
 30
0.0
 10
1656.655096113381
 20
1376.563708326065
 30
0.0
 10
1656.315400685743
 20
1376.510433671771
 30
0.0
 10
1655.978479366297
 20
1376.442132637802
 30
0.0
1001
AcDbBlockRepETag
1070
     1
1071
      129
1005
DEF
  0
ARC
  5
DF0
330
AF3
100
AcDbEntity
  8
0
  6
Continuous
 62
     7
370
    15
100
AcDbCircle
 10
1657.680376372673
 20
1382.60734093799
 30
0.0
 40
6.395799818396644
100
AcDbArc
 50
251.2651008064641
 51
254.5679089125759
1001
AcDbBlockRepETag
1070
     1
1071
      130
1005
DF0
  0
SPLINE
  5
DF1
330
AF3
100
AcDbEntity
  8
0
  6
Continuous
 62
     7
370
    15
100
AcDbSpline
210
0.0
220
0.0
230
1.0
 70
     8
 71
     3
 72
    12
 73
     8
 74
     0
 42
0.0000000001
 43
0.0000000001
 40
0.0
 40
0.0
 40
0.0
 40
0.0
 40
0.499999999999999
 40
0.499999999999999
 40
0.7499999999999995
 40
0.7499999999999995
 40
1.0
 40
1.0
 40
1.0
 40
1.0
 10
1655.626110234757
 20
1376.550424435468
 30
0.0
 10
1655.338369525828
 20
1376.981860873237
 30
0.0
 10
1655.047424040255
 20
1377.354464505007
 30
0.0
 10
1654.603467767901
 20
1377.774987679398
 30
0.0
 10
1654.45421981351
 20
1377.892185187323
 30
0.0
 10
1654.161180764241
 20
1378.079929817854
 30
0.0
 10
1654.01632077228
 20
1378.151836082621
 30
0.0
 10
1653.872671890353
 20
1378.207711748169
 30
0.0
1001
AcDbBlockRepETag
1070
     1
1071
      131
1005
DF1
  0
ARC
  5
DF2
330
AF3
100
AcDbEntity
  8
0
  6
Continuous
 62
     7
370
    15
100
AcDbCircle
 10
1654.803904239207
 20
1378.129735272457
 30
0.0
 40
0.9344908988184506
100
AcDbArc
 50
163.2989202643731
 51
175.2135515592088
1001
AcDbBlockRepETag
1070
     1
1071
      132
1005
DF2
  0
SPLINE
  5
DF3
330
AF3
100
AcDbEntity
  8
0
  6
Continuous
 62
     7
370
    15
100
AcDbSpline
210
0.0
220
0.0
230
1.0
 70
     8
 71
     3
 72
     8
 73
     4
 74
     0
 42
0.0000000001
 43
0.0000000001
 40
0.0
 40
0.0
 40
0.0
 40
0.0
 40
1.0
 40
1.0
 40
1.0
 40
1.0
 10
1653.908832787772
 20
1378.398288682463
 30
0.0
 10
1654.173408436079
 20
1378.678346527336
 30
0.0
 10
1654.441341247006
 20
1378.932514203203
 30
0.0
 10
1654.714336377171
 20
1379.147641678015
 30
0.0
1001
AcDbBlockRepETag
1070
     1
1071
      133
1005
DF3
  0
SPLINE
  5
DF4
330
AF3
100
AcDbEntity
  8
0
  6
Continuous
 62
     7
370
    15
100
AcDbSpline
210
0.0
220
0.0
230
1.0
 70
     8
 71
     3
 72
     8
 73
     4
 74
     0
 42
0.0000000001
 43
0.0000000001
 40
0.0000000000000103
 40
0.0000000000000103
 40
0.0000000000000103
 40
0.0000000000000103
 40
0.0001778594872795
 40
0.0001778594872795
 40
0.0001778594872795
 40
0.0001778594872795
 10
1654.84094355673
 20
1379.187472970949
 30
0.0
 10
1654.798735568828
 20
1379.174208235061
 30
0.0
 10
1654.756533385405
 20
1379.160930668585
 30
0.0
 10
1654.714336377185
 20
1379.147641678017
 30
0.0
1001
AcDbBlockRepETag
1070
     1
1071
      134
1005
DF4
  0
LWPOLYLINE
  5
DF5
330
AF3
100
AcDbEntity
  8
0
  6
Continuous
 62
     7
370
    15
100
AcDbPolyline
 90
       34
 70
   128
 43
0.0
 10
1661.153840553302
 20
1377.247362621267
 10
1660.911867058307
 20
1377.145781884752
 10
1660.651507636717
 20
1377.053672817055
 10
1660.374644660767
 20
1376.97170135256
 10
1660.083279871402
 20
1376.900460362582
 10
1659.779518961551
 20
1376.840464288273
 10
1659.465558312715
 20
1376.792147153788
 10
1659.143667816826
 20
1376.755858245777
 10
1658.816174446695
 20
1376.731860089073
 10
1658.485446208683
 20
1376.720326304921
 10
1658.153873078951
 20
1376.721339890966
 10
1657.823852810013
 20
1376.734893541243
 10
1657.497771019729
 20
1376.760889197058
 10
1657.177985427549
 20
1376.799139354821
 10
1656.866807389635
 20
1376.849367182997
 10
1656.566486925076
 20
1376.91120960817
 10
1656.279194467652
 20
1376.984219386415
 10
1656.007008252339
 20
1377.067868979747
 10
1655.751895219823
 20
1377.161553898374
 10
1655.515699549686
 20
1377.264596224737
 10
1655.300128884363
 20
1377.37625137349
 10
1655.106741715644
 20
1377.495711967936
 10
1654.936936583658
 20
1377.622114696216
 10
1654.791939912522
 20
1377.754545565461
 10
1654.672801159374
 20
1377.892046950387
 10
1654.580380866666
 20
1378.03362480188
 10
1654.515347257307
 20
1378.178256261664
 10
1654.47817169899
 20
1378.324895098231
 10
1654.469121394271
 20
1378.472481532138
 10
1654.488262241062
 20
1378.619948430426
 10
1654.535455577484
 20
1378.766229380523
 10
1654.610360644268
 20
1378.910267533268
 10
1654.7124356169
 20
1379.051021348719
 10
1654.840943657782
 20
1379.187472841209
1001
AcDbBlockRepETag
1070
     1
1071
      135
1005
DF5
  0
SPLINE
  5
DF6
330
AF3
100
AcDbEntity
  8
0
  6
Continuous
 62
     7
370
    15
100
AcDbSpline
210
0.0
220
0.0
230
1.0
 70
     8
 71
     3
 72
     8
 73
     4
 74
     0
 42
0.0000000001
 43
0.0000000001
 40
0.000000000000008
 40
0.000000000000008
 40
0.000000000000008
 40
0.000000000000008
 40
0.0001778594872915
 40
0.0001778594872915
 40
0.0001778594872915
 40
0.0001778594872915
 10
1661.280948051214
 20
1377.129558596661
 30
0.0
 10
1661.238584295436
 20
1377.168835213063
 30
0.0
 10
1661.196215426904
 20
1377.208103567118
 30
0.0
 10
1661.153840824047
 20
1377.247362636746
 30
0.0
1001
AcDbBlockRepETag
1070
     1
1071
      136
1005
DF6
  0
SPLINE
  5
DF7
330
AF3
100
AcDbEntity
  8
0
  6
Continuous
 62
     7
370
    15
100
AcDbSpline
210
0.0
220
0.0
230
1.0
 70
     8
 71
     3
 72
     8
 73
     4
 74
     0
 42
0.0000000001
 43
0.0000000001
 40
0.0
 40
0.0
 40
0.0
 40
0.0
 40
1.0
 40
1.0
 40
1.0
 40
1.0
 10
1660.475444461841
 20
1376.380205601107
 30
0.0
 10
1660.740020110158
 20
1376.66026344599
 30
0.0
 10
1661.00795292105
 20
1376.914431121831
 30
0.0
 10
1661.280948051227
 20
1377.129558596652
 30
0.0
1001
AcDbBlockRepETag
1070
     1
1071
      137
1005
DF7
  0
LINE
  5
DF8
330
AF3
100
AcDbEntity
  8
0
  6
Continuous
 62
     7
370
    15
100
AcDbLine
 10
1660.094451577283
 20
1373.921965366176
 30
0.0
 11
1660.086914622163
 21
1376.297919975849
 31
0.0
1001
AcDbBlockRepETag
1070
     1
1071
      138
1005
DF8
  0
LINE
  5
DF9
330
AF3
100
AcDbEntity
  8
0
  6
Continuous
 62
     7
370
    15
100
AcDbLine
 10
1655.98601618948
 20
1374.066177374226
 30
0.0
 11
1660.094451577283
 21
1373.921965366176
 31
0.0
1001
AcDbBlockRepETag
1070
     1
1071
      139
1005
DF9
  0
LINE
  5
DFA
330
AF3
100
AcDbEntity
  8
0
  6
Continuous
 62
     7
370
    15
100
AcDbLine
 10
1655.97847923436
 20
1376.442131983899
 30
0.0
 11
1655.98601618948
 21
1374.066177374226
 31
0.0
1001
AcDbBlockRepETag
1070
     1
1071
      140
1005
DFA
  0
LINE
  5
DFB
330
AF3
100
AcDbEntity
  8
0
  6
Continuous
 62
     7
370
    15
100
AcDbLine
 10
1657.463854857795
 20
1378.381386996728
 30
0.0
 11
1656.635657827935
 21
1377.849274011349
 31
0.0
1001
AcDbBlockRepETag
1070
     1
1071
      141
1005
DFB
  0
LINE
  5
DFC
330
AF3
100
AcDbEntity
  8
0
  6
Continuous
 62
     7
370
    15
100
AcDbLine
 10
1656.635657827935
 20
1377.849274011349
 30
0.0
 11
1657.702731941204
 21
1377.521335597836
 31
0.0
1001
AcDbBlockRepETag
1070
     1
1071
      142
1005
DFC
  0
LINE
  5
DFD
330
AF3
100
AcDbEntity
  8
0
  6
Continuous
 62
     7
370
    15
100
AcDbLine
 10
1657.702731941204
 20
1377.521335597836
 30
0.0
 11
1658.530928971063
 21
1378.053448583215
 31
0.0
1001
AcDbBlockRepETag
1070
     1
1071
      143
1005
DFD
  0
LINE
  5
DFE
330
AF3
100
AcDbEntity
  8
0
  6
Continuous
 62
     7
370
    15
100
AcDbLine
 10
1658.530928971063
 20
1378.053448583215
 30
0.0
 11
1661.153840553302
 21
1377.247362621267
 31
0.0
1001
AcDbBlockRepETag
1070
     1
1071
      144
1005
DFE
  0
LINE
  5
DFF
330
AF3
100
AcDbEntity
  8
0
  6
Continuous
 62
     7
370
    15
100
AcDbLine
 10
1654.840943657782
 20
1379.187472841209
 30
0.0
 11
1657.463854857795
 21
1378.381386996728
 31
0.0
1001
AcDbBlockRepETag
1070
     1
1071
      145
1005
DFF
  0
LINE
  5
E00
330
AF3
100
AcDbEntity
  8
0
  6
Continuous
 62
     7
370
    15
100
AcDbLine
 10
1647.126198283315
 20
1369.626075467056
 30
0.0
 11
1648.422485353858
 21
1370.458934265321
 31
0.0
1001
AcDbBlockRepETag
1070
     1
1071
      146
1005
E00
  0
ELLIPSE
  5
E01
330
AF3
100
AcDbEntity
  8
0
  6
Continuous
 62
     7
370
    15
100
AcDbEllipse
 10
1648.827110497899
 20
1368.912186491775
 30
0.0
 11
0.9357147906137159
 21
2.449303144935754
 31
0.0
210
0.0
220
0.0
230
1.0
 40
0.7033531169407176
 41
1.54796265097702
 42
1.617786815960385
1001
AcDbBlockRepETag
1070
     1
1071
      147
1005
E01
  0
LINE
  5
E02
330
AF3
100
AcDbEntity
  8
0
  6
Continuous
 62
     7
370
    15
100
AcDbLine
 10
1660.475444308402
 20
1376.380204929539
 30
0.0
 11
1660.482981263521
 21
1374.004250319866
 31
0.0
1001
AcDbBlockRepETag
1070
     1
1071
      148
1005
E02
  0
ARC
  5
E03
330
AF3
100
AcDbEntity
  8
0
  6
Continuous
 62
     7
370
    15
100
AcDbCircle
 10
1658.632362759591
 20
1381.784009955471
 30
0.0
 40
7.996839928051334
100
AcDbArc
 50
280.5348365485689
 51
283.3806124389464
1001
AcDbBlockRepETag
1070
     1
1071
      149
1005
E03
  0
LINE
  5
E04
330
AF3
100
AcDbEntity
  8
0
  6
Continuous
 62
     7
370
    15
100
AcDbLine
 10
1661.283538003545
 20
1376.313002267988
 30
0.0
 11
1661.280947742788
 21
1377.129557745284
 31
0.0
1001
AcDbBlockRepETag
1070
     1
1071
      150
1005
E04
  0
LINE
  5
E05
330
AF3
100
AcDbEntity
  8
0
  6
Continuous
 62
     7
370
    15
100
AcDbLine
 10
1661.283538003545
 20
1376.313002267988
 30
0.0
 11
1662.026060120592
 21
1376.790069494949
 31
0.0
1001
AcDbBlockRepETag
1070
     1
1071
      151
1005
E05
  0
LINE
  5
E06
330
AF3
100
AcDbEntity
  8
0
  6
Continuous
 62
     7
370
    15
100
AcDbLine
 10
1662.023469859836
 20
1377.606624972244
 30
0.0
 11
1662.026060120592
 21
1376.790069494949
 31
0.0
1001
AcDbBlockRepETag
1070
     1
1071
      152
1005
E06
  0
SPLINE
  5
E07
330
AF3
100
AcDbEntity
  8
0
  6
Continuous
 62
     7
370
    15
100
AcDbSpline
210
0.0
220
0.0
230
1.0
 70
     8
 71
     3
 72
     8
 73
     4
 74
     0
 42
0.0000000001
 43
0.0000000001
 40
0.0
 40
0.0
 40
0.0
 40
0.0
 40
1.0
 40
1.0
 40
1.0
 40
1.0
 10
1662.830441183976
 20
1377.893280740471
 30
0.0
 10
1662.565168637812
 20
1377.832913427569
 30
0.0
 10
1662.296716508188
 20
1377.742456114771
 30
0.0
 10
1662.023469833783
 20
1377.606625608704
 30
0.0
1001
AcDbBlockRepETag
1070
     1
1071
      153
1005
E07
  0
LINE
  5
E08
330
AF3
100
AcDbEntity
  8
0
  6
Continuous
 62
     7
370
    15
100
AcDbLine
 10
1662.837978009632
 20
1375.517325474631
 30
0.0
 11
1662.830441054512
 21
1377.893280084304
 31
0.0
1001
AcDbBlockRepETag
1070
     1
1071
      154
1005
E08
  0
LINE
  5
E09
330
AF3
100
AcDbEntity
  8
0
  6
Continuous
 62
     7
370
    15
100
AcDbLine
 10
1660.482981263521
 20
1374.004250319866
 30
0.0
 11
1662.837978009632
 21
1375.517325474631
 31
0.0
1001
AcDbBlockRepETag
1070
     1
1071
      155
1005
E09
  0
LINE
  5
E0A
330
AF3
100
AcDbEntity
  8
0
  6
Continuous
 62
     7
370
    15
100
AcDbLine
 10
1655.633647136393
 20
1374.174469147781
 30
0.0
 11
1655.626110181273
 21
1376.550423757454
 31
0.0
1001
AcDbBlockRepETag
1070
     1
1071
      156
1005
E0A
  0
ARC
  5
E0B
330
AF3
100
AcDbEntity
  8
0
  6
Continuous
 62
     7
370
    15
100
AcDbCircle
 10
1657.687913327811
 20
1380.231386328377
 30
0.0
 40
6.395799818459776
100
AcDbArc
 50
251.2651008064807
 51
254.5679089125473
1001
AcDbBlockRepETag
1070
     1
1071
      157
1005
E0B
  0
LINE
  5
E0C
330
AF3
100
AcDbEntity
  8
0
  6
Continuous
 62
     7
370
    15
100
AcDbLine
 10
1660.702813888604
 20
1359.20670858984
 30
0.0
 11
1660.307552001624
 21
1357.868015701586
 31
0.0
1001
AcDbBlockRepETag
1070
     1
1071
      158
1005
E0C
  0
LINE
  5
E0D
330
AF3
100
AcDbEntity
  8
0
  6
Continuous
 62
     7
370
    15
100
AcDbLine
 10
1661.127136456749
 20
1357.653437141937
 30
0.0
 11
1660.307552001624
 21
1357.868015701586
 31
0.0
1001
AcDbBlockRepETag
1070
     1
1071
      159
1005
E0D
  0
LINE
  5
E0E
330
AF3
100
AcDbEntity
  8
0
  6
Continuous
 62
     7
370
    15
100
AcDbLine
 10
1661.127136456749
 20
1357.653437141937
 30
0.0
 11
1660.390434268891
 21
1355.158337070953
 31
0.0
1001
AcDbBlockRepETag
1070
     1
1071
      160
1005
E0E
  0
LINE
  5
E0F
330
AF3
100
AcDbEntity
  8
0
  6
Continuous
 62
     7
370
    15
100
AcDbLine
 10
1657.638313834729
 20
1353.238107874216
 30
0.0
 11
1656.935998001224
 21
1353.301863641513
 31
0.0
1001
AcDbBlockRepETag
1070
     1
1071
      161
1005
E0F
  0
LINE
  5
E10
330
AF3
100
AcDbEntity
  8
0
  6
Continuous
 62
     7
370
    15
100
AcDbLine
 10
1656.83201931529
 20
1353.000099369794
 30
0.0
 11
1656.935998001224
 21
1353.301863641513
 31
0.0
1001
AcDbBlockRepETag
1070
     1
1071
      162
1005
E10
  0
LINE
  5
E11
330
AF3
100
AcDbEntity
  8
0
  6
Continuous
 62
     7
370
    15
100
AcDbLine
 10
1650.952362023488
 20
1348.550200535366
 30
0.0
 11
1649.829794057481
 21
1347.828955505322
 31
0.0
1001
AcDbBlockRepETag
1070
     1
1071
      163
1005
E11
  0
LINE
  5
E12
330
AF3
100
AcDbEntity
  8
0
  6
Continuous
 62
     7
370
    15
100
AcDbLine
 10
1649.624585538256
 20
1348.017858454512
 30
0.0
 11
1649.829794057481
 21
1347.828955505322
 31
0.0
1001
AcDbBlockRepETag
1070
     1
1071
      164
1005
E12
  0
LINE
  5
E13
330
AF3
100
AcDbEntity
  8
0
  6
Continuous
 62
     7
370
    15
100
AcDbLine
 10
1649.620879272956
 20
1349.186223926062
 30
0.0
 11
1649.624585538256
 21
1348.017858454512
 31
0.0
1001
AcDbBlockRepETag
1070
     1
1071
      165
1005
E13
  0
LINE
  5
E14
330
AF3
100
AcDbEntity
  8
0
  6
Continuous
 62
     7
370
    15
100
AcDbLine
 10
1649.843537303407
 20
1349.680781617191
 30
0.0
 11
1649.620879272956
 21
1349.186223926062
 31
0.0
1001
AcDbBlockRepETag
1070
     1
1071
      166
1005
E14
  0
LINE
  5
E15
330
AF3
100
AcDbEntity
  8
0
  6
Continuous
 62
     7
370
    15
100
AcDbLine
 10
1650.286598565581
 20
1350.026361948826
 30
0.0
 11
1649.843537303407
 21
1349.680781617191
 31
0.0
1001
AcDbBlockRepETag
1070
     1
1071
      167
1005
E15
  0
LINE
  5
E16
330
AF3
100
AcDbEntity
  8
0
  6
Continuous
 62
     7
370
    15
100
AcDbLine
 10
1650.430601482804
 20
1351.933860355029
 30
0.0
 11
1650.430611576315
 21
1351.930678470264
 31
0.0
1001
AcDbBlockRepETag
1070
     1
1071
      168
1005
E16
  0
LINE
  5
E17
330
AF3
100
AcDbEntity
  8
0
  6
Continuous
 62
     7
370
    15
100
AcDbLine
 10
1649.816977583544
 20
1351.623902080822
 30
0.0
 11
1650.430601482804
 21
1351.933860355029
 31
0.0
1001
AcDbBlockRepETag
1070
     1
1071
      169
1005
E17
  0
LINE
  5
E18
330
AF3
100
AcDbEntity
  8
0
  6
Continuous
 62
     7
370
    15
100
AcDbLine
 10
1649.612355600232
 20
1351.873232032179
 30
0.0
 11
1649.816977583544
 21
1351.623902080822
 31
0.0
1001
AcDbBlockRepETag
1070
     1
1071
      170
1005
E18
  0
LINE
  5
E19
330
AF3
100
AcDbEntity
  8
0
  6
Continuous
 62
     7
370
    15
100
AcDbLine
 10
1649.612355600232
 20
1351.873232032179
 30
0.0
 11
1649.606569147359
 21
1353.697357180794
 31
0.0
1001
AcDbBlockRepETag
1070
     1
1071
      171
1005
E19
  0
LINE
  5
E1A
330
AF3
100
AcDbEntity
  8
0
  6
Continuous
 62
     7
370
    15
100
AcDbLine
 10
1649.606569147359
 20
1353.697357180794
 30
0.0
 11
1651.459155005102
 21
1355.668422859615
 31
0.0
1001
AcDbBlockRepETag
1070
     1
1071
      172
1005
E1A
  0
LWPOLYLINE
  5
E1B
330
AF3
100
AcDbEntity
  8
0
  6
Continuous
 62
     7
370
    15
100
AcDbPolyline
 90
        9
 70
   128
 43
0.0
 10
1651.459155005102
 20
1355.668422859615
 10
1651.472240639715
 20
1355.680923000666
 10
1651.48556255924
 20
1355.690854300642
 10
1651.498893165677
 20
1355.698047132541
 10
1651.512004180954
 20
1355.702378224973
 10
1651.524671966358
 20
1355.703774079881
 10
1651.536679123666
 20
1355.702210330088
 10
1651.547819819872
 20
1355.697713489253
 10
1651.557904583945
 20
1355.690361109233
1001
AcDbBlockRepETag
1070
     1
1071
      173
1005
E1B
  0
LINE
  5
E1C
330
AF3
100
AcDbEntity
  8
0
  6
Continuous
 62
     7
370
    15
100
AcDbLine
 10
1651.690886879552
 20
1355.567945763566
 30
0.0
 11
1651.557904583945
 21
1355.690361109233
 31
0.0
1001
AcDbBlockRepETag
1070
     1
1071
      174
1005
E1C
  0
LINE
  5
E1D
330
AF3
100
AcDbEntity
  8
0
  6
Continuous
 62
     7
370
    15
100
AcDbLine
 10
1651.986710554648
 20
1355.965867078215
 30
0.0
 11
1651.882576829055
 21
1355.734569742322
 31
0.0
1001
AcDbBlockRepETag
1070
     1
1071
      175
1005
E1D
  0
LWPOLYLINE
  5
E1E
330
AF3
100
AcDbEntity
  8
0
  6
Continuous
 62
     7
370
    15
100
AcDbPolyline
 90
        9
 70
   128
 43
0.0
 10
1651.986710554648
 20
1355.965867078215
 10
1652.002119009253
 20
1355.9957114361
 10
1652.019723060568
 20
1356.021842252258
 10
1652.038846815881
 20
1356.043255402035
 10
1652.058755174263
 20
1356.059128059881
 10
1652.078683043813
 20
1356.068850005018
 10
1652.097864581381
 20
1356.072047839121
 10
1652.115562998642
 20
1356.068598705302
 10
1652.131097198969
 20
1356.058634868472
1001
AcDbBlockRepETag
1070
     1
1071
      176
1005
E1E
  0
LINE
  5
E1F
330
AF3
100
AcDbEntity
  8
0
  6
Continuous
 62
     7
370
    15
100
AcDbLine
 10
1652.186700363878
 20
1356.007450836388
 30
0.0
 11
1652.131097198969
 21
1356.058634868472
 31
0.0
1001
AcDbBlockRepETag
1070
     1
1071
      177
1005
E1F
  0
ARC
  5
E20
330
AF3
100
AcDbEntity
  8
0
  6
Continuous
 62
     7
370
    15
100
AcDbCircle
 10
1652.722804642063
 20
1356.292876982227
 30
0.0
 40
0.1623163015312328
100
AcDbArc
 50
123.7929092594934
 51
144.3870076429249
1001
AcDbBlockRepETag
1070
     1
1071
      178
1005
E20
  0
LINE
  5
E21
330
AF3
100
AcDbEntity
  8
0
  6
Continuous
 62
     7
370
    15
100
AcDbLine
 10
1650.391543247784
 20
1360.522338704774
 30
0.0
 11
1649.709691884555
 21
1360.13100546011
 31
0.0
1001
AcDbBlockRepETag
1070
     1
1071
      179
1005
E21
  0
LINE
  5
E22
330
AF3
100
AcDbEntity
  8
0
  6
Continuous
 62
     7
370
    15
100
AcDbLine
 10
1649.482241166622
 20
1360.37266938559
 30
0.0
 11
1649.709691884555
 21
1360.13100546011
 31
0.0
1001
AcDbBlockRepETag
1070
     1
1071
      180
1005
E22
  0
LINE
  5
E23
330
AF3
100
AcDbEntity
  8
0
  6
Continuous
 62
     7
370
    15
100
AcDbLine
 10
1649.482241166622
 20
1360.37266938559
 30
0.0
 11
1648.623745798192
 21
1368.717175112095
 31
0.0
1001
AcDbBlockRepETag
1070
     1
1071
      181
1005
E23
  0
LINE
  5
E24
330
AF3
100
AcDbEntity
  8
0
  6
Continuous
 62
     7
370
    15
100
AcDbLine
 10
1648.763551415977
 20
1369.122876127846
 30
0.0
 11
1648.623745798192
 21
1368.717175112095
 31
0.0
1001
AcDbBlockRepETag
1070
     1
1071
      182
1005
E24
  0
LINE
  5
E25
330
AF3
100
AcDbEntity
  8
0
  6
Continuous
 62
     7
370
    15
100
AcDbLine
 10
1648.763551415977
 20
1369.122876127846
 30
0.0
 11
1649.426340967481
 21
1369.548715528632
 31
0.0
1001
AcDbBlockRepETag
1070
     1
1071
      183
1005
E25
  0
LINE
  5
E26
330
AF3
100
AcDbEntity
  8
0
  6
Continuous
 62
     7
370
    15
100
AcDbLine
 10
1648.763551415977
 20
1369.122876127846
 30
0.0
 11
1647.126198283315
 21
1369.626075467056
 31
0.0
1001
AcDbBlockRepETag
1070
     1
1071
      184
1005
E26
  0
LINE
  5
E27
330
AF3
100
AcDbEntity
  8
0
  6
Continuous
 62
     7
370
    15
100
AcDbLine
 10
1646.98209261059
 20
1369.221695965132
 30
0.0
 11
1648.623745798192
 21
1368.717175112095
 31
0.0
1001
AcDbBlockRepETag
1070
     1
1071
      185
1005
E27
  0
LINE
  5
E28
330
AF3
100
AcDbEntity
  8
0
  6
Continuous
 62
     7
370
    15
100
AcDbLine
 10
1646.98209261059
 20
1369.221695965132
 30
0.0
 11
1647.062333748249
 21
1369.454546647217
 31
0.0
1001
AcDbBlockRepETag
1070
     1
1071
      186
1005
E28
  0
LINE
  5
E29
330
AF3
100
AcDbEntity
  8
0
  6
Continuous
 62
     7
370
    15
100
AcDbLine
 10
1653.872672262639
 20
1378.207711203307
 30
0.0
 11
1653.880209217758
 21
1375.831756593633
 31
0.0
1001
AcDbBlockRepETag
1070
     1
1071
      187
1005
E29
  0
LINE
  5
E2A
330
AF3
100
AcDbEntity
  8
0
  6
Continuous
 62
     7
370
    15
100
AcDbLine
 10
1653.880209217758
 20
1375.831756593633
 30
0.0
 11
1655.633647136393
 21
1374.174469147781
 31
0.0
1001
AcDbBlockRepETag
1070
     1
1071
      188
1005
E2A
  0
LINE
  5
E2B
330
AF3
100
AcDbEntity
  8
0
  6
Continuous
 62
     7
370
    15
100
AcDbLine
 10
1659.037414557927
 20
1378.495193387843
 30
0.0
 11
1658.209217262096
 21
1377.963080231579
 31
0.0
1001
AcDbBlockRepETag
1070
     1
1071
      189
1005
E2B
  0
LINE
  5
E2C
330
AF3
100
AcDbEntity
  8
0
  6
Continuous
 62
     7
370
    15
100
AcDbLine
 10
1659.27379373798
 20
1378.42254818698
 30
0.0
 11
1659.037414557927
 21
1378.495193387843
 31
0.0
1001
AcDbBlockRepETag
1070
     1
1071
      190
1005
E2C
  0
LINE
  5
E2D
330
AF3
100
AcDbEntity
  8
0
  6
Continuous
 62
     7
370
    15
100
AcDbLine
 10
1662.026060120592
 20
1376.790069494949
 30
0.0
 11
1661.281299014184
 21
1377.018953105417
 31
0.0
1001
AcDbBlockRepETag
1070
     1
1071
      191
1005
E2D
  0
LINE
  5
E2E
330
AF3
100
AcDbEntity
  8
0
  6
Continuous
 62
     7
370
    15
100
AcDbLine
 10
1658.209217262096
 20
1377.963080231579
 30
0.0
 11
1657.464456155687
 21
1378.191963842047
 31
0.0
1001
AcDbBlockRepETag
1070
     1
1071
      192
1005
E2E
  0
LINE
  5
E2F
330
AF3
100
AcDbEntity
  8
0
  6
Continuous
 62
     7
370
    15
100
AcDbLine
 10
1647.84058797902
 20
1360.877190238628
 30
0.0
 11
1646.98209261059
 21
1369.221695965132
 31
0.0
1001
AcDbBlockRepETag
1070
     1
1071
      193
1005
E2F
  0
LINE
  5
E30
330
AF3
100
AcDbEntity
  8
0
  6
Continuous
 62
     7
370
    15
100
AcDbLine
 10
1649.482241166622
 20
1360.37266938559
 30
0.0
 11
1647.84058797902
 21
1360.877190238628
 31
0.0
1001
AcDbBlockRepETag
1070
     1
1071
      194
1005
E30
  0
LINE
  5
E31
330
AF3
100
AcDbEntity
  8
0
  6
Continuous
 62
     7
370
    15
100
AcDbLine
 10
1656.276303297166
 20
1358.112922459097
 30
0.0
 11
1657.917956293654
 21
1357.608401664794
 31
0.0
1001
AcDbBlockRepETag
1070
     1
1071
      195
1005
E31
  0
LINE
  5
E32
330
AF3
100
AcDbEntity
  8
0
  6
Continuous
 62
     7
370
    15
100
AcDbLine
 10
1656.276303297166
 20
1358.112922459097
 30
0.0
 11
1656.048852579232
 21
1358.354586384578
 31
0.0
1001
AcDbBlockRepETag
1070
     1
1071
      196
1005
E32
  0
LINE
  5
E33
330
AF3
100
AcDbEntity
  8
0
  6
Continuous
 62
     7
370
    15
100
AcDbLine
 10
1661.89636267035
 20
1377.724429848228
 30
0.0
 11
1659.273451088111
 21
1378.530515810176
 31
0.0
1001
AcDbBlockRepETag
1070
     1
1071
      197
1005
E33
  0
SPLINE
  5
E34
330
AF3
100
AcDbEntity
  8
0
  6
Continuous
 62
     7
370
    15
100
AcDbSpline
210
0.0
220
0.0
230
1.0
 70
     8
 71
     3
 72
     8
 73
     4
 74
     0
 42
0.0000000001
 43
0.0000000001
 40
0.0000000000000103
 40
0.0000000000000103
 40
0.0000000000000103
 40
0.0000000000000103
 40
0.0001778594872831
 40
0.0001778594872831
 40
0.0001778594872831
 40
0.0001778594872831
 10
1661.896362606609
 20
1377.724429648801
 30
0.0
 10
1661.938737209464
 20
1377.685170579174
 30
0.0
 10
1661.981106077993
 20
1377.645902225121
 30
0.0
 10
1662.023469833769
 20
1377.606625608722
 30
0.0
1001
AcDbBlockRepETag
1070
     1
1071
      198
1005
E34
  0
LINE
  5
E35
330
AF3
100
AcDbEntity
  8
0
  6
Continuous
 62
     7
370
    15
100
AcDbLine
 10
1659.273451088111
 20
1378.530515810176
 30
0.0
 11
1659.275690491752
 21
1377.824564757003
 31
0.0
1001
AcDbBlockRepETag
1070
     1
1071
      199
1005
E35
  0
ARC
  5
E36
330
AF3
100
AcDbEntity
  8
0
  6
Continuous
 62
     7
370
    15
100
AcDbCircle
 10
1659.059049257233
 20
1373.684721305552
 30
0.0
 40
6.395283052810102
100
AcDbArc
 50
71.26496732915223
 51
74.56804238988183
1001
AcDbBlockRepETag
1070
     1
1071
      200
1005
E36
  0
SPLINE
  5
E37
330
AF3
100
AcDbEntity
  8
0
  6
Continuous
 62
     7
370
    15
100
AcDbSpline
210
0.0
220
0.0
230
1.0
 70
     8
 71
     3
 72
    12
 73
     8
 74
     0
 42
0.0000000001
 43
0.0000000001
 40
0.0
 40
0.0
 40
0.0
 40
0.0
 40
0.5000000000000001
 40
0.5000000000000001
 40
0.75
 40
0.75
 40
1.0
 40
1.0
 40
1.0
 40
1.0
 10
1661.113163737001
 20
1379.741144987482
 30
0.0
 10
1661.39988964169
 20
1379.629616094676
 30
0.0
 10
1661.690213977085
 20
1379.45282424717
 30
0.0
 10
1662.134164448792
 20
1379.034129671772
 30
0.0
 10
1662.283564275104
 20
1378.869055961264
 30
0.0
 10
1662.577171104821
 20
1378.502323854484
 30
0.0
 10
1662.72244478537
 20
1378.300006131864
 30
0.0
 10
1662.866602081402
 20
1378.08385767477
 30
0.0
1001
AcDbBlockRepETag
1070
     1
1071
      201
1005
E37
  0
ARC
  5
E38
330
AF3
100
AcDbEntity
  8
0
  6
Continuous
 62
     7
370
    15
100
AcDbCircle
 10
1661.93530317742
 20
1378.161846596514
 30
0.0
 40
0.9345586073040967
100
AcDbArc
 50
343.2992789548142
 51
355.2130573195657
1001
AcDbBlockRepETag
1070
     1
1071
      202
1005
E38
  0
LWPOLYLINE
  5
E39
330
AF3
100
AcDbEntity
  8
0
  6
Continuous
 62
     7
370
    15
100
AcDbPolyline
 90
       34
 70
   128
 43
0.0
 10
1655.58346577483
 20
1379.664540068169
 10
1655.825438696485
 20
1379.766120980886
 10
1656.085798500302
 20
1379.858229931115
 10
1656.362661667365
 20
1379.940201336876
 10
1656.654026531589
 20
1380.011442556474
 10
1656.95778744144
 20
1380.071438630783
 10
1657.271748090276
 20
1380.119755765268
 10
1657.593637937965
 20
1380.156044619862
 10
1657.921131690323
 20
1380.180042659097
 10
1658.251860003195
 20
1380.191576672868
 10
1658.583432750698
 20
1380.190563204292
 10
1658.913453401864
 20
1380.177009436547
 10
1659.239535192148
 20
1380.151013780732
 10
1659.559320784328
 20
1380.112763622969
 10
1659.870498822242
 20
1380.062535794793
 10
1660.170819286801
 20
1380.00069336962
 10
1660.458111478253
 20
1379.927683420489
 10
1660.730297693566
 20
1379.844033827157
 10
1660.985410992054
 20
1379.750349079416
 10
1661.221606662191
 20
1379.647306753053
 10
1661.437177327514
 20
1379.5356516043
 10
1661.630564496233
 20
1379.416191009854
 10
1661.80036962822
 20
1379.289788281574
 10
1661.945365917128
 20
1379.157357529797
 10
1662.064505052503
 20
1379.019856027403
 10
1662.156925270353
 20
1378.87827794629
 10
1662.221958497485
 20
1378.733646603974
 10
1662.259134704001
 20
1378.587007820825
 10
1662.268185008719
 20
1378.439421386918
 10
1662.249044161929
 20
1378.29195448863
 10
1662.201850750648
 20
1378.145673308913
 10
1662.126945492751
 20
1378.001635214902
 10
1662.024870137891
 20
1377.860881516919
 10
1661.89636267035
 20
1377.724429848228
1001
AcDbBlockRepETag
1070
     1
1071
      203
1005
E39
  0
SPLINE
  5
E3A
330
AF3
100
AcDbEntity
  8
0
  6
Continuous
 62
     7
370
    15
100
AcDbSpline
210
0.0
220
0.0
230
1.0
 70
     8
 71
     3
 72
     8
 73
     4
 74
     0
 42
0.0000000001
 43
0.0000000001
 40
0.0000000000000113
 40
0.0000000000000113
 40
0.0000000000000113
 40
0.0000000000000113
 40
0.0001778594872781
 40
0.0001778594872781
 40
0.0001778594872781
 40
0.0001778594872781
 10
1655.456858159746
 20
1379.624708690073
 30
0.0
 10
1655.499055167966
 20
1379.63799768064
 30
0.0
 10
1655.541257351389
 20
1379.651275247116
 30
0.0
 10
1655.58346533929
 20
1379.664539983004
 30
0.0
1001
AcDbBlockRepETag
1070
     1
1071
      204
1005
E3A
  0
SPLINE
  5
E3B
330
AF3
100
AcDbEntity
  8
0
  6
Continuous
 62
     7
370
    15
100
AcDbSpline
210
0.0
220
0.0
230
1.0
 70
     8
 71
     3
 72
     9
 73
     5
 74
     0
 42
0.0000000001
 43
0.0000000001
 40
0.0
 40
0.0
 40
0.0
 40
0.0
 40
0.5997148332114655
 40
1.0
 40
1.0
 40
1.0
 40
1.0
 10
1655.456858447225
 20
1379.624707973257
 30
0.0
 10
1655.592448719751
 20
1379.687397035396
 30
0.0
 10
1655.818539963484
 20
1379.791928487126
 30
0.0
 10
1656.039660727104
 20
1379.849382136769
 30
0.0
 10
1656.128172088849
 20
1379.872379980499
 30
0.0
1001
AcDbBlockRepETag
1070
     1
1071
      205
1005
E3B
  0
LINE
  5
E3C
330
AF3
100
AcDbEntity
  8
0
  6
Continuous
 62
     7
370
    15
100
AcDbLine
 10
1660.617262160316
 20
1379.882542980743
 30
0.0
 11
1660.760794524829
 21
1379.849436089691
 31
0.0
1001
AcDbBlockRepETag
1070
     1
1071
      206
1005
E3C
  0
LINE
  5
E3D
330
AF3
100
AcDbEntity
  8
0
  6
Continuous
 62
     7
370
    15
100
AcDbLine
 10
1659.273451088111
 20
1378.530515810176
 30
0.0
 11
1660.101648383942
 21
1379.062628966441
 31
0.0
1001
AcDbBlockRepETag
1070
     1
1071
      207
1005
E3D
  0
LINE
  5
E3E
330
AF3
100
AcDbEntity
  8
0
  6
Continuous
 62
     7
370
    15
100
AcDbLine
 10
1660.101648383942
 20
1379.062628966441
 30
0.0
 11
1659.034574270673
 21
1379.390567379954
 31
0.0
1001
AcDbBlockRepETag
1070
     1
1071
      208
1005
E3E
  0
LINE
  5
E3F
330
AF3
100
AcDbEntity
  8
0
  6
Continuous
 62
     7
370
    15
100
AcDbLine
 10
1659.034574270673
 20
1379.390567379954
 30
0.0
 11
1658.206376974842
 21
1378.858454223689
 31
0.0
1001
AcDbBlockRepETag
1070
     1
1071
      209
1005
E3F
  0
LINE
  5
E40
330
AF3
100
AcDbEntity
  8
0
  6
Continuous
 62
     7
370
    15
100
AcDbLine
 10
1658.206376974842
 20
1378.858454223689
 30
0.0
 11
1655.58346577483
 21
1379.664540068169
 31
0.0
1001
AcDbBlockRepETag
1070
     1
1071
      210
1005
E40
  0
LINE
  5
E41
330
AF3
100
AcDbEntity
  8
0
  6
Continuous
 62
     7
370
    15
100
AcDbLine
 10
1657.463854857795
 20
1378.381386996728
 30
0.0
 11
1657.466352652129
 21
1377.593980694252
 31
0.0
1001
AcDbBlockRepETag
1070
     1
1071
      211
1005
E41
  0
ARC
  5
E42
330
AF3
100
AcDbEntity
  8
0
  6
Continuous
 62
     7
370
    15
100
AcDbCircle
 10
1651.437807240531
 20
1360.950412218909
 30
0.0
 40
1.148865231444294
100
AcDbArc
 50
175.2537753512642
 51
242.178872076543
1001
AcDbBlockRepETag
1070
     1
1071
      212
1005
E42
  0
LINE
  5
E43
330
AF3
100
AcDbEntity
  8
0
  6
Continuous
 62
     7
370
    15
100
AcDbLine
 10
1662.866601953636
 20
1378.083856982435
 30
0.0
 11
1662.874138908755
 21
1375.707902372762
 31
0.0
1001
AcDbBlockRepETag
1070
     1
1071
      213
1005
E43
  0
ARC
  5
E44
330
AF3
100
AcDbEntity
  8
0
  6
Continuous
 62
     7
370
    15
100
AcDbCircle
 10
1661.942840132538
 20
1375.785891986841
 30
0.0
 40
0.9345586073049595
100
AcDbArc
 50
343.2992789548267
 51
355.2130573195657
1001
AcDbBlockRepETag
1070
     1
1071
      214
1005
E44
  0
LINE
  5
E45
330
AF3
100
AcDbEntity
  8
0
  6
Continuous
 62
     7
370
    15
100
AcDbLine
 10
1658.025766417713
 20
1353.650339858602
 30
0.0
 11
1659.667419414201
 21
1353.145819064299
 31
0.0
1001
AcDbBlockRepETag
1070
     1
1071
      215
1005
E45
  0
LINE
  5
E46
330
AF3
100
AcDbEntity
  8
0
  6
Continuous
 62
     7
370
    15
100
AcDbLine
 10
1656.17318055997
 20
1351.679274179782
 30
0.0
 11
1657.814833556458
 21
1351.174753385478
 31
0.0
1001
AcDbBlockRepETag
1070
     1
1071
      216
1005
E46
  0
LINE
  5
E47
330
AF3
100
AcDbEntity
  8
0
  6
Continuous
 62
     7
370
    15
100
AcDbLine
 10
1658.025766417713
 20
1353.650339858602
 30
0.0
 11
1656.17318055997
 21
1351.679274179782
 31
0.0
1001
AcDbBlockRepETag
1070
     1
1071
      217
1005
E47
  0
LINE
  5
E48
330
AF3
100
AcDbEntity
  8
0
  6
Continuous
 62
     7
370
    15
100
AcDbLine
 10
1659.034574270673
 20
1379.390567379954
 30
0.0
 11
1659.037414557927
 21
1378.495193387843
 31
0.0
1001
AcDbBlockRepETag
1070
     1
1071
      218
1005
E48
  0
LINE
  5
E49
330
AF3
100
AcDbEntity
  8
0
  6
Continuous
 62
     7
370
    15
100
AcDbLine
 10
1658.206376974842
 20
1378.858454223689
 30
0.0
 11
1658.209217262096
 21
1377.963080231579
 31
0.0
1001
AcDbBlockRepETag
1070
     1
1071
      219
1005
E49
  0
LINE
  5
E4A
330
AF3
100
AcDbEntity
  8
0
  6
Continuous
 62
     7
370
    15
100
AcDbLine
 10
1655.458847824369
 20
1378.997575434898
 30
0.0
 11
1655.456858447225
 21
1379.624707973257
 31
0.0
1001
AcDbBlockRepETag
1070
     1
1071
      220
1005
E4A
  0
LINE
  5
E4B
330
AF3
100
AcDbEntity
  8
0
  6
Continuous
 62
     7
370
    15
100
AcDbLine
 10
1657.820620009331
 20
1349.350628236863
 30
0.0
 11
1656.178967012843
 21
1349.855149031166
 31
0.0
1001
AcDbBlockRepETag
1070
     1
1071
      221
1005
E4B
  0
LINE
  5
E4C
330
AF3
100
AcDbEntity
  8
0
  6
Continuous
 62
     7
370
    15
100
AcDbLine
 10
1656.17318055997
 20
1351.679274179782
 30
0.0
 11
1656.178967012843
 21
1349.855149031166
 31
0.0
1001
AcDbBlockRepETag
1070
     1
1071
      222
1005
E4C
  0
LWPOLYLINE
  5
E4D
330
AF3
100
AcDbEntity
  8
0
  6
Continuous
 62
     7
370
    15
100
AcDbPolyline
 90
        4
 70
   128
 43
0.0
 10
1659.12506233285
 20
1357.858773103229
 10
1658.936566332355
 20
1357.60497731447
 10
1658.785729425625
 20
1357.401881058124
 10
1658.634864848826
 20
1357.198792800226
1001
AcDbBlockRepETag
1070
     1
1071
      223
1005
E4D
  0
ELLIPSE
  5
E4E
330
AF3
100
AcDbEntity
  8
0
  6
Continuous
 62
     7
370
    15
100
AcDbEllipse
 10
1671.341659595882
 20
1353.60763148052
 30
0.0
 11
14.37309261849209
 21
7.293373180605359
 31
0.0
210
0.0
220
0.0
230
1.0
 40
0.6957514807135521
 41
2.217075777220601
 42
2.555486364534909
1001
AcDbBlockRepETag
1070
     1
1071
      224
1005
E4E
  0
LINE
  5
E4F
330
AF3
100
AcDbEntity
  8
0
  6
Continuous
 62
     7
370
    15
100
AcDbLine
 10
1656.560681212028
 20
1353.062786718967
 30
0.0
 11
1650.790621723077
 21
1354.836069503315
 31
0.0
1001
AcDbBlockRepETag
1070
     1
1071
      225
1005
E4F
  0
ELLIPSE
  5
E50
330
AF3
100
AcDbEntity
  8
0
  6
Continuous
 62
     7
370
    15
100
AcDbEllipse
 10
1642.119703390996
 20
1362.593033445672
 30
0.0
 11
14.39628494730249
 21
7.305141720155688
 31
0.0
210
0.0
220
0.0
230
1.0
 40
0.6957514807135511
 41
4.977011233676416
 42
5.314882751411706
1001
AcDbBlockRepETag
1070
     1
1071
      226
1005
E50
  0
LWPOLYLINE
  5
E51
330
AF3
100
AcDbEntity
  8
0
  6
Continuous
 62
     7
370
    15
100
AcDbPolyline
 90
        3
 70
   128
 43
0.0
 10
1654.465712991918
 20
1358.480221867697
 10
1654.652613345009
 20
1358.734477858754
 10
1654.680855940586
 20
1358.772891426436
1001
AcDbBlockRepETag
1070
     1
1071
      227
1005
E51
  0
ELLIPSE
  5
E52
330
AF3
100
AcDbEntity
  8
0
  6
Continuous
 62
     7
370
    15
100
AcDbEllipse
 10
1674.220037187665
 20
1352.77993491421
 30
0.0
 11
17.63767696374706
 21
8.949929117556139
 31
0.0
210
0.0
220
0.0
230
1.0
 40
0.6957514807135531
 41
2.112042843045403
 42
2.170496524235042
1001
AcDbBlockRepETag
1070
     1
1071
      228
1005
E52
  0
LINE
  5
E53
330
AF3
100
AcDbEntity
  8
0
  6
Continuous
 62
     7
370
    15
100
AcDbLine
 10
1656.500148576576
 20
1352.027152956467
 30
0.0
 11
1656.498461619866
 21
1352.558950281715
 31
0.0
1001
AcDbBlockRepETag
1070
     1
1071
      229
1005
E53
  0
SPLINE
  5
E54
330
AF3
100
AcDbEntity
  8
0
  6
Continuous
 62
     7
370
    15
100
AcDbSpline
210
0.0
220
0.0
230
1.0
 70
     8
 71
     3
 72
    10
 73
     6
 74
     0
 42
0.0000000001
 43
0.0000000001
 40
0.0
 40
0.0
 40
0.0
 40
0.0
 40
0.5
 40
0.5
 40
1.0
 40
1.0
 40
1.0
 40
1.0
 10
1656.498461792725
 20
1352.558950407795
 30
0.0
 10
1656.498206379051
 20
1352.639467179615
 30
0.0
 10
1656.50396032116
 20
1352.72969469458
 30
0.0
 10
1656.525582317838
 20
1352.90533640614
 30
0.0
 10
1656.541425354978
 20
1352.990404508368
 30
0.0
 10
1656.56068094768
 20
1353.062786578217
 30
0.0
1001
AcDbBlockRepETag
1070
     1
1071
      230
1005
E54
  0
LINE
  5
E55
330
AF3
100
AcDbEntity
  8
0
  6
Continuous
 62
     7
370
    15
100
AcDbLine
 10
1658.634864848826
 20
1357.198792800226
 30
0.0
 11
1658.635795123568
 21
1356.905532388582
 31
0.0
1001
AcDbBlockRepETag
1070
     1
1071
      231
1005
E55
  0
SPLINE
  5
E56
330
AF3
100
AcDbEntity
  8
0
  6
Continuous
 62
     7
370
    15
100
AcDbSpline
210
0.0
220
0.0
230
1.0
 70
     8
 71
     3
 72
     8
 73
     4
 74
     0
 42
0.0000000001
 43
0.0000000001
 40
0.0
 40
0.0
 40
0.0
 40
0.0
 40
1.0
 40
1.0
 40
1.0
 40
1.0
 10
1656.575095702285
 20
1352.698151768232
 30
0.0
 10
1656.574891733589
 20
1352.76245099219
 30
0.0
 10
1656.585457951309
 20
1352.841425095129
 30
0.0
 10
1656.601463348287
 20
1352.899231400504
 30
0.0
1001
AcDbBlockRepETag
1070
     1
1071
      232
1005
E56
  0
LINE
  5
E57
330
AF3
100
AcDbEntity
  8
0
  6
Continuous
 62
     7
370
    15
100
AcDbLine
 10
1656.576964564258
 20
1352.108881722897
 30
0.0
 11
1656.575095294796
 21
1352.698151437786
 31
0.0
1001
AcDbBlockRepETag
1070
     1
1071
      233
1005
E57
  0
ELLIPSE
  5
E58
330
AF3
100
AcDbEntity
  8
0
  6
Continuous
 62
     7
370
    15
100
AcDbEllipse
 10
1671.342589870737
 20
1353.314371032999
 30
0.0
 11
14.37309261849181
 21
7.29337318060638
 31
0.0
210
0.0
220
0.0
230
1.0
 40
0.6957514807135641
 41
2.217075777220546
 42
2.544999063994546
1001
AcDbBlockRepETag
1070
     1
1071
      234
1005
E58
  0
LINE
  5
E59
330
AF3
100
AcDbEntity
  8
0
  6
Continuous
 62
     7
370
    15
100
AcDbLine
 10
1656.544253424646
 20
1348.103228532299
 30
0.0
 11
1656.545316426768
 21
1347.76812705523
 31
0.0
1001
AcDbBlockRepETag
1070
     1
1071
      235
1005
E59
  0
LINE
  5
E5A
330
AF3
100
AcDbEntity
  8
0
  6
Continuous
 62
     7
370
    15
100
AcDbLine
 10
1650.555457866564
 20
1348.924003281766
 30
0.0
 11
1650.552219939686
 21
1349.94472944619
 31
0.0
1001
AcDbBlockRepETag
1070
     1
1071
      236
1005
E5A
  0
LINE
  5
E5B
330
AF3
100
AcDbEntity
  8
0
  6
Continuous
 62
     7
370
    15
100
AcDbLine
 10
1650.552219939686
 20
1349.94472944619
 30
0.0
 11
1648.951608769784
 21
1350.43663706646
 31
0.0
1001
AcDbBlockRepETag
1070
     1
1071
      237
1005
E5B
  0
LINE
  5
E5C
330
AF3
100
AcDbEntity
  8
0
  6
Continuous
 62
     7
370
    15
100
AcDbLine
 10
1648.951608769784
 20
1350.43663706646
 30
0.0
 11
1648.946994414817
 21
1351.891269312663
 31
0.0
1001
AcDbBlockRepETag
1070
     1
1071
      238
1005
E5C
  0
LINE
  5
E5D
330
AF3
100
AcDbEntity
  8
0
  6
Continuous
 62
     7
370
    15
100
AcDbLine
 10
1650.226366222089
 20
1351.830695556988
 30
0.0
 11
1650.578211624042
 21
1351.722564714451
 31
0.0
1001
AcDbBlockRepETag
1070
     1
1071
      239
1005
E5D
  0
LINE
  5
E5E
330
AF3
100
AcDbEntity
  8
0
  6
Continuous
 62
     7
370
    15
100
AcDbLine
 10
1650.569778646514
 20
1354.38098200784
 30
0.0
 11
1650.578211624042
 21
1351.722564714451
 31
0.0
1001
AcDbBlockRepETag
1070
     1
1071
      240
1005
E5E
  0
LINE
  5
E5F
330
AF3
100
AcDbEntity
  8
0
  6
Continuous
 62
     7
370
    15
100
AcDbLine
 10
1650.569778646514
 20
1354.38098200784
 30
0.0
 11
1656.498461619866
 21
1352.558950281715
 31
0.0
1001
AcDbBlockRepETag
1070
     1
1071
      241
1005
E5F
  0
LINE
  5
E60
330
AF3
100
AcDbEntity
  8
0
  6
Continuous
 62
     7
370
    15
100
AcDbLine
 10
1658.139954713996
 20
1349.159242734295
 30
0.0
 11
1658.144865000664
 21
1347.61132078722
 31
0.0
1001
AcDbBlockRepETag
1070
     1
1071
      242
1005
E60
  0
LINE
  5
E61
330
AF3
100
AcDbEntity
  8
0
  6
Continuous
 62
     7
370
    15
100
AcDbLine
 10
1658.144865000664
 20
1347.61132078722
 30
0.0
 11
1656.544253424646
 21
1348.103228532299
 31
0.0
1001
AcDbBlockRepETag
1070
     1
1071
      243
1005
E61
  0
LINE
  5
E62
330
AF3
100
AcDbEntity
  8
0
  6
Continuous
 62
     7
370
    15
100
AcDbLine
 10
1658.025241992643
 20
1349.101298285506
 30
0.0
 11
1656.383588996155
 21
1349.605819079809
 31
0.0
1001
AcDbBlockRepETag
1070
     1
1071
      244
1005
E62
  0
LINE
  5
E63
330
AF3
100
AcDbEntity
  8
0
  6
Continuous
 62
     7
370
    15
100
AcDbLine
 10
1656.383588996155
 20
1349.605819079809
 30
0.0
 11
1656.178967012843
 21
1349.855149031166
 31
0.0
1001
AcDbBlockRepETag
1070
     1
1071
      245
1005
E63
  0
LINE
  5
E64
330
AF3
100
AcDbEntity
  8
0
  6
Continuous
 62
     7
370
    15
100
AcDbLine
 10
1648.068038696954
 20
1360.635526313147
 30
0.0
 11
1649.709691884555
 21
1360.13100546011
 31
0.0
1001
AcDbBlockRepETag
1070
     1
1071
      246
1005
E64
  0
LINE
  5
E65
330
AF3
100
AcDbEntity
  8
0
  6
Continuous
 62
     7
370
    15
100
AcDbLine
 10
1647.84058797902
 20
1360.877190238628
 30
0.0
 11
1648.068038696954
 21
1360.635526313147
 31
0.0
1001
AcDbBlockRepETag
1070
     1
1071
      247
1005
E65
  0
SPLINE
  5
E66
330
AF3
100
AcDbEntity
  8
0
  6
Continuous
 62
     7
370
    15
100
AcDbSpline
210
0.0
220
0.0
230
1.0
 70
     8
 71
     3
 72
    10
 73
     6
 74
     0
 42
0.0000000001
 43
0.0000000001
 40
0.0
 40
0.0
 40
0.0
 40
0.0
 40
0.5
 40
0.5
 40
1.0
 40
1.0
 40
1.0
 40
1.0
 10
1650.79062135422
 20
1354.836069394683
 30
0.0
 10
1650.725514914167
 20
1354.777589967944
 30
0.0
 10
1650.669653793354
 20
1354.705016313057
 30
0.0
 10
1650.59151978586
 20
1354.54704056864
 30
0.0
 10
1650.569522386637
 20
1354.46171925182
 30
0.0
 10
1650.569778498976
 20
1354.380982232387
 30
0.0
1001
AcDbBlockRepETag
1070
     1
1071
      248
1005
E66
  0
ARC
  5
E67
330
AF3
100
AcDbEntity
  8
0
  6
Continuous
 62
     7
370
    15
100
AcDbCircle
 10
1658.093090562726
 20
1353.600999754216
 30
0.0
 40
0.0834684755025769
100
AcDbArc
 50
81.66377992567865
 51
143.7632863547963
1001
AcDbBlockRepETag
1070
     1
1071
      249
1005
E67
  0
LINE
  5
E68
330
AF3
100
AcDbEntity
  8
0
  6
Continuous
 62
     7
370
    15
100
AcDbLine
 10
1656.410148716019
 20
1347.662698616179
 30
0.0
 11
1658.051801712506
 21
1347.158177821875
 31
0.0
1001
AcDbBlockRepETag
1070
     1
1071
      250
1005
E68
  0
LINE
  5
E69
330
AF3
100
AcDbEntity
  8
0
  6
Continuous
 62
     7
370
    15
100
AcDbLine
 10
1656.187490685567
 20
1347.16814092505
 30
0.0
 11
1657.829143682056
 21
1346.663620130746
 31
0.0
1001
AcDbBlockRepETag
1070
     1
1071
      251
1005
E69
  0
LINE
  5
E6A
330
AF3
100
AcDbEntity
  8
0
  6
Continuous
 62
     7
370
    15
100
AcDbLine
 10
1656.187490685567
 20
1347.16814092505
 30
0.0
 11
1656.410148716019
 21
1347.662698616179
 31
0.0
1001
AcDbBlockRepETag
1070
     1
1071
      252
1005
E6A
  0
LINE
  5
E6B
330
AF3
100
AcDbEntity
  8
0
  6
Continuous
 62
     7
370
    15
100
AcDbLine
 10
1658.316215890176
 20
1347.721412987599
 30
0.0
 11
1658.144865000664
 21
1347.61132078722
 31
0.0
1001
AcDbBlockRepETag
1070
     1
1071
      253
1005
E6B
  0
LINE
  5
E6C
330
AF3
100
AcDbEntity
  8
0
  6
Continuous
 62
     7
370
    15
100
AcDbLine
 10
1658.311380151188
 20
1349.245834475676
 30
0.0
 11
1658.316215890176
 21
1347.721412987599
 31
0.0
1001
AcDbBlockRepETag
1070
     1
1071
      254
1005
E6C
  0
LINE
  5
E6D
330
AF3
100
AcDbEntity
  8
0
  6
Continuous
 62
     7
370
    15
100
AcDbLine
 10
1658.316215890176
 20
1347.721412987599
 30
0.0
 11
1658.644546465584
 21
1347.62050883608
 31
0.0
1001
AcDbBlockRepETag
1070
     1
1071
      255
1005
E6D
  0
LINE
  5
E6E
330
AF3
100
AcDbEntity
  8
0
  6
Continuous
 62
     7
370
    15
100
AcDbLine
 10
1656.191196950866
 20
1345.9997754535
 30
0.0
 11
1657.832849947354
 21
1345.495254659196
 31
0.0
1001
AcDbBlockRepETag
1070
     1
1071
      256
1005
E6E
  0
LINE
  5
E6F
330
AF3
100
AcDbEntity
  8
0
  6
Continuous
 62
     7
370
    15
100
AcDbLine
 10
1656.191196950866
 20
1345.9997754535
 30
0.0
 11
1656.187490685567
 21
1347.16814092505
 31
0.0
1001
AcDbBlockRepETag
1070
     1
1071
      257
1005
E6F
  0
LINE
  5
E70
330
AF3
100
AcDbEntity
  8
0
  6
Continuous
 62
     7
370
    15
100
AcDbLine
 10
1656.410148716019
 20
1347.662698616179
 30
0.0
 11
1656.853209978192
 21
1348.008278947814
 31
0.0
1001
AcDbBlockRepETag
1070
     1
1071
      258
1005
E70
  0
LINE
  5
E71
330
AF3
100
AcDbEntity
  8
0
  6
Continuous
 62
     7
370
    15
100
AcDbLine
 10
1658.397452453317
 20
1353.601574070119
 30
0.0
 11
1660.039105449805
 21
1353.097053275815
 31
0.0
1001
AcDbBlockRepETag
1070
     1
1071
      259
1005
E71
  0
LINE
  5
E72
330
AF3
100
AcDbEntity
  8
0
  6
Continuous
 62
     7
370
    15
100
AcDbLine
 10
1658.39425941208
 20
1353.594748460589
 30
0.0
 11
1658.397452453317
 21
1353.601574070119
 31
0.0
1001
AcDbBlockRepETag
1070
     1
1071
      260
1005
E72
  0
LINE
  5
E73
330
AF3
100
AcDbEntity
  8
0
  6
Continuous
 62
     7
370
    15
100
AcDbLine
 10
1658.553321967259
 20
1353.947784077202
 30
0.0
 11
1660.194974963747
 21
1353.443263282898
 31
0.0
1001
AcDbBlockRepETag
1070
     1
1071
      261
1005
E73
  0
LINE
  5
E74
330
AF3
100
AcDbEntity
  8
0
  6
Continuous
 62
     7
370
    15
100
AcDbLine
 10
1658.397452453317
 20
1353.601574070119
 30
0.0
 11
1658.553321967259
 21
1353.947784077202
 31
0.0
1001
AcDbBlockRepETag
1070
     1
1071
      262
1005
E74
  0
LWPOLYLINE
  5
E75
330
AF3
100
AcDbEntity
  8
0
  6
Continuous
 62
     7
370
    15
100
AcDbPolyline
 90
        8
 70
   128
 43
0.0
 10
1658.678385112028
 20
1354.051860430797
 10
1658.664475993992
 20
1354.053964838108
 10
1658.645294456423
 20
1354.050767004006
 10
1658.625366586874
 20
1354.041045058869
 10
1658.605458228492
 20
1354.025172401023
 10
1658.586334473179
 20
1354.003759251245
 10
1658.568730421865
 20
1353.977628435088
 10
1658.553321967259
 20
1353.947784077202
1001
AcDbBlockRepETag
1070
     1
1071
      263
1005
E75
  0
LINE
  5
E76
330
AF3
100
AcDbEntity
  8
0
  6
Continuous
 62
     7
370
    15
100
AcDbLine
 10
1656.396405470092
 20
1345.81087250431
 30
0.0
 11
1658.038058466579
 21
1345.306351710007
 31
0.0
1001
AcDbBlockRepETag
1070
     1
1071
      264
1005
E76
  0
LINE
  5
E77
330
AF3
100
AcDbEntity
  8
0
  6
Continuous
 62
     7
370
    15
100
AcDbLine
 10
1656.396405470092
 20
1345.81087250431
 30
0.0
 11
1656.191196950866
 21
1345.9997754535
 31
0.0
1001
AcDbBlockRepETag
1070
     1
1071
      265
1005
E77
  0
LINE
  5
E78
330
AF3
100
AcDbEntity
  8
0
  6
Continuous
 62
     7
370
    15
100
AcDbLine
 10
1658.970645600285
 20
1353.96984817113
 30
0.0
 11
1660.612298596773
 21
1353.465327376827
 31
0.0
1001
AcDbBlockRepETag
1070
     1
1071
      266
1005
E78
  0
LINE
  5
E79
330
AF3
100
AcDbEntity
  8
0
  6
Continuous
 62
     7
370
    15
100
AcDbLine
 10
1658.967452559048
 20
1353.9630225616
 30
0.0
 11
1658.970645600285
 21
1353.96984817113
 31
0.0
1001
AcDbBlockRepETag
1070
     1
1071
      267
1005
E79
  0
LINE
  5
E7A
330
AF3
100
AcDbEntity
  8
0
  6
Continuous
 62
     7
370
    15
100
AcDbLine
 10
1659.126515114227
 20
1354.316058178213
 30
0.0
 11
1660.768168110715
 21
1353.81153738391
 31
0.0
1001
AcDbBlockRepETag
1070
     1
1071
      268
1005
E7A
  0
LINE
  5
E7B
330
AF3
100
AcDbEntity
  8
0
  6
Continuous
 62
     7
370
    15
100
AcDbLine
 10
1658.970645600285
 20
1353.96984817113
 30
0.0
 11
1659.126515114227
 21
1354.316058178213
 31
0.0
1001
AcDbBlockRepETag
1070
     1
1071
      269
1005
E7B
  0
LWPOLYLINE
  5
E7C
330
AF3
100
AcDbEntity
  8
0
  6
Continuous
 62
     7
370
    15
100
AcDbPolyline
 90
        8
 70
   128
 43
0.0
 10
1659.251577727052
 20
1354.420134190036
 10
1659.23766914096
 20
1354.422238939119
 10
1659.218487603391
 20
1354.419041105017
 10
1659.198559733842
 20
1354.40931915988
 10
1659.178651375459
 20
1354.393446502034
 10
1659.159527620146
 20
1354.372033352257
 10
1659.141923568832
 20
1354.345902536099
 10
1659.126515114227
 20
1354.316058178213
1001
AcDbBlockRepETag
1070
     1
1071
      270
1005
E7C
  0
LINE
  5
E7D
330
AF3
100
AcDbEntity
  8
0
  6
Continuous
 62
     7
370
    15
100
AcDbLine
 10
1659.543838747253
 20
1354.338122272142
 30
0.0
 11
1661.185491743741
 21
1353.833601477838
 31
0.0
1001
AcDbBlockRepETag
1070
     1
1071
      271
1005
E7D
  0
LINE
  5
E7E
330
AF3
100
AcDbEntity
  8
0
  6
Continuous
 62
     7
370
    15
100
AcDbLine
 10
1659.540645174072
 20
1354.33129632084
 30
0.0
 11
1659.543838747253
 21
1354.338122272142
 31
0.0
1001
AcDbBlockRepETag
1070
     1
1071
      272
1005
E7E
  0
LINE
  5
E7F
330
AF3
100
AcDbEntity
  8
0
  6
Continuous
 62
     7
370
    15
100
AcDbLine
 10
1659.699708261194
 20
1354.684332279225
 30
0.0
 11
1661.341361257682
 21
1354.179811484921
 31
0.0
1001
AcDbBlockRepETag
1070
     1
1071
      273
1005
E7F
  0
LINE
  5
E80
330
AF3
100
AcDbEntity
  8
0
  6
Continuous
 62
     7
370
    15
100
AcDbLine
 10
1659.543838747253
 20
1354.338122272142
 30
0.0
 11
1659.699708261194
 21
1354.684332279225
 31
0.0
1001
AcDbBlockRepETag
1070
     1
1071
      274
1005
E80
  0
LINE
  5
E81
330
AF3
100
AcDbEntity
  8
0
  6
Continuous
 62
     7
370
    15
100
AcDbLine
 10
1656.716592768433
 20
1347.901719766725
 30
0.0
 11
1656.71612109918
 21
1348.050409087484
 31
0.0
1001
AcDbBlockRepETag
1070
     1
1071
      275
1005
E81
  0
LWPOLYLINE
  5
E82
330
AF3
100
AcDbEntity
  8
0
  6
Continuous
 62
     7
370
    15
100
AcDbPolyline
 90
        8
 70
   128
 43
0.0
 10
1659.824770874019
 20
1354.788408291047
 10
1659.810862287927
 20
1354.790513040131
 10
1659.791680750358
 20
1354.787315206028
 10
1659.77175288081
 20
1354.777593260892
 10
1659.751844522427
 20
1354.761720603046
 10
1659.732720767114
 20
1354.740307453268
 10
1659.715116183855
 20
1354.714176295339
 10
1659.699708261194
 20
1354.684332279225
1001
AcDbBlockRepETag
1070
     1
1071
      276
1005
E82
  0
LWPOLYLINE
  5
E83
330
AF3
100
AcDbEntity
  8
0
  6
Continuous
 62
     7
370
    15
100
AcDbPolyline
 90
        7
 70
   128
 43
0.0
 10
1650.555457866564
 20
1348.924003281766
 10
1650.561222457862
 20
1348.840189618761
 10
1650.577740822367
 20
1348.766648449541
 10
1650.604377155842
 20
1348.706205286086
 10
1650.640108137613
 20
1348.661183089906
 10
1650.683561592947
 20
1348.633312637794
 10
1650.694160530233
 20
1348.629551677209
1001
AcDbBlockRepETag
1070
     1
1071
      277
1005
E83
  0
LINE
  5
E84
330
AF3
100
AcDbEntity
  8
0
  6
Continuous
 62
     7
370
    15
100
AcDbLine
 10
1659.12506233285
 20
1357.858773103229
 30
0.0
 11
1659.125992607591
 21
1357.565512691585
 31
0.0
1001
AcDbBlockRepETag
1070
     1
1071
      278
1005
E84
  0
ARC
  5
E85
330
AF3
100
AcDbEntity
  8
0
  6
Continuous
 62
     7
370
    15
100
AcDbCircle
 10
1670.589299221219
 20
1337.718386129126
 30
0.0
 40
23.87862652394125
100
AcDbArc
 50
109.0807428961585
 51
110.4559313403642
1001
AcDbBlockRepETag
1070
     1
1071
      279
1005
E85
  0
ELLIPSE
  5
E86
330
AF3
100
AcDbEntity
  8
0
  6
Continuous
 62
     7
370
    15
100
AcDbEllipse
 10
1674.22096746252
 20
1352.486674466688
 30
0.0
 11
17.63767696374673
 21
8.949929117557388
 31
0.0
210
0.0
220
0.0
230
1.0
 40
0.6957514807135623
 41
2.069166414860924
 42
2.170496524234987
1001
AcDbBlockRepETag
1070
     1
1071
      280
1005
E86
  0
LINE
  5
E87
330
AF3
100
AcDbEntity
  8
0
  6
Continuous
 62
     7
370
    15
100
AcDbLine
 10
1660.117031362277
 20
1354.706396031381
 30
0.0
 11
1661.758684358764
 21
1354.201875237078
 31
0.0
1001
AcDbBlockRepETag
1070
     1
1071
      281
1005
E87
  0
LINE
  5
E88
330
AF3
100
AcDbEntity
  8
0
  6
Continuous
 62
     7
370
    15
100
AcDbLine
 10
1660.11383832104
 20
1354.699570421851
 30
0.0
 11
1660.117031362277
 21
1354.706396031381
 31
0.0
1001
AcDbBlockRepETag
1070
     1
1071
      282
1005
E88
  0
LINE
  5
E89
330
AF3
100
AcDbEntity
  8
0
  6
Continuous
 62
     7
370
    15
100
AcDbLine
 10
1660.272900876218
 20
1355.052606038464
 30
0.0
 11
1661.914553872706
 21
1354.548085244161
 31
0.0
1001
AcDbBlockRepETag
1070
     1
1071
      283
1005
E89
  0
LINE
  5
E8A
330
AF3
100
AcDbEntity
  8
0
  6
Continuous
 62
     7
370
    15
100
AcDbLine
 10
1660.117031362277
 20
1354.706396031381
 30
0.0
 11
1660.272900876218
 21
1355.052606038464
 31
0.0
1001
AcDbBlockRepETag
1070
     1
1071
      284
1005
E8A
  0
LINE
  5
E8B
330
AF3
100
AcDbEntity
  8
0
  6
Continuous
 62
     7
370
    15
100
AcDbLine
 10
1649.606569147359
 20
1353.697357180794
 30
0.0
 11
1647.964915959757
 21
1354.201878033832
 31
0.0
1001
AcDbBlockRepETag
1070
     1
1071
      285
1005
E8B
  0
LINE
  5
E8C
330
AF3
100
AcDbEntity
  8
0
  6
Continuous
 62
     7
370
    15
100
AcDbLine
 10
1649.8175018175
 20
1356.172943712653
 30
0.0
 11
1651.459155005102
 21
1355.668422859615
 31
0.0
1001
AcDbBlockRepETag
1070
     1
1071
      286
1005
E8C
  0
LINE
  5
E8D
330
AF3
100
AcDbEntity
  8
0
  6
Continuous
 62
     7
370
    15
100
AcDbLine
 10
1647.964915959757
 20
1354.201878033832
 30
0.0
 11
1649.8175018175
 21
1356.172943712653
 31
0.0
1001
AcDbBlockRepETag
1070
     1
1071
      287
1005
E8D
  0
LWPOLYLINE
  5
E8E
330
AF3
100
AcDbEntity
  8
0
  6
Continuous
 62
     7
370
    15
100
AcDbPolyline
 90
        8
 70
   128
 43
0.0
 10
1660.397964020987
 20
1355.156682392059
 10
1660.384054902951
 20
1355.15878679937
 10
1660.364873365382
 20
1355.155588965268
 10
1660.344945495833
 20
1355.145867020131
 10
1660.32503713745
 20
1355.129994362285
 10
1660.305913382138
 20
1355.108581212508
 10
1660.288309330823
 20
1355.082450396351
 10
1660.272900876218
 20
1355.052606038464
1001
AcDbBlockRepETag
1070
     1
1071
      288
1005
E8E
  0
SPLINE
  5
E8F
330
AF3
100
AcDbEntity
  8
0
  6
Continuous
 62
     7
370
    15
100
AcDbSpline
210
0.0
220
0.0
230
1.0
 70
     8
 71
     3
 72
    14
 73
    10
 74
     0
 42
0.0000000001
 43
0.0000000001
 40
0.0
 40
0.0
 40
0.0
 40
0.0
 40
0.0003614116962286
 40
0.0003614116962286
 40
0.0003614116962286
 40
0.0006506251867607
 40
0.0006506251867607
 40
0.0006506251867607
 40
0.0009398386774006
 40
0.0009398386774006
 40
0.0009398386774006
 40
0.0009398386774006
 10
1658.635795449975
 20
1356.90553255381
 30
0.0
 10
1658.698647592877
 20
1356.990124738136
 30
0.0
 10
1658.761483739976
 20
1357.074721885775
 30
0.0
 10
1658.82431545008
 20
1357.159320408101
 30
0.0
 10
1658.874595445013
 20
1357.227018919997
 30
0.0
 10
1658.924872329741
 20
1357.29471839627
 30
0.0
 10
1658.97515040278
 20
1357.362417504079
 30
0.0
 10
1659.025428475809
 20
1357.430116611876
 30
0.0
 10
1659.075707601899
 20
1357.497815393346
 30
0.0
 10
1659.125992561147
 20
1357.565512365735
 30
0.0
1001
AcDbBlockRepETag
1070
     1
1071
      289
1005
E8F
  0
LINE
  5
E90
330
AF3
100
AcDbEntity
  8
0
  6
Continuous
 62
     7
370
    15
100
AcDbLine
 10
1649.612355600232
 20
1351.873232032179
 30
0.0
 11
1647.970702412631
 21
1352.377752885216
 31
0.0
1001
AcDbBlockRepETag
1070
     1
1071
      290
1005
E90
  0
LINE
  5
E91
330
AF3
100
AcDbEntity
  8
0
  6
Continuous
 62
     7
370
    15
100
AcDbLine
 10
1647.970702412631
 20
1352.377752885216
 30
0.0
 11
1647.964915959757
 21
1354.201878033832
 31
0.0
1001
AcDbBlockRepETag
1070
     1
1071
      291
1005
E91
  0
LINE
  5
E92
330
AF3
100
AcDbEntity
  8
0
  6
Continuous
 62
     7
370
    15
100
AcDbLine
 10
1668.335721404639
 20
1375.069600164961
 30
0.0
 11
1669.561198728634
 21
1374.692980505248
 31
0.0
1001
AcDbBlockRepETag
1070
     1
1071
      292
1005
E92
  0
LINE
  5
E93
330
AF3
100
AcDbEntity
  8
0
  6
Continuous
 62
     7
370
    15
100
AcDbLine
 10
1662.867646994451
 20
1377.754453695924
 30
0.0
 11
1667.852083674931
 21
1376.222612339333
 31
0.0
1001
AcDbBlockRepETag
1070
     1
1071
      293
1005
E93
  0
LINE
  5
E94
330
AF3
100
AcDbEntity
  8
0
  6
Continuous
 62
     7
370
    15
100
AcDbLine
 10
1667.852083674931
 20
1376.222612339333
 30
0.0
 11
1667.751015575094
 21
1374.509868187384
 31
0.0
1001
AcDbBlockRepETag
1070
     1
1071
      294
1005
E94
  0
LINE
  5
E95
330
AF3
100
AcDbEntity
  8
0
  6
Continuous
 62
     7
370
    15
100
AcDbLine
 10
1668.310461160756
 20
1374.64152837406
 30
0.0
 11
1667.798169640909
 21
1374.39387421678
 31
0.0
1001
AcDbBlockRepETag
1070
     1
1071
      295
1005
E95
  0
LINE
  5
E96
330
AF3
100
AcDbEntity
  8
0
  6
Continuous
 62
     7
370
    15
100
AcDbLine
 10
1668.419959653218
 20
1376.497138817707
 30
0.0
 11
1667.852083674931
 21
1376.222612339333
 31
0.0
1001
AcDbBlockRepETag
1070
     1
1071
      296
1005
E96
  0
LINE
  5
E97
330
AF3
100
AcDbEntity
  8
0
  6
Continuous
 62
     7
370
    15
100
AcDbLine
 10
1668.310461160756
 20
1374.64152837406
 30
0.0
 11
1668.419959653218
 21
1376.497138817707
 31
0.0
1001
AcDbBlockRepETag
1070
     1
1071
      297
1005
E97
  0
LINE
  5
E98
330
AF3
100
AcDbEntity
  8
0
  6
Continuous
 62
     7
370
    15
100
AcDbLine
 10
1660.690224509244
 20
1355.074670132393
 30
0.0
 11
1662.331877505732
 21
1354.570149338089
 31
0.0
1001
AcDbBlockRepETag
1070
     1
1071
      298
1005
E98
  0
LINE
  5
E99
330
AF3
100
AcDbEntity
  8
0
  6
Continuous
 62
     7
370
    15
100
AcDbLine
 10
1660.687031468007
 20
1355.067844522862
 30
0.0
 11
1660.690224509244
 21
1355.074670132393
 31
0.0
1001
AcDbBlockRepETag
1070
     1
1071
      299
1005
E99
  0
LINE
  5
E9A
330
AF3
100
AcDbEntity
  8
0
  6
Continuous
 62
     7
370
    15
100
AcDbLine
 10
1660.846094023186
 20
1355.420880139476
 30
0.0
 11
1662.487747019673
 21
1354.916359345172
 31
0.0
1001
AcDbBlockRepETag
1070
     1
1071
      300
1005
E9A
  0
LINE
  5
E9B
330
AF3
100
AcDbEntity
  8
0
  6
Continuous
 62
     7
370
    15
100
AcDbLine
 10
1660.690224509244
 20
1355.074670132393
 30
0.0
 11
1660.846094023186
 21
1355.420880139476
 31
0.0
1001
AcDbBlockRepETag
1070
     1
1071
      301
1005
E9B
  0
LINE
  5
E9C
330
AF3
100
AcDbEntity
  8
0
  6
Continuous
 62
     7
370
    15
100
AcDbLine
 10
1668.419959653218
 20
1376.497138817707
 30
0.0
 11
1662.756978125662
 21
1378.237513881452
 31
0.0
1001
AcDbBlockRepETag
1070
     1
1071
      302
1005
E9C
  0
LWPOLYLINE
  5
E9D
330
AF3
100
AcDbEntity
  8
0
  6
Continuous
 62
     7
370
    15
100
AcDbPolyline
 90
        8
 70
   128
 43
0.0
 10
1660.97115663601
 20
1355.524956151298
 10
1660.957248049919
 20
1355.527060900382
 10
1660.93806651235
 20
1355.523863066279
 10
1660.918138642801
 20
1355.514141121143
 10
1660.898230284418
 20
1355.498268463297
 10
1660.879106529105
 20
1355.476855313519
 10
1660.861501945847
 20
1355.45072415559
 10
1660.846094023186
 20
1355.420880139476
1001
AcDbBlockRepETag
1070
     1
1071
      303
1005
E9D
  0
LINE
  5
E9E
330
AF3
100
AcDbEntity
  8
0
  6
Continuous
 62
     7
370
    15
100
AcDbLine
 10
1649.816977583544
 20
1351.623902080822
 30
0.0
 11
1648.175324395943
 21
1352.128422933859
 31
0.0
1001
AcDbBlockRepETag
1070
     1
1071
      304
1005
E9E
  0
LINE
  5
E9F
330
AF3
100
AcDbEntity
  8
0
  6
Continuous
 62
     7
370
    15
100
AcDbLine
 10
1647.970702412631
 20
1352.377752885216
 30
0.0
 11
1648.175324395943
 21
1352.128422933859
 31
0.0
1001
AcDbBlockRepETag
1070
     1
1071
      305
1005
E9F
  0
LINE
  5
EA0
330
AF3
100
AcDbEntity
  8
0
  6
Continuous
 62
     7
370
    15
100
AcDbLine
 10
1662.765495794381
 20
1354.886362025673
 30
0.0
 11
1662.84457859449
 21
1354.862057914383
 31
0.0
1001
AcDbBlockRepETag
1070
     1
1071
      306
1005
EA0
  0
LINE
  5
EA1
330
AF3
100
AcDbEntity
  8
0
  6
Continuous
 62
     7
370
    15
100
AcDbLine
 10
1661.41357515467
 20
1355.785484295411
 30
0.0
 11
1663.055228151157
 21
1355.280963501108
 31
0.0
1001
AcDbBlockRepETag
1070
     1
1071
      307
1005
EA1
  0
LINE
  5
EA2
330
AF3
100
AcDbEntity
  8
0
  6
Continuous
 62
     7
370
    15
100
AcDbLine
 10
1662.899358637216
 20
1354.934753494025
 30
0.0
 11
1661.257705640728
 21
1355.439274288328
 31
0.0
1001
AcDbBlockRepETag
1070
     1
1071
      308
1005
EA2
  0
LINE
  5
EA3
330
AF3
100
AcDbEntity
  8
0
  6
Continuous
 62
     7
370
    15
100
AcDbLine
 10
1661.257705640728
 20
1355.439274288328
 30
0.0
 11
1661.41357515467
 21
1355.785484295411
 31
0.0
1001
AcDbBlockRepETag
1070
     1
1071
      309
1005
EA3
  0
LWPOLYLINE
  5
EA4
330
AF3
100
AcDbEntity
  8
0
  6
Continuous
 62
     7
370
    15
100
AcDbPolyline
 90
        8
 70
   128
 43
0.0
 10
1661.538637767494
 20
1355.889560307234
 10
1661.524729181403
 20
1355.891665056317
 10
1661.505547643834
 20
1355.888467222215
 10
1661.485619774285
 20
1355.878745277078
 10
1661.465711415903
 20
1355.862872619232
 10
1661.446587660589
 20
1355.841459469455
 10
1661.428983609275
 20
1355.815328653297
 10
1661.41357515467
 20
1355.785484295411
1001
AcDbBlockRepETag
1070
     1
1071
      310
1005
EA4
  0
LINE
  5
EA5
330
AF3
100
AcDbEntity
  8
0
  6
Continuous
 62
     7
370
    15
100
AcDbLine
 10
1650.430611576315
 20
1351.930678470264
 30
0.0
 11
1650.426688397302
 21
1351.931884160746
 31
0.0
1001
AcDbBlockRepETag
1070
     1
1071
      311
1005
EA5
  0
LINE
  5
EA6
330
AF3
100
AcDbEntity
  8
0
  6
Continuous
 62
     7
370
    15
100
AcDbLine
 10
1650.577694095487
 20
1351.885476354129
 30
0.0
 11
1650.430611576315
 21
1351.930678470264
 31
0.0
1001
AcDbBlockRepETag
1070
     1
1071
      312
1005
EA6
  0
LINE
  5
EA7
330
AF3
100
AcDbEntity
  8
0
  6
Continuous
 62
     7
370
    15
100
AcDbLine
 10
1663.413904724937
 20
1355.227778956441
 30
0.0
 11
1663.330231305621
 21
1355.253493879184
 31
0.0
1001
AcDbBlockRepETag
1070
     1
1071
      313
1005
EA7
  0
LINE
  5
EA8
330
AF3
100
AcDbEntity
  8
0
  6
Continuous
 62
     7
370
    15
100
AcDbLine
 10
1661.984745850262
 20
1356.15245898022
 30
0.0
 11
1663.62639884675
 21
1355.647938185917
 31
0.0
1001
AcDbBlockRepETag
1070
     1
1071
      314
1005
EA8
  0
LINE
  5
EA9
330
AF3
100
AcDbEntity
  8
0
  6
Continuous
 62
     7
370
    15
100
AcDbLine
 10
1663.470529332808
 20
1355.301728178834
 30
0.0
 11
1661.82887633632
 21
1355.806248973138
 31
0.0
1001
AcDbBlockRepETag
1070
     1
1071
      315
1005
EA9
  0
LINE
  5
EAA
330
AF3
100
AcDbEntity
  8
0
  6
Continuous
 62
     7
370
    15
100
AcDbLine
 10
1661.82887633632
 20
1355.806248973138
 30
0.0
 11
1661.984745850262
 21
1356.15245898022
 31
0.0
1001
AcDbBlockRepETag
1070
     1
1071
      316
1005
EAA
  0
LINE
  5
EAB
330
AF3
100
AcDbEntity
  8
0
  6
Continuous
 62
     7
370
    15
100
AcDbLine
 10
1661.826488722356
 20
1355.801096874017
 30
0.0
 11
1661.82887633632
 21
1355.806248973138
 31
0.0
1001
AcDbBlockRepETag
1070
     1
1071
      317
1005
EAB
  0
LWPOLYLINE
  5
EAC
330
AF3
100
AcDbEntity
  8
0
  6
Continuous
 62
     7
370
    15
100
AcDbPolyline
 90
        8
 70
   128
 43
0.0
 10
1662.109808463087
 20
1356.256534992043
 10
1662.095899876995
 20
1356.258639741127
 10
1662.076718339426
 20
1356.255441907024
 10
1662.056790469877
 20
1356.245719961888
 10
1662.036882111495
 20
1356.229847304041
 10
1662.017758356182
 20
1356.208434154264
 10
1662.000153772923
 20
1356.182302996335
 10
1661.984745850262
 20
1356.15245898022
1001
AcDbBlockRepETag
1070
     1
1071
      318
1005
EAC
  0
ARC
  5
EAD
330
AF3
100
AcDbEntity
  8
0
  6
Continuous
 62
     7
370
    15
100
AcDbCircle
 10
1649.884825962514
 20
1356.123603608266
 30
0.0
 40
0.0834684755023286
100
AcDbArc
 50
81.66377992558654
 51
143.7632863549083
1001
AcDbBlockRepETag
1070
     1
1071
      319
1005
EAD
  0
LINE
  5
EAE
330
AF3
100
AcDbEntity
  8
0
  6
Continuous
 62
     7
370
    15
100
AcDbLine
 10
1647.979226085355
 20
1349.6907447791
 30
0.0
 11
1649.620879272956
 21
1349.186223926062
 31
0.0
1001
AcDbBlockRepETag
1070
     1
1071
      320
1005
EAE
  0
LINE
  5
EAF
330
AF3
100
AcDbEntity
  8
0
  6
Continuous
 62
     7
370
    15
100
AcDbLine
 10
1648.201884115806
 20
1350.185302470229
 30
0.0
 11
1649.843537303407
 21
1349.680781617191
 31
0.0
1001
AcDbBlockRepETag
1070
     1
1071
      321
1005
EAF
  0
LINE
  5
EB0
330
AF3
100
AcDbEntity
  8
0
  6
Continuous
 62
     7
370
    15
100
AcDbLine
 10
1647.979226085355
 20
1349.6907447791
 30
0.0
 11
1648.201884115806
 21
1350.185302470229
 31
0.0
1001
AcDbBlockRepETag
1070
     1
1071
      322
1005
EB0
  0
LINE
  5
EB1
330
AF3
100
AcDbEntity
  8
0
  6
Continuous
 62
     7
370
    15
100
AcDbLine
 10
1665.810556659192
 20
1356.882978594534
 30
0.0
 11
1664.168903662704
 21
1357.387499388837
 31
0.0
1001
AcDbBlockRepETag
1070
     1
1071
      323
1005
EB1
  0
LINE
  5
EB2
330
AF3
100
AcDbEntity
  8
0
  6
Continuous
 62
     7
370
    15
100
AcDbLine
 10
1664.156844390349
 20
1361.189072210877
 30
0.0
 11
1664.168903662704
 21
1357.387499388837
 31
0.0
1001
AcDbBlockRepETag
1070
     1
1071
      324
1005
EB2
  0
LINE
  5
EB3
330
AF3
100
AcDbEntity
  8
0
  6
Continuous
 62
     7
370
    15
100
AcDbLine
 10
1648.794628868884
 20
1350.647633484434
 30
0.0
 11
1648.951091241229
 21
1350.599548706139
 31
0.0
1001
AcDbBlockRepETag
1070
     1
1071
      325
1005
EB3
  0
LINE
  5
EB4
330
AF3
100
AcDbEntity
  8
0
  6
Continuous
 62
     7
370
    15
100
AcDbLine
 10
1648.790531299271
 20
1351.939353981208
 30
0.0
 11
1648.794628868884
 21
1350.647633484434
 31
0.0
1001
AcDbBlockRepETag
1070
     1
1071
      326
1005
EB4
  0
LINE
  5
EB5
330
AF3
100
AcDbEntity
  8
0
  6
Continuous
 62
     7
370
    15
100
AcDbLine
 10
1647.982932350654
 20
1348.52237930755
 30
0.0
 11
1649.624585538256
 21
1348.017858454512
 31
0.0
1001
AcDbBlockRepETag
1070
     1
1071
      327
1005
EB5
  0
LINE
  5
EB6
330
AF3
100
AcDbEntity
  8
0
  6
Continuous
 62
     7
370
    15
100
AcDbLine
 10
1647.982932350654
 20
1348.52237930755
 30
0.0
 11
1647.979226085355
 21
1349.6907447791
 31
0.0
1001
AcDbBlockRepETag
1070
     1
1071
      328
1005
EB6
  0
LINE
  5
EB7
330
AF3
100
AcDbEntity
  8
0
  6
Continuous
 62
     7
370
    15
100
AcDbLine
 10
1648.201884115806
 20
1350.185302470229
 30
0.0
 11
1648.794628868884
 21
1350.647633484434
 31
0.0
1001
AcDbBlockRepETag
1070
     1
1071
      329
1005
EB7
  0
LINE
  5
EB8
330
AF3
100
AcDbEntity
  8
0
  6
Continuous
 62
     7
370
    15
100
AcDbLine
 10
1650.185994811868
 20
1356.117352314639
 30
0.0
 11
1650.189187853105
 21
1356.124177924169
 31
0.0
1001
AcDbBlockRepETag
1070
     1
1071
      330
1005
EB8
  0
LINE
  5
EB9
330
AF3
100
AcDbEntity
  8
0
  6
Continuous
 62
     7
370
    15
100
AcDbLine
 10
1663.985075154557
 20
1355.594753470365
 30
0.0
 11
1663.901401735242
 21
1355.620468393108
 31
0.0
1001
AcDbBlockRepETag
1070
     1
1071
      331
1005
EB9
  0
LINE
  5
EBA
330
AF3
100
AcDbEntity
  8
0
  6
Continuous
 62
     7
370
    15
100
AcDbLine
 10
1650.345057367047
 20
1356.470387931252
 30
0.0
 11
1651.986710554648
 21
1355.965867078215
 31
0.0
1001
AcDbBlockRepETag
1070
     1
1071
      332
1005
EBA
  0
LINE
  5
EBB
330
AF3
100
AcDbEntity
  8
0
  6
Continuous
 62
     7
370
    15
100
AcDbLine
 10
1650.189187853105
 20
1356.124177924169
 30
0.0
 11
1650.345057367047
 21
1356.470387931252
 31
0.0
1001
AcDbBlockRepETag
1070
     1
1071
      333
1005
EBB
  0
LINE
  5
EBC
330
AF3
100
AcDbEntity
  8
0
  6
Continuous
 62
     7
370
    15
100
AcDbLine
 10
1662.555916279882
 20
1356.519433494144
 30
0.0
 11
1664.19756927637
 21
1356.01491269984
 31
0.0
1001
AcDbBlockRepETag
1070
     1
1071
      334
1005
EBC
  0
LINE
  5
EBD
330
AF3
100
AcDbEntity
  8
0
  6
Continuous
 62
     7
370
    15
100
AcDbLine
 10
1664.041699762428
 20
1355.668702692757
 30
0.0
 11
1662.400046765941
 21
1356.173223487061
 31
0.0
1001
AcDbBlockRepETag
1070
     1
1071
      335
1005
EBD
  0
LINE
  5
EBE
330
AF3
100
AcDbEntity
  8
0
  6
Continuous
 62
     7
370
    15
100
AcDbLine
 10
1662.400046765941
 20
1356.173223487061
 30
0.0
 11
1662.555916279882
 21
1356.519433494144
 31
0.0
1001
AcDbBlockRepETag
1070
     1
1071
      336
1005
EBE
  0
LINE
  5
EBF
330
AF3
100
AcDbEntity
  8
0
  6
Continuous
 62
     7
370
    15
100
AcDbLine
 10
1662.397659151976
 20
1356.16807138794
 30
0.0
 11
1662.400046765941
 21
1356.173223487061
 31
0.0
1001
AcDbBlockRepETag
1070
     1
1071
      337
1005
EBF
  0
LWPOLYLINE
  5
EC0
330
AF3
100
AcDbEntity
  8
0
  6
Continuous
 62
     7
370
    15
100
AcDbPolyline
 90
        8
 70
   128
 43
0.0
 10
1650.470120511815
 20
1356.574464284847
 10
1650.45621139378
 20
1356.576568692158
 10
1650.437029856211
 20
1356.573370858056
 10
1650.417101986662
 20
1356.563648912919
 10
1650.397193628279
 20
1356.547776255073
 10
1650.378069872967
 20
1356.526363105295
 10
1650.360465821652
 20
1356.500232289138
 10
1650.345057367047
 20
1356.470387931252
1001
AcDbBlockRepETag
1070
     1
1071
      338
1005
EC0
  0
LWPOLYLINE
  5
EC1
330
AF3
100
AcDbEntity
  8
0
  6
Continuous
 62
     7
370
    15
100
AcDbPolyline
 90
        8
 70
   128
 43
0.0
 10
1662.680979158679
 20
1356.623509676853
 10
1662.667070306615
 20
1356.62561425505
 10
1662.647888769046
 20
1356.622416420948
 10
1662.627960899498
 20
1356.612694475811
 10
1662.608052541115
 20
1356.596821817965
 10
1662.588928785802
 20
1356.575408668187
 10
1662.571324734487
 20
1356.54927785203
 10
1662.555916279882
 20
1356.519433494144
1001
AcDbBlockRepETag
1070
     1
1071
      339
1005
EC1
  0
LINE
  5
EC2
330
AF3
100
AcDbEntity
  8
0
  6
Continuous
 62
     7
370
    15
100
AcDbLine
 10
1648.188140869879
 20
1348.33347635836
 30
0.0
 11
1649.829794057481
 21
1347.828955505322
 31
0.0
1001
AcDbBlockRepETag
1070
     1
1071
      340
1005
EC2
  0
LINE
  5
EC3
330
AF3
100
AcDbEntity
  8
0
  6
Continuous
 62
     7
370
    15
100
AcDbLine
 10
1647.982932350654
 20
1348.52237930755
 30
0.0
 11
1648.188140869879
 21
1348.33347635836
 31
0.0
1001
AcDbBlockRepETag
1070
     1
1071
      341
1005
EC3
  0
LINE
  5
EC4
330
AF3
100
AcDbEntity
  8
0
  6
Continuous
 62
     7
370
    15
100
AcDbLine
 10
1650.759187958836
 20
1356.48562641565
 30
0.0
 11
1650.762381000073
 21
1356.49245202518
 31
0.0
1001
AcDbBlockRepETag
1070
     1
1071
      342
1005
EC4
  0
LINE
  5
EC5
330
AF3
100
AcDbEntity
  8
0
  6
Continuous
 62
     7
370
    15
100
AcDbLine
 10
1664.614892643424
 20
1356.036976622883
 30
0.0
 11
1662.973239646936
 21
1356.541497417186
 31
0.0
1001
AcDbBlockRepETag
1070
     1
1071
      343
1005
EC5
  0
LINE
  5
EC6
330
AF3
100
AcDbEntity
  8
0
  6
Continuous
 62
     7
370
    15
100
AcDbLine
 10
1662.970046605699
 20
1356.534671807656
 30
0.0
 11
1662.973239646936
 21
1356.541497417186
 31
0.0
1001
AcDbBlockRepETag
1070
     1
1071
      344
1005
EC6
  0
LINE
  5
EC7
330
AF3
100
AcDbEntity
  8
0
  6
Continuous
 62
     7
370
    15
100
AcDbLine
 10
1650.762381000073
 20
1356.49245202518
 30
0.0
 11
1650.918250514014
 21
1356.838662032263
 31
0.0
1001
AcDbBlockRepETag
1070
     1
1071
      345
1005
EC7
  0
LINE
  5
EC8
330
AF3
100
AcDbEntity
  8
0
  6
Continuous
 62
     7
370
    15
100
AcDbLine
 10
1663.12910942685
 20
1356.887707595155
 30
0.0
 11
1664.770762423338
 21
1356.383186800852
 31
0.0
1001
AcDbBlockRepETag
1070
     1
1071
      346
1005
EC8
  0
LINE
  5
EC9
330
AF3
100
AcDbEntity
  8
0
  6
Continuous
 62
     7
370
    15
100
AcDbLine
 10
1662.973239646936
 20
1356.541497417186
 30
0.0
 11
1663.12910942685
 21
1356.887707595155
 31
0.0
1001
AcDbBlockRepETag
1070
     1
1071
      347
1005
EC9
  0
ARC
  5
ECA
330
AF3
100
AcDbEntity
  8
0
  6
Continuous
 62
     7
370
    15
100
AcDbCircle
 10
1662.717770768776
 20
1360.726097953789
 30
0.0
 40
0.4458569705148982
100
AcDbArc
 50
278.4606086289234
 51
344.9396880977626
1001
AcDbBlockRepETag
1070
     1
1071
      348
1005
ECA
  0
LWPOLYLINE
  5
ECB
330
AF3
100
AcDbEntity
  8
0
  6
Continuous
 62
     7
370
    15
100
AcDbPolyline
 90
        8
 70
   128
 43
0.0
 10
1651.043313126839
 20
1356.942738044086
 10
1651.029404540747
 20
1356.944842793169
 10
1651.010223003179
 20
1356.941644959067
 10
1650.990295133629
 20
1356.93192301393
 10
1650.970386775247
 20
1356.916050356084
 10
1650.951263019934
 20
1356.894637206307
 10
1650.93365896862
 20
1356.868506390149
 10
1650.918250514014
 20
1356.838662032263
1001
AcDbBlockRepETag
1070
     1
1071
      349
1005
ECB
  0
LWPOLYLINE
  5
ECC
330
AF3
100
AcDbEntity
  8
0
  6
Continuous
 62
     7
370
    15
100
AcDbPolyline
 90
        8
 70
   128
 43
0.0
 10
1663.254172039675
 20
1356.991783606978
 10
1663.240263187611
 20
1356.993888185176
 10
1663.221081650042
 20
1356.990690351073
 10
1663.201153780493
 20
1356.980968405936
 10
1663.181245688083
 20
1356.965095918976
 10
1663.16212193277
 20
1356.943682769199
 10
1663.144517615483
 20
1356.917551782156
 10
1663.12910942685
 20
1356.887707595155
1001
AcDbBlockRepETag
1070
     1
1071
      350
1005
ECC
  0
LINE
  5
ECD
330
AF3
100
AcDbEntity
  8
0
  6
Continuous
 62
     7
370
    15
100
AcDbLine
 10
1651.332380573859
 20
1356.85390017489
 30
0.0
 11
1651.33557414704
 21
1356.860726126192
 31
0.0
1001
AcDbBlockRepETag
1070
     1
1071
      351
1005
ECD
  0
LINE
  5
ECE
330
AF3
100
AcDbEntity
  8
0
  6
Continuous
 62
     7
370
    15
100
AcDbLine
 10
1665.188085790392
 20
1356.405250723894
 30
0.0
 11
1663.546432793904
 21
1356.909771518198
 31
0.0
1001
AcDbBlockRepETag
1070
     1
1071
      352
1005
ECE
  0
LINE
  5
ECF
330
AF3
100
AcDbEntity
  8
0
  6
Continuous
 62
     7
370
    15
100
AcDbLine
 10
1663.543239486695
 20
1356.902945737782
 30
0.0
 11
1663.546432793904
 21
1356.909771518198
 31
0.0
1001
AcDbBlockRepETag
1070
     1
1071
      353
1005
ECF
  0
LINE
  5
ED0
330
AF3
100
AcDbEntity
  8
0
  6
Continuous
 62
     7
370
    15
100
AcDbLine
 10
1651.33557414704
 20
1356.860726126192
 30
0.0
 11
1651.491443660982
 21
1357.206936133275
 31
0.0
1001
AcDbBlockRepETag
1070
     1
1071
      354
1005
ED0
  0
LINE
  5
ED1
330
AF3
100
AcDbEntity
  8
0
  6
Continuous
 62
     7
370
    15
100
AcDbLine
 10
1663.702302307845
 20
1357.255981525281
 30
0.0
 11
1665.343955304333
 21
1356.751460730977
 31
0.0
1001
AcDbBlockRepETag
1070
     1
1071
      355
1005
ED1
  0
LINE
  5
ED2
330
AF3
100
AcDbEntity
  8
0
  6
Continuous
 62
     7
370
    15
100
AcDbLine
 10
1663.546432793904
 20
1356.909771518198
 30
0.0
 11
1663.702302307845
 21
1357.255981525281
 31
0.0
1001
AcDbBlockRepETag
1070
     1
1071
      356
1005
ED2
  0
LWPOLYLINE
  5
ED3
330
AF3
100
AcDbEntity
  8
0
  6
Continuous
 62
     7
370
    15
100
AcDbPolyline
 90
        8
 70
   128
 43
0.0
 10
1651.616506273807
 20
1357.311012145097
 10
1651.602597687715
 20
1357.313116894181
 10
1651.583416150146
 20
1357.309919060078
 10
1651.563488280597
 20
1357.300197114942
 10
1651.543579922215
 20
1357.284324457096
 10
1651.524456166901
 20
1357.262911307318
 10
1651.506851583643
 20
1357.236780149389
 10
1651.491443660982
 20
1357.206936133275
1001
AcDbBlockRepETag
1070
     1
1071
      357
1005
ED3
  0
LWPOLYLINE
  5
ED4
330
AF3
100
AcDbEntity
  8
0
  6
Continuous
 62
     7
370
    15
100
AcDbPolyline
 90
        8
 70
   128
 43
0.0
 10
1663.82736492067
 20
1357.360057537104
 10
1663.813456334578
 20
1357.362162286187
 10
1663.79427479701
 20
1357.358964452085
 10
1663.774346927461
 20
1357.349242506948
 10
1663.754438569078
 20
1357.333369849102
 10
1663.735314813765
 20
1357.311956699324
 10
1663.717710496479
 20
1357.285825712281
 10
1663.702302307845
 20
1357.255981525281
1001
AcDbBlockRepETag
1070
     1
1071
      358
1005
ED4
  0
LINE
  5
ED5
330
AF3
100
AcDbEntity
  8
0
  6
Continuous
 62
     7
370
    15
100
AcDbLine
 10
1651.905573720827
 20
1357.222174275901
 30
0.0
 11
1651.908766762064
 21
1357.228999885431
 31
0.0
1001
AcDbBlockRepETag
1070
     1
1071
      359
1005
ED5
  0
LINE
  5
ED6
330
AF3
100
AcDbEntity
  8
0
  6
Continuous
 62
     7
370
    15
100
AcDbLine
 10
1665.761278671387
 20
1356.77352465402
 30
0.0
 11
1664.119625674899
 21
1357.278045448323
 31
0.0
1001
AcDbBlockRepETag
1070
     1
1071
      360
1005
ED6
  0
LINE
  5
ED7
330
AF3
100
AcDbEntity
  8
0
  6
Continuous
 62
     7
370
    15
100
AcDbLine
 10
1664.116432367691
 20
1357.271219667907
 30
0.0
 11
1664.119625674899
 21
1357.278045448323
 31
0.0
1001
AcDbBlockRepETag
1070
     1
1071
      361
1005
ED7
  0
LINE
  5
ED8
330
AF3
100
AcDbEntity
  8
0
  6
Continuous
 62
     7
370
    15
100
AcDbLine
 10
1651.908766762064
 20
1357.228999885431
 30
0.0
 11
1652.064636276006
 21
1357.575209892514
 31
0.0
1001
AcDbBlockRepETag
1070
     1
1071
      362
1005
ED8
  0
LINE
  5
ED9
330
AF3
100
AcDbEntity
  8
0
  6
Continuous
 62
     7
370
    15
100
AcDbLine
 10
1664.119625674899
 20
1357.278045448323
 30
0.0
 11
1664.168903662704
 21
1357.387499388837
 31
0.0
1001
AcDbBlockRepETag
1070
     1
1071
      363
1005
ED9
  0
LWPOLYLINE
  5
EDA
330
AF3
100
AcDbEntity
  8
0
  6
Continuous
 62
     7
370
    15
100
AcDbPolyline
 90
        8
 70
   128
 43
0.0
 10
1652.189699420774
 20
1357.679286246109
 10
1652.175790302739
 20
1357.68139065342
 10
1652.15660876517
 20
1357.678192819318
 10
1652.136680895621
 20
1357.668470874181
 10
1652.116772537238
 20
1357.652598216335
 10
1652.097648781925
 20
1357.631185066558
 10
1652.080044730611
 20
1357.605054250401
 10
1652.064636276006
 20
1357.575209892514
1001
AcDbBlockRepETag
1070
     1
1071
      364
1005
EDA
  0
LINE
  5
EDB
330
AF3
100
AcDbEntity
  8
0
  6
Continuous
 62
     7
370
    15
100
AcDbLine
 10
1652.478766867795
 20
1357.590448376913
 30
0.0
 11
1652.481959909032
 21
1357.597273986443
 31
0.0
1001
AcDbBlockRepETag
1070
     1
1071
      365
1005
EDB
  0
LINE
  5
EDC
330
AF3
100
AcDbEntity
  8
0
  6
Continuous
 62
     7
370
    15
100
AcDbLine
 10
1652.481959909032
 20
1357.597273986443
 30
0.0
 11
1652.637829422973
 21
1357.943483993526
 31
0.0
1001
AcDbBlockRepETag
1070
     1
1071
      366
1005
EDC
  0
LWPOLYLINE
  5
EDD
330
AF3
100
AcDbEntity
  8
0
  6
Continuous
 62
     7
370
    15
100
AcDbPolyline
 90
        8
 70
   128
 43
0.0
 10
1652.762892035798
 20
1358.047560005348
 10
1652.748983449706
 20
1358.049664754432
 10
1652.729801912137
 20
1358.046466920329
 10
1652.709874042588
 20
1358.036744975193
 10
1652.689965684206
 20
1358.020872317347
 10
1652.670841928893
 20
1357.999459167569
 10
1652.653237345634
 20
1357.97332800964
 10
1652.637829422973
 20
1357.943483993526
1001
AcDbBlockRepETag
1070
     1
1071
      367
1005
EDD
  0
LINE
  5
EDE
330
AF3
100
AcDbEntity
  8
0
  6
Continuous
 62
     7
370
    15
100
AcDbLine
 10
1653.049441040516
 20
1357.961878142379
 30
0.0
 11
1653.205310554457
 21
1358.308088149461
 31
0.0
1001
AcDbBlockRepETag
1070
     1
1071
      368
1005
EDE
  0
LINE
  5
EDF
330
AF3
100
AcDbEntity
  8
0
  6
Continuous
 62
     7
370
    15
100
AcDbLine
 10
1657.230783073437
 20
1352.997381340631
 30
0.0
 11
1656.8693560024
 21
1353.108456868378
 31
0.0
1001
AcDbBlockRepETag
1070
     1
1071
      369
1005
EDF
  0
LINE
  5
EE0
330
AF3
100
AcDbEntity
  8
0
  6
Continuous
 62
     7
370
    15
100
AcDbLine
 10
1657.570906243078
 20
1353.244227180802
 30
0.0
 11
1657.627669261633
 21
1353.226782493484
 31
0.0
1001
AcDbBlockRepETag
1070
     1
1071
      370
1005
EE0
  0
LINE
  5
EE1
330
AF3
100
AcDbEntity
  8
0
  6
Continuous
 62
     7
370
    15
100
AcDbLine
 10
1665.779171082182
 20
1350.721623253335
 30
0.0
 11
1665.992693630768
 21
1350.656002463774
 31
0.0
1001
AcDbBlockRepETag
1070
     1
1071
      371
1005
EE1
  0
LINE
  5
EE2
330
AF3
100
AcDbEntity
  8
0
  6
Continuous
 62
     7
370
    15
100
AcDbLine
 10
1665.992693630768
 20
1350.656002463774
 30
0.0
 11
1665.103879276694
 21
1350.662060971719
 31
0.0
1001
AcDbBlockRepETag
1070
     1
1071
      372
1005
EE2
  0
LINE
  5
EE3
330
AF3
100
AcDbEntity
  8
0
  6
Continuous
 62
     7
370
    15
100
AcDbLine
 10
1656.639067626306
 20
1353.001414644933
 30
0.0
 11
1657.230783073437
 21
1352.997381340631
 31
0.0
1001
AcDbBlockRepETag
1070
     1
1071
      373
1005
EE3
  0
LWPOLYLINE
  5
EE4
330
AF3
100
AcDbEntity
  8
0
  6
Continuous
 62
     7
370
    15
100
AcDbPolyline
 90
        8
 70
   128
 43
0.0
 10
1653.330373167282
 20
1358.412164161284
 10
1653.31646458119
 20
1358.414268910367
 10
1653.297283043621
 20
1358.411071076265
 10
1653.277355174073
 20
1358.401349131128
 10
1653.25744681569
 20
1358.385476473282
 10
1653.238323060377
 20
1358.364063323505
 10
1653.220719009063
 20
1358.337932507347
 10
1653.205310554457
 20
1358.308088149461
1001
AcDbBlockRepETag
1070
     1
1071
      374
1005
EE4
  0
LINE
  5
EE5
330
AF3
100
AcDbEntity
  8
0
  6
Continuous
 62
     7
370
    15
100
AcDbLine
 10
1653.620611736108
 20
1358.328852827188
 30
0.0
 11
1653.77648125005
 21
1358.67506283427
 31
0.0
1001
AcDbBlockRepETag
1070
     1
1071
      375
1005
EE5
  0
LINE
  5
EE6
330
AF3
100
AcDbEntity
  8
0
  6
Continuous
 62
     7
370
    15
100
AcDbLine
 10
1653.618224122144
 20
1358.323700728067
 30
0.0
 11
1653.620611736108
 21
1358.328852827188
 31
0.0
1001
AcDbBlockRepETag
1070
     1
1071
      376
1005
EE6
  0
LWPOLYLINE
  5
EE7
330
AF3
100
AcDbEntity
  8
0
  6
Continuous
 62
     7
370
    15
100
AcDbPolyline
 90
        8
 70
   128
 43
0.0
 10
1653.901543862874
 20
1358.779138846093
 10
1653.887635276782
 20
1358.781243595177
 10
1653.868453739214
 20
1358.778045761074
 10
1653.848525869665
 20
1358.768323815938
 10
1653.828617511283
 20
1358.752451158091
 10
1653.809493755969
 20
1358.731038008314
 10
1653.791889172711
 20
1358.704906850385
 10
1653.77648125005
 20
1358.67506283427
1001
AcDbBlockRepETag
1070
     1
1071
      377
1005
EE7
  0
LINE
  5
EE8
330
AF3
100
AcDbEntity
  8
0
  6
Continuous
 62
     7
370
    15
100
AcDbLine
 10
1665.992693630768
 20
1350.656002463774
 30
0.0
 11
1665.927907710653
 21
1350.365706672873
 31
0.0
1001
AcDbBlockRepETag
1070
     1
1071
      378
1005
EE8
  0
LINE
  5
EE9
330
AF3
100
AcDbEntity
  8
0
  6
Continuous
 62
     7
370
    15
100
AcDbLine
 10
1665.927907710653
 20
1350.365706672873
 30
0.0
 11
1665.003934720306
 21
1350.372004777839
 31
0.0
1001
AcDbBlockRepETag
1070
     1
1071
      379
1005
EE9
  0
LINE
  5
EEA
330
AF3
100
AcDbEntity
  8
0
  6
Continuous
 62
     7
370
    15
100
AcDbLine
 10
1654.191782165728
 20
1358.695827341111
 30
0.0
 11
1654.281705277056
 21
1358.895560311481
 31
0.0
1001
AcDbBlockRepETag
1070
     1
1071
      380
1005
EEA
  0
LINE
  5
EEB
330
AF3
100
AcDbEntity
  8
0
  6
Continuous
 62
     7
370
    15
100
AcDbLine
 10
1654.189394551764
 20
1358.69067524199
 30
0.0
 11
1654.191782165728
 21
1358.695827341111
 31
0.0
1001
AcDbBlockRepETag
1070
     1
1071
      381
1005
EEB
  0
LINE
  5
EED
330
AF3
100
AcDbEntity
  8
0
  6
Continuous
 62
     7
370
    15
100
AcDbLine
 10
1661.127136456749
 20
1357.653437141937
 30
0.0
 11
1660.317649012265
 21
1357.902212765862
 31
0.0
1001
AcDbBlockRepETag
1070
     1
1071
      382
1005
EED
  0
LINE
  5
EEE
330
AF3
100
AcDbEntity
  8
0
  6
Continuous
 62
     8
370
    15
100
AcDbLine
 10
1655.950905081856
 20
1359.306620889501
 30
0.0
 11
1650.292881517644
 21
1361.045472247804
 31
0.0
1001
AcDbBlockRepETag
1070
     1
1071
      383
1005
EEE
  0
LINE
  5
EEF
330
AF3
100
AcDbEntity
  8
0
  6
Continuous
 62
     8
370
    15
100
AcDbLine
 10
1650.570488354371
 20
1371.961275827075
 30
0.0
 11
1654.978680183652
 21
1374.793519882334
 31
0.0
1001
AcDbBlockRepETag
1070
     1
1071
      384
1005
EEF
  0
LINE
  5
EF0
330
AF3
100
AcDbEntity
  8
0
  6
Continuous
 62
     8
370
    15
100
AcDbLine
 10
1656.197377438359
 20
1347.190101080844
 30
0.0
 11
1650.555457866564
 21
1348.924003281766
 31
0.0
1001
AcDbBlockRepETag
1070
     1
1071
      385
1005
EF0
  0
LINE
  5
EF1
330
AF3
100
AcDbEntity
  8
0
  6
Continuous
 62
     8
370
    15
100
AcDbLine
 10
1662.783003079667
 20
1360.400586606804
 30
0.0
 11
1662.783369445726
 21
1360.285093133249
 31
0.0
1001
AcDbBlockRepETag
1070
     1
1071
      386
1005
EF1
  0
LINE
  5
EF2
330
AF3
100
AcDbEntity
  8
0
  6
Continuous
 62
     8
370
    15
100
AcDbLine
 10
1665.455577089478
 20
1362.435921946785
 30
0.0
 11
1665.793270938959
 21
1362.332140228276
 31
0.0
1001
AcDbBlockRepETag
1070
     1
1071
      387
1005
EF2
  0
LINE
  5
EF3
330
AF3
100
AcDbEntity
  8
0
  6
Continuous
 62
     8
370
    15
100
AcDbLine
 10
1650.189187853105
 20
1356.124177924169
 30
0.0
 11
1651.771812944323
 21
1355.637797873199
 31
0.0
1001
AcDbBlockRepETag
1070
     1
1071
      388
1005
EF3
  0
LINE
  5
EF4
330
AF3
100
AcDbEntity
  8
0
  6
Continuous
 62
     8
370
    15
100
AcDbLine
 10
1650.762381000073
 20
1356.49245202518
 30
0.0
 11
1652.225297912973
 21
1356.042861274592
 31
0.0
1001
AcDbBlockRepETag
1070
     1
1071
      389
1005
EF4
  0
LINE
  5
EF5
330
AF3
100
AcDbEntity
  8
0
  6
Continuous
 62
     8
370
    15
100
AcDbLine
 10
1650.918250514014
 20
1356.838662032263
 30
0.0
 11
1652.541427607782
 21
1356.339819342368
 31
0.0
1001
AcDbBlockRepETag
1070
     1
1071
      390
1005
EF5
  0
LINE
  5
EF6
330
AF3
100
AcDbEntity
  8
0
  6
Continuous
 62
     8
370
    15
100
AcDbLine
 10
1651.33557414704
 20
1356.860726126192
 30
0.0
 11
1652.659364215747
 21
1356.453892514957
 31
0.0
1001
AcDbBlockRepETag
1070
     1
1071
      391
1005
EF6
  0
LINE
  5
EF7
330
AF3
100
AcDbEntity
  8
0
  6
Continuous
 62
     8
370
    15
100
AcDbLine
 10
1651.491443660982
 20
1357.206936133275
 30
0.0
 11
1652.961754375015
 21
1356.755073083712
 31
0.0
1001
AcDbBlockRepETag
1070
     1
1071
      392
1005
EF7
  0
LINE
  5
EF8
330
AF3
100
AcDbEntity
  8
0
  6
Continuous
 62
     8
370
    15
100
AcDbLine
 10
1651.908766762064
 20
1357.228999885431
 30
0.0
 11
1653.074510509299
 21
1356.870737839452
 31
0.0
1001
AcDbBlockRepETag
1070
     1
1071
      393
1005
EF8
  0
LINE
  5
EF9
330
AF3
100
AcDbEntity
  8
0
  6
Continuous
 62
     8
370
    15
100
AcDbLine
 10
1652.064636276006
 20
1357.575209892514
 30
0.0
 11
1653.363460034623
 21
1357.176049049291
 31
0.0
1001
AcDbBlockRepETag
1070
     1
1071
      394
1005
EF9
  0
LINE
  5
EFA
330
AF3
100
AcDbEntity
  8
0
  6
Continuous
 62
     8
370
    15
100
AcDbLine
 10
1652.481959909032
 20
1357.597273986443
 30
0.0
 11
1653.471137667072
 21
1357.293275060201
 31
0.0
1001
AcDbBlockRepETag
1070
     1
1071
      395
1005
EFA
  0
LINE
  5
EFB
330
AF3
100
AcDbEntity
  8
0
  6
Continuous
 62
     8
370
    15
100
AcDbLine
 10
1652.637829422973
 20
1357.943483993526
 30
0.0
 11
1653.746875130261
 21
1357.602646665322
 31
0.0
1001
AcDbBlockRepETag
1070
     1
1071
      396
1005
EFB
  0
LINE
  5
EFC
330
AF3
100
AcDbEntity
  8
0
  6
Continuous
 62
     8
370
    15
100
AcDbLine
 10
1656.592748574564
 20
1352.86044426257
 30
0.0
 11
1657.128576700469
 21
1352.695770953247
 31
0.0
1001
AcDbBlockRepETag
1070
     1
1071
      397
1005
EFC
  0
LINE
  5
EFD
330
AF3
100
AcDbEntity
  8
0
  6
Continuous
 62
     8
370
    15
100
AcDbLine
 10
1653.845867020345
 20
1357.717116631385
 30
0.0
 11
1653.049441040516
 21
1357.961878142379
 31
0.0
1001
AcDbBlockRepETag
1070
     1
1071
      398
1005
EFD
  0
LINE
  5
EFE
330
AF3
100
AcDbEntity
  8
0
  6
Continuous
 62
     8
370
    15
100
AcDbLine
 10
1653.205310554457
 20
1358.308088149461
 30
0.0
 11
1654.108690558541
 21
1358.03045700683
 31
0.0
1001
AcDbBlockRepETag
1070
     1
1071
      399
1005
EFE
  0
LINE
  5
EFF
330
AF3
100
AcDbEntity
  8
0
  6
Continuous
 62
     8
370
    15
100
AcDbLine
 10
1657.241759504261
 20
1352.81619244168
 30
0.0
 11
1656.639067626306
 21
1353.001414644933
 31
0.0
1001
AcDbBlockRepETag
1070
     1
1071
      400
1005
EFF
  0
LINE
  5
F00
330
AF3
100
AcDbEntity
  8
0
  6
Continuous
 62
     8
370
    15
100
AcDbLine
 10
1654.205221978602
 20
1358.149187560208
 30
0.0
 11
1653.620611736108
 21
1358.328852827188
 31
0.0
1001
AcDbBlockRepETag
1070
     1
1071
      401
1005
F00
  0
LINE
  5
F01
330
AF3
100
AcDbEntity
  8
0
  6
Continuous
 62
     8
370
    15
100
AcDbLine
 10
1653.77648125005
 20
1358.67506283427
 30
0.0
 11
1654.455156054342
 21
1358.466489188032
 31
0.0
1001
AcDbBlockRepETag
1070
     1
1071
      402
1005
F01
  0
LINE
  5
F02
330
AF3
100
AcDbEntity
  8
0
  6
Continuous
 62
     8
370
    15
100
AcDbLine
 10
1654.544515863474
 20
1358.587423503184
 30
0.0
 11
1654.191782165728
 21
1358.695827341111
 31
0.0
1001
AcDbBlockRepETag
1070
     1
1071
      403
1005
F02
  0
ENDBLK
  5
AF5
330
AF3
100
AcDbEntity
  8
0
100
AcDbBlockEnd
  0
ENDSEC
  0
SECTION
  2
ENTITIES
  0
INSERT
  5
9B9
330
1F
100
AcDbEntity
  8
0
100
AcDbBlockReference
  2
1
 10
0.0
 20
0.0
 30
0.0
  0
INSERT
  5
A7E
330
1F
100
AcDbEntity
  8
0
100
AcDbBlockReference
  2
2
 10
0.0
 20
0.0
 30
0.0
  0
INSERT
  5
AF2
330
1F
100
AcDbEntity
  8
0
100
AcDbBlockReference
  2
3
 10
0.0
 20
0.0
 30
0.0
  0
INSERT
  5
C8E
330
1F
100
AcDbEntity
  8
0
100
AcDbBlockReference
  2
4
 10
88.41378980519607
 20
44.32115771922849
 30
0.0
  0
ENDSEC
  0
SECTION
  2
OBJECTS
  0
DICTIONARY
  5
C
330
0
100
AcDbDictionary
281
     1
  3
ACAD_COLOR
350
6B
  3
ACAD_GROUP
350
D
  3
ACAD_LAYOUT
350
1A
  3
ACAD_MATERIAL
350
6A
  3
ACAD_MLEADERSTYLE
350
12D
  3
ACAD_MLINESTYLE
350
17
  3
ACAD_PLOTSETTINGS
350
19
  3
ACAD_PLOTSTYLENAME
350
E
  3
ACAD_SCALELIST
350
10C
  3
ACAD_TABLESTYLE
350
7E
  3
ACAD_VISUALSTYLE
350
EF
  3
ACDB_RECOMPOSE_DATA
350
15D
  3
AcDbVariableDictionary
350
5E
  3
DWGPROPS
350
F14
  0
DICTIONARY
  5
13C
330
10
100
AcDbDictionary
280
     1
281
     1
  3
ADSK_XREC_LAYER_RECONCILED
360
C8F
  0
DICTIONARY
  5
D5A
330
9BA
100
AcDbDictionary
280
     1
281
     1
  0
DICTIONARY
  5
F03
330
AF3
100
AcDbDictionary
280
     1
281
     1
  0
DICTIONARY
  5
6B
102
{ACAD_REACTORS
330
C
102
}
330
C
100
AcDbDictionary
281
     1
  0
DICTIONARY
  5
D
102
{ACAD_REACTORS
330
C
102
}
330
C
100
AcDbDictionary
281
     1
  0
DICTIONARY
  5
1A
102
{ACAD_REACTORS
330
C
102
}
330
C
100
AcDbDictionary
281
     1
  3
Layout1
350
D3
  3
Layout2
350
D7
  3
Model
350
22
  0
DICTIONARY
  5
6A
102
{ACAD_REACTORS
330
C
102
}
330
C
100
AcDbDictionary
281
     1
  3
ByBlock
350
ED
  3
ByLayer
350
EC
  3
Global
350
EE
  0
DICTIONARY
  5
12D
102
{ACAD_REACTORS
330
C
102
}
330
C
100
AcDbDictionary
281
     1
  3
Annotative
350
13B
  3
Standard
350
12E
  0
DICTIONARY
  5
17
102
{ACAD_REACTORS
330
C
102
}
330
C
100
AcDbDictionary
281
     1
  3
Standard
350
18
  0
DICTIONARY
  5
19
102
{ACAD_REACTORS
330
C
102
}
330
C
100
AcDbDictionary
281
     1
  0
ACDBDICTIONARYWDFLT
  5
E
102
{ACAD_REACTORS
330
C
102
}
330
C
100
AcDbDictionary
281
     1
  3
Normal
350
F
100
AcDbDictionaryWithDefault
340
F
  0
DICTIONARY
  5
10C
102
{ACAD_REACTORS
330
C
102
}
330
C
100
AcDbDictionary
281
     1
  3
A0
350
10D
  3
A1
350
188
  3
A2
350
189
  3
A3
350
18A
  3
A4
350
18B
  3
A5
350
18C
  3
A6
350
18D
  3
A7
350
18E
  3
A8
350
18F
  3
A9
350
190
  3
B0
350
191
  3
B1
350
192
  3
B2
350
193
  3
B3
350
194
  3
B4
350
195
  3
B5
350
196
  3
B6
350
197
  3
B7
350
198
  3
B8
350
199
  3
B9
350
19A
  3
C0
350
19B
  3
C1
350
19C
  3
C2
350
19D
  3
C3
350
19E
  3
C4
350
19F
  3
C5
350
1A0
  3
C6
350
1A1
  3
C7
350
1A2
  3
C8
350
1A3
  3
C9
350
1A4
  3
D0
350
1A5
  3
D1
350
1A6
  3
D2
350
1A7
  0
DICTIONARY
  5
7E
102
{ACAD_REACTORS
330
C
102
}
330
C
100
AcDbDictionary
281
     1
  3
Standard
350
7F
  0
DICTIONARY
  5
EF
102
{ACAD_REACTORS
330
C
102
}
330
C
100
AcDbDictionary
281
     1
  3
2dWireframe
350
F5
  3
3D Hidden
350
F7
  3
3dWireframe
350
F6
  3
Basic
350
F4
  3
Brighten
350
FB
  3
ColorChange
350
FF
  3
Conceptual
350
F8
  3
Dim
350
FA
  3
Facepattern
350
FE
  3
Flat
350
F0
  3
FlatWithEdges
350
F1
  3
Gouraud
350
F2
  3
GouraudWithEdges
350
F3
  3
Linepattern
350
FD
  3
Realistic
350
F9
  3
Thicken
350
FC
  0
XRECORD
  5
15D
102
{ACAD_REACTORS
330
C
102
}
330
C
100
AcDbXrecord
280
     1
 90
        1
330
7F
  0
DICTIONARY
  5
5E
102
{ACAD_REACTORS
330
C
102
}
330
C
100
AcDbDictionary
281
     1
  3
CANNOSCALE
350
146
  3
CMLEADERSTYLE
350
145
  3
CTABLESTYLE
350
84
  3
DIMASSOC
350
5F
  3
HIDETEXT
350
63
  3
INDEXCTL
350
F10
  3
LIGHTINGUNITS
350
F0E
  3
MSLTSCALE
350
F0D
  3
PSOLHEIGHT
350
F12
  3
PSOLWIDTH
350
F11
  3
SORTENTS
350
F0F
  0
XRECORD
  5
F14
102
{ACAD_REACTORS
330
C
102
}
330
C
100
AcDbXrecord
280
     1
  1
DWGPROPS COOKIE
  2

  3

  4

  6

  7

  8
orhan kara
  9

300
=
301
=
302
=
303
=
304
=
305
=
306
=
307
=
308
=
309
=
 40
0.0012082638888889
 41
2458480.690475602
 42
2459089.544499259
  1

 90
        0
  0
XRECORD
  5
C8F
102
{ACAD_REACTORS
330
13C
102
}
330
13C
100
AcDbXrecord
280
     1
290
     1
  0
LAYOUT
  5
D3
102
{ACAD_XDICTIONARY
360
F18
102
}
102
{ACAD_REACTORS
330
1A
102
}
330
1A
100
AcDbPlotSettings
  1

  2
C:\Documents and Settings\basas\Application Data\Autodesk\AutoCAD 2005\R16.1\enu\plotters\Default Windows System Printer.pc3
  4

  6

 40
0.0
 41
0.0
 42
0.0
 43
0.0
 44
0.0
 45
0.0
 46
0.0
 47
0.0
 48
0.0
 49
0.0
140
0.0
141
0.0
142
1.0
143
1.0
 70
   688
 72
     0
 73
     0
 74
     5
  7

 75
    16
147
1.0
148
0.0
149
0.0
100
AcDbLayout
  1
Layout1
 70
     1
 71
     1
 10
0.0
 20
0.0
 11
12.0
 21
9.0
 12
0.0
 22
0.0
 32
0.0
 14
0.0
 24
0.0
 34
0.0
 15
0.0
 25
0.0
 35
0.0
146
0.0
 13
0.0
 23
0.0
 33
0.0
 16
1.0
 26
0.0
 36
0.0
 17
0.0
 27
1.0
 37
0.0
 76
     0
330
D2
  0
LAYOUT
  5
D7
102
{ACAD_XDICTIONARY
360
F1A
102
}
102
{ACAD_REACTORS
330
1A
102
}
330
1A
100
AcDbPlotSettings
  1

  2
C:\Documents and Settings\basas\Application Data\Autodesk\AutoCAD 2005\R16.1\enu\plotters\Default Windows System Printer.pc3
  4

  6

 40
0.0
 41
0.0
 42
0.0
 43
0.0
 44
0.0
 45
0.0
 46
0.0
 47
0.0
 48
0.0
 49
0.0
140
0.0
141
0.0
142
1.0
143
1.0
 70
   688
 72
     0
 73
     0
 74
     5
  7

 75
    16
147
1.0
148
0.0
149
0.0
100
AcDbLayout
  1
Layout2
 70
     1
 71
     2
 10
0.0
 20
0.0
 11
12.0
 21
9.0
 12
0.0
 22
0.0
 32
0.0
 14
0.0
 24
0.0
 34
0.0
 15
0.0
 25
0.0
 35
0.0
146
0.0
 13
0.0
 23
0.0
 33
0.0
 16
1.0
 26
0.0
 36
0.0
 17
0.0
 27
1.0
 37
0.0
 76
     0
330
D6
  0
LAYOUT
  5
22
102
{ACAD_XDICTIONARY
360
F15
102
}
102
{ACAD_REACTORS
330
1A
102
}
330
1A
100
AcDbPlotSettings
  1

  2
none_device
  4
ISO_A4_(210.00_x_297.00_MM)
  6

 40
7.5
 41
20.0
 42
7.5
 43
20.0
 44
210.0
 45
297.0
 46
11.54999923706054
 47
-13.65000009536743
 48
0.0
 49
0.0
140
0.0
141
0.0
142
1.0
143
8.704084754739808
 70
 11952
 72
     1
 73
     0
 74
     0
  7

 75
     0
147
0.1148885871608098
148
0.0
149
0.0
100
AcDbLayout
  1
Model
 70
     1
 71
     0
 10
0.0
 20
0.0
 11
12.0
 21
9.0
 12
0.0
 22
0.0
 32
0.0
 14
0.0
 24
0.0
 34
0.0
 15
0.0
 25
0.0
 35
0.0
146
0.0
 13
0.0
 23
0.0
 33
0.0
 16
1.0
 26
0.0
 36
0.0
 17
0.0
 27
1.0
 37
0.0
 76
     0
330
1F
331
EA
1001
ACAD_PSEXT
1000
None
1000
None
1000
Not applicable
1000
The layout will not be plotted unless a new plotter configuration name is selected.
1070
     0
  0
MATERIAL
  5
ED
102
{ACAD_XDICTIONARY
360
F1E
102
}
102
{ACAD_REACTORS
330
6A
102
}
330
6A
100
AcDbMaterial
  1
ByBlock
  0
MATERIAL
  5
EC
102
{ACAD_XDICTIONARY
360
F1C
102
}
102
{ACAD_REACTORS
330
6A
102
}
330
6A
100
AcDbMaterial
  1
ByLayer
  0
MATERIAL
  5
EE
102
{ACAD_XDICTIONARY
360
173
102
}
102
{ACAD_REACTORS
330
6A
102
}
330
6A
100
AcDbMaterial
  1
Global
 43
0.0007999999797903
 43
0.0
 43
0.0
 43
0.0
 43
0.0
 43
0.0007999999797903
 43
0.0
 43
0.0
 43
0.0
 43
0.0
 43
1.0
 43
0.0
 43
0.0
 43
0.0
 43
0.0
 43
1.0
 49
0.0007999999797903
 49
0.0
 49
0.0
 49
0.0
 49
0.0
 49
0.0007999999797903
 49
0.0
 49
0.0
 49
0.0
 49
0.0
 49
1.0
 49
0.0
 49
0.0
 49
0.0
 49
0.0
 49
1.0
142
0.0007999999797903
142
0.0
142
0.0
142
0.0
142
0.0
142
0.0007999999797903
142
0.0
142
0.0
142
0.0
142
0.0
142
1.0
142
0.0
142
0.0
142
0.0
142
0.0
142
1.0
144
0.0007999999797903
144
0.0
144
0.0
144
0.0
144
0.0
144
0.0007999999797903
144
0.0
144
0.0
144
0.0
144
0.0
144
1.0
144
0.0
144
0.0
144
0.0
144
0.0
144
1.0
1001
ACAD
1070
    -1
1070
     3
1070
     0
1000

1071
        0
1070
     0
  0
MLEADERSTYLE
  5
13B
102
{ACAD_REACTORS
330
12D
102
}
330
12D
100
AcDbMLeaderStyle
170
     2
171
     1
172
     0
 90
        2
 40
0.0
 41
0.0
173
     1
 91
-1056964608
340
14
 92
       -2
290
     1
 42
2.0
291
     1
 43
8.0
  3
Standard
 44
4.0
300

342
11
174
     1
178
     1
175
     1
176
     0
 93
-1056964608
 45
4.0
292
     0
297
     0
 46
4.0
 94
-1056964608
 47
1.0
 49
1.0
140
1.0
293
     1
141
0.0
294
     1
177
     0
142
1.0
295
     0
296
     1
143
3.75
1001
ACAD_MLEADERVER
1070
     2
  0
MLEADERSTYLE
  5
12E
102
{ACAD_REACTORS
330
12D
102
}
330
12D
100
AcDbMLeaderStyle
170
     2
171
     1
172
     0
 90
        2
 40
0.0
 41
0.0
173
     1
 91
-1056964608
340
14
 92
       -2
290
     1
 42
2.0
291
     1
 43
8.0
  3
Standard
 44
4.0
300

342
11
174
     1
178
     1
175
     1
176
     0
 93
-1056964608
 45
4.0
292
     0
297
     0
 46
4.0
 94
-1056964608
 47
1.0
 49
1.0
140
1.0
293
     1
141
0.0
294
     1
177
     0
142
1.0
295
     0
296
     0
143
3.75
1001
ACAD_MLEADERVER
1070
     2
  0
MLINESTYLE
  5
18
102
{ACAD_REACTORS
330
17
102
}
330
17
100
AcDbMlineStyle
  2
STANDARD
 70
     0
  3

 62
   256
 51
90.0
 52
90.0
 71
     2
 49
0.5
 62
   256
  6
BYLAYER
 49
-0.5
 62
   256
  6
BYLAYER
  0
ACDBPLACEHOLDER
  5
F
102
{ACAD_REACTORS
330
E
102
}
330
E
  0
SCALE
  5
10D
102
{ACAD_REACTORS
330
10C
102
}
330
10C
100
AcDbScale
 70
     0
300
1:1
140
1.0
141
1.0
290
     1
  0
SCALE
  5
188
102
{ACAD_REACTORS
330
10C
102
}
330
10C
100
AcDbScale
 70
     0
300
1:2
140
1.0
141
2.0
290
     0
  0
SCALE
  5
189
102
{ACAD_REACTORS
330
10C
102
}
330
10C
100
AcDbScale
 70
     0
300
1:4
140
1.0
141
4.0
290
     0
  0
SCALE
  5
18A
102
{ACAD_REACTORS
330
10C
102
}
330
10C
100
AcDbScale
 70
     0
300
1:5
140
1.0
141
5.0
290
     0
  0
SCALE
  5
18B
102
{ACAD_REACTORS
330
10C
102
}
330
10C
100
AcDbScale
 70
     0
300
1:8
140
1.0
141
8.0
290
     0
  0
SCALE
  5
18C
102
{ACAD_REACTORS
330
10C
102
}
330
10C
100
AcDbScale
 70
     0
300
1:10
140
1.0
141
10.0
290
     0
  0
SCALE
  5
18D
102
{ACAD_REACTORS
330
10C
102
}
330
10C
100
AcDbScale
 70
     0
300
1:16
140
1.0
141
16.0
290
     0
  0
SCALE
  5
18E
102
{ACAD_REACTORS
330
10C
102
}
330
10C
100
AcDbScale
 70
     0
300
1:20
140
1.0
141
20.0
290
     0
  0
SCALE
  5
18F
102
{ACAD_REACTORS
330
10C
102
}
330
10C
100
AcDbScale
 70
     0
300
1:30
140
1.0
141
30.0
290
     0
  0
SCALE
  5
190
102
{ACAD_REACTORS
330
10C
102
}
330
10C
100
AcDbScale
 70
     0
300
1:40
140
1.0
141
40.0
290
     0
  0
SCALE
  5
191
102
{ACAD_REACTORS
330
10C
102
}
330
10C
100
AcDbScale
 70
     0
300
1:50
140
1.0
141
50.0
290
     0
  0
SCALE
  5
192
102
{ACAD_REACTORS
330
10C
102
}
330
10C
100
AcDbScale
 70
     0
300
1:100
140
1.0
141
100.0
290
     0
  0
SCALE
  5
193
102
{ACAD_REACTORS
330
10C
102
}
330
10C
100
AcDbScale
 70
     0
300
2:1
140
2.0
141
1.0
290
     0
  0
SCALE
  5
194
102
{ACAD_REACTORS
330
10C
102
}
330
10C
100
AcDbScale
 70
     0
300
4:1
140
4.0
141
1.0
290
     0
  0
SCALE
  5
195
102
{ACAD_REACTORS
330
10C
102
}
330
10C
100
AcDbScale
 70
     0
300
8:1
140
8.0
141
1.0
290
     0
  0
SCALE
  5
196
102
{ACAD_REACTORS
330
10C
102
}
330
10C
100
AcDbScale
 70
     0
300
10:1
140
10.0
141
1.0
290
     0
  0
SCALE
  5
197
102
{ACAD_REACTORS
330
10C
102
}
330
10C
100
AcDbScale
 70
     0
300
100:1
140
100.0
141
1.0
290
     0
  0
SCALE
  5
198
102
{ACAD_REACTORS
330
10C
102
}
330
10C
100
AcDbScale
 70
     0
300
1/128" = 1'-0"
140
0.0078125
141
12.0
290
     0
  0
SCALE
  5
199
102
{ACAD_REACTORS
330
10C
102
}
330
10C
100
AcDbScale
 70
     0
300
1/64" = 1'-0"
140
0.015625
141
12.0
290
     0
  0
SCALE
  5
19A
102
{ACAD_REACTORS
330
10C
102
}
330
10C
100
AcDbScale
 70
     0
300
1/32" = 1'-0"
140
0.03125
141
12.0
290
     0
  0
SCALE
  5
19B
102
{ACAD_REACTORS
330
10C
102
}
330
10C
100
AcDbScale
 70
     0
300
1/16" = 1'-0"
140
0.0625
141
12.0
290
     0
  0
SCALE
  5
19C
102
{ACAD_REACTORS
330
10C
102
}
330
10C
100
AcDbScale
 70
     0
300
3/32" = 1'-0"
140
0.09375
141
12.0
290
     0
  0
SCALE
  5
19D
102
{ACAD_REACTORS
330
10C
102
}
330
10C
100
AcDbScale
 70
     0
300
1/8" = 1'-0"
140
0.125
141
12.0
290
     0
  0
SCALE
  5
19E
102
{ACAD_REACTORS
330
10C
102
}
330
10C
100
AcDbScale
 70
     0
300
3/16" = 1'-0"
140
0.1875
141
12.0
290
     0
  0
SCALE
  5
19F
102
{ACAD_REACTORS
330
10C
102
}
330
10C
100
AcDbScale
 70
     0
300
1/4" = 1'-0"
140
0.25
141
12.0
290
     0
  0
SCALE
  5
1A0
102
{ACAD_REACTORS
330
10C
102
}
330
10C
100
AcDbScale
 70
     0
300
3/8" = 1'-0"
140
0.375
141
12.0
290
     0
  0
SCALE
  5
1A1
102
{ACAD_REACTORS
330
10C
102
}
330
10C
100
AcDbScale
 70
     0
300
1/2" = 1'-0"
140
0.5
141
12.0
290
     0
  0
SCALE
  5
1A2
102
{ACAD_REACTORS
330
10C
102
}
330
10C
100
AcDbScale
 70
     0
300
3/4" = 1'-0"
140
0.75
141
12.0
290
     0
  0
SCALE
  5
1A3
102
{ACAD_REACTORS
330
10C
102
}
330
10C
100
AcDbScale
 70
     0
300
1" = 1'-0"
140
1.0
141
12.0
290
     0
  0
SCALE
  5
1A4
102
{ACAD_REACTORS
330
10C
102
}
330
10C
100
AcDbScale
 70
     0
300
1-1/2" = 1'-0"
140
1.5
141
12.0
290
     0
  0
SCALE
  5
1A5
102
{ACAD_REACTORS
330
10C
102
}
330
10C
100
AcDbScale
 70
     0
300
3" = 1'-0"
140
3.0
141
12.0
290
     0
  0
SCALE
  5
1A6
102
{ACAD_REACTORS
330
10C
102
}
330
10C
100
AcDbScale
 70
     0
300
6" = 1'-0"
140
6.0
141
12.0
290
     0
  0
SCALE
  5
1A7
102
{ACAD_REACTORS
330
10C
102
}
330
10C
100
AcDbScale
 70
     0
300
1'-0" = 1'-0"
140
12.0
141
12.0
290
     0
  0
TABLESTYLE
  5
7F
102
{ACAD_XDICTIONARY
360
162
102
}
102
{ACAD_REACTORS
330
7E
102
}
330
7E
100
AcDbTableStyle
  3
Standard
 70
     0
 71
     0
 40
1.5
 41
1.5
280
     0
281
     0
  7
Standard
140
4.5
170
     2
 62
     0
 63
     7
283
     0
274
    -2
284
     1
 64
     0
275
    -2
285
     1
 65
     0
276
    -2
286
     1
 66
     0
277
    -2
287
     1
 67
     0
278
    -2
288
     1
 68
     0
279
    -2
289
     1
 69
     0
  7
Standard
140
6.0
170
     5
 62
     0
 63
     7
283
     0
274
    -2
284
     1
 64
     0
275
    -2
285
     1
 65
     0
276
    -2
286
     1
 66
     0
277
    -2
287
     1
 67
     0
278
    -2
288
     1
 68
     0
279
    -2
289
     1
 69
     0
  7
Standard
140
4.5
170
     5
 62
     0
 63
     7
283
     0
274
    -2
284
     1
 64
     0
275
    -2
285
     1
 65
     0
276
    -2
286
     1
 66
     0
277
    -2
287
     1
 67
     0
278
    -2
288
     1
 68
     0
279
    -2
289
     1
 69
     0
  0
VISUALSTYLE
  5
F5
102
{ACAD_REACTORS
330
EF
102
}
330
EF
100
AcDbVisualStyle
  2
2dWireframe
 70
     4
 71
     0
 72
     2
 73
     1
 90
        0
 40
-0.6
 41
-30.0
 62
     5
 63
     7
 74
     1
 91
        4
 64
     7
 65
   257
 75
     1
175
     1
 42
1.0
 92
        0
 66
   257
 43
1.0
 76
     1
 77
     6
 78
     2
 67
     7
 79
     5
170
     0
171
     0
290
     0
174
     0
 93
        1
 44
0.0
173
     0
291
     0
 45
0.0
1001
ACAD
1000
AcDbSavedByObjectVersion
1070
     0
  0
VISUALSTYLE
  5
F7
102
{ACAD_REACTORS
330
EF
102
}
330
EF
100
AcDbVisualStyle
  2
3D Hidden
 70
     6
 71
     1
 72
     2
 73
     2
 90
        0
 40
-0.6
 41
-30.0
 62
     5
 63
     7
 74
     2
 91
        2
 64
     7
 65
   257
 75
     2
175
     1
 42
40.0
 92
        0
 66
   257
 43
1.0
 76
     1
 77
     6
 78
     2
 67
     7
 79
     3
170
     0
171
     0
290
     0
174
     0
 93
        1
 44
0.0
173
     0
291
     0
 45
0.0
1001
ACAD
1000
AcDbSavedByObjectVersion
1070
     0
  0
VISUALSTYLE
  5
F6
102
{ACAD_REACTORS
330
EF
102
}
330
EF
100
AcDbVisualStyle
  2
3dWireframe
 70
     5
 71
     0
 72
     2
 73
     1
 90
        0
 40
-0.6
 41
-30.0
 62
     5
 63
     7
 74
     1
 91
        4
 64
     7
 65
   257
 75
     1
175
     1
 42
1.0
 92
        0
 66
   257
 43
1.0
 76
     1
 77
     6
 78
     2
 67
     7
 79
     5
170
     0
171
     0
290
     0
174
     0
 93
        1
 44
0.0
173
     0
291
     0
 45
0.0
1001
ACAD
1000
AcDbSavedByObjectVersion
1070
     0
  0
VISUALSTYLE
  5
F4
102
{ACAD_REACTORS
330
EF
102
}
330
EF
100
AcDbVisualStyle
  2
Basic
 70
     7
 71
     1
 72
     0
 73
     1
 90
        0
 40
-0.6
 41
-30.0
 62
     5
 63
     7
 74
     0
 91
        4
 64
     7
 65
   257
 75
     1
175
     1
 42
1.0
 92
        8
 66
     7
 43
1.0
 76
     1
 77
     6
 78
     2
 67
     7
 79
     5
170
     0
171
     0
290
     0
174
     0
 93
        1
 44
0.0
173
     0
291
     1
 45
0.0
1001
ACAD
1000
AcDbSavedByObjectVersion
1070
     0
  0
VISUALSTYLE
  5
FB
102
{ACAD_REACTORS
330
EF
102
}
330
EF
100
AcDbVisualStyle
  2
Brighten
 70
    12
 71
     2
 72
     2
 73
     1
 90
        0
 40
-0.6
 41
-30.0
 62
     5
 63
     7
 74
     1
 91
        4
 64
     7
 65
   257
 75
     1
175
     1
 42
1.0
 92
        8
 66
     7
 43
1.0
 76
     1
 77
     6
 78
     2
 67
     7
 79
     5
170
     0
171
     0
290
     0
174
     0
 93
        1
 44
50.0
173
     0
291
     1
 45
0.0
1001
ACAD
1000
AcDbSavedByObjectVersion
1070
     0
  0
VISUALSTYLE
  5
FF
102
{ACAD_REACTORS
330
EF
102
}
330
EF
100
AcDbVisualStyle
  2
ColorChange
 70
    16
 71
     2
 72
     2
 73
     3
 90
        0
 40
-0.6
 41
-30.0
 62
     5
 63
     8
 74
     1
 91
        4
 64
     7
 65
   257
 75
     1
175
     1
 42
1.0
 92
        8
 66
     8
 43
1.0
 76
     1
 77
     6
 78
     2
 67
     7
 79
     5
170
     0
171
     0
290
     0
174
     0
 93
        1
 44
0.0
173
     0
291
     1
 45
0.0
1001
ACAD
1000
AcDbSavedByObjectVersion
1070
     0
  0
VISUALSTYLE
  5
F8
102
{ACAD_REACTORS
330
EF
102
}
330
EF
100
AcDbVisualStyle
  2
Conceptual
 70
     9
 71
     3
 72
     2
 73
     1
 90
        0
 40
-0.6
 41
-30.0
 62
     5
 63
     7
 74
     2
 91
        2
 64
     7
 65
   257
 75
     1
175
     1
 42
40.0
 92
        8
 66
     7
 43
1.0
 76
     1
 77
     6
 78
     2
 67
     7
 79
     3
170
     0
171
     0
290
     0
174
     0
 93
        1
 44
0.0
173
     0
291
     0
 45
0.0
1001
ACAD
1000
AcDbSavedByObjectVersion
1070
     0
  0
VISUALSTYLE
  5
FA
102
{ACAD_REACTORS
330
EF
102
}
330
EF
100
AcDbVisualStyle
  2
Dim
 70
    11
 71
     2
 72
     2
 73
     1
 90
        0
 40
-0.6
 41
-30.0
 62
     5
 63
     7
 74
     1
 91
        4
 64
     7
 65
   257
 75
     1
175
     1
 42
1.0
 92
        8
 66
     7
 43
1.0
 76
     1
 77
     6
 78
     2
 67
     7
 79
     5
170
     0
171
     0
290
     0
174
     0
 93
        1
 44
-50.0
173
     0
291
     1
 45
0.0
1001
ACAD
1000
AcDbSavedByObjectVersion
1070
     0
  0
VISUALSTYLE
  5
FE
102
{ACAD_REACTORS
330
EF
102
}
330
EF
100
AcDbVisualStyle
  2
Facepattern
 70
    15
 71
     2
 72
     2
 73
     1
 90
        0
 40
-0.6
 41
-30.0
 62
     5
 63
     7
 74
     1
 91
        4
 64
     7
 65
   257
 75
     1
175
     1
 42
1.0
 92
        8
 66
     7
 43
1.0
 76
     1
 77
     6
 78
     2
 67
     7
 79
     5
170
     0
171
     0
290
     0
174
     0
 93
        1
 44
0.0
173
     0
291
     1
 45
0.0
1001
ACAD
1000
AcDbSavedByObjectVersion
1070
     0
  0
VISUALSTYLE
  5
F0
102
{ACAD_REACTORS
330
EF
102
}
330
EF
100
AcDbVisualStyle
  2
Flat
 70
     0
 71
     2
 72
     1
 73
     1
 90
        2
 40
-0.6
 41
30.0
 62
     5
 63
     7
 74
     0
 91
        4
 64
     7
 65
   257
 75
     1
175
     1
 42
1.0
 92
        8
 66
     7
 43
1.0
 76
     1
 77
     6
 78
     2
 67
     7
 79
     5
170
     0
171
     0
290
     0
174
     0
 93
        1
 44
0.0
173
     0
291
     1
 45
0.0
1001
ACAD
1000
AcDbSavedByObjectVersion
1070
     0
  0
VISUALSTYLE
  5
F1
102
{ACAD_REACTORS
330
EF
102
}
330
EF
100
AcDbVisualStyle
  2
FlatWithEdges
 70
     1
 71
     2
 72
     1
 73
     1
 90
        2
 40
-0.6
 41
30.0
 62
     5
 63
     7
 74
     1
 91
        4
 64
     7
 65
   257
 75
     1
175
     1
 42
1.0
 92
        0
 66
   257
 43
1.0
 76
     1
 77
     6
 78
     2
 67
     7
 79
     5
170
     0
171
     0
290
     0
174
     0
 93
        1
 44
0.0
173
     0
291
     1
 45
0.0
1001
ACAD
1000
AcDbSavedByObjectVersion
1070
     0
  0
VISUALSTYLE
  5
F2
102
{ACAD_REACTORS
330
EF
102
}
330
EF
100
AcDbVisualStyle
  2
Gouraud
 70
     2
 71
     2
 72
     2
 73
     1
 90
        2
 40
-0.6
 41
30.0
 62
     5
 63
     7
 74
     0
 91
        4
 64
     7
 65
   257
 75
     1
175
     1
 42
1.0
 92
        0
 66
     7
 43
1.0
 76
     1
 77
     6
 78
     2
 67
     7
 79
     5
170
     0
171
     0
290
     0
174
     0
 93
        1
 44
0.0
173
     0
291
     1
 45
0.0
1001
ACAD
1000
AcDbSavedByObjectVersion
1070
     0
  0
VISUALSTYLE
  5
F3
102
{ACAD_REACTORS
330
EF
102
}
330
EF
100
AcDbVisualStyle
  2
GouraudWithEdges
 70
     3
 71
     2
 72
     2
 73
     1
 90
        2
 40
-0.6
 41
30.0
 62
     5
 63
     7
 74
     1
 91
        4
 64
     7
 65
   257
 75
     1
175
     1
 42
1.0
 92
        0
 66
   257
 43
1.0
 76
     1
 77
     6
 78
     2
 67
     7
 79
     5
170
     0
171
     0
290
     0
174
     0
 93
        1
 44
0.0
173
     0
291
     1
 45
0.0
1001
ACAD
1000
AcDbSavedByObjectVersion
1070
     0
  0
VISUALSTYLE
  5
FD
102
{ACAD_REACTORS
330
EF
102
}
330
EF
100
AcDbVisualStyle
  2
Linepattern
 70
    14
 71
     2
 72
     2
 73
     1
 90
        0
 40
-0.6
 41
-30.0
 62
     5
 63
     7
 74
     1
 91
        4
 64
     7
 65
   257
 75
     7
175
     7
 42
1.0
 92
        8
 66
     7
 43
1.0
 76
     1
 77
     6
 78
     2
 67
     7
 79
     5
170
     0
171
     0
290
     0
174
     0
 93
        1
 44
0.0
173
     0
291
     1
 45
0.0
1001
ACAD
1000
AcDbSavedByObjectVersion
1070
     0
  0
VISUALSTYLE
  5
F9
102
{ACAD_REACTORS
330
EF
102
}
330
EF
100
AcDbVisualStyle
  2
Realistic
 70
     8
 71
     2
 72
     2
 73
     1
 90
        0
 40
-0.6
 41
-30.0
 62
     5
 63
     7
 74
     1
 91
        0
 64
     7
 65
   257
 75
     1
175
     1
 42
1.0
 92
        8
 66
     8
 43
1.0
 76
     1
 77
     6
 78
     2
 67
     7
 79
     5
170
     0
171
     0
290
     0
174
     0
 93
       13
 44
0.0
173
     0
291
     0
 45
0.0
1001
ACAD
1000
AcDbSavedByObjectVersion
1070
     0
  0
VISUALSTYLE
  5
FC
102
{ACAD_REACTORS
330
EF
102
}
330
EF
100
AcDbVisualStyle
  2
Thicken
 70
    13
 71
     2
 72
     2
 73
     1
 90
        0
 40
-0.6
 41
-30.0
 62
     5
 63
     7
 74
     1
 91
        4
 64
     7
 65
   257
 75
     1
175
     1
 42
1.0
 92
       12
 66
     7
 43
1.0
 76
     1
 77
     6
 78
     2
 67
     7
 79
     5
170
     0
171
     0
290
     0
174
     0
 93
        1
 44
0.0
173
     0
291
     1
 45
0.0
1001
ACAD
1000
AcDbSavedByObjectVersion
1070
     0
  0
DICTIONARYVAR
  5
146
102
{ACAD_REACTORS
330
5E
102
}
330
5E
100
DictionaryVariables
280
     0
  1
1:1
  0
DICTIONARYVAR
  5
145
102
{ACAD_REACTORS
330
5E
102
}
330
5E
100
DictionaryVariables
280
     0
  1
STANDARD
  0
DICTIONARYVAR
  5
84
102
{ACAD_REACTORS
330
5E
102
}
330
5E
100
DictionaryVariables
280
     0
  1
STANDARD
  0
DICTIONARYVAR
  5
5F
102
{ACAD_REACTORS
330
5E
102
}
330
5E
100
DictionaryVariables
280
     0
  1
2
  0
DICTIONARYVAR
  5
63
102
{ACAD_REACTORS
330
5E
102
}
330
5E
100
DictionaryVariables
280
     0
  1
1
  0
DICTIONARYVAR
  5
F10
102
{ACAD_REACTORS
330
5E
102
}
330
5E
100
DictionaryVariables
280
     0
  1
0
  0
DICTIONARYVAR
  5
F0E
102
{ACAD_REACTORS
330
5E
102
}
330
5E
100
DictionaryVariables
280
     0
  1
2
  0
DICTIONARYVAR
  5
F0D
102
{ACAD_REACTORS
330
5E
102
}
330
5E
100
DictionaryVariables
280
     0
  1
1
  0
DICTIONARYVAR
  5
F12
102
{ACAD_REACTORS
330
5E
102
}
330
5E
100
DictionaryVariables
280
     0
  1
80.000000
  0
DICTIONARYVAR
  5
F11
102
{ACAD_REACTORS
330
5E
102
}
330
5E
100
DictionaryVariables
280
     0
  1
5.000000
  0
DICTIONARYVAR
  5
F0F
102
{ACAD_REACTORS
330
5E
102
}
330
5E
100
DictionaryVariables
280
     0
  1
127
  0
DICTIONARY
  5
F18
330
D3
100
AcDbDictionary
280
     1
281
     1
  3
ACAD_XREC_ROUNDTRIP
360
F19
  0
DICTIONARY
  5
F1A
330
D7
100
AcDbDictionary
280
     1
281
     1
  3
ACAD_XREC_ROUNDTRIP
360
F1B
  0
DICTIONARY
  5
F15
330
22
100
AcDbDictionary
280
     1
281
     1
  3
ACAD_XREC_ROUNDTRIP
360
F16
  0
DICTIONARY
  5
F1E
330
ED
100
AcDbDictionary
280
     1
281
     1
  3
ACAD_XREC_ROUNDTRIP
360
F1F
  0
DICTIONARY
  5
F1C
330
EC
100
AcDbDictionary
280
     1
281
     1
  3
ACAD_XREC_ROUNDTRIP
360
F1D
  0
DICTIONARY
  5
173
330
EE
100
AcDbDictionary
280
     1
281
     1
  3
ACAD_XREC_ROUNDTRIP
360
F20
  3
BUMPTILE
360
175
  3
DIFFUSETILE
360
174
  3
OPACITYTILE
360
176
  3
REFLECTIONTILE
360
177
  0
DICTIONARY
  5
162
330
7F
100
AcDbDictionary
280
     1
281
     1
  3
ACAD_ROUNDTRIP_2008_TABLESTYLE_CELLSTYLEMAP
360
F13
  3
ACAD_XREC_ROUNDTRIP
360
F17
  0
XRECORD
  5
F19
102
{ACAD_REACTORS
330
F18
102
}
330
F18
100
AcDbXrecord
280
     1
102
SHADEPLOT
 70
     0
102
SHADEPLOTRESLEVEL
 70
     2
102
SHADEPLOTCUSTOMDPI
 70
   300
  0
XRECORD
  5
F1B
102
{ACAD_REACTORS
330
F1A
102
}
330
F1A
100
AcDbXrecord
280
     1
102
SHADEPLOT
 70
     0
102
SHADEPLOTRESLEVEL
 70
     2
102
SHADEPLOTCUSTOMDPI
 70
   300
  0
XRECORD
  5
F16
102
{ACAD_REACTORS
330
F15
102
}
330
F15
100
AcDbXrecord
280
     1
102
SHADEPLOT
 70
     0
102
SHADEPLOTRESLEVEL
 70
     2
102
SHADEPLOTCUSTOMDPI
 70
   300
  0
XRECORD
  5
F1F
102
{ACAD_REACTORS
330
F1E
102
}
330
F1E
100
AcDbXrecord
280
     1
102
MATERIAL
148
0.0
149
0.0
149
0.0
 93
        0
 94
       63
282
     0
 72
     1
 77
     1
171
     1
175
     1
179
     1
273
     0
  0
XRECORD
  5
F1D
102
{ACAD_REACTORS
330
F1C
102
}
330
F1C
100
AcDbXrecord
280
     1
102
MATERIAL
148
0.0
149
0.0
149
0.0
 93
        0
 94
       63
282
     0
 72
     1
 77
     1
171
     1
175
     1
179
     1
273
     0
  0
XRECORD
  5
F20
102
{ACAD_REACTORS
330
173
102
}
330
173
100
AcDbXrecord
280
     1
102
MATERIAL
148
0.0
149
0.0
149
0.0
 93
        0
 94
       63
282
     0
 72
     1
 77
     1
171
     1
175
     1
179
     1
273
     0
  0
XRECORD
  5
175
102
{ACAD_REACTORS
330
173
102
}
330
173
100
AcDbXrecord
280
     1
270
     1
271
     1
  0
XRECORD
  5
174
102
{ACAD_REACTORS
330
173
102
}
330
173
100
AcDbXrecord
280
     1
270
     1
271
     1
  0
XRECORD
  5
176
102
{ACAD_REACTORS
330
173
102
}
330
173
100
AcDbXrecord
280
     1
270
     1
271
     1
  0
XRECORD
  5
177
102
{ACAD_REACTORS
330
173
102
}
330
173
100
AcDbXrecord
280
     1
270
     1
271
     1
  0
CELLSTYLEMAP
  5
F13
102
{ACAD_REACTORS
330
162
102
}
330
162
100
AcDbCellStyleMap
 90
        3
300
CELLSTYLE
  1
TABLEFORMAT_BEGIN
 90
        5
170
     1
 91
        0
 92
    32768
 62
   257
 93
        1
300
CONTENTFORMAT
  1
CONTENTFORMAT_BEGIN
 90
        0
 91
        0
 92
      512
 93
        0
300

 40
0.0
140
1.0
 94
        5
 62
     0
340
11
144
6.0
309
CONTENTFORMAT_END
171
     1
301
MARGIN
  1
CELLMARGIN_BEGIN
 40
1.5
 40
1.5
 40
1.5
 40
1.5
 40
4.5
 40
4.5
309
CELLMARGIN_END
 94
        6
 95
        1
302
GRIDFORMAT
  1
GRIDFORMAT_BEGIN
 90
        0
 91
        1
 62
     0
 92
       -2
340
14
 93
        0
 40
1.125
309
GRIDFORMAT_END
 95
        2
302
GRIDFORMAT
  1
GRIDFORMAT_BEGIN
 90
        0
 91
        1
 62
     0
 92
       -2
340
14
 93
        0
 40
1.125
309
GRIDFORMAT_END
 95
        4
302
GRIDFORMAT
  1
GRIDFORMAT_BEGIN
 90
        0
 91
        1
 62
     0
 92
       -2
340
14
 93
        0
 40
1.125
309
GRIDFORMAT_END
 95
        8
302
GRIDFORMAT
  1
GRIDFORMAT_BEGIN
 90
        0
 91
        1
 62
     0
 92
       -2
340
14
 93
        0
 40
1.125
309
GRIDFORMAT_END
 95
       16
302
GRIDFORMAT
  1
GRIDFORMAT_BEGIN
 90
        0
 91
        1
 62
     0
 92
       -2
340
14
 93
        0
 40
1.125
309
GRIDFORMAT_END
 95
       32
302
GRIDFORMAT
  1
GRIDFORMAT_BEGIN
 90
        0
 91
        1
 62
     0
 92
       -2
340
14
 93
        0
 40
1.125
309
GRIDFORMAT_END
309
TABLEFORMAT_END
  1
CELLSTYLE_BEGIN
 90
        1
 91
        1
300
_TITLE
309
CELLSTYLE_END
300
CELLSTYLE
  1
TABLEFORMAT_BEGIN
 90
        5
170
     1
 91
        0
 92
        0
 62
   257
 93
        1
300
CONTENTFORMAT
  1
CONTENTFORMAT_BEGIN
 90
        0
 91
        0
 92
      512
 93
        0
300

 40
0.0
140
1.0
 94
        5
 62
     0
340
11
144
4.5
309
CONTENTFORMAT_END
171
     1
301
MARGIN
  1
CELLMARGIN_BEGIN
 40
1.5
 40
1.5
 40
1.5
 40
1.5
 40
4.5
 40
4.5
309
CELLMARGIN_END
 94
        6
 95
        1
302
GRIDFORMAT
  1
GRIDFORMAT_BEGIN
 90
        0
 91
        1
 62
     0
 92
       -2
340
14
 93
        0
 40
1.125
309
GRIDFORMAT_END
 95
        2
302
GRIDFORMAT
  1
GRIDFORMAT_BEGIN
 90
        0
 91
        1
 62
     0
 92
       -2
340
14
 93
        0
 40
1.125
309
GRIDFORMAT_END
 95
        4
302
GRIDFORMAT
  1
GRIDFORMAT_BEGIN
 90
        0
 91
        1
 62
     0
 92
       -2
340
14
 93
        0
 40
1.125
309
GRIDFORMAT_END
 95
        8
302
GRIDFORMAT
  1
GRIDFORMAT_BEGIN
 90
        0
 91
        1
 62
     0
 92
       -2
340
14
 93
        0
 40
1.125
309
GRIDFORMAT_END
 95
       16
302
GRIDFORMAT
  1
GRIDFORMAT_BEGIN
 90
        0
 91
        1
 62
     0
 92
       -2
340
14
 93
        0
 40
1.125
309
GRIDFORMAT_END
 95
       32
302
GRIDFORMAT
  1
GRIDFORMAT_BEGIN
 90
        0
 91
        1
 62
     0
 92
       -2
340
14
 93
        0
 40
1.125
309
GRIDFORMAT_END
309
TABLEFORMAT_END
  1
CELLSTYLE_BEGIN
 90
        2
 91
        1
300
_HEADER
309
CELLSTYLE_END
300
CELLSTYLE
  1
TABLEFORMAT_BEGIN
 90
        5
170
     1
 91
        0
 92
        0
 62
   257
 93
        1
300
CONTENTFORMAT
  1
CONTENTFORMAT_BEGIN
 90
        0
 91
        0
 92
      512
 93
        0
300

 40
0.0
140
1.0
 94
        2
 62
     0
340
11
144
4.5
309
CONTENTFORMAT_END
171
     1
301
MARGIN
  1
CELLMARGIN_BEGIN
 40
1.5
 40
1.5
 40
1.5
 40
1.5
 40
4.5
 40
4.5
309
CELLMARGIN_END
 94
        6
 95
        1
302
GRIDFORMAT
  1
GRIDFORMAT_BEGIN
 90
        0
 91
        1
 62
     0
 92
       -2
340
14
 93
        0
 40
1.125
309
GRIDFORMAT_END
 95
        2
302
GRIDFORMAT
  1
GRIDFORMAT_BEGIN
 90
        0
 91
        1
 62
     0
 92
       -2
340
14
 93
        0
 40
1.125
309
GRIDFORMAT_END
 95
        4
302
GRIDFORMAT
  1
GRIDFORMAT_BEGIN
 90
        0
 91
        1
 62
     0
 92
       -2
340
14
 93
        0
 40
1.125
309
GRIDFORMAT_END
 95
        8
302
GRIDFORMAT
  1
GRIDFORMAT_BEGIN
 90
        0
 91
        1
 62
     0
 92
       -2
340
14
 93
        0
 40
1.125
309
GRIDFORMAT_END
 95
       16
302
GRIDFORMAT
  1
GRIDFORMAT_BEGIN
 90
        0
 91
        1
 62
     0
 92
       -2
340
14
 93
        0
 40
1.125
309
GRIDFORMAT_END
 95
       32
302
GRIDFORMAT
  1
GRIDFORMAT_BEGIN
 90
        0
 91
        1
 62
     0
 92
       -2
340
14
 93
        0
 40
1.125
309
GRIDFORMAT_END
309
TABLEFORMAT_END
  1
CELLSTYLE_BEGIN
 90
        3
 91
        2
300
_DATA
309
CELLSTYLE_END
  0
XRECORD
  5
F17
102
{ACAD_REACTORS
330
162
102
}
330
162
100
AcDbXrecord
280
     1
102
ACAD_ROUNDTRIP_PRE2007_TABLESTYLE
 90
      512
 91
        0
  1

 92
      512
 93
        0
  2

 94
      512
 95
        0
  3

  0
ENDSEC
  0
EOF
