  0
SECTION
  2
HEADER
  9
$ACADVER
  1
AC1015
  9
$ACADMAINTVER
 70
    20
  9
$DWGCODEPAGE
  3
ANSI_1254
  9
$INSBASE
 10
0.0
 20
0.0
 30
0.0
  9
$EXTMIN
 10
1977.882297913591
 20
1279.401795665555
 30
0.0
  9
$EXTMAX
 10
2051.731068488817
 20
1328.072179122771
 30
0.0
  9
$LIMMIN
 10
0.0
 20
0.0
  9
$LIMMAX
 10
420.0
 20
297.0
  9
$ORTHOMODE
 70
     1
  9
$REGENMODE
 70
     1
  9
$FILLMODE
 70
     1
  9
$QTEXTMODE
 70
     0
  9
$MIRRTEXT
 70
     0
  9
$LTSCALE
 40
1.0
  9
$ATTMODE
 70
     1
  9
$TEXTSIZE
 40
2.5
  9
$TRACEWID
 40
1.0
  9
$TEXTSTYLE
  7
Standard
  9
$CLAYER
  8
0
  9
$CELTYPE
  6
ByLayer
  9
$CECOLOR
 62
   256
  9
$CELTSCALE
 40
1.0
  9
$DISPSILH
 70
     0
  9
$DIMSCALE
 40
1.0
  9
$DIMASZ
 40
2.5
  9
$DIMEXO
 40
0.625
  9
$DIMDLI
 40
3.75
  9
$DIMRND
 40
0.0
  9
$DIMDLE
 40
0.0
  9
$DIMEXE
 40
1.25
  9
$DIMTP
 40
0.0
  9
$DIMTM
 40
0.0
  9
$DIMTXT
 40
2.5
  9
$DIMCEN
 40
2.5
  9
$DIMTSZ
 40
0.0
  9
$DIMTOL
 70
     0
  9
$DIMLIM
 70
     0
  9
$DIMTIH
 70
     0
  9
$DIMTOH
 70
     0
  9
$DIMSE1
 70
     0
  9
$DIMSE2
 70
     0
  9
$DIMTAD
 70
     1
  9
$DIMZIN
 70
     8
  9
$DIMBLK
  1

  9
$DIMASO
 70
     1
  9
$DIMSHO
 70
     1
  9
$DIMPOST
  1

  9
$DIMAPOST
  1

  9
$DIMALT
 70
     0
  9
$DIMALTD
 70
     3
  9
$DIMALTF
 40
0.03937007874016
  9
$DIMLFAC
 40
1.0
  9
$DIMTOFL
 70
     1
  9
$DIMTVP
 40
0.0
  9
$DIMTIX
 70
     0
  9
$DIMSOXD
 70
     0
  9
$DIMSAH
 70
     0
  9
$DIMBLK1
  1

  9
$DIMBLK2
  1

  9
$DIMSTYLE
  2
ISO-25
  9
$DIMCLRD
 70
     0
  9
$DIMCLRE
 70
     0
  9
$DIMCLRT
 70
     0
  9
$DIMTFAC
 40
1.0
  9
$DIMGAP
 40
0.625
  9
$DIMJUST
 70
     0
  9
$DIMSD1
 70
     0
  9
$DIMSD2
 70
     0
  9
$DIMTOLJ
 70
     0
  9
$DIMTZIN
 70
     8
  9
$DIMALTZ
 70
     0
  9
$DIMALTTZ
 70
     0
  9
$DIMUPT
 70
     0
  9
$DIMDEC
 70
     2
  9
$DIMTDEC
 70
     2
  9
$DIMALTU
 70
     2
  9
$DIMALTTD
 70
     3
  9
$DIMTXSTY
  7
Standard
  9
$DIMAUNIT
 70
     0
  9
$DIMADEC
 70
     0
  9
$DIMALTRND
 40
0.0
  9
$DIMAZIN
 70
     0
  9
$DIMDSEP
 70
    44
  9
$DIMATFIT
 70
     3
  9
$DIMFRAC
 70
     0
  9
$DIMLDRBLK
  1

  9
$DIMLUNIT
 70
     2
  9
$DIMLWD
 70
    -2
  9
$DIMLWE
 70
    -2
  9
$DIMTMOVE
 70
     0
  9
$LUNITS
 70
     2
  9
$LUPREC
 70
     4
  9
$SKETCHINC
 40
1.0
  9
$FILLETRAD
 40
0.0
  9
$AUNITS
 70
     0
  9
$AUPREC
 70
     0
  9
$MENU
  1
.
  9
$ELEVATION
 40
0.0
  9
$PELEVATION
 40
0.0
  9
$THICKNESS
 40
0.0
  9
$LIMCHECK
 70
     0
  9
$CHAMFERA
 40
0.0
  9
$CHAMFERB
 40
0.0
  9
$CHAMFERC
 40
0.0
  9
$CHAMFERD
 40
0.0
  9
$SKPOLY
 70
     0
  9
$TDCREATE
 40
2458494.670458704
  9
$TDUCREATE
 40
2458494.545458704
  9
$TDUPDATE
 40
2458983.647349109
  9
$TDUUPDATE
 40
2458983.522349109
  9
$TDINDWG
 40
0.0014578819
  9
$TDUSRTIMER
 40
0.0014578819
  9
$USRTIMER
 70
     1
  9
$ANGBASE
 50
0.0
  9
$ANGDIR
 70
     0
  9
$PDMODE
 70
     0
  9
$PDSIZE
 40
0.0
  9
$PLINEWID
 40
0.0
  9
$SPLFRAME
 70
     0
  9
$SPLINETYPE
 70
     6
  9
$SPLINESEGS
 70
     8
  9
$HANDSEED
  5
4B7
  9
$SURFTAB1
 70
     6
  9
$SURFTAB2
 70
     6
  9
$SURFTYPE
 70
     6
  9
$SURFU
 70
     6
  9
$SURFV
 70
     6
  9
$UCSBASE
  2

  9
$UCSNAME
  2

  9
$UCSORG
 10
0.0
 20
0.0
 30
0.0
  9
$UCSXDIR
 10
1.0
 20
0.0
 30
0.0
  9
$UCSYDIR
 10
0.0
 20
1.0
 30
0.0
  9
$UCSORTHOREF
  2

  9
$UCSORTHOVIEW
 70
     0
  9
$UCSORGTOP
 10
0.0
 20
0.0
 30
0.0
  9
$UCSORGBOTTOM
 10
0.0
 20
0.0
 30
0.0
  9
$UCSORGLEFT
 10
0.0
 20
0.0
 30
0.0
  9
$UCSORGRIGHT
 10
0.0
 20
0.0
 30
0.0
  9
$UCSORGFRONT
 10
0.0
 20
0.0
 30
0.0
  9
$UCSORGBACK
 10
0.0
 20
0.0
 30
0.0
  9
$PUCSBASE
  2

  9
$PUCSNAME
  2

  9
$PUCSORG
 10
0.0
 20
0.0
 30
0.0
  9
$PUCSXDIR
 10
1.0
 20
0.0
 30
0.0
  9
$PUCSYDIR
 10
0.0
 20
1.0
 30
0.0
  9
$PUCSORTHOREF
  2

  9
$PUCSORTHOVIEW
 70
     0
  9
$PUCSORGTOP
 10
0.0
 20
0.0
 30
0.0
  9
$PUCSORGBOTTOM
 10
0.0
 20
0.0
 30
0.0
  9
$PUCSORGLEFT
 10
0.0
 20
0.0
 30
0.0
  9
$PUCSORGRIGHT
 10
0.0
 20
0.0
 30
0.0
  9
$PUCSORGFRONT
 10
0.0
 20
0.0
 30
0.0
  9
$PUCSORGBACK
 10
0.0
 20
0.0
 30
0.0
  9
$USERI1
 70
     0
  9
$USERI2
 70
     0
  9
$USERI3
 70
     0
  9
$USERI4
 70
     0
  9
$USERI5
 70
     0
  9
$USERR1
 40
0.0
  9
$USERR2
 40
0.0
  9
$USERR3
 40
0.0
  9
$USERR4
 40
0.0
  9
$USERR5
 40
0.0
  9
$WORLDVIEW
 70
     1
  9
$SHADEDGE
 70
     3
  9
$SHADEDIF
 70
    70
  9
$TILEMODE
 70
     1
  9
$MAXACTVP
 70
    64
  9
$PINSBASE
 10
0.0
 20
0.0
 30
0.0
  9
$PLIMCHECK
 70
     0
  9
$PEXTMIN
 10
0.0
 20
0.0
 30
0.0
  9
$PEXTMAX
 10
0.0
 20
0.0
 30
0.0
  9
$PLIMMIN
 10
0.0
 20
0.0
  9
$PLIMMAX
 10
12.0
 20
9.0
  9
$UNITMODE
 70
     0
  9
$VISRETAIN
 70
     1
  9
$PLINEGEN
 70
     0
  9
$PSLTSCALE
 70
     1
  9
$TREEDEPTH
 70
  3020
  9
$CMLSTYLE
  2
Standard
  9
$CMLJUST
 70
     0
  9
$CMLSCALE
 40
20.0
  9
$PROXYGRAPHICS
 70
     1
  9
$MEASUREMENT
 70
     1
  9
$CELWEIGHT
370
    -1
  9
$ENDCAPS
280
     0
  9
$JOINSTYLE
280
     0
  9
$LWDISPLAY
290
     0
  9
$INSUNITS
 70
     4
  9
$HYPERLINKBASE
  1

  9
$STYLESHEET
  1

  9
$XEDIT
290
     1
  9
$CEPSNTYPE
380
     0
  9
$PSTYLEMODE
290
     1
  9
$FINGERPRINTGUID
  2
{42AFC9C1-B849-4DD2-8BF6-92A66CC56121}
  9
$VERSIONGUID
  2
{84AA3633-7294-4831-9FD0-ECCB2C5206E6}
  9
$EXTNAMES
290
     1
  9
$PSVPSCALE
 40
0.0
  9
$OLESTARTUP
290
     0
  0
ENDSEC
  0
SECTION
  2
CLASSES
  0
CLASS
  1
ACDBDICTIONARYWDFLT
  2
AcDbDictionaryWithDefault
  3
ObjectDBX Classes
 90
        0
280
     0
281
     0
  0
CLASS
  1
ACDBPLACEHOLDER
  2
AcDbPlaceHolder
  3
ObjectDBX Classes
 90
        0
280
     0
281
     0
  0
CLASS
  1
LAYOUT
  2
AcDbLayout
  3
ObjectDBX Classes
 90
        0
280
     0
281
     0
  0
CLASS
  1
DICTIONARYVAR
  2
AcDbDictionaryVar
  3
ObjectDBX Classes
 90
        0
280
     0
281
     0
  0
CLASS
  1
TABLESTYLE
  2
AcDbTableStyle
  3
ObjectDBX Classes
 90
     4095
280
     0
281
     0
  0
CLASS
  1
MATERIAL
  2
AcDbMaterial
  3
ObjectDBX Classes
 90
     1153
280
     0
281
     0
  0
CLASS
  1
VISUALSTYLE
  2
AcDbVisualStyle
  3
ObjectDBX Classes
 90
     4095
280
     0
281
     0
  0
CLASS
  1
SCALE
  2
AcDbScale
  3
ObjectDBX Classes
 90
     1153
280
     0
281
     0
  0
CLASS
  1
MLEADERSTYLE
  2
AcDbMLeaderStyle
  3
ACDB_MLEADERSTYLE_CLASS
 90
     4095
280
     0
281
     0
  0
CLASS
  1
CELLSTYLEMAP
  2
AcDbCellStyleMap
  3
ObjectDBX Classes
 90
     1152
280
     0
281
     0
  0
CLASS
  1
DIMASSOC
  2
AcDbDimAssoc
  3
"AcDbDimAssoc|Product Desc:     AcDim ARX App For Dimension|Company:          Autodesk, Inc.|WEB Address:      www.autodesk.com"
 90
    32768
280
     0
281
     0
  0
CLASS
  1
ACAD_EVALUATION_GRAPH
  2
AcDbEvalGraph
  3
ObjectDBX Classes
 90
    33921
280
     0
281
     0
  0
CLASS
  1
ACAECUSTOBJ
  2
AcAeEditorObj
  3
AcAeEditorObj
 90
    33792
280
     0
281
     0
  0
CLASS
  1
ACDB_DYNAMICBLOCKPURGEPREVENTER_VERSION
  2
AcDbDynamicBlockPurgePreventer
  3
ObjectDBX Classes
 90
    33921
280
     0
281
     0
  0
ENDSEC
  0
SECTION
  2
TABLES
  0
TABLE
  2
VPORT
  5
8
330
0
100
AcDbSymbolTable
 70
     1
  0
VPORT
  5
EA
330
8
100
AcDbSymbolTableRecord
100
AcDbViewportTableRecord
  2
*Active
 70
     0
 10
0.0
 20
0.0
 11
1.0
 21
1.0
 12
2024.774291406063
 22
1310.556392623531
 13
0.0
 23
0.0
 14
10.0
 24
10.0
 15
10.0
 25
10.0
 16
0.0
 26
0.0
 36
1.0
 17
0.0
 27
0.0
 37
0.0
 40
88.77579378707254
 41
1.903110047846889
 42
50.0
 43
0.0
 44
0.0
 50
0.0
 51
0.0
 71
     0
 72
  1000
 73
     1
 74
     3
 75
     0
 76
     0
 77
     0
 78
     0
281
     0
 65
     1
110
0.0
120
0.0
130
0.0
111
1.0
121
0.0
131
0.0
112
0.0
122
1.0
132
0.0
 79
     0
146
0.0
  0
ENDTAB
  0
TABLE
  2
LTYPE
  5
5
330
0
100
AcDbSymbolTable
 70
     1
  0
LTYPE
  5
14
330
5
100
AcDbSymbolTableRecord
100
AcDbLinetypeTableRecord
  2
ByBlock
 70
     0
  3

 72
    65
 73
     0
 40
0.0
  0
LTYPE
  5
15
330
5
100
AcDbSymbolTableRecord
100
AcDbLinetypeTableRecord
  2
ByLayer
 70
     0
  3

 72
    65
 73
     0
 40
0.0
  0
LTYPE
  5
16
330
5
100
AcDbSymbolTableRecord
100
AcDbLinetypeTableRecord
  2
Continuous
 70
     0
  3
Solid line
 72
    65
 73
     0
 40
0.0
  0
ENDTAB
  0
TABLE
  2
LAYER
  5
2
330
0
100
AcDbSymbolTable
 70
     2
  0
LAYER
  5
10
102
{ACAD_XDICTIONARY
360
13C
102
}
330
2
100
AcDbSymbolTableRecord
100
AcDbLayerTableRecord
  2
0
 70
     0
 62
     7
  6
Continuous
370
    -3
390
F
  0
LAYER
  5
3DB
330
2
100
AcDbSymbolTableRecord
100
AcDbLayerTableRecord
  2
Defpoints
 70
     0
 62
     7
  6
Continuous
290
     0
370
    -3
390
F
  0
ENDTAB
  0
TABLE
  2
STYLE
  5
3
330
0
100
AcDbSymbolTable
 70
     2
  0
STYLE
  5
11
330
3
100
AcDbSymbolTableRecord
100
AcDbTextStyleTableRecord
  2
Standard
 70
     0
 40
0.0
 41
1.0
 50
0.0
 71
     0
 42
2.5
  3
txt
  4

  0
STYLE
  5
132
330
3
100
AcDbSymbolTableRecord
100
AcDbTextStyleTableRecord
  2
Annotative
 70
     0
 40
0.0
 41
1.0
 50
0.0
 71
     0
 42
2.5
  3
txt.shx
  4

1001
AcadAnnotative
1000
AnnotativeData
1002
{
1070
     1
1070
     1
1002
}
  0
ENDTAB
  0
TABLE
  2
VIEW
  5
6
330
0
100
AcDbSymbolTable
 70
     0
  0
ENDTAB
  0
TABLE
  2
UCS
  5
7
330
0
100
AcDbSymbolTable
 70
     0
  0
ENDTAB
  0
TABLE
  2
APPID
  5
9
330
0
100
AcDbSymbolTable
 70
    12
  0
APPID
  5
12
330
9
100
AcDbSymbolTableRecord
100
AcDbRegAppTableRecord
  2
ACAD
 70
     0
  0
APPID
  5
9E
330
9
100
AcDbSymbolTableRecord
100
AcDbRegAppTableRecord
  2
ACAD_PSEXT
 70
     0
  0
APPID
  5
133
330
9
100
AcDbSymbolTableRecord
100
AcDbRegAppTableRecord
  2
AcadAnnoPO
 70
     0
  0
APPID
  5
134
330
9
100
AcDbSymbolTableRecord
100
AcDbRegAppTableRecord
  2
AcadAnnotative
 70
     0
  0
APPID
  5
135
330
9
100
AcDbSymbolTableRecord
100
AcDbRegAppTableRecord
  2
ACAD_DSTYLE_DIMJAG
 70
     0
  0
APPID
  5
136
330
9
100
AcDbSymbolTableRecord
100
AcDbRegAppTableRecord
  2
ACAD_DSTYLE_DIMTALN
 70
     0
  0
APPID
  5
165
330
9
100
AcDbSymbolTableRecord
100
AcDbRegAppTableRecord
  2
ACAD_MLEADERVER
 70
     0
  0
APPID
  5
470
330
9
100
AcDbSymbolTableRecord
100
AcDbRegAppTableRecord
  2
ACAUTHENVIRON
 70
     0
  0
APPID
  5
474
330
9
100
AcDbSymbolTableRecord
100
AcDbRegAppTableRecord
  2
AcDbDynamicBlockTrueName
 70
     0
  0
APPID
  5
475
330
9
100
AcDbSymbolTableRecord
100
AcDbRegAppTableRecord
  2
AcDbDynamicBlockGUID
 70
     0
  0
APPID
  5
477
330
9
100
AcDbSymbolTableRecord
100
AcDbRegAppTableRecord
  2
AcDbBlockRepETag
 70
     0
  0
APPID
  5
497
330
9
100
AcDbSymbolTableRecord
100
AcDbRegAppTableRecord
  2
ACAD_EXEMPT_FROM_CAD_STANDARDS
 70
     0
  0
ENDTAB
  0
TABLE
  2
DIMSTYLE
  5
A
330
0
100
AcDbSymbolTable
 70
     2
100
AcDbDimStyleTable
 71
     2
340
27
340
137
  0
DIMSTYLE
105
27
330
A
100
AcDbSymbolTableRecord
100
AcDbDimStyleTableRecord
  2
ISO-25
 70
     0
 41
2.5
 42
0.625
 43
3.75
 44
1.25
 73
     0
 74
     0
 77
     1
 78
     8
140
2.5
141
2.5
143
0.03937007874016
147
0.625
171
     3
172
     1
271
     2
272
     2
274
     3
278
    44
283
     0
284
     8
340
11
  0
DIMSTYLE
105
137
330
A
100
AcDbSymbolTableRecord
100
AcDbDimStyleTableRecord
  2
Annotative
 70
     0
 40
0.0
 41
2.5
 42
0.625
 43
3.75
 44
1.25
 73
     0
 74
     0
 77
     1
 78
     8
140
2.5
141
2.5
143
0.03937007874016
147
0.625
171
     3
172
     1
271
     2
272
     2
274
     3
278
    44
283
     0
284
     8
340
11
1001
AcadAnnotative
1000
AnnotativeData
1002
{
1070
     1
1070
     1
1002
}
1001
ACAD_DSTYLE_DIMJAG
1070
   388
1040
1.5
1001
ACAD_DSTYLE_DIMTALN
1070
   392
1070
     0
  0
ENDTAB
  0
TABLE
  2
BLOCK_RECORD
  5
1
330
0
100
AcDbSymbolTable
 70
     9
  0
BLOCK_RECORD
  5
1F
330
1
100
AcDbSymbolTableRecord
100
AcDbBlockTableRecord
  2
*Model_Space
340
22
  0
BLOCK_RECORD
  5
D2
330
1
100
AcDbSymbolTableRecord
100
AcDbBlockTableRecord
  2
*Paper_Space
340
D3
  0
BLOCK_RECORD
  5
D6
330
1
100
AcDbSymbolTableRecord
100
AcDbBlockTableRecord
  2
*Paper_Space0
340
D7
  0
BLOCK_RECORD
  5
313
102
{ACAD_XDICTIONARY
360
471
102
}
330
1
100
AcDbSymbolTableRecord
100
AcDbBlockTableRecord
  2
1
340
0
310
2800000020000000200000000100080000000000000400000000000000000000000000000000000000000000000080000080000000808000800000008000800080800000C0C0C000C0DCC000F0CAA6000020400000206000002080000020A0000020C0000020E00000400000004020000040400000406000004080000040A0
310
000040C0000040E00000600000006020000060400000606000006080000060A0000060C0000060E00000800000008020000080400000806000008080000080A0000080C0000080E00000A0000000A0200000A0400000A0600000A0800000A0A00000A0C00000A0E00000C0000000C0200000C0400000C0600000C0800000C0
310
A00000C0C00000C0E00000E0000000E0200000E0400000E0600000E0800000E0A00000E0C00000E0E00040000000400020004000400040006000400080004000A0004000C0004000E00040200000402020004020400040206000402080004020A0004020C0004020E000404000004040200040404000404060004040800040
310
40A0004040C0004040E00040600000406020004060400040606000406080004060A0004060C0004060E00040800000408020004080400040806000408080004080A0004080C0004080E00040A0000040A0200040A0400040A0600040A0800040A0A00040A0C00040A0E00040C0000040C0200040C0400040C0600040C08000
310
40C0A00040C0C00040C0E00040E0000040E0200040E0400040E0600040E0800040E0A00040E0C00040E0E00080000000800020008000400080006000800080008000A0008000C0008000E00080200000802020008020400080206000802080008020A0008020C0008020E00080400000804020008040400080406000804080
310
008040A0008040C0008040E00080600000806020008060400080606000806080008060A0008060C0008060E00080800000808020008080400080806000808080008080A0008080C0008080E00080A0000080A0200080A0400080A0600080A0800080A0A00080A0C00080A0E00080C0000080C0200080C0400080C0600080C0
310
800080C0A00080C0C00080C0E00080E0000080E0200080E0400080E0600080E0800080E0A00080E0C00080E0E000C0000000C0002000C0004000C0006000C0008000C000A000C000C000C000E000C0200000C0202000C0204000C0206000C0208000C020A000C020C000C020E000C0400000C0402000C0404000C0406000C0
310
408000C040A000C040C000C040E000C0600000C0602000C0604000C0606000C0608000C060A000C060C000C060E000C0800000C0802000C0804000C0806000C0808000C080A000C080C000C080E000C0A00000C0A02000C0A04000C0A06000C0A08000C0A0A000C0A0C000C0A0E000C0C00000C0C02000C0C04000C0C06000
310
C0C08000C0C0A000F0FBFF00A4A0A000808080000000FF0000FF000000FFFF00FF000000FF00FF00FFFF0000FFFFFF0000000000000000000000000000000000000000000000000000000000000000000000000000FFFFFFFFFFFFFFFFFFFFFFFFFFFFFFFFFFFFFFFFFFFF00000000000000000000FF0000000000FF000000
310
0000000000FF0000000000FF00000000000000000000FF0000000000FF0000000000000000FF0000000000FF00000000000000000000FF0000000000FF0000000000000000FF0000000000FF00000000000000000000FFFFFFFFFFFFFFFFFFFFFFFFFFFFFFFFFFFFFFFFFFFF00000000000000000000FF0000FF0000000000
310
000000000000000000FF0000FF00000000000000000000FF0000FF0000000000000000000000000000FF0000FF00000000000000000000FF0000FF0000000000000000000000000000FF0000FF00000000000000000000FFFFFFFF0000000000000000000000000000FFFFFFFF00000000000000000000FF0000FF00000000
310
00000000000000000000FF0000FF00000000000000000000FF0000FF0000000000000000000000000000FF0000FF00000000000000000000FF0000FF0000000000000000000000000000FF0000FF00000000000000000000FFFFFFFF0000000000000000000000000000FFFFFFFF00000000000000000000FF0000FF000000
310
0000000000000000000000FF0000FF00000000000000000000FF0000FF0000000000000000000000000000FF0000FF00000000000000000000FF0000FF0000000000000000000000000000FF0000FF00000000000000000000FFFFFFFFFFFFFFFFFFFFFFFFFFFFFFFFFFFFFFFFFFFF00000000000000000000FF0000000000
310
0000FF00000000FF00000000000000FF00000000000000000000FF00000000000000FF00000000FF00000000000000FF00000000000000000000FF00000000000000FF00000000FF00000000000000FF00000000000000000000FFFFFFFFFFFFFF00FF00000000FF00FFFFFFFFFFFFFF000000000000000000000000000000
310
00FF00FF00000000FF00FF00000000000000000000000000000000000000000000FF00FF00000000FF00FF00000000000000000000000000000000000000000000FF00FF00000000FF00FF00000000000000000000000000000000000000000000FF00FF00000000FF00FF000000000000000000000000000000000000FFFF
310
FFFFFFFFFF00000000FFFFFFFFFFFF000000000000000000000000000000FF0000000000FF00000000FF00000000FF000000000000000000000000000000FF0000000000FF00000000FF00000000FF000000000000000000000000000000FF000000000000FFFFFFFF0000000000FF000000000000000000000000000000FF
310
FFFFFFFFFFFFFFFFFFFFFFFFFFFFFFFF00000000000000000000000000000000000000000000000000000000000000000000000000000000
102
{BLKREFS
331
348
102
}
1001
AcDbDynamicBlockGUID
1000
{5EDA29E5-DD30-4817-9C43-A7E9EC7C07E3}
1001
AcDbBlockRepETag
1070
     1
1071
       50
1001
ACAD
1000
DesignCenter Data
1002
{
1070
     1
1070
     4
1002
}
  0
BLOCK_RECORD
  5
349
102
{ACAD_XDICTIONARY
360
493
102
}
330
1
100
AcDbSymbolTableRecord
100
AcDbBlockTableRecord
  2
2
340
0
310
2800000020000000200000000100080000000000000400000000000000000000000000000000000000000000000080000080000000808000800000008000800080800000C0C0C000C0DCC000F0CAA6000020400000206000002080000020A0000020C0000020E00000400000004020000040400000406000004080000040A0
310
000040C0000040E00000600000006020000060400000606000006080000060A0000060C0000060E00000800000008020000080400000806000008080000080A0000080C0000080E00000A0000000A0200000A0400000A0600000A0800000A0A00000A0C00000A0E00000C0000000C0200000C0400000C0600000C0800000C0
310
A00000C0C00000C0E00000E0000000E0200000E0400000E0600000E0800000E0A00000E0C00000E0E00040000000400020004000400040006000400080004000A0004000C0004000E00040200000402020004020400040206000402080004020A0004020C0004020E000404000004040200040404000404060004040800040
310
40A0004040C0004040E00040600000406020004060400040606000406080004060A0004060C0004060E00040800000408020004080400040806000408080004080A0004080C0004080E00040A0000040A0200040A0400040A0600040A0800040A0A00040A0C00040A0E00040C0000040C0200040C0400040C0600040C08000
310
40C0A00040C0C00040C0E00040E0000040E0200040E0400040E0600040E0800040E0A00040E0C00040E0E00080000000800020008000400080006000800080008000A0008000C0008000E00080200000802020008020400080206000802080008020A0008020C0008020E00080400000804020008040400080406000804080
310
008040A0008040C0008040E00080600000806020008060400080606000806080008060A0008060C0008060E00080800000808020008080400080806000808080008080A0008080C0008080E00080A0000080A0200080A0400080A0600080A0800080A0A00080A0C00080A0E00080C0000080C0200080C0400080C0600080C0
310
800080C0A00080C0C00080C0E00080E0000080E0200080E0400080E0600080E0800080E0A00080E0C00080E0E000C0000000C0002000C0004000C0006000C0008000C000A000C000C000C000E000C0200000C0202000C0204000C0206000C0208000C020A000C020C000C020E000C0400000C0402000C0404000C0406000C0
310
408000C040A000C040C000C040E000C0600000C0602000C0604000C0606000C0608000C060A000C060C000C060E000C0800000C0802000C0804000C0806000C0808000C080A000C080C000C080E000C0A00000C0A02000C0A04000C0A06000C0A08000C0A0A000C0A0C000C0A0E000C0C00000C0C02000C0C04000C0C06000
310
C0C08000C0C0A000F0FBFF00A4A0A000808080000000FF0000FF000000FFFF00FF000000FF00FF00FFFF0000FFFFFF000000000000000000000000000000000000000000000000000000000000000000000000000000FFFFFFFFFFFFFFFFFFFFFFFFFFFFFFFFFFFFFFFF000000000000000000000000FF0000000000000000
310
00000000000000000000FF000000000000000000000000FF000000000000000000000000000000000000FF000000000000000000000000FF000000000000000000000000000000000000FF000000000000000000000000FFFFFF0000000000000000000000000000FFFFFF000000000000000000000000000000FF00000000
310
0000000000000000FF00000000000000000000000000000000000000FF00000000000000000000FF000000000000000000000000000000000000000000FF0000000000000000FF0000000000000000000000000000000000000000000000FF000000000000FF000000000000000000000000000000000000000000000000FF
310
000000000000FF000000000000000000000000000000000000000000000000FF000000000000FF000000000000000000000000000000000000000000000000FF000000000000FF000000000000000000000000000000000000000000000000FF000000000000FF0000000000000000000000000000000000000000000000FF
310
0000000000000000FF000000000000000000000000000000000000000000FF00000000000000000000FF00000000000000000000000000000000000000FF000000000000000000000000FF000000000000000000000000000000FFFFFF0000000000000000000000000000FFFFFF000000000000000000000000FF00000000
310
0000000000000000000000000000FF000000000000000000000000FF000000000000000000000000000000000000FF000000000000000000000000FF000000000000000000000000000000000000FF000000000000000000000000FFFFFFFFFFFFFFFFFFFFFFFFFFFFFFFFFFFFFFFF000000000000000000000000FF000000
310
00FF000000FF00000000000000000000000000000000000000000000FF00000000FF000000FF00000000000000000000000000000000000000000000FF00000000FF000000FF00000000000000000000000000000000000000000000FF00000000FF000000FF00000000000000000000000000000000000000000000FFFFFF
310
FFFFFFFFFFFFFFFFFFFFFFFFFFFFFF00000000000000000000000000000000FFFF00000000000000000000000000FF000000000000000000000000000000000000FFFFFF00000000000000000000FF000000000000000000000000000000000000000000FFFF0000000000000000FF00000000000000000000000000000000
310
00000000000000FFFFFFFFFFFFFFFFFF00000000000000000000000000000000000000000000000000000000000000000000000000000000
102
{BLKREFS
331
364
102
}
1001
AcDbDynamicBlockGUID
1000
{5230B5D4-86CF-4E96-AF7C-8A08BD897F95}
1001
AcDbBlockRepETag
1070
     1
1071
       24
1001
ACAD
1000
DesignCenter Data
1002
{
1070
     1
1070
     4
1002
}
  0
BLOCK_RECORD
  5
365
330
1
100
AcDbSymbolTableRecord
100
AcDbBlockTableRecord
  2
3
340
0
310
2800000020000000200000000100080000000000000400000000000000000000000000000000000000000000000080000080000000808000800000008000800080800000C0C0C000C0DCC000F0CAA6000020400000206000002080000020A0000020C0000020E00000400000004020000040400000406000004080000040A0
310
000040C0000040E00000600000006020000060400000606000006080000060A0000060C0000060E00000800000008020000080400000806000008080000080A0000080C0000080E00000A0000000A0200000A0400000A0600000A0800000A0A00000A0C00000A0E00000C0000000C0200000C0400000C0600000C0800000C0
310
A00000C0C00000C0E00000E0000000E0200000E0400000E0600000E0800000E0A00000E0C00000E0E00040000000400020004000400040006000400080004000A0004000C0004000E00040200000402020004020400040206000402080004020A0004020C0004020E000404000004040200040404000404060004040800040
310
40A0004040C0004040E00040600000406020004060400040606000406080004060A0004060C0004060E00040800000408020004080400040806000408080004080A0004080C0004080E00040A0000040A0200040A0400040A0600040A0800040A0A00040A0C00040A0E00040C0000040C0200040C0400040C0600040C08000
310
40C0A00040C0C00040C0E00040E0000040E0200040E0400040E0600040E0800040E0A00040E0C00040E0E00080000000800020008000400080006000800080008000A0008000C0008000E00080200000802020008020400080206000802080008020A0008020C0008020E00080400000804020008040400080406000804080
310
008040A0008040C0008040E00080600000806020008060400080606000806080008060A0008060C0008060E00080800000808020008080400080806000808080008080A0008080C0008080E00080A0000080A0200080A0400080A0600080A0800080A0A00080A0C00080A0E00080C0000080C0200080C0400080C0600080C0
310
800080C0A00080C0C00080C0E00080E0000080E0200080E0400080E0600080E0800080E0A00080E0C00080E0E000C0000000C0002000C0004000C0006000C0008000C000A000C000C000C000E000C0200000C0202000C0204000C0206000C0208000C020A000C020C000C020E000C0400000C0402000C0404000C0406000C0
310
408000C040A000C040C000C040E000C0600000C0602000C0604000C0606000C0608000C060A000C060C000C060E000C0800000C0802000C0804000C0806000C0808000C080A000C080C000C080E000C0A00000C0A02000C0A04000C0A06000C0A08000C0A0A000C0A0C000C0A0E000C0C00000C0C02000C0C04000C0C06000
310
C0C08000C0C0A000F0FBFF00A4A0A000808080000000FF0000FF000000FFFF00FF000000FF00FF00FFFF0000FFFFFF000000000000000000000000000000000000000000000000000000000000000000000000000000000000000000000000000000000000000000000000000000000000FFFFFFFFFFFFFFFFFFFFFF000000
310
0000000000FFFFFFFFFFFFFFFFFFFFFF0000FF0000FF000000000000FF0000000000000000FF000000000000FF0000FF0000FF0000FF000000000000FF0000000000000000FF000000000000FF0000FF0000FF0000FF000000000000FF0000000000000000FF000000000000FF0000FF0000FF0000FF000000000000FF0000
310
000000000000FF000000000000FF0000FF0000FF0000FF000000000000FF0000000000000000FF000000000000FF0000FF0000FF0000FF000000000000FF0000000000000000FF000000000000FF0000FF0000FF0000FF000000000000FF0000000000000000FF000000000000FF0000FF0000FF0000FF00000000000000FF
310
000000000000FF00000000000000FF0000FF0000FF0000FF0000000000000000FFFF000000FF0000000000000000FF0000FF0000FF0000FF00000000000000000000FF00FF000000000000000000FF0000FF0000FF0000FF0000000000000000000000FF00000000000000000000FF0000FF0000FF0000FF00000000000000
310
000000000000000000000000000000FF0000FF0000FF0000FF00000000000000000000000000000000000000000000FF0000FF0000FF0000FF00000000000000000000000000000000000000000000FF0000FF0000FF0000FFFFFFFFFFFFFFFFFFFFFFFFFFFFFFFFFFFFFFFFFFFFFFFF0000FF0000FF0000FF000000000000
310
00000000000000000000000000000000FF0000FF0000FF0000FF00000000000000000000000000000000000000000000FF0000FF0000FF0000FF00000000000000000000000000000000000000000000FF0000FF0000FF0000FF00000000000000000000000000000000000000000000FF0000FF0000FF0000FF0000000000
310
0000000000000000000000000000000000FF0000FF0000FF0000FF00000000000000000000000000000000000000000000FF0000FF0000FF0000FF00000000000000000000000000000000000000000000FF0000FF0000FF0000FF00000000000000000000000000000000000000000000FF0000FF0000FF0000FFFFFFFFFF
310
FFFFFFFFFFFFFFFFFFFFFFFFFFFFFFFFFFFFFF0000FF0000FF00000000000000000000000000000000000000000000000000000000FF0000FF00000000000000000000000000000000000000000000000000000000FF0000FFFFFFFFFFFFFFFFFFFFFFFFFFFFFFFFFFFFFFFFFFFFFFFFFFFFFFFFFFFF000000000000000000
310
0000000000000000000000000000000000000000000000000000000000000000000000000000000000000000000000000000000000000000
102
{BLKREFS
331
37D
102
}
1001
ACAD
1000
DesignCenter Data
1002
{
1070
     1
1070
     4
1002
}
  0
BLOCK_RECORD
  5
37E
330
1
100
AcDbSymbolTableRecord
100
AcDbBlockTableRecord
  2
4
340
0
310
2800000020000000200000000100080000000000000400000000000000000000000000000000000000000000000080000080000000808000800000008000800080800000C0C0C000C0DCC000F0CAA6000020400000206000002080000020A0000020C0000020E00000400000004020000040400000406000004080000040A0
310
000040C0000040E00000600000006020000060400000606000006080000060A0000060C0000060E00000800000008020000080400000806000008080000080A0000080C0000080E00000A0000000A0200000A0400000A0600000A0800000A0A00000A0C00000A0E00000C0000000C0200000C0400000C0600000C0800000C0
310
A00000C0C00000C0E00000E0000000E0200000E0400000E0600000E0800000E0A00000E0C00000E0E00040000000400020004000400040006000400080004000A0004000C0004000E00040200000402020004020400040206000402080004020A0004020C0004020E000404000004040200040404000404060004040800040
310
40A0004040C0004040E00040600000406020004060400040606000406080004060A0004060C0004060E00040800000408020004080400040806000408080004080A0004080C0004080E00040A0000040A0200040A0400040A0600040A0800040A0A00040A0C00040A0E00040C0000040C0200040C0400040C0600040C08000
310
40C0A00040C0C00040C0E00040E0000040E0200040E0400040E0600040E0800040E0A00040E0C00040E0E00080000000800020008000400080006000800080008000A0008000C0008000E00080200000802020008020400080206000802080008020A0008020C0008020E00080400000804020008040400080406000804080
310
008040A0008040C0008040E00080600000806020008060400080606000806080008060A0008060C0008060E00080800000808020008080400080806000808080008080A0008080C0008080E00080A0000080A0200080A0400080A0600080A0800080A0A00080A0C00080A0E00080C0000080C0200080C0400080C0600080C0
310
800080C0A00080C0C00080C0E00080E0000080E0200080E0400080E0600080E0800080E0A00080E0C00080E0E000C0000000C0002000C0004000C0006000C0008000C000A000C000C000C000E000C0200000C0202000C0204000C0206000C0208000C020A000C020C000C020E000C0400000C0402000C0404000C0406000C0
310
408000C040A000C040C000C040E000C0600000C0602000C0604000C0606000C0608000C060A000C060C000C060E000C0800000C0802000C0804000C0806000C0808000C080A000C080C000C080E000C0A00000C0A02000C0A04000C0A06000C0A08000C0A0A000C0A0C000C0A0E000C0C00000C0C02000C0C04000C0C06000
310
C0C08000C0C0A000F0FBFF00A4A0A000808080000000FF0000FF000000FFFF00FF000000FF00FF00FFFF0000FFFFFF000000000000000000000000000000000000000000000000000000000000000000000000000000000000000000000000FF0000000000000000000000000000000000000000000000000000000000FFFF
310
FFFFFF00000000000000000000000000000000000000000000000000FFFF0000FF0000FF0000000000000000000000000000000000000000000000FF000000FFFFFF00FF000000000000000000000000000000000000000000FFFF00000000FFFF00FFFF00000000000000000000000000000000000000FFFF0000000000FF
310
00FF00FF00000000FFFF00000000000000000000000000FF00000000000000FFFFFFFFFFFFFFFFFF00FFFFFF0000000000000000000000FF000000000000FF00FFFF00000000FF0000FF0000FF00000000000000000000FFFFFFFF000000FFFF00FF00000000FFFFFF00FFFFFF00000000000000000000FFFFFFFF000000FF
310
FF00FFFFFFFFFFFF000000FFFFFF000000000000000000000000FFFF000000FFFF00FF000000000000FFFF00FF0000000000000000000000000000FF000000FFFFFFFFFFFF0000FFFF00FFFF000000000000000000000000000000FF000000000000FF0000FFFF0000FF00FF0000000000000000000000000000FF00000000
310
00FFFF00FFFF00FF0000FFFF000000000000000000000000000000FF000000FFFF0000000000FFFF0000FFFF0000000000000000000000000000FF000000FF000000000000FFFFFFFFFFFFFFFF000000000000000000000000FF0000FFFF000000000000FF00FFFF0000FF0000FFFF00000000000000000000FFFFFF000000
310
000000FFFFA4FFFFFF0000FFFF0000FF00000000000000000000FF00000000000000FFFF000000FFFF0000FFFFFFFFFF0000000000000000000000FF00000000FFFF00FF000000FFFF0000FFFF00FFFF000000000000000000000000FFFF00FF0000FF000000FF00FF0000FFFFFF000000000000000000000000000000FFFF
310
0000FF000000FF0000FFFFFF0000FFFF00000000000000000000000000FF000000FF00000000FF0000FF00000000FF0000000000000000000000000000FF00FFFF00FFFF0000FFFFFFFF000000FF000000000000000000000000000000FFFF0000000000FFFF000000000000FF0000000000000000000000000000000000FF
310
FF0000000000FFFF00000000FF0000000000000000000000000000000000000000FFFF0000000000FFFF00FF0000000000000000000000000000000000000000000000FFFF0000000000FF0000000000000000000000000000000000000000000000000000FFFF00FFFF000000000000000000000000000000000000000000
310
0000000000000000FF0000000000000000000000000000000000000000000000000000000000000000000000000000000000000000000000
102
{BLKREFS
331
3D3
102
}
1001
ACAD
1000
DesignCenter Data
1002
{
1070
     1
1070
     4
1002
}
  0
ENDTAB
  0
ENDSEC
  0
SECTION
  2
BLOCKS
  0
BLOCK
  5
20
330
1F
100
AcDbEntity
  8
0
100
AcDbBlockBegin
  2
*Model_Space
 70
     0
 10
0.0
 20
0.0
 30
0.0
  3
*Model_Space
  1

  0
ENDBLK
  5
21
330
1F
100
AcDbEntity
  8
0
100
AcDbBlockEnd
  0
BLOCK
  5
D4
330
D2
100
AcDbEntity
 67
     1
  8
0
100
AcDbBlockBegin
  2
*Paper_Space
 70
     0
 10
0.0
 20
0.0
 30
0.0
  3
*Paper_Space
  1

  0
ENDBLK
  5
D5
330
D2
100
AcDbEntity
 67
     1
  8
0
100
AcDbBlockEnd
  0
BLOCK
  5
D8
330
D6
100
AcDbEntity
 67
     1
  8
0
100
AcDbBlockBegin
  2
*Paper_Space0
 70
     0
 10
0.0
 20
0.0
 30
0.0
  3
*Paper_Space0
  1

  0
ENDBLK
  5
D9
330
D6
100
AcDbEntity
 67
     1
  8
0
100
AcDbBlockEnd
  0
BLOCK
  5
314
330
313
100
AcDbEntity
  8
0
100
AcDbBlockBegin
  2
1
 70
     0
 10
0.0
 20
0.0
 30
0.0
  3
1
  1

  0
LINE
  5
43E
330
313
100
AcDbEntity
  8
0
  6
Continuous
 62
     7
370
    15
100
AcDbLine
 10
2020.721105972461
 20
1314.061981124954
 30
0.0
 11
2020.721105972461
 21
1316.811981124954
 31
0.0
1001
AcDbBlockRepETag
1070
     1
1071
        0
1005
43E
  0
LINE
  5
43F
330
313
100
AcDbEntity
  8
0
  6
Continuous
 62
     7
370
    15
100
AcDbLine
 10
2020.721105972461
 20
1314.061981124954
 30
0.0
 11
2015.07110597246
 21
1314.061981124954
 31
0.0
1001
AcDbBlockRepETag
1070
     1
1071
        1
1005
43F
  0
LINE
  5
440
330
313
100
AcDbEntity
  8
0
  6
Continuous
 62
     7
370
    15
100
AcDbLine
 10
2015.07110597246
 20
1321.311981124954
 30
0.0
 11
2015.07110597246
 21
1314.061981124954
 31
0.0
1001
AcDbBlockRepETag
1070
     1
1071
        2
1005
440
  0
LINE
  5
441
330
313
100
AcDbEntity
  8
0
  6
Continuous
 62
     7
370
    15
100
AcDbLine
 10
2015.07110597246
 20
1321.311981124954
 30
0.0
 11
2016.071105972461
 21
1321.311981124954
 31
0.0
1001
AcDbBlockRepETag
1070
     1
1071
        3
1005
441
  0
LINE
  5
442
330
313
100
AcDbEntity
  8
0
  6
Continuous
 62
     7
370
    15
100
AcDbLine
 10
2016.071105972461
 20
1321.311981124954
 30
0.0
 11
2016.071105972461
 21
1316.811981124954
 31
0.0
1001
AcDbBlockRepETag
1070
     1
1071
        4
1005
442
  0
LINE
  5
443
330
313
100
AcDbEntity
  8
0
  6
Continuous
 62
     7
370
    15
100
AcDbLine
 10
2016.071105972461
 20
1316.811981124954
 30
0.0
 11
2020.721105972461
 21
1316.811981124954
 31
0.0
1001
AcDbBlockRepETag
1070
     1
1071
        5
1005
443
  0
LINE
  5
444
330
313
100
AcDbEntity
  8
0
  6
Continuous
 62
     7
370
    15
100
AcDbLine
 10
2015.07110597246
 20
1321.311981124954
 30
0.0
 11
2015.07110597246
 21
1322.516249417637
 31
0.0
1001
AcDbBlockRepETag
1070
     1
1071
        6
1005
444
  0
ELLIPSE
  5
445
330
313
100
AcDbEntity
  8
0
  6
Continuous
 62
     7
370
    15
100
AcDbEllipse
 10
2012.82110597246
 20
1322.516249417637
 30
0.0
 11
2.25
 21
0.0
 31
0.0
210
0.0
220
0.0
230
1.0
 40
0.3048780487804884
 41
0.0
 42
3.141592653589792
1001
AcDbBlockRepETag
1070
     1
1071
        7
1005
445
  0
LINE
  5
446
330
313
100
AcDbEntity
  8
0
  6
Continuous
 62
     7
370
    15
100
AcDbLine
 10
2010.571105972461
 20
1322.516249417637
 30
0.0
 11
2010.571105972461
 21
1321.311981124954
 31
0.0
1001
AcDbBlockRepETag
1070
     1
1071
        8
1005
446
  0
LINE
  5
447
330
313
100
AcDbEntity
  8
0
  6
Continuous
 62
     7
370
    15
100
AcDbLine
 10
2009.57110597246
 20
1321.311981124954
 30
0.0
 11
2010.571105972461
 21
1321.311981124954
 31
0.0
1001
AcDbBlockRepETag
1070
     1
1071
        9
1005
447
  0
LINE
  5
448
330
313
100
AcDbEntity
  8
0
  6
Continuous
 62
     7
370
    15
100
AcDbLine
 10
2006.52110597246
 20
1321.311981124954
 30
0.0
 11
2006.52110597246
 21
1323.790247372866
 31
0.0
1001
AcDbBlockRepETag
1070
     1
1071
       10
1005
448
  0
LINE
  5
449
330
313
100
AcDbEntity
  8
0
  6
Continuous
 62
     7
370
    15
100
AcDbLine
 10
2019.02110597246
 20
1323.790247372866
 30
0.0
 11
2006.52110597246
 21
1323.790247372866
 31
0.0
1001
AcDbBlockRepETag
1070
     1
1071
       11
1005
449
  0
LINE
  5
44A
330
313
100
AcDbEntity
  8
0
  6
Continuous
 62
     7
370
    15
100
AcDbLine
 10
2019.02110597246
 20
1321.311981124954
 30
0.0
 11
2019.02110597246
 21
1323.790247372866
 31
0.0
1001
AcDbBlockRepETag
1070
     1
1071
       12
1005
44A
  0
LINE
  5
44B
330
313
100
AcDbEntity
  8
0
  6
Continuous
 62
     7
370
    15
100
AcDbLine
 10
2009.57110597246
 20
1321.311981124954
 30
0.0
 11
2006.52110597246
 21
1321.311981124954
 31
0.0
1001
AcDbBlockRepETag
1070
     1
1071
       13
1005
44B
  0
LINE
  5
44C
330
313
100
AcDbEntity
  8
0
  6
Continuous
 62
     7
370
    15
100
AcDbLine
 10
2019.02110597246
 20
1321.311981124954
 30
0.0
 11
2016.071105972461
 21
1321.311981124954
 31
0.0
1001
AcDbBlockRepETag
1070
     1
1071
       14
1005
44C
  0
LINE
  5
44D
330
313
100
AcDbEntity
  8
0
  6
Continuous
 62
     7
370
    15
100
AcDbLine
 10
2004.92110597246
 20
1314.061981124954
 30
0.0
 11
2004.92110597246
 21
1316.811981124954
 31
0.0
1001
AcDbBlockRepETag
1070
     1
1071
       15
1005
44D
  0
LINE
  5
44E
330
313
100
AcDbEntity
  8
0
  6
Continuous
 62
     7
370
    15
100
AcDbLine
 10
2010.571105972461
 20
1321.311981124954
 30
0.0
 11
2010.571105972461
 21
1314.061981124954
 31
0.0
1001
AcDbBlockRepETag
1070
     1
1071
       16
1005
44E
  0
LINE
  5
44F
330
313
100
AcDbEntity
  8
0
  6
Continuous
 62
     7
370
    15
100
AcDbLine
 10
2010.571105972461
 20
1314.061981124954
 30
0.0
 11
2004.92110597246
 21
1314.061981124954
 31
0.0
1001
AcDbBlockRepETag
1070
     1
1071
       17
1005
44F
  0
LINE
  5
450
330
313
100
AcDbEntity
  8
0
  6
Continuous
 62
     7
370
    15
100
AcDbLine
 10
2009.57110597246
 20
1321.311981124954
 30
0.0
 11
2009.57110597246
 21
1316.811981124954
 31
0.0
1001
AcDbBlockRepETag
1070
     1
1071
       18
1005
450
  0
LINE
  5
451
330
313
100
AcDbEntity
  8
0
  6
Continuous
 62
     7
370
    15
100
AcDbLine
 10
2004.92110597246
 20
1316.811981124954
 30
0.0
 11
2009.57110597246
 21
1316.811981124954
 31
0.0
1001
AcDbBlockRepETag
1070
     1
1071
       19
1005
451
  0
LINE
  5
452
330
313
100
AcDbEntity
  8
0
  6
Continuous
 62
     7
370
    15
100
AcDbLine
 10
2020.721105972461
 20
1301.811981124954
 30
0.0
 11
2020.721105972461
 21
1304.561981124954
 31
0.0
1001
AcDbBlockRepETag
1070
     1
1071
       20
1005
452
  0
LINE
  5
453
330
313
100
AcDbEntity
  8
0
  6
Continuous
 62
     7
370
    15
100
AcDbLine
 10
2016.021105972461
 20
1301.811981124954
 30
0.0
 11
2020.721105972461
 21
1301.811981124954
 31
0.0
1001
AcDbBlockRepETag
1070
     1
1071
       21
1005
453
  0
LINE
  5
454
330
313
100
AcDbEntity
  8
0
  6
Continuous
 62
     7
370
    15
100
AcDbLine
 10
2016.021105972461
 20
1304.561981124954
 30
0.0
 11
2016.021105972461
 21
1301.811981124954
 31
0.0
1001
AcDbBlockRepETag
1070
     1
1071
       22
1005
454
  0
LINE
  5
455
330
313
100
AcDbEntity
  8
0
  6
Continuous
 62
     7
370
    15
100
AcDbLine
 10
2020.721105972461
 20
1304.561981124954
 30
0.0
 11
2016.021105972461
 21
1304.561981124954
 31
0.0
1001
AcDbBlockRepETag
1070
     1
1071
       23
1005
455
  0
LINE
  5
456
330
313
100
AcDbEntity
  8
0
  6
Continuous
 62
     7
370
    15
100
AcDbLine
 10
2004.92110597246
 20
1301.811981124954
 30
0.0
 11
2004.92110597246
 21
1304.561981124954
 31
0.0
1001
AcDbBlockRepETag
1070
     1
1071
       24
1005
456
  0
LINE
  5
457
330
313
100
AcDbEntity
  8
0
  6
Continuous
 62
     7
370
    15
100
AcDbLine
 10
2009.62110597246
 20
1304.561981124954
 30
0.0
 11
2004.92110597246
 21
1304.561981124954
 31
0.0
1001
AcDbBlockRepETag
1070
     1
1071
       25
1005
457
  0
LINE
  5
458
330
313
100
AcDbEntity
  8
0
  6
Continuous
 62
     7
370
    15
100
AcDbLine
 10
2004.92110597246
 20
1301.811981124954
 30
0.0
 11
2009.62110597246
 21
1301.811981124954
 31
0.0
1001
AcDbBlockRepETag
1070
     1
1071
       26
1005
458
  0
LINE
  5
459
330
313
100
AcDbEntity
  8
0
  6
Continuous
 62
     7
370
    15
100
AcDbLine
 10
2009.62110597246
 20
1304.561981124954
 30
0.0
 11
2009.62110597246
 21
1301.811981124954
 31
0.0
1001
AcDbBlockRepETag
1070
     1
1071
       27
1005
459
  0
LINE
  5
45A
330
313
100
AcDbEntity
  8
0
  6
Continuous
 62
     7
370
    15
100
AcDbLine
 10
2018.92110597246
 20
1307.561981124954
 30
0.0
 11
2018.92110597246
 21
1304.561981124954
 31
0.0
1001
AcDbBlockRepETag
1070
     1
1071
       28
1005
45A
  0
LINE
  5
45B
330
313
100
AcDbEntity
  8
0
  6
Continuous
 62
     7
370
    15
100
AcDbLine
 10
2020.721105972461
 20
1307.561981124954
 30
0.0
 11
2018.92110597246
 21
1307.561981124954
 31
0.0
1001
AcDbBlockRepETag
1070
     1
1071
       29
1005
45B
  0
LINE
  5
45C
330
313
100
AcDbEntity
  8
0
  6
Continuous
 62
     7
370
    15
100
AcDbLine
 10
2020.721105972461
 20
1304.561981124954
 30
0.0
 11
2020.721105972461
 21
1307.561981124954
 31
0.0
1001
AcDbBlockRepETag
1070
     1
1071
       30
1005
45C
  0
LINE
  5
45D
330
313
100
AcDbEntity
  8
0
  6
Continuous
 62
     7
370
    15
100
AcDbLine
 10
2006.721105972461
 20
1307.561981124954
 30
0.0
 11
2004.92110597246
 21
1307.561981124954
 31
0.0
1001
AcDbBlockRepETag
1070
     1
1071
       31
1005
45D
  0
LINE
  5
45E
330
313
100
AcDbEntity
  8
0
  6
Continuous
 62
     7
370
    15
100
AcDbLine
 10
2006.721105972461
 20
1304.561981124954
 30
0.0
 11
2006.721105972461
 21
1307.561981124954
 31
0.0
1001
AcDbBlockRepETag
1070
     1
1071
       32
1005
45E
  0
LINE
  5
45F
330
313
100
AcDbEntity
  8
0
  6
Continuous
 62
     7
370
    15
100
AcDbLine
 10
2004.92110597246
 20
1307.561981124954
 30
0.0
 11
2004.92110597246
 21
1304.561981124954
 31
0.0
1001
AcDbBlockRepETag
1070
     1
1071
       33
1005
45F
  0
LINE
  5
460
330
313
100
AcDbEntity
  8
0
  6
Continuous
 62
     7
370
    15
100
AcDbLine
 10
2006.721105972461
 20
1311.061981124954
 30
0.0
 11
2004.92110597246
 21
1311.061981124954
 31
0.0
1001
AcDbBlockRepETag
1070
     1
1071
       34
1005
460
  0
LINE
  5
461
330
313
100
AcDbEntity
  8
0
  6
Continuous
 62
     7
370
    15
100
AcDbLine
 10
2006.721105972461
 20
1311.061981124954
 30
0.0
 11
2006.721105972461
 21
1314.061981124954
 31
0.0
1001
AcDbBlockRepETag
1070
     1
1071
       35
1005
461
  0
LINE
  5
462
330
313
100
AcDbEntity
  8
0
  6
Continuous
 62
     7
370
    15
100
AcDbLine
 10
2004.92110597246
 20
1314.061981124954
 30
0.0
 11
2004.92110597246
 21
1311.061981124954
 31
0.0
1001
AcDbBlockRepETag
1070
     1
1071
       36
1005
462
  0
LINE
  5
463
330
313
100
AcDbEntity
  8
0
  6
Continuous
 62
     7
370
    15
100
AcDbLine
 10
2020.721105972461
 20
1311.061981124954
 30
0.0
 11
2018.92110597246
 21
1311.061981124954
 31
0.0
1001
AcDbBlockRepETag
1070
     1
1071
       37
1005
463
  0
LINE
  5
464
330
313
100
AcDbEntity
  8
0
  6
Continuous
 62
     7
370
    15
100
AcDbLine
 10
2018.92110597246
 20
1314.061981124954
 30
0.0
 11
2018.92110597246
 21
1311.061981124954
 31
0.0
1001
AcDbBlockRepETag
1070
     1
1071
       38
1005
464
  0
LINE
  5
465
330
313
100
AcDbEntity
  8
0
  6
Continuous
 62
     7
370
    15
100
AcDbLine
 10
2020.721105972461
 20
1311.061981124954
 30
0.0
 11
2020.721105972461
 21
1314.061981124954
 31
0.0
1001
AcDbBlockRepETag
1070
     1
1071
       39
1005
465
  0
LINE
  5
466
330
313
100
AcDbEntity
  8
0
  6
Continuous
 62
     7
370
    15
100
AcDbLine
 10
2010.571105972461
 20
1314.061981124954
 30
0.0
 11
2015.07110597246
 21
1314.061981124954
 31
0.0
1001
AcDbBlockRepETag
1070
     1
1071
       40
1005
466
  0
LINE
  5
467
330
313
100
AcDbEntity
  8
0
  6
Continuous
 62
     7
370
    15
100
AcDbLine
 10
2016.021105972461
 20
1304.561981124954
 30
0.0
 11
2009.62110597246
 21
1304.561981124954
 31
0.0
1001
AcDbBlockRepETag
1070
     1
1071
       41
1005
467
  0
LINE
  5
468
330
313
100
AcDbEntity
  8
0
  6
Continuous
 62
     7
370
    15
100
AcDbLine
 10
2009.62110597246
 20
1301.811981124954
 30
0.0
 11
2016.021105972461
 21
1301.811981124954
 31
0.0
1001
AcDbBlockRepETag
1070
     1
1071
       42
1005
468
  0
LINE
  5
469
330
313
100
AcDbEntity
  8
0
  6
Continuous
 62
     7
370
    15
100
AcDbLine
 10
2006.721105972461
 20
1307.561981124954
 30
0.0
 11
2006.721105972461
 21
1311.061981124954
 31
0.0
1001
AcDbBlockRepETag
1070
     1
1071
       43
1005
469
  0
LINE
  5
46A
330
313
100
AcDbEntity
  8
0
  6
Continuous
 62
     7
370
    15
100
AcDbLine
 10
2004.92110597246
 20
1311.061981124954
 30
0.0
 11
2004.92110597246
 21
1307.561981124954
 31
0.0
1001
AcDbBlockRepETag
1070
     1
1071
       44
1005
46A
  0
LINE
  5
46B
330
313
100
AcDbEntity
  8
0
  6
Continuous
 62
     7
370
    15
100
AcDbLine
 10
2018.92110597246
 20
1311.061981124954
 30
0.0
 11
2018.92110597246
 21
1307.561981124954
 31
0.0
1001
AcDbBlockRepETag
1070
     1
1071
       45
1005
46B
  0
LINE
  5
46C
330
313
100
AcDbEntity
  8
0
  6
Continuous
 62
     7
370
    15
100
AcDbLine
 10
2020.721105972461
 20
1307.561981124954
 30
0.0
 11
2020.721105972461
 21
1311.061981124954
 31
0.0
1001
AcDbBlockRepETag
1070
     1
1071
       46
1005
46C
  0
LINE
  5
46D
330
313
100
AcDbEntity
  8
0
  6
Continuous
 62
     7
370
    15
100
AcDbLine
 10
2006.52110597246
 20
1323.911981124954
 30
0.0
 11
2019.02110597246
 21
1323.911981124954
 31
0.0
1001
AcDbBlockRepETag
1070
     1
1071
       47
1005
46D
  0
LINE
  5
46E
330
313
100
AcDbEntity
  8
0
  6
Continuous
 62
     7
370
    15
100
AcDbLine
 10
2006.52110597246
 20
1323.790247372866
 30
0.0
 11
2006.52110597246
 21
1323.911981124954
 31
0.0
1001
AcDbBlockRepETag
1070
     1
1071
       48
1005
46E
  0
LINE
  5
46F
330
313
100
AcDbEntity
  8
0
  6
Continuous
 62
     7
370
    15
100
AcDbLine
 10
2019.021105972461
 20
1323.911981124954
 30
0.0
 11
2019.02110597246
 21
1323.790247372866
 31
0.0
1001
AcDbBlockRepETag
1070
     1
1071
       49
1005
46F
  0
ENDBLK
  5
315
330
313
100
AcDbEntity
  8
0
100
AcDbBlockEnd
  0
BLOCK
  5
34A
330
349
100
AcDbEntity
  8
0
100
AcDbBlockBegin
  2
2
 70
     0
 10
0.0
 20
0.0
 30
0.0
  3
2
  1

  0
LINE
  5
47B
330
349
100
AcDbEntity
  8
0
  6
Continuous
 62
     7
370
    15
100
AcDbLine
 10
1965.553689111995
 20
1316.811981124954
 30
0.0
 11
1965.553689111995
 21
1321.311981124954
 31
0.0
1001
AcDbBlockRepETag
1070
     1
1071
        0
1005
47B
  0
LINE
  5
47C
330
349
100
AcDbEntity
  8
0
  6
Continuous
 62
     7
370
    15
100
AcDbLine
 10
1973.353689111995
 20
1316.811981124954
 30
0.0
 11
1973.353689111995
 21
1314.061981124954
 31
0.0
1001
AcDbBlockRepETag
1070
     1
1071
        1
1005
47C
  0
LINE
  5
47D
330
349
100
AcDbEntity
  8
0
  6
Continuous
 62
     7
370
    15
100
AcDbLine
 10
1973.353689111995
 20
1314.061981124954
 30
0.0
 11
1971.653689111995
 21
1314.061981124954
 31
0.0
1001
AcDbBlockRepETag
1070
     1
1071
        2
1005
47D
  0
ARC
  5
47E
330
349
100
AcDbEntity
  8
0
  6
Continuous
 62
     7
370
    15
100
AcDbCircle
 10
1971.653689111995
 20
1311.061981124954
 30
0.0
 40
3.0
100
AcDbArc
 50
90.0
 51
180.0
1001
AcDbBlockRepETag
1070
     1
1071
        3
1005
47E
  0
LINE
  5
47F
330
349
100
AcDbEntity
  8
0
  6
Continuous
 62
     7
370
    15
100
AcDbLine
 10
1968.653689111995
 20
1311.061981124954
 30
0.0
 11
1968.653689111995
 21
1307.561981124954
 31
0.0
1001
AcDbBlockRepETag
1070
     1
1071
        4
1005
47F
  0
ARC
  5
480
330
349
100
AcDbEntity
  8
0
  6
Continuous
 62
     7
370
    15
100
AcDbCircle
 10
1971.653689111995
 20
1307.561981124954
 30
0.0
 40
3.0
100
AcDbArc
 50
180.0
 51
270.0
1001
AcDbBlockRepETag
1070
     1
1071
        5
1005
480
  0
LINE
  5
481
330
349
100
AcDbEntity
  8
0
  6
Continuous
 62
     7
370
    15
100
AcDbLine
 10
1971.653689111995
 20
1304.561981124954
 30
0.0
 11
1973.353689111995
 21
1304.561981124954
 31
0.0
1001
AcDbBlockRepETag
1070
     1
1071
        6
1005
481
  0
LINE
  5
482
330
349
100
AcDbEntity
  8
0
  6
Continuous
 62
     7
370
    15
100
AcDbLine
 10
1973.353689111995
 20
1304.561981124954
 30
0.0
 11
1973.353689111995
 21
1301.811981124954
 31
0.0
1001
AcDbBlockRepETag
1070
     1
1071
        7
1005
482
  0
LINE
  5
483
330
349
100
AcDbEntity
  8
0
  6
Continuous
 62
     7
370
    15
100
AcDbLine
 10
1958.353689111995
 20
1301.811981124954
 30
0.0
 11
1958.353689111995
 21
1304.561981124954
 31
0.0
1001
AcDbBlockRepETag
1070
     1
1071
        8
1005
483
  0
LINE
  5
484
330
349
100
AcDbEntity
  8
0
  6
Continuous
 62
     7
370
    15
100
AcDbLine
 10
1958.353689111995
 20
1304.561981124954
 30
0.0
 11
1960.053689111995
 21
1304.561981124954
 31
0.0
1001
AcDbBlockRepETag
1070
     1
1071
        9
1005
484
  0
ARC
  5
485
330
349
100
AcDbEntity
  8
0
  6
Continuous
 62
     7
370
    15
100
AcDbCircle
 10
1960.053689111995
 20
1307.561981124954
 30
0.0
 40
3.0
100
AcDbArc
 50
270.0
 51
0.0
1001
AcDbBlockRepETag
1070
     1
1071
       10
1005
485
  0
LINE
  5
486
330
349
100
AcDbEntity
  8
0
  6
Continuous
 62
     7
370
    15
100
AcDbLine
 10
1963.053689111995
 20
1307.561981124954
 30
0.0
 11
1963.053689111995
 21
1311.061981124954
 31
0.0
1001
AcDbBlockRepETag
1070
     1
1071
       11
1005
486
  0
ARC
  5
487
330
349
100
AcDbEntity
  8
0
  6
Continuous
 62
     7
370
    15
100
AcDbCircle
 10
1960.053689111995
 20
1311.061981124954
 30
0.0
 40
3.0
100
AcDbArc
 50
0.0
 51
90.0
1001
AcDbBlockRepETag
1070
     1
1071
       12
1005
487
  0
LINE
  5
488
330
349
100
AcDbEntity
  8
0
  6
Continuous
 62
     7
370
    15
100
AcDbLine
 10
1960.053689111995
 20
1314.061981124954
 30
0.0
 11
1958.353689111995
 21
1314.061981124954
 31
0.0
1001
AcDbBlockRepETag
1070
     1
1071
       13
1005
488
  0
LINE
  5
489
330
349
100
AcDbEntity
  8
0
  6
Continuous
 62
     7
370
    15
100
AcDbLine
 10
1973.353689111995
 20
1301.811981124954
 30
0.0
 11
1958.353689111995
 21
1301.811981124954
 31
0.0
1001
AcDbBlockRepETag
1070
     1
1071
       14
1005
489
  0
LINE
  5
48A
330
349
100
AcDbEntity
  8
0
  6
Continuous
 62
     7
370
    15
100
AcDbLine
 10
1958.353689111995
 20
1314.061981124954
 30
0.0
 11
1958.353689111995
 21
1316.811981124954
 31
0.0
1001
AcDbBlockRepETag
1070
     1
1071
       15
1005
48A
  0
LINE
  5
48B
330
349
100
AcDbEntity
  8
0
  6
Continuous
 62
     7
370
    15
100
AcDbLine
 10
1958.353689111995
 20
1316.811981124954
 30
0.0
 11
1973.353689111995
 21
1316.811981124954
 31
0.0
1001
AcDbBlockRepETag
1070
     1
1071
       16
1005
48B
  0
LINE
  5
48C
330
349
100
AcDbEntity
  8
0
  6
Continuous
 62
     7
370
    15
100
AcDbLine
 10
1971.553689111995
 20
1323.911981124954
 30
0.0
 11
1971.553689111995
 21
1321.311981124954
 31
0.0
1001
AcDbBlockRepETag
1070
     1
1071
       17
1005
48C
  0
ARC
  5
48D
330
349
100
AcDbEntity
  8
0
  6
Continuous
 62
     7
370
    15
100
AcDbCircle
 10
1966.628215285607
 20
1323.411981124954
 30
0.0
 40
0.5
100
AcDbArc
 50
90.0
 51
106.9553130520323
1001
AcDbBlockRepETag
1070
     1
1071
       18
1005
48D
  0
LINE
  5
48E
330
349
100
AcDbEntity
  8
0
  6
Continuous
 62
     7
370
    15
100
AcDbLine
 10
1966.628215285607
 20
1323.911981124954
 30
0.0
 11
1971.553689111995
 21
1323.911981124954
 31
0.0
1001
AcDbBlockRepETag
1070
     1
1071
       19
1005
48E
  0
LINE
  5
48F
330
349
100
AcDbEntity
  8
0
  6
Continuous
 62
     7
370
    15
100
AcDbLine
 10
1958.353689111995
 20
1321.311981124954
 30
0.0
 11
1966.482402405146
 21
1323.890247372865
 31
0.0
1001
AcDbBlockRepETag
1070
     1
1071
       20
1005
48F
  0
LINE
  5
490
330
349
100
AcDbEntity
  8
0
  6
Continuous
 62
     7
370
    15
100
AcDbLine
 10
1971.553689111995
 20
1321.311981124954
 30
0.0
 11
1958.353689111995
 21
1321.311981124954
 31
0.0
1001
AcDbBlockRepETag
1070
     1
1071
       21
1005
490
  0
LINE
  5
491
330
349
100
AcDbEntity
  8
0
  6
Continuous
 62
     7
370
    15
100
AcDbLine
 10
1962.303689111995
 20
1321.311981124954
 30
0.0
 11
1962.303689111995
 21
1316.811981124954
 31
0.0
1001
AcDbBlockRepETag
1070
     1
1071
       22
1005
491
  0
LINE
  5
492
330
349
100
AcDbEntity
  8
0
  6
Continuous
 62
     7
370
    15
100
AcDbLine
 10
1958.353689111995
 20
1321.311981124954
 30
0.0
 11
1958.353689111995
 21
1316.811981124954
 31
0.0
1001
AcDbBlockRepETag
1070
     1
1071
       23
1005
492
  0
ENDBLK
  5
34B
330
349
100
AcDbEntity
  8
0
100
AcDbBlockEnd
  0
BLOCK
  5
366
330
365
100
AcDbEntity
  8
0
100
AcDbBlockBegin
  2
3
 70
     0
 10
0.0
 20
0.0
 30
0.0
  3
3
  1

  0
LINE
  5
368
330
365
100
AcDbEntity
  8
0
  6
Continuous
 62
     7
370
    15
100
AcDbLine
 10
2019.02110597246
 20
1283.62190645718
 30
0.0
 11
2006.52110597246
 21
1283.62190645718
 31
0.0
  0
LINE
  5
369
330
365
100
AcDbEntity
  8
0
  6
Continuous
 62
     7
370
    15
100
AcDbLine
 10
2019.02110597246
 20
1278.696432630792
 30
0.0
 11
2019.02110597246
 21
1283.62190645718
 31
0.0
  0
LINE
  5
36A
330
365
100
AcDbEntity
  8
0
  6
Continuous
 62
     7
370
    15
100
AcDbLine
 10
2006.52110597246
 20
1278.696432630792
 30
0.0
 11
2019.02110597246
 21
1278.696432630792
 31
0.0
  0
LINE
  5
36B
330
365
100
AcDbEntity
  8
0
  6
Continuous
 62
     7
370
    15
100
AcDbLine
 10
2006.52110597246
 20
1278.696432630792
 30
0.0
 11
2006.52110597246
 21
1283.62190645718
 31
0.0
  0
LINE
  5
36C
330
365
100
AcDbEntity
  8
0
  6
Continuous
 62
     7
370
    15
100
AcDbLine
 10
2019.02110597246
 20
1278.550619750331
 30
0.0
 11
2006.52110597246
 21
1278.550619750331
 31
0.0
  0
LINE
  5
36D
330
365
100
AcDbEntity
  8
0
  6
Continuous
 62
     7
370
    15
100
AcDbLine
 10
2019.02110597246
 20
1278.696432630792
 30
0.0
 11
2019.02110597246
 21
1278.550619750331
 31
0.0
  0
LINE
  5
36E
330
365
100
AcDbEntity
  8
0
  6
Continuous
 62
     7
370
    15
100
AcDbLine
 10
2006.52110597246
 20
1278.550619750331
 30
0.0
 11
2006.52110597246
 21
1278.696432630792
 31
0.0
  0
LINE
  5
36F
330
365
100
AcDbEntity
  8
0
  6
Continuous
 62
     7
370
    15
100
AcDbLine
 10
2019.02110597246
 20
1270.42190645718
 30
0.0
 11
2016.071105972461
 21
1270.42190645718
 31
0.0
  0
LINE
  5
370
330
365
100
AcDbEntity
  8
0
  6
Continuous
 62
     7
370
    15
100
AcDbLine
 10
2015.07110597246
 20
1270.42190645718
 30
0.0
 11
2016.071105972461
 21
1270.42190645718
 31
0.0
  0
LINE
  5
371
330
365
100
AcDbEntity
  8
0
  6
Continuous
 62
     7
370
    15
100
AcDbLine
 10
2015.07110597246
 20
1270.42190645718
 30
0.0
 11
2015.07110597246
 21
1274.37190645718
 31
0.0
  0
ARC
  5
372
330
365
100
AcDbEntity
  8
0
  6
Continuous
 62
     7
370
    15
100
AcDbCircle
 10
2012.82110597246
 20
1274.37190645718
 30
0.0
 40
2.25
100
AcDbArc
 50
0.0
 51
180.0
  0
LINE
  5
373
330
365
100
AcDbEntity
  8
0
  6
Continuous
 62
     7
370
    15
100
AcDbLine
 10
2010.571105972461
 20
1274.37190645718
 30
0.0
 11
2010.571105972461
 21
1270.42190645718
 31
0.0
  0
LINE
  5
374
330
365
100
AcDbEntity
  8
0
  6
Continuous
 62
     7
370
    15
100
AcDbLine
 10
2009.57110597246
 20
1270.42190645718
 30
0.0
 11
2010.571105972461
 21
1270.42190645718
 31
0.0
  0
LINE
  5
375
330
365
100
AcDbEntity
  8
0
  6
Continuous
 62
     7
370
    15
100
AcDbLine
 10
2009.57110597246
 20
1270.42190645718
 30
0.0
 11
2006.52110597246
 21
1270.42190645718
 31
0.0
  0
LINE
  5
376
330
365
100
AcDbEntity
  8
0
  6
Continuous
 62
     7
370
    15
100
AcDbLine
 10
2019.02110597246
 20
1270.42190645718
 30
0.0
 11
2019.02110597246
 21
1278.550619750331
 31
0.0
  0
LINE
  5
377
330
365
100
AcDbEntity
  8
0
  6
Continuous
 62
     7
370
    15
100
AcDbLine
 10
2006.52110597246
 20
1270.42190645718
 30
0.0
 11
2006.52110597246
 21
1278.550619750331
 31
0.0
  0
LINE
  5
378
330
365
100
AcDbEntity
  8
0
  6
Continuous
 62
     7
370
    15
100
AcDbLine
 10
2004.92110597246
 20
1270.42190645718
 30
0.0
 11
2004.92110597246
 21
1285.42190645718
 31
0.0
  0
LINE
  5
379
330
365
100
AcDbEntity
  8
0
  6
Continuous
 62
     7
370
    15
100
AcDbLine
 10
2004.92110597246
 20
1285.42190645718
 30
0.0
 11
2020.721105972461
 21
1285.42190645718
 31
0.0
  0
LINE
  5
37A
330
365
100
AcDbEntity
  8
0
  6
Continuous
 62
     7
370
    15
100
AcDbLine
 10
2020.721105972461
 20
1270.42190645718
 30
0.0
 11
2020.721105972461
 21
1285.42190645718
 31
0.0
  0
LINE
  5
37B
330
365
100
AcDbEntity
  8
0
  6
Continuous
 62
     7
370
    15
100
AcDbLine
 10
2004.92110597246
 20
1270.42190645718
 30
0.0
 11
2006.52110597246
 21
1270.42190645718
 31
0.0
  0
LINE
  5
37C
330
365
100
AcDbEntity
  8
0
  6
Continuous
 62
     7
370
    15
100
AcDbLine
 10
2019.02110597246
 20
1270.42190645718
 30
0.0
 11
2020.721105972461
 21
1270.42190645718
 31
0.0
  0
ENDBLK
  5
367
330
365
100
AcDbEntity
  8
0
100
AcDbBlockEnd
  0
BLOCK
  5
37F
330
37E
100
AcDbEntity
  8
0
100
AcDbBlockBegin
  2
4
 70
     0
 10
0.0
 20
0.0
 30
0.0
  3
4
  1

  0
LINE
  5
381
330
37E
100
AcDbEntity
  8
0
  6
Continuous
 62
     7
370
    15
100
AcDbLine
 10
1965.083073839781
 20
1277.767122088428
 30
0.0
 11
1965.083073839781
 21
1277.359874475147
 31
0.0
  0
LINE
  5
382
330
37E
100
AcDbEntity
  8
0
  6
Continuous
 62
     7
370
    15
100
AcDbLine
 10
1957.337563392331
 20
1282.238510093572
 30
0.0
 11
1966.671372903993
 21
1276.850216555542
 31
0.0
  0
LINE
  5
383
330
37E
100
AcDbEntity
  8
0
  6
Continuous
 62
     7
370
    15
100
AcDbLine
 10
1957.337563392331
 20
1284.279862123286
 30
0.0
 11
1957.337563392331
 21
1282.238510093572
 31
0.0
  0
LINE
  5
384
330
37E
100
AcDbEntity
  8
0
  6
Continuous
 62
     7
370
    15
100
AcDbLine
 10
1960.820399335527
 20
1282.269263730069
 30
0.0
 11
1957.337563392331
 21
1284.279862123286
 31
0.0
  0
ARC
  5
385
330
37E
100
AcDbEntity
  8
0
  6
Continuous
 62
     7
370
    15
100
AcDbCircle
 10
1960.528650429836
 20
1281.772532709652
 30
0.0
 40
0.5760721574733881
100
AcDbArc
 50
46.73097025897743
 51
59.57267342330776
  0
LINE
  5
386
330
37E
100
AcDbEntity
  8
0
  6
Continuous
 62
     7
370
    15
100
AcDbLine
 10
1966.671372903993
 20
1276.850216555542
 30
0.0
 11
1960.923504612085
 21
1282.191995825285
 31
0.0
  0
LINE
  5
387
330
37E
100
AcDbEntity
  8
0
  6
Continuous
 62
     7
370
    15
100
AcDbLine
 10
1975.510207668825
 20
1281.952767254434
 30
0.0
 11
1973.424242664325
 21
1280.748565289495
 31
0.0
  0
LINE
  5
388
330
37E
100
AcDbEntity
  8
0
  6
Continuous
 62
     7
370
    15
100
AcDbLine
 10
1972.717135883138
 20
1280.340361233584
 30
0.0
 11
1973.424242664325
 21
1280.748565289495
 31
0.0
  0
LINE
  5
389
330
37E
100
AcDbEntity
  8
0
  6
Continuous
 62
     7
370
    15
100
AcDbLine
 10
1972.717135883138
 20
1280.340361233584
 30
0.0
 11
1969.924064097451
 21
1282.936101463869
 31
0.0
  0
ELLIPSE
  5
38A
330
37E
100
AcDbEntity
  8
0
  6
Continuous
 62
     7
370
    15
100
AcDbEllipse
 10
1968.333073839781
 20
1282.017642338068
 30
0.0
 11
2.174455628721104
 21
-0.8182931195673289
 31
0.0
210
0.0
220
0.0
230
1.0
 40
0.7065161246079042
 41
1.045262973970072
 42
4.186855627559873
  0
LINE
  5
38B
330
37E
100
AcDbEntity
  8
0
  6
Continuous
 62
     7
370
    15
100
AcDbLine
 10
1966.742083582112
 20
1281.099183212268
 30
0.0
 11
1969.535155367799
 21
1278.503442981983
 31
0.0
  0
LINE
  5
38C
330
37E
100
AcDbEntity
  8
0
  6
Continuous
 62
     7
370
    15
100
AcDbLine
 10
1968.828048586612
 20
1278.095238926071
 30
0.0
 11
1969.535155367799
 21
1278.503442981983
 31
0.0
  0
LINE
  5
38D
330
37E
100
AcDbEntity
  8
0
  6
Continuous
 62
     7
370
    15
100
AcDbLine
 10
1968.828048586612
 20
1278.095238926071
 30
0.0
 11
1966.671372903993
 21
1276.850216555542
 31
0.0
  0
LINE
  5
38E
330
37E
100
AcDbEntity
  8
0
  6
Continuous
 62
     7
370
    15
100
AcDbLine
 10
1969.762339376917
 20
1287.294546524177
 30
0.0
 11
1960.923504612085
 21
1282.191995825285
 31
0.0
  0
LINE
  5
38F
330
37E
100
AcDbEntity
  8
0
  6
Continuous
 62
     7
370
    15
100
AcDbLine
 10
1975.510207668825
 20
1281.952767254434
 30
0.0
 11
1969.762339376917
 21
1287.294546524177
 31
0.0
  0
LINE
  5
390
330
37E
100
AcDbEntity
  8
0
  6
Continuous
 62
     7
370
    15
100
AcDbLine
 10
1965.540002054095
 20
1270.277169179912
 30
0.0
 11
1965.540002054095
 21
1272.522656412598
 31
0.0
  0
LINE
  5
391
330
37E
100
AcDbEntity
  8
0
  6
Continuous
 62
     7
370
    15
100
AcDbLine
 10
1965.540002054095
 20
1272.522656412598
 30
0.0
 11
1968.828048586612
 21
1274.420805272585
 31
0.0
  0
LINE
  5
392
330
37E
100
AcDbEntity
  8
0
  6
Continuous
 62
     7
370
    15
100
AcDbLine
 10
1968.828048586612
 20
1278.095238926071
 30
0.0
 11
1968.828048586612
 21
1274.420805272585
 31
0.0
  0
LINE
  5
393
330
37E
100
AcDbEntity
  8
0
  6
Continuous
 62
     7
370
    15
100
AcDbLine
 10
1969.535155367799
 20
1278.503442981983
 30
0.0
 11
1969.535155367799
 21
1272.583522095811
 31
0.0
  0
LINE
  5
394
330
37E
100
AcDbEntity
  8
0
  6
Continuous
 62
     7
370
    15
100
AcDbLine
 10
1969.535155367799
 20
1272.583522095811
 30
0.0
 11
1965.540002054095
 21
1270.277169179912
 31
0.0
  0
LINE
  5
395
330
37E
100
AcDbEntity
  8
0
  6
Continuous
 62
     7
370
    15
100
AcDbLine
 10
1965.540002054095
 20
1272.522656412598
 30
0.0
 11
1954.933400336296
 21
1278.645717251268
 31
0.0
  0
LINE
  5
396
330
37E
100
AcDbEntity
  8
0
  6
Continuous
 62
     7
370
    15
100
AcDbLine
 10
1954.933400336296
 20
1278.645717251268
 30
0.0
 11
1959.24726890489
 21
1281.136060567469
 31
0.0
  0
LINE
  5
397
330
37E
100
AcDbEntity
  8
0
  6
Continuous
 62
     7
370
    15
100
AcDbLine
 10
1976.712289196842
 20
1278.972280495997
 30
0.0
 11
1973.529791478147
 21
1280.80949732274
 31
0.0
  0
LINE
  5
398
330
37E
100
AcDbEntity
  8
0
  6
Continuous
 62
     7
370
    15
100
AcDbLine
 10
1973.424242664325
 20
1277.074131636009
 30
0.0
 11
1976.712289196842
 21
1278.972280495997
 31
0.0
  0
ARC
  5
399
330
37E
100
AcDbEntity
  8
0
  6
Continuous
 62
     7
370
    15
100
AcDbCircle
 10
1966.700749989902
 20
1277.51574937825
 30
0.0
 40
1.625168641121844
100
AcDbArc
 50
185.5038744859894
 51
245.8162664716387
  0
LINE
  5
39A
330
37E
100
AcDbEntity
  8
0
  6
Continuous
 62
     7
370
    15
100
AcDbLine
 10
1966.034976800925
 20
1276.033211293435
 30
0.0
 11
1968.828048586612
 21
1274.420805272585
 31
0.0
  0
LINE
  5
39B
330
37E
100
AcDbEntity
  8
0
  6
Continuous
 62
     7
370
    15
100
AcDbLine
 10
1962.216600182518
 20
1269.746105807038
 30
0.0
 11
1962.216600182518
 21
1266.888212965438
 31
0.0
  0
ARC
  5
39C
330
37E
100
AcDbEntity
  8
0
  6
Continuous
 62
     7
370
    15
100
AcDbCircle
 10
1966.804678645132
 20
1267.087651569477
 30
0.0
 40
4.59241110266578
100
AcDbArc
 50
182.489016101638
 51
237.5109840439978
  0
LINE
  5
39D
330
37E
100
AcDbEntity
  8
0
  6
Continuous
 62
     7
370
    15
100
AcDbLine
 10
1964.337920526077
 20
1263.213978362047
 30
0.0
 11
1965.540002054095
 21
1262.520031466997
 31
0.0
  0
LINE
  5
39E
330
37E
100
AcDbEntity
  8
0
  6
Continuous
 62
     7
370
    15
100
AcDbLine
 10
1965.540002054095
 20
1260.274544234311
 30
0.0
 11
1965.540002054095
 21
1262.520031466997
 31
0.0
  0
LINE
  5
39F
330
37E
100
AcDbEntity
  8
0
  6
Continuous
 62
     7
370
    15
100
AcDbLine
 10
1954.933400336296
 20
1266.397605072982
 30
0.0
 11
1965.540002054095
 21
1260.274544234311
 31
0.0
  0
LINE
  5
3A0
330
37E
100
AcDbEntity
  8
0
  6
Continuous
 62
     7
370
    15
100
AcDbLine
 10
1954.933400336296
 20
1268.643092305668
 30
0.0
 11
1954.933400336296
 21
1266.397605072982
 31
0.0
  0
LINE
  5
3A1
330
37E
100
AcDbEntity
  8
0
  6
Continuous
 62
     7
370
    15
100
AcDbLine
 10
1954.933400336296
 20
1268.643092305668
 30
0.0
 11
1956.135481864313
 21
1267.949145410618
 31
0.0
  0
LWPOLYLINE
  5
3A2
330
37E
100
AcDbEntity
  8
0
  6
Continuous
 62
     7
370
    15
100
AcDbPolyline
 90
       19
 70
   128
 43
0.0
 10
1956.135481864313
 20
1267.949145410618
 10
1956.320367114462
 20
1267.85173498049
 10
1956.50384527622
 20
1267.773709008412
 10
1956.68451996999
 20
1267.715661319143
 10
1956.861016152257
 20
1267.67803369065
 10
1957.031990580504
 20
1267.661112491905
 10
1957.196142036093
 20
1267.665026503449
 10
1957.352221227331
 20
1267.68974593729
 10
1957.499040297329
 20
1267.73508266361
 10
1957.635481864313
 20
1267.800691642547
 10
1957.760507525572
 20
1267.886073550156
 10
1957.873165760332
 20
1267.990578578565
 10
1957.972599171401
 20
1268.113411381406
 10
1958.058051010481
 20
1268.25363712688
 10
1958.128870937479
 20
1268.410188612394
 10
1958.18451996999
 20
1268.581874386615
 10
1958.224574585273
 20
1268.767387817134
 10
1958.248729943522
 20
1268.965317034729
 10
1958.256802207873
 20
1269.174155678541
  0
LINE
  5
3A3
330
37E
100
AcDbEntity
  8
0
  6
Continuous
 62
     7
370
    15
100
AcDbLine
 10
1958.256802207873
 20
1269.174155678541
 30
0.0
 11
1958.256802207873
 21
1272.032048520141
 31
0.0
  0
ARC
  5
3A4
330
37E
100
AcDbEntity
  8
0
  6
Continuous
 62
     7
370
    15
100
AcDbCircle
 10
1953.668723745258
 20
1271.832609916102
 30
0.0
 40
4.59241110266601
100
AcDbArc
 50
2.489016101637999
 51
57.51098404399778
  0
LINE
  5
3A5
330
37E
100
AcDbEntity
  8
0
  6
Continuous
 62
     7
370
    15
100
AcDbLine
 10
1956.135481864313
 20
1275.706283123533
 30
0.0
 11
1954.933400336296
 21
1276.400230018582
 31
0.0
  0
LINE
  5
3A6
330
37E
100
AcDbEntity
  8
0
  6
Continuous
 62
     7
370
    15
100
AcDbLine
 10
1954.933400336296
 20
1278.645717251268
 30
0.0
 11
1954.933400336296
 21
1276.400230018582
 31
0.0
  0
LINE
  5
3A7
330
37E
100
AcDbEntity
  8
0
  6
Continuous
 62
     7
370
    15
100
AcDbLine
 10
1965.540002054095
 20
1270.277169179912
 30
0.0
 11
1964.337920526077
 21
1270.971116074961
 31
0.0
  0
LWPOLYLINE
  5
3A8
330
37E
100
AcDbEntity
  8
0
  6
Continuous
 62
     7
370
    15
100
AcDbPolyline
 90
       19
 70
   128
 43
0.0
 10
1964.337920526077
 20
1270.971116074961
 10
1964.153035275929
 20
1271.068526505089
 10
1963.969557114171
 20
1271.146552477168
 10
1963.788882420401
 20
1271.204600166436
 10
1963.612386238133
 20
1271.242227794929
 10
1963.441411809887
 20
1271.259148993674
 10
1963.277260354297
 20
1271.25523498213
 10
1963.121181163059
 20
1271.23051554829
 10
1962.974362093061
 20
1271.185178821969
 10
1962.837920526078
 20
1271.119569843032
 10
1962.712894864818
 20
1271.034187935423
 10
1962.600236630059
 20
1270.929682907014
 10
1962.50080321899
 20
1270.806850104174
 10
1962.41535137991
 20
1270.666624358699
 10
1962.344531452911
 20
1270.510072873185
 10
1962.2888824204
 20
1270.338387098965
 10
1962.248827805117
 20
1270.152873668445
 10
1962.224672446869
 20
1269.95494445085
 10
1962.216600182518
 20
1269.746105807038
  0
LINE
  5
3A9
330
37E
100
AcDbEntity
  8
0
  6
Continuous
 62
     7
370
    15
100
AcDbLine
 10
1960.820399335527
 20
1282.269263730069
 30
0.0
 11
1969.659234100358
 21
1287.371814428961
 31
0.0
  0
ARC
  5
3AA
330
37E
100
AcDbEntity
  8
0
  6
Continuous
 62
     7
370
    15
100
AcDbCircle
 10
1969.367485194667
 20
1286.875083408542
 30
0.0
 40
0.5760721574751547
100
AcDbArc
 50
46.73097025897743
 51
59.5726734232787
  0
LINE
  5
3AB
330
37E
100
AcDbEntity
  8
0
  6
Continuous
 62
     7
370
    15
100
AcDbLine
 10
1966.176398157162
 20
1289.382412822178
 30
0.0
 11
1957.337563392331
 21
1284.279862123286
 31
0.0
  0
LINE
  5
3AC
330
37E
100
AcDbEntity
  8
0
  6
Continuous
 62
     7
370
    15
100
AcDbLine
 10
1969.659234100358
 20
1287.371814428961
 30
0.0
 11
1966.176398157162
 21
1289.382412822178
 31
0.0
  0
LINE
  5
3AD
330
37E
100
AcDbEntity
  8
0
  6
Continuous
 62
     7
370
    15
100
AcDbLine
 10
1969.924064097451
 20
1282.936101463869
 30
0.0
 11
1969.924064097451
 21
1276.032846368262
 31
0.0
  0
ARC
  5
3AE
330
37E
100
AcDbEntity
  8
0
  6
Continuous
 62
     7
370
    15
100
AcDbCircle
 10
1968.679193127107
 20
1273.847086983568
 30
0.0
 40
2.515402119062011
100
AcDbArc
 50
60.33688388475098
 51
70.10555217988112
  0
LINE
  5
3AF
330
37E
100
AcDbEntity
  8
0
  6
Continuous
 62
     7
370
    15
100
AcDbLine
 10
1972.717135883138
 20
1280.340361233584
 30
0.0
 11
1972.717135883138
 21
1274.420440347412
 31
0.0
  0
LINE
  5
3B0
330
37E
100
AcDbEntity
  8
0
  6
Continuous
 62
     7
370
    15
100
AcDbLine
 10
1969.924064097451
 20
1276.032846368262
 30
0.0
 11
1972.717135883138
 21
1274.420440347412
 31
0.0
  0
ARC
  5
3B1
330
37E
100
AcDbEntity
  8
0
  6
Continuous
 62
     7
370
    15
100
AcDbCircle
 10
1965.623798110323
 20
1270.516331867117
 30
0.0
 40
2.134700238515573
100
AcDbArc
 50
160.1370786931983
 51
180.9517639356004
  0
LINE
  5
3B2
330
37E
100
AcDbEntity
  8
0
  6
Continuous
 62
     7
370
    15
100
AcDbLine
 10
1963.489392388654
 20
1270.480873107678
 30
0.0
 11
1962.216600182518
 21
1269.746105807038
 31
0.0
  0
LINE
  5
3B3
330
37E
100
AcDbEntity
  8
0
  6
Continuous
 62
     7
370
    15
100
AcDbLine
 10
1976.712289196842
 20
1276.726793263311
 30
0.0
 11
1976.712289196842
 21
1278.972280495997
 31
0.0
  0
LINE
  5
3B4
330
37E
100
AcDbEntity
  8
0
  6
Continuous
 62
     7
370
    15
100
AcDbLine
 10
1973.424242664325
 20
1280.748565289495
 30
0.0
 11
1973.424242664325
 21
1277.074131636009
 31
0.0
  0
LINE
  5
3B5
330
37E
100
AcDbEntity
  8
0
  6
Continuous
 62
     7
370
    15
100
AcDbLine
 10
1976.712289196842
 20
1276.726793263311
 30
0.0
 11
1972.717135883138
 21
1274.420440347412
 31
0.0
  0
LINE
  5
3B6
330
37E
100
AcDbEntity
  8
0
  6
Continuous
 62
     7
370
    15
100
AcDbLine
 10
1963.489392388654
 20
1267.622980266078
 30
0.0
 11
1962.216600182518
 21
1266.888212965438
 31
0.0
  0
LINE
  5
3B7
330
37E
100
AcDbEntity
  8
0
  6
Continuous
 62
     7
370
    15
100
AcDbLine
 10
1963.489392388654
 20
1267.622980266078
 30
0.0
 11
1963.489392388654
 21
1270.480873107678
 31
0.0
  0
LINE
  5
3B8
330
37E
100
AcDbEntity
  8
0
  6
Continuous
 62
     7
370
    15
100
AcDbLine
 10
1965.610712732213
 20
1263.948745662687
 30
0.0
 11
1964.337920526077
 21
1263.213978362047
 31
0.0
  0
ARC
  5
3B9
330
37E
100
AcDbEntity
  8
0
  6
Continuous
 62
     7
370
    15
100
AcDbCircle
 10
1968.077470851268
 20
1267.822418870118
 30
0.0
 40
4.592411102665971
100
AcDbArc
 50
182.489016101638
 51
237.5109840439978
  0
LINE
  5
3BA
330
37E
100
AcDbEntity
  8
0
  6
Continuous
 62
     7
370
    15
100
AcDbLine
 10
1968.863403925671
 20
1264.438590529781
 30
0.0
 11
1965.540002054095
 21
1262.520031466997
 31
0.0
  0
LINE
  5
3BB
330
37E
100
AcDbEntity
  8
0
  6
Continuous
 62
     7
370
    15
100
AcDbLine
 10
1968.863403925671
 20
1264.438590529781
 30
0.0
 11
1968.863403925671
 21
1262.193103297095
 31
0.0
  0
LINE
  5
3BC
330
37E
100
AcDbEntity
  8
0
  6
Continuous
 62
     7
370
    15
100
AcDbLine
 10
1965.540002054095
 20
1260.274544234311
 30
0.0
 11
1968.863403925671
 21
1262.193103297095
 31
0.0
  0
LINE
  5
3BD
330
37E
100
AcDbEntity
  8
0
  6
Continuous
 62
     7
370
    15
100
AcDbLine
 10
1965.822844766569
 20
1266.193867970199
 30
0.0
 11
1968.863403925671
 21
1264.438590529781
 31
0.0
  0
LINE
  5
3BE
330
37E
100
AcDbEntity
  8
0
  6
Continuous
 62
     7
370
    15
100
AcDbLine
 10
1957.408274070449
 20
1268.683912711259
 30
0.0
 11
1956.135481864313
 21
1267.949145410618
 31
0.0
  0
LINE
  5
3BF
330
37E
100
AcDbEntity
  8
0
  6
Continuous
 62
     7
370
    15
100
AcDbLine
 10
1958.256802207873
 20
1270.561651368451
 30
0.0
 11
1954.933400336296
 21
1268.643092305668
 31
0.0
  0
LINE
  5
3C0
330
37E
100
AcDbEntity
  8
0
  6
Continuous
 62
     7
370
    15
100
AcDbLine
 10
1968.720890695683
 20
1272.113457106214
 30
0.0
 11
1974.237415462689
 21
1268.928835144805
 31
0.0
  0
LINE
  5
3C1
330
37E
100
AcDbEntity
  8
0
  6
Continuous
 62
     7
370
    15
100
AcDbLine
 10
1975.510207668825
 20
1269.663602445446
 30
0.0
 11
1974.237415462689
 21
1268.928835144805
 31
0.0
  0
LINE
  5
3C2
330
37E
100
AcDbEntity
  8
0
  6
Continuous
 62
     7
370
    15
100
AcDbLine
 10
1976.712289196842
 20
1268.969655550397
 30
0.0
 11
1975.510207668825
 21
1269.663602445446
 31
0.0
  0
LINE
  5
3C3
330
37E
100
AcDbEntity
  8
0
  6
Continuous
 62
     7
370
    15
100
AcDbLine
 10
1976.712289196842
 20
1268.969655550397
 30
0.0
 11
1973.388887325265
 21
1267.051096487613
 31
0.0
  0
LINE
  5
3C4
330
37E
100
AcDbEntity
  8
0
  6
Continuous
 62
     7
370
    15
100
AcDbLine
 10
1973.388887325265
 20
1267.051096487613
 30
0.0
 11
1970.348328166163
 21
1268.806373928032
 31
0.0
  0
LWPOLYLINE
  5
3C5
330
37E
100
AcDbEntity
  8
0
  6
Continuous
 62
     7
370
    15
100
AcDbPolyline
 90
       39
 70
   128
 43
0.0
 10
1970.348328166163
 20
1268.806373928032
 10
1970.153744027521
 20
1268.909781927868
 10
1969.945032275652
 20
1269.003560513841
 10
1969.723618623453
 20
1269.08706908312
 10
1969.491015550678
 20
1269.159737187499
 10
1969.24881197217
 20
1269.221068430141
 10
1968.998662383963
 20
1269.27064385647
 10
1968.742275561392
 20
1269.308124816055
 10
1968.481402886428
 20
1269.333255275937
 10
1968.217826383962
 20
1269.345863569594
 10
1967.95334654877
 20
1269.345863569594
 10
1967.689770046304
 20
1269.333255275937
 10
1967.42889737134
 20
1269.308124816055
 10
1967.172510548769
 20
1269.27064385647
 10
1966.922360960562
 20
1269.221068430141
 10
1966.680157382054
 20
1269.159737187499
 10
1966.447554309279
 20
1269.08706908312
 10
1966.22614065708
 20
1269.003560513841
 10
1966.017428905211
 20
1268.909781927868
 10
1965.822844766569
 20
1268.806373928032
 10
1965.643717448127
 20
1268.694042895827
 10
1965.481270571102
 20
1268.573556166106
 10
1965.336613812382
 20
1268.445736785403
 10
1965.210735324312
 20
1268.311457889696
 10
1965.104494984602
 20
1268.171636740001
 10
1965.0186185225
 20
1268.027228456546
 10
1964.953692561319
 20
1267.879219494335
 10
1964.910160611207
 20
1267.728620904659
 10
1964.888320039527
 20
1267.576461428591
 10
1964.888320039527
 20
1267.42378046964
 10
1964.910160611207
 20
1267.271620993572
 10
1964.953692561319
 20
1267.121022403897
 10
1965.0186185225
 20
1266.973013441686
 10
1965.104494984602
 20
1266.82860515823
 10
1965.210735324312
 20
1266.688784008535
 10
1965.336613812382
 20
1266.554505112829
 10
1965.481270571102
 20
1266.426685732126
 10
1965.643717448127
 20
1266.306199002404
 10
1965.822844766569
 20
1266.193867970199
  0
LINE
  5
3C6
330
37E
100
AcDbEntity
  8
0
  6
Continuous
 62
     7
370
    15
100
AcDbLine
 10
1972.11609511913
 20
1274.767413794937
 30
0.0
 11
1972.11609511913
 21
1272.603069748197
 31
0.0
  0
ARC
  5
3C7
330
37E
100
AcDbEntity
  8
0
  6
Continuous
 62
     7
370
    15
100
AcDbCircle
 10
1976.704173581744
 20
1272.802508352236
 30
0.0
 40
4.592411102666072
100
AcDbArc
 50
182.489016101638
 51
237.5109840439978
  0
ARC
  5
3C8
330
37E
100
AcDbEntity
  8
0
  6
Continuous
 62
     7
370
    15
100
AcDbCircle
 10
1958.505893221558
 20
1270.514359553215
 30
0.0
 40
2.134315684735301
100
AcDbArc
 50
239.0511820192698
 51
259.8589407886235
  0
LINE
  5
3C9
330
37E
100
AcDbEntity
  8
0
  6
Continuous
 62
     7
370
    15
100
AcDbLine
 10
1970.348328166163
 20
1268.806373928032
 30
0.0
 11
1970.348328166163
 21
1266.560886695346
 31
0.0
  0
ARC
  5
3CA
330
37E
100
AcDbEntity
  8
0
  6
Continuous
 62
     7
370
    15
100
AcDbCircle
 10
1968.104241622439
 20
1262.336492875826
 30
0.0
 40
4.783453517922405
100
AcDbArc
 50
62.02182323085146
 51
122.353449776934
  0
LINE
  5
3CB
330
37E
100
AcDbEntity
  8
0
  6
Continuous
 62
     7
370
    15
100
AcDbLine
 10
1973.388887325265
 20
1267.051096487613
 30
0.0
 11
1973.388887325265
 21
1264.805609254927
 31
0.0
  0
LINE
  5
3CC
330
37E
100
AcDbEntity
  8
0
  6
Continuous
 62
     7
370
    15
100
AcDbLine
 10
1976.712289196842
 20
1266.724168317711
 30
0.0
 11
1976.712289196842
 21
1268.969655550397
 31
0.0
  0
LINE
  5
3CD
330
37E
100
AcDbEntity
  8
0
  6
Continuous
 62
     7
370
    15
100
AcDbLine
 10
1973.388887325265
 20
1264.805609254927
 30
0.0
 11
1976.712289196842
 21
1266.724168317711
 31
0.0
  0
LINE
  5
3CE
330
37E
100
AcDbEntity
  8
0
  6
Continuous
 62
     7
370
    15
100
AcDbLine
 10
1970.348328166163
 20
1266.560886695346
 30
0.0
 11
1973.388887325265
 21
1264.805609254927
 31
0.0
  0
LINE
  5
3CF
330
37E
100
AcDbEntity
  8
0
  6
Continuous
 62
     7
370
    15
100
AcDbLine
 10
1973.388887325265
 20
1273.337837048837
 30
0.0
 11
1972.11609511913
 21
1272.603069748197
 31
0.0
  0
LINE
  5
3D0
330
37E
100
AcDbEntity
  8
0
  6
Continuous
 62
     7
370
    15
100
AcDbLine
 10
1973.388887325265
 20
1273.337837048837
 30
0.0
 11
1973.388887325265
 21
1274.808234200528
 31
0.0
  0
ARC
  5
3D1
330
37E
100
AcDbEntity
  8
0
  6
Continuous
 62
     7
370
    15
100
AcDbCircle
 10
1977.97696578788
 20
1273.537275652876
 30
0.0
 40
4.592411102665852
100
AcDbArc
 50
182.489016101638
 51
237.5109840439978
  0
LINE
  5
3D2
330
37E
100
AcDbEntity
  8
0
  6
Continuous
 62
     8
370
    15
100
AcDbLine
 10
1966.034976800925
 20
1277.217600205862
 30
0.0
 11
1966.034976800925
 21
1276.033211293435
 31
0.0
  0
ENDBLK
  5
380
330
37E
100
AcDbEntity
  8
0
100
AcDbBlockEnd
  0
ENDSEC
  0
SECTION
  2
ENTITIES
  0
INSERT
  5
348
330
1F
100
AcDbEntity
  8
0
100
AcDbBlockReference
  2
1
 10
0.0
 20
0.0
 30
0.0
  0
INSERT
  5
364
330
1F
100
AcDbEntity
  8
0
100
AcDbBlockReference
  2
2
 10
19.52860880159619
 20
0.0
 30
0.0
  0
INSERT
  5
37D
330
1F
100
AcDbEntity
  8
0
100
AcDbBlockReference
  2
3
 10
0.0
 20
8.97988920837497
 30
0.0
  0
INSERT
  5
3D3
330
1F
100
AcDbEntity
  8
0
100
AcDbBlockReference
  2
4
 10
75.01877929197508
 20
38.68976630059297
 30
0.0
  0
ENDSEC
  0
SECTION
  2
OBJECTS
  0
DICTIONARY
  5
C
330
0
100
AcDbDictionary
281
     1
  3
ACAD_COLOR
350
6B
  3
ACAD_GROUP
350
D
  3
ACAD_LAYOUT
350
1A
  3
ACAD_MATERIAL
350
6A
  3
ACAD_MLEADERSTYLE
350
12D
  3
ACAD_MLINESTYLE
350
17
  3
ACAD_PLOTSETTINGS
350
19
  3
ACAD_PLOTSTYLENAME
350
E
  3
ACAD_SCALELIST
350
10C
  3
ACAD_TABLESTYLE
350
7E
  3
ACAD_VISUALSTYLE
350
EF
  3
ACDB_RECOMPOSE_DATA
350
15D
  3
AcDbVariableDictionary
350
5E
  3
DWGPROPS
350
4AA
  0
DICTIONARY
  5
13C
330
10
100
AcDbDictionary
280
     1
281
     1
  3
ADSK_XREC_LAYER_RECONCILED
360
3D4
  0
DICTIONARY
  5
471
330
313
100
AcDbDictionary
280
     1
281
     1
  0
DICTIONARY
  5
493
330
349
100
AcDbDictionary
280
     1
281
     1
  0
DICTIONARY
  5
6B
102
{ACAD_REACTORS
330
C
102
}
330
C
100
AcDbDictionary
281
     1
  0
DICTIONARY
  5
D
102
{ACAD_REACTORS
330
C
102
}
330
C
100
AcDbDictionary
281
     1
  0
DICTIONARY
  5
1A
102
{ACAD_REACTORS
330
C
102
}
330
C
100
AcDbDictionary
281
     1
  3
Layout1
350
D3
  3
Layout2
350
D7
  3
Model
350
22
  0
DICTIONARY
  5
6A
102
{ACAD_REACTORS
330
C
102
}
330
C
100
AcDbDictionary
281
     1
  3
ByBlock
350
ED
  3
ByLayer
350
EC
  3
Global
350
EE
  0
DICTIONARY
  5
12D
102
{ACAD_REACTORS
330
C
102
}
330
C
100
AcDbDictionary
281
     1
  3
Annotative
350
13B
  3
Standard
350
12E
  0
DICTIONARY
  5
17
102
{ACAD_REACTORS
330
C
102
}
330
C
100
AcDbDictionary
281
     1
  3
Standard
350
18
  0
DICTIONARY
  5
19
102
{ACAD_REACTORS
330
C
102
}
330
C
100
AcDbDictionary
281
     1
  0
ACDBDICTIONARYWDFLT
  5
E
102
{ACAD_REACTORS
330
C
102
}
330
C
100
AcDbDictionary
281
     1
  3
Normal
350
F
100
AcDbDictionaryWithDefault
340
F
  0
DICTIONARY
  5
10C
102
{ACAD_REACTORS
330
C
102
}
330
C
100
AcDbDictionary
281
     1
  3
A0
350
10D
  3
A1
350
188
  3
A2
350
189
  3
A3
350
18A
  3
A4
350
18B
  3
A5
350
18C
  3
A6
350
18D
  3
A7
350
18E
  3
A8
350
18F
  3
A9
350
190
  3
B0
350
191
  3
B1
350
192
  3
B2
350
193
  3
B3
350
194
  3
B4
350
195
  3
B5
350
196
  3
B6
350
197
  3
B7
350
198
  3
B8
350
199
  3
B9
350
19A
  3
C0
350
19B
  3
C1
350
19C
  3
C2
350
19D
  3
C3
350
19E
  3
C4
350
19F
  3
C5
350
1A0
  3
C6
350
1A1
  3
C7
350
1A2
  3
C8
350
1A3
  3
C9
350
1A4
  3
D0
350
1A5
  3
D1
350
1A6
  3
D2
350
1A7
  0
DICTIONARY
  5
7E
102
{ACAD_REACTORS
330
C
102
}
330
C
100
AcDbDictionary
281
     1
  3
Standard
350
7F
  0
DICTIONARY
  5
EF
102
{ACAD_REACTORS
330
C
102
}
330
C
100
AcDbDictionary
281
     1
  3
2dWireframe
350
F5
  3
3D Hidden
350
F7
  3
3dWireframe
350
F6
  3
Basic
350
F4
  3
Brighten
350
FB
  3
ColorChange
350
FF
  3
Conceptual
350
F8
  3
Dim
350
FA
  3
Facepattern
350
FE
  3
Flat
350
F0
  3
FlatWithEdges
350
F1
  3
Gouraud
350
F2
  3
GouraudWithEdges
350
F3
  3
Linepattern
350
FD
  3
Realistic
350
F9
  3
Thicken
350
FC
  0
XRECORD
  5
15D
102
{ACAD_REACTORS
330
C
102
}
330
C
100
AcDbXrecord
280
     1
 90
        1
330
7F
  0
DICTIONARY
  5
5E
102
{ACAD_REACTORS
330
C
102
}
330
C
100
AcDbDictionary
281
     1
  3
CANNOSCALE
350
146
  3
CMLEADERSTYLE
350
145
  3
CTABLESTYLE
350
84
  3
DIMASSOC
350
5F
  3
HIDETEXT
350
63
  3
INDEXCTL
350
4A6
  3
LIGHTINGUNITS
350
4A4
  3
MSLTSCALE
350
4A3
  3
PSOLHEIGHT
350
4A8
  3
PSOLWIDTH
350
4A7
  3
SORTENTS
350
4A5
  0
XRECORD
  5
4AA
102
{ACAD_REACTORS
330
C
102
}
330
C
100
AcDbXrecord
280
     1
  1
DWGPROPS COOKIE
  2

  3

  4

  6

  7

  8
orhan kara
  9

300
=
301
=
302
=
303
=
304
=
305
=
306
=
307
=
308
=
309
=
 40
0.0014578819444444
 41
2458494.670458704
 42
2458983.647349109
  1

 90
        0
  0
XRECORD
  5
3D4
102
{ACAD_REACTORS
330
13C
102
}
330
13C
100
AcDbXrecord
280
     1
290
     1
  0
LAYOUT
  5
D3
102
{ACAD_XDICTIONARY
360
4AE
102
}
102
{ACAD_REACTORS
330
1A
102
}
330
1A
100
AcDbPlotSettings
  1

  2
C:\Documents and Settings\basas\Application Data\Autodesk\AutoCAD 2005\R16.1\enu\plotters\Default Windows System Printer.pc3
  4

  6

 40
0.0
 41
0.0
 42
0.0
 43
0.0
 44
0.0
 45
0.0
 46
0.0
 47
0.0
 48
0.0
 49
0.0
140
0.0
141
0.0
142
1.0
143
1.0
 70
   688
 72
     0
 73
     0
 74
     5
  7

 75
    16
147
1.0
148
0.0
149
0.0
100
AcDbLayout
  1
Layout1
 70
     1
 71
     1
 10
0.0
 20
0.0
 11
12.0
 21
9.0
 12
0.0
 22
0.0
 32
0.0
 14
0.0
 24
0.0
 34
0.0
 15
0.0
 25
0.0
 35
0.0
146
0.0
 13
0.0
 23
0.0
 33
0.0
 16
1.0
 26
0.0
 36
0.0
 17
0.0
 27
1.0
 37
0.0
 76
     0
330
D2
  0
LAYOUT
  5
D7
102
{ACAD_XDICTIONARY
360
4B0
102
}
102
{ACAD_REACTORS
330
1A
102
}
330
1A
100
AcDbPlotSettings
  1

  2
C:\Documents and Settings\basas\Application Data\Autodesk\AutoCAD 2005\R16.1\enu\plotters\Default Windows System Printer.pc3
  4

  6

 40
0.0
 41
0.0
 42
0.0
 43
0.0
 44
0.0
 45
0.0
 46
0.0
 47
0.0
 48
0.0
 49
0.0
140
0.0
141
0.0
142
1.0
143
1.0
 70
   688
 72
     0
 73
     0
 74
     5
  7

 75
    16
147
1.0
148
0.0
149
0.0
100
AcDbLayout
  1
Layout2
 70
     1
 71
     2
 10
0.0
 20
0.0
 11
12.0
 21
9.0
 12
0.0
 22
0.0
 32
0.0
 14
0.0
 24
0.0
 34
0.0
 15
0.0
 25
0.0
 35
0.0
146
0.0
 13
0.0
 23
0.0
 33
0.0
 16
1.0
 26
0.0
 36
0.0
 17
0.0
 27
1.0
 37
0.0
 76
     0
330
D6
  0
LAYOUT
  5
22
102
{ACAD_XDICTIONARY
360
4AB
102
}
102
{ACAD_REACTORS
330
1A
102
}
330
1A
100
AcDbPlotSettings
  1

  2
none_device
  4
ISO_A4_(210.00_x_297.00_MM)
  6

 40
7.5
 41
20.0
 42
7.5
 43
20.0
 44
210.0
 45
297.0
 46
11.54999923706054
 47
-13.65000009536743
 48
0.0
 49
0.0
140
0.0
141
0.0
142
1.0
143
8.704084754739808
 70
 11952
 72
     1
 73
     0
 74
     0
  7

 75
     0
147
0.1148885871608098
148
0.0
149
0.0
100
AcDbLayout
  1
Model
 70
     1
 71
     0
 10
0.0
 20
0.0
 11
12.0
 21
9.0
 12
0.0
 22
0.0
 32
0.0
 14
0.0
 24
0.0
 34
0.0
 15
0.0
 25
0.0
 35
0.0
146
0.0
 13
0.0
 23
0.0
 33
0.0
 16
1.0
 26
0.0
 36
0.0
 17
0.0
 27
1.0
 37
0.0
 76
     0
330
1F
331
EA
1001
ACAD_PSEXT
1000
None
1000
None
1000
Not applicable
1000
The layout will not be plotted unless a new plotter configuration name is selected.
1070
     0
  0
MATERIAL
  5
ED
102
{ACAD_XDICTIONARY
360
4B4
102
}
102
{ACAD_REACTORS
330
6A
102
}
330
6A
100
AcDbMaterial
  1
ByBlock
  0
MATERIAL
  5
EC
102
{ACAD_XDICTIONARY
360
4B2
102
}
102
{ACAD_REACTORS
330
6A
102
}
330
6A
100
AcDbMaterial
  1
ByLayer
  0
MATERIAL
  5
EE
102
{ACAD_XDICTIONARY
360
173
102
}
102
{ACAD_REACTORS
330
6A
102
}
330
6A
100
AcDbMaterial
  1
Global
 43
0.0007999999797903
 43
0.0
 43
0.0
 43
0.0
 43
0.0
 43
0.0007999999797903
 43
0.0
 43
0.0
 43
0.0
 43
0.0
 43
1.0
 43
0.0
 43
0.0
 43
0.0
 43
0.0
 43
1.0
 49
0.0007999999797903
 49
0.0
 49
0.0
 49
0.0
 49
0.0
 49
0.0007999999797903
 49
0.0
 49
0.0
 49
0.0
 49
0.0
 49
1.0
 49
0.0
 49
0.0
 49
0.0
 49
0.0
 49
1.0
142
0.0007999999797903
142
0.0
142
0.0
142
0.0
142
0.0
142
0.0007999999797903
142
0.0
142
0.0
142
0.0
142
0.0
142
1.0
142
0.0
142
0.0
142
0.0
142
0.0
142
1.0
144
0.0007999999797903
144
0.0
144
0.0
144
0.0
144
0.0
144
0.0007999999797903
144
0.0
144
0.0
144
0.0
144
0.0
144
1.0
144
0.0
144
0.0
144
0.0
144
0.0
144
1.0
1001
ACAD
1070
    -1
1070
     3
1070
     0
1000

1071
        0
1070
     0
  0
MLEADERSTYLE
  5
13B
102
{ACAD_REACTORS
330
12D
102
}
330
12D
100
AcDbMLeaderStyle
170
     2
171
     1
172
     0
 90
        2
 40
0.0
 41
0.0
173
     1
 91
-1056964608
340
14
 92
       -2
290
     1
 42
2.0
291
     1
 43
8.0
  3
Standard
 44
4.0
300

342
11
174
     1
178
     1
175
     1
176
     0
 93
-1056964608
 45
4.0
292
     0
297
     0
 46
4.0
 94
-1056964608
 47
1.0
 49
1.0
140
1.0
293
     1
141
0.0
294
     1
177
     0
142
1.0
295
     0
296
     1
143
3.75
1001
ACAD_MLEADERVER
1070
     2
  0
MLEADERSTYLE
  5
12E
102
{ACAD_REACTORS
330
12D
102
}
330
12D
100
AcDbMLeaderStyle
170
     2
171
     1
172
     0
 90
        2
 40
0.0
 41
0.0
173
     1
 91
-1056964608
340
14
 92
       -2
290
     1
 42
2.0
291
     1
 43
8.0
  3
Standard
 44
4.0
300

342
11
174
     1
178
     1
175
     1
176
     0
 93
-1056964608
 45
4.0
292
     0
297
     0
 46
4.0
 94
-1056964608
 47
1.0
 49
1.0
140
1.0
293
     1
141
0.0
294
     1
177
     0
142
1.0
295
     0
296
     0
143
3.75
1001
ACAD_MLEADERVER
1070
     2
  0
MLINESTYLE
  5
18
102
{ACAD_REACTORS
330
17
102
}
330
17
100
AcDbMlineStyle
  2
STANDARD
 70
     0
  3

 62
   256
 51
90.0
 52
90.0
 71
     2
 49
0.5
 62
   256
  6
BYLAYER
 49
-0.5
 62
   256
  6
BYLAYER
  0
ACDBPLACEHOLDER
  5
F
102
{ACAD_REACTORS
330
E
102
}
330
E
  0
SCALE
  5
10D
102
{ACAD_REACTORS
330
10C
102
}
330
10C
100
AcDbScale
 70
     0
300
1:1
140
1.0
141
1.0
290
     1
  0
SCALE
  5
188
102
{ACAD_REACTORS
330
10C
102
}
330
10C
100
AcDbScale
 70
     0
300
1:2
140
1.0
141
2.0
290
     0
  0
SCALE
  5
189
102
{ACAD_REACTORS
330
10C
102
}
330
10C
100
AcDbScale
 70
     0
300
1:4
140
1.0
141
4.0
290
     0
  0
SCALE
  5
18A
102
{ACAD_REACTORS
330
10C
102
}
330
10C
100
AcDbScale
 70
     0
300
1:5
140
1.0
141
5.0
290
     0
  0
SCALE
  5
18B
102
{ACAD_REACTORS
330
10C
102
}
330
10C
100
AcDbScale
 70
     0
300
1:8
140
1.0
141
8.0
290
     0
  0
SCALE
  5
18C
102
{ACAD_REACTORS
330
10C
102
}
330
10C
100
AcDbScale
 70
     0
300
1:10
140
1.0
141
10.0
290
     0
  0
SCALE
  5
18D
102
{ACAD_REACTORS
330
10C
102
}
330
10C
100
AcDbScale
 70
     0
300
1:16
140
1.0
141
16.0
290
     0
  0
SCALE
  5
18E
102
{ACAD_REACTORS
330
10C
102
}
330
10C
100
AcDbScale
 70
     0
300
1:20
140
1.0
141
20.0
290
     0
  0
SCALE
  5
18F
102
{ACAD_REACTORS
330
10C
102
}
330
10C
100
AcDbScale
 70
     0
300
1:30
140
1.0
141
30.0
290
     0
  0
SCALE
  5
190
102
{ACAD_REACTORS
330
10C
102
}
330
10C
100
AcDbScale
 70
     0
300
1:40
140
1.0
141
40.0
290
     0
  0
SCALE
  5
191
102
{ACAD_REACTORS
330
10C
102
}
330
10C
100
AcDbScale
 70
     0
300
1:50
140
1.0
141
50.0
290
     0
  0
SCALE
  5
192
102
{ACAD_REACTORS
330
10C
102
}
330
10C
100
AcDbScale
 70
     0
300
1:100
140
1.0
141
100.0
290
     0
  0
SCALE
  5
193
102
{ACAD_REACTORS
330
10C
102
}
330
10C
100
AcDbScale
 70
     0
300
2:1
140
2.0
141
1.0
290
     0
  0
SCALE
  5
194
102
{ACAD_REACTORS
330
10C
102
}
330
10C
100
AcDbScale
 70
     0
300
4:1
140
4.0
141
1.0
290
     0
  0
SCALE
  5
195
102
{ACAD_REACTORS
330
10C
102
}
330
10C
100
AcDbScale
 70
     0
300
8:1
140
8.0
141
1.0
290
     0
  0
SCALE
  5
196
102
{ACAD_REACTORS
330
10C
102
}
330
10C
100
AcDbScale
 70
     0
300
10:1
140
10.0
141
1.0
290
     0
  0
SCALE
  5
197
102
{ACAD_REACTORS
330
10C
102
}
330
10C
100
AcDbScale
 70
     0
300
100:1
140
100.0
141
1.0
290
     0
  0
SCALE
  5
198
102
{ACAD_REACTORS
330
10C
102
}
330
10C
100
AcDbScale
 70
     0
300
1/128" = 1'-0"
140
0.0078125
141
12.0
290
     0
  0
SCALE
  5
199
102
{ACAD_REACTORS
330
10C
102
}
330
10C
100
AcDbScale
 70
     0
300
1/64" = 1'-0"
140
0.015625
141
12.0
290
     0
  0
SCALE
  5
19A
102
{ACAD_REACTORS
330
10C
102
}
330
10C
100
AcDbScale
 70
     0
300
1/32" = 1'-0"
140
0.03125
141
12.0
290
     0
  0
SCALE
  5
19B
102
{ACAD_REACTORS
330
10C
102
}
330
10C
100
AcDbScale
 70
     0
300
1/16" = 1'-0"
140
0.0625
141
12.0
290
     0
  0
SCALE
  5
19C
102
{ACAD_REACTORS
330
10C
102
}
330
10C
100
AcDbScale
 70
     0
300
3/32" = 1'-0"
140
0.09375
141
12.0
290
     0
  0
SCALE
  5
19D
102
{ACAD_REACTORS
330
10C
102
}
330
10C
100
AcDbScale
 70
     0
300
1/8" = 1'-0"
140
0.125
141
12.0
290
     0
  0
SCALE
  5
19E
102
{ACAD_REACTORS
330
10C
102
}
330
10C
100
AcDbScale
 70
     0
300
3/16" = 1'-0"
140
0.1875
141
12.0
290
     0
  0
SCALE
  5
19F
102
{ACAD_REACTORS
330
10C
102
}
330
10C
100
AcDbScale
 70
     0
300
1/4" = 1'-0"
140
0.25
141
12.0
290
     0
  0
SCALE
  5
1A0
102
{ACAD_REACTORS
330
10C
102
}
330
10C
100
AcDbScale
 70
     0
300
3/8" = 1'-0"
140
0.375
141
12.0
290
     0
  0
SCALE
  5
1A1
102
{ACAD_REACTORS
330
10C
102
}
330
10C
100
AcDbScale
 70
     0
300
1/2" = 1'-0"
140
0.5
141
12.0
290
     0
  0
SCALE
  5
1A2
102
{ACAD_REACTORS
330
10C
102
}
330
10C
100
AcDbScale
 70
     0
300
3/4" = 1'-0"
140
0.75
141
12.0
290
     0
  0
SCALE
  5
1A3
102
{ACAD_REACTORS
330
10C
102
}
330
10C
100
AcDbScale
 70
     0
300
1" = 1'-0"
140
1.0
141
12.0
290
     0
  0
SCALE
  5
1A4
102
{ACAD_REACTORS
330
10C
102
}
330
10C
100
AcDbScale
 70
     0
300
1-1/2" = 1'-0"
140
1.5
141
12.0
290
     0
  0
SCALE
  5
1A5
102
{ACAD_REACTORS
330
10C
102
}
330
10C
100
AcDbScale
 70
     0
300
3" = 1'-0"
140
3.0
141
12.0
290
     0
  0
SCALE
  5
1A6
102
{ACAD_REACTORS
330
10C
102
}
330
10C
100
AcDbScale
 70
     0
300
6" = 1'-0"
140
6.0
141
12.0
290
     0
  0
SCALE
  5
1A7
102
{ACAD_REACTORS
330
10C
102
}
330
10C
100
AcDbScale
 70
     0
300
1'-0" = 1'-0"
140
12.0
141
12.0
290
     0
  0
TABLESTYLE
  5
7F
102
{ACAD_XDICTIONARY
360
162
102
}
102
{ACAD_REACTORS
330
7E
102
}
330
7E
100
AcDbTableStyle
  3
Standard
 70
     0
 71
     0
 40
1.5
 41
1.5
280
     0
281
     0
  7
Standard
140
4.5
170
     2
 62
     0
 63
     7
283
     0
274
    -2
284
     1
 64
     0
275
    -2
285
     1
 65
     0
276
    -2
286
     1
 66
     0
277
    -2
287
     1
 67
     0
278
    -2
288
     1
 68
     0
279
    -2
289
     1
 69
     0
  7
Standard
140
6.0
170
     5
 62
     0
 63
     7
283
     0
274
    -2
284
     1
 64
     0
275
    -2
285
     1
 65
     0
276
    -2
286
     1
 66
     0
277
    -2
287
     1
 67
     0
278
    -2
288
     1
 68
     0
279
    -2
289
     1
 69
     0
  7
Standard
140
4.5
170
     5
 62
     0
 63
     7
283
     0
274
    -2
284
     1
 64
     0
275
    -2
285
     1
 65
     0
276
    -2
286
     1
 66
     0
277
    -2
287
     1
 67
     0
278
    -2
288
     1
 68
     0
279
    -2
289
     1
 69
     0
  0
VISUALSTYLE
  5
F5
102
{ACAD_REACTORS
330
EF
102
}
330
EF
100
AcDbVisualStyle
  2
2dWireframe
 70
     4
 71
     0
 72
     2
 73
     1
 90
        0
 40
-0.6
 41
-30.0
 62
     5
 63
     7
 74
     1
 91
        4
 64
     7
 65
   257
 75
     1
175
     1
 42
1.0
 92
        0
 66
   257
 43
1.0
 76
     1
 77
     6
 78
     2
 67
     7
 79
     5
170
     0
171
     0
290
     0
174
     0
 93
        1
 44
0.0
173
     0
291
     0
 45
0.0
1001
ACAD
1000
AcDbSavedByObjectVersion
1070
     0
  0
VISUALSTYLE
  5
F7
102
{ACAD_REACTORS
330
EF
102
}
330
EF
100
AcDbVisualStyle
  2
3D Hidden
 70
     6
 71
     1
 72
     2
 73
     2
 90
        0
 40
-0.6
 41
-30.0
 62
     5
 63
     7
 74
     2
 91
        2
 64
     7
 65
   257
 75
     2
175
     1
 42
40.0
 92
        0
 66
   257
 43
1.0
 76
     1
 77
     6
 78
     2
 67
     7
 79
     3
170
     0
171
     0
290
     0
174
     0
 93
        1
 44
0.0
173
     0
291
     0
 45
0.0
1001
ACAD
1000
AcDbSavedByObjectVersion
1070
     0
  0
VISUALSTYLE
  5
F6
102
{ACAD_REACTORS
330
EF
102
}
330
EF
100
AcDbVisualStyle
  2
3dWireframe
 70
     5
 71
     0
 72
     2
 73
     1
 90
        0
 40
-0.6
 41
-30.0
 62
     5
 63
     7
 74
     1
 91
        4
 64
     7
 65
   257
 75
     1
175
     1
 42
1.0
 92
        0
 66
   257
 43
1.0
 76
     1
 77
     6
 78
     2
 67
     7
 79
     5
170
     0
171
     0
290
     0
174
     0
 93
        1
 44
0.0
173
     0
291
     0
 45
0.0
1001
ACAD
1000
AcDbSavedByObjectVersion
1070
     0
  0
VISUALSTYLE
  5
F4
102
{ACAD_REACTORS
330
EF
102
}
330
EF
100
AcDbVisualStyle
  2
Basic
 70
     7
 71
     1
 72
     0
 73
     1
 90
        0
 40
-0.6
 41
-30.0
 62
     5
 63
     7
 74
     0
 91
        4
 64
     7
 65
   257
 75
     1
175
     1
 42
1.0
 92
        8
 66
     7
 43
1.0
 76
     1
 77
     6
 78
     2
 67
     7
 79
     5
170
     0
171
     0
290
     0
174
     0
 93
        1
 44
0.0
173
     0
291
     1
 45
0.0
1001
ACAD
1000
AcDbSavedByObjectVersion
1070
     0
  0
VISUALSTYLE
  5
FB
102
{ACAD_REACTORS
330
EF
102
}
330
EF
100
AcDbVisualStyle
  2
Brighten
 70
    12
 71
     2
 72
     2
 73
     1
 90
        0
 40
-0.6
 41
-30.0
 62
     5
 63
     7
 74
     1
 91
        4
 64
     7
 65
   257
 75
     1
175
     1
 42
1.0
 92
        8
 66
     7
 43
1.0
 76
     1
 77
     6
 78
     2
 67
     7
 79
     5
170
     0
171
     0
290
     0
174
     0
 93
        1
 44
50.0
173
     0
291
     1
 45
0.0
1001
ACAD
1000
AcDbSavedByObjectVersion
1070
     0
  0
VISUALSTYLE
  5
FF
102
{ACAD_REACTORS
330
EF
102
}
330
EF
100
AcDbVisualStyle
  2
ColorChange
 70
    16
 71
     2
 72
     2
 73
     3
 90
        0
 40
-0.6
 41
-30.0
 62
     5
 63
     8
 74
     1
 91
        4
 64
     7
 65
   257
 75
     1
175
     1
 42
1.0
 92
        8
 66
     8
 43
1.0
 76
     1
 77
     6
 78
     2
 67
     7
 79
     5
170
     0
171
     0
290
     0
174
     0
 93
        1
 44
0.0
173
     0
291
     1
 45
0.0
1001
ACAD
1000
AcDbSavedByObjectVersion
1070
     0
  0
VISUALSTYLE
  5
F8
102
{ACAD_REACTORS
330
EF
102
}
330
EF
100
AcDbVisualStyle
  2
Conceptual
 70
     9
 71
     3
 72
     2
 73
     1
 90
        0
 40
-0.6
 41
-30.0
 62
     5
 63
     7
 74
     2
 91
        2
 64
     7
 65
   257
 75
     1
175
     1
 42
40.0
 92
        8
 66
     7
 43
1.0
 76
     1
 77
     6
 78
     2
 67
     7
 79
     3
170
     0
171
     0
290
     0
174
     0
 93
        1
 44
0.0
173
     0
291
     0
 45
0.0
1001
ACAD
1000
AcDbSavedByObjectVersion
1070
     0
  0
VISUALSTYLE
  5
FA
102
{ACAD_REACTORS
330
EF
102
}
330
EF
100
AcDbVisualStyle
  2
Dim
 70
    11
 71
     2
 72
     2
 73
     1
 90
        0
 40
-0.6
 41
-30.0
 62
     5
 63
     7
 74
     1
 91
        4
 64
     7
 65
   257
 75
     1
175
     1
 42
1.0
 92
        8
 66
     7
 43
1.0
 76
     1
 77
     6
 78
     2
 67
     7
 79
     5
170
     0
171
     0
290
     0
174
     0
 93
        1
 44
-50.0
173
     0
291
     1
 45
0.0
1001
ACAD
1000
AcDbSavedByObjectVersion
1070
     0
  0
VISUALSTYLE
  5
FE
102
{ACAD_REACTORS
330
EF
102
}
330
EF
100
AcDbVisualStyle
  2
Facepattern
 70
    15
 71
     2
 72
     2
 73
     1
 90
        0
 40
-0.6
 41
-30.0
 62
     5
 63
     7
 74
     1
 91
        4
 64
     7
 65
   257
 75
     1
175
     1
 42
1.0
 92
        8
 66
     7
 43
1.0
 76
     1
 77
     6
 78
     2
 67
     7
 79
     5
170
     0
171
     0
290
     0
174
     0
 93
        1
 44
0.0
173
     0
291
     1
 45
0.0
1001
ACAD
1000
AcDbSavedByObjectVersion
1070
     0
  0
VISUALSTYLE
  5
F0
102
{ACAD_REACTORS
330
EF
102
}
330
EF
100
AcDbVisualStyle
  2
Flat
 70
     0
 71
     2
 72
     1
 73
     1
 90
        2
 40
-0.6
 41
30.0
 62
     5
 63
     7
 74
     0
 91
        4
 64
     7
 65
   257
 75
     1
175
     1
 42
1.0
 92
        8
 66
     7
 43
1.0
 76
     1
 77
     6
 78
     2
 67
     7
 79
     5
170
     0
171
     0
290
     0
174
     0
 93
        1
 44
0.0
173
     0
291
     1
 45
0.0
1001
ACAD
1000
AcDbSavedByObjectVersion
1070
     0
  0
VISUALSTYLE
  5
F1
102
{ACAD_REACTORS
330
EF
102
}
330
EF
100
AcDbVisualStyle
  2
FlatWithEdges
 70
     1
 71
     2
 72
     1
 73
     1
 90
        2
 40
-0.6
 41
30.0
 62
     5
 63
     7
 74
     1
 91
        4
 64
     7
 65
   257
 75
     1
175
     1
 42
1.0
 92
        0
 66
   257
 43
1.0
 76
     1
 77
     6
 78
     2
 67
     7
 79
     5
170
     0
171
     0
290
     0
174
     0
 93
        1
 44
0.0
173
     0
291
     1
 45
0.0
1001
ACAD
1000
AcDbSavedByObjectVersion
1070
     0
  0
VISUALSTYLE
  5
F2
102
{ACAD_REACTORS
330
EF
102
}
330
EF
100
AcDbVisualStyle
  2
Gouraud
 70
     2
 71
     2
 72
     2
 73
     1
 90
        2
 40
-0.6
 41
30.0
 62
     5
 63
     7
 74
     0
 91
        4
 64
     7
 65
   257
 75
     1
175
     1
 42
1.0
 92
        0
 66
     7
 43
1.0
 76
     1
 77
     6
 78
     2
 67
     7
 79
     5
170
     0
171
     0
290
     0
174
     0
 93
        1
 44
0.0
173
     0
291
     1
 45
0.0
1001
ACAD
1000
AcDbSavedByObjectVersion
1070
     0
  0
VISUALSTYLE
  5
F3
102
{ACAD_REACTORS
330
EF
102
}
330
EF
100
AcDbVisualStyle
  2
GouraudWithEdges
 70
     3
 71
     2
 72
     2
 73
     1
 90
        2
 40
-0.6
 41
30.0
 62
     5
 63
     7
 74
     1
 91
        4
 64
     7
 65
   257
 75
     1
175
     1
 42
1.0
 92
        0
 66
   257
 43
1.0
 76
     1
 77
     6
 78
     2
 67
     7
 79
     5
170
     0
171
     0
290
     0
174
     0
 93
        1
 44
0.0
173
     0
291
     1
 45
0.0
1001
ACAD
1000
AcDbSavedByObjectVersion
1070
     0
  0
VISUALSTYLE
  5
FD
102
{ACAD_REACTORS
330
EF
102
}
330
EF
100
AcDbVisualStyle
  2
Linepattern
 70
    14
 71
     2
 72
     2
 73
     1
 90
        0
 40
-0.6
 41
-30.0
 62
     5
 63
     7
 74
     1
 91
        4
 64
     7
 65
   257
 75
     7
175
     7
 42
1.0
 92
        8
 66
     7
 43
1.0
 76
     1
 77
     6
 78
     2
 67
     7
 79
     5
170
     0
171
     0
290
     0
174
     0
 93
        1
 44
0.0
173
     0
291
     1
 45
0.0
1001
ACAD
1000
AcDbSavedByObjectVersion
1070
     0
  0
VISUALSTYLE
  5
F9
102
{ACAD_REACTORS
330
EF
102
}
330
EF
100
AcDbVisualStyle
  2
Realistic
 70
     8
 71
     2
 72
     2
 73
     1
 90
        0
 40
-0.6
 41
-30.0
 62
     5
 63
     7
 74
     1
 91
        0
 64
     7
 65
   257
 75
     1
175
     1
 42
1.0
 92
        8
 66
     8
 43
1.0
 76
     1
 77
     6
 78
     2
 67
     7
 79
     5
170
     0
171
     0
290
     0
174
     0
 93
       13
 44
0.0
173
     0
291
     0
 45
0.0
1001
ACAD
1000
AcDbSavedByObjectVersion
1070
     0
  0
VISUALSTYLE
  5
FC
102
{ACAD_REACTORS
330
EF
102
}
330
EF
100
AcDbVisualStyle
  2
Thicken
 70
    13
 71
     2
 72
     2
 73
     1
 90
        0
 40
-0.6
 41
-30.0
 62
     5
 63
     7
 74
     1
 91
        4
 64
     7
 65
   257
 75
     1
175
     1
 42
1.0
 92
       12
 66
     7
 43
1.0
 76
     1
 77
     6
 78
     2
 67
     7
 79
     5
170
     0
171
     0
290
     0
174
     0
 93
        1
 44
0.0
173
     0
291
     1
 45
0.0
1001
ACAD
1000
AcDbSavedByObjectVersion
1070
     0
  0
DICTIONARYVAR
  5
146
102
{ACAD_REACTORS
330
5E
102
}
330
5E
100
DictionaryVariables
280
     0
  1
1:1
  0
DICTIONARYVAR
  5
145
102
{ACAD_REACTORS
330
5E
102
}
330
5E
100
DictionaryVariables
280
     0
  1
STANDARD
  0
DICTIONARYVAR
  5
84
102
{ACAD_REACTORS
330
5E
102
}
330
5E
100
DictionaryVariables
280
     0
  1
STANDARD
  0
DICTIONARYVAR
  5
5F
102
{ACAD_REACTORS
330
5E
102
}
330
5E
100
DictionaryVariables
280
     0
  1
2
  0
DICTIONARYVAR
  5
63
102
{ACAD_REACTORS
330
5E
102
}
330
5E
100
DictionaryVariables
280
     0
  1
1
  0
DICTIONARYVAR
  5
4A6
102
{ACAD_REACTORS
330
5E
102
}
330
5E
100
DictionaryVariables
280
     0
  1
0
  0
DICTIONARYVAR
  5
4A4
102
{ACAD_REACTORS
330
5E
102
}
330
5E
100
DictionaryVariables
280
     0
  1
2
  0
DICTIONARYVAR
  5
4A3
102
{ACAD_REACTORS
330
5E
102
}
330
5E
100
DictionaryVariables
280
     0
  1
1
  0
DICTIONARYVAR
  5
4A8
102
{ACAD_REACTORS
330
5E
102
}
330
5E
100
DictionaryVariables
280
     0
  1
80.000000
  0
DICTIONARYVAR
  5
4A7
102
{ACAD_REACTORS
330
5E
102
}
330
5E
100
DictionaryVariables
280
     0
  1
5.000000
  0
DICTIONARYVAR
  5
4A5
102
{ACAD_REACTORS
330
5E
102
}
330
5E
100
DictionaryVariables
280
     0
  1
127
  0
DICTIONARY
  5
4AE
330
D3
100
AcDbDictionary
280
     1
281
     1
  3
ACAD_XREC_ROUNDTRIP
360
4AF
  0
DICTIONARY
  5
4B0
330
D7
100
AcDbDictionary
280
     1
281
     1
  3
ACAD_XREC_ROUNDTRIP
360
4B1
  0
DICTIONARY
  5
4AB
330
22
100
AcDbDictionary
280
     1
281
     1
  3
ACAD_XREC_ROUNDTRIP
360
4AC
  0
DICTIONARY
  5
4B4
330
ED
100
AcDbDictionary
280
     1
281
     1
  3
ACAD_XREC_ROUNDTRIP
360
4B5
  0
DICTIONARY
  5
4B2
330
EC
100
AcDbDictionary
280
     1
281
     1
  3
ACAD_XREC_ROUNDTRIP
360
4B3
  0
DICTIONARY
  5
173
330
EE
100
AcDbDictionary
280
     1
281
     1
  3
ACAD_XREC_ROUNDTRIP
360
4B6
  3
BUMPTILE
360
175
  3
DIFFUSETILE
360
174
  3
OPACITYTILE
360
176
  3
REFLECTIONTILE
360
177
  0
DICTIONARY
  5
162
330
7F
100
AcDbDictionary
280
     1
281
     1
  3
ACAD_ROUNDTRIP_2008_TABLESTYLE_CELLSTYLEMAP
360
4A9
  3
ACAD_XREC_ROUNDTRIP
360
4AD
  0
XRECORD
  5
4AF
102
{ACAD_REACTORS
330
4AE
102
}
330
4AE
100
AcDbXrecord
280
     1
102
SHADEPLOT
 70
     0
102
SHADEPLOTRESLEVEL
 70
     2
102
SHADEPLOTCUSTOMDPI
 70
   300
  0
XRECORD
  5
4B1
102
{ACAD_REACTORS
330
4B0
102
}
330
4B0
100
AcDbXrecord
280
     1
102
SHADEPLOT
 70
     0
102
SHADEPLOTRESLEVEL
 70
     2
102
SHADEPLOTCUSTOMDPI
 70
   300
  0
XRECORD
  5
4AC
102
{ACAD_REACTORS
330
4AB
102
}
330
4AB
100
AcDbXrecord
280
     1
102
SHADEPLOT
 70
     0
102
SHADEPLOTRESLEVEL
 70
     2
102
SHADEPLOTCUSTOMDPI
 70
   300
  0
XRECORD
  5
4B5
102
{ACAD_REACTORS
330
4B4
102
}
330
4B4
100
AcDbXrecord
280
     1
102
MATERIAL
148
0.0
149
0.0
149
0.0
 93
        0
 94
       63
282
     0
 72
     1
 77
     1
171
     1
175
     1
179
     1
273
     0
  0
XRECORD
  5
4B3
102
{ACAD_REACTORS
330
4B2
102
}
330
4B2
100
AcDbXrecord
280
     1
102
MATERIAL
148
0.0
149
0.0
149
0.0
 93
        0
 94
       63
282
     0
 72
     1
 77
     1
171
     1
175
     1
179
     1
273
     0
  0
XRECORD
  5
4B6
102
{ACAD_REACTORS
330
173
102
}
330
173
100
AcDbXrecord
280
     1
102
MATERIAL
148
0.0
149
0.0
149
0.0
 93
        0
 94
       63
282
     0
 72
     1
 77
     1
171
     1
175
     1
179
     1
273
     0
  0
XRECORD
  5
175
102
{ACAD_REACTORS
330
173
102
}
330
173
100
AcDbXrecord
280
     1
270
     1
271
     1
  0
XRECORD
  5
174
102
{ACAD_REACTORS
330
173
102
}
330
173
100
AcDbXrecord
280
     1
270
     1
271
     1
  0
XRECORD
  5
176
102
{ACAD_REACTORS
330
173
102
}
330
173
100
AcDbXrecord
280
     1
270
     1
271
     1
  0
XRECORD
  5
177
102
{ACAD_REACTORS
330
173
102
}
330
173
100
AcDbXrecord
280
     1
270
     1
271
     1
  0
CELLSTYLEMAP
  5
4A9
102
{ACAD_REACTORS
330
162
102
}
330
162
100
AcDbCellStyleMap
 90
        3
300
CELLSTYLE
  1
TABLEFORMAT_BEGIN
 90
        5
170
     1
 91
        0
 92
    32768
 62
   257
 93
        1
300
CONTENTFORMAT
  1
CONTENTFORMAT_BEGIN
 90
        0
 91
        0
 92
      512
 93
        0
300

 40
0.0
140
1.0
 94
        5
 62
     0
340
11
144
6.0
309
CONTENTFORMAT_END
171
     1
301
MARGIN
  1
CELLMARGIN_BEGIN
 40
1.5
 40
1.5
 40
1.5
 40
1.5
 40
4.5
 40
4.5
309
CELLMARGIN_END
 94
        6
 95
        1
302
GRIDFORMAT
  1
GRIDFORMAT_BEGIN
 90
        0
 91
        1
 62
     0
 92
       -2
340
14
 93
        0
 40
1.125
309
GRIDFORMAT_END
 95
        2
302
GRIDFORMAT
  1
GRIDFORMAT_BEGIN
 90
        0
 91
        1
 62
     0
 92
       -2
340
14
 93
        0
 40
1.125
309
GRIDFORMAT_END
 95
        4
302
GRIDFORMAT
  1
GRIDFORMAT_BEGIN
 90
        0
 91
        1
 62
     0
 92
       -2
340
14
 93
        0
 40
1.125
309
GRIDFORMAT_END
 95
        8
302
GRIDFORMAT
  1
GRIDFORMAT_BEGIN
 90
        0
 91
        1
 62
     0
 92
       -2
340
14
 93
        0
 40
1.125
309
GRIDFORMAT_END
 95
       16
302
GRIDFORMAT
  1
GRIDFORMAT_BEGIN
 90
        0
 91
        1
 62
     0
 92
       -2
340
14
 93
        0
 40
1.125
309
GRIDFORMAT_END
 95
       32
302
GRIDFORMAT
  1
GRIDFORMAT_BEGIN
 90
        0
 91
        1
 62
     0
 92
       -2
340
14
 93
        0
 40
1.125
309
GRIDFORMAT_END
309
TABLEFORMAT_END
  1
CELLSTYLE_BEGIN
 90
        1
 91
        1
300
_TITLE
309
CELLSTYLE_END
300
CELLSTYLE
  1
TABLEFORMAT_BEGIN
 90
        5
170
     1
 91
        0
 92
        0
 62
   257
 93
        1
300
CONTENTFORMAT
  1
CONTENTFORMAT_BEGIN
 90
        0
 91
        0
 92
      512
 93
        0
300

 40
0.0
140
1.0
 94
        5
 62
     0
340
11
144
4.5
309
CONTENTFORMAT_END
171
     1
301
MARGIN
  1
CELLMARGIN_BEGIN
 40
1.5
 40
1.5
 40
1.5
 40
1.5
 40
4.5
 40
4.5
309
CELLMARGIN_END
 94
        6
 95
        1
302
GRIDFORMAT
  1
GRIDFORMAT_BEGIN
 90
        0
 91
        1
 62
     0
 92
       -2
340
14
 93
        0
 40
1.125
309
GRIDFORMAT_END
 95
        2
302
GRIDFORMAT
  1
GRIDFORMAT_BEGIN
 90
        0
 91
        1
 62
     0
 92
       -2
340
14
 93
        0
 40
1.125
309
GRIDFORMAT_END
 95
        4
302
GRIDFORMAT
  1
GRIDFORMAT_BEGIN
 90
        0
 91
        1
 62
     0
 92
       -2
340
14
 93
        0
 40
1.125
309
GRIDFORMAT_END
 95
        8
302
GRIDFORMAT
  1
GRIDFORMAT_BEGIN
 90
        0
 91
        1
 62
     0
 92
       -2
340
14
 93
        0
 40
1.125
309
GRIDFORMAT_END
 95
       16
302
GRIDFORMAT
  1
GRIDFORMAT_BEGIN
 90
        0
 91
        1
 62
     0
 92
       -2
340
14
 93
        0
 40
1.125
309
GRIDFORMAT_END
 95
       32
302
GRIDFORMAT
  1
GRIDFORMAT_BEGIN
 90
        0
 91
        1
 62
     0
 92
       -2
340
14
 93
        0
 40
1.125
309
GRIDFORMAT_END
309
TABLEFORMAT_END
  1
CELLSTYLE_BEGIN
 90
        2
 91
        1
300
_HEADER
309
CELLSTYLE_END
300
CELLSTYLE
  1
TABLEFORMAT_BEGIN
 90
        5
170
     1
 91
        0
 92
        0
 62
   257
 93
        1
300
CONTENTFORMAT
  1
CONTENTFORMAT_BEGIN
 90
        0
 91
        0
 92
      512
 93
        0
300

 40
0.0
140
1.0
 94
        2
 62
     0
340
11
144
4.5
309
CONTENTFORMAT_END
171
     1
301
MARGIN
  1
CELLMARGIN_BEGIN
 40
1.5
 40
1.5
 40
1.5
 40
1.5
 40
4.5
 40
4.5
309
CELLMARGIN_END
 94
        6
 95
        1
302
GRIDFORMAT
  1
GRIDFORMAT_BEGIN
 90
        0
 91
        1
 62
     0
 92
       -2
340
14
 93
        0
 40
1.125
309
GRIDFORMAT_END
 95
        2
302
GRIDFORMAT
  1
GRIDFORMAT_BEGIN
 90
        0
 91
        1
 62
     0
 92
       -2
340
14
 93
        0
 40
1.125
309
GRIDFORMAT_END
 95
        4
302
GRIDFORMAT
  1
GRIDFORMAT_BEGIN
 90
        0
 91
        1
 62
     0
 92
       -2
340
14
 93
        0
 40
1.125
309
GRIDFORMAT_END
 95
        8
302
GRIDFORMAT
  1
GRIDFORMAT_BEGIN
 90
        0
 91
        1
 62
     0
 92
       -2
340
14
 93
        0
 40
1.125
309
GRIDFORMAT_END
 95
       16
302
GRIDFORMAT
  1
GRIDFORMAT_BEGIN
 90
        0
 91
        1
 62
     0
 92
       -2
340
14
 93
        0
 40
1.125
309
GRIDFORMAT_END
 95
       32
302
GRIDFORMAT
  1
GRIDFORMAT_BEGIN
 90
        0
 91
        1
 62
     0
 92
       -2
340
14
 93
        0
 40
1.125
309
GRIDFORMAT_END
309
TABLEFORMAT_END
  1
CELLSTYLE_BEGIN
 90
        3
 91
        2
300
_DATA
309
CELLSTYLE_END
  0
XRECORD
  5
4AD
102
{ACAD_REACTORS
330
162
102
}
330
162
100
AcDbXrecord
280
     1
102
ACAD_ROUNDTRIP_PRE2007_TABLESTYLE
 90
      512
 91
        0
  1

 92
      512
 93
        0
  2

 94
      512
 95
        0
  3

  0
ENDSEC
  0
EOF
