  0
SECTION
  2
HEADER
  9
$ACADVER
  1
AC1015
  9
$ACADMAINTVER
 70
    20
  9
$DWGCODEPAGE
  3
ANSI_1254
  9
$INSBASE
 10
0.0
 20
0.0
 30
0.0
  9
$EXTMIN
 10
1431.864047559242
 20
1267.496748786228
 30
0.0
  9
$EXTMAX
 10
1779.212243098912
 20
1354.446199960243
 30
0.0
  9
$LIMMIN
 10
0.0
 20
0.0
  9
$LIMMAX
 10
420.0
 20
297.0
  9
$ORTHOMODE
 70
     1
  9
$REGENMODE
 70
     1
  9
$FILLMODE
 70
     1
  9
$QTEXTMODE
 70
     0
  9
$MIRRTEXT
 70
     0
  9
$LTSCALE
 40
1.0
  9
$ATTMODE
 70
     1
  9
$TEXTSIZE
 40
2.5
  9
$TRACEWID
 40
1.0
  9
$TEXTSTYLE
  7
Standard
  9
$CLAYER
  8
0
  9
$CELTYPE
  6
ByLayer
  9
$CECOLOR
 62
   256
  9
$CELTSCALE
 40
1.0
  9
$DISPSILH
 70
     0
  9
$DIMSCALE
 40
1.0
  9
$DIMASZ
 40
2.5
  9
$DIMEXO
 40
0.625
  9
$DIMDLI
 40
3.75
  9
$DIMRND
 40
0.0
  9
$DIMDLE
 40
0.0
  9
$DIMEXE
 40
1.25
  9
$DIMTP
 40
0.0
  9
$DIMTM
 40
0.0
  9
$DIMTXT
 40
2.5
  9
$DIMCEN
 40
2.5
  9
$DIMTSZ
 40
0.0
  9
$DIMTOL
 70
     0
  9
$DIMLIM
 70
     0
  9
$DIMTIH
 70
     0
  9
$DIMTOH
 70
     0
  9
$DIMSE1
 70
     0
  9
$DIMSE2
 70
     0
  9
$DIMTAD
 70
     1
  9
$DIMZIN
 70
     8
  9
$DIMBLK
  1

  9
$DIMASO
 70
     1
  9
$DIMSHO
 70
     1
  9
$DIMPOST
  1

  9
$DIMAPOST
  1

  9
$DIMALT
 70
     0
  9
$DIMALTD
 70
     3
  9
$DIMALTF
 40
0.03937007874016
  9
$DIMLFAC
 40
1.0
  9
$DIMTOFL
 70
     1
  9
$DIMTVP
 40
0.0
  9
$DIMTIX
 70
     0
  9
$DIMSOXD
 70
     0
  9
$DIMSAH
 70
     0
  9
$DIMBLK1
  1

  9
$DIMBLK2
  1

  9
$DIMSTYLE
  2
ISO-25
  9
$DIMCLRD
 70
     0
  9
$DIMCLRE
 70
     0
  9
$DIMCLRT
 70
     0
  9
$DIMTFAC
 40
1.0
  9
$DIMGAP
 40
0.625
  9
$DIMJUST
 70
     0
  9
$DIMSD1
 70
     0
  9
$DIMSD2
 70
     0
  9
$DIMTOLJ
 70
     0
  9
$DIMTZIN
 70
     8
  9
$DIMALTZ
 70
     0
  9
$DIMALTTZ
 70
     0
  9
$DIMUPT
 70
     0
  9
$DIMDEC
 70
     2
  9
$DIMTDEC
 70
     2
  9
$DIMALTU
 70
     2
  9
$DIMALTTD
 70
     3
  9
$DIMTXSTY
  7
Standard
  9
$DIMAUNIT
 70
     0
  9
$DIMADEC
 70
     0
  9
$DIMALTRND
 40
0.0
  9
$DIMAZIN
 70
     0
  9
$DIMDSEP
 70
    44
  9
$DIMATFIT
 70
     3
  9
$DIMFRAC
 70
     0
  9
$DIMLDRBLK
  1

  9
$DIMLUNIT
 70
     2
  9
$DIMLWD
 70
    -2
  9
$DIMLWE
 70
    -2
  9
$DIMTMOVE
 70
     0
  9
$LUNITS
 70
     2
  9
$LUPREC
 70
     4
  9
$SKETCHINC
 40
1.0
  9
$FILLETRAD
 40
0.0
  9
$AUNITS
 70
     0
  9
$AUPREC
 70
     0
  9
$MENU
  1
.
  9
$ELEVATION
 40
0.0
  9
$PELEVATION
 40
0.0
  9
$THICKNESS
 40
0.0
  9
$LIMCHECK
 70
     0
  9
$CHAMFERA
 40
0.0
  9
$CHAMFERB
 40
0.0
  9
$CHAMFERC
 40
0.0
  9
$CHAMFERD
 40
0.0
  9
$SKPOLY
 70
     0
  9
$TDCREATE
 40
2458492.448452997
  9
$TDUCREATE
 40
2458492.323452997
  9
$TDUPDATE
 40
2458983.561289502
  9
$TDUUPDATE
 40
2458983.436289503
  9
$TDINDWG
 40
0.0005973264
  9
$TDUSRTIMER
 40
0.0005973264
  9
$USRTIMER
 70
     1
  9
$ANGBASE
 50
0.0
  9
$ANGDIR
 70
     0
  9
$PDMODE
 70
     0
  9
$PDSIZE
 40
0.0
  9
$PLINEWID
 40
0.0
  9
$SPLFRAME
 70
     0
  9
$SPLINETYPE
 70
     6
  9
$SPLINESEGS
 70
     8
  9
$HANDSEED
  5
CC8
  9
$SURFTAB1
 70
     6
  9
$SURFTAB2
 70
     6
  9
$SURFTYPE
 70
     6
  9
$SURFU
 70
     6
  9
$SURFV
 70
     6
  9
$UCSBASE
  2

  9
$UCSNAME
  2

  9
$UCSORG
 10
0.0
 20
0.0
 30
0.0
  9
$UCSXDIR
 10
1.0
 20
0.0
 30
0.0
  9
$UCSYDIR
 10
0.0
 20
1.0
 30
0.0
  9
$UCSORTHOREF
  2

  9
$UCSORTHOVIEW
 70
     0
  9
$UCSORGTOP
 10
0.0
 20
0.0
 30
0.0
  9
$UCSORGBOTTOM
 10
0.0
 20
0.0
 30
0.0
  9
$UCSORGLEFT
 10
0.0
 20
0.0
 30
0.0
  9
$UCSORGRIGHT
 10
0.0
 20
0.0
 30
0.0
  9
$UCSORGFRONT
 10
0.0
 20
0.0
 30
0.0
  9
$UCSORGBACK
 10
0.0
 20
0.0
 30
0.0
  9
$PUCSBASE
  2

  9
$PUCSNAME
  2

  9
$PUCSORG
 10
0.0
 20
0.0
 30
0.0
  9
$PUCSXDIR
 10
1.0
 20
0.0
 30
0.0
  9
$PUCSYDIR
 10
0.0
 20
1.0
 30
0.0
  9
$PUCSORTHOREF
  2

  9
$PUCSORTHOVIEW
 70
     0
  9
$PUCSORGTOP
 10
0.0
 20
0.0
 30
0.0
  9
$PUCSORGBOTTOM
 10
0.0
 20
0.0
 30
0.0
  9
$PUCSORGLEFT
 10
0.0
 20
0.0
 30
0.0
  9
$PUCSORGRIGHT
 10
0.0
 20
0.0
 30
0.0
  9
$PUCSORGFRONT
 10
0.0
 20
0.0
 30
0.0
  9
$PUCSORGBACK
 10
0.0
 20
0.0
 30
0.0
  9
$USERI1
 70
     0
  9
$USERI2
 70
     0
  9
$USERI3
 70
     0
  9
$USERI4
 70
     0
  9
$USERI5
 70
     0
  9
$USERR1
 40
0.0
  9
$USERR2
 40
0.0
  9
$USERR3
 40
0.0
  9
$USERR4
 40
0.0
  9
$USERR5
 40
0.0
  9
$WORLDVIEW
 70
     1
  9
$SHADEDGE
 70
     3
  9
$SHADEDIF
 70
    70
  9
$TILEMODE
 70
     1
  9
$MAXACTVP
 70
    64
  9
$PINSBASE
 10
0.0
 20
0.0
 30
0.0
  9
$PLIMCHECK
 70
     0
  9
$PEXTMIN
 10
0.0
 20
0.0
 30
0.0
  9
$PEXTMAX
 10
0.0
 20
0.0
 30
0.0
  9
$PLIMMIN
 10
0.0
 20
0.0
  9
$PLIMMAX
 10
12.0
 20
9.0
  9
$UNITMODE
 70
     0
  9
$VISRETAIN
 70
     1
  9
$PLINEGEN
 70
     0
  9
$PSLTSCALE
 70
     1
  9
$TREEDEPTH
 70
  3020
  9
$CMLSTYLE
  2
Standard
  9
$CMLJUST
 70
     0
  9
$CMLSCALE
 40
20.0
  9
$PROXYGRAPHICS
 70
     1
  9
$MEASUREMENT
 70
     1
  9
$CELWEIGHT
370
    -1
  9
$ENDCAPS
280
     0
  9
$JOINSTYLE
280
     0
  9
$LWDISPLAY
290
     0
  9
$INSUNITS
 70
     4
  9
$HYPERLINKBASE
  1

  9
$STYLESHEET
  1

  9
$XEDIT
290
     1
  9
$CEPSNTYPE
380
     0
  9
$PSTYLEMODE
290
     1
  9
$FINGERPRINTGUID
  2
{764B2AD5-7EEC-4DE8-8B5B-5DB40627E1DF}
  9
$VERSIONGUID
  2
{DCC4F88B-9F7F-46C1-9DED-10050510884C}
  9
$EXTNAMES
290
     1
  9
$PSVPSCALE
 40
0.0
  9
$OLESTARTUP
290
     0
  0
ENDSEC
  0
SECTION
  2
CLASSES
  0
CLASS
  1
ACDBDICTIONARYWDFLT
  2
AcDbDictionaryWithDefault
  3
ObjectDBX Classes
 90
        0
280
     0
281
     0
  0
CLASS
  1
ACDBPLACEHOLDER
  2
AcDbPlaceHolder
  3
ObjectDBX Classes
 90
        0
280
     0
281
     0
  0
CLASS
  1
LAYOUT
  2
AcDbLayout
  3
ObjectDBX Classes
 90
        0
280
     0
281
     0
  0
CLASS
  1
DICTIONARYVAR
  2
AcDbDictionaryVar
  3
ObjectDBX Classes
 90
        0
280
     0
281
     0
  0
CLASS
  1
TABLESTYLE
  2
AcDbTableStyle
  3
ObjectDBX Classes
 90
     4095
280
     0
281
     0
  0
CLASS
  1
MATERIAL
  2
AcDbMaterial
  3
ObjectDBX Classes
 90
     1153
280
     0
281
     0
  0
CLASS
  1
VISUALSTYLE
  2
AcDbVisualStyle
  3
ObjectDBX Classes
 90
     4095
280
     0
281
     0
  0
CLASS
  1
SCALE
  2
AcDbScale
  3
ObjectDBX Classes
 90
     1153
280
     0
281
     0
  0
CLASS
  1
MLEADERSTYLE
  2
AcDbMLeaderStyle
  3
ACDB_MLEADERSTYLE_CLASS
 90
     4095
280
     0
281
     0
  0
CLASS
  1
CELLSTYLEMAP
  2
AcDbCellStyleMap
  3
ObjectDBX Classes
 90
     1152
280
     0
281
     0
  0
CLASS
  1
DIMASSOC
  2
AcDbDimAssoc
  3
"AcDbDimAssoc|Product Desc:     AcDim ARX App For Dimension|Company:          Autodesk, Inc.|WEB Address:      www.autodesk.com"
 90
    32768
280
     0
281
     0
  0
ENDSEC
  0
SECTION
  2
TABLES
  0
TABLE
  2
VPORT
  5
8
330
0
100
AcDbSymbolTable
 70
     1
  0
VPORT
  5
EA
330
8
100
AcDbSymbolTableRecord
100
AcDbViewportTableRecord
  2
*Active
 70
     0
 10
0.0
 20
0.0
 11
1.0
 21
1.0
 12
1560.275703497931
 22
1336.14117940431
 13
0.0
 23
0.0
 14
10.0
 24
10.0
 15
10.0
 25
10.0
 16
0.0
 26
0.0
 36
1.0
 17
0.0
 27
0.0
 37
0.0
 40
323.7507395487739
 41
1.903110047846889
 42
50.0
 43
0.0
 44
0.0
 50
0.0
 51
0.0
 71
     0
 72
  1000
 73
     1
 74
     3
 75
     0
 76
     0
 77
     0
 78
     0
281
     0
 65
     1
110
0.0
120
0.0
130
0.0
111
1.0
121
0.0
131
0.0
112
0.0
122
1.0
132
0.0
 79
     0
146
0.0
  0
ENDTAB
  0
TABLE
  2
LTYPE
  5
5
330
0
100
AcDbSymbolTable
 70
     1
  0
LTYPE
  5
14
330
5
100
AcDbSymbolTableRecord
100
AcDbLinetypeTableRecord
  2
ByBlock
 70
     0
  3

 72
    65
 73
     0
 40
0.0
  0
LTYPE
  5
15
330
5
100
AcDbSymbolTableRecord
100
AcDbLinetypeTableRecord
  2
ByLayer
 70
     0
  3

 72
    65
 73
     0
 40
0.0
  0
LTYPE
  5
16
330
5
100
AcDbSymbolTableRecord
100
AcDbLinetypeTableRecord
  2
Continuous
 70
     0
  3
Solid line
 72
    65
 73
     0
 40
0.0
  0
ENDTAB
  0
TABLE
  2
LAYER
  5
2
330
0
100
AcDbSymbolTable
 70
     2
  0
LAYER
  5
10
102
{ACAD_XDICTIONARY
360
13C
102
}
330
2
100
AcDbSymbolTableRecord
100
AcDbLayerTableRecord
  2
0
 70
     0
 62
     7
  6
Continuous
370
    -3
390
F
  0
LAYER
  5
C96
330
2
100
AcDbSymbolTableRecord
100
AcDbLayerTableRecord
  2
Defpoints
 70
     0
 62
     7
  6
Continuous
290
     0
370
    -3
390
F
  0
ENDTAB
  0
TABLE
  2
STYLE
  5
3
330
0
100
AcDbSymbolTable
 70
     2
  0
STYLE
  5
11
330
3
100
AcDbSymbolTableRecord
100
AcDbTextStyleTableRecord
  2
Standard
 70
     0
 40
0.0
 41
1.0
 50
0.0
 71
     0
 42
2.5
  3
txt
  4

  0
STYLE
  5
132
330
3
100
AcDbSymbolTableRecord
100
AcDbTextStyleTableRecord
  2
Annotative
 70
     0
 40
0.0
 41
1.0
 50
0.0
 71
     0
 42
2.5
  3
txt.shx
  4

1001
AcadAnnotative
1000
AnnotativeData
1002
{
1070
     1
1070
     1
1002
}
  0
ENDTAB
  0
TABLE
  2
VIEW
  5
6
330
0
100
AcDbSymbolTable
 70
     0
  0
ENDTAB
  0
TABLE
  2
UCS
  5
7
330
0
100
AcDbSymbolTable
 70
     0
  0
ENDTAB
  0
TABLE
  2
APPID
  5
9
330
0
100
AcDbSymbolTable
 70
     7
  0
APPID
  5
12
330
9
100
AcDbSymbolTableRecord
100
AcDbRegAppTableRecord
  2
ACAD
 70
     0
  0
APPID
  5
9E
330
9
100
AcDbSymbolTableRecord
100
AcDbRegAppTableRecord
  2
ACAD_PSEXT
 70
     0
  0
APPID
  5
133
330
9
100
AcDbSymbolTableRecord
100
AcDbRegAppTableRecord
  2
AcadAnnoPO
 70
     0
  0
APPID
  5
134
330
9
100
AcDbSymbolTableRecord
100
AcDbRegAppTableRecord
  2
AcadAnnotative
 70
     0
  0
APPID
  5
135
330
9
100
AcDbSymbolTableRecord
100
AcDbRegAppTableRecord
  2
ACAD_DSTYLE_DIMJAG
 70
     0
  0
APPID
  5
136
330
9
100
AcDbSymbolTableRecord
100
AcDbRegAppTableRecord
  2
ACAD_DSTYLE_DIMTALN
 70
     0
  0
APPID
  5
165
330
9
100
AcDbSymbolTableRecord
100
AcDbRegAppTableRecord
  2
ACAD_MLEADERVER
 70
     0
  0
ENDTAB
  0
TABLE
  2
DIMSTYLE
  5
A
330
0
100
AcDbSymbolTable
 70
     2
100
AcDbDimStyleTable
 71
     2
340
27
340
137
  0
DIMSTYLE
105
27
330
A
100
AcDbSymbolTableRecord
100
AcDbDimStyleTableRecord
  2
ISO-25
 70
     0
 41
2.5
 42
0.625
 43
3.75
 44
1.25
 73
     0
 74
     0
 77
     1
 78
     8
140
2.5
141
2.5
143
0.03937007874016
147
0.625
171
     3
172
     1
271
     2
272
     2
274
     3
278
    44
283
     0
284
     8
340
11
  0
DIMSTYLE
105
137
330
A
100
AcDbSymbolTableRecord
100
AcDbDimStyleTableRecord
  2
Annotative
 70
     0
 40
0.0
 41
2.5
 42
0.625
 43
3.75
 44
1.25
 73
     0
 74
     0
 77
     1
 78
     8
140
2.5
141
2.5
143
0.03937007874016
147
0.625
171
     3
172
     1
271
     2
272
     2
274
     3
278
    44
283
     0
284
     8
340
11
1001
AcadAnnotative
1000
AnnotativeData
1002
{
1070
     1
1070
     1
1002
}
1001
ACAD_DSTYLE_DIMJAG
1070
   388
1040
1.5
1001
ACAD_DSTYLE_DIMTALN
1070
   392
1070
     0
  0
ENDTAB
  0
TABLE
  2
BLOCK_RECORD
  5
1
330
0
100
AcDbSymbolTable
 70
     6
  0
BLOCK_RECORD
  5
1F
330
1
100
AcDbSymbolTableRecord
100
AcDbBlockTableRecord
  2
*Model_Space
340
22
  0
BLOCK_RECORD
  5
D2
330
1
100
AcDbSymbolTableRecord
100
AcDbBlockTableRecord
  2
*Paper_Space
340
D3
  0
BLOCK_RECORD
  5
D6
330
1
100
AcDbSymbolTableRecord
100
AcDbBlockTableRecord
  2
*Paper_Space0
340
D7
  0
BLOCK_RECORD
  5
8E9
330
1
100
AcDbSymbolTableRecord
100
AcDbBlockTableRecord
  2
1
340
0
310
2800000020000000200000000100080000000000000400000000000000000000000000000000000000000000000080000080000000808000800000008000800080800000C0C0C000C0DCC000F0CAA6000020400000206000002080000020A0000020C0000020E00000400000004020000040400000406000004080000040A0
310
000040C0000040E00000600000006020000060400000606000006080000060A0000060C0000060E00000800000008020000080400000806000008080000080A0000080C0000080E00000A0000000A0200000A0400000A0600000A0800000A0A00000A0C00000A0E00000C0000000C0200000C0400000C0600000C0800000C0
310
A00000C0C00000C0E00000E0000000E0200000E0400000E0600000E0800000E0A00000E0C00000E0E00040000000400020004000400040006000400080004000A0004000C0004000E00040200000402020004020400040206000402080004020A0004020C0004020E000404000004040200040404000404060004040800040
310
40A0004040C0004040E00040600000406020004060400040606000406080004060A0004060C0004060E00040800000408020004080400040806000408080004080A0004080C0004080E00040A0000040A0200040A0400040A0600040A0800040A0A00040A0C00040A0E00040C0000040C0200040C0400040C0600040C08000
310
40C0A00040C0C00040C0E00040E0000040E0200040E0400040E0600040E0800040E0A00040E0C00040E0E00080000000800020008000400080006000800080008000A0008000C0008000E00080200000802020008020400080206000802080008020A0008020C0008020E00080400000804020008040400080406000804080
310
008040A0008040C0008040E00080600000806020008060400080606000806080008060A0008060C0008060E00080800000808020008080400080806000808080008080A0008080C0008080E00080A0000080A0200080A0400080A0600080A0800080A0A00080A0C00080A0E00080C0000080C0200080C0400080C0600080C0
310
800080C0A00080C0C00080C0E00080E0000080E0200080E0400080E0600080E0800080E0A00080E0C00080E0E000C0000000C0002000C0004000C0006000C0008000C000A000C000C000C000E000C0200000C0202000C0204000C0206000C0208000C020A000C020C000C020E000C0400000C0402000C0404000C0406000C0
310
408000C040A000C040C000C040E000C0600000C0602000C0604000C0606000C0608000C060A000C060C000C060E000C0800000C0802000C0804000C0806000C0808000C080A000C080C000C080E000C0A00000C0A02000C0A04000C0A06000C0A08000C0A0A000C0A0C000C0A0E000C0C00000C0C02000C0C04000C0C06000
310
C0C08000C0C0A000F0FBFF00A4A0A000808080000000FF0000FF000000FFFF00FF000000FF00FF00FFFF0000FFFFFF0000000000000000000000000000000000000000000000000000000000000000000000000000000000000000000000000000000000000000000000000000000000000000000000000000000000000000
310
00000000000000000000000000000000000000000000000000000000000000000000000000000000000000000000000000000000000000000000000000000000000000000000000000000000000000000000000000000000000000000000000000000000000000000000000000000000000000000000000000000000000000
310
00000000000000000000000000000000000000000000000000000000000000000000000000000000000000000000000000000000000000000000000000000000000000000000000000000000000000000000000000000000000000000000000000000000000000000000000000000000000000000000000000000000000000
310
0000000000000000000000000000000000000000000000000000000000000000000000000000000000000000000000000000000000000000000000000000000000000000000000000000000000000000000000000000000000000000000000000000000000000000000000000000000000000000FFFFFFFFFFFFFFFFFFFFFF
310
FFFFFFFFFFFFFFFFFFFFFFFFFFFFFFFFFFFFFF0000FF0000FFFFFFFFFFFFFFFFFFFFFFFFFFFFFFFFFFFFFFFFFFFFFFFF0000FF0000FFFFFFFFFFFFFFFFFFFFFFFFFFFFFFFFFFFFFFFFFFFFFFFFFFFFFFFFFFFF0000000000FFFFFFFFFFFFFFFFFFFFFFFFFFFFFFFFFFFFFFFFFFFFFFFF000000000000000000000000000000
310
00000000000000000000000000000000000000000000000000000000000000000000000000000000000000000000000000000000000000000000000000000000000000000000000000000000000000000000000000000000000000000000000000000000000000000000000000000000000000000000000000000000000000
310
00000000000000000000000000000000000000000000000000000000000000000000000000000000000000000000000000000000000000000000000000000000000000000000000000000000000000000000000000000000000000000000000000000000000000000000000000000000000000000000000000000000000000
310
00000000000000000000000000000000000000000000000000000000000000000000000000000000000000000000000000000000000000000000000000000000000000000000000000000000000000000000000000000000000000000000000000000000000000000000000000000000000000000000000000000000000000
310
0000000000000000000000000000000000000000000000000000000000000000000000000000000000000000000000000000000000000000
102
{BLKREFS
331
950
102
}
1001
ACAD
1000
DesignCenter Data
1002
{
1070
     1
1070
     4
1002
}
  0
BLOCK_RECORD
  5
951
330
1
100
AcDbSymbolTableRecord
100
AcDbBlockTableRecord
  2
2
340
0
310
2800000020000000200000000100080000000000000400000000000000000000000000000000000000000000000080000080000000808000800000008000800080800000C0C0C000C0DCC000F0CAA6000020400000206000002080000020A0000020C0000020E00000400000004020000040400000406000004080000040A0
310
000040C0000040E00000600000006020000060400000606000006080000060A0000060C0000060E00000800000008020000080400000806000008080000080A0000080C0000080E00000A0000000A0200000A0400000A0600000A0800000A0A00000A0C00000A0E00000C0000000C0200000C0400000C0600000C0800000C0
310
A00000C0C00000C0E00000E0000000E0200000E0400000E0600000E0800000E0A00000E0C00000E0E00040000000400020004000400040006000400080004000A0004000C0004000E00040200000402020004020400040206000402080004020A0004020C0004020E000404000004040200040404000404060004040800040
310
40A0004040C0004040E00040600000406020004060400040606000406080004060A0004060C0004060E00040800000408020004080400040806000408080004080A0004080C0004080E00040A0000040A0200040A0400040A0600040A0800040A0A00040A0C00040A0E00040C0000040C0200040C0400040C0600040C08000
310
40C0A00040C0C00040C0E00040E0000040E0200040E0400040E0600040E0800040E0A00040E0C00040E0E00080000000800020008000400080006000800080008000A0008000C0008000E00080200000802020008020400080206000802080008020A0008020C0008020E00080400000804020008040400080406000804080
310
008040A0008040C0008040E00080600000806020008060400080606000806080008060A0008060C0008060E00080800000808020008080400080806000808080008080A0008080C0008080E00080A0000080A0200080A0400080A0600080A0800080A0A00080A0C00080A0E00080C0000080C0200080C0400080C0600080C0
310
800080C0A00080C0C00080C0E00080E0000080E0200080E0400080E0600080E0800080E0A00080E0C00080E0E000C0000000C0002000C0004000C0006000C0008000C000A000C000C000C000E000C0200000C0202000C0204000C0206000C0208000C020A000C020C000C020E000C0400000C0402000C0404000C0406000C0
310
408000C040A000C040C000C040E000C0600000C0602000C0604000C0606000C0608000C060A000C060C000C060E000C0800000C0802000C0804000C0806000C0808000C080A000C080C000C080E000C0A00000C0A02000C0A04000C0A06000C0A08000C0A0A000C0A0C000C0A0E000C0C00000C0C02000C0C04000C0C06000
310
C0C08000C0C0A000F0FBFF00A4A0A000808080000000FF0000FF000000FFFF00FF000000FF00FF00FFFF0000FFFFFF0000000000000000000000000000000000000000000000000000000000000000000000000000000000000000000000000000000000000000000000000000000000000000000000000000000000000000
310
00000000000000000000000000000000000000000000000000000000000000000000000000000000000000000000000000000000000000000000000000000000000000000000000000000000000000000000000000000000000000000000000000000000000000000000000000000000000000000000000000000000000000
310
00000000000000000000000000000000000000000000000000000000000000000000000000000000000000000000000000000000000000000000000000000000000000000000000000000000000000000000000000000000000000000000000000000000000000000000000000000000000000000000000000000000000000
310
00000000000000000000000000000000000000000000000000000000000000000000000000000000000000000000000000000000000000000000000000000000000000000000000000000000000000000000000000000000000000000000000000000000000000000000000000000000000000000000000000000000000000
310
000000000000000000000000000000000000000000FFFFFFFFFFFFFFFFFFFFFFFFFFFFFFFFFFFFFFFFFFFFFFFFFFFFFFFFFFFF0000FFFFFFFFFFFFFFFFFFFFFFFFFFFFFFFFFFFFFFFFFFFFFFFFFFFFFFFFFFFF0000000000000000000000000000000000000000000000000000000000000000000000000000000000000000
310
00000000000000000000000000000000000000000000000000000000000000000000000000000000000000000000000000000000000000000000000000000000000000000000000000000000000000000000000000000000000000000000000000000000000000000000000000000000000000000000000000000000000000
310
00000000000000000000000000000000000000000000000000000000000000000000000000000000000000000000000000000000000000000000000000000000000000000000000000000000000000000000000000000000000000000000000000000000000000000000000000000000000000000000000000000000000000
310
00000000000000000000000000000000000000000000000000000000000000000000000000000000000000000000000000000000000000000000000000000000000000000000000000000000000000000000000000000000000000000000000000000000000000000000000000000000000000000000000000000000000000
310
0000000000000000000000000000000000000000000000000000000000000000000000000000000000000000000000000000000000000000
102
{BLKREFS
331
B0C
102
}
1001
ACAD
1000
DesignCenter Data
1002
{
1070
     1
1070
     4
1002
}
  0
BLOCK_RECORD
  5
B0D
330
1
100
AcDbSymbolTableRecord
100
AcDbBlockTableRecord
  2
3
340
0
310
2800000020000000200000000100080000000000000400000000000000000000000000000000000000000000000080000080000000808000800000008000800080800000C0C0C000C0DCC000F0CAA6000020400000206000002080000020A0000020C0000020E00000400000004020000040400000406000004080000040A0
310
000040C0000040E00000600000006020000060400000606000006080000060A0000060C0000060E00000800000008020000080400000806000008080000080A0000080C0000080E00000A0000000A0200000A0400000A0600000A0800000A0A00000A0C00000A0E00000C0000000C0200000C0400000C0600000C0800000C0
310
A00000C0C00000C0E00000E0000000E0200000E0400000E0600000E0800000E0A00000E0C00000E0E00040000000400020004000400040006000400080004000A0004000C0004000E00040200000402020004020400040206000402080004020A0004020C0004020E000404000004040200040404000404060004040800040
310
40A0004040C0004040E00040600000406020004060400040606000406080004060A0004060C0004060E00040800000408020004080400040806000408080004080A0004080C0004080E00040A0000040A0200040A0400040A0600040A0800040A0A00040A0C00040A0E00040C0000040C0200040C0400040C0600040C08000
310
40C0A00040C0C00040C0E00040E0000040E0200040E0400040E0600040E0800040E0A00040E0C00040E0E00080000000800020008000400080006000800080008000A0008000C0008000E00080200000802020008020400080206000802080008020A0008020C0008020E00080400000804020008040400080406000804080
310
008040A0008040C0008040E00080600000806020008060400080606000806080008060A0008060C0008060E00080800000808020008080400080806000808080008080A0008080C0008080E00080A0000080A0200080A0400080A0600080A0800080A0A00080A0C00080A0E00080C0000080C0200080C0400080C0600080C0
310
800080C0A00080C0C00080C0E00080E0000080E0200080E0400080E0600080E0800080E0A00080E0C00080E0E000C0000000C0002000C0004000C0006000C0008000C000A000C000C000C000E000C0200000C0202000C0204000C0206000C0208000C020A000C020C000C020E000C0400000C0402000C0404000C0406000C0
310
408000C040A000C040C000C040E000C0600000C0602000C0604000C0606000C0608000C060A000C060C000C060E000C0800000C0802000C0804000C0806000C0808000C080A000C080C000C080E000C0A00000C0A02000C0A04000C0A06000C0A08000C0A0A000C0A0C000C0A0E000C0C00000C0C02000C0C04000C0C06000
310
C0C08000C0C0A000F0FBFF00A4A0A000808080000000FF0000FF000000FFFF00FF000000FF00FF00FFFF0000FFFFFF0000000000000000000000000000000000000000000000000000000000000000000000000000000000FFFFFFFFFFFFFFFFFFFFFFFFFFFFFFFF00000000000000000000000000000000FF000000000000
310
0000000000000000FF00000000000000000000000000000000FF0000000000000000000000000000FF00000000000000000000000000000000FF0000000000000000000000000000FF00000000000000000000000000000000FF0000000000000000000000000000FF00000000000000000000000000000000FF0000000000
310
000000000000000000FF00000000000000000000000000000000FF0000000000000000000000000000FF00000000000000000000000000000000FF0000000000000000000000000000FF00000000000000000000000000000000FF0000000000000000000000000000FF00000000000000000000000000000000FF00000000
310
00000000000000000000FF00000000000000000000000000000000FF0000000000000000000000000000FF00000000000000000000000000000000FF0000000000000000000000000000FF00000000000000000000000000000000FF0000000000000000000000000000FF00000000000000000000000000000000FF000000
310
0000000000000000000000FF00000000000000000000000000000000FF0000000000000000000000000000FF00000000000000000000000000000000FF0000000000000000000000000000FF00000000000000000000000000000000FF0000000000000000000000000000FF00000000000000000000000000000000FF0000
310
000000000000000000000000FF00000000000000000000000000000000FF0000000000000000000000000000FF00000000000000000000000000000000FF0000000000000000000000000000FF00000000000000000000000000000000FF0000000000000000000000000000FF00000000000000000000000000000000FF00
310
00000000000000000000000000FF00000000000000000000000000000000FF0000000000000000000000000000FF00000000000000000000000000000000FFFFFFFFFFFFFFFFFFFFFFFFFFFFFFFF000000000000000000000000000000000000FF00000000000000000000FF00000000000000000000000000000000000000
310
00FF00000000000000000000FF0000000000000000000000000000000000000000FF00000000FFFF00000000FF0000000000000000000000000000000000000000FF000000FF0000FF000000FF0000000000000000000000000000000000000000FF000000FF0000FF000000FF000000000000000000000000000000000000
310
0000FFFFFFFFFF0000FFFFFFFFFF000000000000000000000000000000000000000000000000000000000000000000000000000000000000
102
{BLKREFS
331
B1B
102
}
1001
ACAD
1000
DesignCenter Data
1002
{
1070
     1
1070
     4
1002
}
  0
BLOCK_RECORD
  5
B1C
330
1
100
AcDbSymbolTableRecord
100
AcDbBlockTableRecord
  2
4
340
0
310
2800000020000000200000000100080000000000000400000000000000000000000000000000000000000000000080000080000000808000800000008000800080800000C0C0C000C0DCC000F0CAA6000020400000206000002080000020A0000020C0000020E00000400000004020000040400000406000004080000040A0
310
000040C0000040E00000600000006020000060400000606000006080000060A0000060C0000060E00000800000008020000080400000806000008080000080A0000080C0000080E00000A0000000A0200000A0400000A0600000A0800000A0A00000A0C00000A0E00000C0000000C0200000C0400000C0600000C0800000C0
310
A00000C0C00000C0E00000E0000000E0200000E0400000E0600000E0800000E0A00000E0C00000E0E00040000000400020004000400040006000400080004000A0004000C0004000E00040200000402020004020400040206000402080004020A0004020C0004020E000404000004040200040404000404060004040800040
310
40A0004040C0004040E00040600000406020004060400040606000406080004060A0004060C0004060E00040800000408020004080400040806000408080004080A0004080C0004080E00040A0000040A0200040A0400040A0600040A0800040A0A00040A0C00040A0E00040C0000040C0200040C0400040C0600040C08000
310
40C0A00040C0C00040C0E00040E0000040E0200040E0400040E0600040E0800040E0A00040E0C00040E0E00080000000800020008000400080006000800080008000A0008000C0008000E00080200000802020008020400080206000802080008020A0008020C0008020E00080400000804020008040400080406000804080
310
008040A0008040C0008040E00080600000806020008060400080606000806080008060A0008060C0008060E00080800000808020008080400080806000808080008080A0008080C0008080E00080A0000080A0200080A0400080A0600080A0800080A0A00080A0C00080A0E00080C0000080C0200080C0400080C0600080C0
310
800080C0A00080C0C00080C0E00080E0000080E0200080E0400080E0600080E0800080E0A00080E0C00080E0E000C0000000C0002000C0004000C0006000C0008000C000A000C000C000C000E000C0200000C0202000C0204000C0206000C0208000C020A000C020C000C020E000C0400000C0402000C0404000C0406000C0
310
408000C040A000C040C000C040E000C0600000C0602000C0604000C0606000C0608000C060A000C060C000C060E000C0800000C0802000C0804000C0806000C0808000C080A000C080C000C080E000C0A00000C0A02000C0A04000C0A06000C0A08000C0A0A000C0A0C000C0A0E000C0C00000C0C02000C0C04000C0C06000
310
C0C08000C0C0A000F0FBFF00A4A0A000808080000000FF0000FF000000FFFF00FF000000FF00FF00FFFF0000FFFFFF0000000000000000000000000000000000000000000000000000000000000000000000000000000000000000000000000000000000000000000000000000000000000000000000000000000000000000
310
00000000000000000000000000000000000000000000000000000000000000000000000000000000000000000000000000000000000000000000000000000000000000000000000000000000000000000000000000000000000000000000000000000000000000000000000000000000000000000000000000000000000000
310
0000000000000000000000000000FF0000000000000000000000000000000000000000000000000000000000FFFFFFFFFF00000000000000000000000000000000000000000000000000FFFFFF00FF00FF0000000000000000000000000000000000000000000000FFFFFFFFFFFFFFFFFF0000000000000000000000000000
310
00000000000000FFFFFFFFFFFFFFFFFFFFFF0000000000000000000000000000000000000000FFFFFFFFFFFFFFFFFFFF0000000000000000000000000000000000000000FFFFFFFFFFFFFFFFFFFFFF00000000000000000000000000000000000000FFFFFFFFFFFFFFFFFFFFFF000000000000000000000000000000000000
310
00FFFFFFFFFFFFFFFFFFFFFF00000000000000000000000000000000000000FFFFFFFFFFFFFFFFFFFFFF0000000000000000000000000000000000000000FFFFFFFFFFFFFFFFFFFF0000000000000000000000000000000000000000FFFFFFFFFFFFFFFFFFFF0000000000000000000000000000000000000000FFFFFFFFFF
310
FFFFFFFFFF0000000000000000000000000000000000000000FFFFFFFFFFFFFFFFFFFFFFFF000000000000000000000000000000000000FFFFFFFFFFFFFFFFFFFFFFFF00000000000000000000000000000000000000FF00FFFFFFFFFFFFFFFFFF000000000000000000000000000000000000000000FF00FFFFFFFFFFFFFF
310
FF00000000000000000000000000000000000000000000FFFFFFFFFFFFFFFF000000000000000000000000000000000000000000000000FFFFFFFFFFFF000000000000000000000000000000000000000000000000000000FFFFFF000000000000000000000000000000000000000000000000000000000000000000000000
310
00000000000000000000000000000000000000000000000000000000000000000000000000000000000000000000000000000000000000000000000000000000000000000000000000000000000000000000000000000000000000000000000000000000000000000000000000000000000000000000000000000000000000
310
0000000000000000000000000000000000000000000000000000000000000000000000000000000000000000000000000000000000000000
102
{BLKREFS
331
C94
102
}
1001
ACAD
1000
DesignCenter Data
1002
{
1070
     1
1070
     4
1002
}
  0
ENDTAB
  0
ENDSEC
  0
SECTION
  2
BLOCKS
  0
BLOCK
  5
20
330
1F
100
AcDbEntity
  8
0
100
AcDbBlockBegin
  2
*Model_Space
 70
     0
 10
0.0
 20
0.0
 30
0.0
  3
*Model_Space
  1

  0
ENDBLK
  5
21
330
1F
100
AcDbEntity
  8
0
100
AcDbBlockEnd
  0
BLOCK
  5
D4
330
D2
100
AcDbEntity
 67
     1
  8
0
100
AcDbBlockBegin
  2
*Paper_Space
 70
     0
 10
0.0
 20
0.0
 30
0.0
  3
*Paper_Space
  1

  0
ENDBLK
  5
D5
330
D2
100
AcDbEntity
 67
     1
  8
0
100
AcDbBlockEnd
  0
BLOCK
  5
D8
330
D6
100
AcDbEntity
 67
     1
  8
0
100
AcDbBlockBegin
  2
*Paper_Space0
 70
     0
 10
0.0
 20
0.0
 30
0.0
  3
*Paper_Space0
  1

  0
ENDBLK
  5
D9
330
D6
100
AcDbEntity
 67
     1
  8
0
100
AcDbBlockEnd
  0
BLOCK
  5
8EA
330
8E9
100
AcDbEntity
  8
0
100
AcDbBlockBegin
  2
1
 70
     0
 10
0.0
 20
0.0
 30
0.0
  3
1
  1

  0
LINE
  5
8EC
330
8E9
100
AcDbEntity
  8
0
  6
Continuous
 62
     7
370
    15
100
AcDbLine
 10
1550.470506261393
 20
1342.604156761039
 30
0.0
 11
1550.470506261393
 21
1340.904156854916
 31
0.0
  0
LINE
  5
8ED
330
8E9
100
AcDbEntity
  8
0
  6
Continuous
 62
     7
370
    15
100
AcDbLine
 10
1558.390503238245
 20
1340.904156854916
 30
0.0
 11
1558.390503238245
 21
1342.604156761039
 31
0.0
  0
LINE
  5
8EE
330
8E9
100
AcDbEntity
  8
0
  6
Continuous
 62
     7
370
    15
100
AcDbLine
 10
1575.470504771277
 20
1342.604156761039
 30
0.0
 11
1575.470504771277
 21
1340.904156854916
 31
0.0
  0
LINE
  5
8EF
330
8E9
100
AcDbEntity
  8
0
  6
Continuous
 62
     7
370
    15
100
AcDbLine
 10
1583.39050919871
 20
1340.904156854916
 30
0.0
 11
1583.39050919871
 21
1342.604156761039
 31
0.0
  0
LINE
  5
8F0
330
8E9
100
AcDbEntity
  8
0
  6
Continuous
 62
     7
370
    15
100
AcDbLine
 10
1475.470507006451
 20
1342.604156761039
 30
0.0
 11
1475.470507006451
 21
1340.904156854916
 31
0.0
  0
LINE
  5
8F1
330
8E9
100
AcDbEntity
  8
0
  6
Continuous
 62
     7
370
    15
100
AcDbLine
 10
1483.390505845948
 20
1340.904156854916
 30
0.0
 11
1483.390505845948
 21
1342.604156761039
 31
0.0
  0
LINE
  5
8F2
330
8E9
100
AcDbEntity
  8
0
  6
Continuous
 62
     7
370
    15
100
AcDbLine
 10
1500.470505516335
 20
1342.604156761039
 30
0.0
 11
1500.470505516335
 21
1340.904156854916
 31
0.0
  0
LINE
  5
8F3
330
8E9
100
AcDbEntity
  8
0
  6
Continuous
 62
     7
370
    15
100
AcDbLine
 10
1508.390506218477
 20
1340.904156854916
 30
0.0
 11
1508.390506218477
 21
1342.604156761039
 31
0.0
  0
LINE
  5
8F4
330
8E9
100
AcDbEntity
  8
0
  6
Continuous
 62
     7
370
    15
100
AcDbLine
 10
1537.970503281161
 20
1342.604156761039
 30
0.0
 11
1537.970503281161
 21
1340.904156854916
 31
0.0
  0
LINE
  5
8F5
330
8E9
100
AcDbEntity
  8
0
  6
Continuous
 62
     7
370
    15
100
AcDbLine
 10
1545.890507708594
 20
1340.904156854916
 30
0.0
 11
1545.890507708594
 21
1342.604156761039
 31
0.0
  0
LINE
  5
8F6
330
8E9
100
AcDbEntity
  8
0
  6
Continuous
 62
     7
370
    15
100
AcDbLine
 10
1525.470507751509
 20
1342.604156761039
 30
0.0
 11
1525.470507751509
 21
1340.904156854916
 31
0.0
  0
LINE
  5
8F7
330
8E9
100
AcDbEntity
  8
0
  6
Continuous
 62
     7
370
    15
100
AcDbLine
 10
1533.390504728361
 20
1340.904156854916
 30
0.0
 11
1533.390504728361
 21
1342.604156761039
 31
0.0
  0
LINE
  5
8F8
330
8E9
100
AcDbEntity
  8
0
  6
Continuous
 62
     7
370
    15
100
AcDbLine
 10
1587.970500300928
 20
1342.604156761039
 30
0.0
 11
1587.970500300928
 21
1340.904156854916
 31
0.0
  0
LINE
  5
8F9
330
8E9
100
AcDbEntity
  8
0
  6
Continuous
 62
     7
370
    15
100
AcDbLine
 10
1595.890512178942
 20
1340.904156854916
 30
0.0
 11
1595.890512178942
 21
1342.604156761039
 31
0.0
  0
LINE
  5
8FA
330
8E9
100
AcDbEntity
  8
0
  6
Continuous
 62
     7
370
    15
100
AcDbLine
 10
1487.970506261393
 20
1342.604156761039
 30
0.0
 11
1487.970506261393
 21
1340.904156854916
 31
0.0
  0
LINE
  5
8FB
330
8E9
100
AcDbEntity
  8
0
  6
Continuous
 62
     7
370
    15
100
AcDbLine
 10
1495.890506963536
 20
1340.904156854916
 30
0.0
 11
1495.890506963536
 21
1342.604156761039
 31
0.0
  0
LINE
  5
8FC
330
8E9
100
AcDbEntity
  8
0
  6
Continuous
 62
     7
370
    15
100
AcDbLine
 10
1562.970509241625
 20
1342.604156761039
 30
0.0
 11
1562.970509241625
 21
1340.904156854916
 31
0.0
  0
LINE
  5
8FD
330
8E9
100
AcDbEntity
  8
0
  6
Continuous
 62
     7
370
    15
100
AcDbLine
 10
1570.890506218477
 20
1340.904156854916
 30
0.0
 11
1570.890506218477
 21
1342.604156761039
 31
0.0
  0
LINE
  5
8FE
330
8E9
100
AcDbEntity
  8
0
  6
Continuous
 62
     7
370
    15
100
AcDbLine
 10
1512.970508496567
 20
1342.604156761039
 30
0.0
 11
1512.970508496567
 21
1340.904156854916
 31
0.0
  0
LINE
  5
8FF
330
8E9
100
AcDbEntity
  8
0
  6
Continuous
 62
     7
370
    15
100
AcDbLine
 10
1520.890505473419
 20
1340.904156854916
 30
0.0
 11
1520.890505473419
 21
1342.604156761039
 31
0.0
  0
LINE
  5
900
330
8E9
100
AcDbEntity
  8
0
  6
Continuous
 62
     7
370
    15
100
AcDbLine
 10
1612.970506261393
 20
1342.604156761039
 30
0.0
 11
1612.970506261393
 21
1340.904156854916
 31
0.0
  0
LINE
  5
901
330
8E9
100
AcDbEntity
  8
0
  6
Continuous
 62
     7
370
    15
100
AcDbLine
 10
1620.890503238245
 20
1340.904156854916
 30
0.0
 11
1620.890503238245
 21
1342.604156761039
 31
0.0
  0
LINE
  5
902
330
8E9
100
AcDbEntity
  8
0
  6
Continuous
 62
     7
370
    15
100
AcDbLine
 10
1600.470503281161
 20
1342.604156761039
 30
0.0
 11
1600.470503281161
 21
1340.904156854916
 31
0.0
  0
LINE
  5
903
330
8E9
100
AcDbEntity
  8
0
  6
Continuous
 62
     7
370
    15
100
AcDbLine
 10
1608.390500258013
 20
1340.904156854916
 30
0.0
 11
1608.390500258013
 21
1342.604156761039
 31
0.0
  0
LINE
  5
904
330
8E9
100
AcDbEntity
  8
0
  6
Continuous
 62
     7
370
    15
100
AcDbLine
 10
1461.680506776377
 20
1340.904156854916
 30
0.0
 11
1461.680506776377
 21
1325.904157190193
 31
0.0
  0
CIRCLE
  5
905
330
8E9
100
AcDbEntity
  8
0
  6
Continuous
 62
     7
370
    15
100
AcDbCircle
 10
1479.430506776377
 20
1333.204157190192
 30
0.0
 40
4.250000000000056
  0
LINE
  5
906
330
8E9
100
AcDbEntity
  8
0
  6
Continuous
 62
     7
370
    15
100
AcDbLine
 10
1634.680499743029
 20
1325.904157190193
 30
0.0
 11
1634.680499743029
 21
1340.904156854916
 31
0.0
  0
LINE
  5
907
330
8E9
100
AcDbEntity
  8
0
  6
Continuous
 62
     7
370
    15
100
AcDbLine
 10
1634.680499743029
 20
1325.904157190193
 30
0.0
 11
1461.680506776377
 21
1325.904157190193
 31
0.0
  0
LINE
  5
908
330
8E9
100
AcDbEntity
  8
0
  6
Continuous
 62
     7
370
    15
100
AcDbLine
 10
1634.680499743029
 20
1340.904156854916
 30
0.0
 11
1461.680506776377
 21
1340.904156854916
 31
0.0
  0
CIRCLE
  5
909
330
8E9
100
AcDbEntity
  8
0
  6
Continuous
 62
     7
370
    15
100
AcDbCircle
 10
1504.430506776377
 20
1333.204157190192
 30
0.0
 40
4.25
  0
CIRCLE
  5
90A
330
8E9
100
AcDbEntity
  8
0
  6
Continuous
 62
     7
370
    15
100
AcDbCircle
 10
1516.930506776377
 20
1333.204157190192
 30
0.0
 40
4.249999999999971
  0
CIRCLE
  5
90B
330
8E9
100
AcDbEntity
  8
0
  6
Continuous
 62
     7
370
    15
100
AcDbCircle
 10
1529.430506776377
 20
1333.204157190192
 30
0.0
 40
4.250000000000028
  0
CIRCLE
  5
90C
330
8E9
100
AcDbEntity
  8
0
  6
Continuous
 62
     7
370
    15
100
AcDbCircle
 10
1541.930506776377
 20
1333.204157190192
 30
0.0
 40
4.250000000000056
  0
CIRCLE
  5
90D
330
8E9
100
AcDbEntity
  8
0
  6
Continuous
 62
     7
370
    15
100
AcDbCircle
 10
1554.430506776377
 20
1333.204157190192
 30
0.0
 40
4.25
  0
CIRCLE
  5
90E
330
8E9
100
AcDbEntity
  8
0
  6
Continuous
 62
     7
370
    15
100
AcDbCircle
 10
1579.430506776377
 20
1333.204157190192
 30
0.0
 40
4.249999999999943
  0
CIRCLE
  5
90F
330
8E9
100
AcDbEntity
  8
0
  6
Continuous
 62
     7
370
    15
100
AcDbCircle
 10
1566.930506776377
 20
1333.204157190192
 30
0.0
 40
4.249999999999943
  0
CIRCLE
  5
910
330
8E9
100
AcDbEntity
  8
0
  6
Continuous
 62
     7
370
    15
100
AcDbCircle
 10
1591.930506776377
 20
1333.204157190192
 30
0.0
 40
5.25
  0
CIRCLE
  5
911
330
8E9
100
AcDbEntity
  8
0
  6
Continuous
 62
     7
370
    15
100
AcDbCircle
 10
1604.430506776377
 20
1333.204157190192
 30
0.0
 40
4.249999999999943
  0
CIRCLE
  5
912
330
8E9
100
AcDbEntity
  8
0
  6
Continuous
 62
     7
370
    15
100
AcDbCircle
 10
1616.930506776377
 20
1333.204157190192
 30
0.0
 40
4.25
  0
CIRCLE
  5
913
330
8E9
100
AcDbEntity
  8
0
  6
Continuous
 62
     7
370
    15
100
AcDbCircle
 10
1491.930506776377
 20
1333.204157190192
 30
0.0
 40
5.25
  0
LINE
  5
914
330
8E9
100
AcDbEntity
  8
0
  6
Continuous
 62
     7
370
    15
100
AcDbLine
 10
1550.49305916886
 20
1342.604156761039
 30
0.0
 11
1550.470506261393
 21
1342.604156761039
 31
0.0
  0
ELLIPSE
  5
915
330
8E9
100
AcDbEntity
  8
0
  6
Continuous
 62
     7
370
    15
100
AcDbEllipse
 10
1554.430506776377
 20
1341.44455815782
 30
0.0
 11
0.0000000000014211
 21
10.88001058104026
 31
0.0
210
0.0
220
0.0
230
1.0
 40
0.3639702342661965
 41
1.276147279000004
 42
1.464012815652138
  0
ELLIPSE
  5
916
330
8E9
100
AcDbEntity
  8
0
  6
Continuous
 62
     7
370
    15
100
AcDbEllipse
 10
1554.430506776377
 20
1341.44455815782
 30
0.0
 11
0.0000000000014211
 21
10.88001058104026
 31
0.0
210
0.0
220
0.0
230
1.0
 40
0.3639702342661965
 41
4.819172491527586
 42
5.007038028179695
  0
LINE
  5
917
330
8E9
100
AcDbEntity
  8
0
  6
Continuous
 62
     7
370
    15
100
AcDbLine
 10
1558.390503238245
 20
1342.604156761039
 30
0.0
 11
1558.367950330778
 21
1342.604156761039
 31
0.0
  0
LINE
  5
918
330
8E9
100
AcDbEntity
  8
0
  6
Continuous
 62
     7
370
    15
100
AcDbLine
 10
1558.219847689673
 20
1344.604157088865
 30
0.0
 11
1550.641169260546
 21
1344.604157088865
 31
0.0
  0
LINE
  5
919
330
8E9
100
AcDbEntity
  8
0
  6
Continuous
 62
     7
370
    15
100
AcDbLine
 10
1575.493065129324
 20
1342.604156761039
 30
0.0
 11
1575.470504771277
 21
1342.604156761039
 31
0.0
  0
ELLIPSE
  5
91A
330
8E9
100
AcDbEntity
  8
0
  6
Continuous
 62
     7
370
    15
100
AcDbEllipse
 10
1579.430506776377
 20
1341.44455815782
 30
0.0
 11
0.0000000000014211
 21
10.88001058104026
 31
0.0
210
0.0
220
0.0
230
1.0
 40
0.3639702342662017
 41
1.276147279
 42
1.464012815652138
  0
LINE
  5
91B
330
8E9
100
AcDbEntity
  8
0
  6
Continuous
 62
     7
370
    15
100
AcDbLine
 10
1583.219846199557
 20
1344.604157088865
 30
0.0
 11
1575.64116777043
 21
1344.604157088865
 31
0.0
  0
ELLIPSE
  5
91C
330
8E9
100
AcDbEntity
  8
0
  6
Continuous
 62
     7
370
    15
100
AcDbEllipse
 10
1579.430506776377
 20
1341.44455815782
 30
0.0
 11
0.0000000000014211
 21
10.88001058104026
 31
0.0
210
0.0
220
0.0
230
1.0
 40
0.3639702342662017
 41
4.819172491527589
 42
5.0070380281797
  0
LINE
  5
91D
330
8E9
100
AcDbEntity
  8
0
  6
Continuous
 62
     7
370
    15
100
AcDbLine
 10
1583.39050919871
 20
1342.604156761039
 30
0.0
 11
1583.367948840662
 21
1342.604156761039
 31
0.0
  0
LINE
  5
91E
330
8E9
100
AcDbEntity
  8
0
  6
Continuous
 62
     7
370
    15
100
AcDbLine
 10
1475.493062707885
 20
1342.604156761039
 30
0.0
 11
1475.470507006451
 21
1342.604156761039
 31
0.0
  0
ELLIPSE
  5
91F
330
8E9
100
AcDbEntity
  8
0
  6
Continuous
 62
     7
370
    15
100
AcDbEllipse
 10
1479.430506776377
 20
1341.44455815782
 30
0.0
 11
0.0000000000014211
 21
10.88001058104026
 31
0.0
210
0.0
220
0.0
230
1.0
 40
0.3639702342662017
 41
1.276147279
 42
1.464012815652138
  0
LINE
  5
920
330
8E9
100
AcDbEntity
  8
0
  6
Continuous
 62
     7
370
    15
100
AcDbLine
 10
1483.219846572086
 20
1344.604157088865
 30
0.0
 11
1475.641166280314
 21
1344.604157088865
 31
0.0
  0
ELLIPSE
  5
921
330
8E9
100
AcDbEntity
  8
0
  6
Continuous
 62
     7
370
    15
100
AcDbEllipse
 10
1479.430506776377
 20
1341.44455815782
 30
0.0
 11
0.0000000000014211
 21
10.88001058104026
 31
0.0
210
0.0
220
0.0
230
1.0
 40
0.3639702342662017
 41
4.819172491527589
 42
5.0070380281797
  0
LINE
  5
922
330
8E9
100
AcDbEntity
  8
0
  6
Continuous
 62
     7
370
    15
100
AcDbLine
 10
1483.390505845948
 20
1342.604156761039
 30
0.0
 11
1483.367951075836
 21
1342.604156761039
 31
0.0
  0
LINE
  5
923
330
8E9
100
AcDbEntity
  8
0
  6
Continuous
 62
     7
370
    15
100
AcDbLine
 10
1500.493062149092
 20
1342.604156761039
 30
0.0
 11
1500.470505516335
 21
1342.604156761039
 31
0.0
  0
ELLIPSE
  5
924
330
8E9
100
AcDbEntity
  8
0
  6
Continuous
 62
     7
370
    15
100
AcDbEllipse
 10
1504.430506776377
 20
1341.44455815782
 30
0.0
 11
0.0000000000013927
 21
10.88001058104026
 31
0.0
210
0.0
220
0.0
230
1.0
 40
0.3639702342662043
 41
1.276147278999997
 42
1.464012815652137
  0
LINE
  5
925
330
8E9
100
AcDbEntity
  8
0
  6
Continuous
 62
     7
370
    15
100
AcDbLine
 10
1508.219846944615
 20
1344.604157088865
 30
0.0
 11
1500.641164790198
 21
1344.604157088865
 31
0.0
  0
ELLIPSE
  5
926
330
8E9
100
AcDbEntity
  8
0
  6
Continuous
 62
     7
370
    15
100
AcDbEllipse
 10
1504.430506776377
 20
1341.44455815782
 30
0.0
 11
0.0000000000013927
 21
10.88001058104026
 31
0.0
210
0.0
220
0.0
230
1.0
 40
0.3639702342662043
 41
4.81917249152759
 42
5.0070380281797
  0
LINE
  5
927
330
8E9
100
AcDbEntity
  8
0
  6
Continuous
 62
     7
370
    15
100
AcDbLine
 10
1508.390506218477
 20
1342.604156761039
 30
0.0
 11
1508.36794958572
 21
1342.604156761039
 31
0.0
  0
LINE
  5
928
330
8E9
100
AcDbEntity
  8
0
  6
Continuous
 62
     7
370
    15
100
AcDbLine
 10
1537.993063639208
 20
1342.604156761039
 30
0.0
 11
1537.970503281161
 21
1342.604156761039
 31
0.0
  0
ELLIPSE
  5
929
330
8E9
100
AcDbEntity
  8
0
  6
Continuous
 62
     7
370
    15
100
AcDbEllipse
 10
1541.930506776377
 20
1341.44455815782
 30
0.0
 11
0.0000000000014211
 21
10.88001058104026
 31
0.0
210
0.0
220
0.0
230
1.0
 40
0.3639702342662017
 41
1.276147279
 42
1.464012815652138
  0
ELLIPSE
  5
92A
330
8E9
100
AcDbEntity
  8
0
  6
Continuous
 62
     7
370
    15
100
AcDbEllipse
 10
1541.930506776377
 20
1341.44455815782
 30
0.0
 11
0.0000000000014211
 21
10.88001058104026
 31
0.0
210
0.0
220
0.0
230
1.0
 40
0.3639702342662017
 41
4.819172491527589
 42
5.0070380281797
  0
LINE
  5
92B
330
8E9
100
AcDbEntity
  8
0
  6
Continuous
 62
     7
370
    15
100
AcDbLine
 10
1545.890507708594
 20
1342.604156761039
 30
0.0
 11
1545.867947350546
 21
1342.604156761039
 31
0.0
  0
LINE
  5
92C
330
8E9
100
AcDbEntity
  8
0
  6
Continuous
 62
     7
370
    15
100
AcDbLine
 10
1545.71984470944
 20
1344.604157088865
 30
0.0
 11
1538.141166280314
 21
1344.604157088865
 31
0.0
  0
LINE
  5
92D
330
8E9
100
AcDbEntity
  8
0
  6
Continuous
 62
     7
370
    15
100
AcDbLine
 10
1525.493060658976
 20
1342.604156761039
 30
0.0
 11
1525.470507751509
 21
1342.604156761039
 31
0.0
  0
ELLIPSE
  5
92E
330
8E9
100
AcDbEntity
  8
0
  6
Continuous
 62
     7
370
    15
100
AcDbEllipse
 10
1529.430506776377
 20
1341.44455815782
 30
0.0
 11
0.0000000000014495
 21
10.88001058104026
 31
0.0
210
0.0
220
0.0
230
1.0
 40
0.3639702342661991
 41
1.276147279000001
 42
1.464012815652139
  0
LINE
  5
92F
330
8E9
100
AcDbEntity
  8
0
  6
Continuous
 62
     7
370
    15
100
AcDbLine
 10
1533.219849179789
 20
1344.604157088865
 30
0.0
 11
1525.641163300081
 21
1344.604157088865
 31
0.0
  0
ELLIPSE
  5
930
330
8E9
100
AcDbEntity
  8
0
  6
Continuous
 62
     7
370
    15
100
AcDbEllipse
 10
1529.430506776377
 20
1341.44455815782
 30
0.0
 11
0.0000000000014495
 21
10.88001058104026
 31
0.0
210
0.0
220
0.0
230
1.0
 40
0.3639702342661991
 41
4.819172491527589
 42
5.007038028179699
  0
LINE
  5
931
330
8E9
100
AcDbEntity
  8
0
  6
Continuous
 62
     7
370
    15
100
AcDbLine
 10
1533.390504728361
 20
1342.604156761039
 30
0.0
 11
1533.367951820894
 21
1342.604156761039
 31
0.0
  0
LINE
  5
932
330
8E9
100
AcDbEntity
  8
0
  6
Continuous
 62
     7
370
    15
100
AcDbLine
 10
1587.993060658976
 20
1342.604156761039
 30
0.0
 11
1587.970500300928
 21
1342.604156761039
 31
0.0
  0
ELLIPSE
  5
933
330
8E9
100
AcDbEntity
  8
0
  6
Continuous
 62
     7
370
    15
100
AcDbEllipse
 10
1591.930506776377
 20
1341.44455815782
 30
0.0
 11
0.0000000000014211
 21
10.88001058104026
 31
0.0
210
0.0
220
0.0
230
1.0
 40
0.3639702342662017
 41
1.276147279
 42
1.464012815652138
  0
LINE
  5
934
330
8E9
100
AcDbEntity
  8
0
  6
Continuous
 62
     7
370
    15
100
AcDbLine
 10
1595.719849179789
 20
1344.604157088865
 30
0.0
 11
1588.141163300081
 21
1344.604157088865
 31
0.0
  0
ELLIPSE
  5
935
330
8E9
100
AcDbEntity
  8
0
  6
Continuous
 62
     7
370
    15
100
AcDbEllipse
 10
1591.930506776377
 20
1341.44455815782
 30
0.0
 11
0.0000000000014211
 21
10.88001058104026
 31
0.0
210
0.0
220
0.0
230
1.0
 40
0.3639702342662017
 41
4.819172491527588
 42
5.0070380281797
  0
LINE
  5
936
330
8E9
100
AcDbEntity
  8
0
  6
Continuous
 62
     7
370
    15
100
AcDbLine
 10
1595.890512178942
 20
1342.604156761039
 30
0.0
 11
1595.867951820894
 21
1342.604156761039
 31
0.0
  0
LINE
  5
937
330
8E9
100
AcDbEntity
  8
0
  6
Continuous
 62
     7
370
    15
100
AcDbLine
 10
1487.99306289415
 20
1342.604156761039
 30
0.0
 11
1487.970506261393
 21
1342.604156761039
 31
0.0
  0
ELLIPSE
  5
938
330
8E9
100
AcDbEntity
  8
0
  6
Continuous
 62
     7
370
    15
100
AcDbEllipse
 10
1491.930506776377
 20
1341.44455815782
 30
0.0
 11
0.0000000000013927
 21
10.88001058104026
 31
0.0
210
0.0
220
0.0
230
1.0
 40
0.3639702342662043
 41
1.276147278999997
 42
1.464012815652137
  0
LINE
  5
939
330
8E9
100
AcDbEntity
  8
0
  6
Continuous
 62
     7
370
    15
100
AcDbLine
 10
1495.719847689673
 20
1344.604157088865
 30
0.0
 11
1488.141165535256
 21
1344.604157088865
 31
0.0
  0
ELLIPSE
  5
93A
330
8E9
100
AcDbEntity
  8
0
  6
Continuous
 62
     7
370
    15
100
AcDbEllipse
 10
1491.930506776377
 20
1341.44455815782
 30
0.0
 11
0.0000000000013927
 21
10.88001058104026
 31
0.0
210
0.0
220
0.0
230
1.0
 40
0.3639702342662043
 41
4.81917249152759
 42
5.007038028179701
  0
LINE
  5
93B
330
8E9
100
AcDbEntity
  8
0
  6
Continuous
 62
     7
370
    15
100
AcDbLine
 10
1495.890506963536
 20
1342.604156761039
 30
0.0
 11
1495.867950330778
 21
1342.604156761039
 31
0.0
  0
LINE
  5
93C
330
8E9
100
AcDbEntity
  8
0
  6
Continuous
 62
     7
370
    15
100
AcDbLine
 10
1562.993062149092
 20
1342.604156761039
 30
0.0
 11
1562.970509241625
 21
1342.604156761039
 31
0.0
  0
ELLIPSE
  5
93D
330
8E9
100
AcDbEntity
  8
0
  6
Continuous
 62
     7
370
    15
100
AcDbEllipse
 10
1566.930506776377
 20
1341.44455815782
 30
0.0
 11
0.0000000000013642
 21
10.88001058104026
 31
0.0
210
0.0
220
0.0
230
1.0
 40
0.363970234266207
 41
1.276147278999993
 42
1.464012815652136
  0
ELLIPSE
  5
93E
330
8E9
100
AcDbEntity
  8
0
  6
Continuous
 62
     7
370
    15
100
AcDbEllipse
 10
1566.930506776377
 20
1341.44455815782
 30
0.0
 11
0.0000000000013642
 21
10.88001058104026
 31
0.0
210
0.0
220
0.0
230
1.0
 40
0.363970234266207
 41
4.81917249152759
 42
5.007038028179704
  0
LINE
  5
93F
330
8E9
100
AcDbEntity
  8
0
  6
Continuous
 62
     7
370
    15
100
AcDbLine
 10
1570.890506218477
 20
1342.604156761039
 30
0.0
 11
1570.867953311011
 21
1342.604156761039
 31
0.0
  0
LINE
  5
940
330
8E9
100
AcDbEntity
  8
0
  6
Continuous
 62
     7
370
    15
100
AcDbLine
 10
1570.719850669905
 20
1344.604157088865
 30
0.0
 11
1563.141164790198
 21
1344.604157088865
 31
0.0
  0
LINE
  5
941
330
8E9
100
AcDbEntity
  8
0
  6
Continuous
 62
     7
370
    15
100
AcDbLine
 10
1512.993061404034
 20
1342.604156761039
 30
0.0
 11
1512.970508496567
 21
1342.604156761039
 31
0.0
  0
ELLIPSE
  5
942
330
8E9
100
AcDbEntity
  8
0
  6
Continuous
 62
     7
370
    15
100
AcDbEllipse
 10
1516.930506776377
 20
1341.44455815782
 30
0.0
 11
0.0000000000013642
 21
10.88001058104026
 31
0.0
210
0.0
220
0.0
230
1.0
 40
0.363970234266207
 41
1.276147278999993
 42
1.464012815652136
  0
LINE
  5
943
330
8E9
100
AcDbEntity
  8
0
  6
Continuous
 62
     7
370
    15
100
AcDbLine
 10
1520.719846199557
 20
1344.604157088865
 30
0.0
 11
1513.14116777043
 21
1344.604157088865
 31
0.0
  0
ELLIPSE
  5
944
330
8E9
100
AcDbEntity
  8
0
  6
Continuous
 62
     7
370
    15
100
AcDbEllipse
 10
1516.930506776377
 20
1341.44455815782
 30
0.0
 11
0.0000000000013642
 21
10.88001058104026
 31
0.0
210
0.0
220
0.0
230
1.0
 40
0.363970234266207
 41
4.81917249152759
 42
5.007038028179702
  0
LINE
  5
945
330
8E9
100
AcDbEntity
  8
0
  6
Continuous
 62
     7
370
    15
100
AcDbLine
 10
1520.890505473419
 20
1342.604156761039
 30
0.0
 11
1520.867952565953
 21
1342.604156761039
 31
0.0
  0
LINE
  5
946
330
8E9
100
AcDbEntity
  8
0
  6
Continuous
 62
     7
370
    15
100
AcDbLine
 10
1612.99306661944
 20
1342.604156761039
 30
0.0
 11
1612.970506261393
 21
1342.604156761039
 31
0.0
  0
ELLIPSE
  5
947
330
8E9
100
AcDbEntity
  8
0
  6
Continuous
 62
     7
370
    15
100
AcDbEllipse
 10
1616.930506776377
 20
1341.44455815782
 30
0.0
 11
0.0000000000014211
 21
10.88001058104026
 31
0.0
210
0.0
220
0.0
230
1.0
 40
0.3639702342662017
 41
1.27614727900002
 42
1.464012815652136
  0
LINE
  5
948
330
8E9
100
AcDbEntity
  8
0
  6
Continuous
 62
     7
370
    15
100
AcDbLine
 10
1620.719840239092
 20
1344.604157088865
 30
0.0
 11
1613.141169260546
 21
1344.604157088865
 31
0.0
  0
ELLIPSE
  5
949
330
8E9
100
AcDbEntity
  8
0
  6
Continuous
 62
     7
370
    15
100
AcDbEllipse
 10
1616.930506776377
 20
1341.44455815782
 30
0.0
 11
0.0000000000014211
 21
10.88001058104026
 31
0.0
210
0.0
220
0.0
230
1.0
 40
0.3639702342662017
 41
4.819172491527589
 42
5.0070380281797
  0
LINE
  5
94A
330
8E9
100
AcDbEntity
  8
0
  6
Continuous
 62
     7
370
    15
100
AcDbLine
 10
1620.890503238245
 20
1342.604156761039
 30
0.0
 11
1620.867957781359
 21
1342.604156761039
 31
0.0
  0
LINE
  5
94B
330
8E9
100
AcDbEntity
  8
0
  6
Continuous
 62
     7
370
    15
100
AcDbLine
 10
1600.493063639208
 20
1342.604156761039
 30
0.0
 11
1600.470503281161
 21
1342.604156761039
 31
0.0
  0
ELLIPSE
  5
94C
330
8E9
100
AcDbEntity
  8
0
  6
Continuous
 62
     7
370
    15
100
AcDbEllipse
 10
1604.430506776377
 20
1341.44455815782
 30
0.0
 11
0.0000000000014211
 21
10.88001058104026
 31
0.0
210
0.0
220
0.0
230
1.0
 40
0.363970234266207
 41
1.276147279000016
 42
1.464012815652136
  0
ELLIPSE
  5
94D
330
8E9
100
AcDbEntity
  8
0
  6
Continuous
 62
     7
370
    15
100
AcDbEllipse
 10
1604.430506776377
 20
1341.44455815782
 30
0.0
 11
0.0000000000014211
 21
10.88001058104026
 31
0.0
210
0.0
220
0.0
230
1.0
 40
0.363970234266207
 41
4.819172491527591
 42
5.007038028179703
  0
LINE
  5
94E
330
8E9
100
AcDbEntity
  8
0
  6
Continuous
 62
     7
370
    15
100
AcDbLine
 10
1608.390500258013
 20
1342.604156761039
 30
0.0
 11
1608.367954801127
 21
1342.604156761039
 31
0.0
  0
LINE
  5
94F
330
8E9
100
AcDbEntity
  8
0
  6
Continuous
 62
     7
370
    15
100
AcDbLine
 10
1608.219852160021
 20
1344.604157088865
 30
0.0
 11
1600.641166280314
 21
1344.604157088865
 31
0.0
  0
ENDBLK
  5
8EB
330
8E9
100
AcDbEntity
  8
0
100
AcDbBlockEnd
  0
BLOCK
  5
952
330
951
100
AcDbEntity
  8
0
100
AcDbBlockBegin
  2
2
 70
     0
 10
0.0
 20
0.0
 30
0.0
  3
2
  1

  0
LINE
  5
954
330
951
100
AcDbEntity
  8
0
  6
Continuous
 62
     7
370
    15
100
AcDbLine
 10
1616.380502890154
 20
1279.473975968219
 30
0.0
 11
1616.380502890154
 21
1280.823976003237
 31
0.0
  0
LINE
  5
955
330
951
100
AcDbEntity
  8
0
  6
Continuous
 62
     7
370
    15
100
AcDbLine
 10
1616.380502890154
 20
1279.473975968219
 30
0.0
 11
1613.141169260546
 21
1279.473975968219
 31
0.0
  0
ARC
  5
956
330
951
100
AcDbEntity
  8
0
  6
Continuous
 62
     7
370
    15
100
AcDbCircle
 10
1616.930506776377
 20
1278.323976170875
 30
0.0
 40
3.959999999999968
100
AcDbArc
 50
16.88214687621865
 51
163.11785312381
  0
LINE
  5
957
330
951
100
AcDbEntity
  8
0
  6
Continuous
 62
     7
370
    15
100
AcDbLine
 10
1620.719840239092
 20
1279.473975968219
 30
0.0
 11
1617.480506609484
 21
1279.473975968219
 31
0.0
  0
LINE
  5
958
330
951
100
AcDbEntity
  8
0
  6
Continuous
 62
     7
370
    15
100
AcDbLine
 10
1617.480506609484
 20
1280.823976003237
 30
0.0
 11
1617.480506609484
 21
1279.473975968219
 31
0.0
  0
LINE
  5
959
330
951
100
AcDbEntity
  8
0
  6
Continuous
 62
     7
370
    15
100
AcDbLine
 10
1616.380502890154
 20
1280.823976003237
 30
0.0
 11
1617.480506609484
 21
1280.823976003237
 31
0.0
  0
LINE
  5
95A
330
951
100
AcDbEntity
  8
0
  6
Continuous
 62
     7
370
    15
100
AcDbLine
 10
1617.375691841646
 20
1280.719160769738
 30
0.0
 11
1617.480506609484
 21
1280.823976003237
 31
0.0
  0
LINE
  5
95B
330
951
100
AcDbEntity
  8
0
  6
Continuous
 62
     7
370
    15
100
AcDbLine
 10
1617.375691841646
 20
1278.746035617448
 30
0.0
 11
1617.480506609484
 21
1279.473975968219
 31
0.0
  0
LINE
  5
95C
330
951
100
AcDbEntity
  8
0
  6
Continuous
 62
     7
370
    15
100
AcDbLine
 10
1617.375691841646
 20
1280.719160769738
 30
0.0
 11
1617.375691841646
 21
1278.746035617448
 31
0.0
  0
LINE
  5
95D
330
951
100
AcDbEntity
  8
0
  6
Continuous
 62
     7
370
    15
100
AcDbLine
 10
1603.880499909922
 20
1279.473975968219
 30
0.0
 11
1603.880499909922
 21
1280.823976003237
 31
0.0
  0
LINE
  5
95E
330
951
100
AcDbEntity
  8
0
  6
Continuous
 62
     7
370
    15
100
AcDbLine
 10
1603.880499909922
 20
1279.473975968219
 30
0.0
 11
1600.641166280314
 21
1279.473975968219
 31
0.0
  0
ARC
  5
95F
330
951
100
AcDbEntity
  8
0
  6
Continuous
 62
     7
370
    15
100
AcDbCircle
 10
1604.430506776377
 20
1278.323976170875
 30
0.0
 40
3.96
100
AcDbArc
 50
16.88214687621865
 51
163.11785312381
  0
LINE
  5
960
330
951
100
AcDbEntity
  8
0
  6
Continuous
 62
     7
370
    15
100
AcDbLine
 10
1608.219852160021
 20
1279.473975968219
 30
0.0
 11
1604.980503629252
 21
1279.473975968219
 31
0.0
  0
LINE
  5
961
330
951
100
AcDbEntity
  8
0
  6
Continuous
 62
     7
370
    15
100
AcDbLine
 10
1604.980503629252
 20
1280.823976003237
 30
0.0
 11
1604.980503629252
 21
1279.473975968219
 31
0.0
  0
LINE
  5
962
330
951
100
AcDbEntity
  8
0
  6
Continuous
 62
     7
370
    15
100
AcDbLine
 10
1603.880499909922
 20
1280.823976003237
 30
0.0
 11
1604.980503629252
 21
1280.823976003237
 31
0.0
  0
LINE
  5
963
330
951
100
AcDbEntity
  8
0
  6
Continuous
 62
     7
370
    15
100
AcDbLine
 10
1604.875688861414
 20
1280.719160769738
 30
0.0
 11
1604.980503629252
 21
1280.823976003237
 31
0.0
  0
LINE
  5
964
330
951
100
AcDbEntity
  8
0
  6
Continuous
 62
     7
370
    15
100
AcDbLine
 10
1604.875688861414
 20
1278.746035617448
 30
0.0
 11
1604.980503629252
 21
1279.473975968219
 31
0.0
  0
LINE
  5
965
330
951
100
AcDbEntity
  8
0
  6
Continuous
 62
     7
370
    15
100
AcDbLine
 10
1604.875688861414
 20
1280.719160769738
 30
0.0
 11
1604.875688861414
 21
1278.746035617448
 31
0.0
  0
ARC
  5
966
330
951
100
AcDbEntity
  8
0
  6
Continuous
 62
     7
370
    15
100
AcDbCircle
 10
1616.930506776377
 20
1278.323976170875
 30
0.0
 40
3.96000000000003
100
AcDbArc
 50
6.118244510086123
 51
16.88214687621865
  0
LINE
  5
967
330
951
100
AcDbEntity
  8
0
  6
Continuous
 62
     7
370
    15
100
AcDbLine
 10
1620.867957781359
 20
1278.746035617448
 30
0.0
 11
1617.375691841646
 21
1278.746035617448
 31
0.0
  0
ARC
  5
968
330
951
100
AcDbEntity
  8
0
  6
Continuous
 62
     7
370
    15
100
AcDbCircle
 10
1604.430506776377
 20
1278.323976170875
 30
0.0
 40
3.96000000000003
100
AcDbArc
 50
6.118244510086123
 51
16.88214687621865
  0
LINE
  5
969
330
951
100
AcDbEntity
  8
0
  6
Continuous
 62
     7
370
    15
100
AcDbLine
 10
1608.367954801127
 20
1278.746035617448
 30
0.0
 11
1604.875688861414
 21
1278.746035617448
 31
0.0
  0
LINE
  5
96A
330
951
100
AcDbEntity
  8
0
  6
Continuous
 62
     7
370
    15
100
AcDbLine
 10
1578.985323618456
 20
1277.901916500784
 30
0.0
 11
1578.880508850619
 21
1277.173976150013
 31
0.0
  0
LINE
  5
96B
330
951
100
AcDbEntity
  8
0
  6
Continuous
 62
     7
370
    15
100
AcDbLine
 10
1575.64116777043
 20
1277.173976150013
 30
0.0
 11
1578.880508850619
 21
1277.173976150013
 31
0.0
  0
ARC
  5
96C
330
951
100
AcDbEntity
  8
0
  6
Continuous
 62
     7
370
    15
100
AcDbCircle
 10
1579.430506776377
 20
1278.323976170875
 30
0.0
 40
3.960000000000017
100
AcDbArc
 50
186.1182445100861
 51
196.8821468762186
  0
LINE
  5
96D
330
951
100
AcDbEntity
  8
0
  6
Continuous
 62
     7
370
    15
100
AcDbLine
 10
1575.493065129324
 20
1277.901916500784
 30
0.0
 11
1578.985323618456
 21
1277.901916500784
 31
0.0
  0
LINE
  5
96E
330
951
100
AcDbEntity
  8
0
  6
Continuous
 62
     7
370
    15
100
AcDbLine
 10
1566.485320638224
 20
1277.901916500784
 30
0.0
 11
1566.380505870386
 21
1277.173976150013
 31
0.0
  0
LINE
  5
96F
330
951
100
AcDbEntity
  8
0
  6
Continuous
 62
     7
370
    15
100
AcDbLine
 10
1563.141164790198
 20
1277.173976150013
 30
0.0
 11
1566.380505870386
 21
1277.173976150013
 31
0.0
  0
ARC
  5
970
330
951
100
AcDbEntity
  8
0
  6
Continuous
 62
     7
370
    15
100
AcDbCircle
 10
1566.930506776377
 20
1278.323976170875
 30
0.0
 40
3.960000000000042
100
AcDbArc
 50
186.1182445100861
 51
196.8821468762186
  0
LINE
  5
971
330
951
100
AcDbEntity
  8
0
  6
Continuous
 62
     7
370
    15
100
AcDbLine
 10
1562.993062149092
 20
1277.901916500784
 30
0.0
 11
1566.485320638224
 21
1277.901916500784
 31
0.0
  0
LINE
  5
972
330
951
100
AcDbEntity
  8
0
  6
Continuous
 62
     7
370
    15
100
AcDbLine
 10
1553.985325108572
 20
1277.901916500784
 30
0.0
 11
1553.880510340735
 21
1277.173976150013
 31
0.0
  0
LINE
  5
973
330
951
100
AcDbEntity
  8
0
  6
Continuous
 62
     7
370
    15
100
AcDbLine
 10
1550.641169260546
 20
1277.173976150013
 30
0.0
 11
1553.880510340735
 21
1277.173976150013
 31
0.0
  0
ARC
  5
974
330
951
100
AcDbEntity
  8
0
  6
Continuous
 62
     7
370
    15
100
AcDbCircle
 10
1554.430506776377
 20
1278.323976170875
 30
0.0
 40
3.960000000000017
100
AcDbArc
 50
186.1182445100861
 51
196.8821468762186
  0
LINE
  5
975
330
951
100
AcDbEntity
  8
0
  6
Continuous
 62
     7
370
    15
100
AcDbLine
 10
1550.49305916886
 20
1277.901916500784
 30
0.0
 11
1553.985325108572
 21
1277.901916500784
 31
0.0
  0
LINE
  5
976
330
951
100
AcDbEntity
  8
0
  6
Continuous
 62
     7
370
    15
100
AcDbLine
 10
1591.485326598688
 20
1277.901916500784
 30
0.0
 11
1591.380511830851
 21
1277.173976150013
 31
0.0
  0
LINE
  5
977
330
951
100
AcDbEntity
  8
0
  6
Continuous
 62
     7
370
    15
100
AcDbLine
 10
1588.141163300081
 20
1277.173976150013
 30
0.0
 11
1591.380511830851
 21
1277.173976150013
 31
0.0
  0
ARC
  5
978
330
951
100
AcDbEntity
  8
0
  6
Continuous
 62
     7
370
    15
100
AcDbCircle
 10
1591.930506776377
 20
1278.323976170875
 30
0.0
 40
3.960000000000017
100
AcDbArc
 50
186.1182445100861
 51
196.8821468762186
  0
LINE
  5
979
330
951
100
AcDbEntity
  8
0
  6
Continuous
 62
     7
370
    15
100
AcDbLine
 10
1587.993060658976
 20
1277.901916500784
 30
0.0
 11
1591.485326598688
 21
1277.901916500784
 31
0.0
  0
LINE
  5
97A
330
951
100
AcDbEntity
  8
0
  6
Continuous
 62
     7
370
    15
100
AcDbLine
 10
1516.485323618456
 20
1275.928791814155
 30
0.0
 11
1516.380505125328
 21
1275.823976114995
 31
0.0
  0
LINE
  5
97B
330
951
100
AcDbEntity
  8
0
  6
Continuous
 62
     7
370
    15
100
AcDbLine
 10
1516.380505125328
 20
1275.823976114995
 30
0.0
 11
1516.380505125328
 21
1277.173976150013
 31
0.0
  0
LINE
  5
97C
330
951
100
AcDbEntity
  8
0
  6
Continuous
 62
     7
370
    15
100
AcDbLine
 10
1516.485323618456
 20
1277.901916500784
 30
0.0
 11
1516.380505125328
 21
1277.173976150013
 31
0.0
  0
LINE
  5
97D
330
951
100
AcDbEntity
  8
0
  6
Continuous
 62
     7
370
    15
100
AcDbLine
 10
1516.485323618456
 20
1275.928791814155
 30
0.0
 11
1516.485323618456
 21
1277.901916500784
 31
0.0
  0
LINE
  5
97E
330
951
100
AcDbEntity
  8
0
  6
Continuous
 62
     7
370
    15
100
AcDbLine
 10
1541.48532212834
 20
1277.901916500784
 30
0.0
 11
1541.380507360502
 21
1277.173976150013
 31
0.0
  0
LINE
  5
97F
330
951
100
AcDbEntity
  8
0
  6
Continuous
 62
     7
370
    15
100
AcDbLine
 10
1538.141166280314
 20
1277.173976150013
 30
0.0
 11
1541.380507360502
 21
1277.173976150013
 31
0.0
  0
ARC
  5
980
330
951
100
AcDbEntity
  8
0
  6
Continuous
 62
     7
370
    15
100
AcDbCircle
 10
1541.930506776377
 20
1278.323976170875
 30
0.0
 40
3.960000000000017
100
AcDbArc
 50
186.1182445100861
 51
196.8821468762186
  0
LINE
  5
981
330
951
100
AcDbEntity
  8
0
  6
Continuous
 62
     7
370
    15
100
AcDbLine
 10
1537.993063639208
 20
1277.901916500784
 30
0.0
 11
1541.48532212834
 21
1277.901916500784
 31
0.0
  0
LINE
  5
982
330
951
100
AcDbEntity
  8
0
  6
Continuous
 62
     7
370
    15
100
AcDbLine
 10
1541.48532212834
 20
1275.928791814155
 30
0.0
 11
1541.380507360502
 21
1275.823976114995
 31
0.0
  0
LINE
  5
983
330
951
100
AcDbEntity
  8
0
  6
Continuous
 62
     7
370
    15
100
AcDbLine
 10
1541.380507360502
 20
1275.823976114995
 30
0.0
 11
1541.380507360502
 21
1277.173976150013
 31
0.0
  0
LINE
  5
984
330
951
100
AcDbEntity
  8
0
  6
Continuous
 62
     7
370
    15
100
AcDbLine
 10
1541.48532212834
 20
1275.928791814155
 30
0.0
 11
1541.48532212834
 21
1277.901916500784
 31
0.0
  0
LINE
  5
985
330
951
100
AcDbEntity
  8
0
  6
Continuous
 62
     7
370
    15
100
AcDbLine
 10
1503.985320638224
 20
1275.928791814155
 30
0.0
 11
1503.880505870386
 21
1275.823976114995
 31
0.0
  0
LINE
  5
986
330
951
100
AcDbEntity
  8
0
  6
Continuous
 62
     7
370
    15
100
AcDbLine
 10
1503.880505870386
 20
1275.823976114995
 30
0.0
 11
1503.880505870386
 21
1277.173976150013
 31
0.0
  0
LINE
  5
987
330
951
100
AcDbEntity
  8
0
  6
Continuous
 62
     7
370
    15
100
AcDbLine
 10
1503.985320638224
 20
1277.901916500784
 30
0.0
 11
1503.880505870386
 21
1277.173976150013
 31
0.0
  0
LINE
  5
988
330
951
100
AcDbEntity
  8
0
  6
Continuous
 62
     7
370
    15
100
AcDbLine
 10
1503.985320638224
 20
1275.928791814155
 30
0.0
 11
1503.985320638224
 21
1277.901916500784
 31
0.0
  0
LINE
  5
989
330
951
100
AcDbEntity
  8
0
  6
Continuous
 62
     7
370
    15
100
AcDbLine
 10
1491.485323245927
 20
1277.901916500784
 30
0.0
 11
1491.380506615444
 21
1277.173976150013
 31
0.0
  0
LINE
  5
98A
330
951
100
AcDbEntity
  8
0
  6
Continuous
 62
     7
370
    15
100
AcDbLine
 10
1488.141165535256
 20
1277.173976150013
 30
0.0
 11
1491.380506615444
 21
1277.173976150013
 31
0.0
  0
ARC
  5
98B
330
951
100
AcDbEntity
  8
0
  6
Continuous
 62
     7
370
    15
100
AcDbCircle
 10
1491.930506776377
 20
1278.323976170875
 30
0.0
 40
3.960000000000017
100
AcDbArc
 50
186.1182445100861
 51
196.8821468762186
  0
LINE
  5
98C
330
951
100
AcDbEntity
  8
0
  6
Continuous
 62
     7
370
    15
100
AcDbLine
 10
1487.99306289415
 20
1277.901916500784
 30
0.0
 11
1491.485323245927
 21
1277.901916500784
 31
0.0
  0
LINE
  5
98D
330
951
100
AcDbEntity
  8
0
  6
Continuous
 62
     7
370
    15
100
AcDbLine
 10
1500.641164790198
 20
1277.173976150013
 30
0.0
 11
1503.880505870386
 21
1277.173976150013
 31
0.0
  0
ARC
  5
98E
330
951
100
AcDbEntity
  8
0
  6
Continuous
 62
     7
370
    15
100
AcDbCircle
 10
1504.430506776377
 20
1278.323976170875
 30
0.0
 40
3.960000000000017
100
AcDbArc
 50
186.1182445100861
 51
196.8821468762186
  0
LINE
  5
98F
330
951
100
AcDbEntity
  8
0
  6
Continuous
 62
     7
370
    15
100
AcDbLine
 10
1500.493062149092
 20
1277.901916500784
 30
0.0
 11
1503.985320638224
 21
1277.901916500784
 31
0.0
  0
LINE
  5
990
330
951
100
AcDbEntity
  8
0
  6
Continuous
 62
     7
370
    15
100
AcDbLine
 10
1528.985319148108
 20
1275.928791814155
 30
0.0
 11
1528.88050438027
 21
1275.823976114995
 31
0.0
  0
LINE
  5
991
330
951
100
AcDbEntity
  8
0
  6
Continuous
 62
     7
370
    15
100
AcDbLine
 10
1528.88050438027
 20
1275.823976114995
 30
0.0
 11
1528.88050438027
 21
1277.173976150013
 31
0.0
  0
LINE
  5
992
330
951
100
AcDbEntity
  8
0
  6
Continuous
 62
     7
370
    15
100
AcDbLine
 10
1528.985319148108
 20
1277.901916500784
 30
0.0
 11
1528.88050438027
 21
1277.173976150013
 31
0.0
  0
LINE
  5
993
330
951
100
AcDbEntity
  8
0
  6
Continuous
 62
     7
370
    15
100
AcDbLine
 10
1528.985319148108
 20
1275.928791814155
 30
0.0
 11
1528.985319148108
 21
1277.901916500784
 31
0.0
  0
LINE
  5
994
330
951
100
AcDbEntity
  8
0
  6
Continuous
 62
     7
370
    15
100
AcDbLine
 10
1491.485323245927
 20
1275.928791814155
 30
0.0
 11
1491.380506615444
 21
1275.823976114995
 31
0.0
  0
LINE
  5
995
330
951
100
AcDbEntity
  8
0
  6
Continuous
 62
     7
370
    15
100
AcDbLine
 10
1491.380506615444
 20
1275.823976114995
 30
0.0
 11
1491.380506615444
 21
1277.173976150013
 31
0.0
  0
LINE
  5
996
330
951
100
AcDbEntity
  8
0
  6
Continuous
 62
     7
370
    15
100
AcDbLine
 10
1491.485323245927
 20
1275.928791814155
 30
0.0
 11
1491.485323245927
 21
1277.901916500784
 31
0.0
  0
LINE
  5
997
330
951
100
AcDbEntity
  8
0
  6
Continuous
 62
     7
370
    15
100
AcDbLine
 10
1525.641163300081
 20
1277.173976150013
 30
0.0
 11
1528.88050438027
 21
1277.173976150013
 31
0.0
  0
ARC
  5
998
330
951
100
AcDbEntity
  8
0
  6
Continuous
 62
     7
370
    15
100
AcDbCircle
 10
1529.430506776377
 20
1278.323976170875
 30
0.0
 40
3.95999999999999
100
AcDbArc
 50
186.1182445100861
 51
196.8821468762186
  0
LINE
  5
999
330
951
100
AcDbEntity
  8
0
  6
Continuous
 62
     7
370
    15
100
AcDbLine
 10
1525.493060658976
 20
1277.901916500784
 30
0.0
 11
1528.985319148108
 21
1277.901916500784
 31
0.0
  0
LINE
  5
99A
330
951
100
AcDbEntity
  8
0
  6
Continuous
 62
     7
370
    15
100
AcDbLine
 10
1578.985323618456
 20
1275.928791814155
 30
0.0
 11
1578.880508850619
 21
1275.823976114995
 31
0.0
  0
LINE
  5
99B
330
951
100
AcDbEntity
  8
0
  6
Continuous
 62
     7
370
    15
100
AcDbLine
 10
1578.880508850619
 20
1275.823976114995
 30
0.0
 11
1578.880508850619
 21
1277.173976150013
 31
0.0
  0
LINE
  5
99C
330
951
100
AcDbEntity
  8
0
  6
Continuous
 62
     7
370
    15
100
AcDbLine
 10
1578.985323618456
 20
1275.928791814155
 30
0.0
 11
1578.985323618456
 21
1277.901916500784
 31
0.0
  0
LINE
  5
99D
330
951
100
AcDbEntity
  8
0
  6
Continuous
 62
     7
370
    15
100
AcDbLine
 10
1478.98532212834
 20
1277.901916500784
 30
0.0
 11
1478.880507360502
 21
1277.173976150013
 31
0.0
  0
LINE
  5
99E
330
951
100
AcDbEntity
  8
0
  6
Continuous
 62
     7
370
    15
100
AcDbLine
 10
1475.641166280314
 20
1277.173976150013
 30
0.0
 11
1478.880507360502
 21
1277.173976150013
 31
0.0
  0
ARC
  5
99F
330
951
100
AcDbEntity
  8
0
  6
Continuous
 62
     7
370
    15
100
AcDbCircle
 10
1479.430506776377
 20
1278.323976170875
 30
0.0
 40
3.960000000000017
100
AcDbArc
 50
186.1182445100861
 51
196.8821468762186
  0
LINE
  5
9A0
330
951
100
AcDbEntity
  8
0
  6
Continuous
 62
     7
370
    15
100
AcDbLine
 10
1475.493062707885
 20
1277.901916500784
 30
0.0
 11
1478.98532212834
 21
1277.901916500784
 31
0.0
  0
LINE
  5
9A1
330
951
100
AcDbEntity
  8
0
  6
Continuous
 62
     7
370
    15
100
AcDbLine
 10
1553.985325108572
 20
1275.928791814155
 30
0.0
 11
1553.880510340735
 21
1275.823976114995
 31
0.0
  0
LINE
  5
9A2
330
951
100
AcDbEntity
  8
0
  6
Continuous
 62
     7
370
    15
100
AcDbLine
 10
1553.880510340735
 20
1275.823976114995
 30
0.0
 11
1553.880510340735
 21
1277.173976150013
 31
0.0
  0
LINE
  5
9A3
330
951
100
AcDbEntity
  8
0
  6
Continuous
 62
     7
370
    15
100
AcDbLine
 10
1553.985325108572
 20
1275.928791814155
 30
0.0
 11
1553.985325108572
 21
1277.901916500784
 31
0.0
  0
LINE
  5
9A4
330
951
100
AcDbEntity
  8
0
  6
Continuous
 62
     7
370
    15
100
AcDbLine
 10
1478.98532212834
 20
1275.928791814155
 30
0.0
 11
1478.880507360502
 21
1275.823976114995
 31
0.0
  0
LINE
  5
9A5
330
951
100
AcDbEntity
  8
0
  6
Continuous
 62
     7
370
    15
100
AcDbLine
 10
1478.880507360502
 20
1275.823976114995
 30
0.0
 11
1478.880507360502
 21
1277.173976150013
 31
0.0
  0
LINE
  5
9A6
330
951
100
AcDbEntity
  8
0
  6
Continuous
 62
     7
370
    15
100
AcDbLine
 10
1478.98532212834
 20
1275.928791814155
 30
0.0
 11
1478.98532212834
 21
1277.901916500784
 31
0.0
  0
LINE
  5
9A7
330
951
100
AcDbEntity
  8
0
  6
Continuous
 62
     7
370
    15
100
AcDbLine
 10
1513.14116777043
 20
1277.173976150013
 30
0.0
 11
1516.380505125328
 21
1277.173976150013
 31
0.0
  0
ARC
  5
9A8
330
951
100
AcDbEntity
  8
0
  6
Continuous
 62
     7
370
    15
100
AcDbCircle
 10
1516.930506776377
 20
1278.323976170875
 30
0.0
 40
3.960000000000042
100
AcDbArc
 50
186.1182445100861
 51
196.8821468762186
  0
LINE
  5
9A9
330
951
100
AcDbEntity
  8
0
  6
Continuous
 62
     7
370
    15
100
AcDbLine
 10
1512.993061404034
 20
1277.901916500784
 30
0.0
 11
1516.485323618456
 21
1277.901916500784
 31
0.0
  0
LINE
  5
9AA
330
951
100
AcDbEntity
  8
0
  6
Continuous
 62
     7
370
    15
100
AcDbLine
 10
1566.485320638224
 20
1275.928791814155
 30
0.0
 11
1566.380505870386
 21
1275.823976114995
 31
0.0
  0
LINE
  5
9AB
330
951
100
AcDbEntity
  8
0
  6
Continuous
 62
     7
370
    15
100
AcDbLine
 10
1566.380505870386
 20
1275.823976114995
 30
0.0
 11
1566.380505870386
 21
1277.173976150013
 31
0.0
  0
LINE
  5
9AC
330
951
100
AcDbEntity
  8
0
  6
Continuous
 62
     7
370
    15
100
AcDbLine
 10
1566.485320638224
 20
1275.928791814155
 30
0.0
 11
1566.485320638224
 21
1277.901916500784
 31
0.0
  0
LINE
  5
9AD
330
951
100
AcDbEntity
  8
0
  6
Continuous
 62
     7
370
    15
100
AcDbLine
 10
1591.485326598688
 20
1275.928791814155
 30
0.0
 11
1591.380511830851
 21
1275.823976114995
 31
0.0
  0
LINE
  5
9AE
330
951
100
AcDbEntity
  8
0
  6
Continuous
 62
     7
370
    15
100
AcDbLine
 10
1591.380511830851
 20
1275.823976114995
 30
0.0
 11
1591.380511830851
 21
1277.173976150013
 31
0.0
  0
LINE
  5
9AF
330
951
100
AcDbEntity
  8
0
  6
Continuous
 62
     7
370
    15
100
AcDbLine
 10
1591.485326598688
 20
1275.928791814155
 30
0.0
 11
1591.485326598688
 21
1277.901916500784
 31
0.0
  0
LINE
  5
9B0
330
951
100
AcDbEntity
  8
0
  6
Continuous
 62
     7
370
    15
100
AcDbLine
 10
1554.980506609484
 20
1275.823976114995
 30
0.0
 11
1553.880510340735
 21
1275.823976114995
 31
0.0
  0
LINE
  5
9B1
330
951
100
AcDbEntity
  8
0
  6
Continuous
 62
     7
370
    15
100
AcDbLine
 10
1554.980506609484
 20
1277.173976150013
 30
0.0
 11
1554.980506609484
 21
1275.823976114995
 31
0.0
  0
LINE
  5
9B2
330
951
100
AcDbEntity
  8
0
  6
Continuous
 62
     7
370
    15
100
AcDbLine
 10
1554.980506609484
 20
1277.173976150013
 30
0.0
 11
1558.219847689673
 21
1277.173976150013
 31
0.0
  0
ARC
  5
9B3
330
951
100
AcDbEntity
  8
0
  6
Continuous
 62
     7
370
    15
100
AcDbCircle
 10
1554.430506776377
 20
1278.323976170875
 30
0.0
 40
3.960000000000033
100
AcDbArc
 50
196.8821468762186
 51
343.1178531238101
  0
LINE
  5
9B4
330
951
100
AcDbEntity
  8
0
  6
Continuous
 62
     7
370
    15
100
AcDbLine
 10
1579.980505119368
 20
1275.823976114995
 30
0.0
 11
1578.880508850619
 21
1275.823976114995
 31
0.0
  0
LINE
  5
9B5
330
951
100
AcDbEntity
  8
0
  6
Continuous
 62
     7
370
    15
100
AcDbLine
 10
1579.980505119368
 20
1277.173976150013
 30
0.0
 11
1579.980505119368
 21
1275.823976114995
 31
0.0
  0
LINE
  5
9B6
330
951
100
AcDbEntity
  8
0
  6
Continuous
 62
     7
370
    15
100
AcDbLine
 10
1579.980505119368
 20
1277.173976150013
 30
0.0
 11
1583.219846199557
 21
1277.173976150013
 31
0.0
  0
ARC
  5
9B7
330
951
100
AcDbEntity
  8
0
  6
Continuous
 62
     7
370
    15
100
AcDbCircle
 10
1579.430506776377
 20
1278.323976170875
 30
0.0
 40
3.960000000000033
100
AcDbArc
 50
196.8821468762186
 51
343.1178531238101
  0
LINE
  5
9B8
330
951
100
AcDbEntity
  8
0
  6
Continuous
 62
     7
370
    15
100
AcDbLine
 10
1592.480500649019
 20
1275.823976114995
 30
0.0
 11
1591.380511830851
 21
1275.823976114995
 31
0.0
  0
LINE
  5
9B9
330
951
100
AcDbEntity
  8
0
  6
Continuous
 62
     7
370
    15
100
AcDbLine
 10
1592.480500649019
 20
1277.173976150013
 30
0.0
 11
1592.480500649019
 21
1275.823976114995
 31
0.0
  0
LINE
  5
9BA
330
951
100
AcDbEntity
  8
0
  6
Continuous
 62
     7
370
    15
100
AcDbLine
 10
1592.480500649019
 20
1277.173976150013
 30
0.0
 11
1595.719849179789
 21
1277.173976150013
 31
0.0
  0
ARC
  5
9BB
330
951
100
AcDbEntity
  8
0
  6
Continuous
 62
     7
370
    15
100
AcDbCircle
 10
1591.930506776377
 20
1278.323976170875
 30
0.0
 40
3.960000000000033
100
AcDbArc
 50
196.8821468762186
 51
343.1178531238101
  0
LINE
  5
9BC
330
951
100
AcDbEntity
  8
0
  6
Continuous
 62
     7
370
    15
100
AcDbLine
 10
1567.480509589716
 20
1275.823976114995
 30
0.0
 11
1566.380505870386
 21
1275.823976114995
 31
0.0
  0
LINE
  5
9BD
330
951
100
AcDbEntity
  8
0
  6
Continuous
 62
     7
370
    15
100
AcDbLine
 10
1567.480509589716
 20
1277.173976150013
 30
0.0
 11
1567.480509589716
 21
1275.823976114995
 31
0.0
  0
LINE
  5
9BE
330
951
100
AcDbEntity
  8
0
  6
Continuous
 62
     7
370
    15
100
AcDbLine
 10
1567.480509589716
 20
1277.173976150013
 30
0.0
 11
1570.719850669905
 21
1277.173976150013
 31
0.0
  0
ARC
  5
9BF
330
951
100
AcDbEntity
  8
0
  6
Continuous
 62
     7
370
    15
100
AcDbCircle
 10
1566.930506776377
 20
1278.323976170875
 30
0.0
 40
3.960000000000017
100
AcDbArc
 50
196.8821468762186
 51
343.1178531238101
  0
LINE
  5
9C0
330
951
100
AcDbEntity
  8
0
  6
Continuous
 62
     7
370
    15
100
AcDbLine
 10
1542.480503629252
 20
1275.823976114995
 30
0.0
 11
1541.380507360502
 21
1275.823976114995
 31
0.0
  0
LINE
  5
9C1
330
951
100
AcDbEntity
  8
0
  6
Continuous
 62
     7
370
    15
100
AcDbLine
 10
1542.480503629252
 20
1277.173976150013
 30
0.0
 11
1542.480503629252
 21
1275.823976114995
 31
0.0
  0
LINE
  5
9C2
330
951
100
AcDbEntity
  8
0
  6
Continuous
 62
     7
370
    15
100
AcDbLine
 10
1542.480503629252
 20
1277.173976150013
 30
0.0
 11
1545.71984470944
 21
1277.173976150013
 31
0.0
  0
ARC
  5
9C3
330
951
100
AcDbEntity
  8
0
  6
Continuous
 62
     7
370
    15
100
AcDbCircle
 10
1541.930506776377
 20
1278.323976170875
 30
0.0
 40
3.960000000000033
100
AcDbArc
 50
196.8821468762186
 51
343.1178531238101
  0
LINE
  5
9C4
330
951
100
AcDbEntity
  8
0
  6
Continuous
 62
     7
370
    15
100
AcDbLine
 10
1504.980505864426
 20
1275.823976114995
 30
0.0
 11
1503.880505870386
 21
1275.823976114995
 31
0.0
  0
LINE
  5
9C5
330
951
100
AcDbEntity
  8
0
  6
Continuous
 62
     7
370
    15
100
AcDbLine
 10
1504.980505864426
 20
1277.173976150013
 30
0.0
 11
1504.980505864426
 21
1275.823976114995
 31
0.0
  0
LINE
  5
9C6
330
951
100
AcDbEntity
  8
0
  6
Continuous
 62
     7
370
    15
100
AcDbLine
 10
1504.980505864426
 20
1277.173976150013
 30
0.0
 11
1508.219846944615
 21
1277.173976150013
 31
0.0
  0
ARC
  5
9C7
330
951
100
AcDbEntity
  8
0
  6
Continuous
 62
     7
370
    15
100
AcDbCircle
 10
1504.430506776377
 20
1278.323976170875
 30
0.0
 40
3.960000000000033
100
AcDbArc
 50
196.8821468762186
 51
343.1178531238101
  0
LINE
  5
9C8
330
951
100
AcDbEntity
  8
0
  6
Continuous
 62
     7
370
    15
100
AcDbLine
 10
1517.480505119368
 20
1275.823976114995
 30
0.0
 11
1516.380505125328
 21
1275.823976114995
 31
0.0
  0
LINE
  5
9C9
330
951
100
AcDbEntity
  8
0
  6
Continuous
 62
     7
370
    15
100
AcDbLine
 10
1517.480505119368
 20
1277.173976150013
 30
0.0
 11
1517.480505119368
 21
1275.823976114995
 31
0.0
  0
LINE
  5
9CA
330
951
100
AcDbEntity
  8
0
  6
Continuous
 62
     7
370
    15
100
AcDbLine
 10
1517.480505119368
 20
1277.173976150013
 30
0.0
 11
1520.719846199557
 21
1277.173976150013
 31
0.0
  0
ARC
  5
9CB
330
951
100
AcDbEntity
  8
0
  6
Continuous
 62
     7
370
    15
100
AcDbCircle
 10
1516.930506776377
 20
1278.323976170875
 30
0.0
 40
3.960000000000017
100
AcDbArc
 50
196.8821468762186
 51
343.1178531238101
  0
LINE
  5
9CC
330
951
100
AcDbEntity
  8
0
  6
Continuous
 62
     7
370
    15
100
AcDbLine
 10
1492.480506609484
 20
1275.823976114995
 30
0.0
 11
1491.380506615444
 21
1275.823976114995
 31
0.0
  0
LINE
  5
9CD
330
951
100
AcDbEntity
  8
0
  6
Continuous
 62
     7
370
    15
100
AcDbLine
 10
1492.480506609484
 20
1277.173976150013
 30
0.0
 11
1492.480506609484
 21
1275.823976114995
 31
0.0
  0
LINE
  5
9CE
330
951
100
AcDbEntity
  8
0
  6
Continuous
 62
     7
370
    15
100
AcDbLine
 10
1492.480506609484
 20
1277.173976150013
 30
0.0
 11
1495.719847689673
 21
1277.173976150013
 31
0.0
  0
ARC
  5
9CF
330
951
100
AcDbEntity
  8
0
  6
Continuous
 62
     7
370
    15
100
AcDbCircle
 10
1491.930506776377
 20
1278.323976170875
 30
0.0
 40
3.960000000000017
100
AcDbArc
 50
196.8821468762186
 51
343.1178531238101
  0
LINE
  5
9D0
330
951
100
AcDbEntity
  8
0
  6
Continuous
 62
     7
370
    15
100
AcDbLine
 10
1529.9805080996
 20
1275.823976114995
 30
0.0
 11
1528.88050438027
 21
1275.823976114995
 31
0.0
  0
LINE
  5
9D1
330
951
100
AcDbEntity
  8
0
  6
Continuous
 62
     7
370
    15
100
AcDbLine
 10
1529.9805080996
 20
1277.173976150013
 30
0.0
 11
1529.9805080996
 21
1275.823976114995
 31
0.0
  0
LINE
  5
9D2
330
951
100
AcDbEntity
  8
0
  6
Continuous
 62
     7
370
    15
100
AcDbLine
 10
1529.9805080996
 20
1277.173976150013
 30
0.0
 11
1533.219849179789
 21
1277.173976150013
 31
0.0
  0
ARC
  5
9D3
330
951
100
AcDbEntity
  8
0
  6
Continuous
 62
     7
370
    15
100
AcDbCircle
 10
1529.430506776377
 20
1278.323976170875
 30
0.0
 40
3.960000000000033
100
AcDbArc
 50
196.8821468762186
 51
343.1178531238101
  0
LINE
  5
9D4
330
951
100
AcDbEntity
  8
0
  6
Continuous
 62
     7
370
    15
100
AcDbLine
 10
1479.980507354542
 20
1275.823976114995
 30
0.0
 11
1478.880507360502
 21
1275.823976114995
 31
0.0
  0
LINE
  5
9D5
330
951
100
AcDbEntity
  8
0
  6
Continuous
 62
     7
370
    15
100
AcDbLine
 10
1479.980507354542
 20
1277.173976150013
 30
0.0
 11
1479.980507354542
 21
1275.823976114995
 31
0.0
  0
LINE
  5
9D6
330
951
100
AcDbEntity
  8
0
  6
Continuous
 62
     7
370
    15
100
AcDbLine
 10
1479.980507354542
 20
1277.173976150013
 30
0.0
 11
1483.219846572086
 21
1277.173976150013
 31
0.0
  0
ARC
  5
9D7
330
951
100
AcDbEntity
  8
0
  6
Continuous
 62
     7
370
    15
100
AcDbCircle
 10
1479.430506776377
 20
1278.323976170875
 30
0.0
 40
3.960000000000033
100
AcDbArc
 50
196.8821468762186
 51
343.1178531238101
  0
LINE
  5
9D8
330
951
100
AcDbEntity
  8
0
  6
Continuous
 62
     7
370
    15
100
AcDbLine
 10
1603.985329578921
 20
1275.928791814155
 30
0.0
 11
1603.880499909922
 21
1275.823976114995
 31
0.0
  0
LINE
  5
9D9
330
951
100
AcDbEntity
  8
0
  6
Continuous
 62
     7
370
    15
100
AcDbLine
 10
1603.880499909922
 20
1277.173976150013
 30
0.0
 11
1603.880499909922
 21
1275.823976114995
 31
0.0
  0
LINE
  5
9DA
330
951
100
AcDbEntity
  8
0
  6
Continuous
 62
     7
370
    15
100
AcDbLine
 10
1603.985329578921
 20
1277.901916500784
 30
0.0
 11
1603.880499909922
 21
1277.173976150013
 31
0.0
  0
LINE
  5
9DB
330
951
100
AcDbEntity
  8
0
  6
Continuous
 62
     7
370
    15
100
AcDbLine
 10
1603.985329578921
 20
1275.928791814155
 30
0.0
 11
1603.985329578921
 21
1277.901916500784
 31
0.0
  0
LINE
  5
9DC
330
951
100
AcDbEntity
  8
0
  6
Continuous
 62
     7
370
    15
100
AcDbLine
 10
1604.980503629252
 20
1275.823976114995
 30
0.0
 11
1603.880499909922
 21
1275.823976114995
 31
0.0
  0
LINE
  5
9DD
330
951
100
AcDbEntity
  8
0
  6
Continuous
 62
     7
370
    15
100
AcDbLine
 10
1604.980503629252
 20
1277.173976150013
 30
0.0
 11
1604.980503629252
 21
1275.823976114995
 31
0.0
  0
LINE
  5
9DE
330
951
100
AcDbEntity
  8
0
  6
Continuous
 62
     7
370
    15
100
AcDbLine
 10
1604.980503629252
 20
1277.173976150013
 30
0.0
 11
1608.219852160021
 21
1277.173976150013
 31
0.0
  0
ARC
  5
9DF
330
951
100
AcDbEntity
  8
0
  6
Continuous
 62
     7
370
    15
100
AcDbCircle
 10
1604.430506776377
 20
1278.323976170875
 30
0.0
 40
3.960000000000033
100
AcDbArc
 50
196.8821468762186
 51
343.1178531238101
  0
LINE
  5
9E0
330
951
100
AcDbEntity
  8
0
  6
Continuous
 62
     7
370
    15
100
AcDbLine
 10
1603.880499909922
 20
1277.173976150013
 30
0.0
 11
1600.641166280314
 21
1277.173976150013
 31
0.0
  0
LINE
  5
9E1
330
951
100
AcDbEntity
  8
0
  6
Continuous
 62
     7
370
    15
100
AcDbLine
 10
1603.985329578921
 20
1275.928791814155
 30
0.0
 11
1604.875688861414
 21
1275.928791814155
 31
0.0
  0
LINE
  5
9E2
330
951
100
AcDbEntity
  8
0
  6
Continuous
 62
     7
370
    15
100
AcDbLine
 10
1604.980503629252
 20
1275.823976114995
 30
0.0
 11
1604.875688861414
 21
1275.928791814155
 31
0.0
  0
LINE
  5
9E3
330
951
100
AcDbEntity
  8
0
  6
Continuous
 62
     7
370
    15
100
AcDbLine
 10
1616.485317657992
 20
1275.928791814155
 30
0.0
 11
1616.380502890154
 21
1275.823976114995
 31
0.0
  0
LINE
  5
9E4
330
951
100
AcDbEntity
  8
0
  6
Continuous
 62
     7
370
    15
100
AcDbLine
 10
1616.380502890154
 20
1277.173976150013
 30
0.0
 11
1616.380502890154
 21
1275.823976114995
 31
0.0
  0
LINE
  5
9E5
330
951
100
AcDbEntity
  8
0
  6
Continuous
 62
     7
370
    15
100
AcDbLine
 10
1616.485317657992
 20
1277.901916500784
 30
0.0
 11
1616.380502890154
 21
1277.173976150013
 31
0.0
  0
LINE
  5
9E6
330
951
100
AcDbEntity
  8
0
  6
Continuous
 62
     7
370
    15
100
AcDbLine
 10
1616.485317657992
 20
1275.928791814155
 30
0.0
 11
1616.485317657992
 21
1277.901916500784
 31
0.0
  0
LINE
  5
9E7
330
951
100
AcDbEntity
  8
0
  6
Continuous
 62
     7
370
    15
100
AcDbLine
 10
1617.480506609484
 20
1275.823976114995
 30
0.0
 11
1616.380502890154
 21
1275.823976114995
 31
0.0
  0
LINE
  5
9E8
330
951
100
AcDbEntity
  8
0
  6
Continuous
 62
     7
370
    15
100
AcDbLine
 10
1617.480506609484
 20
1277.173976150013
 30
0.0
 11
1617.480506609484
 21
1275.823976114995
 31
0.0
  0
LINE
  5
9E9
330
951
100
AcDbEntity
  8
0
  6
Continuous
 62
     7
370
    15
100
AcDbLine
 10
1617.480506609484
 20
1277.173976150013
 30
0.0
 11
1620.719840239092
 21
1277.173976150013
 31
0.0
  0
ARC
  5
9EA
330
951
100
AcDbEntity
  8
0
  6
Continuous
 62
     7
370
    15
100
AcDbCircle
 10
1616.930506776377
 20
1278.323976170875
 30
0.0
 40
3.960000000000033
100
AcDbArc
 50
196.8821468762186
 51
343.1178531238101
  0
LINE
  5
9EB
330
951
100
AcDbEntity
  8
0
  6
Continuous
 62
     7
370
    15
100
AcDbLine
 10
1616.380502890154
 20
1277.173976150013
 30
0.0
 11
1613.141169260546
 21
1277.173976150013
 31
0.0
  0
LINE
  5
9EC
330
951
100
AcDbEntity
  8
0
  6
Continuous
 62
     7
370
    15
100
AcDbLine
 10
1616.485317657992
 20
1275.928791814155
 30
0.0
 11
1617.375691841646
 21
1275.928791814155
 31
0.0
  0
LINE
  5
9ED
330
951
100
AcDbEntity
  8
0
  6
Continuous
 62
     7
370
    15
100
AcDbLine
 10
1617.480506609484
 20
1275.823976114995
 30
0.0
 11
1617.375691841646
 21
1275.928791814155
 31
0.0
  0
LINE
  5
9EE
330
951
100
AcDbEntity
  8
0
  6
Continuous
 62
     7
370
    15
100
AcDbLine
 10
1553.880510340735
 20
1279.473975968219
 30
0.0
 11
1553.880510340735
 21
1280.823976003237
 31
0.0
  0
LINE
  5
9EF
330
951
100
AcDbEntity
  8
0
  6
Continuous
 62
     7
370
    15
100
AcDbLine
 10
1553.880510340735
 20
1279.473975968219
 30
0.0
 11
1550.641169260546
 21
1279.473975968219
 31
0.0
  0
ARC
  5
9F0
330
951
100
AcDbEntity
  8
0
  6
Continuous
 62
     7
370
    15
100
AcDbCircle
 10
1554.430506776377
 20
1278.323976170875
 30
0.0
 40
3.960000000000022
100
AcDbArc
 50
16.88214687621865
 51
163.11785312381
  0
LINE
  5
9F1
330
951
100
AcDbEntity
  8
0
  6
Continuous
 62
     7
370
    15
100
AcDbLine
 10
1554.980506609484
 20
1279.473975968219
 30
0.0
 11
1558.219847689673
 21
1279.473975968219
 31
0.0
  0
LINE
  5
9F2
330
951
100
AcDbEntity
  8
0
  6
Continuous
 62
     7
370
    15
100
AcDbLine
 10
1554.980506609484
 20
1279.473975968219
 30
0.0
 11
1554.980506609484
 21
1280.823976003237
 31
0.0
  0
LINE
  5
9F3
330
951
100
AcDbEntity
  8
0
  6
Continuous
 62
     7
370
    15
100
AcDbLine
 10
1553.880510340735
 20
1280.823976003237
 30
0.0
 11
1554.980506609484
 21
1280.823976003237
 31
0.0
  0
LINE
  5
9F4
330
951
100
AcDbEntity
  8
0
  6
Continuous
 62
     7
370
    15
100
AcDbLine
 10
1553.880510340735
 20
1280.823976003237
 30
0.0
 11
1553.985325108572
 21
1280.719160769738
 31
0.0
  0
LINE
  5
9F5
330
951
100
AcDbEntity
  8
0
  6
Continuous
 62
     7
370
    15
100
AcDbLine
 10
1553.985325108572
 20
1278.746035617448
 30
0.0
 11
1553.985325108572
 21
1280.719160769738
 31
0.0
  0
LINE
  5
9F6
330
951
100
AcDbEntity
  8
0
  6
Continuous
 62
     7
370
    15
100
AcDbLine
 10
1553.880510340735
 20
1279.473975968219
 30
0.0
 11
1553.985325108572
 21
1278.746035617448
 31
0.0
  0
LINE
  5
9F7
330
951
100
AcDbEntity
  8
0
  6
Continuous
 62
     7
370
    15
100
AcDbLine
 10
1616.380502890154
 20
1280.823976003237
 30
0.0
 11
1616.485317657992
 21
1280.719160769738
 31
0.0
  0
LINE
  5
9F8
330
951
100
AcDbEntity
  8
0
  6
Continuous
 62
     7
370
    15
100
AcDbLine
 10
1616.485317657992
 20
1280.719160769738
 30
0.0
 11
1616.485317657992
 21
1278.746035617448
 31
0.0
  0
LINE
  5
9F9
330
951
100
AcDbEntity
  8
0
  6
Continuous
 62
     7
370
    15
100
AcDbLine
 10
1616.380502890154
 20
1279.473975968219
 30
0.0
 11
1616.485317657992
 21
1278.746035617448
 31
0.0
  0
LINE
  5
9FA
330
951
100
AcDbEntity
  8
0
  6
Continuous
 62
     7
370
    15
100
AcDbLine
 10
1616.485317657992
 20
1278.746035617448
 30
0.0
 11
1612.99306661944
 21
1278.746035617448
 31
0.0
  0
ARC
  5
9FB
330
951
100
AcDbEntity
  8
0
  6
Continuous
 62
     7
370
    15
100
AcDbCircle
 10
1616.930506776377
 20
1278.323976170875
 30
0.0
 40
3.959999999999957
100
AcDbArc
 50
163.11785312381
 51
173.8817554899398
  0
LINE
  5
9FC
330
951
100
AcDbEntity
  8
0
  6
Continuous
 62
     7
370
    15
100
AcDbLine
 10
1553.985325108572
 20
1278.746035617448
 30
0.0
 11
1550.49305916886
 21
1278.746035617448
 31
0.0
  0
ARC
  5
9FD
330
951
100
AcDbEntity
  8
0
  6
Continuous
 62
     7
370
    15
100
AcDbCircle
 10
1554.430506776377
 20
1278.323976170875
 30
0.0
 40
3.959999999999957
100
AcDbArc
 50
163.11785312381
 51
173.8817554899398
  0
LINE
  5
9FE
330
951
100
AcDbEntity
  8
0
  6
Continuous
 62
     7
370
    15
100
AcDbLine
 10
1578.880508850619
 20
1279.473975968219
 30
0.0
 11
1578.880508850619
 21
1280.823976003237
 31
0.0
  0
LINE
  5
9FF
330
951
100
AcDbEntity
  8
0
  6
Continuous
 62
     7
370
    15
100
AcDbLine
 10
1578.880508850619
 20
1279.473975968219
 30
0.0
 11
1575.64116777043
 21
1279.473975968219
 31
0.0
  0
ARC
  5
A00
330
951
100
AcDbEntity
  8
0
  6
Continuous
 62
     7
370
    15
100
AcDbCircle
 10
1579.430506776377
 20
1278.323976170875
 30
0.0
 40
3.960000000000022
100
AcDbArc
 50
16.88214687621865
 51
163.11785312381
  0
LINE
  5
A01
330
951
100
AcDbEntity
  8
0
  6
Continuous
 62
     7
370
    15
100
AcDbLine
 10
1579.980505119368
 20
1279.473975968219
 30
0.0
 11
1583.219846199557
 21
1279.473975968219
 31
0.0
  0
LINE
  5
A02
330
951
100
AcDbEntity
  8
0
  6
Continuous
 62
     7
370
    15
100
AcDbLine
 10
1579.980505119368
 20
1279.473975968219
 30
0.0
 11
1579.980505119368
 21
1280.823976003237
 31
0.0
  0
LINE
  5
A03
330
951
100
AcDbEntity
  8
0
  6
Continuous
 62
     7
370
    15
100
AcDbLine
 10
1578.880508850619
 20
1280.823976003237
 30
0.0
 11
1579.980505119368
 21
1280.823976003237
 31
0.0
  0
LINE
  5
A04
330
951
100
AcDbEntity
  8
0
  6
Continuous
 62
     7
370
    15
100
AcDbLine
 10
1528.88050438027
 20
1279.473975968219
 30
0.0
 11
1528.88050438027
 21
1280.823976003237
 31
0.0
  0
LINE
  5
A05
330
951
100
AcDbEntity
  8
0
  6
Continuous
 62
     7
370
    15
100
AcDbLine
 10
1528.88050438027
 20
1279.473975968219
 30
0.0
 11
1525.641163300081
 21
1279.473975968219
 31
0.0
  0
ARC
  5
A06
330
951
100
AcDbEntity
  8
0
  6
Continuous
 62
     7
370
    15
100
AcDbCircle
 10
1529.430506776377
 20
1278.323976170875
 30
0.0
 40
3.960000000000022
100
AcDbArc
 50
16.88214687621865
 51
163.11785312381
  0
LINE
  5
A07
330
951
100
AcDbEntity
  8
0
  6
Continuous
 62
     7
370
    15
100
AcDbLine
 10
1529.9805080996
 20
1279.473975968219
 30
0.0
 11
1533.219849179789
 21
1279.473975968219
 31
0.0
  0
LINE
  5
A08
330
951
100
AcDbEntity
  8
0
  6
Continuous
 62
     7
370
    15
100
AcDbLine
 10
1529.9805080996
 20
1279.473975968219
 30
0.0
 11
1529.9805080996
 21
1280.823976003237
 31
0.0
  0
LINE
  5
A09
330
951
100
AcDbEntity
  8
0
  6
Continuous
 62
     7
370
    15
100
AcDbLine
 10
1528.88050438027
 20
1280.823976003237
 30
0.0
 11
1529.9805080996
 21
1280.823976003237
 31
0.0
  0
LINE
  5
A0A
330
951
100
AcDbEntity
  8
0
  6
Continuous
 62
     7
370
    15
100
AcDbLine
 10
1541.380507360502
 20
1279.473975968219
 30
0.0
 11
1541.380507360502
 21
1280.823976003237
 31
0.0
  0
LINE
  5
A0B
330
951
100
AcDbEntity
  8
0
  6
Continuous
 62
     7
370
    15
100
AcDbLine
 10
1541.380507360502
 20
1279.473975968219
 30
0.0
 11
1538.141166280314
 21
1279.473975968219
 31
0.0
  0
ARC
  5
A0C
330
951
100
AcDbEntity
  8
0
  6
Continuous
 62
     7
370
    15
100
AcDbCircle
 10
1541.930506776377
 20
1278.323976170875
 30
0.0
 40
3.960000000000022
100
AcDbArc
 50
16.88214687621865
 51
163.11785312381
  0
LINE
  5
A0D
330
951
100
AcDbEntity
  8
0
  6
Continuous
 62
     7
370
    15
100
AcDbLine
 10
1542.480503629252
 20
1279.473975968219
 30
0.0
 11
1545.71984470944
 21
1279.473975968219
 31
0.0
  0
LINE
  5
A0E
330
951
100
AcDbEntity
  8
0
  6
Continuous
 62
     7
370
    15
100
AcDbLine
 10
1542.480503629252
 20
1279.473975968219
 30
0.0
 11
1542.480503629252
 21
1280.823976003237
 31
0.0
  0
LINE
  5
A0F
330
951
100
AcDbEntity
  8
0
  6
Continuous
 62
     7
370
    15
100
AcDbLine
 10
1541.380507360502
 20
1280.823976003237
 30
0.0
 11
1542.480503629252
 21
1280.823976003237
 31
0.0
  0
LINE
  5
A10
330
951
100
AcDbEntity
  8
0
  6
Continuous
 62
     7
370
    15
100
AcDbLine
 10
1528.88050438027
 20
1280.823976003237
 30
0.0
 11
1528.985319148108
 21
1280.719160769738
 31
0.0
  0
LINE
  5
A11
330
951
100
AcDbEntity
  8
0
  6
Continuous
 62
     7
370
    15
100
AcDbLine
 10
1528.985319148108
 20
1278.746035617448
 30
0.0
 11
1528.985319148108
 21
1280.719160769738
 31
0.0
  0
LINE
  5
A12
330
951
100
AcDbEntity
  8
0
  6
Continuous
 62
     7
370
    15
100
AcDbLine
 10
1528.88050438027
 20
1279.473975968219
 30
0.0
 11
1528.985319148108
 21
1278.746035617448
 31
0.0
  0
LINE
  5
A13
330
951
100
AcDbEntity
  8
0
  6
Continuous
 62
     7
370
    15
100
AcDbLine
 10
1541.380507360502
 20
1280.823976003237
 30
0.0
 11
1541.48532212834
 21
1280.719160769738
 31
0.0
  0
LINE
  5
A14
330
951
100
AcDbEntity
  8
0
  6
Continuous
 62
     7
370
    15
100
AcDbLine
 10
1541.48532212834
 20
1278.746035617448
 30
0.0
 11
1541.48532212834
 21
1280.719160769738
 31
0.0
  0
LINE
  5
A15
330
951
100
AcDbEntity
  8
0
  6
Continuous
 62
     7
370
    15
100
AcDbLine
 10
1541.380507360502
 20
1279.473975968219
 30
0.0
 11
1541.48532212834
 21
1278.746035617448
 31
0.0
  0
LINE
  5
A16
330
951
100
AcDbEntity
  8
0
  6
Continuous
 62
     7
370
    15
100
AcDbLine
 10
1578.880508850619
 20
1280.823976003237
 30
0.0
 11
1578.985323618456
 21
1280.719160769738
 31
0.0
  0
LINE
  5
A17
330
951
100
AcDbEntity
  8
0
  6
Continuous
 62
     7
370
    15
100
AcDbLine
 10
1578.985323618456
 20
1278.746035617448
 30
0.0
 11
1578.985323618456
 21
1280.719160769738
 31
0.0
  0
LINE
  5
A18
330
951
100
AcDbEntity
  8
0
  6
Continuous
 62
     7
370
    15
100
AcDbLine
 10
1578.880508850619
 20
1279.473975968219
 30
0.0
 11
1578.985323618456
 21
1278.746035617448
 31
0.0
  0
LINE
  5
A19
330
951
100
AcDbEntity
  8
0
  6
Continuous
 62
     7
370
    15
100
AcDbLine
 10
1578.985323618456
 20
1278.746035617448
 30
0.0
 11
1575.493065129324
 21
1278.746035617448
 31
0.0
  0
ARC
  5
A1A
330
951
100
AcDbEntity
  8
0
  6
Continuous
 62
     7
370
    15
100
AcDbCircle
 10
1579.430506776377
 20
1278.323976170875
 30
0.0
 40
3.960000000000014
100
AcDbArc
 50
163.11785312381
 51
173.8817554899398
  0
LINE
  5
A1B
330
951
100
AcDbEntity
  8
0
  6
Continuous
 62
     7
370
    15
100
AcDbLine
 10
1541.48532212834
 20
1278.746035617448
 30
0.0
 11
1537.993063639208
 21
1278.746035617448
 31
0.0
  0
ARC
  5
A1C
330
951
100
AcDbEntity
  8
0
  6
Continuous
 62
     7
370
    15
100
AcDbCircle
 10
1541.930506776377
 20
1278.323976170875
 30
0.0
 40
3.96
100
AcDbArc
 50
163.11785312381
 51
173.8817554899398
  0
LINE
  5
A1D
330
951
100
AcDbEntity
  8
0
  6
Continuous
 62
     7
370
    15
100
AcDbLine
 10
1528.985319148108
 20
1278.746035617448
 30
0.0
 11
1525.493060658976
 21
1278.746035617448
 31
0.0
  0
ARC
  5
A1E
330
951
100
AcDbEntity
  8
0
  6
Continuous
 62
     7
370
    15
100
AcDbCircle
 10
1529.430506776377
 20
1278.323976170875
 30
0.0
 40
3.959999999999986
100
AcDbArc
 50
163.11785312381
 51
173.8817554899398
  0
LINE
  5
A1F
330
951
100
AcDbEntity
  8
0
  6
Continuous
 62
     7
370
    15
100
AcDbLine
 10
1554.980506609484
 20
1277.173976150013
 30
0.0
 11
1554.875691841646
 21
1277.901916500784
 31
0.0
  0
LINE
  5
A20
330
951
100
AcDbEntity
  8
0
  6
Continuous
 62
     7
370
    15
100
AcDbLine
 10
1554.875691841646
 20
1277.901916500784
 30
0.0
 11
1558.367950330778
 21
1277.901916500784
 31
0.0
  0
ARC
  5
A21
330
951
100
AcDbEntity
  8
0
  6
Continuous
 62
     7
370
    15
100
AcDbCircle
 10
1554.430506776377
 20
1278.323976170875
 30
0.0
 40
3.960000000000076
100
AcDbArc
 50
343.1178531238101
 51
353.8817554899398
  0
LINE
  5
A22
330
951
100
AcDbEntity
  8
0
  6
Continuous
 62
     7
370
    15
100
AcDbLine
 10
1542.480503629252
 20
1277.173976150013
 30
0.0
 11
1542.375688861414
 21
1277.901916500784
 31
0.0
  0
LINE
  5
A23
330
951
100
AcDbEntity
  8
0
  6
Continuous
 62
     7
370
    15
100
AcDbLine
 10
1542.375688861414
 20
1277.901916500784
 30
0.0
 11
1545.867947350546
 21
1277.901916500784
 31
0.0
  0
ARC
  5
A24
330
951
100
AcDbEntity
  8
0
  6
Continuous
 62
     7
370
    15
100
AcDbCircle
 10
1541.930506776377
 20
1278.323976170875
 30
0.0
 40
3.960000000000033
100
AcDbArc
 50
343.1178531238101
 51
353.8817554899398
  0
LINE
  5
A25
330
951
100
AcDbEntity
  8
0
  6
Continuous
 62
     7
370
    15
100
AcDbLine
 10
1554.980506609484
 20
1275.823976114995
 30
0.0
 11
1554.875691841646
 21
1275.928791814155
 31
0.0
  0
LINE
  5
A26
330
951
100
AcDbEntity
  8
0
  6
Continuous
 62
     7
370
    15
100
AcDbLine
 10
1554.875691841646
 20
1275.928791814155
 30
0.0
 11
1554.875691841646
 21
1277.901916500784
 31
0.0
  0
LINE
  5
A27
330
951
100
AcDbEntity
  8
0
  6
Continuous
 62
     7
370
    15
100
AcDbLine
 10
1529.9805080996
 20
1277.173976150013
 30
0.0
 11
1529.875693331763
 21
1277.901916500784
 31
0.0
  0
LINE
  5
A28
330
951
100
AcDbEntity
  8
0
  6
Continuous
 62
     7
370
    15
100
AcDbLine
 10
1529.875693331763
 20
1277.901916500784
 30
0.0
 11
1533.367951820894
 21
1277.901916500784
 31
0.0
  0
ARC
  5
A29
330
951
100
AcDbEntity
  8
0
  6
Continuous
 62
     7
370
    15
100
AcDbCircle
 10
1529.430506776377
 20
1278.323976170875
 30
0.0
 40
3.960000000000048
100
AcDbArc
 50
343.1178531238101
 51
353.8817554899398
  0
LINE
  5
A2A
330
951
100
AcDbEntity
  8
0
  6
Continuous
 62
     7
370
    15
100
AcDbLine
 10
1529.9805080996
 20
1275.823976114995
 30
0.0
 11
1529.875693331763
 21
1275.928791814155
 31
0.0
  0
LINE
  5
A2B
330
951
100
AcDbEntity
  8
0
  6
Continuous
 62
     7
370
    15
100
AcDbLine
 10
1529.875693331763
 20
1275.928791814155
 30
0.0
 11
1529.875693331763
 21
1277.901916500784
 31
0.0
  0
LINE
  5
A2C
330
951
100
AcDbEntity
  8
0
  6
Continuous
 62
     7
370
    15
100
AcDbLine
 10
1542.480503629252
 20
1275.823976114995
 30
0.0
 11
1542.375688861414
 21
1275.928791814155
 31
0.0
  0
LINE
  5
A2D
330
951
100
AcDbEntity
  8
0
  6
Continuous
 62
     7
370
    15
100
AcDbLine
 10
1542.375688861414
 20
1275.928791814155
 30
0.0
 11
1542.375688861414
 21
1277.901916500784
 31
0.0
  0
LINE
  5
A2E
330
951
100
AcDbEntity
  8
0
  6
Continuous
 62
     7
370
    15
100
AcDbLine
 10
1542.375688861414
 20
1280.719160769738
 30
0.0
 11
1542.480503629252
 21
1280.823976003237
 31
0.0
  0
LINE
  5
A2F
330
951
100
AcDbEntity
  8
0
  6
Continuous
 62
     7
370
    15
100
AcDbLine
 10
1542.375688861414
 20
1278.746035617448
 30
0.0
 11
1542.480503629252
 21
1279.473975968219
 31
0.0
  0
LINE
  5
A30
330
951
100
AcDbEntity
  8
0
  6
Continuous
 62
     7
370
    15
100
AcDbLine
 10
1542.375688861414
 20
1280.719160769738
 30
0.0
 11
1542.375688861414
 21
1278.746035617448
 31
0.0
  0
LINE
  5
A31
330
951
100
AcDbEntity
  8
0
  6
Continuous
 62
     7
370
    15
100
AcDbLine
 10
1529.875693331763
 20
1280.719160769738
 30
0.0
 11
1529.9805080996
 21
1280.823976003237
 31
0.0
  0
LINE
  5
A32
330
951
100
AcDbEntity
  8
0
  6
Continuous
 62
     7
370
    15
100
AcDbLine
 10
1529.875693331763
 20
1280.719160769738
 30
0.0
 11
1528.985319148108
 21
1280.719160769738
 31
0.0
  0
LINE
  5
A33
330
951
100
AcDbEntity
  8
0
  6
Continuous
 62
     7
370
    15
100
AcDbLine
 10
1542.375688861414
 20
1280.719160769738
 30
0.0
 11
1541.48532212834
 21
1280.719160769738
 31
0.0
  0
LINE
  5
A34
330
951
100
AcDbEntity
  8
0
  6
Continuous
 62
     7
370
    15
100
AcDbLine
 10
1529.875693331763
 20
1278.746035617448
 30
0.0
 11
1529.9805080996
 21
1279.473975968219
 31
0.0
  0
LINE
  5
A35
330
951
100
AcDbEntity
  8
0
  6
Continuous
 62
     7
370
    15
100
AcDbLine
 10
1529.875693331763
 20
1280.719160769738
 30
0.0
 11
1529.875693331763
 21
1278.746035617448
 31
0.0
  0
LINE
  5
A36
330
951
100
AcDbEntity
  8
0
  6
Continuous
 62
     7
370
    15
100
AcDbLine
 10
1503.880505870386
 20
1279.473975968219
 30
0.0
 11
1503.880505870386
 21
1280.823976003237
 31
0.0
  0
LINE
  5
A37
330
951
100
AcDbEntity
  8
0
  6
Continuous
 62
     7
370
    15
100
AcDbLine
 10
1503.880505870386
 20
1279.473975968219
 30
0.0
 11
1500.641164790198
 21
1279.473975968219
 31
0.0
  0
ARC
  5
A38
330
951
100
AcDbEntity
  8
0
  6
Continuous
 62
     7
370
    15
100
AcDbCircle
 10
1504.430506776377
 20
1278.323976170875
 30
0.0
 40
3.959999999999973
100
AcDbArc
 50
16.88214687621865
 51
163.11785312381
  0
LINE
  5
A39
330
951
100
AcDbEntity
  8
0
  6
Continuous
 62
     7
370
    15
100
AcDbLine
 10
1504.980505864426
 20
1279.473975968219
 30
0.0
 11
1508.219846944615
 21
1279.473975968219
 31
0.0
  0
LINE
  5
A3A
330
951
100
AcDbEntity
  8
0
  6
Continuous
 62
     7
370
    15
100
AcDbLine
 10
1504.980505864426
 20
1279.473975968219
 30
0.0
 11
1504.980505864426
 21
1280.823976003237
 31
0.0
  0
LINE
  5
A3B
330
951
100
AcDbEntity
  8
0
  6
Continuous
 62
     7
370
    15
100
AcDbLine
 10
1503.880505870386
 20
1280.823976003237
 30
0.0
 11
1504.980505864426
 21
1280.823976003237
 31
0.0
  0
LINE
  5
A3C
330
951
100
AcDbEntity
  8
0
  6
Continuous
 62
     7
370
    15
100
AcDbLine
 10
1491.380506615444
 20
1279.473975968219
 30
0.0
 11
1491.380506615444
 21
1280.823976003237
 31
0.0
  0
LINE
  5
A3D
330
951
100
AcDbEntity
  8
0
  6
Continuous
 62
     7
370
    15
100
AcDbLine
 10
1491.380506615444
 20
1279.473975968219
 30
0.0
 11
1488.141165535256
 21
1279.473975968219
 31
0.0
  0
ARC
  5
A3E
330
951
100
AcDbEntity
  8
0
  6
Continuous
 62
     7
370
    15
100
AcDbCircle
 10
1491.930506776377
 20
1278.323976170875
 30
0.0
 40
3.96
100
AcDbArc
 50
16.88214687621865
 51
163.11785312381
  0
LINE
  5
A3F
330
951
100
AcDbEntity
  8
0
  6
Continuous
 62
     7
370
    15
100
AcDbLine
 10
1492.480506609484
 20
1279.473975968219
 30
0.0
 11
1495.719847689673
 21
1279.473975968219
 31
0.0
  0
LINE
  5
A40
330
951
100
AcDbEntity
  8
0
  6
Continuous
 62
     7
370
    15
100
AcDbLine
 10
1492.480506609484
 20
1279.473975968219
 30
0.0
 11
1492.480506609484
 21
1280.823976003237
 31
0.0
  0
LINE
  5
A41
330
951
100
AcDbEntity
  8
0
  6
Continuous
 62
     7
370
    15
100
AcDbLine
 10
1491.380506615444
 20
1280.823976003237
 30
0.0
 11
1492.480506609484
 21
1280.823976003237
 31
0.0
  0
LINE
  5
A42
330
951
100
AcDbEntity
  8
0
  6
Continuous
 62
     7
370
    15
100
AcDbLine
 10
1491.380506615444
 20
1280.823976003237
 30
0.0
 11
1491.485323245927
 21
1280.719160769738
 31
0.0
  0
LINE
  5
A43
330
951
100
AcDbEntity
  8
0
  6
Continuous
 62
     7
370
    15
100
AcDbLine
 10
1491.485323245927
 20
1278.746035617448
 30
0.0
 11
1491.485323245927
 21
1280.719160769738
 31
0.0
  0
LINE
  5
A44
330
951
100
AcDbEntity
  8
0
  6
Continuous
 62
     7
370
    15
100
AcDbLine
 10
1491.380506615444
 20
1279.473975968219
 30
0.0
 11
1491.485323245927
 21
1278.746035617448
 31
0.0
  0
LINE
  5
A45
330
951
100
AcDbEntity
  8
0
  6
Continuous
 62
     7
370
    15
100
AcDbLine
 10
1503.880505870386
 20
1280.823976003237
 30
0.0
 11
1503.985320638224
 21
1280.719160769738
 31
0.0
  0
LINE
  5
A46
330
951
100
AcDbEntity
  8
0
  6
Continuous
 62
     7
370
    15
100
AcDbLine
 10
1503.985320638224
 20
1278.746035617448
 30
0.0
 11
1503.985320638224
 21
1280.719160769738
 31
0.0
  0
LINE
  5
A47
330
951
100
AcDbEntity
  8
0
  6
Continuous
 62
     7
370
    15
100
AcDbLine
 10
1503.880505870386
 20
1279.473975968219
 30
0.0
 11
1503.985320638224
 21
1278.746035617448
 31
0.0
  0
LINE
  5
A48
330
951
100
AcDbEntity
  8
0
  6
Continuous
 62
     7
370
    15
100
AcDbLine
 10
1503.985320638224
 20
1278.746035617448
 30
0.0
 11
1500.493062149092
 21
1278.746035617448
 31
0.0
  0
ARC
  5
A49
330
951
100
AcDbEntity
  8
0
  6
Continuous
 62
     7
370
    15
100
AcDbCircle
 10
1504.430506776377
 20
1278.323976170875
 30
0.0
 40
3.959999999999986
100
AcDbArc
 50
163.11785312381
 51
173.8817554899398
  0
LINE
  5
A4A
330
951
100
AcDbEntity
  8
0
  6
Continuous
 62
     7
370
    15
100
AcDbLine
 10
1491.485323245927
 20
1278.746035617448
 30
0.0
 11
1487.99306289415
 21
1278.746035617448
 31
0.0
  0
ARC
  5
A4B
330
951
100
AcDbEntity
  8
0
  6
Continuous
 62
     7
370
    15
100
AcDbCircle
 10
1491.930506776377
 20
1278.323976170875
 30
0.0
 40
3.96
100
AcDbArc
 50
163.11785312381
 51
173.8817554899398
  0
LINE
  5
A4C
330
951
100
AcDbEntity
  8
0
  6
Continuous
 62
     7
370
    15
100
AcDbLine
 10
1479.980507354542
 20
1277.173976150013
 30
0.0
 11
1479.875690724059
 21
1277.901916500784
 31
0.0
  0
LINE
  5
A4D
330
951
100
AcDbEntity
  8
0
  6
Continuous
 62
     7
370
    15
100
AcDbLine
 10
1479.875690724059
 20
1277.901916500784
 30
0.0
 11
1483.367951075836
 21
1277.901916500784
 31
0.0
  0
ARC
  5
A4E
330
951
100
AcDbEntity
  8
0
  6
Continuous
 62
     7
370
    15
100
AcDbCircle
 10
1479.430506776377
 20
1278.323976170875
 30
0.0
 40
3.960000000000033
100
AcDbArc
 50
343.1178531238101
 51
353.8817554899398
  0
LINE
  5
A4F
330
951
100
AcDbEntity
  8
0
  6
Continuous
 62
     7
370
    15
100
AcDbLine
 10
1504.980505864426
 20
1275.823976114995
 30
0.0
 11
1504.875691096588
 21
1275.928791814155
 31
0.0
  0
LINE
  5
A50
330
951
100
AcDbEntity
  8
0
  6
Continuous
 62
     7
370
    15
100
AcDbLine
 10
1504.875691096588
 20
1275.928791814155
 30
0.0
 11
1504.875691096588
 21
1277.901916500784
 31
0.0
  0
LINE
  5
A51
330
951
100
AcDbEntity
  8
0
  6
Continuous
 62
     7
370
    15
100
AcDbLine
 10
1504.980505864426
 20
1277.173976150013
 30
0.0
 11
1504.875691096588
 21
1277.901916500784
 31
0.0
  0
LINE
  5
A52
330
951
100
AcDbEntity
  8
0
  6
Continuous
 62
     7
370
    15
100
AcDbLine
 10
1516.380505125328
 20
1279.473975968219
 30
0.0
 11
1516.380505125328
 21
1280.823976003237
 31
0.0
  0
LINE
  5
A53
330
951
100
AcDbEntity
  8
0
  6
Continuous
 62
     7
370
    15
100
AcDbLine
 10
1516.380505125328
 20
1279.473975968219
 30
0.0
 11
1513.14116777043
 21
1279.473975968219
 31
0.0
  0
ARC
  5
A54
330
951
100
AcDbEntity
  8
0
  6
Continuous
 62
     7
370
    15
100
AcDbCircle
 10
1516.930506776377
 20
1278.323976170875
 30
0.0
 40
3.96
100
AcDbArc
 50
16.88214687621865
 51
163.11785312381
  0
LINE
  5
A55
330
951
100
AcDbEntity
  8
0
  6
Continuous
 62
     7
370
    15
100
AcDbLine
 10
1517.480505119368
 20
1279.473975968219
 30
0.0
 11
1520.719846199557
 21
1279.473975968219
 31
0.0
  0
LINE
  5
A56
330
951
100
AcDbEntity
  8
0
  6
Continuous
 62
     7
370
    15
100
AcDbLine
 10
1517.480505119368
 20
1279.473975968219
 30
0.0
 11
1517.480505119368
 21
1280.823976003237
 31
0.0
  0
LINE
  5
A57
330
951
100
AcDbEntity
  8
0
  6
Continuous
 62
     7
370
    15
100
AcDbLine
 10
1516.380505125328
 20
1280.823976003237
 30
0.0
 11
1517.480505119368
 21
1280.823976003237
 31
0.0
  0
LINE
  5
A58
330
951
100
AcDbEntity
  8
0
  6
Continuous
 62
     7
370
    15
100
AcDbLine
 10
1517.480505119368
 20
1275.823976114995
 30
0.0
 11
1517.37569035153
 21
1275.928791814155
 31
0.0
  0
LINE
  5
A59
330
951
100
AcDbEntity
  8
0
  6
Continuous
 62
     7
370
    15
100
AcDbLine
 10
1517.37569035153
 20
1275.928791814155
 30
0.0
 11
1517.37569035153
 21
1277.901916500784
 31
0.0
  0
LINE
  5
A5A
330
951
100
AcDbEntity
  8
0
  6
Continuous
 62
     7
370
    15
100
AcDbLine
 10
1517.480505119368
 20
1277.173976150013
 30
0.0
 11
1517.37569035153
 21
1277.901916500784
 31
0.0
  0
LINE
  5
A5B
330
951
100
AcDbEntity
  8
0
  6
Continuous
 62
     7
370
    15
100
AcDbLine
 10
1504.875691096588
 20
1277.901916500784
 30
0.0
 11
1508.36794958572
 21
1277.901916500784
 31
0.0
  0
ARC
  5
A5C
330
951
100
AcDbEntity
  8
0
  6
Continuous
 62
     7
370
    15
100
AcDbCircle
 10
1504.430506776377
 20
1278.323976170875
 30
0.0
 40
3.960000000000033
100
AcDbArc
 50
343.1178531238101
 51
353.8817554899398
  0
LINE
  5
A5D
330
951
100
AcDbEntity
  8
0
  6
Continuous
 62
     7
370
    15
100
AcDbLine
 10
1479.980507354542
 20
1275.823976114995
 30
0.0
 11
1479.875690724059
 21
1275.928791814155
 31
0.0
  0
LINE
  5
A5E
330
951
100
AcDbEntity
  8
0
  6
Continuous
 62
     7
370
    15
100
AcDbLine
 10
1479.875690724059
 20
1275.928791814155
 30
0.0
 11
1479.875690724059
 21
1277.901916500784
 31
0.0
  0
LINE
  5
A5F
330
951
100
AcDbEntity
  8
0
  6
Continuous
 62
     7
370
    15
100
AcDbLine
 10
1492.480506609484
 20
1277.173976150013
 30
0.0
 11
1492.375691841646
 21
1277.901916500784
 31
0.0
  0
LINE
  5
A60
330
951
100
AcDbEntity
  8
0
  6
Continuous
 62
     7
370
    15
100
AcDbLine
 10
1492.375691841646
 20
1277.901916500784
 30
0.0
 11
1495.867950330778
 21
1277.901916500784
 31
0.0
  0
ARC
  5
A61
330
951
100
AcDbEntity
  8
0
  6
Continuous
 62
     7
370
    15
100
AcDbCircle
 10
1491.930506776377
 20
1278.323976170875
 30
0.0
 40
3.960000000000006
100
AcDbArc
 50
343.1178531238101
 51
353.8817554899398
  0
LINE
  5
A62
330
951
100
AcDbEntity
  8
0
  6
Continuous
 62
     7
370
    15
100
AcDbLine
 10
1517.37569035153
 20
1277.901916500784
 30
0.0
 11
1520.867952565953
 21
1277.901916500784
 31
0.0
  0
ARC
  5
A63
330
951
100
AcDbEntity
  8
0
  6
Continuous
 62
     7
370
    15
100
AcDbCircle
 10
1516.930506776377
 20
1278.323976170875
 30
0.0
 40
3.960000000000006
100
AcDbArc
 50
343.1178531238101
 51
353.8817554899398
  0
LINE
  5
A64
330
951
100
AcDbEntity
  8
0
  6
Continuous
 62
     7
370
    15
100
AcDbLine
 10
1492.480506609484
 20
1275.823976114995
 30
0.0
 11
1492.375691841646
 21
1275.928791814155
 31
0.0
  0
LINE
  5
A65
330
951
100
AcDbEntity
  8
0
  6
Continuous
 62
     7
370
    15
100
AcDbLine
 10
1492.375691841646
 20
1275.928791814155
 30
0.0
 11
1492.375691841646
 21
1277.901916500784
 31
0.0
  0
LINE
  5
A66
330
951
100
AcDbEntity
  8
0
  6
Continuous
 62
     7
370
    15
100
AcDbLine
 10
1517.37569035153
 20
1280.719160769738
 30
0.0
 11
1517.480505119368
 21
1280.823976003237
 31
0.0
  0
LINE
  5
A67
330
951
100
AcDbEntity
  8
0
  6
Continuous
 62
     7
370
    15
100
AcDbLine
 10
1517.37569035153
 20
1278.746035617448
 30
0.0
 11
1517.480505119368
 21
1279.473975968219
 31
0.0
  0
LINE
  5
A68
330
951
100
AcDbEntity
  8
0
  6
Continuous
 62
     7
370
    15
100
AcDbLine
 10
1517.37569035153
 20
1280.719160769738
 30
0.0
 11
1517.37569035153
 21
1278.746035617448
 31
0.0
  0
LINE
  5
A69
330
951
100
AcDbEntity
  8
0
  6
Continuous
 62
     7
370
    15
100
AcDbLine
 10
1478.880507360502
 20
1279.473975968219
 30
0.0
 11
1478.880507360502
 21
1280.823976003237
 31
0.0
  0
LINE
  5
A6A
330
951
100
AcDbEntity
  8
0
  6
Continuous
 62
     7
370
    15
100
AcDbLine
 10
1478.880507360502
 20
1279.473975968219
 30
0.0
 11
1475.641166280314
 21
1279.473975968219
 31
0.0
  0
ARC
  5
A6B
330
951
100
AcDbEntity
  8
0
  6
Continuous
 62
     7
370
    15
100
AcDbCircle
 10
1479.430506776377
 20
1278.323976170875
 30
0.0
 40
3.96
100
AcDbArc
 50
16.88214687621865
 51
163.11785312381
  0
LINE
  5
A6C
330
951
100
AcDbEntity
  8
0
  6
Continuous
 62
     7
370
    15
100
AcDbLine
 10
1479.980507354542
 20
1279.473975968219
 30
0.0
 11
1483.219846572086
 21
1279.473975968219
 31
0.0
  0
LINE
  5
A6D
330
951
100
AcDbEntity
  8
0
  6
Continuous
 62
     7
370
    15
100
AcDbLine
 10
1479.980507354542
 20
1279.473975968219
 30
0.0
 11
1479.980507354542
 21
1280.823976003237
 31
0.0
  0
LINE
  5
A6E
330
951
100
AcDbEntity
  8
0
  6
Continuous
 62
     7
370
    15
100
AcDbLine
 10
1478.880507360502
 20
1280.823976003237
 30
0.0
 11
1479.980507354542
 21
1280.823976003237
 31
0.0
  0
LINE
  5
A6F
330
951
100
AcDbEntity
  8
0
  6
Continuous
 62
     7
370
    15
100
AcDbLine
 10
1517.37569035153
 20
1280.719160769738
 30
0.0
 11
1516.485323618456
 21
1280.719160769738
 31
0.0
  0
LINE
  5
A70
330
951
100
AcDbEntity
  8
0
  6
Continuous
 62
     7
370
    15
100
AcDbLine
 10
1516.380505125328
 20
1280.823976003237
 30
0.0
 11
1516.485323618456
 21
1280.719160769738
 31
0.0
  0
LINE
  5
A71
330
951
100
AcDbEntity
  8
0
  6
Continuous
 62
     7
370
    15
100
AcDbLine
 10
1478.880507360502
 20
1280.823976003237
 30
0.0
 11
1478.98532212834
 21
1280.719160769738
 31
0.0
  0
LINE
  5
A72
330
951
100
AcDbEntity
  8
0
  6
Continuous
 62
     7
370
    15
100
AcDbLine
 10
1478.98532212834
 20
1278.746035617448
 30
0.0
 11
1478.98532212834
 21
1280.719160769738
 31
0.0
  0
LINE
  5
A73
330
951
100
AcDbEntity
  8
0
  6
Continuous
 62
     7
370
    15
100
AcDbLine
 10
1478.880507360502
 20
1279.473975968219
 30
0.0
 11
1478.98532212834
 21
1278.746035617448
 31
0.0
  0
LINE
  5
A74
330
951
100
AcDbEntity
  8
0
  6
Continuous
 62
     7
370
    15
100
AcDbLine
 10
1478.98532212834
 20
1278.746035617448
 30
0.0
 11
1475.493062707885
 21
1278.746035617448
 31
0.0
  0
ARC
  5
A75
330
951
100
AcDbEntity
  8
0
  6
Continuous
 62
     7
370
    15
100
AcDbCircle
 10
1479.430506776377
 20
1278.323976170875
 30
0.0
 40
3.960000000000014
100
AcDbArc
 50
163.11785312381
 51
173.8817554899398
  0
LINE
  5
A76
330
951
100
AcDbEntity
  8
0
  6
Continuous
 62
     7
370
    15
100
AcDbLine
 10
1566.380505870386
 20
1279.473975968219
 30
0.0
 11
1566.380505870386
 21
1280.823976003237
 31
0.0
  0
LINE
  5
A77
330
951
100
AcDbEntity
  8
0
  6
Continuous
 62
     7
370
    15
100
AcDbLine
 10
1566.380505870386
 20
1279.473975968219
 30
0.0
 11
1563.141164790198
 21
1279.473975968219
 31
0.0
  0
ARC
  5
A78
330
951
100
AcDbEntity
  8
0
  6
Continuous
 62
     7
370
    15
100
AcDbCircle
 10
1566.930506776377
 20
1278.323976170875
 30
0.0
 40
3.960000000000022
100
AcDbArc
 50
16.88214687621865
 51
163.11785312381
  0
LINE
  5
A79
330
951
100
AcDbEntity
  8
0
  6
Continuous
 62
     7
370
    15
100
AcDbLine
 10
1567.480509589716
 20
1279.473975968219
 30
0.0
 11
1570.719850669905
 21
1279.473975968219
 31
0.0
  0
LINE
  5
A7A
330
951
100
AcDbEntity
  8
0
  6
Continuous
 62
     7
370
    15
100
AcDbLine
 10
1567.480509589716
 20
1279.473975968219
 30
0.0
 11
1567.480509589716
 21
1280.823976003237
 31
0.0
  0
LINE
  5
A7B
330
951
100
AcDbEntity
  8
0
  6
Continuous
 62
     7
370
    15
100
AcDbLine
 10
1566.380505870386
 20
1280.823976003237
 30
0.0
 11
1567.480509589716
 21
1280.823976003237
 31
0.0
  0
LINE
  5
A7C
330
951
100
AcDbEntity
  8
0
  6
Continuous
 62
     7
370
    15
100
AcDbLine
 10
1591.380511830851
 20
1279.473975968219
 30
0.0
 11
1591.380511830851
 21
1280.823976003237
 31
0.0
  0
LINE
  5
A7D
330
951
100
AcDbEntity
  8
0
  6
Continuous
 62
     7
370
    15
100
AcDbLine
 10
1591.380511830851
 20
1279.473975968219
 30
0.0
 11
1588.141163300081
 21
1279.473975968219
 31
0.0
  0
ARC
  5
A7E
330
951
100
AcDbEntity
  8
0
  6
Continuous
 62
     7
370
    15
100
AcDbCircle
 10
1591.930506776377
 20
1278.323976170875
 30
0.0
 40
3.960000000000022
100
AcDbArc
 50
16.88214687621865
 51
163.11785312381
  0
LINE
  5
A7F
330
951
100
AcDbEntity
  8
0
  6
Continuous
 62
     7
370
    15
100
AcDbLine
 10
1592.480500649019
 20
1279.473975968219
 30
0.0
 11
1595.719849179789
 21
1279.473975968219
 31
0.0
  0
LINE
  5
A80
330
951
100
AcDbEntity
  8
0
  6
Continuous
 62
     7
370
    15
100
AcDbLine
 10
1592.480500649019
 20
1279.473975968219
 30
0.0
 11
1592.480500649019
 21
1280.823976003237
 31
0.0
  0
LINE
  5
A81
330
951
100
AcDbEntity
  8
0
  6
Continuous
 62
     7
370
    15
100
AcDbLine
 10
1591.380511830851
 20
1280.823976003237
 30
0.0
 11
1592.480500649019
 21
1280.823976003237
 31
0.0
  0
LINE
  5
A82
330
951
100
AcDbEntity
  8
0
  6
Continuous
 62
     7
370
    15
100
AcDbLine
 10
1492.375691841646
 20
1280.719160769738
 30
0.0
 11
1492.480506609484
 21
1280.823976003237
 31
0.0
  0
LINE
  5
A83
330
951
100
AcDbEntity
  8
0
  6
Continuous
 62
     7
370
    15
100
AcDbLine
 10
1492.375691841646
 20
1278.746035617448
 30
0.0
 11
1492.480506609484
 21
1279.473975968219
 31
0.0
  0
LINE
  5
A84
330
951
100
AcDbEntity
  8
0
  6
Continuous
 62
     7
370
    15
100
AcDbLine
 10
1492.375691841646
 20
1280.719160769738
 30
0.0
 11
1492.375691841646
 21
1278.746035617448
 31
0.0
  0
LINE
  5
A85
330
951
100
AcDbEntity
  8
0
  6
Continuous
 62
     7
370
    15
100
AcDbLine
 10
1492.375691841646
 20
1280.719160769738
 30
0.0
 11
1491.485323245927
 21
1280.719160769738
 31
0.0
  0
LINE
  5
A86
330
951
100
AcDbEntity
  8
0
  6
Continuous
 62
     7
370
    15
100
AcDbLine
 10
1603.880499909922
 20
1280.823976003237
 30
0.0
 11
1603.985329578921
 21
1280.719160769738
 31
0.0
  0
LINE
  5
A87
330
951
100
AcDbEntity
  8
0
  6
Continuous
 62
     7
370
    15
100
AcDbLine
 10
1603.985329578921
 20
1280.719160769738
 30
0.0
 11
1603.985329578921
 21
1278.746035617448
 31
0.0
  0
LINE
  5
A88
330
951
100
AcDbEntity
  8
0
  6
Continuous
 62
     7
370
    15
100
AcDbLine
 10
1603.880499909922
 20
1279.473975968219
 30
0.0
 11
1603.985329578921
 21
1278.746035617448
 31
0.0
  0
LINE
  5
A89
330
951
100
AcDbEntity
  8
0
  6
Continuous
 62
     7
370
    15
100
AcDbLine
 10
1591.380511830851
 20
1280.823976003237
 30
0.0
 11
1591.485326598688
 21
1280.719160769738
 31
0.0
  0
LINE
  5
A8A
330
951
100
AcDbEntity
  8
0
  6
Continuous
 62
     7
370
    15
100
AcDbLine
 10
1591.485326598688
 20
1278.746035617448
 30
0.0
 11
1591.485326598688
 21
1280.719160769738
 31
0.0
  0
LINE
  5
A8B
330
951
100
AcDbEntity
  8
0
  6
Continuous
 62
     7
370
    15
100
AcDbLine
 10
1591.380511830851
 20
1279.473975968219
 30
0.0
 11
1591.485326598688
 21
1278.746035617448
 31
0.0
  0
LINE
  5
A8C
330
951
100
AcDbEntity
  8
0
  6
Continuous
 62
     7
370
    15
100
AcDbLine
 10
1566.380505870386
 20
1280.823976003237
 30
0.0
 11
1566.485320638224
 21
1280.719160769738
 31
0.0
  0
LINE
  5
A8D
330
951
100
AcDbEntity
  8
0
  6
Continuous
 62
     7
370
    15
100
AcDbLine
 10
1566.485320638224
 20
1278.746035617448
 30
0.0
 11
1566.485320638224
 21
1280.719160769738
 31
0.0
  0
LINE
  5
A8E
330
951
100
AcDbEntity
  8
0
  6
Continuous
 62
     7
370
    15
100
AcDbLine
 10
1566.380505870386
 20
1279.473975968219
 30
0.0
 11
1566.485320638224
 21
1278.746035617448
 31
0.0
  0
LINE
  5
A8F
330
951
100
AcDbEntity
  8
0
  6
Continuous
 62
     7
370
    15
100
AcDbLine
 10
1516.485323618456
 20
1278.746035617448
 30
0.0
 11
1516.485323618456
 21
1280.719160769738
 31
0.0
  0
LINE
  5
A90
330
951
100
AcDbEntity
  8
0
  6
Continuous
 62
     7
370
    15
100
AcDbLine
 10
1516.380505125328
 20
1279.473975968219
 30
0.0
 11
1516.485323618456
 21
1278.746035617448
 31
0.0
  0
LINE
  5
A91
330
951
100
AcDbEntity
  8
0
  6
Continuous
 62
     7
370
    15
100
AcDbLine
 10
1603.985329578921
 20
1278.746035617448
 30
0.0
 11
1600.493063639208
 21
1278.746035617448
 31
0.0
  0
ARC
  5
A92
330
951
100
AcDbEntity
  8
0
  6
Continuous
 62
     7
370
    15
100
AcDbCircle
 10
1604.430506776377
 20
1278.323976170875
 30
0.0
 40
3.96
100
AcDbArc
 50
163.11785312381
 51
173.8817554899398
  0
LINE
  5
A93
330
951
100
AcDbEntity
  8
0
  6
Continuous
 62
     7
370
    15
100
AcDbLine
 10
1566.485320638224
 20
1278.746035617448
 30
0.0
 11
1562.993062149092
 21
1278.746035617448
 31
0.0
  0
ARC
  5
A94
330
951
100
AcDbEntity
  8
0
  6
Continuous
 62
     7
370
    15
100
AcDbCircle
 10
1566.930506776377
 20
1278.323976170875
 30
0.0
 40
3.960000000000014
100
AcDbArc
 50
163.11785312381
 51
173.8817554899398
  0
LINE
  5
A95
330
951
100
AcDbEntity
  8
0
  6
Continuous
 62
     7
370
    15
100
AcDbLine
 10
1591.485326598688
 20
1278.746035617448
 30
0.0
 11
1587.993060658976
 21
1278.746035617448
 31
0.0
  0
ARC
  5
A96
330
951
100
AcDbEntity
  8
0
  6
Continuous
 62
     7
370
    15
100
AcDbCircle
 10
1591.930506776377
 20
1278.323976170875
 30
0.0
 40
3.960000000000014
100
AcDbArc
 50
163.11785312381
 51
173.8817554899398
  0
LINE
  5
A97
330
951
100
AcDbEntity
  8
0
  6
Continuous
 62
     7
370
    15
100
AcDbLine
 10
1516.485323618456
 20
1278.746035617448
 30
0.0
 11
1512.993061404034
 21
1278.746035617448
 31
0.0
  0
ARC
  5
A98
330
951
100
AcDbEntity
  8
0
  6
Continuous
 62
     7
370
    15
100
AcDbCircle
 10
1516.930506776377
 20
1278.323976170875
 30
0.0
 40
3.960000000000042
100
AcDbArc
 50
163.11785312381
 51
173.8817554899398
  0
LINE
  5
A99
330
951
100
AcDbEntity
  8
0
  6
Continuous
 62
     7
370
    15
100
AcDbLine
 10
1579.980505119368
 20
1277.173976150013
 30
0.0
 11
1579.87569035153
 21
1277.901916500784
 31
0.0
  0
LINE
  5
A9A
330
951
100
AcDbEntity
  8
0
  6
Continuous
 62
     7
370
    15
100
AcDbLine
 10
1579.87569035153
 20
1277.901916500784
 30
0.0
 11
1583.367948840662
 21
1277.901916500784
 31
0.0
  0
ARC
  5
A9B
330
951
100
AcDbEntity
  8
0
  6
Continuous
 62
     7
370
    15
100
AcDbCircle
 10
1579.430506776377
 20
1278.323976170875
 30
0.0
 40
3.960000000000033
100
AcDbArc
 50
343.1178531238101
 51
353.8817554899398
  0
LINE
  5
A9C
330
951
100
AcDbEntity
  8
0
  6
Continuous
 62
     7
370
    15
100
AcDbLine
 10
1567.480509589716
 20
1277.173976150013
 30
0.0
 11
1567.375694821879
 21
1277.901916500784
 31
0.0
  0
LINE
  5
A9D
330
951
100
AcDbEntity
  8
0
  6
Continuous
 62
     7
370
    15
100
AcDbLine
 10
1567.375694821879
 20
1277.901916500784
 30
0.0
 11
1570.867953311011
 21
1277.901916500784
 31
0.0
  0
ARC
  5
A9E
330
951
100
AcDbEntity
  8
0
  6
Continuous
 62
     7
370
    15
100
AcDbCircle
 10
1566.930506776377
 20
1278.323976170875
 30
0.0
 40
3.959999999999979
100
AcDbArc
 50
343.1178531238101
 51
353.8817554899398
  0
LINE
  5
A9F
330
951
100
AcDbEntity
  8
0
  6
Continuous
 62
     7
370
    15
100
AcDbLine
 10
1604.875688861414
 20
1277.901916500784
 30
0.0
 11
1604.875688861414
 21
1275.928791814155
 31
0.0
  0
LINE
  5
AA0
330
951
100
AcDbEntity
  8
0
  6
Continuous
 62
     7
370
    15
100
AcDbLine
 10
1604.980503629252
 20
1277.173976150013
 30
0.0
 11
1604.875688861414
 21
1277.901916500784
 31
0.0
  0
LINE
  5
AA1
330
951
100
AcDbEntity
  8
0
  6
Continuous
 62
     7
370
    15
100
AcDbLine
 10
1579.980505119368
 20
1275.823976114995
 30
0.0
 11
1579.87569035153
 21
1275.928791814155
 31
0.0
  0
LINE
  5
AA2
330
951
100
AcDbEntity
  8
0
  6
Continuous
 62
     7
370
    15
100
AcDbLine
 10
1579.87569035153
 20
1275.928791814155
 30
0.0
 11
1579.87569035153
 21
1277.901916500784
 31
0.0
  0
LINE
  5
AA3
330
951
100
AcDbEntity
  8
0
  6
Continuous
 62
     7
370
    15
100
AcDbLine
 10
1604.875688861414
 20
1277.901916500784
 30
0.0
 11
1608.367954801127
 21
1277.901916500784
 31
0.0
  0
ARC
  5
AA4
330
951
100
AcDbEntity
  8
0
  6
Continuous
 62
     7
370
    15
100
AcDbCircle
 10
1604.430506776377
 20
1278.323976170875
 30
0.0
 40
3.960000000000033
100
AcDbArc
 50
343.1178531238101
 51
353.8817554899398
  0
LINE
  5
AA5
330
951
100
AcDbEntity
  8
0
  6
Continuous
 62
     7
370
    15
100
AcDbLine
 10
1617.375691841646
 20
1277.901916500784
 30
0.0
 11
1617.375691841646
 21
1275.928791814155
 31
0.0
  0
LINE
  5
AA6
330
951
100
AcDbEntity
  8
0
  6
Continuous
 62
     7
370
    15
100
AcDbLine
 10
1617.480506609484
 20
1277.173976150013
 30
0.0
 11
1617.375691841646
 21
1277.901916500784
 31
0.0
  0
LINE
  5
AA7
330
951
100
AcDbEntity
  8
0
  6
Continuous
 62
     7
370
    15
100
AcDbLine
 10
1592.480500649019
 20
1275.823976114995
 30
0.0
 11
1592.375685881182
 21
1275.928791814155
 31
0.0
  0
LINE
  5
AA8
330
951
100
AcDbEntity
  8
0
  6
Continuous
 62
     7
370
    15
100
AcDbLine
 10
1592.375685881182
 20
1275.928791814155
 30
0.0
 11
1592.375685881182
 21
1277.901916500784
 31
0.0
  0
LINE
  5
AA9
330
951
100
AcDbEntity
  8
0
  6
Continuous
 62
     7
370
    15
100
AcDbLine
 10
1592.480500649019
 20
1277.173976150013
 30
0.0
 11
1592.375685881182
 21
1277.901916500784
 31
0.0
  0
LINE
  5
AAA
330
951
100
AcDbEntity
  8
0
  6
Continuous
 62
     7
370
    15
100
AcDbLine
 10
1617.375691841646
 20
1277.901916500784
 30
0.0
 11
1620.867957781359
 21
1277.901916500784
 31
0.0
  0
ARC
  5
AAB
330
951
100
AcDbEntity
  8
0
  6
Continuous
 62
     7
370
    15
100
AcDbCircle
 10
1616.930506776377
 20
1278.323976170875
 30
0.0
 40
3.960000000000033
100
AcDbArc
 50
343.1178531238101
 51
353.8817554899398
  0
LINE
  5
AAC
330
951
100
AcDbEntity
  8
0
  6
Continuous
 62
     7
370
    15
100
AcDbLine
 10
1567.480509589716
 20
1275.823976114995
 30
0.0
 11
1567.375694821879
 21
1275.928791814155
 31
0.0
  0
LINE
  5
AAD
330
951
100
AcDbEntity
  8
0
  6
Continuous
 62
     7
370
    15
100
AcDbLine
 10
1567.375694821879
 20
1275.928791814155
 30
0.0
 11
1567.375694821879
 21
1277.901916500784
 31
0.0
  0
LINE
  5
AAE
330
951
100
AcDbEntity
  8
0
  6
Continuous
 62
     7
370
    15
100
AcDbLine
 10
1592.375685881182
 20
1277.901916500784
 30
0.0
 11
1595.867951820894
 21
1277.901916500784
 31
0.0
  0
ARC
  5
AAF
330
951
100
AcDbEntity
  8
0
  6
Continuous
 62
     7
370
    15
100
AcDbCircle
 10
1591.930506776377
 20
1278.323976170875
 30
0.0
 40
3.960000000000076
100
AcDbArc
 50
343.1178531238101
 51
353.8817554899398
  0
LINE
  5
AB0
330
951
100
AcDbEntity
  8
0
  6
Continuous
 62
     7
370
    15
100
AcDbLine
 10
1579.87569035153
 20
1280.719160769738
 30
0.0
 11
1579.980505119368
 21
1280.823976003237
 31
0.0
  0
LINE
  5
AB1
330
951
100
AcDbEntity
  8
0
  6
Continuous
 62
     7
370
    15
100
AcDbLine
 10
1579.87569035153
 20
1278.746035617448
 30
0.0
 11
1579.980505119368
 21
1279.473975968219
 31
0.0
  0
LINE
  5
AB2
330
951
100
AcDbEntity
  8
0
  6
Continuous
 62
     7
370
    15
100
AcDbLine
 10
1579.87569035153
 20
1280.719160769738
 30
0.0
 11
1579.87569035153
 21
1278.746035617448
 31
0.0
  0
LINE
  5
AB3
330
951
100
AcDbEntity
  8
0
  6
Continuous
 62
     7
370
    15
100
AcDbLine
 10
1592.375685881182
 20
1280.719160769738
 30
0.0
 11
1592.480500649019
 21
1280.823976003237
 31
0.0
  0
LINE
  5
AB4
330
951
100
AcDbEntity
  8
0
  6
Continuous
 62
     7
370
    15
100
AcDbLine
 10
1592.375685881182
 20
1280.719160769738
 30
0.0
 11
1591.485326598688
 21
1280.719160769738
 31
0.0
  0
LINE
  5
AB5
330
951
100
AcDbEntity
  8
0
  6
Continuous
 62
     7
370
    15
100
AcDbLine
 10
1504.875691096588
 20
1280.719160769738
 30
0.0
 11
1504.980505864426
 21
1280.823976003237
 31
0.0
  0
LINE
  5
AB6
330
951
100
AcDbEntity
  8
0
  6
Continuous
 62
     7
370
    15
100
AcDbLine
 10
1504.875691096588
 20
1280.719160769738
 30
0.0
 11
1503.985320638224
 21
1280.719160769738
 31
0.0
  0
LINE
  5
AB7
330
951
100
AcDbEntity
  8
0
  6
Continuous
 62
     7
370
    15
100
AcDbLine
 10
1554.875691841646
 20
1280.719160769738
 30
0.0
 11
1554.980506609484
 21
1280.823976003237
 31
0.0
  0
LINE
  5
AB8
330
951
100
AcDbEntity
  8
0
  6
Continuous
 62
     7
370
    15
100
AcDbLine
 10
1554.875691841646
 20
1278.746035617448
 30
0.0
 11
1554.980506609484
 21
1279.473975968219
 31
0.0
  0
LINE
  5
AB9
330
951
100
AcDbEntity
  8
0
  6
Continuous
 62
     7
370
    15
100
AcDbLine
 10
1554.875691841646
 20
1280.719160769738
 30
0.0
 11
1554.875691841646
 21
1278.746035617448
 31
0.0
  0
LINE
  5
ABA
330
951
100
AcDbEntity
  8
0
  6
Continuous
 62
     7
370
    15
100
AcDbLine
 10
1579.87569035153
 20
1280.719160769738
 30
0.0
 11
1578.985323618456
 21
1280.719160769738
 31
0.0
  0
LINE
  5
ABB
330
951
100
AcDbEntity
  8
0
  6
Continuous
 62
     7
370
    15
100
AcDbLine
 10
1504.875691096588
 20
1278.746035617448
 30
0.0
 11
1504.980505864426
 21
1279.473975968219
 31
0.0
  0
LINE
  5
ABC
330
951
100
AcDbEntity
  8
0
  6
Continuous
 62
     7
370
    15
100
AcDbLine
 10
1504.875691096588
 20
1280.719160769738
 30
0.0
 11
1504.875691096588
 21
1278.746035617448
 31
0.0
  0
LINE
  5
ABD
330
951
100
AcDbEntity
  8
0
  6
Continuous
 62
     7
370
    15
100
AcDbLine
 10
1592.375685881182
 20
1278.746035617448
 30
0.0
 11
1592.480500649019
 21
1279.473975968219
 31
0.0
  0
LINE
  5
ABE
330
951
100
AcDbEntity
  8
0
  6
Continuous
 62
     7
370
    15
100
AcDbLine
 10
1592.375685881182
 20
1280.719160769738
 30
0.0
 11
1592.375685881182
 21
1278.746035617448
 31
0.0
  0
LINE
  5
ABF
330
951
100
AcDbEntity
  8
0
  6
Continuous
 62
     7
370
    15
100
AcDbLine
 10
1479.875690724059
 20
1280.719160769738
 30
0.0
 11
1479.980507354542
 21
1280.823976003237
 31
0.0
  0
LINE
  5
AC0
330
951
100
AcDbEntity
  8
0
  6
Continuous
 62
     7
370
    15
100
AcDbLine
 10
1479.875690724059
 20
1280.719160769738
 30
0.0
 11
1478.98532212834
 21
1280.719160769738
 31
0.0
  0
LINE
  5
AC1
330
951
100
AcDbEntity
  8
0
  6
Continuous
 62
     7
370
    15
100
AcDbLine
 10
1479.875690724059
 20
1278.746035617448
 30
0.0
 11
1479.980507354542
 21
1279.473975968219
 31
0.0
  0
LINE
  5
AC2
330
951
100
AcDbEntity
  8
0
  6
Continuous
 62
     7
370
    15
100
AcDbLine
 10
1479.875690724059
 20
1280.719160769738
 30
0.0
 11
1479.875690724059
 21
1278.746035617448
 31
0.0
  0
LINE
  5
AC3
330
951
100
AcDbEntity
  8
0
  6
Continuous
 62
     7
370
    15
100
AcDbLine
 10
1554.875691841646
 20
1280.719160769738
 30
0.0
 11
1553.985325108572
 21
1280.719160769738
 31
0.0
  0
LINE
  5
AC4
330
951
100
AcDbEntity
  8
0
  6
Continuous
 62
     7
370
    15
100
AcDbLine
 10
1567.375694821879
 20
1280.719160769738
 30
0.0
 11
1567.480509589716
 21
1280.823976003237
 31
0.0
  0
LINE
  5
AC5
330
951
100
AcDbEntity
  8
0
  6
Continuous
 62
     7
370
    15
100
AcDbLine
 10
1567.375694821879
 20
1280.719160769738
 30
0.0
 11
1566.485320638224
 21
1280.719160769738
 31
0.0
  0
LINE
  5
AC6
330
951
100
AcDbEntity
  8
0
  6
Continuous
 62
     7
370
    15
100
AcDbLine
 10
1567.375694821879
 20
1278.746035617448
 30
0.0
 11
1567.480509589716
 21
1279.473975968219
 31
0.0
  0
LINE
  5
AC7
330
951
100
AcDbEntity
  8
0
  6
Continuous
 62
     7
370
    15
100
AcDbLine
 10
1567.375694821879
 20
1280.719160769738
 30
0.0
 11
1567.375694821879
 21
1278.746035617448
 31
0.0
  0
ARC
  5
AC8
330
951
100
AcDbEntity
  8
0
  6
Continuous
 62
     7
370
    15
100
AcDbCircle
 10
1616.930506776377
 20
1278.323976170875
 30
0.0
 40
3.960000000000001
100
AcDbArc
 50
186.1182445100861
 51
196.8821468762186
  0
LINE
  5
AC9
330
951
100
AcDbEntity
  8
0
  6
Continuous
 62
     7
370
    15
100
AcDbLine
 10
1612.99306661944
 20
1277.901916500784
 30
0.0
 11
1616.485317657992
 21
1277.901916500784
 31
0.0
  0
ARC
  5
ACA
330
951
100
AcDbEntity
  8
0
  6
Continuous
 62
     7
370
    15
100
AcDbCircle
 10
1604.430506776377
 20
1278.323976170875
 30
0.0
 40
3.960000000000001
100
AcDbArc
 50
186.1182445100861
 51
196.8821468762186
  0
LINE
  5
ACB
330
951
100
AcDbEntity
  8
0
  6
Continuous
 62
     7
370
    15
100
AcDbLine
 10
1600.493063639208
 20
1277.901916500784
 30
0.0
 11
1603.985329578921
 21
1277.901916500784
 31
0.0
  0
LINE
  5
ACC
330
951
100
AcDbEntity
  8
0
  6
Continuous
 62
     7
370
    15
100
AcDbLine
 10
1603.985329578921
 20
1280.719160769738
 30
0.0
 11
1604.875688861414
 21
1280.719160769738
 31
0.0
  0
LINE
  5
ACD
330
951
100
AcDbEntity
  8
0
  6
Continuous
 62
     7
370
    15
100
AcDbLine
 10
1616.485317657992
 20
1280.719160769738
 30
0.0
 11
1617.375691841646
 21
1280.719160769738
 31
0.0
  0
LINE
  5
ACE
330
951
100
AcDbEntity
  8
0
  6
Continuous
 62
     7
370
    15
100
AcDbLine
 10
1554.875691841646
 20
1275.928791814155
 30
0.0
 11
1553.985325108572
 21
1275.928791814155
 31
0.0
  0
LINE
  5
ACF
330
951
100
AcDbEntity
  8
0
  6
Continuous
 62
     7
370
    15
100
AcDbLine
 10
1579.87569035153
 20
1275.928791814155
 30
0.0
 11
1578.985323618456
 21
1275.928791814155
 31
0.0
  0
LINE
  5
AD0
330
951
100
AcDbEntity
  8
0
  6
Continuous
 62
     7
370
    15
100
AcDbLine
 10
1592.375685881182
 20
1275.928791814155
 30
0.0
 11
1591.485326598688
 21
1275.928791814155
 31
0.0
  0
LINE
  5
AD1
330
951
100
AcDbEntity
  8
0
  6
Continuous
 62
     7
370
    15
100
AcDbLine
 10
1529.875693331763
 20
1275.928791814155
 30
0.0
 11
1528.985319148108
 21
1275.928791814155
 31
0.0
  0
LINE
  5
AD2
330
951
100
AcDbEntity
  8
0
  6
Continuous
 62
     7
370
    15
100
AcDbLine
 10
1492.375691841646
 20
1275.928791814155
 30
0.0
 11
1491.485323245927
 21
1275.928791814155
 31
0.0
  0
LINE
  5
AD3
330
951
100
AcDbEntity
  8
0
  6
Continuous
 62
     7
370
    15
100
AcDbLine
 10
1517.37569035153
 20
1275.928791814155
 30
0.0
 11
1516.485323618456
 21
1275.928791814155
 31
0.0
  0
LINE
  5
AD4
330
951
100
AcDbEntity
  8
0
  6
Continuous
 62
     7
370
    15
100
AcDbLine
 10
1504.875691096588
 20
1275.928791814155
 30
0.0
 11
1503.985320638224
 21
1275.928791814155
 31
0.0
  0
LINE
  5
AD5
330
951
100
AcDbEntity
  8
0
  6
Continuous
 62
     7
370
    15
100
AcDbLine
 10
1479.875690724059
 20
1275.928791814155
 30
0.0
 11
1478.98532212834
 21
1275.928791814155
 31
0.0
  0
LINE
  5
AD6
330
951
100
AcDbEntity
  8
0
  6
Continuous
 62
     7
370
    15
100
AcDbLine
 10
1542.375688861414
 20
1275.928791814155
 30
0.0
 11
1541.48532212834
 21
1275.928791814155
 31
0.0
  0
LINE
  5
AD7
330
951
100
AcDbEntity
  8
0
  6
Continuous
 62
     7
370
    15
100
AcDbLine
 10
1567.375694821879
 20
1275.928791814155
 30
0.0
 11
1566.485320638224
 21
1275.928791814155
 31
0.0
  0
ARC
  5
AD8
330
951
100
AcDbEntity
  8
0
  6
Continuous
 62
     7
370
    15
100
AcDbCircle
 10
1554.430506776377
 20
1278.323976170875
 30
0.0
 40
3.96000000000003
100
AcDbArc
 50
6.118244510086123
 51
16.88214687621865
  0
LINE
  5
AD9
330
951
100
AcDbEntity
  8
0
  6
Continuous
 62
     7
370
    15
100
AcDbLine
 10
1558.367950330778
 20
1278.746035617448
 30
0.0
 11
1554.875691841646
 21
1278.746035617448
 31
0.0
  0
ARC
  5
ADA
330
951
100
AcDbEntity
  8
0
  6
Continuous
 62
     7
370
    15
100
AcDbCircle
 10
1529.430506776377
 20
1278.323976170875
 30
0.0
 40
3.960000000000022
100
AcDbArc
 50
6.118244510086123
 51
16.88214687621865
  0
LINE
  5
ADB
330
951
100
AcDbEntity
  8
0
  6
Continuous
 62
     7
370
    15
100
AcDbLine
 10
1533.367951820894
 20
1278.746035617448
 30
0.0
 11
1529.875693331763
 21
1278.746035617448
 31
0.0
  0
ARC
  5
ADC
330
951
100
AcDbEntity
  8
0
  6
Continuous
 62
     7
370
    15
100
AcDbCircle
 10
1579.430506776377
 20
1278.323976170875
 30
0.0
 40
3.960000000000022
100
AcDbArc
 50
6.118244510086123
 51
16.88214687621865
  0
LINE
  5
ADD
330
951
100
AcDbEntity
  8
0
  6
Continuous
 62
     7
370
    15
100
AcDbLine
 10
1583.367948840662
 20
1278.746035617448
 30
0.0
 11
1579.87569035153
 21
1278.746035617448
 31
0.0
  0
ARC
  5
ADE
330
951
100
AcDbEntity
  8
0
  6
Continuous
 62
     7
370
    15
100
AcDbCircle
 10
1491.930506776377
 20
1278.323976170875
 30
0.0
 40
3.960000000000002
100
AcDbArc
 50
6.118244510086123
 51
16.88214687621865
  0
LINE
  5
ADF
330
951
100
AcDbEntity
  8
0
  6
Continuous
 62
     7
370
    15
100
AcDbLine
 10
1495.867950330778
 20
1278.746035617448
 30
0.0
 11
1492.375691841646
 21
1278.746035617448
 31
0.0
  0
ARC
  5
AE0
330
951
100
AcDbEntity
  8
0
  6
Continuous
 62
     7
370
    15
100
AcDbCircle
 10
1541.930506776377
 20
1278.323976170875
 30
0.0
 40
3.96000000000003
100
AcDbArc
 50
6.118244510086123
 51
16.88214687621865
  0
LINE
  5
AE1
330
951
100
AcDbEntity
  8
0
  6
Continuous
 62
     7
370
    15
100
AcDbLine
 10
1545.867947350546
 20
1278.746035617448
 30
0.0
 11
1542.375688861414
 21
1278.746035617448
 31
0.0
  0
ARC
  5
AE2
330
951
100
AcDbEntity
  8
0
  6
Continuous
 62
     7
370
    15
100
AcDbCircle
 10
1591.930506776377
 20
1278.323976170875
 30
0.0
 40
3.96000000000003
100
AcDbArc
 50
6.118244510086123
 51
16.88214687621865
  0
LINE
  5
AE3
330
951
100
AcDbEntity
  8
0
  6
Continuous
 62
     7
370
    15
100
AcDbLine
 10
1595.867951820894
 20
1278.746035617448
 30
0.0
 11
1592.375685881182
 21
1278.746035617448
 31
0.0
  0
ARC
  5
AE4
330
951
100
AcDbEntity
  8
0
  6
Continuous
 62
     7
370
    15
100
AcDbCircle
 10
1516.930506776377
 20
1278.323976170875
 30
0.0
 40
3.959999999999974
100
AcDbArc
 50
6.118244510086123
 51
16.88214687621865
  0
LINE
  5
AE5
330
951
100
AcDbEntity
  8
0
  6
Continuous
 62
     7
370
    15
100
AcDbLine
 10
1520.867952565953
 20
1278.746035617448
 30
0.0
 11
1517.37569035153
 21
1278.746035617448
 31
0.0
  0
ARC
  5
AE6
330
951
100
AcDbEntity
  8
0
  6
Continuous
 62
     7
370
    15
100
AcDbCircle
 10
1566.930506776377
 20
1278.323976170875
 30
0.0
 40
3.960000000000022
100
AcDbArc
 50
6.118244510086123
 51
16.88214687621865
  0
LINE
  5
AE7
330
951
100
AcDbEntity
  8
0
  6
Continuous
 62
     7
370
    15
100
AcDbLine
 10
1570.867953311011
 20
1278.746035617448
 30
0.0
 11
1567.375694821879
 21
1278.746035617448
 31
0.0
  0
ARC
  5
AE8
330
951
100
AcDbEntity
  8
0
  6
Continuous
 62
     7
370
    15
100
AcDbCircle
 10
1479.430506776377
 20
1278.323976170875
 30
0.0
 40
3.960000000000002
100
AcDbArc
 50
6.118244510086123
 51
16.88214687621865
  0
LINE
  5
AE9
330
951
100
AcDbEntity
  8
0
  6
Continuous
 62
     7
370
    15
100
AcDbLine
 10
1483.367951075836
 20
1278.746035617448
 30
0.0
 11
1479.875690724059
 21
1278.746035617448
 31
0.0
  0
ARC
  5
AEA
330
951
100
AcDbEntity
  8
0
  6
Continuous
 62
     7
370
    15
100
AcDbCircle
 10
1504.430506776377
 20
1278.323976170875
 30
0.0
 40
3.960000000000002
100
AcDbArc
 50
6.118244510086123
 51
16.88214687621865
  0
LINE
  5
AEB
330
951
100
AcDbEntity
  8
0
  6
Continuous
 62
     7
370
    15
100
AcDbLine
 10
1508.36794958572
 20
1278.746035617448
 30
0.0
 11
1504.875691096588
 21
1278.746035617448
 31
0.0
  0
ARC
  5
AEC
330
951
100
AcDbEntity
  8
0
  6
Continuous
 62
     7
370
    15
100
AcDbCircle
 10
1616.930506776377
 20
1278.323976170875
 30
0.0
 40
3.959999999999957
100
AcDbArc
 50
173.8817554899398
 51
186.1182445100861
  0
ARC
  5
AED
330
951
100
AcDbEntity
  8
0
  6
Continuous
 62
     7
370
    15
100
AcDbCircle
 10
1616.930506776377
 20
1278.323976170875
 30
0.0
 40
3.96000000000003
100
AcDbArc
 50
353.8817554899398
 51
6.118244510086123
  0
ARC
  5
AEE
330
951
100
AcDbEntity
  8
0
  6
Continuous
 62
     7
370
    15
100
AcDbCircle
 10
1604.430506776377
 20
1278.323976170875
 30
0.0
 40
3.959999999999986
100
AcDbArc
 50
173.8817554899398
 51
186.1182445100861
  0
ARC
  5
AEF
330
951
100
AcDbEntity
  8
0
  6
Continuous
 62
     7
370
    15
100
AcDbCircle
 10
1604.430506776377
 20
1278.323976170875
 30
0.0
 40
3.96000000000003
100
AcDbArc
 50
353.8817554899398
 51
6.118244510086123
  0
ARC
  5
AF0
330
951
100
AcDbEntity
  8
0
  6
Continuous
 62
     7
370
    15
100
AcDbCircle
 10
1579.430506776377
 20
1278.323976170875
 30
0.0
 40
3.960000000000014
100
AcDbArc
 50
173.8817554899398
 51
186.1182445100861
  0
ARC
  5
AF1
330
951
100
AcDbEntity
  8
0
  6
Continuous
 62
     7
370
    15
100
AcDbCircle
 10
1579.430506776377
 20
1278.323976170875
 30
0.0
 40
3.96000000000002
100
AcDbArc
 50
353.8817554899398
 51
6.118244510086123
  0
ARC
  5
AF2
330
951
100
AcDbEntity
  8
0
  6
Continuous
 62
     7
370
    15
100
AcDbCircle
 10
1516.930506776377
 20
1278.323976170875
 30
0.0
 40
3.960000000000042
100
AcDbArc
 50
173.8817554899398
 51
186.1182445100861
  0
ARC
  5
AF3
330
951
100
AcDbEntity
  8
0
  6
Continuous
 62
     7
370
    15
100
AcDbCircle
 10
1516.930506776377
 20
1278.323976170875
 30
0.0
 40
3.959999999999991
100
AcDbArc
 50
353.8817554899398
 51
6.118244510086123
  0
ARC
  5
AF4
330
951
100
AcDbEntity
  8
0
  6
Continuous
 62
     7
370
    15
100
AcDbCircle
 10
1529.430506776377
 20
1278.323976170875
 30
0.0
 40
3.959999999999986
100
AcDbArc
 50
173.8817554899398
 51
186.1182445100861
  0
ARC
  5
AF5
330
951
100
AcDbEntity
  8
0
  6
Continuous
 62
     7
370
    15
100
AcDbCircle
 10
1529.430506776377
 20
1278.323976170875
 30
0.0
 40
3.960000000000048
100
AcDbArc
 50
353.8817554899398
 51
6.118244510086123
  0
ARC
  5
AF6
330
951
100
AcDbEntity
  8
0
  6
Continuous
 62
     7
370
    15
100
AcDbCircle
 10
1541.930506776377
 20
1278.323976170875
 30
0.0
 40
3.959999999999986
100
AcDbArc
 50
173.8817554899398
 51
186.1182445100861
  0
ARC
  5
AF7
330
951
100
AcDbEntity
  8
0
  6
Continuous
 62
     7
370
    15
100
AcDbCircle
 10
1541.930506776377
 20
1278.323976170875
 30
0.0
 40
3.96000000000003
100
AcDbArc
 50
353.8817554899398
 51
6.118244510086123
  0
ARC
  5
AF8
330
951
100
AcDbEntity
  8
0
  6
Continuous
 62
     7
370
    15
100
AcDbCircle
 10
1504.430506776377
 20
1278.323976170875
 30
0.0
 40
3.960000000000014
100
AcDbArc
 50
173.8817554899398
 51
186.1182445100861
  0
ARC
  5
AF9
330
951
100
AcDbEntity
  8
0
  6
Continuous
 62
     7
370
    15
100
AcDbCircle
 10
1504.430506776377
 20
1278.323976170875
 30
0.0
 40
3.960000000000002
100
AcDbArc
 50
353.8817554899398
 51
6.118244510086123
  0
ARC
  5
AFA
330
951
100
AcDbEntity
  8
0
  6
Continuous
 62
     7
370
    15
100
AcDbCircle
 10
1491.930506776377
 20
1278.323976170875
 30
0.0
 40
3.960000000000014
100
AcDbArc
 50
173.8817554899398
 51
186.1182445100861
  0
ARC
  5
AFB
330
951
100
AcDbEntity
  8
0
  6
Continuous
 62
     7
370
    15
100
AcDbCircle
 10
1491.930506776377
 20
1278.323976170875
 30
0.0
 40
3.960000000000002
100
AcDbArc
 50
353.8817554899398
 51
6.118244510086123
  0
ARC
  5
AFC
330
951
100
AcDbEntity
  8
0
  6
Continuous
 62
     7
370
    15
100
AcDbCircle
 10
1566.930506776377
 20
1278.323976170875
 30
0.0
 40
3.960000000000042
100
AcDbArc
 50
173.8817554899398
 51
186.1182445100861
  0
ARC
  5
AFD
330
951
100
AcDbEntity
  8
0
  6
Continuous
 62
     7
370
    15
100
AcDbCircle
 10
1566.930506776377
 20
1278.323976170875
 30
0.0
 40
3.959999999999974
100
AcDbArc
 50
353.8817554899398
 51
6.118244510086123
  0
ARC
  5
AFE
330
951
100
AcDbEntity
  8
0
  6
Continuous
 62
     7
370
    15
100
AcDbCircle
 10
1479.430506776377
 20
1278.323976170875
 30
0.0
 40
3.960000000000014
100
AcDbArc
 50
173.8817554899398
 51
186.1182445100861
  0
ARC
  5
AFF
330
951
100
AcDbEntity
  8
0
  6
Continuous
 62
     7
370
    15
100
AcDbCircle
 10
1479.430506776377
 20
1278.323976170875
 30
0.0
 40
3.96000000000002
100
AcDbArc
 50
353.8817554899398
 51
6.118244510086123
  0
ARC
  5
B00
330
951
100
AcDbEntity
  8
0
  6
Continuous
 62
     7
370
    15
100
AcDbCircle
 10
1554.430506776377
 20
1278.323976170875
 30
0.0
 40
3.959999999999957
100
AcDbArc
 50
173.8817554899398
 51
186.1182445100861
  0
ARC
  5
B01
330
951
100
AcDbEntity
  8
0
  6
Continuous
 62
     7
370
    15
100
AcDbCircle
 10
1554.430506776377
 20
1278.323976170875
 30
0.0
 40
3.960000000000076
100
AcDbArc
 50
353.8817554899398
 51
6.118244510086123
  0
ARC
  5
B02
330
951
100
AcDbEntity
  8
0
  6
Continuous
 62
     7
370
    15
100
AcDbCircle
 10
1591.930506776377
 20
1278.323976170875
 30
0.0
 40
3.960000000000014
100
AcDbArc
 50
173.8817554899398
 51
186.1182445100861
  0
ARC
  5
B03
330
951
100
AcDbEntity
  8
0
  6
Continuous
 62
     7
370
    15
100
AcDbCircle
 10
1591.930506776377
 20
1278.323976170875
 30
0.0
 40
3.960000000000076
100
AcDbArc
 50
353.8817554899398
 51
6.118244510086123
  0
CIRCLE
  5
B04
330
951
100
AcDbEntity
  8
0
  6
Continuous
 62
     7
370
    15
100
AcDbCircle
 10
1629.430506776377
 20
1278.323976170875
 30
0.0
 40
4.0
  0
LINE
  5
B05
330
951
100
AcDbEntity
  8
0
  6
Continuous
 62
     7
370
    15
100
AcDbLine
 10
1634.680499743029
 20
1273.323976170875
 30
0.0
 11
1461.680506776377
 21
1273.323976170875
 31
0.0
  0
LINE
  5
B06
330
951
100
AcDbEntity
  8
0
  6
Continuous
 62
     7
370
    15
100
AcDbLine
 10
1461.680506776377
 20
1283.323975947357
 30
0.0
 11
1461.680506776377
 21
1273.323976170875
 31
0.0
  0
LINE
  5
B07
330
951
100
AcDbEntity
  8
0
  6
Continuous
 62
     7
370
    15
100
AcDbLine
 10
1634.680499743029
 20
1283.323975947357
 30
0.0
 11
1461.680506776377
 21
1283.323975947357
 31
0.0
  0
LINE
  5
B08
330
951
100
AcDbEntity
  8
0
  6
Continuous
 62
     7
370
    15
100
AcDbLine
 10
1634.680499743029
 20
1283.323975947357
 30
0.0
 11
1634.680499743029
 21
1273.323976170875
 31
0.0
  0
CIRCLE
  5
B09
330
951
100
AcDbEntity
  8
0
  6
Continuous
 62
     7
370
    15
100
AcDbCircle
 10
1466.930506776377
 20
1278.323976170875
 30
0.0
 40
4.000000000000028
  0
CIRCLE
  5
B0A
330
951
100
AcDbEntity
  8
0
  6
Continuous
 62
     7
370
    15
100
AcDbCircle
 10
1629.430506776377
 20
1278.323976170875
 30
0.0
 40
2.999999999999943
  0
CIRCLE
  5
B0B
330
951
100
AcDbEntity
  8
0
  6
Continuous
 62
     7
370
    15
100
AcDbCircle
 10
1466.930506776377
 20
1278.323976170875
 30
0.0
 40
2.999999999999971
  0
ENDBLK
  5
953
330
951
100
AcDbEntity
  8
0
100
AcDbBlockEnd
  0
BLOCK
  5
B0E
330
B0D
100
AcDbEntity
  8
0
100
AcDbBlockBegin
  2
3
 70
     0
 10
0.0
 20
0.0
 30
0.0
  3
3
  1

  0
LINE
  5
B10
330
B0D
100
AcDbEntity
  8
0
  6
Continuous
 62
     7
370
    15
100
AcDbLine
 10
1401.89492538386
 20
1344.604157088865
 30
0.0
 11
1401.89492538386
 21
1340.904156854916
 31
0.0
  0
LINE
  5
B11
330
B0D
100
AcDbEntity
  8
0
  6
Continuous
 62
     7
370
    15
100
AcDbLine
 10
1409.814925620341
 20
1340.904156854916
 30
0.0
 11
1409.814925620341
 21
1344.604157088865
 31
0.0
  0
LINE
  5
B12
330
B0D
100
AcDbEntity
  8
0
  6
Continuous
 62
     7
370
    15
100
AcDbLine
 10
1400.854925381028
 20
1325.904157190193
 30
0.0
 11
1400.854925381028
 21
1340.904156854916
 31
0.0
  0
LINE
  5
B13
330
B0D
100
AcDbEntity
  8
0
  6
Continuous
 62
     7
370
    15
100
AcDbLine
 10
1410.854925157511
 20
1325.904157190193
 30
0.0
 11
1400.854925381028
 21
1325.904157190193
 31
0.0
  0
LINE
  5
B14
330
B0D
100
AcDbEntity
  8
0
  6
Continuous
 62
     7
370
    15
100
AcDbLine
 10
1410.854925157511
 20
1340.904156854916
 30
0.0
 11
1400.854925381028
 21
1340.904156854916
 31
0.0
  0
LINE
  5
B15
330
B0D
100
AcDbEntity
  8
0
  6
Continuous
 62
     7
370
    15
100
AcDbLine
 10
1410.854925157511
 20
1325.904157190193
 30
0.0
 11
1410.854925157511
 21
1340.904156854916
 31
0.0
  0
LINE
  5
B16
330
B0D
100
AcDbEntity
  8
0
  6
Continuous
 62
     7
370
    15
100
AcDbLine
 10
1404.704925360167
 20
1344.604157088865
 30
0.0
 11
1401.89492538386
 21
1344.604157088865
 31
0.0
  0
LWPOLYLINE
  5
B17
330
B0D
100
AcDbEntity
  8
0
  6
Continuous
 62
     7
370
    15
100
AcDbPolyline
 90
        4
 70
   128
 43
0.0
 10
1405.432865710938
 20
1342.604156761039
 10
1405.187284329915
 20
1343.278886927832
 10
1404.944319965327
 20
1343.946425421704
 10
1404.704925360167
 20
1344.604157088865
  0
LWPOLYLINE
  5
B18
330
B0D
100
AcDbEntity
  8
0
  6
Continuous
 62
     7
370
    15
100
AcDbPolyline
 90
        4
 70
   128
 43
0.0
 10
1407.004925178373
 20
1344.604157088865
 10
1406.765531038874
 20
1343.946425421704
 10
1406.522566674286
 20
1343.278886927832
 10
1406.276984827602
 20
1342.604156761039
  0
LINE
  5
B19
330
B0D
100
AcDbEntity
  8
0
  6
Continuous
 62
     7
370
    15
100
AcDbLine
 10
1409.814925620341
 20
1344.604157088865
 30
0.0
 11
1407.004925178373
 21
1344.604157088865
 31
0.0
  0
LINE
  5
B1A
330
B0D
100
AcDbEntity
  8
0
  6
Continuous
 62
     7
370
    15
100
AcDbLine
 10
1406.276984827602
 20
1342.604156761039
 30
0.0
 11
1405.432865710938
 21
1342.604156761039
 31
0.0
  0
ENDBLK
  5
B0F
330
B0D
100
AcDbEntity
  8
0
100
AcDbBlockEnd
  0
BLOCK
  5
B1D
330
B1C
100
AcDbEntity
  8
0
100
AcDbBlockBegin
  2
4
 70
     0
 10
0.0
 20
0.0
 30
0.0
  3
4
  1

  0
LINE
  5
B1F
330
B1C
100
AcDbEntity
  8
0
  6
Continuous
 62
     7
370
    15
100
AcDbLine
 10
1786.396891607167
 20
1292.052699692263
 30
0.0
 11
1786.396891607167
 21
1289.031498497258
 31
0.0
  0
LINE
  5
B20
330
B1C
100
AcDbEntity
  8
0
  6
Continuous
 62
     7
370
    15
100
AcDbLine
 10
1794.316893431397
 20
1289.031497261706
 30
0.0
 11
1794.316893431397
 21
1292.052698456712
 31
0.0
  0
LINE
  5
B21
330
B1C
100
AcDbEntity
  8
0
  6
Continuous
 62
     7
370
    15
100
AcDbLine
 10
1777.558054734993
 20
1297.155251607698
 30
0.0
 11
1777.558054734993
 21
1294.134050412693
 31
0.0
  0
LINE
  5
B22
330
B1C
100
AcDbEntity
  8
0
  6
Continuous
 62
     7
370
    15
100
AcDbLine
 10
1785.478056559223
 20
1294.134049177141
 30
0.0
 11
1785.478056559223
 21
1297.155250372147
 31
0.0
  0
LINE
  5
B23
330
B1C
100
AcDbEntity
  8
0
  6
Continuous
 62
     7
370
    15
100
AcDbLine
 10
1768.719217862818
 20
1302.257803523133
 30
0.0
 11
1768.719217862818
 21
1299.236602328127
 31
0.0
  0
LINE
  5
B24
330
B1C
100
AcDbEntity
  8
0
  6
Continuous
 62
     7
370
    15
100
AcDbLine
 10
1776.639219687049
 20
1299.236601092576
 30
0.0
 11
1776.639219687049
 21
1302.257802287581
 31
0.0
  0
LINE
  5
B25
330
B1C
100
AcDbEntity
  8
0
  6
Continuous
 62
     7
370
    15
100
AcDbLine
 10
1759.880386259
 20
1307.360352397211
 30
0.0
 11
1759.880386259
 21
1304.339151202205
 31
0.0
  0
LINE
  5
B26
330
B1C
100
AcDbEntity
  8
0
  6
Continuous
 62
     7
370
    15
100
AcDbLine
 10
1767.800382814875
 20
1304.339153008011
 30
0.0
 11
1767.800382814875
 21
1307.360354203016
 31
0.0
  0
LINE
  5
B27
330
B1C
100
AcDbEntity
  8
0
  6
Continuous
 62
     7
370
    15
100
AcDbLine
 10
1751.041549386826
 20
1312.462904312645
 30
0.0
 11
1751.041549386826
 21
1309.44170311764
 31
0.0
  0
LINE
  5
B28
330
B1C
100
AcDbEntity
  8
0
  6
Continuous
 62
     7
370
    15
100
AcDbLine
 10
1758.961551211057
 20
1309.441701882088
 30
0.0
 11
1758.961551211057
 21
1312.462903077094
 31
0.0
  0
LINE
  5
B29
330
B1C
100
AcDbEntity
  8
0
  6
Continuous
 62
     7
370
    15
100
AcDbLine
 10
1742.202712514651
 20
1317.56545622808
 30
0.0
 11
1742.202712514651
 21
1314.544255033075
 31
0.0
  0
LINE
  5
B2A
330
B1C
100
AcDbEntity
  8
0
  6
Continuous
 62
     7
370
    15
100
AcDbLine
 10
1750.122714338883
 20
1314.544253797523
 30
0.0
 11
1750.122714338883
 21
1317.565454992529
 31
0.0
  0
LINE
  5
B2B
330
B1C
100
AcDbEntity
  8
0
  6
Continuous
 62
     7
370
    15
100
AcDbLine
 10
1733.363880910833
 20
1322.668005102158
 30
0.0
 11
1733.363880910833
 21
1319.646803907152
 31
0.0
  0
LINE
  5
B2C
330
B1C
100
AcDbEntity
  8
0
  6
Continuous
 62
     7
370
    15
100
AcDbLine
 10
1741.283877466708
 20
1319.646805712958
 30
0.0
 11
1741.283877466708
 21
1322.668006907963
 31
0.0
  0
LINE
  5
B2D
330
B1C
100
AcDbEntity
  8
0
  6
Continuous
 62
     7
370
    15
100
AcDbLine
 10
1724.525044038659
 20
1327.770557017593
 30
0.0
 11
1724.525044038659
 21
1324.749355822587
 31
0.0
  0
LINE
  5
B2E
330
B1C
100
AcDbEntity
  8
0
  6
Continuous
 62
     7
370
    15
100
AcDbLine
 10
1732.44504586289
 20
1324.749354587036
 30
0.0
 11
1732.44504586289
 21
1327.770555782041
 31
0.0
  0
LINE
  5
B2F
330
B1C
100
AcDbEntity
  8
0
  6
Continuous
 62
     7
370
    15
100
AcDbLine
 10
1715.686209800663
 20
1332.873107412349
 30
0.0
 11
1715.686209800663
 21
1329.851906217343
 31
0.0
  0
LINE
  5
B30
330
B1C
100
AcDbEntity
  8
0
  6
Continuous
 62
     7
370
    15
100
AcDbLine
 10
1723.606211624893
 20
1329.851904981792
 30
0.0
 11
1723.606211624893
 21
1332.873106176797
 31
0.0
  0
LINE
  5
B31
330
B1C
100
AcDbEntity
  8
0
  6
Continuous
 62
     7
370
    15
100
AcDbLine
 10
1706.847375562667
 20
1337.975657807105
 30
0.0
 11
1706.847375562667
 21
1334.9544566121
 31
0.0
  0
LINE
  5
B32
330
B1C
100
AcDbEntity
  8
0
  6
Continuous
 62
     7
370
    15
100
AcDbLine
 10
1714.767374752719
 20
1334.954456897227
 30
0.0
 11
1714.767374752719
 21
1337.975658092232
 31
0.0
  0
LINE
  5
B33
330
B1C
100
AcDbEntity
  8
0
  6
Continuous
 62
     7
370
    15
100
AcDbLine
 10
1698.00854132467
 20
1343.078208201861
 30
0.0
 11
1698.00854132467
 21
1340.057007006856
 31
0.0
  0
LINE
  5
B34
330
B1C
100
AcDbEntity
  8
0
  6
Continuous
 62
     7
370
    15
100
AcDbLine
 10
1705.928540514723
 20
1340.057007291983
 30
0.0
 11
1705.928540514723
 21
1343.078208486989
 31
0.0
  0
LINE
  5
B35
330
B1C
100
AcDbEntity
  8
0
  6
Continuous
 62
     7
370
    15
100
AcDbLine
 10
1689.16970642813
 20
1348.180758976787
 30
0.0
 11
1689.16970642813
 21
1345.159557781781
 31
0.0
  0
LINE
  5
B36
330
B1C
100
AcDbEntity
  8
0
  6
Continuous
 62
     7
370
    15
100
AcDbLine
 10
1697.089706276727
 20
1345.159557686739
 30
0.0
 11
1697.089706276727
 21
1348.180758881745
 31
0.0
  0
LWPOLYLINE
  5
B37
330
B1C
100
AcDbEntity
  8
0
  6
Continuous
 62
     7
370
    15
100
AcDbPolyline
 90
       15
 70
   128
 43
0.0
 10
1787.556744396137
 20
1287.415012858685
 10
1788.085522544185
 20
1287.158871939714
 10
1788.683316485943
 20
1286.959628921672
 10
1789.331968585281
 20
1286.823334442182
 10
1790.011755681139
 20
1286.754137815394
 10
1790.702022442708
 20
1286.754141712133
 10
1791.381808468432
 20
1286.823338386442
 10
1792.030451924373
 20
1286.959629682011
 10
1792.628252616212
 20
1287.158869183484
 10
1793.157028953263
 20
1287.41501342894
 10
1793.600731876595
 20
1287.720269510761
 10
1793.945862540883
 20
1288.06537269452
 10
1794.181951405539
 20
1288.439826496118
 10
1794.301816713432
 20
1288.832258710658
 10
1794.316893431397
 20
1289.031497261706
  0
ARC
  5
B38
330
B1C
100
AcDbEntity
  8
0
  6
Continuous
 62
     7
370
    15
100
AcDbCircle
 10
1788.376361787447
 20
1289.227449420561
 30
0.0
 40
1.989145283523277
100
AcDbArc
 50
185.6533825167161
 51
245.6666358748344
  0
LWPOLYLINE
  5
B39
330
B1C
100
AcDbEntity
  8
0
  6
Continuous
 62
     7
370
    15
100
AcDbPolyline
 90
       15
 70
   128
 43
0.0
 10
1778.717907523963
 20
1292.51756477412
 10
1779.246696208723
 20
1292.261417772434
 10
1779.844490150481
 20
1292.062174754392
 10
1780.493131713107
 20
1291.925886357617
 10
1781.172918808965
 20
1291.856689730829
 10
1781.863185570533
 20
1291.856693627568
 10
1782.542982132969
 20
1291.925884219162
 10
1783.191625588911
 20
1292.062175514731
 10
1783.789415744037
 20
1292.261421098918
 10
1784.318192081089
 20
1292.517565344375
 10
1784.761895004421
 20
1292.822821426196
 10
1785.107036205421
 20
1293.167918527241
 10
1785.343125070077
 20
1293.542372328838
 10
1785.462979841257
 20
1293.934810626093
 10
1785.478056559223
 20
1294.134049177141
  0
ARC
  5
B3A
330
B1C
100
AcDbEntity
  8
0
  6
Continuous
 62
     7
370
    15
100
AcDbCircle
 10
1779.537524915274
 20
1294.330001335996
 30
0.0
 40
1.989145283523854
100
AcDbArc
 50
185.653382516729
 51
245.6666358748225
  0
LWPOLYLINE
  5
B3B
330
B1C
100
AcDbEntity
  8
0
  6
Continuous
 62
     7
370
    15
100
AcDbPolyline
 90
       15
 70
   128
 43
0.0
 10
1769.8790811885
 20
1297.62011060684
 10
1770.407859336549
 20
1297.363969687869
 10
1771.005653278306
 20
1297.164726669827
 10
1771.654294840932
 20
1297.028438273052
 10
1772.334081936791
 20
1296.959241646264
 10
1773.024359235072
 20
1296.959239460288
 10
1773.704145260795
 20
1297.028436134597
 10
1774.352788716736
 20
1297.164727430166
 10
1774.950578871863
 20
1297.363973014353
 10
1775.479365745627
 20
1297.620111177095
 10
1775.923058132246
 20
1297.92537334163
 10
1776.268199333246
 20
1298.270470442676
 10
1776.504288197903
 20
1298.644924244273
 10
1776.624153505796
 20
1299.037356458813
 10
1776.639219687049
 20
1299.236601092576
  0
ARC
  5
B3C
330
B1C
100
AcDbEntity
  8
0
  6
Continuous
 62
     7
370
    15
100
AcDbCircle
 10
1770.698692027036
 20
1299.432554632377
 30
0.0
 40
1.989149384120588
100
AcDbArc
 50
185.6534107957966
 51
245.6668964376634
  0
LWPOLYLINE
  5
B3D
330
B1C
100
AcDbEntity
  8
0
  6
Continuous
 62
     7
370
    15
100
AcDbPolyline
 90
       15
 70
   128
 43
0.0
 10
1761.04023904797
 20
1302.722665563633
 10
1761.569022464374
 20
1302.466521603304
 10
1762.166816406132
 20
1302.267278585262
 10
1762.815463237114
 20
1302.130987147129
 10
1763.495250332973
 20
1302.061790520341
 10
1764.185522362897
 20
1302.061791375723
 10
1764.865308388621
 20
1302.130988050032
 10
1765.513951844562
 20
1302.267279345601
 10
1766.111747268045
 20
1302.466521888431
 10
1766.640528873452
 20
1302.72266309253
 10
1767.084226528428
 20
1303.027922215708
 10
1767.429362461072
 20
1303.37302235811
 10
1767.665451325729
 20
1303.747476159708
 10
1767.785316633621
 20
1304.139908374248
 10
1767.800382814875
 20
1304.339153008011
  0
ARC
  5
B3E
330
B1C
100
AcDbEntity
  8
0
  6
Continuous
 62
     7
370
    15
100
AcDbCircle
 10
1761.859834433321
 20
1304.5350863359
 30
0.0
 40
1.989121829209139
100
AcDbArc
 50
185.6529923589951
 51
245.6670260325514
  0
LWPOLYLINE
  5
B3F
330
B1C
100
AcDbEntity
  8
0
  6
Continuous
 62
     7
370
    15
100
AcDbPolyline
 90
       15
 70
   128
 43
0.0
 10
1752.201407444152
 20
1307.82521443771
 10
1752.7301855922
 20
1307.569073518738
 10
1753.327979533958
 20
1307.369830500697
 10
1753.97662636494
 20
1307.233539062564
 10
1754.656413460798
 20
1307.164342435776
 10
1755.346685490723
 20
1307.164343291158
 10
1756.026471516447
 20
1307.233539965467
 10
1756.675120240744
 20
1307.369828219679
 10
1757.272910395871
 20
1307.569073803866
 10
1757.801692001278
 20
1307.825215007965
 10
1758.245389656253
 20
1308.130474131143
 10
1758.590530857254
 20
1308.475571232188
 10
1758.826614453554
 20
1308.850028075142
 10
1758.946479761447
 20
1309.242460289683
 10
1758.961551211057
 20
1309.441701882088
  0
ARC
  5
B40
330
B1C
100
AcDbEntity
  8
0
  6
Continuous
 62
     7
370
    15
100
AcDbCircle
 10
1753.021021559053
 20
1309.637654731407
 30
0.0
 40
1.989147333799186
100
AcDbArc
 50
185.6533966560671
 51
245.6667661568378
  0
LWPOLYLINE
  5
B41
330
B1C
100
AcDbEntity
  8
0
  6
Continuous
 62
     7
370
    15
100
AcDbPolyline
 90
       15
 70
   128
 43
0.0
 10
1743.362570571977
 20
1312.927766353145
 10
1743.891353988382
 20
1312.671622392816
 10
1744.48914793014
 20
1312.472379374774
 10
1745.137789492765
 20
1312.336090977999
 10
1745.817576588624
 20
1312.266894351211
 10
1746.507853886904
 20
1312.266892165235
 10
1747.187639912629
 20
1312.336088839545
 10
1747.83628336857
 20
1312.472380135113
 10
1748.434078792052
 20
1312.671622677944
 10
1748.962855129104
 20
1312.927766923399
 10
1749.406558052436
 20
1313.233023005221
 10
1749.75169398508
 20
1313.578123147623
 10
1749.987782849736
 20
1313.95257694922
 10
1750.107648157628
 20
1314.34500916376
 10
1750.122714338883
 20
1314.544253797523
  0
ARC
  5
B42
330
B1C
100
AcDbEntity
  8
0
  6
Continuous
 62
     7
370
    15
100
AcDbCircle
 10
1744.18219387427
 20
1314.74021323895
 30
0.0
 40
1.989157125901907
100
AcDbArc
 50
185.6535595427299
 51
245.6666032701782
  0
LWPOLYLINE
  5
B43
330
B1C
100
AcDbEntity
  8
0
  6
Continuous
 62
     7
370
    15
100
AcDbPolyline
 90
       15
 70
   128
 43
0.0
 10
1734.523738968159
 20
1318.030315227223
 10
1735.052517116208
 20
1317.774174308251
 10
1735.650311057965
 20
1317.574931290209
 10
1736.298957888947
 20
1317.438639852077
 10
1736.978744984806
 20
1317.369443225288
 10
1737.66901701473
 20
1317.36944408067
 10
1738.348803040454
 20
1317.43864075498
 10
1738.997446496395
 20
1317.574932050548
 10
1739.595241919878
 20
1317.774174593378
 10
1740.124023525285
 20
1318.030315797477
 10
1740.567721180261
 20
1318.335574920655
 10
1740.912857112905
 20
1318.680675063058
 10
1741.148945977562
 20
1319.055128864655
 10
1741.268811285454
 20
1319.447561079195
 10
1741.283877466708
 20
1319.646805712958
  0
ARC
  5
B44
330
B1C
100
AcDbEntity
  8
0
  6
Continuous
 62
     7
370
    15
100
AcDbCircle
 10
1735.343353083061
 20
1319.842755520919
 30
0.0
 40
1.989147333798561
100
AcDbArc
 50
185.6533966560541
 51
245.666766156855
  0
LWPOLYLINE
  5
B45
330
B1C
100
AcDbEntity
  8
0
  6
Continuous
 62
     7
370
    15
100
AcDbPolyline
 90
       15
 70
   128
 43
0.0
 10
1725.684902095985
 20
1323.132867142657
 10
1726.213680244034
 20
1322.876726223686
 10
1726.811479454147
 20
1322.677480164287
 10
1727.460121016773
 20
1322.541191767511
 10
1728.139908112632
 20
1322.471995140723
 10
1728.830180142556
 20
1322.471995996105
 10
1729.50996616828
 20
1322.541192670414
 10
1730.158614892577
 20
1322.677480924626
 10
1730.75641031606
 20
1322.876723467456
 10
1731.285186653111
 20
1323.132867712912
 10
1731.728889576443
 20
1323.438123794733
 10
1732.074025509087
 20
1323.783223937135
 10
1732.310109105388
 20
1324.15768078009
 10
1732.42997441328
 20
1324.55011299463
 10
1732.44504586289
 20
1324.749354587036
  0
ARC
  5
B46
330
B1C
100
AcDbEntity
  8
0
  6
Continuous
 62
     7
370
    15
100
AcDbCircle
 10
1726.504525398278
 20
1324.945314028463
 30
0.0
 40
1.989157125902032
100
AcDbArc
 50
185.6535595427299
 51
245.6666032701782
  0
LWPOLYLINE
  5
B47
330
B1C
100
AcDbEntity
  8
0
  6
Continuous
 62
     7
370
    15
100
AcDbPolyline
 90
       15
 70
   128
 43
0.0
 10
1716.846067857989
 20
1328.235417537413
 10
1717.374848640216
 20
1327.979275097763
 10
1717.972642581973
 20
1327.780032079721
 10
1718.621286778777
 20
1327.643742162267
 10
1719.301073874635
 20
1327.57454553548
 10
1719.991348538738
 20
1327.574544870183
 10
1720.671134564462
 20
1327.643741544492
 10
1721.319778020403
 20
1327.780032840061
 10
1721.917573443886
 20
1327.97927538289
 10
1722.446352415115
 20
1328.235418107668
 10
1722.890052704269
 20
1328.540675710168
 10
1723.235188636913
 20
1328.88577585257
 10
1723.47127750157
 20
1329.260229654167
 10
1723.591142809462
 20
1329.652661868707
 10
1723.606211624893
 20
1329.851904981792
  0
ARC
  5
B48
330
B1C
100
AcDbEntity
  8
0
  6
Continuous
 62
     7
370
    15
100
AcDbCircle
 10
1717.665686566571
 20
1330.047861127154
 30
0.0
 40
1.98915222983289
100
AcDbArc
 50
185.6534780993467
 51
245.6666847135732
  0
LWPOLYLINE
  5
B49
330
B1C
100
AcDbEntity
  8
0
  6
Continuous
 62
     7
370
    15
100
AcDbPolyline
 90
       15
 70
   128
 43
0.0
 10
1708.007233619993
 20
1333.337967932169
 10
1708.536014402219
 20
1333.08182549252
 10
1709.133808343977
 20
1332.882582474478
 10
1709.782452540781
 20
1332.746292557024
 10
1710.462239636639
 20
1332.677095930236
 10
1711.152511666564
 20
1332.677096785617
 10
1711.832300326465
 20
1332.746291939248
 10
1712.480943782407
 20
1332.882583234817
 10
1713.078739205889
 20
1333.081825777647
 10
1713.607518177119
 20
1333.337968502424
 10
1714.051218466273
 20
1333.643226104924
 10
1714.396354398917
 20
1333.988326247326
 10
1714.632443263573
 20
1334.362780048923
 10
1714.752305937288
 20
1334.755213784142
 10
1714.767374752719
 20
1334.954456897227
  0
ARC
  5
B4A
330
B1C
100
AcDbEntity
  8
0
  6
Continuous
 62
     7
370
    15
100
AcDbCircle
 10
1708.826852328575
 20
1335.15041152191
 30
0.0
 40
1.989152229833238
100
AcDbArc
 50
185.6534780993467
 51
245.6666847135613
  0
LWPOLYLINE
  5
B4B
330
B1C
100
AcDbEntity
  8
0
  6
Continuous
 62
     7
370
    15
100
AcDbPolyline
 90
       15
 70
   128
 43
0.0
 10
1699.168398064908
 20
1338.440519087265
 10
1699.697178847134
 20
1338.184376647615
 10
1700.294971471803
 20
1337.985134389912
 10
1700.943618302784
 20
1337.84884295178
 10
1701.623405398643
 20
1337.779646324992
 10
1702.313677428568
 20
1337.779647180374
 10
1702.993463454291
 20
1337.848843854683
 10
1703.642109544411
 20
1337.985133629573
 10
1704.239904967893
 20
1338.184376172403
 10
1704.768683939122
 20
1338.44051889718
 10
1705.212384228276
 20
1338.74577649968
 10
1705.557520160921
 20
1339.090876642083
 10
1705.793606391399
 20
1339.465331964358
 10
1705.913471699292
 20
1339.857764178899
 10
1705.928540514723
 20
1340.057007291983
  0
ARC
  5
B4C
330
B1C
100
AcDbEntity
  8
0
  6
Continuous
 62
     7
370
    15
100
AcDbCircle
 10
1699.988010789698
 20
1340.252956862861
 30
0.0
 40
1.989144466610116
100
AcDbArc
 50
185.6533539530867
 51
245.666772754568
  0
LWPOLYLINE
  5
B4D
330
B1C
100
AcDbEntity
  8
0
  6
Continuous
 62
     7
370
    15
100
AcDbPolyline
 90
       15
 70
   128
 43
0.0
 10
1690.329563826911
 20
1343.543069482021
 10
1690.858343292049
 20
1343.286927802711
 10
1691.456138550895
 20
1343.087684024329
 10
1692.104782747699
 20
1342.951394106876
 10
1692.784569843558
 20
1342.882197480087
 10
1693.474843190571
 20
1342.88219757513
 10
1694.154629216295
 20
1342.951394249439
 10
1694.803273989325
 20
1343.087684784669
 10
1695.401069412808
 20
1343.286927327498
 10
1695.929848384037
 20
1343.543070052276
 10
1696.373548673191
 20
1343.848327654776
 10
1696.718684605835
 20
1344.193427797178
 10
1696.954772153403
 20
1344.567882359115
 10
1697.074637461295
 20
1344.960314573655
 10
1697.089706276727
 20
1345.159557686739
  0
ARC
  5
B4E
330
B1C
100
AcDbEntity
  8
0
  6
Continuous
 62
     7
370
    15
100
AcDbCircle
 10
1691.14917629505
 20
1345.355507833801
 30
0.0
 40
1.989144885857094
100
AcDbArc
 50
185.6533584313076
 51
245.6667863289835
  0
LWPOLYLINE
  5
B4F
330
B1C
100
AcDbEntity
  8
0
  6
Continuous
 62
     7
370
    15
100
AcDbPolyline
 90
       37
 70
   128
 43
0.0
 10
1796.367291184065
 20
1285.561768490525
 10
1795.919119377702
 20
1285.253421629431
 10
1795.570491018895
 20
1284.90483941814
 10
1795.332020034118
 20
1284.526601692951
 10
1795.210939876244
 20
1284.130207825507
 10
1795.2109451446
 20
1283.727693321702
 10
1795.332017976166
 20
1283.331298456312
 10
1795.570496451887
 20
1282.953057642244
 10
1795.919119377702
 20
1282.604472484639
 10
1796.367297028647
 20
1282.296132799247
 10
1796.901414902521
 20
1282.037405348524
 10
1797.50524753278
 20
1281.836149617301
 10
1798.160450832884
 20
1281.69847892367
 10
1798.847101279605
 20
1281.628585065739
 10
1799.544341862876
 20
1281.628588107097
 10
1800.23100111763
 20
1281.6984801117
 10
1800.886199067059
 20
1281.836146480901
 10
1801.490026593599
 20
1282.037405348524
 10
1802.024146360787
 20
1282.296135507955
 10
1802.472329033135
 20
1282.60447647642
 10
1802.820957227305
 20
1282.953058592668
 10
1803.05942837672
 20
1283.3312964129
 10
1803.180497833245
 20
1283.727696268017
 10
1803.180503101601
 20
1284.130204689107
 10
1803.059430352353
 20
1284.526599602018
 10
1802.820951629677
 20
1284.904840273522
 10
1802.472328703863
 20
1285.253425431127
 10
1802.0241509706
 20
1285.561765068998
 10
1801.490033179044
 20
1285.820492567242
 10
1800.886200548784
 20
1286.021748298466
 10
1800.230997495635
 20
1286.15941913466
 10
1799.544346966596
 20
1286.229312945069
 10
1798.847095846612
 20
1286.229315986427
 10
1798.160447293207
 20
1286.159417994151
 10
1797.505249179141
 20
1286.021751529908
 10
1796.901421817238
 20
1285.820492757327
 10
1796.367291184065
 20
1285.561768490525
  0
LINE
  5
B50
330
B1C
100
AcDbEntity
  8
0
  6
Continuous
 62
     7
370
    15
100
AcDbLine
 10
1799.372495167427
 20
1279.744860690747
 30
0.0
 11
1677.043026995482
 21
1350.36415949237
 31
0.0
  0
LINE
  5
B51
330
B1C
100
AcDbEntity
  8
0
  6
Continuous
 62
     7
370
    15
100
AcDbLine
 10
1684.114094649297
 20
1354.446199960243
 30
0.0
 11
1677.043026995482
 21
1350.36415949237
 31
0.0
  0
LINE
  5
B52
330
B1C
100
AcDbEntity
  8
0
  6
Continuous
 62
     7
370
    15
100
AcDbLine
 10
1806.443562821241
 20
1283.82690115862
 30
0.0
 11
1794.316892443581
 21
1290.827478956155
 31
0.0
  0
LINE
  5
B53
330
B1C
100
AcDbEntity
  8
0
  6
Continuous
 62
     7
370
    15
100
AcDbLine
 10
1788.630597693173
 20
1294.110107042862
 30
0.0
 11
1785.478055571407
 21
1295.93003087159
 31
0.0
  0
LINE
  5
B54
330
B1C
100
AcDbEntity
  8
0
  6
Continuous
 62
     7
370
    15
100
AcDbLine
 10
1779.791760820999
 20
1299.212658958297
 30
0.0
 11
1776.639218699233
 21
1301.032582787025
 31
0.0
  0
LINE
  5
B55
330
B1C
100
AcDbEntity
  8
0
  6
Continuous
 62
     7
370
    15
100
AcDbLine
 10
1770.95292921718
 20
1304.315207832374
 30
0.0
 11
1767.800381827058
 21
1306.13513470246
 31
0.0
  0
LINE
  5
B56
330
B1C
100
AcDbEntity
  8
0
  6
Continuous
 62
     7
370
    15
100
AcDbLine
 10
1762.114092345006
 20
1309.41775974781
 30
0.0
 11
1758.96155022324
 21
1311.237683576537
 31
0.0
  0
LINE
  5
B57
330
B1C
100
AcDbEntity
  8
0
  6
Continuous
 62
     7
370
    15
100
AcDbLine
 10
1753.275255472832
 20
1314.520311663244
 30
0.0
 11
1750.122713351066
 21
1316.340235491972
 31
0.0
  0
LINE
  5
B58
330
B1C
100
AcDbEntity
  8
0
  6
Continuous
 62
     7
370
    15
100
AcDbLine
 10
1744.436423869014
 20
1319.622860537322
 30
0.0
 11
1741.283881747247
 21
1321.442784366049
 31
0.0
  0
LINE
  5
B59
330
B1C
100
AcDbEntity
  8
0
  6
Continuous
 62
     7
370
    15
100
AcDbLine
 10
1735.59758699684
 20
1324.725412452756
 30
0.0
 11
1732.445044875073
 21
1326.545336281484
 31
0.0
  0
LINE
  5
B5A
330
B1C
100
AcDbEntity
  8
0
  6
Continuous
 62
     7
370
    15
100
AcDbLine
 10
1726.758752758843
 20
1329.827962847513
 30
0.0
 11
1723.606210637077
 21
1331.647886676241
 31
0.0
  0
LINE
  5
B5B
330
B1C
100
AcDbEntity
  8
0
  6
Continuous
 62
     7
370
    15
100
AcDbLine
 10
1717.919918520847
 20
1334.930513242269
 30
0.0
 11
1714.767376399081
 21
1336.750437070997
 31
0.0
  0
LINE
  5
B5C
330
B1C
100
AcDbEntity
  8
0
  6
Continuous
 62
     7
370
    15
100
AcDbLine
 10
1709.081084282851
 20
1340.033063637025
 30
0.0
 11
1705.928540843996
 21
1341.852988226092
 31
0.0
  0
LINE
  5
B5D
330
B1C
100
AcDbEntity
  8
0
  6
Continuous
 62
     7
370
    15
100
AcDbLine
 10
1700.242248727766
 20
1345.135614792121
 30
0.0
 11
1697.089706605999
 21
1346.955538620848
 31
0.0
  0
LINE
  5
B5E
330
B1C
100
AcDbEntity
  8
0
  6
Continuous
 62
     7
370
    15
100
AcDbLine
 10
1691.403414489769
 20
1350.238165186877
 30
0.0
 11
1684.114094649297
 21
1354.446199960243
 31
0.0
  0
LINE
  5
B5F
330
B1C
100
AcDbEntity
  8
0
  6
Continuous
 62
     7
370
    15
100
AcDbLine
 10
1806.443562821241
 20
1283.82690115862
 30
0.0
 11
1799.372495167427
 21
1279.744860690747
 31
0.0
  0
LWPOLYLINE
  5
B60
330
B1C
100
AcDbEntity
  8
0
  6
Continuous
 62
     7
370
    15
100
AcDbPolyline
 90
       37
 70
   128
 43
0.0
 10
1681.462444279117
 20
1351.894924667823
 10
1681.014263417766
 20
1351.586583034061
 10
1680.665640327316
 20
1351.237997781413
 10
1680.427168190085
 20
1350.859760721521
 10
1680.306092642023
 20
1350.463364192889
 10
1680.306092642023
 20
1350.060852730441
 10
1680.427168272404
 20
1349.66445624933
 10
1680.665640327316
 20
1349.286219141917
 10
1681.014263417766
 20
1348.937633889269
 10
1681.462444361435
 20
1348.629292303028
 10
1681.996565857303
 20
1348.370562761373
 10
1682.600398487562
 20
1348.169307030149
 10
1683.25559520222
 20
1348.031640138215
 10
1683.942248283119
 20
1347.961744759606
 10
1684.639494134748
 20
1347.961744759606
 10
1685.3261474626
 20
1348.031640185736
 10
1685.981344753485
 20
1348.169306935107
 10
1686.585177548381
 20
1348.370562761373
 10
1687.119298632659
 20
1348.629292160465
 10
1687.567479987917
 20
1348.937633889269
 10
1687.916102913731
 20
1349.286219046874
 10
1688.154574721689
 20
1349.664456486936
 10
1688.275650105116
 20
1350.060852920526
 10
1688.275650105116
 20
1350.463364382973
 10
1688.154574721689
 20
1350.859760816563
 10
1687.916102584459
 20
1351.237997686371
 10
1687.567479658645
 20
1351.586582843976
 10
1687.119298303387
 20
1351.89492457278
 10
1686.585177219109
 20
1352.153653971872
 10
1685.981344424213
 20
1352.354909798138
 10
1685.326147791873
 20
1352.492576927678
 10
1684.639494464019
 20
1352.562472353809
 10
1683.942248612392
 20
1352.562472353809
 10
1683.255595449175
 20
1352.492577022721
 10
1682.600398487562
 20
1352.35490989318
 10
1681.996565857303
 20
1352.153654161957
 10
1681.462444279117
 20
1351.894924667823
  0
LINE
  5
B61
330
B1C
100
AcDbEntity
  8
0
  6
Continuous
 62
     7
370
    15
100
AcDbLine
 10
1799.372495167427
 20
1267.496748786228
 30
0.0
 11
1799.372495167427
 21
1279.744860690747
 31
0.0
  0
LINE
  5
B62
330
B1C
100
AcDbEntity
  8
0
  6
Continuous
 62
     7
370
    15
100
AcDbLine
 10
1799.372495167427
 20
1267.496748786228
 30
0.0
 11
1677.043026995482
 21
1338.116047587851
 31
0.0
  0
LINE
  5
B63
330
B1C
100
AcDbEntity
  8
0
  6
Continuous
 62
     7
370
    15
100
AcDbLine
 10
1677.043026995482
 20
1350.36415949237
 30
0.0
 11
1677.043026995482
 21
1338.116047587851
 31
0.0
  0
LWPOLYLINE
  5
B64
330
B1C
100
AcDbEntity
  8
0
  6
Continuous
 62
     7
370
    15
100
AcDbPolyline
 90
       38
 70
   128
 43
0.0
 10
1692.599376097292
 20
1335.096306473762
 10
1692.556149235789
 20
1335.70774386
 10
1692.427710666219
 20
1336.351500908296
 10
1692.217757457451
 20
1337.00905727207
 10
1691.932328462623
 20
1337.661495482626
 10
1691.579634414661
 20
1338.290047325782
 10
1691.169822167343
 20
1338.87663070656
 10
1690.714682301541
 20
1339.4043690179
 10
1690.227306682073
 20
1339.858081607091
 10
1689.721717038603
 20
1340.224714923384
 10
1689.212457985135
 20
1340.493722711244
 10
1688.714180819882
 20
1340.657365593677
 10
1688.241218105516
 20
1340.710936889794
 10
1687.807178664294
 20
1340.652892996189
 10
1687.424547182999
 20
1340.484905821311
 10
1687.104331891626
 20
1340.211807618846
 10
1686.855745169297
 20
1339.841454454652
 10
1686.68593749228
 20
1339.384501084788
 10
1686.59979460228
 20
1338.854092949005
 10
1686.59979460228
 20
1338.265488967741
 10
1686.68593749228
 20
1337.635622748428
 10
1686.855745169297
 20
1336.982613607844
 10
1687.104331891626
 20
1336.325248323275
 10
1687.424547182999
 20
1335.682437034714
 10
1687.807178664294
 20
1335.072672955019
 10
1688.241218105516
 20
1334.51349816969
 10
1688.714180819882
 20
1334.020997959019
 10
1689.212457985135
 20
1333.60934208191
 10
1689.721717038603
 20
1333.290371882099
 10
1690.227306682073
 20
1333.073264391673
 10
1690.714682301541
 20
1332.964265068287
 10
1691.169822167343
 20
1332.966510076011
 10
1691.579634414661
 20
1333.079933927281
 10
1691.932328462623
 20
1333.301273890408
 10
1692.217757457451
 20
1333.624163178421
 10
1692.427710666219
 20
1334.039312346895
 10
1692.556149235789
 20
1334.534777379249
 10
1692.599376097292
 20
1335.096306473762
  0
LWPOLYLINE
  5
B65
330
B1C
100
AcDbEntity
  8
0
  6
Continuous
 62
     7
370
    15
100
AcDbPolyline
 90
       42
 70
   128
 43
0.0
 10
1702.145318549468
 20
1329.585551195845
 10
1702.101809830915
 20
1330.265050744862
 10
1701.972311004687
 20
1330.978853930578
 10
1701.759851375522
 20
1331.710231994332
 10
1701.469414808255
 20
1332.442040767892
 10
1701.107808018922
 20
1333.157127128516
 10
1700.68350515825
 20
1333.838730508777
 10
1700.206450248312
 20
1334.470876797796
 10
1699.687830643207
 20
1335.038744863106
 10
1699.139797806198
 20
1335.529026983858
 10
1698.575198623546
 20
1335.930230729376
 10
1698.007267205684
 20
1336.232952696884
 10
1697.449314054206
 20
1336.430096735183
 10
1696.914417863042
 20
1336.517041978035
 10
1696.415116002535
 20
1336.491751561313
 10
1695.96311212568
 20
1336.35481670241
 10
1695.568999579433
 20
1336.109448309197
 10
1695.24201774324
 20
1335.761396348091
 10
1694.989829440997
 20
1335.318820544478
 10
1694.818347085296
 20
1334.792092646049
 10
1694.731589114726
 20
1334.193560285599
 10
1694.731589114726
 20
1333.537251532668
 10
1694.818347085296
 20
1332.838550171315
 10
1694.989829440997
 20
1332.113833339546
 10
1695.24201774324
 20
1331.380086739669
 10
1695.568999579433
 20
1330.654509966575
 10
1695.96311212568
 20
1329.954109103223
 10
1696.415116002535
 20
1329.295301866589
 10
1696.914417863042
 20
1328.693529412251
 10
1697.449314054206
 20
1328.162897038534
 10
1698.007267205684
 20
1327.715842080299
 10
1698.575198623546
 20
1327.362844009897
 10
1699.139797806198
 20
1327.112175414618
 10
1699.687830643207
 20
1326.969712480235
 10
1700.206450248312
 20
1326.938795094998
 10
1700.68350515825
 20
1327.020145318906
 10
1701.107808018922
 20
1327.211859424062
 10
1701.469414808255
 20
1327.509443472509
 10
1701.759851375522
 20
1327.905920942991
 10
1701.972311004687
 20
1328.391998340281
 10
1702.101809830915
 20
1328.956284983545
 10
1702.145318549468
 20
1329.585551195845
  0
LWPOLYLINE
  5
B66
330
B1C
100
AcDbEntity
  8
0
  6
Continuous
 62
     7
370
    15
100
AcDbPolyline
 90
       38
 70
   128
 43
0.0
 10
1789.826560617785
 20
1278.968247569408
 10
1789.783328487925
 20
1279.579687997003
 10
1789.6548965038
 20
1280.223441243602
 10
1789.444941977943
 20
1280.880998367716
 10
1789.159512983115
 20
1281.533436578272
 10
1788.806817618064
 20
1282.161989181767
 10
1788.397002736568
 20
1282.748574083224
 10
1787.941869456211
 20
1283.276308592867
 10
1787.454493836743
 20
1283.730021182059
 10
1786.948900242007
 20
1284.096656779369
 10
1786.439639871449
 20
1284.365665327568
 10
1785.94135875493
 20
1284.529310491019
 10
1785.468397357652
 20
1284.582881026797
 10
1785.034358574975
 20
1284.524836753022
 10
1784.651728410769
 20
1284.356848817806
 10
1784.331517729208
 20
1284.083747954152
 10
1784.082925079978
 20
1283.713398211485
 10
1783.913115427328
 20
1283.256445982131
 10
1783.826977805684
 20
1282.72603480499
 10
1783.826977805684
 20
1282.137430823726
 10
1783.913115427328
 20
1281.50756764577
 10
1784.082925079978
 20
1280.854557364678
 10
1784.331517729208
 20
1280.197188658581
 10
1784.651728410769
 20
1279.554380031208
 10
1785.034358574975
 20
1278.944616711852
 10
1785.468397357652
 20
1278.385442306693
 10
1785.94135875493
 20
1277.892942856362
 10
1786.439639871449
 20
1277.481284698235
 10
1786.948900242007
 20
1277.162313738084
 10
1787.454493836743
 20
1276.94520396664
 10
1787.941869456211
 20
1276.836204643254
 10
1788.397002736568
 20
1276.838453452675
 10
1788.806817618064
 20
1276.951875783266
 10
1789.159512983115
 20
1277.173214986054
 10
1789.444941977943
 20
1277.496104274067
 10
1789.6548965038
 20
1277.911252682202
 10
1789.783328487925
 20
1278.406721516252
 10
1789.826560617785
 20
1278.968247569408
  0
LWPOLYLINE
  5
B67
330
B1C
100
AcDbEntity
  8
0
  6
Continuous
 62
     7
370
    15
100
AcDbPolyline
 90
       38
 70
   128
 43
0.0
 10
1774.977319730154
 20
1287.540531867635
 10
1775.020541323302
 20
1286.929097142523
 10
1775.148983844139
 20
1286.28533781321
 10
1775.358938369996
 20
1285.627781069327
 10
1775.644367364824
 20
1284.975342478541
 10
1775.997062729875
 20
1284.346789875045
 10
1776.406867074659
 20
1283.760211436534
 10
1776.862010891728
 20
1283.232470844176
 10
1777.349386511196
 20
1282.778758254985
 10
1777.854980105933
 20
1282.412122087327
 10
1778.364229939777
 20
1282.143119621842
 10
1778.862511056298
 20
1281.979474648507
 10
1779.335472453575
 20
1281.925904492961
 10
1779.769511236252
 20
1281.983948386504
 10
1780.152141400458
 20
1282.151936321721
 10
1780.472362618732
 20
1282.425031482891
 10
1780.720944731249
 20
1282.795387308272
 10
1780.890754383899
 20
1283.252339537627
 10
1780.976902542256
 20
1283.782744251822
 10
1780.976902542256
 20
1284.371348233086
 10
1780.890754383899
 20
1285.001217873988
 10
1780.720944731249
 20
1285.65422815508
 10
1780.472362618732
 20
1286.311590778462
 10
1780.152141400458
 20
1286.954405108318
 10
1779.769511236252
 20
1287.564168427674
 10
1779.335472453575
 20
1288.123343213064
 10
1778.862511056298
 20
1288.615842283165
 10
1778.364229939777
 20
1289.027500251176
 10
1777.854980105933
 20
1289.346465128613
 10
1777.349386511196
 20
1289.563575470403
 10
1776.862010891728
 20
1289.672574793789
 10
1776.406867074659
 20
1289.670332067083
 10
1775.997062729875
 20
1289.556903273546
 10
1775.644367364824
 20
1289.335564070758
 10
1775.358938369996
 20
1289.012675162977
 10
1775.148983844139
 20
1288.59752637461
 10
1775.020541323302
 20
1288.102063623275
 10
1774.977319730154
 20
1287.540531867635
  0
LWPOLYLINE
  5
B68
330
B1C
100
AcDbEntity
  8
0
  6
Continuous
 62
     7
370
    15
100
AcDbPolyline
 90
       42
 70
   128
 43
0.0
 10
1765.431374643801
 20
1293.051288666231
 10
1765.474880728176
 20
1292.37178987743
 10
1765.604376920226
 20
1291.657988592624
 10
1765.816839183569
 20
1290.926609008192
 10
1766.107273116658
 20
1290.194802135542
 10
1766.468882540169
 20
1289.479714254238
 10
1766.89318540084
 20
1288.798110493746
 10
1767.370245579135
 20
1288.165961353485
 10
1767.888862550062
 20
1287.598094808854
 10
1768.436898021249
 20
1287.107810977308
 10
1769.001497203901
 20
1286.70660723179
 10
1769.569425987585
 20
1286.403887165193
 10
1770.127376504884
 20
1286.206744647572
 10
1770.662272696048
 20
1286.119799024488
 10
1771.161575873645
 20
1286.145089061103
 10
1771.6135797505
 20
1286.28202372989
 10
1772.007694930925
 20
1286.527390412309
 10
1772.334670181672
 20
1286.87544579488
 10
1772.58686638645
 20
1287.318017416688
 10
1772.758340839616
 20
1287.844749496922
 10
1772.845100127276
 20
1288.443281477264
 10
1772.845100127276
 20
1289.099590230194
 10
1772.758340839616
 20
1289.798291971656
 10
1772.58686638645
 20
1290.52300462162
 10
1772.334670181672
 20
1291.256755403302
 10
1772.007694930925
 20
1291.98232875493
 10
1771.6135797505
 20
1292.682731329076
 10
1771.161575873645
 20
1293.341538755826
 10
1770.662272696048
 20
1293.943311590272
 10
1770.127376504884
 20
1294.47394434422
 10
1769.569425987585
 20
1294.920997781777
 10
1769.001497203901
 20
1295.27399395127
 10
1768.436898021249
 20
1295.524662546548
 10
1767.888862550062
 20
1295.667127191725
 10
1767.370245579135
 20
1295.698043056283
 10
1766.89318540084
 20
1295.616695683617
 10
1766.468882540169
 20
1295.424981958693
 10
1766.107273116658
 20
1295.127399430924
 10
1765.816839183569
 20
1294.730920059533
 10
1765.604376920226
 20
1294.244844182921
 10
1765.474880728176
 20
1293.680555638747
 10
1765.431374643801
 20
1293.051288666231
  0
LWPOLYLINE
  5
B69
330
B1C
100
AcDbEntity
  8
0
  6
Continuous
 62
     7
370
    15
100
AcDbPolyline
 90
       38
 70
   128
 43
0.0
 10
1754.471218397444
 20
1299.37845218979
 10
1754.42799153594
 20
1299.989889576028
 10
1754.299554283459
 20
1300.633645863984
 10
1754.089599757602
 20
1301.291202988098
 10
1753.804170762774
 20
1301.943641198654
 10
1753.451475397723
 20
1302.572193802149
 10
1753.041665784583
 20
1303.158775662249
 10
1752.586527235871
 20
1303.686513213249
 10
1752.099151616403
 20
1304.140225802441
 10
1751.593558021666
 20
1304.506861399751
 10
1751.084302919465
 20
1304.775866906593
 10
1750.586021802945
 20
1304.939512070044
 10
1750.113060405668
 20
1304.993082605822
 10
1749.67902162299
 20
1304.935038332047
 10
1749.296391458784
 20
1304.76705039683
 10
1748.976175508866
 20
1304.493952574534
 10
1748.727588127993
 20
1304.12359979051
 10
1748.557778475343
 20
1303.666647561156
 10
1748.471635585343
 20
1303.136239425372
 10
1748.471635585343
 20
1302.547635444108
 10
1748.557778475343
 20
1301.917769224795
 10
1748.727588127993
 20
1301.264758943703
 10
1748.976175508866
 20
1300.607393278963
 10
1749.296391458784
 20
1299.964581610233
 10
1749.67902162299
 20
1299.354818290878
 10
1750.113060405668
 20
1298.795643885718
 10
1750.586021802945
 20
1298.303144435387
 10
1751.084302919465
 20
1297.89148627726
 10
1751.593558021666
 20
1297.572518358466
 10
1752.099151616403
 20
1297.355408587023
 10
1752.586527235871
 20
1297.246409263636
 10
1753.041665784583
 20
1297.2486550317
 10
1753.451475397723
 20
1297.362080403648
 10
1753.804170762774
 20
1297.583419606436
 10
1754.089599757602
 20
1297.906308894449
 10
1754.299554283459
 20
1298.321457302584
 10
1754.42799153594
 20
1298.816923095277
 10
1754.471218397444
 20
1299.37845218979
  0
LWPOLYLINE
  5
B6A
330
B1C
100
AcDbEntity
  8
0
  6
Continuous
 62
     7
370
    15
100
AcDbPolyline
 90
       38
 70
   128
 43
0.0
 10
1763.310055269618
 20
1294.275900274355
 10
1763.266828408114
 20
1294.887337660594
 10
1763.138391155633
 20
1295.531093948549
 10
1762.928436629777
 20
1296.188651072663
 10
1762.643007634949
 20
1296.841089283219
 10
1762.290312269897
 20
1297.469641886714
 10
1761.880502656758
 20
1298.056223746814
 10
1761.425358839689
 20
1298.583964339172
 10
1760.937983220221
 20
1299.037676928363
 10
1760.43239489384
 20
1299.404309484317
 10
1759.923134523283
 20
1299.673318032515
 10
1759.424858675119
 20
1299.83696015461
 10
1758.951897277842
 20
1299.890530690387
 10
1758.517858495165
 20
1299.832486416613
 10
1758.135223062603
 20
1299.664501522753
 10
1757.815012381041
 20
1299.391400659099
 10
1757.566425000168
 20
1299.021047875076
 10
1757.396615347517
 20
1298.564095645721
 10
1757.310472457517
 20
1298.033687509937
 10
1757.310472457517
 20
1297.445083528673
 10
1757.396615347517
 20
1296.81521730936
 10
1757.566425000168
 20
1296.162207028268
 10
1757.815012381041
 20
1295.504841363529
 10
1758.135223062603
 20
1294.862032736156
 10
1758.517858495165
 20
1294.252266375442
 10
1758.951897277842
 20
1293.693091970283
 10
1759.424858675119
 20
1293.200592519952
 10
1759.923134523283
 20
1292.788937403182
 10
1760.43239489384
 20
1292.469966443031
 10
1760.937983220221
 20
1292.252859712945
 10
1761.425358839689
 20
1292.143860389559
 10
1761.880502656758
 20
1292.146103116265
 10
1762.290312269897
 20
1292.259528488213
 10
1762.643007634949
 20
1292.480867691002
 10
1762.928436629777
 20
1292.803756979014
 10
1763.138391155633
 20
1293.218905387149
 10
1763.266828408114
 20
1293.714371179842
 10
1763.310055269618
 20
1294.275900274355
  0
LWPOLYLINE
  5
B6B
330
B1C
100
AcDbEntity
  8
0
  6
Continuous
 62
     7
370
    15
100
AcDbPolyline
 90
       38
 70
   128
 43
0.0
 10
1745.632386793626
 20
1304.481001063868
 10
1745.589159932122
 20
1305.092438450106
 10
1745.460717411285
 20
1305.736197779419
 10
1745.250768153784
 20
1306.393751862176
 10
1744.965339158956
 20
1307.046190072731
 10
1744.612643793905
 20
1307.674742676227
 10
1744.202828912409
 20
1308.261327577683
 10
1743.747690363696
 20
1308.789065128684
 10
1743.260314744228
 20
1309.242777717876
 10
1742.754726417848
 20
1309.609410273829
 10
1742.24546604729
 20
1309.878418822028
 10
1741.747190199127
 20
1310.042060944122
 10
1741.274228801849
 20
1310.095631479899
 10
1740.840184750816
 20
1310.037590247482
 10
1740.45755458661
 20
1309.869602312266
 10
1740.137338636692
 20
1309.596504489969
 10
1739.888751255819
 20
1309.226151705945
 10
1739.718946871525
 20
1308.769196435233
 10
1739.632803981524
 20
1308.238788299449
 10
1739.632803981524
 20
1307.650184318186
 10
1739.718946871525
 20
1307.020318098872
 10
1739.888751255819
 20
1306.367310859138
 10
1740.137338636692
 20
1305.709945194398
 10
1740.45755458661
 20
1305.067133525668
 10
1740.840184750816
 20
1304.457370206312
 10
1741.274228801849
 20
1303.898192759796
 10
1741.747190199127
 20
1303.405693309464
 10
1742.24546604729
 20
1302.994038192694
 10
1742.754726417848
 20
1302.675067232544
 10
1743.260314744228
 20
1302.457960502457
 10
1743.747690363696
 20
1302.348961179071
 10
1744.202828912409
 20
1302.351206947135
 10
1744.612643793905
 20
1302.464629277725
 10
1744.965339158956
 20
1302.685968480514
 10
1745.250768153784
 20
1303.008857768526
 10
1745.460717411285
 20
1303.424009218019
 10
1745.589159932122
 20
1303.919471969354
 10
1745.632386793626
 20
1304.481001063868
  0
LWPOLYLINE
  5
B6C
330
B1C
100
AcDbEntity
  8
0
  6
Continuous
 62
     7
370
    15
100
AcDbPolyline
 90
       38
 70
   128
 43
0.0
 10
1736.793549921452
 20
1309.583552979302
 10
1736.750323059948
 20
1310.194990365541
 10
1736.621885807467
 20
1310.838746653496
 10
1736.41193128161
 20
1311.496303777611
 10
1736.126502286782
 20
1312.148741988166
 10
1735.773806921731
 20
1312.777294591662
 10
1735.363997308591
 20
1313.363876451761
 10
1734.908853491522
 20
1313.891617044119
 10
1734.421477872054
 20
1314.34532963331
 10
1733.915889545673
 20
1314.711962189264
 10
1733.406629175116
 20
1314.980970737463
 10
1732.908353326952
 20
1315.144612859556
 10
1732.435391929675
 20
1315.198183395335
 10
1732.001353146998
 20
1315.14013912156
 10
1731.618722982792
 20
1314.972151186343
 10
1731.298507032874
 20
1314.699053364047
 10
1731.049919652001
 20
1314.328700580023
 10
1730.88010999935
 20
1313.871748350668
 10
1730.79396710935
 20
1313.341340214884
 10
1730.79396710935
 20
1312.752736233621
 10
1730.88010999935
 20
1312.122870014307
 10
1731.049919652001
 20
1311.469859733215
 10
1731.298507032874
 20
1310.812494068476
 10
1731.618722982792
 20
1310.169682399746
 10
1732.001353146998
 20
1309.55991908039
 10
1732.435391929675
 20
1309.00074467523
 10
1732.908353326952
 20
1308.508245224899
 10
1733.406629175116
 20
1308.096590108129
 10
1733.915889545673
 20
1307.777619147978
 10
1734.421477872054
 20
1307.560512417892
 10
1734.908853491522
 20
1307.451513094506
 10
1735.363997308591
 20
1307.453755821212
 10
1735.773806921731
 20
1307.56718119316
 10
1736.126502286782
 20
1307.788520395948
 10
1736.41193128161
 20
1308.111409683961
 10
1736.621885807467
 20
1308.526558092096
 10
1736.750323059948
 20
1309.022023884789
 10
1736.793549921452
 20
1309.583552979302
  0
LWPOLYLINE
  5
B6D
330
B1C
100
AcDbEntity
  8
0
  6
Continuous
 62
     7
370
    15
100
AcDbPolyline
 90
       38
 70
   128
 43
0.0
 10
1727.954713049278
 20
1314.686104894737
 10
1727.911486187774
 20
1315.297542280976
 10
1727.783048935293
 20
1315.941298568931
 10
1727.573094409436
 20
1316.598855693045
 10
1727.287665414608
 20
1317.251293903601
 10
1726.934975317913
 20
1317.879843465739
 10
1726.525160436417
 20
1318.466428367196
 10
1726.070021887704
 20
1318.994165918196
 10
1725.582646268236
 20
1319.447878507388
 10
1725.077057941855
 20
1319.814511063341
 10
1724.567797571298
 20
1320.08351961154
 10
1724.069521723134
 20
1320.247161733634
 10
1723.596555057501
 20
1320.300735310769
 10
1723.162516274824
 20
1320.242691036995
 10
1722.779886110618
 20
1320.074703101778
 10
1722.4596701607
 20
1319.801605279481
 10
1722.211082779827
 20
1319.431252495458
 10
1722.041278395532
 20
1318.974297224746
 10
1721.955135505532
 20
1318.443889088962
 10
1721.955135505532
 20
1317.855285107698
 10
1722.041278395532
 20
1317.225418888385
 10
1722.211082779827
 20
1316.57241164865
 10
1722.4596701607
 20
1315.915045983911
 10
1722.779886110618
 20
1315.272234315181
 10
1723.162516274824
 20
1314.662470995825
 10
1723.596555057501
 20
1314.103296590666
 10
1724.069521723134
 20
1313.610794098977
 10
1724.567797571298
 20
1313.199138982207
 10
1725.077057941855
 20
1312.880168022056
 10
1725.582646268236
 20
1312.66306129197
 10
1726.070021887704
 20
1312.554061968584
 10
1726.525160436417
 20
1312.556307736647
 10
1726.934975317913
 20
1312.669730067238
 10
1727.287665414608
 20
1312.891072311384
 10
1727.573094409436
 20
1313.213961599396
 10
1727.783048935293
 20
1313.629110007531
 10
1727.911486187774
 20
1314.124575800224
 10
1727.954713049278
 20
1314.686104894737
  0
LWPOLYLINE
  5
B6E
330
B1C
100
AcDbEntity
  8
0
  6
Continuous
 62
     7
370
    15
100
AcDbPolyline
 90
       38
 70
   128
 43
0.0
 10
1719.115881445459
 20
1319.788653768815
 10
1719.072654583955
 20
1320.400091155053
 10
1718.944214697296
 20
1321.043848963687
 10
1718.734262805617
 20
1321.701404567123
 10
1718.448833810789
 20
1322.353842777679
 10
1718.096138445738
 20
1322.982395381174
 10
1717.68632619842
 20
1323.568978761952
 10
1717.231187649707
 20
1324.096716312953
 10
1716.743812030239
 20
1324.550428902144
 10
1716.238221069681
 20
1324.917062978776
 10
1715.728963333302
 20
1325.186070006296
 10
1715.23068485096
 20
1325.349713649069
 10
1714.757723453683
 20
1325.403284184847
 10
1714.323682036827
 20
1325.345241431751
 10
1713.941051872621
 20
1325.177253496534
 10
1713.620835922704
 20
1324.904155674238
 10
1713.37224854183
 20
1324.533802890214
 10
1713.202441523358
 20
1324.076849140181
 10
1713.116298633358
 20
1323.546441004397
 10
1713.116298633358
 20
1322.957837023133
 10
1713.202441523358
 20
1322.32797080382
 10
1713.37224854183
 20
1321.674962043406
 10
1713.620835922704
 20
1321.017596378667
 10
1713.941051872621
 20
1320.374784709937
 10
1714.323682036827
 20
1319.765021390581
 10
1714.757723453683
 20
1319.205845464743
 10
1715.23068485096
 20
1318.713346014411
 10
1715.728963333302
 20
1318.301689376963
 10
1716.238221069681
 20
1317.982719937491
 10
1716.743812030239
 20
1317.765611686726
 10
1717.231187649707
 20
1317.65661236334
 10
1717.68632619842
 20
1317.658858131403
 10
1718.096138445738
 20
1317.772281982673
 10
1718.448833810789
 20
1317.993621185461
 10
1718.734262805617
 20
1318.316510473473
 10
1718.944214697296
 20
1318.731660402287
 10
1719.072654583955
 20
1319.227124674302
 10
1719.115881445459
 20
1319.788653768815
  0
LWPOLYLINE
  5
B6F
330
B1C
100
AcDbEntity
  8
0
  6
Continuous
 62
     7
370
    15
100
AcDbPolyline
 90
       38
 70
   128
 43
0.0
 10
1710.277044573285
 20
1324.89120568425
 10
1710.233817711781
 20
1325.502643070488
 10
1710.1053804593
 20
1326.146399358443
 10
1709.895425933443
 20
1326.803956482558
 10
1709.609996938615
 20
1327.456394693113
 10
1709.257304207742
 20
1328.08494577593
 10
1708.847491960424
 20
1328.671529156708
 10
1708.392350777533
 20
1329.199268228387
 10
1707.904975158065
 20
1329.652980817579
 10
1707.399386831685
 20
1330.019613373532
 10
1706.890126461128
 20
1330.288621921731
 10
1706.391850612964
 20
1330.452264043825
 10
1705.918886581508
 20
1330.505836100281
 10
1705.484847798831
 20
1330.447791826507
 10
1705.102217634625
 20
1330.27980389129
 10
1704.782001684707
 20
1330.006706068994
 10
1704.533414303834
 20
1329.63635328497
 10
1704.363607285362
 20
1329.179399534937
 10
1704.277464395361
 20
1328.648991399153
 10
1704.277464395361
 20
1328.060387417889
 10
1704.363607285362
 20
1327.430521198576
 10
1704.533414303834
 20
1326.777512438163
 10
1704.782001684707
 20
1326.120146773423
 10
1705.102217634625
 20
1325.477335104693
 10
1705.484847798831
 20
1324.867571785337
 10
1705.918886581508
 20
1324.308397380178
 10
1706.391850612964
 20
1323.815896409167
 10
1706.890126461128
 20
1323.404241292398
 10
1707.399386831685
 20
1323.085270332247
 10
1707.904975158065
 20
1322.868163602161
 10
1708.392350777533
 20
1322.759164278775
 10
1708.847491960424
 20
1322.761408526159
 10
1709.257304207742
 20
1322.874832377429
 10
1709.609996938615
 20
1323.096173100896
 10
1709.895425933443
 20
1323.419062388908
 10
1710.1053804593
 20
1323.834210797043
 10
1710.233817711781
 20
1324.329676589736
 10
1710.277044573285
 20
1324.89120568425
  0
LINE
  5
B70
330
B1C
100
AcDbEntity
  8
0
  6
Continuous
 62
     7
370
    15
100
AcDbLine
 10
1806.443562821241
 20
1271.5787892541
 30
0.0
 11
1806.443562821241
 21
1283.82690115862
 31
0.0
  0
LINE
  5
B71
330
B1C
100
AcDbEntity
  8
0
  6
Continuous
 62
     7
370
    15
100
AcDbLine
 10
1806.443562821241
 20
1271.5787892541
 30
0.0
 11
1799.372495167427
 21
1267.496748786228
 31
0.0
  0
LWPOLYLINE
  5
B72
330
B1C
100
AcDbEntity
  8
0
  6
Continuous
 62
     7
370
    15
100
AcDbPolyline
 90
       15
 70
   128
 43
0.0
 10
1792.223179255173
 20
1290.0364453252
 10
1791.559039917687
 20
1289.874529644641
 10
1790.85506703391
 20
1289.784800862791
 10
1790.134564189074
 20
1289.770249584221
 10
1789.421437454318
 20
1289.831343179998
 10
1788.73932215667
 20
1289.966056961594
 10
1788.110806866661
 20
1290.169937146491
 10
1787.556744396137
 20
1290.436214053691
 10
1787.095489286033
 20
1290.756067509652
 10
1786.742320180527
 20
1291.118901663432
 10
1786.50896378167
 20
1291.51267844299
 10
1786.403135103011
 20
1291.924357744125
 10
1786.428351924675
 20
1292.340289100256
 10
1786.58377303837
 20
1292.746690078417
 10
1786.864249613862
 20
1293.13008955706
  0
ELLIPSE
  5
B73
330
B1C
100
AcDbEntity
  8
0
  6
Continuous
 62
     7
370
    15
100
AcDbEllipse
 10
1790.356888680626
 20
1289.472759810306
 30
0.0
 11
-3.558731157479657
 21
7.398056379326987
 31
0.0
210
0.0
220
0.0
230
0.9999999999999996
 40
0.2347860887583211
 41
4.487843998479227
 42
4.675709535131312
  0
ARC
  5
B74
330
B1C
100
AcDbEntity
  8
0
  6
Continuous
 62
     7
370
    15
100
AcDbCircle
 10
1791.284760353635
 20
1292.027936203703
 30
0.0
 40
3.728911834344589
100
AcDbArc
 50
294.6948569985143
 51
305.2997664688014
  0
ELLIPSE
  5
B75
330
B1C
100
AcDbEntity
  8
0
  6
Continuous
 62
     7
370
    15
100
AcDbEllipse
 10
1790.356888680626
 20
1289.472759810306
 30
0.0
 11
2.555205607683319
 21
10.59909328466005
 31
0.0
210
0.0
220
0.0
230
1.0
 40
0.2854313889643501
 41
4.735129962514758
 42
4.922995499166894
  0
LWPOLYLINE
  5
B76
330
B1C
100
AcDbEntity
  8
0
  6
Continuous
 62
     7
370
    15
100
AcDbPolyline
 90
       15
 70
   128
 43
0.0
 10
1788.490595082043
 20
1294.068958811447
 10
1789.154734584165
 20
1294.230874587049
 10
1789.858718004654
 20
1294.320597286184
 10
1790.579210477414
 20
1294.335154742511
 10
1791.292337129852
 20
1294.274061099213
 10
1791.974452262864
 20
1294.139347222574
 10
1792.602967799827
 20
1293.93546718024
 10
1793.157030270352
 20
1293.669190273041
 10
1793.618285380455
 20
1293.34933681708
 10
1793.971454239007
 20
1292.986502520736
 10
1794.2048108025
 20
1292.59272583622
 10
1794.310639563478
 20
1292.181046582607
 10
1794.28543311389
 20
1291.765109048719
 10
1794.130001463482
 20
1291.358714153273
 10
1793.849524723355
 20
1290.975314579587
  0
ELLIPSE
  5
B77
330
B1C
100
AcDbEntity
  8
0
  6
Continuous
 62
     7
370
    15
100
AcDbEllipse
 10
1790.356888680626
 20
1289.472759810306
 30
0.0
 11
2.555205607683319
 21
10.59909328466005
 31
0.0
210
0.0
220
0.0
230
1.0
 40
0.2854313889643501
 41
1.192104749987195
 42
1.350900197841352
  0
LINE
  5
B78
330
B1C
100
AcDbEntity
  8
0
  6
Continuous
 62
     7
370
    15
100
AcDbLine
 10
1789.154804389883
 20
1291.807780431004
 30
0.0
 11
1788.20021021052
 21
1291.256704941229
 31
0.0
  0
LINE
  5
B79
330
B1C
100
AcDbEntity
  8
0
  6
Continuous
 62
     7
370
    15
100
AcDbLine
 10
1788.978030299789
 20
1290.807678961481
 30
0.0
 11
1788.20021021052
 21
1291.256704941229
 31
0.0
  0
LINE
  5
B7A
330
B1C
100
AcDbEntity
  8
0
  6
Continuous
 62
     7
370
    15
100
AcDbLine
 10
1789.932624479152
 20
1291.358754451256
 30
0.0
 11
1788.978030299789
 21
1290.807678961481
 31
0.0
  0
LINE
  5
B7B
330
B1C
100
AcDbEntity
  8
0
  6
Continuous
 62
     7
370
    15
100
AcDbLine
 10
1789.932624479152
 20
1291.358754451256
 30
0.0
 11
1792.223179255173
 21
1290.0364453252
 31
0.0
  0
LINE
  5
B7C
330
B1C
100
AcDbEntity
  8
0
  6
Continuous
 62
     7
370
    15
100
AcDbLine
 10
1789.154804389883
 20
1291.807780431004
 30
0.0
 11
1786.864249613862
 21
1293.13008955706
 31
0.0
  0
LINE
  5
B7D
330
B1C
100
AcDbEntity
  8
0
  6
Continuous
 62
     7
370
    15
100
AcDbLine
 10
1793.439528083575
 20
1288.984622302981
 30
0.0
 11
1792.443007997383
 21
1289.559901103586
 31
0.0
  0
LINE
  5
B7E
330
B1C
100
AcDbEntity
  8
0
  6
Continuous
 62
     7
370
    15
100
AcDbLine
 10
1789.629790152978
 20
1291.183937196581
 30
0.0
 11
1789.353001262095
 21
1291.34372402213
 31
0.0
  0
LINE
  5
B7F
330
B1C
100
AcDbEntity
  8
0
  6
Continuous
 62
     7
370
    15
100
AcDbLine
 10
1791.246716129789
 20
1291.296761855063
 30
0.0
 11
1790.643362919931
 21
1290.948453460965
 31
0.0
  0
LINE
  5
B80
330
B1C
100
AcDbEntity
  8
0
  6
Continuous
 62
     7
370
    15
100
AcDbLine
 10
1791.062555145948
 20
1290.706459162175
 30
0.0
 11
1791.558969947333
 21
1292.297623705643
 31
0.0
  0
LINE
  5
B81
330
B1C
100
AcDbEntity
  8
0
  6
Continuous
 62
     7
370
    15
100
AcDbLine
 10
1793.849524723355
 20
1290.975314579587
 30
0.0
 11
1791.558969947333
 21
1292.297623705643
 31
0.0
  0
LINE
  5
B82
330
B1C
100
AcDbEntity
  8
0
  6
Continuous
 62
     7
370
    15
100
AcDbLine
 10
1790.781149858064
 20
1292.746649685391
 30
0.0
 11
1791.735744037427
 21
1293.297725175166
 31
0.0
  0
LINE
  5
B83
330
B1C
100
AcDbEntity
  8
0
  6
Continuous
 62
     7
370
    15
100
AcDbLine
 10
1790.781149858064
 20
1292.746649685391
 30
0.0
 11
1788.490595082043
 21
1294.068958811447
 31
0.0
  0
LINE
  5
B84
330
B1C
100
AcDbEntity
  8
0
  6
Continuous
 62
     7
370
    15
100
AcDbLine
 10
1792.513564126696
 20
1292.848699195418
 30
0.0
 11
1791.558969947333
 21
1292.297623705643
 31
0.0
  0
LINE
  5
B85
330
B1C
100
AcDbEntity
  8
0
  6
Continuous
 62
     7
370
    15
100
AcDbLine
 10
1791.735744037427
 20
1293.297725175166
 30
0.0
 11
1792.513564126696
 21
1292.848699195418
 31
0.0
  0
LWPOLYLINE
  5
B86
330
B1C
100
AcDbEntity
  8
0
  6
Continuous
 62
     7
370
    15
100
AcDbPolyline
 90
       19
 70
   128
 43
0.0
 10
1784.880664123821
 20
1284.473120907513
 10
1784.685071136594
 20
1284.287849991802
 10
1784.436478487364
 20
1283.917500249136
 10
1784.266668834714
 20
1283.460548019781
 10
1784.18053121307
 20
1282.93013684264
 10
1784.18053121307
 20
1282.341532861376
 10
1784.266668834714
 20
1281.71166968342
 10
1784.436478487364
 20
1281.058659402328
 10
1784.685071136594
 20
1280.401290696232
 10
1785.005281818155
 20
1279.758482068858
 10
1785.387911982361
 20
1279.148718749502
 10
1785.821950765039
 20
1278.589544344343
 10
1786.294912162316
 20
1278.097044894012
 10
1786.793193278836
 20
1277.685386735885
 10
1787.302453649393
 20
1277.366415775734
 10
1787.80804724413
 20
1277.14930600429
 10
1788.295422863598
 20
1277.040306680904
 10
1788.750556143954
 20
1277.042555490325
 10
1789.115589998908
 20
1277.137217942455
  0
LINE
  5
B87
330
B1C
100
AcDbEntity
  8
0
  6
Continuous
 62
     7
370
    15
100
AcDbLine
 10
1789.462500420887
 20
1291.087354269963
 30
0.0
 11
1789.154804389883
 21
1291.807780431004
 31
0.0
  0
LINE
  5
B88
330
B1C
100
AcDbEntity
  8
0
  6
Continuous
 62
     7
370
    15
100
AcDbLine
 10
1790.781149858064
 20
1292.746649685391
 30
0.0
 11
1790.409700462515
 21
1291.083344148699
 31
0.0
  0
LINE
  5
B89
330
B1C
100
AcDbEntity
  8
0
  6
Continuous
 62
     7
370
    15
100
AcDbLine
 10
1791.735744037427
 20
1293.297725175166
 30
0.0
 11
1791.735749305784
 21
1292.399672917726
 31
0.0
  0
LWPOLYLINE
  5
B8A
330
B1C
100
AcDbEntity
  8
0
  6
Continuous
 62
     7
370
    15
100
AcDbPolyline
 90
       15
 70
   128
 43
0.0
 10
1783.384352919711
 20
1295.13899115792
 10
1782.720213582225
 20
1294.977075477361
 10
1782.016230161736
 20
1294.887352778226
 10
1781.295737853612
 20
1294.872795416942
 10
1780.582611118856
 20
1294.933889012718
 10
1779.900485284496
 20
1295.068608877029
 10
1779.271980531199
 20
1295.272482979212
 10
1778.717907523963
 20
1295.538765969125
 10
1778.256652413859
 20
1295.858619425087
 10
1777.903493845064
 20
1296.221447496153
 10
1777.670126909496
 20
1296.615230358425
 10
1777.564298230837
 20
1297.026909659559
 10
1777.5895150525
 20
1297.442841015691
 10
1777.744936166196
 20
1297.849241993852
 10
1778.025412741688
 20
1298.232641472495
  0
ELLIPSE
  5
B8B
330
B1C
100
AcDbEntity
  8
0
  6
Continuous
 62
     7
370
    15
100
AcDbEllipse
 10
1781.518053915794
 20
1294.575310509198
 30
0.0
 11
-3.558731157479712
 21
7.398056379326988
 31
0.0
210
0.0
220
0.0
230
1.0
 40
0.2347860887583328
 41
4.487843998479199
 42
4.675709535131298
  0
ARC
  5
B8C
330
B1C
100
AcDbEntity
  8
0
  6
Continuous
 62
     7
370
    15
100
AcDbCircle
 10
1782.445923481462
 20
1297.130488119136
 30
0.0
 40
3.728911834342344
100
AcDbArc
 50
294.6948569985089
 51
305.2997664688014
  0
ELLIPSE
  5
B8D
330
B1C
100
AcDbEntity
  8
0
  6
Continuous
 62
     7
370
    15
100
AcDbEllipse
 10
1781.518053915794
 20
1294.575310509198
 30
0.0
 11
2.555205607683206
 21
10.59909328466005
 31
0.0
210
0.0
220
0.0
230
1.0
 40
0.2854313889643456
 41
4.735129962514752
 42
4.922995499166884
  0
LWPOLYLINE
  5
B8E
330
B1C
100
AcDbEntity
  8
0
  6
Continuous
 62
     7
370
    15
100
AcDbPolyline
 90
       15
 70
   128
 43
0.0
 10
1779.651758209868
 20
1299.171510726882
 10
1780.315897711991
 20
1299.333426502484
 10
1781.01988113248
 20
1299.423149201619
 10
1781.74037360524
 20
1299.437706657945
 10
1782.453500257678
 20
1299.376613014648
 10
1783.135625927402
 20
1299.241893055295
 10
1783.764130927653
 20
1299.038019095675
 10
1784.318193398178
 20
1298.771742188476
 10
1784.779459044993
 20
1298.4518826498
 10
1785.132617366834
 20
1298.089054436171
 10
1785.365984467038
 20
1297.695271668941
 10
1785.471813228015
 20
1297.283592415328
 10
1785.446596241716
 20
1296.867660964153
 10
1785.29117512802
 20
1296.461259985993
 10
1785.010698387893
 20
1296.077860412307
  0
ELLIPSE
  5
B8F
330
B1C
100
AcDbEntity
  8
0
  6
Continuous
 62
     7
370
    15
100
AcDbEllipse
 10
1781.518053915794
 20
1294.575310509198
 30
0.0
 11
2.555205607683206
 21
10.59909328466005
 31
0.0
210
0.0
220
0.0
230
1.0
 40
0.2854313889643456
 41
1.192104749987207
 42
1.350900197841356
  0
LINE
  5
B90
330
B1C
100
AcDbEntity
  8
0
  6
Continuous
 62
     7
370
    15
100
AcDbLine
 10
1780.315967517709
 20
1296.910332346439
 30
0.0
 11
1779.361373338346
 21
1296.359256856664
 31
0.0
  0
LINE
  5
B91
330
B1C
100
AcDbEntity
  8
0
  6
Continuous
 62
     7
370
    15
100
AcDbLine
 10
1780.139193427614
 20
1295.910230876916
 30
0.0
 11
1779.361373338346
 21
1296.359256856664
 31
0.0
  0
LINE
  5
B92
330
B1C
100
AcDbEntity
  8
0
  6
Continuous
 62
     7
370
    15
100
AcDbLine
 10
1781.093787606977
 20
1296.461306366691
 30
0.0
 11
1780.139193427614
 21
1295.910230876916
 31
0.0
  0
LINE
  5
B93
330
B1C
100
AcDbEntity
  8
0
  6
Continuous
 62
     7
370
    15
100
AcDbLine
 10
1781.093787606977
 20
1296.461306366691
 30
0.0
 11
1783.384352919711
 21
1295.13899115792
 31
0.0
  0
LINE
  5
B94
330
B1C
100
AcDbEntity
  8
0
  6
Continuous
 62
     7
370
    15
100
AcDbLine
 10
1780.315967517709
 20
1296.910332346439
 30
0.0
 11
1778.025412741688
 21
1298.232641472495
 31
0.0
  0
LINE
  5
B95
330
B1C
100
AcDbEntity
  8
0
  6
Continuous
 62
     7
370
    15
100
AcDbLine
 10
1784.600691211401
 20
1294.087174218416
 30
0.0
 11
1783.604171125209
 21
1294.662453019021
 31
0.0
  0
LINE
  5
B96
330
B1C
100
AcDbEntity
  8
0
  6
Continuous
 62
     7
370
    15
100
AcDbLine
 10
1780.790963817516
 20
1296.286483029301
 30
0.0
 11
1780.51416438992
 21
1296.446275937564
 31
0.0
  0
LINE
  5
B97
330
B1C
100
AcDbEntity
  8
0
  6
Continuous
 62
     7
370
    15
100
AcDbLine
 10
1782.407889794327
 20
1296.399307687784
 30
0.0
 11
1781.804536584469
 21
1296.050999293685
 31
0.0
  0
LINE
  5
B98
330
B1C
100
AcDbEntity
  8
0
  6
Continuous
 62
     7
370
    15
100
AcDbLine
 10
1782.223718273774
 20
1295.80901107761
 30
0.0
 11
1782.720133075159
 21
1297.400175621078
 31
0.0
  0
LINE
  5
B99
330
B1C
100
AcDbEntity
  8
0
  6
Continuous
 62
     7
370
    15
100
AcDbLine
 10
1785.010698387893
 20
1296.077860412307
 30
0.0
 11
1782.720133075159
 21
1297.400175621078
 31
0.0
  0
LINE
  5
B9A
330
B1C
100
AcDbEntity
  8
0
  6
Continuous
 62
     7
370
    15
100
AcDbLine
 10
1781.94231298589
 20
1297.849201600826
 30
0.0
 11
1782.896907165253
 21
1298.400277090601
 31
0.0
  0
LINE
  5
B9B
330
B1C
100
AcDbEntity
  8
0
  6
Continuous
 62
     7
370
    15
100
AcDbLine
 10
1781.94231298589
 20
1297.849201600826
 30
0.0
 11
1779.651758209868
 21
1299.171510726882
 31
0.0
  0
LINE
  5
B9C
330
B1C
100
AcDbEntity
  8
0
  6
Continuous
 62
     7
370
    15
100
AcDbLine
 10
1783.674727254522
 20
1297.951251110853
 30
0.0
 11
1782.720133075159
 21
1297.400175621078
 31
0.0
  0
LINE
  5
B9D
330
B1C
100
AcDbEntity
  8
0
  6
Continuous
 62
     7
370
    15
100
AcDbLine
 10
1782.896907165253
 20
1298.400277090601
 30
0.0
 11
1783.674727254522
 21
1297.951251110853
 31
0.0
  0
LWPOLYLINE
  5
B9E
330
B1C
100
AcDbEntity
  8
0
  6
Continuous
 62
     7
370
    15
100
AcDbPolyline
 90
       15
 70
   128
 43
0.0
 10
1775.33087313754
 20
1287.744633905285
 10
1775.374094730688
 20
1287.133199180173
 10
1775.502537251525
 20
1286.48943985086
 10
1775.712491777382
 20
1285.831883106977
 10
1775.99792077221
 20
1285.17944451619
 10
1776.350616137261
 20
1284.550891912695
 10
1776.760420482045
 20
1283.964313474184
 10
1777.215564299114
 20
1283.436572881826
 10
1777.702939918582
 20
1282.982860292635
 10
1778.208533513319
 20
1282.616224124977
 10
1778.717783347164
 20
1282.347221659493
 10
1779.216064463684
 20
1282.183576686157
 10
1779.689025860961
 20
1282.130006530611
 10
1780.123064643638
 20
1282.188050424154
 10
1780.276763663445
 20
1282.239763775176
  0
ARC
  5
B9F
330
B1C
100
AcDbEntity
  8
0
  6
Continuous
 62
     7
370
    15
100
AcDbCircle
 10
1777.552107717507
 20
1287.935704602914
 30
0.0
 40
2.229437388834174
100
AcDbArc
 50
132.642515814238
 51
184.916482924272
  0
LINE
  5
BA0
330
B1C
100
AcDbEntity
  8
0
  6
Continuous
 62
     7
370
    15
100
AcDbLine
 10
1780.623663548713
 20
1296.189906185398
 30
0.0
 11
1780.315967517709
 21
1296.910332346439
 31
0.0
  0
LINE
  5
BA1
330
B1C
100
AcDbEntity
  8
0
  6
Continuous
 62
     7
370
    15
100
AcDbLine
 10
1782.896907165253
 20
1298.400277090601
 30
0.0
 11
1782.896912433609
 21
1297.502224833161
 31
0.0
  0
LINE
  5
BA2
330
B1C
100
AcDbEntity
  8
0
  6
Continuous
 62
     7
370
    15
100
AcDbLine
 10
1781.94231298589
 20
1297.849201600826
 30
0.0
 11
1781.57086359034
 21
1296.185896064134
 31
0.0
  0
LWPOLYLINE
  5
BA3
330
B1C
100
AcDbEntity
  8
0
  6
Continuous
 62
     7
370
    15
100
AcDbPolyline
 90
       15
 70
   128
 43
0.0
 10
1774.545516047537
 20
1300.241543073355
 10
1773.88137671005
 20
1300.079627392796
 10
1773.177393289562
 20
1299.989904693661
 10
1772.456900981438
 20
1299.975347332377
 10
1771.743774246682
 20
1300.036440928153
 10
1771.061648412322
 20
1300.171160792464
 10
1770.433143659024
 20
1300.375034894647
 10
1769.8790811885
 20
1300.641311801846
 10
1769.417815541685
 20
1300.961171340522
 10
1769.06465697289
 20
1301.323999411587
 10
1768.831290037322
 20
1301.71778227386
 10
1768.725461358663
 20
1302.129461574994
 10
1768.750678180326
 20
1302.545392931126
 10
1768.906099294022
 20
1302.951793909286
 10
1769.186575869514
 20
1303.33519338793
  0
ELLIPSE
  5
BA4
330
B1C
100
AcDbEntity
  8
0
  6
Continuous
 62
     7
370
    15
100
AcDbEllipse
 10
1772.679219150963
 20
1299.67786120809
 30
0.0
 11
-3.558731157479712
 21
7.398056379326988
 31
0.0
210
0.0
220
0.0
230
1.0
 40
0.2347860887583266
 41
4.487843998479208
 42
4.675709535131305
  0
ARC
  5
BA5
330
B1C
100
AcDbEntity
  8
0
  6
Continuous
 62
     7
370
    15
100
AcDbCircle
 10
1773.607497777766
 20
1302.232327792703
 30
0.0
 40
3.728092950605705
100
AcDbArc
 50
294.6936889651734
 51
305.300934502135
  0
ELLIPSE
  5
BA6
330
B1C
100
AcDbEntity
  8
0
  6
Continuous
 62
     7
370
    15
100
AcDbEllipse
 10
1772.679219150963
 20
1299.67786120809
 30
0.0
 11
2.555205607683149
 21
10.59909328466017
 31
0.0
210
0.0
220
0.0
230
1.0
 40
0.2854313889643469
 41
4.735129962514754
 42
4.922995499166872
  0
LWPOLYLINE
  5
BA7
330
B1C
100
AcDbEntity
  8
0
  6
Continuous
 62
     7
370
    15
100
AcDbPolyline
 90
       15
 70
   128
 43
0.0
 10
1770.812921337694
 20
1304.274062642317
 10
1771.477060839817
 20
1304.435978417919
 10
1772.181044260306
 20
1304.525701117053
 10
1772.901536733066
 20
1304.54025857338
 10
1773.614663385503
 20
1304.479164930083
 10
1774.296789055228
 20
1304.344444970729
 10
1774.925294055479
 20
1304.14057101111
 10
1775.479367062715
 20
1303.874288021196
 10
1775.940622172819
 20
1303.554434565235
 10
1776.293780494659
 20
1303.191606351606
 10
1776.527147594864
 20
1302.797823584376
 10
1776.632976355841
 20
1302.386144330763
 10
1776.607759369541
 20
1301.970212879588
 10
1776.452338255846
 20
1301.563811901428
 10
1776.171861515718
 20
1301.180412327742
  0
ELLIPSE
  5
BA8
330
B1C
100
AcDbEntity
  8
0
  6
Continuous
 62
     7
370
    15
100
AcDbEllipse
 10
1772.679219150963
 20
1299.67786120809
 30
0.0
 11
2.555205607683149
 21
10.59909328466017
 31
0.0
210
0.0
220
0.0
230
1.0
 40
0.2854313889643469
 41
1.192104749987186
 42
1.350900197841381
  0
LINE
  5
BA9
330
B1C
100
AcDbEntity
  8
0
  6
Continuous
 62
     7
370
    15
100
AcDbLine
 10
1770.522547002884
 20
1301.461802689385
 30
0.0
 11
1771.477141182247
 21
1302.01287817916
 31
0.0
  0
LINE
  5
BAA
330
B1C
100
AcDbEntity
  8
0
  6
Continuous
 62
     7
370
    15
100
AcDbLine
 10
1771.30035655544
 20
1301.012782792351
 30
0.0
 11
1770.522547002884
 21
1301.461802689385
 31
0.0
  0
LINE
  5
BAB
330
B1C
100
AcDbEntity
  8
0
  6
Continuous
 62
     7
370
    15
100
AcDbLine
 10
1772.254950734803
 20
1301.563858282126
 30
0.0
 11
1771.30035655544
 21
1301.012782792351
 31
0.0
  0
LINE
  5
BAC
330
B1C
100
AcDbEntity
  8
0
  6
Continuous
 62
     7
370
    15
100
AcDbLine
 10
1772.254950734803
 20
1301.563858282126
 30
0.0
 11
1774.545516047537
 21
1300.241543073355
 31
0.0
  0
LINE
  5
BAD
330
B1C
100
AcDbEntity
  8
0
  6
Continuous
 62
     7
370
    15
100
AcDbLine
 10
1769.186575869514
 20
1303.33519338793
 30
0.0
 11
1771.477141182247
 21
1302.01287817916
 31
0.0
  0
LINE
  5
BAE
330
B1C
100
AcDbEntity
  8
0
  6
Continuous
 62
     7
370
    15
100
AcDbLine
 10
1775.761854339226
 20
1299.189726133851
 30
0.0
 11
1774.765334253035
 21
1299.765004934456
 31
0.0
  0
LINE
  5
BAF
330
B1C
100
AcDbEntity
  8
0
  6
Continuous
 62
     7
370
    15
100
AcDbLine
 10
1771.952126945341
 20
1301.389034944736
 30
0.0
 11
1771.675338054458
 21
1301.548821770285
 31
0.0
  0
LINE
  5
BB0
330
B1C
100
AcDbEntity
  8
0
  6
Continuous
 62
     7
370
    15
100
AcDbLine
 10
1772.965699712295
 20
1301.15355120912
 30
0.0
 11
1773.569052922153
 21
1301.501859603219
 31
0.0
  0
LWPOLYLINE
  5
BB1
330
B1C
100
AcDbEntity
  8
0
  6
Continuous
 62
     7
370
    15
100
AcDbPolyline
 90
       16
 70
   128
 43
0.0
 10
1765.784928051187
 20
1293.255390703881
 10
1765.828434135562
 20
1292.57589191508
 10
1765.957930327612
 20
1291.862090630274
 10
1766.170392590955
 20
1291.130711045841
 10
1766.460826524044
 20
1290.398904173192
 10
1766.822435947555
 20
1289.683816291888
 10
1767.246738808227
 20
1289.002212531396
 10
1767.723798986521
 20
1288.370063391135
 10
1768.242415957448
 20
1287.802196846504
 10
1768.790451428635
 20
1287.311913014958
 10
1769.355050611287
 20
1286.91070926944
 10
1769.922979394971
 20
1286.607989202843
 10
1770.48092991227
 20
1286.410846685222
 10
1771.015826103434
 20
1286.323901062138
 10
1771.515129281031
 20
1286.349191098752
 10
1771.939295164444
 20
1286.473829512315
  0
ARC
  5
BB2
330
B1C
100
AcDbEntity
  8
0
  6
Continuous
 62
     7
370
    15
100
AcDbCircle
 10
1768.554919763469
 20
1293.476211384373
 30
0.0
 40
2.778779562873662
100
AcDbArc
 50
131.8315503665471
 51
184.5579172380512
  0
LINE
  5
BB3
330
B1C
100
AcDbEntity
  8
0
  6
Continuous
 62
     7
370
    15
100
AcDbLine
 10
1773.384891938312
 20
1300.91155691033
 30
0.0
 11
1773.881296202985
 21
1302.502727536513
 31
0.0
  0
LINE
  5
BB4
330
B1C
100
AcDbEntity
  8
0
  6
Continuous
 62
     7
370
    15
100
AcDbLine
 10
1773.881296202985
 20
1302.502727536513
 30
0.0
 11
1776.171861515718
 21
1301.180412327742
 31
0.0
  0
LINE
  5
BB5
330
B1C
100
AcDbEntity
  8
0
  6
Continuous
 62
     7
370
    15
100
AcDbLine
 10
1773.103486650428
 20
1302.951747433546
 30
0.0
 11
1774.058080829791
 21
1303.502822923321
 31
0.0
  0
LINE
  5
BB6
330
B1C
100
AcDbEntity
  8
0
  6
Continuous
 62
     7
370
    15
100
AcDbLine
 10
1773.103486650428
 20
1302.951747433546
 30
0.0
 11
1770.812921337694
 21
1304.274062642317
 31
0.0
  0
LINE
  5
BB7
330
B1C
100
AcDbEntity
  8
0
  6
Continuous
 62
     7
370
    15
100
AcDbLine
 10
1773.881296202985
 20
1302.502727536513
 30
0.0
 11
1774.835890382348
 21
1303.053803026287
 31
0.0
  0
LINE
  5
BB8
330
B1C
100
AcDbEntity
  8
0
  6
Continuous
 62
     7
370
    15
100
AcDbLine
 10
1774.058080829791
 20
1303.502822923321
 30
0.0
 11
1774.835890382348
 21
1303.053803026287
 31
0.0
  0
LINE
  5
BB9
330
B1C
100
AcDbEntity
  8
0
  6
Continuous
 62
     7
370
    15
100
AcDbLine
 10
1771.784826676539
 20
1301.292458100833
 30
0.0
 11
1771.477141182247
 21
1302.01287817916
 31
0.0
  0
LINE
  5
BBA
330
B1C
100
AcDbEntity
  8
0
  6
Continuous
 62
     7
370
    15
100
AcDbLine
 10
1773.103486650428
 20
1302.951747433546
 30
0.0
 11
1772.732037254878
 21
1301.288441896854
 31
0.0
  0
LINE
  5
BBB
330
B1C
100
AcDbEntity
  8
0
  6
Continuous
 62
     7
370
    15
100
AcDbLine
 10
1774.058080829791
 20
1303.502822923321
 30
0.0
 11
1774.058075561435
 21
1302.604776748596
 31
0.0
  0
LWPOLYLINE
  5
BBC
330
B1C
100
AcDbEntity
  8
0
  6
Continuous
 62
     7
370
    15
100
AcDbPolyline
 90
       15
 70
   128
 43
0.0
 10
1765.706679175363
 20
1305.34409498879
 10
1765.042539837876
 20
1305.182179308231
 10
1764.338556417387
 20
1305.092456609096
 10
1763.618064109264
 20
1305.077899247812
 10
1762.904937374508
 20
1305.138992843588
 10
1762.222816808503
 20
1305.273709666541
 10
1761.59430678685
 20
1305.477586810081
 10
1761.04023904797
 20
1305.743866758638
 10
1760.578983937867
 20
1306.063720214599
 10
1760.225820100716
 20
1306.426551327022
 10
1759.992458433503
 20
1306.820331147937
 10
1759.886629754844
 20
1307.232010449072
 10
1759.911846576508
 20
1307.647941805204
 10
1760.067267690203
 20
1308.054342783364
 10
1760.347744265695
 20
1308.437742262007
  0
ELLIPSE
  5
BBD
330
B1C
100
AcDbEntity
  8
0
  6
Continuous
 62
     7
370
    15
100
AcDbEllipse
 10
1763.840384386131
 20
1304.780411906982
 30
0.0
 11
-3.558731157479657
 21
7.398056379326987
 31
0.0
210
0.0
220
0.0
230
0.9999999999999996
 40
0.2347860887583181
 41
4.48784399847923
 42
4.675709535131313
  0
ARC
  5
BBE
330
B1C
100
AcDbEntity
  8
0
  6
Continuous
 62
     7
370
    15
100
AcDbCircle
 10
1764.768660905595
 20
1307.334879708133
 30
0.0
 40
3.728092950599771
100
AcDbArc
 50
294.6936889651616
 51
305.300934502135
  0
ELLIPSE
  5
BBF
330
B1C
100
AcDbEntity
  8
0
  6
Continuous
 62
     7
370
    15
100
AcDbEllipse
 10
1763.840384386131
 20
1304.780411906982
 30
0.0
 11
2.555205607683263
 21
10.59909328466006
 31
0.0
210
0.0
220
0.0
230
0.9999999999999998
 40
0.2854313889643555
 41
4.735129962514755
 42
4.922995499166876
  0
LWPOLYLINE
  5
BC0
330
B1C
100
AcDbEntity
  8
0
  6
Continuous
 62
     7
370
    15
100
AcDbPolyline
 90
       15
 70
   128
 43
0.0
 10
1761.974089733876
 20
1309.376611516394
 10
1762.638229235999
 20
1309.538527291996
 10
1763.342212656487
 20
1309.628249991131
 10
1764.062705129247
 20
1309.642807447458
 10
1764.775831781685
 20
1309.58171380416
 10
1765.457952183053
 20
1309.446996886164
 10
1766.086462451661
 20
1309.243119885188
 10
1766.640524922185
 20
1308.976842977989
 10
1767.101785300644
 20
1308.65698648067
 10
1767.454948890841
 20
1308.294155225684
 10
1767.688310722689
 20
1307.900375499811
 10
1767.794139483667
 20
1307.488696246198
 10
1767.768922497367
 20
1307.072764795023
 10
1767.613501383672
 20
1306.666363816863
 10
1767.333024643544
 20
1306.282964243177
  0
ELLIPSE
  5
BC1
330
B1C
100
AcDbEntity
  8
0
  6
Continuous
 62
     7
370
    15
100
AcDbEllipse
 10
1763.840384386131
 20
1304.780411906982
 30
0.0
 11
2.555205607683263
 21
10.59909328466006
 31
0.0
210
0.0
220
0.0
230
0.9999999999999998
 40
0.2854313889643555
 41
1.192104749987185
 42
1.35090019784138
  0
LINE
  5
BC2
330
B1C
100
AcDbEntity
  8
0
  6
Continuous
 62
     7
370
    15
100
AcDbLine
 10
1761.68371013071
 20
1306.564354604819
 30
0.0
 11
1762.638304310073
 21
1307.115430094594
 31
0.0
  0
LINE
  5
BC3
330
B1C
100
AcDbEntity
  8
0
  6
Continuous
 62
     7
370
    15
100
AcDbLine
 10
1762.461524951622
 20
1306.115331666429
 30
0.0
 11
1761.68371013071
 21
1306.564354604819
 31
0.0
  0
LINE
  5
BC4
330
B1C
100
AcDbEntity
  8
0
  6
Continuous
 62
     7
370
    15
100
AcDbLine
 10
1763.416119130985
 20
1306.666407156203
 30
0.0
 11
1762.461524951622
 21
1306.115331666429
 31
0.0
  0
LINE
  5
BC5
330
B1C
100
AcDbEntity
  8
0
  6
Continuous
 62
     7
370
    15
100
AcDbLine
 10
1763.416119130985
 20
1306.666407156203
 30
0.0
 11
1765.706679175363
 21
1305.34409498879
 31
0.0
  0
LINE
  5
BC6
330
B1C
100
AcDbEntity
  8
0
  6
Continuous
 62
     7
370
    15
100
AcDbLine
 10
1760.347744265695
 20
1308.437742262007
 30
0.0
 11
1762.638304310073
 21
1307.115430094594
 31
0.0
  0
LINE
  5
BC7
330
B1C
100
AcDbEntity
  8
0
  6
Continuous
 62
     7
370
    15
100
AcDbLine
 10
1766.923017467052
 20
1304.292278049286
 30
0.0
 11
1765.926502649216
 21
1304.867553808533
 31
0.0
  0
LINE
  5
BC8
330
B1C
100
AcDbEntity
  8
0
  6
Continuous
 62
     7
370
    15
100
AcDbLine
 10
1763.113290073167
 20
1306.491586860171
 30
0.0
 11
1762.836501182284
 21
1306.65137368572
 31
0.0
  0
LINE
  5
BC9
330
B1C
100
AcDbEntity
  8
0
  6
Continuous
 62
     7
370
    15
100
AcDbLine
 10
1764.126862840121
 20
1306.256103124555
 30
0.0
 11
1764.730216049979
 21
1306.604411518654
 31
0.0
  0
LINE
  5
BCA
330
B1C
100
AcDbEntity
  8
0
  6
Continuous
 62
     7
370
    15
100
AcDbLine
 10
1764.546049797782
 20
1306.014111867123
 30
0.0
 11
1765.042464599166
 21
1307.60527641059
 31
0.0
  0
LINE
  5
BCB
330
B1C
100
AcDbEntity
  8
0
  6
Continuous
 62
     7
370
    15
100
AcDbLine
 10
1765.042464599166
 20
1307.60527641059
 30
0.0
 11
1767.333024643544
 21
1306.282964243177
 31
0.0
  0
LINE
  5
BCC
330
B1C
100
AcDbEntity
  8
0
  6
Continuous
 62
     7
370
    15
100
AcDbLine
 10
1764.264649778254
 20
1308.054299348981
 30
0.0
 11
1765.219243957617
 21
1308.605374838756
 31
0.0
  0
LINE
  5
BCD
330
B1C
100
AcDbEntity
  8
0
  6
Continuous
 62
     7
370
    15
100
AcDbLine
 10
1764.264649778254
 20
1308.054299348981
 30
0.0
 11
1761.974089733876
 21
1309.376611516394
 31
0.0
  0
LINE
  5
BCE
330
B1C
100
AcDbEntity
  8
0
  6
Continuous
 62
     7
370
    15
100
AcDbLine
 10
1765.042464599166
 20
1307.60527641059
 30
0.0
 11
1765.997058778529
 21
1308.156351900365
 31
0.0
  0
LINE
  5
BCF
330
B1C
100
AcDbEntity
  8
0
  6
Continuous
 62
     7
370
    15
100
AcDbLine
 10
1765.219243957617
 20
1308.605374838756
 30
0.0
 11
1765.997058778529
 21
1308.156351900365
 31
0.0
  0
LWPOLYLINE
  5
BD0
330
B1C
100
AcDbEntity
  8
0
  6
Continuous
 62
     7
370
    15
100
AcDbPolyline
 90
       19
 70
   128
 43
0.0
 10
1758.36416404401
 20
1299.780770571103
 10
1758.168565788427
 20
1299.595502696749
 10
1757.919978407554
 20
1299.225149912726
 10
1757.750168754903
 20
1298.768197683371
 10
1757.664025864903
 20
1298.237789547587
 10
1757.664025864903
 20
1297.649185566324
 10
1757.750168754903
 20
1297.01931934701
 10
1757.919978407554
 20
1296.366309065918
 10
1758.168565788427
 20
1295.708943401179
 10
1758.488776469988
 20
1295.066134773806
 10
1758.871411902551
 20
1294.456368413093
 10
1759.305450685228
 20
1293.897194007933
 10
1759.778412082505
 20
1293.404694557602
 10
1760.276687930669
 20
1292.993039440832
 10
1760.785948301226
 20
1292.674068480681
 10
1761.291536627607
 20
1292.456961750595
 10
1761.778912247075
 20
1292.347962427209
 10
1762.234056064144
 20
1292.350205153915
 10
1762.599089919097
 20
1292.444867606045
  0
LINE
  5
BD1
330
B1C
100
AcDbEntity
  8
0
  6
Continuous
 62
     7
370
    15
100
AcDbLine
 10
1762.94599507272
 20
1306.395006974911
 30
0.0
 11
1762.638304310073
 21
1307.115430094594
 31
0.0
  0
LINE
  5
BD2
330
B1C
100
AcDbEntity
  8
0
  6
Continuous
 62
     7
370
    15
100
AcDbLine
 10
1765.219243957617
 20
1308.605374838756
 30
0.0
 11
1765.219243957617
 21
1307.707325622673
 31
0.0
  0
LINE
  5
BD3
330
B1C
100
AcDbEntity
  8
0
  6
Continuous
 62
     7
370
    15
100
AcDbLine
 10
1764.264649778254
 20
1308.054299348981
 30
0.0
 11
1763.893200382704
 21
1306.390993812289
 31
0.0
  0
LWPOLYLINE
  5
BD4
330
B1C
100
AcDbEntity
  8
0
  6
Continuous
 62
     7
370
    15
100
AcDbPolyline
 90
       15
 70
   128
 43
0.0
 10
1756.867847571545
 20
1310.446643862868
 10
1756.203708234058
 20
1310.284728182308
 10
1755.499724813569
 20
1310.195005483173
 10
1754.779227237089
 20
1310.180451163246
 10
1754.066100502334
 20
1310.241544759022
 10
1753.383979936329
 20
1310.376261581976
 10
1752.755469914676
 20
1310.580138725516
 10
1752.201407444152
 20
1310.846415632715
 10
1751.740147065692
 20
1311.166272130034
 10
1751.386983228542
 20
1311.529103242457
 10
1751.153621561329
 20
1311.922883063372
 10
1751.04779288267
 20
1312.334562364507
 10
1751.073009704334
 20
1312.750493720638
 10
1751.228430818029
 20
1313.156894698799
 10
1751.508907393521
 20
1313.540294177442
  0
ELLIPSE
  5
BD5
330
B1C
100
AcDbEntity
  8
0
  6
Continuous
 62
     7
370
    15
100
AcDbEllipse
 10
1755.001549621299
 20
1309.882962605874
 30
0.0
 11
-3.558731157479712
 21
7.398056379326988
 31
0.0
210
0.0
220
0.0
230
1.0
 40
0.2347860887583266
 41
4.487843998479196
 42
4.675709535131298
  0
ARC
  5
BD6
330
B1C
100
AcDbEntity
  8
0
  6
Continuous
 62
     7
370
    15
100
AcDbCircle
 10
1755.929623785256
 20
1312.437784585839
 30
0.0
 40
3.728502257406008
100
AcDbArc
 50
294.694272853588
 51
305.3003506137145
  0
ELLIPSE
  5
BD7
330
B1C
100
AcDbEntity
  8
0
  6
Continuous
 62
     7
370
    15
100
AcDbEllipse
 10
1755.001549621299
 20
1309.882962605874
 30
0.0
 11
2.555205607683149
 21
10.59909328466011
 31
0.0
210
0.0
220
0.0
230
0.9999999999999998
 40
0.2854313889643496
 41
4.735129962514757
 42
4.922995499166875
  0
LWPOLYLINE
  5
BD8
330
B1C
100
AcDbEntity
  8
0
  6
Continuous
 62
     7
370
    15
100
AcDbPolyline
 90
       15
 70
   128
 43
0.0
 10
1753.135252861702
 20
1314.479163431829
 10
1753.799392363825
 20
1314.641079207431
 10
1754.503375784313
 20
1314.730801906566
 10
1755.223868257073
 20
1314.745359362893
 10
1755.936994909511
 20
1314.684265719595
 10
1756.619115310879
 20
1314.549548801599
 10
1757.247625579487
 20
1314.345671800623
 10
1757.801693318367
 20
1314.079391852066
 10
1758.26294842847
 20
1313.759538396104
 10
1758.616112018667
 20
1313.396707141118
 10
1758.849473850515
 20
1313.002927415245
 10
1758.955302611493
 20
1312.591248161632
 10
1758.930090893549
 20
1312.175313669101
 10
1758.774669779853
 20
1311.76891269094
 10
1758.494193039726
 20
1311.385513117255
  0
ELLIPSE
  5
BD9
330
B1C
100
AcDbEntity
  8
0
  6
Continuous
 62
     7
370
    15
100
AcDbEllipse
 10
1755.001549621299
 20
1309.882962605874
 30
0.0
 11
2.555205607683149
 21
10.59909328466011
 31
0.0
210
0.0
220
0.0
230
0.9999999999999998
 40
0.2854313889643496
 41
1.192104749987187
 42
1.350900197841379
  0
LINE
  5
BDA
330
B1C
100
AcDbEntity
  8
0
  6
Continuous
 62
     7
370
    15
100
AcDbLine
 10
1752.844873258536
 20
1311.666906520254
 30
0.0
 11
1753.799467437898
 21
1312.217982010029
 31
0.0
  0
LINE
  5
BDB
330
B1C
100
AcDbEntity
  8
0
  6
Continuous
 62
     7
370
    15
100
AcDbLine
 10
1753.622693347804
 20
1311.217880540506
 30
0.0
 11
1752.844873258536
 21
1311.666906520254
 31
0.0
  0
LINE
  5
BDC
330
B1C
100
AcDbEntity
  8
0
  6
Continuous
 62
     7
370
    15
100
AcDbLine
 10
1754.577287527167
 20
1311.768956030281
 30
0.0
 11
1753.622693347804
 21
1311.217880540506
 31
0.0
  0
LINE
  5
BDD
330
B1C
100
AcDbEntity
  8
0
  6
Continuous
 62
     7
370
    15
100
AcDbLine
 10
1754.577287527167
 20
1311.768956030281
 30
0.0
 11
1756.867847571545
 21
1310.446643862868
 31
0.0
  0
LINE
  5
BDE
330
B1C
100
AcDbEntity
  8
0
  6
Continuous
 62
     7
370
    15
100
AcDbLine
 10
1751.508907393521
 20
1313.540294177442
 30
0.0
 11
1753.799467437898
 21
1312.217982010029
 31
0.0
  0
LINE
  5
BDF
330
B1C
100
AcDbEntity
  8
0
  6
Continuous
 62
     7
370
    15
100
AcDbLine
 10
1758.084185863234
 20
1309.394826923363
 30
0.0
 11
1757.087671045398
 21
1309.970102682611
 31
0.0
  0
LINE
  5
BE0
330
B1C
100
AcDbEntity
  8
0
  6
Continuous
 62
     7
370
    15
100
AcDbLine
 10
1754.274458469349
 20
1311.594135734249
 30
0.0
 11
1753.99766431011
 21
1311.753925601155
 31
0.0
  0
LINE
  5
BE1
330
B1C
100
AcDbEntity
  8
0
  6
Continuous
 62
     7
370
    15
100
AcDbLine
 10
1755.288025967947
 20
1311.35865503999
 30
0.0
 11
1755.891379177804
 21
1311.706963434088
 31
0.0
  0
LINE
  5
BE2
330
B1C
100
AcDbEntity
  8
0
  6
Continuous
 62
     7
370
    15
100
AcDbLine
 10
1755.707218193964
 20
1311.1166607412
 30
0.0
 11
1756.203632995348
 21
1312.707825284668
 31
0.0
  0
LINE
  5
BE3
330
B1C
100
AcDbEntity
  8
0
  6
Continuous
 62
     7
370
    15
100
AcDbLine
 10
1756.203632995348
 20
1312.707825284668
 30
0.0
 11
1758.494193039726
 21
1311.385513117255
 31
0.0
  0
LINE
  5
BE4
330
B1C
100
AcDbEntity
  8
0
  6
Continuous
 62
     7
370
    15
100
AcDbLine
 10
1755.42581290608
 20
1313.156851264416
 30
0.0
 11
1756.380407085442
 21
1313.707926754191
 31
0.0
  0
LINE
  5
BE5
330
B1C
100
AcDbEntity
  8
0
  6
Continuous
 62
     7
370
    15
100
AcDbLine
 10
1755.42581290608
 20
1313.156851264416
 30
0.0
 11
1753.135252861702
 21
1314.479163431829
 31
0.0
  0
LINE
  5
BE6
330
B1C
100
AcDbEntity
  8
0
  6
Continuous
 62
     7
370
    15
100
AcDbLine
 10
1756.203632995348
 20
1312.707825284668
 30
0.0
 11
1757.158227174711
 21
1313.258900774443
 31
0.0
  0
LINE
  5
BE7
330
B1C
100
AcDbEntity
  8
0
  6
Continuous
 62
     7
370
    15
100
AcDbLine
 10
1756.380407085442
 20
1313.707926754191
 30
0.0
 11
1757.158227174711
 21
1313.258900774443
 31
0.0
  0
LWPOLYLINE
  5
BE8
330
B1C
100
AcDbEntity
  8
0
  6
Continuous
 62
     7
370
    15
100
AcDbPolyline
 90
       19
 70
   128
 43
0.0
 10
1749.525327171836
 20
1304.883322486538
 10
1749.329728916253
 20
1304.698054612184
 10
1749.08114153538
 20
1304.32770182816
 10
1748.911331882729
 20
1303.870749598806
 10
1748.825188992729
 20
1303.340341463022
 10
1748.825188992729
 20
1302.751737481758
 10
1748.911331882729
 20
1302.121871262445
 10
1749.08114153538
 20
1301.468860981353
 10
1749.329728916253
 20
1300.811495316614
 10
1749.64994486617
 20
1300.168683647883
 10
1750.032575030376
 20
1299.558920328528
 10
1750.466613813054
 20
1298.999745923368
 10
1750.939575210331
 20
1298.507246473036
 10
1751.437856326851
 20
1298.095588314909
 10
1751.947111429052
 20
1297.776620396116
 10
1752.452705023789
 20
1297.559510624673
 10
1752.940080643257
 20
1297.450511301286
 10
1753.39521919197
 20
1297.45275706935
 10
1753.760258315278
 20
1297.547416480123
  0
LINE
  5
BE9
330
B1C
100
AcDbEntity
  8
0
  6
Continuous
 62
     7
370
    15
100
AcDbLine
 10
1754.107158200546
 20
1311.497558890345
 30
0.0
 11
1753.799467437898
 21
1312.217982010029
 31
0.0
  0
LINE
  5
BEA
330
B1C
100
AcDbEntity
  8
0
  6
Continuous
 62
     7
370
    15
100
AcDbLine
 10
1755.42581290608
 20
1313.156851264416
 30
0.0
 11
1755.05436351053
 21
1311.493545727724
 31
0.0
  0
LINE
  5
BEB
330
B1C
100
AcDbEntity
  8
0
  6
Continuous
 62
     7
370
    15
100
AcDbLine
 10
1756.380407085442
 20
1313.707926754191
 30
0.0
 11
1756.380407085442
 21
1312.809877538108
 31
0.0
  0
LWPOLYLINE
  5
BEC
330
B1C
100
AcDbEntity
  8
0
  6
Continuous
 62
     7
370
    15
100
AcDbPolyline
 90
       15
 70
   128
 43
0.0
 10
1748.02901069937
 20
1315.549195778302
 10
1747.364871361884
 20
1315.387280097743
 10
1746.660887941395
 20
1315.297557398608
 10
1745.940395633271
 20
1315.283000037324
 10
1745.227268898515
 20
1315.3440936331
 10
1744.545148332511
 20
1315.478810456054
 10
1743.916638310858
 20
1315.682687599594
 10
1743.362570571977
 20
1315.94896754815
 10
1742.901315461874
 20
1316.268821004112
 10
1742.548151624724
 20
1316.631652116535
 10
1742.314789957511
 20
1317.02543193745
 10
1742.208961278852
 20
1317.437111238584
 10
1742.234172832159
 20
1317.853045636073
 10
1742.389599214211
 20
1318.259443572876
 10
1742.670075789703
 20
1318.64284305152
  0
ELLIPSE
  5
BED
330
B1C
100
AcDbEntity
  8
0
  6
Continuous
 62
     7
370
    15
100
AcDbEllipse
 10
1746.162714856467
 20
1314.985513304766
 30
0.0
 11
-3.558731157479656
 21
7.398056379327045
 31
0.0
210
0.0
220
0.0
230
1.0
 40
0.2347860887583196
 41
4.48784399847922
 42
4.675709535131307
  0
ARC
  5
BEE
330
B1C
100
AcDbEntity
  8
0
  6
Continuous
 62
     7
370
    15
100
AcDbCircle
 10
1747.090786913082
 20
1317.540336501273
 30
0.0
 40
3.728502257404456
100
AcDbArc
 50
294.6942728535762
 51
305.3003506137145
  0
ELLIPSE
  5
BEF
330
B1C
100
AcDbEntity
  8
0
  6
Continuous
 62
     7
370
    15
100
AcDbEllipse
 10
1746.162714856467
 20
1314.985513304766
 30
0.0
 11
2.555205607683205
 21
10.59909328466011
 31
0.0
210
0.0
220
0.0
230
1.0
 40
0.2854313889643531
 41
4.735129962514759
 42
4.922995499166879
  0
LWPOLYLINE
  5
BF0
330
B1C
100
AcDbEntity
  8
0
  6
Continuous
 62
     7
370
    15
100
AcDbPolyline
 90
       15
 70
   128
 43
0.0
 10
1744.296421257884
 20
1319.581712305907
 10
1744.960560760006
 20
1319.743628081508
 10
1745.664538912139
 20
1319.833353822001
 10
1746.385036653255
 20
1319.84790823697
 10
1747.098163305693
 20
1319.786814593673
 10
1747.780283707061
 20
1319.652097675677
 10
1748.408793975668
 20
1319.4482206747
 10
1748.962856446192
 20
1319.181943767501
 10
1749.424116824652
 20
1318.862087270182
 10
1749.777280414848
 20
1318.499256015196
 10
1750.010642246697
 20
1318.105476289323
 10
1750.116471007675
 20
1317.69379703571
 10
1750.091254021375
 20
1317.277865584536
 10
1749.935832907679
 20
1316.871464606375
 10
1749.655356167551
 20
1316.488065032689
  0
ELLIPSE
  5
BF1
330
B1C
100
AcDbEntity
  8
0
  6
Continuous
 62
     7
370
    15
100
AcDbEllipse
 10
1746.162714856467
 20
1314.985513304766
 30
0.0
 11
2.555205607683205
 21
10.59909328466011
 31
0.0
210
0.0
220
0.0
230
1.0
 40
0.2854313889643531
 41
1.192104749987187
 42
1.350900197841379
  0
LINE
  5
BF2
330
B1C
100
AcDbEntity
  8
0
  6
Continuous
 62
     7
370
    15
100
AcDbLine
 10
1744.006041654717
 20
1316.769455394332
 30
0.0
 11
1744.96063583408
 21
1317.320530884106
 31
0.0
  0
LINE
  5
BF3
330
B1C
100
AcDbEntity
  8
0
  6
Continuous
 62
     7
370
    15
100
AcDbLine
 10
1744.78385647563
 20
1316.320432455941
 30
0.0
 11
1744.006041654717
 21
1316.769455394332
 31
0.0
  0
LINE
  5
BF4
330
B1C
100
AcDbEntity
  8
0
  6
Continuous
 62
     7
370
    15
100
AcDbLine
 10
1745.738450654993
 20
1316.871507945716
 30
0.0
 11
1744.78385647563
 21
1316.320432455941
 31
0.0
  0
LINE
  5
BF5
330
B1C
100
AcDbEntity
  8
0
  6
Continuous
 62
     7
370
    15
100
AcDbLine
 10
1745.738450654993
 20
1316.871507945716
 30
0.0
 11
1748.02901069937
 21
1315.549195778302
 31
0.0
  0
LINE
  5
BF6
330
B1C
100
AcDbEntity
  8
0
  6
Continuous
 62
     7
370
    15
100
AcDbLine
 10
1742.670075789703
 20
1318.64284305152
 30
0.0
 11
1744.96063583408
 21
1317.320530884106
 31
0.0
  0
LINE
  5
BF7
330
B1C
100
AcDbEntity
  8
0
  6
Continuous
 62
     7
370
    15
100
AcDbLine
 10
1749.245348991059
 20
1314.497378838798
 30
0.0
 11
1748.248834173224
 21
1315.072654598046
 31
0.0
  0
LINE
  5
BF8
330
B1C
100
AcDbEntity
  8
0
  6
Continuous
 62
     7
370
    15
100
AcDbLine
 10
1745.435621597175
 20
1316.696687649683
 30
0.0
 11
1745.158832706292
 21
1316.856474475232
 31
0.0
  0
LINE
  5
BF9
330
B1C
100
AcDbEntity
  8
0
  6
Continuous
 62
     7
370
    15
100
AcDbLine
 10
1746.449194364128
 20
1316.461203914068
 30
0.0
 11
1747.052547573986
 21
1316.809512308166
 31
0.0
  0
LINE
  5
BFA
330
B1C
100
AcDbEntity
  8
0
  6
Continuous
 62
     7
370
    15
100
AcDbLine
 10
1746.868381321789
 20
1316.219212656635
 30
0.0
 11
1747.364796123174
 21
1317.810377200103
 31
0.0
  0
LINE
  5
BFB
330
B1C
100
AcDbEntity
  8
0
  6
Continuous
 62
     7
370
    15
100
AcDbLine
 10
1747.364796123174
 20
1317.810377200103
 30
0.0
 11
1749.655356167551
 21
1316.488065032689
 31
0.0
  0
LINE
  5
BFC
330
B1C
100
AcDbEntity
  8
0
  6
Continuous
 62
     7
370
    15
100
AcDbLine
 10
1746.586981302261
 20
1318.259400138493
 30
0.0
 11
1747.541575481625
 21
1318.810475628268
 31
0.0
  0
LINE
  5
BFD
330
B1C
100
AcDbEntity
  8
0
  6
Continuous
 62
     7
370
    15
100
AcDbLine
 10
1746.586981302261
 20
1318.259400138493
 30
0.0
 11
1744.296421257884
 21
1319.581712305907
 31
0.0
  0
LINE
  5
BFE
330
B1C
100
AcDbEntity
  8
0
  6
Continuous
 62
     7
370
    15
100
AcDbLine
 10
1747.364796123174
 20
1317.810377200103
 30
0.0
 11
1748.319390302537
 21
1318.361452689877
 31
0.0
  0
LINE
  5
BFF
330
B1C
100
AcDbEntity
  8
0
  6
Continuous
 62
     7
370
    15
100
AcDbLine
 10
1747.541575481625
 20
1318.810475628268
 30
0.0
 11
1748.319390302537
 21
1318.361452689877
 31
0.0
  0
LWPOLYLINE
  5
C00
330
B1C
100
AcDbEntity
  8
0
  6
Continuous
 62
     7
370
    15
100
AcDbPolyline
 90
       19
 70
   128
 43
0.0
 10
1740.686495568018
 20
1309.985871360616
 10
1740.490892044078
 20
1309.800606527619
 10
1740.242304663205
 20
1309.430253743595
 10
1740.072500278911
 20
1308.973298472883
 10
1739.98635738891
 20
1308.442890337099
 10
1739.98635738891
 20
1307.854286355836
 10
1740.072500278911
 20
1307.224420136522
 10
1740.242304663205
 20
1306.571412896788
 10
1740.490892044078
 20
1305.914047232048
 10
1740.811107993996
 20
1305.271235563318
 10
1741.193738158202
 20
1304.661472243962
 10
1741.627782209236
 20
1304.102294797446
 10
1742.100743606513
 20
1303.609795347114
 10
1742.599019454677
 20
1303.198140230344
 10
1743.108279825234
 20
1302.879169270193
 10
1743.613868151614
 20
1302.662062540107
 10
1744.101243771082
 20
1302.553063216721
 10
1744.556382319795
 20
1302.555308984784
 10
1744.921421443104
 20
1302.649968395558
  0
LINE
  5
C01
330
B1C
100
AcDbEntity
  8
0
  6
Continuous
 62
     7
370
    15
100
AcDbLine
 10
1745.268326596728
 20
1316.600107764423
 30
0.0
 11
1744.96063583408
 21
1317.320530884106
 31
0.0
  0
LINE
  5
C02
330
B1C
100
AcDbEntity
  8
0
  6
Continuous
 62
     7
370
    15
100
AcDbLine
 10
1747.541575481625
 20
1318.810475628268
 30
0.0
 11
1747.541575481625
 21
1317.912426412186
 31
0.0
  0
LINE
  5
C03
330
B1C
100
AcDbEntity
  8
0
  6
Continuous
 62
     7
370
    15
100
AcDbLine
 10
1746.586981302261
 20
1318.259400138493
 30
0.0
 11
1746.215526638356
 21
1316.596097643159
 31
0.0
  0
LWPOLYLINE
  5
C04
330
B1C
100
AcDbEntity
  8
0
  6
Continuous
 62
     7
370
    15
100
AcDbPolyline
 90
       15
 70
   128
 43
0.0
 10
1739.190173827196
 20
1320.651747693737
 10
1738.52603448971
 20
1320.489832013178
 10
1737.822051069221
 20
1320.400109314043
 10
1737.101558761097
 20
1320.385551952759
 10
1736.388432026341
 20
1320.446645548535
 10
1735.706311460337
 20
1320.581362371489
 10
1735.077801438684
 20
1320.785239515029
 10
1734.523738968159
 20
1321.051516422228
 10
1734.0624785897
 20
1321.371372919547
 10
1733.709314752549
 20
1321.734204031969
 10
1733.475953085337
 20
1322.127983852885
 10
1733.370124406677
 20
1322.539663154019
 10
1733.395341228341
 20
1322.955594510151
 10
1733.550762342036
 20
1323.361995488311
 10
1733.831238917528
 20
1323.745394966955
  0
ELLIPSE
  5
C05
330
B1C
100
AcDbEntity
  8
0
  6
Continuous
 62
     7
370
    15
100
AcDbEllipse
 10
1737.323880091636
 20
1320.088064003658
 30
0.0
 11
-3.558731157479657
 21
7.398056379326987
 31
0.0
210
0.0
220
0.0
230
0.9999999999999996
 40
0.2347860887583272
 41
4.487843998479219
 42
4.675709535131313
  0
ARC
  5
C06
330
B1C
100
AcDbEntity
  8
0
  6
Continuous
 62
     7
370
    15
100
AcDbCircle
 10
1738.252155557424
 20
1322.642532413087
 30
0.0
 40
3.728092950607964
100
AcDbArc
 50
294.6936889651734
 51
305.3009345021243
  0
ELLIPSE
  5
C07
330
B1C
100
AcDbEntity
  8
0
  6
Continuous
 62
     7
370
    15
100
AcDbEllipse
 10
1737.323880091636
 20
1320.088064003658
 30
0.0
 11
2.555205607683206
 21
10.59909328466005
 31
0.0
210
0.0
220
0.0
230
1.0
 40
0.2854313889643507
 41
4.735129962514752
 42
4.922995499166872
  0
LWPOLYLINE
  5
C08
330
B1C
100
AcDbEntity
  8
0
  6
Continuous
 62
     7
370
    15
100
AcDbPolyline
 90
       15
 70
   128
 43
0.0
 10
1735.45758438571
 20
1324.684264221342
 10
1736.121723887832
 20
1324.846179996943
 10
1736.825707308321
 20
1324.935902696078
 10
1737.546199781081
 20
1324.950460152405
 10
1738.259326433519
 20
1324.889366509108
 10
1738.941446834887
 20
1324.754649591111
 10
1739.569957103494
 20
1324.550772590135
 10
1740.124024842375
 20
1324.284492641578
 10
1740.585279952477
 20
1323.964639185617
 10
1740.938443542674
 20
1323.601807930631
 10
1741.171805374523
 20
1323.208028204758
 10
1741.2776341355
 20
1322.796348951145
 10
1741.2524171492
 20
1322.38041749997
 10
1741.096996035505
 20
1321.97401652181
 10
1740.816519295377
 20
1321.590616948124
  0
ELLIPSE
  5
C09
330
B1C
100
AcDbEntity
  8
0
  6
Continuous
 62
     7
370
    15
100
AcDbEllipse
 10
1737.323880091636
 20
1320.088064003658
 30
0.0
 11
2.555205607683206
 21
10.59909328466005
 31
0.0
210
0.0
220
0.0
230
1.0
 40
0.2854313889643507
 41
1.192104749987187
 42
1.350900197841381
  0
LINE
  5
C0A
330
B1C
100
AcDbEntity
  8
0
  6
Continuous
 62
     7
370
    15
100
AcDbLine
 10
1735.167204782543
 20
1321.872007309767
 30
0.0
 11
1736.121798961906
 21
1322.423082799542
 31
0.0
  0
LINE
  5
C0B
330
B1C
100
AcDbEntity
  8
0
  6
Continuous
 62
     7
370
    15
100
AcDbLine
 10
1735.945019603455
 20
1321.422984371376
 30
0.0
 11
1735.167204782543
 21
1321.872007309767
 31
0.0
  0
LINE
  5
C0C
330
B1C
100
AcDbEntity
  8
0
  6
Continuous
 62
     7
370
    15
100
AcDbLine
 10
1736.899613782818
 20
1321.97405986115
 30
0.0
 11
1735.945019603455
 21
1321.422984371376
 31
0.0
  0
LINE
  5
C0D
330
B1C
100
AcDbEntity
  8
0
  6
Continuous
 62
     7
370
    15
100
AcDbLine
 10
1736.899613782818
 20
1321.97405986115
 30
0.0
 11
1739.190173827196
 21
1320.651747693737
 31
0.0
  0
LINE
  5
C0E
330
B1C
100
AcDbEntity
  8
0
  6
Continuous
 62
     7
370
    15
100
AcDbLine
 10
1733.831238917528
 20
1323.745394966955
 30
0.0
 11
1736.121798961906
 21
1322.423082799542
 31
0.0
  0
LINE
  5
C0F
330
B1C
100
AcDbEntity
  8
0
  6
Continuous
 62
     7
370
    15
100
AcDbLine
 10
1740.406512118885
 20
1319.599930754233
 30
0.0
 11
1739.40999730105
 21
1320.175206513481
 31
0.0
  0
LINE
  5
C10
330
B1C
100
AcDbEntity
  8
0
  6
Continuous
 62
     7
370
    15
100
AcDbLine
 10
1736.596784725001
 20
1321.799239565118
 30
0.0
 11
1736.319995834117
 21
1321.959026390667
 31
0.0
  0
LINE
  5
C11
330
B1C
100
AcDbEntity
  8
0
  6
Continuous
 62
     7
370
    15
100
AcDbLine
 10
1737.610357491954
 20
1321.563755829502
 30
0.0
 11
1738.213710701812
 21
1321.912064223601
 31
0.0
  0
LINE
  5
C12
330
B1C
100
AcDbEntity
  8
0
  6
Continuous
 62
     7
370
    15
100
AcDbLine
 10
1738.029549717971
 20
1321.321761530712
 30
0.0
 11
1738.525959250999
 21
1322.912929115538
 31
0.0
  0
LINE
  5
C13
330
B1C
100
AcDbEntity
  8
0
  6
Continuous
 62
     7
370
    15
100
AcDbLine
 10
1738.525959250999
 20
1322.912929115538
 30
0.0
 11
1740.816519295377
 21
1321.590616948124
 31
0.0
  0
LINE
  5
C14
330
B1C
100
AcDbEntity
  8
0
  6
Continuous
 62
     7
370
    15
100
AcDbLine
 10
1737.748144430087
 20
1323.361952053928
 30
0.0
 11
1738.70273860945
 21
1323.913027543703
 31
0.0
  0
LINE
  5
C15
330
B1C
100
AcDbEntity
  8
0
  6
Continuous
 62
     7
370
    15
100
AcDbLine
 10
1737.748144430087
 20
1323.361952053928
 30
0.0
 11
1735.45758438571
 21
1324.684264221342
 31
0.0
  0
LINE
  5
C16
330
B1C
100
AcDbEntity
  8
0
  6
Continuous
 62
     7
370
    15
100
AcDbLine
 10
1738.525959250999
 20
1322.912929115538
 30
0.0
 11
1739.480553430363
 21
1323.464004605312
 31
0.0
  0
LINE
  5
C17
330
B1C
100
AcDbEntity
  8
0
  6
Continuous
 62
     7
370
    15
100
AcDbLine
 10
1738.70273860945
 20
1323.913027543703
 30
0.0
 11
1739.480553430363
 21
1323.464004605312
 31
0.0
  0
LWPOLYLINE
  5
C18
330
B1C
100
AcDbEntity
  8
0
  6
Continuous
 62
     7
370
    15
100
AcDbPolyline
 90
       19
 70
   128
 43
0.0
 10
1731.847658695843
 20
1315.08842327605
 10
1731.65206044026
 20
1314.903155401697
 10
1731.403473059387
 20
1314.532802617673
 10
1731.233663406737
 20
1314.075850388318
 10
1731.147520516736
 20
1313.545442252534
 10
1731.147520516736
 20
1312.956838271271
 10
1731.233663406737
 20
1312.326972051957
 10
1731.403473059387
 20
1311.673961770865
 10
1731.65206044026
 20
1311.016596106126
 10
1731.972276390178
 20
1310.373784437396
 10
1732.354906554384
 20
1309.76402111804
 10
1732.788945337062
 20
1309.20484671288
 10
1733.261906734338
 20
1308.712347262549
 10
1733.760182582502
 20
1308.300692145779
 10
1734.26944295306
 20
1307.981721185628
 10
1734.77503127944
 20
1307.764614455542
 10
1735.262406898908
 20
1307.655615132156
 10
1735.717550715977
 20
1307.657857858862
 10
1736.08258457093
 20
1307.752520310992
  0
LINE
  5
C19
330
B1C
100
AcDbEntity
  8
0
  6
Continuous
 62
     7
370
    15
100
AcDbLine
 10
1736.429489724554
 20
1321.702659679858
 30
0.0
 11
1736.121798961906
 21
1322.423082799542
 31
0.0
  0
LINE
  5
C1A
330
B1C
100
AcDbEntity
  8
0
  6
Continuous
 62
     7
370
    15
100
AcDbLine
 10
1737.748144430087
 20
1323.361952053928
 30
0.0
 11
1737.376695034537
 21
1321.698646517236
 31
0.0
  0
LINE
  5
C1B
330
B1C
100
AcDbEntity
  8
0
  6
Continuous
 62
     7
370
    15
100
AcDbLine
 10
1738.70273860945
 20
1323.913027543703
 30
0.0
 11
1738.70273860945
 21
1323.01497832762
 31
0.0
  0
LWPOLYLINE
  5
C1C
330
B1C
100
AcDbEntity
  8
0
  6
Continuous
 62
     7
370
    15
100
AcDbPolyline
 90
       15
 70
   128
 43
0.0
 10
1730.351342223378
 20
1325.754296567815
 10
1729.687202885892
 20
1325.592380887256
 10
1728.983219465402
 20
1325.502658188121
 10
1728.262721888923
 20
1325.488103868194
 10
1727.549600422523
 20
1325.549194422612
 10
1726.867479856518
 20
1325.683911245566
 10
1726.238969834865
 20
1325.887788389106
 10
1725.684902095985
 20
1326.154068337663
 10
1725.223641717526
 20
1326.473924834981
 10
1724.870483148731
 20
1326.836752906047
 10
1724.637116213163
 20
1327.230535768319
 10
1724.531292802859
 20
1327.642212028097
 10
1724.556504356167
 20
1328.058146425586
 10
1724.711925469862
 20
1328.464547403746
 10
1724.992402045354
 20
1328.847946882389
  0
ELLIPSE
  5
C1D
330
B1C
100
AcDbEntity
  8
0
  6
Continuous
 62
     7
370
    15
100
AcDbEllipse
 10
1728.485045326803
 20
1325.19061470255
 30
0.0
 11
-3.558731157479657
 21
7.398056379326987
 31
0.0
210
0.0
220
0.0
230
0.9999999999999996
 40
0.2347860887583211
 41
4.487843998479206
 42
4.675709535131305
  0
ARC
  5
C1E
330
B1C
100
AcDbEntity
  8
0
  6
Continuous
 62
     7
370
    15
100
AcDbCircle
 10
1729.413118437087
 20
1327.74543729079
 30
0.0
 40
3.728502257410252
100
AcDbArc
 50
294.6942728535935
 51
305.3003506136964
  0
ELLIPSE
  5
C1F
330
B1C
100
AcDbEntity
  8
0
  6
Continuous
 62
     7
370
    15
100
AcDbEllipse
 10
1728.485045326803
 20
1325.19061470255
 30
0.0
 11
2.555205607683205
 21
10.59909328466011
 31
0.0
210
0.0
220
0.0
230
1.0
 40
0.2854313889643543
 41
4.735129962514752
 42
4.922995499166872
  0
LWPOLYLINE
  5
C20
330
B1C
100
AcDbEntity
  8
0
  6
Continuous
 62
     7
370
    15
100
AcDbPolyline
 90
       15
 70
   128
 43
0.0
 10
1726.618747513535
 20
1329.786816136776
 10
1727.282887015658
 20
1329.948731912378
 10
1727.986870436147
 20
1330.038454611513
 10
1728.707368177262
 20
1330.053009026483
 10
1729.420489561344
 20
1329.991918424542
 10
1730.102615231069
 20
1329.857198465189
 10
1730.73112023132
 20
1329.65332450557
 10
1731.2851879702
 20
1329.387044557013
 10
1731.746448348659
 20
1329.067188059695
 10
1732.099611938856
 20
1328.704356804708
 10
1732.332973770705
 20
1328.310577078835
 10
1732.438797263326
 20
1327.89890086658
 10
1732.413585545382
 20
1327.482966374048
 10
1732.258164431687
 20
1327.076565395888
 10
1731.977687691559
 20
1326.693165822202
  0
ELLIPSE
  5
C21
330
B1C
100
AcDbEntity
  8
0
  6
Continuous
 62
     7
370
    15
100
AcDbEllipse
 10
1728.485045326803
 20
1325.19061470255
 30
0.0
 11
2.555205607683205
 21
10.59909328466011
 31
0.0
210
0.0
220
0.0
230
1.0
 40
0.2854313889643543
 41
1.192104749987185
 42
1.350900197841373
  0
LINE
  5
C22
330
B1C
100
AcDbEntity
  8
0
  6
Continuous
 62
     7
370
    15
100
AcDbLine
 10
1726.328367910369
 20
1326.974559225202
 30
0.0
 11
1727.282962089732
 21
1327.525634714976
 31
0.0
  0
LINE
  5
C23
330
B1C
100
AcDbEntity
  8
0
  6
Continuous
 62
     7
370
    15
100
AcDbLine
 10
1727.106187999637
 20
1326.525533245453
 30
0.0
 11
1726.328367910369
 21
1326.974559225202
 31
0.0
  0
LINE
  5
C24
330
B1C
100
AcDbEntity
  8
0
  6
Continuous
 62
     7
370
    15
100
AcDbLine
 10
1728.060782179
 20
1327.076608735228
 30
0.0
 11
1727.106187999637
 21
1326.525533245453
 31
0.0
  0
LINE
  5
C25
330
B1C
100
AcDbEntity
  8
0
  6
Continuous
 62
     7
370
    15
100
AcDbLine
 10
1728.060782179
 20
1327.076608735228
 30
0.0
 11
1730.351342223378
 21
1325.754296567815
 31
0.0
  0
LINE
  5
C26
330
B1C
100
AcDbEntity
  8
0
  6
Continuous
 62
     7
370
    15
100
AcDbLine
 10
1724.992402045354
 20
1328.847946882389
 30
0.0
 11
1727.282962089732
 21
1327.525634714976
 31
0.0
  0
LINE
  5
C27
330
B1C
100
AcDbEntity
  8
0
  6
Continuous
 62
     7
370
    15
100
AcDbLine
 10
1731.567680515067
 20
1324.702479628311
 30
0.0
 11
1730.571165697232
 21
1325.277755387558
 31
0.0
  0
LINE
  5
C28
330
B1C
100
AcDbEntity
  8
0
  6
Continuous
 62
     7
370
    15
100
AcDbLine
 10
1727.757953121182
 20
1326.901788439196
 30
0.0
 11
1727.481158961943
 21
1327.061578306102
 31
0.0
  0
LINE
  5
C29
330
B1C
100
AcDbEntity
  8
0
  6
Continuous
 62
     7
370
    15
100
AcDbLine
 10
1728.77152061978
 20
1326.666307744937
 30
0.0
 11
1729.374873829637
 21
1327.014616139036
 31
0.0
  0
LINE
  5
C2A
330
B1C
100
AcDbEntity
  8
0
  6
Continuous
 62
     7
370
    15
100
AcDbLine
 10
1729.190712845797
 20
1326.424313446147
 30
0.0
 11
1729.687127647181
 21
1328.015477989615
 31
0.0
  0
LINE
  5
C2B
330
B1C
100
AcDbEntity
  8
0
  6
Continuous
 62
     7
370
    15
100
AcDbLine
 10
1729.687127647181
 20
1328.015477989615
 30
0.0
 11
1731.977687691559
 21
1326.693165822202
 31
0.0
  0
LINE
  5
C2C
330
B1C
100
AcDbEntity
  8
0
  6
Continuous
 62
     7
370
    15
100
AcDbLine
 10
1728.909307557913
 20
1328.464503969363
 30
0.0
 11
1729.863901737276
 21
1329.015579459138
 31
0.0
  0
LINE
  5
C2D
330
B1C
100
AcDbEntity
  8
0
  6
Continuous
 62
     7
370
    15
100
AcDbLine
 10
1728.909307557913
 20
1328.464503969363
 30
0.0
 11
1726.618747513535
 21
1329.786816136776
 31
0.0
  0
LINE
  5
C2E
330
B1C
100
AcDbEntity
  8
0
  6
Continuous
 62
     7
370
    15
100
AcDbLine
 10
1729.687127647181
 20
1328.015477989615
 30
0.0
 11
1730.641721826545
 21
1328.56655347939
 31
0.0
  0
LINE
  5
C2F
330
B1C
100
AcDbEntity
  8
0
  6
Continuous
 62
     7
370
    15
100
AcDbLine
 10
1729.863901737276
 20
1329.015579459138
 30
0.0
 11
1730.641721826545
 21
1328.56655347939
 31
0.0
  0
LWPOLYLINE
  5
C30
330
B1C
100
AcDbEntity
  8
0
  6
Continuous
 62
     7
370
    15
100
AcDbPolyline
 90
       19
 70
   128
 43
0.0
 10
1723.008827092025
 20
1320.190972150128
 10
1722.813223568086
 20
1320.005707317132
 10
1722.564636187212
 20
1319.635354533108
 10
1722.394831802918
 20
1319.178399262396
 10
1722.308688912918
 20
1318.647991126612
 10
1722.308688912918
 20
1318.059387145348
 10
1722.394831802918
 20
1317.429520926035
 10
1722.564636187212
 20
1316.7765136863
 10
1722.813223568086
 20
1316.119148021561
 10
1723.133439518004
 20
1315.476336352831
 10
1723.51606968221
 20
1314.866573033475
 10
1723.950108464887
 20
1314.307398628315
 10
1724.42307513052
 20
1313.814896136627
 10
1724.921350978684
 20
1313.403241019857
 10
1725.430611349241
 20
1313.084270059706
 10
1725.936199675622
 20
1312.86716332962
 10
1726.42357529509
 20
1312.758164006234
 10
1726.878713843803
 20
1312.760409774297
 10
1727.243752967112
 20
1312.85506918507
  0
LINE
  5
C31
330
B1C
100
AcDbEntity
  8
0
  6
Continuous
 62
     7
370
    15
100
AcDbLine
 10
1727.59065285238
 20
1326.805211595293
 30
0.0
 11
1727.282962089732
 21
1327.525634714976
 31
0.0
  0
LINE
  5
C32
330
B1C
100
AcDbEntity
  8
0
  6
Continuous
 62
     7
370
    15
100
AcDbLine
 10
1728.909307557913
 20
1328.464503969363
 30
0.0
 11
1728.537858162363
 21
1326.801198432671
 31
0.0
  0
LINE
  5
C33
330
B1C
100
AcDbEntity
  8
0
  6
Continuous
 62
     7
370
    15
100
AcDbLine
 10
1729.863901737276
 20
1329.015579459138
 30
0.0
 11
1729.863901737276
 21
1328.117530243055
 31
0.0
  0
LWPOLYLINE
  5
C34
330
B1C
100
AcDbEntity
  8
0
  6
Continuous
 62
     7
370
    15
100
AcDbPolyline
 90
       15
 70
   128
 43
0.0
 10
1721.512505351204
 20
1330.85684848325
 10
1720.848366013717
 20
1330.69493280269
 10
1720.144385227406
 20
1330.605208582877
 10
1719.423890285105
 20
1330.590652742271
 10
1718.710763550349
 20
1330.651746338048
 10
1718.028642984344
 20
1330.786463161001
 10
1717.400132962691
 20
1330.990340304541
 10
1716.846067857989
 20
1331.256618732419
 10
1716.384810113708
 20
1331.576473709059
 10
1716.031646276557
 20
1331.939304821482
 10
1715.798284609344
 20
1332.333084642397
 10
1715.692455930685
 20
1332.744763943531
 10
1715.717670118171
 20
1333.160696820342
 10
1715.873091231866
 20
1333.567097798502
 10
1716.153570441536
 20
1333.950495756467
  0
ELLIPSE
  5
C35
330
B1C
100
AcDbEntity
  8
0
  6
Continuous
 62
     7
370
    15
100
AcDbEllipse
 10
1719.646210561972
 20
1330.293165401442
 30
0.0
 11
-3.558731157479656
 21
7.398056379327045
 31
0.0
210
0.0
220
0.0
230
1.0
 40
0.2347860887583258
 41
4.487843998479212
 42
4.675709535131308
  0
ARC
  5
C36
330
B1C
100
AcDbEntity
  8
0
  6
Continuous
 62
     7
370
    15
100
AcDbCircle
 10
1720.574284199092
 20
1332.847987685544
 30
0.0
 40
3.728502257407065
100
AcDbArc
 50
294.6942728535935
 51
305.3003506137145
  0
ELLIPSE
  5
C37
330
B1C
100
AcDbEntity
  8
0
  6
Continuous
 62
     7
370
    15
100
AcDbEllipse
 10
1719.646210561972
 20
1330.293165401442
 30
0.0
 11
2.555205607683205
 21
10.59909328466017
 31
0.0
210
0.0
220
0.0
230
1.0
 40
0.2854313889643465
 41
4.735129962514762
 42
4.92299549916688
  0
LWPOLYLINE
  5
C38
330
B1C
100
AcDbEntity
  8
0
  6
Continuous
 62
     7
370
    15
100
AcDbPolyline
 90
       15
 70
   128
 43
0.0
 10
1717.779915909717
 20
1334.889365010854
 10
1718.444052777661
 20
1335.051282307134
 10
1719.14803619815
 20
1335.141005006269
 10
1719.868531305088
 20
1335.155560941917
 10
1720.581657957526
 20
1335.09446729862
 10
1721.263778358895
 20
1334.959750380624
 10
1721.892288627502
 20
1334.755873379648
 10
1722.446353732204
 20
1334.48959495177
 10
1722.907611476485
 20
1334.169739975129
 10
1723.260775066682
 20
1333.806908720143
 10
1723.494136898531
 20
1333.41312899427
 10
1723.599965659508
 20
1333.001449740657
 10
1723.574751307386
 20
1332.585516768804
 10
1723.419327559513
 20
1332.179117311323
 10
1723.138850819385
 20
1331.795717737637
  0
ELLIPSE
  5
C39
330
B1C
100
AcDbEntity
  8
0
  6
Continuous
 62
     7
370
    15
100
AcDbEllipse
 10
1719.646210561972
 20
1330.293165401442
 30
0.0
 11
2.555205607683205
 21
10.59909328466017
 31
0.0
210
0.0
220
0.0
230
1.0
 40
0.2854313889643465
 41
1.19210474998719
 42
1.350900197841384
  0
LINE
  5
C3A
330
B1C
100
AcDbEntity
  8
0
  6
Continuous
 62
     7
370
    15
100
AcDbLine
 10
1717.489533672372
 20
1332.077109619958
 30
0.0
 11
1718.444127851736
 21
1332.628185109732
 31
0.0
  0
LINE
  5
C3B
330
B1C
100
AcDbEntity
  8
0
  6
Continuous
 62
     7
370
    15
100
AcDbLine
 10
1718.267351127463
 20
1331.628085160888
 30
0.0
 11
1717.489533672372
 21
1332.077109619958
 31
0.0
  0
LINE
  5
C3C
330
B1C
100
AcDbEntity
  8
0
  6
Continuous
 62
     7
370
    15
100
AcDbLine
 10
1719.221945306826
 20
1332.179160650663
 30
0.0
 11
1718.267351127463
 21
1331.628085160888
 31
0.0
  0
LINE
  5
C3D
330
B1C
100
AcDbEntity
  8
0
  6
Continuous
 62
     7
370
    15
100
AcDbLine
 10
1719.221945306826
 20
1332.179160650663
 30
0.0
 11
1721.512505351204
 21
1330.85684848325
 31
0.0
  0
LINE
  5
C3E
330
B1C
100
AcDbEntity
  8
0
  6
Continuous
 62
     7
370
    15
100
AcDbLine
 10
1716.153570441536
 20
1333.950495756467
 30
0.0
 11
1718.444127851736
 21
1332.628185109732
 31
0.0
  0
LINE
  5
C3F
330
B1C
100
AcDbEntity
  8
0
  6
Continuous
 62
     7
370
    15
100
AcDbLine
 10
1722.728846277071
 20
1329.805030023067
 30
0.0
 11
1721.732328825057
 21
1330.380307302993
 31
0.0
  0
LINE
  5
C40
330
B1C
100
AcDbEntity
  8
0
  6
Continuous
 62
     7
370
    15
100
AcDbLine
 10
1718.919116249008
 20
1332.004340354631
 30
0.0
 11
1718.642327358125
 21
1332.164127180179
 31
0.0
  0
LINE
  5
C41
330
B1C
100
AcDbEntity
  8
0
  6
Continuous
 62
     7
370
    15
100
AcDbLine
 10
1719.932689015962
 20
1331.768856619015
 30
0.0
 11
1720.536042225819
 21
1332.117165013113
 31
0.0
  0
LINE
  5
C42
330
B1C
100
AcDbEntity
  8
0
  6
Continuous
 62
     7
370
    15
100
AcDbLine
 10
1720.351878607801
 20
1331.526863840904
 30
0.0
 11
1720.848290775007
 21
1333.11802990505
 31
0.0
  0
LINE
  5
C43
330
B1C
100
AcDbEntity
  8
0
  6
Continuous
 62
     7
370
    15
100
AcDbLine
 10
1720.848290775007
 20
1333.11802990505
 30
0.0
 11
1723.138850819385
 21
1331.795717737637
 31
0.0
  0
LINE
  5
C44
330
B1C
100
AcDbEntity
  8
0
  6
Continuous
 62
     7
370
    15
100
AcDbLine
 10
1720.070473319917
 20
1333.567054364119
 30
0.0
 11
1721.02506749928
 21
1334.118129853894
 31
0.0
  0
LINE
  5
C45
330
B1C
100
AcDbEntity
  8
0
  6
Continuous
 62
     7
370
    15
100
AcDbLine
 10
1720.070473319917
 20
1333.567054364119
 30
0.0
 11
1717.779915909717
 21
1334.889365010854
 31
0.0
  0
LINE
  5
C46
330
B1C
100
AcDbEntity
  8
0
  6
Continuous
 62
     7
370
    15
100
AcDbLine
 10
1720.848290775007
 20
1333.11802990505
 30
0.0
 11
1721.80288495437
 21
1333.669105394825
 31
0.0
  0
LINE
  5
C47
330
B1C
100
AcDbEntity
  8
0
  6
Continuous
 62
     7
370
    15
100
AcDbLine
 10
1721.02506749928
 20
1334.118129853894
 30
0.0
 11
1721.80288495437
 21
1333.669105394825
 31
0.0
  0
LWPOLYLINE
  5
C48
330
B1C
100
AcDbEntity
  8
0
  6
Continuous
 62
     7
370
    15
100
AcDbPolyline
 90
       19
 70
   128
 43
0.0
 10
1714.169990219851
 20
1325.293524065563
 10
1713.97438933009
 20
1325.108257711888
 10
1713.725801949216
 20
1324.737904927864
 10
1713.555994930744
 20
1324.280951177831
 10
1713.469852040744
 20
1323.750543042047
 10
1713.469852040744
 20
1323.161939060783
 10
1713.555994930744
 20
1322.53207284147
 10
1713.725801949216
 20
1321.879064081056
 10
1713.97438933009
 20
1321.221698416317
 10
1714.294605280008
 20
1320.578886747587
 10
1714.677235444214
 20
1319.969123428231
 10
1715.111276861069
 20
1319.409947502393
 10
1715.584238258346
 20
1318.917448052061
 10
1716.082516740688
 20
1318.505791414613
 10
1716.591774477067
 20
1318.186821975141
 10
1717.097365437626
 20
1317.969713724376
 10
1717.584741057094
 20
1317.86071440099
 10
1718.039879605807
 20
1317.862960169053
 10
1718.404916094938
 20
1317.957621100505
  0
LINE
  5
C49
330
B1C
100
AcDbEntity
  8
0
  6
Continuous
 62
     7
370
    15
100
AcDbLine
 10
1718.751818614383
 20
1331.907761990049
 30
0.0
 11
1718.444127851736
 21
1332.628185109732
 31
0.0
  0
LINE
  5
C4A
330
B1C
100
AcDbEntity
  8
0
  6
Continuous
 62
     7
370
    15
100
AcDbLine
 10
1720.070473319917
 20
1333.567054364119
 30
0.0
 11
1719.699023924367
 21
1331.903748827427
 31
0.0
  0
LINE
  5
C4B
330
B1C
100
AcDbEntity
  8
0
  6
Continuous
 62
     7
370
    15
100
AcDbLine
 10
1721.02506749928
 20
1334.118129853894
 30
0.0
 11
1721.02506749928
 21
1333.220080637812
 31
0.0
  0
LWPOLYLINE
  5
C4C
330
B1C
100
AcDbEntity
  8
0
  6
Continuous
 62
     7
370
    15
100
AcDbPolyline
 90
       15
 70
   128
 43
0.0
 10
1712.673671113207
 20
1335.959398878006
 10
1712.009531775721
 20
1335.797483197447
 10
1711.305548355232
 20
1335.707760498312
 10
1710.585056047109
 20
1335.693203137027
 10
1709.871929312352
 20
1335.754296732804
 10
1709.189808746348
 20
1335.889013555757
 10
1708.561298724695
 20
1336.092890699297
 10
1708.007233619993
 20
1336.359169127175
 10
1707.545975875711
 20
1336.679024103815
 10
1707.192812038561
 20
1337.041855216238
 10
1706.959450371348
 20
1337.435635037153
 10
1706.853621692689
 20
1337.847314338288
 10
1706.878835880174
 20
1338.263247215098
 10
1707.03425699387
 20
1338.669648193258
 10
1707.314733569361
 20
1339.053047671902
  0
ELLIPSE
  5
C4D
330
B1C
100
AcDbEntity
  8
0
  6
Continuous
 62
     7
370
    15
100
AcDbEllipse
 10
1710.80737579714
 20
1335.395716100334
 30
0.0
 11
-3.558731157479712
 21
7.398056379326988
 31
0.0
210
0.0
220
0.0
230
1.0
 40
0.2347860887583203
 41
4.487843998479213
 42
4.675709535131304
  0
ARC
  5
C4E
330
B1C
100
AcDbEntity
  8
0
  6
Continuous
 62
     7
370
    15
100
AcDbCircle
 10
1711.735550102104
 20
1337.950361569845
 30
0.0
 40
3.728297570246328
100
AcDbArc
 50
294.6939808773178
 51
305.3006425899838
  0
ELLIPSE
  5
C4F
330
B1C
100
AcDbEntity
  8
0
  6
Continuous
 62
     7
370
    15
100
AcDbEllipse
 10
1710.80737579714
 20
1335.395716100334
 30
0.0
 11
2.555205607683206
 21
10.59909328466005
 31
0.0
210
0.0
220
0.0
230
1.0
 40
0.2854313889643558
 41
4.735129962514753
 42
4.922995499166874
  0
LWPOLYLINE
  5
C50
330
B1C
100
AcDbEntity
  8
0
  6
Continuous
 62
     7
370
    15
100
AcDbPolyline
 90
       15
 70
   128
 43
0.0
 10
1708.941079037543
 20
1339.991916926289
 10
1709.605218539665
 20
1340.15383270189
 10
1710.309201960154
 20
1340.243555401026
 10
1711.029697067092
 20
1340.258111336673
 10
1711.74282371953
 20
1340.197017693376
 10
1712.424944120898
 20
1340.06230077538
 10
1713.053454389505
 20
1339.858423774404
 10
1713.607519494208
 20
1339.592145346526
 10
1714.068777238489
 20
1339.272290369886
 10
1714.421940828685
 20
1338.9094591149
 10
1714.655302660534
 20
1338.515679389027
 10
1714.761131421511
 20
1338.104000135414
 10
1714.735914435212
 20
1337.688068684239
 10
1714.580493321516
 20
1337.281667706079
 10
1714.300016581389
 20
1336.898268132393
  0
ELLIPSE
  5
C51
330
B1C
100
AcDbEntity
  8
0
  6
Continuous
 62
     7
370
    15
100
AcDbEllipse
 10
1710.80737579714
 20
1335.395716100334
 30
0.0
 11
2.555205607683206
 21
10.59909328466005
 31
0.0
210
0.0
220
0.0
230
1.0
 40
0.2854313889643558
 41
1.192104749987192
 42
1.350900197841377
  0
LINE
  5
C52
330
B1C
100
AcDbEntity
  8
0
  6
Continuous
 62
     7
370
    15
100
AcDbLine
 10
1708.650699434376
 20
1337.179660014714
 30
0.0
 11
1709.605293613739
 21
1337.730735504489
 31
0.0
  0
LINE
  5
C53
330
B1C
100
AcDbEntity
  8
0
  6
Continuous
 62
     7
370
    15
100
AcDbLine
 10
1709.428516889467
 20
1336.730635555644
 30
0.0
 11
1708.650699434376
 21
1337.179660014714
 31
0.0
  0
LINE
  5
C54
330
B1C
100
AcDbEntity
  8
0
  6
Continuous
 62
     7
370
    15
100
AcDbLine
 10
1710.38311106883
 20
1337.281711045419
 30
0.0
 11
1709.428516889467
 21
1336.730635555644
 31
0.0
  0
LINE
  5
C55
330
B1C
100
AcDbEntity
  8
0
  6
Continuous
 62
     7
370
    15
100
AcDbLine
 10
1710.38311106883
 20
1337.281711045419
 30
0.0
 11
1712.673671113207
 21
1335.959398878006
 31
0.0
  0
LINE
  5
C56
330
B1C
100
AcDbEntity
  8
0
  6
Continuous
 62
     7
370
    15
100
AcDbLine
 10
1707.314733569361
 20
1339.053047671902
 30
0.0
 11
1709.605293613739
 21
1337.730735504489
 31
0.0
  0
LINE
  5
C57
330
B1C
100
AcDbEntity
  8
0
  6
Continuous
 62
     7
370
    15
100
AcDbLine
 10
1713.890009404896
 20
1334.907581938502
 30
0.0
 11
1712.893494587061
 21
1335.482857697749
 31
0.0
  0
LINE
  5
C58
330
B1C
100
AcDbEntity
  8
0
  6
Continuous
 62
     7
370
    15
100
AcDbLine
 10
1710.080282011012
 20
1337.106890749387
 30
0.0
 11
1709.80349048595
 21
1337.266679095614
 31
0.0
  0
LINE
  5
C59
330
B1C
100
AcDbEntity
  8
0
  6
Continuous
 62
     7
370
    15
100
AcDbLine
 10
1711.093852143787
 20
1336.87140853445
 30
0.0
 11
1711.697205353645
 21
1337.219716928548
 31
0.0
  0
LINE
  5
C5A
330
B1C
100
AcDbEntity
  8
0
  6
Continuous
 62
     7
370
    15
100
AcDbLine
 10
1711.513044369804
 20
1336.62941423566
 30
0.0
 11
1712.009456537011
 21
1338.220580299806
 31
0.0
  0
LINE
  5
C5B
330
B1C
100
AcDbEntity
  8
0
  6
Continuous
 62
     7
370
    15
100
AcDbLine
 10
1712.009456537011
 20
1338.220580299806
 30
0.0
 11
1714.300016581389
 21
1336.898268132393
 31
0.0
  0
LINE
  5
C5C
330
B1C
100
AcDbEntity
  8
0
  6
Continuous
 62
     7
370
    15
100
AcDbLine
 10
1711.23163908192
 20
1338.669604758875
 30
0.0
 11
1712.186233261283
 21
1339.22068024865
 31
0.0
  0
LINE
  5
C5D
330
B1C
100
AcDbEntity
  8
0
  6
Continuous
 62
     7
370
    15
100
AcDbLine
 10
1711.23163908192
 20
1338.669604758875
 30
0.0
 11
1708.941079037543
 21
1339.991916926289
 31
0.0
  0
LINE
  5
C5E
330
B1C
100
AcDbEntity
  8
0
  6
Continuous
 62
     7
370
    15
100
AcDbLine
 10
1712.009456537011
 20
1338.220580299806
 30
0.0
 11
1712.964050716374
 21
1338.771655789581
 31
0.0
  0
LINE
  5
C5F
330
B1C
100
AcDbEntity
  8
0
  6
Continuous
 62
     7
370
    15
100
AcDbLine
 10
1712.186233261283
 20
1339.22068024865
 30
0.0
 11
1712.964050716374
 21
1338.771655789581
 31
0.0
  0
LWPOLYLINE
  5
C60
330
B1C
100
AcDbEntity
  8
0
  6
Continuous
 62
     7
370
    15
100
AcDbPolyline
 90
       19
 70
   128
 43
0.0
 10
1705.331155981854
 20
1330.396074460319
 10
1705.135555092094
 20
1330.210808106644
 10
1704.88696771122
 20
1329.84045532262
 10
1704.717160692748
 20
1329.383501572587
 10
1704.631017802748
 20
1328.853093436803
 10
1704.631017802748
 20
1328.264489455539
 10
1704.717160692748
 20
1327.634623236226
 10
1704.88696771122
 20
1326.981614475812
 10
1705.135555092094
 20
1326.324248811073
 10
1705.455771042011
 20
1325.681437142343
 10
1705.838401206217
 20
1325.071673822987
 10
1706.272439988895
 20
1324.512499417828
 10
1706.74540402035
 20
1324.019998446817
 10
1707.243679868514
 20
1323.608343330048
 10
1707.752940239071
 20
1323.289372369897
 10
1708.258528565451
 20
1323.072265639811
 10
1708.74590418492
 20
1322.963266316425
 10
1709.201045367811
 20
1322.96551056381
 10
1709.566081856942
 20
1323.060171495261
  0
LINE
  5
C61
330
B1C
100
AcDbEntity
  8
0
  6
Continuous
 62
     7
370
    15
100
AcDbLine
 10
1709.912984376387
 20
1337.010312384805
 30
0.0
 11
1709.605293613739
 21
1337.730735504489
 31
0.0
  0
LINE
  5
C62
330
B1C
100
AcDbEntity
  8
0
  6
Continuous
 62
     7
370
    15
100
AcDbLine
 10
1712.186233261283
 20
1339.22068024865
 30
0.0
 11
1712.186233261283
 21
1338.322631032568
 31
0.0
  0
LINE
  5
C63
330
B1C
100
AcDbEntity
  8
0
  6
Continuous
 62
     7
370
    15
100
AcDbLine
 10
1711.23163908192
 20
1338.669604758875
 30
0.0
 11
1710.860189686371
 21
1337.006299222184
 31
0.0
  0
LWPOLYLINE
  5
C64
330
B1C
100
AcDbEntity
  8
0
  6
Continuous
 62
     7
370
    15
100
AcDbPolyline
 90
       15
 70
   128
 43
0.0
 10
1703.834836875211
 20
1341.061949272762
 10
1703.170697537725
 20
1340.900033592203
 10
1702.466714117236
 20
1340.810310893068
 10
1701.746219174934
 20
1340.795755052462
 10
1701.033095074356
 20
1340.85684712756
 10
1700.350971874174
 20
1340.991565471192
 10
1699.72246316961
 20
1341.195441854393
 10
1699.168398064908
 20
1341.461720282271
 10
1698.707140320626
 20
1341.781575258911
 10
1698.353976483475
 20
1342.144406371334
 10
1698.120614816263
 20
1342.538186192249
 10
1698.014786137604
 20
1342.949865493383
 10
1698.040001642178
 20
1343.365797609854
 10
1698.195422755874
 20
1343.772198588015
 10
1698.475899331365
 20
1344.155598066658
  0
ELLIPSE
  5
C65
330
B1C
100
AcDbEntity
  8
0
  6
Continuous
 62
     7
370
    15
100
AcDbEllipse
 10
1701.968541032308
 20
1340.498266799225
 30
0.0
 11
-3.558731157479657
 21
7.398056379326987
 31
0.0
210
0.0
220
0.0
230
0.9999999999999996
 40
0.2347860887583148
 41
4.487843998479224
 42
4.675709535131313
  0
ARC
  5
C66
330
B1C
100
AcDbEntity
  8
0
  6
Continuous
 62
     7
370
    15
100
AcDbCircle
 10
1702.896715864111
 20
1343.052911964594
 30
0.0
 40
3.728297570238924
100
AcDbArc
 50
294.6939808773006
 51
305.3006425899945
  0
ELLIPSE
  5
C67
330
B1C
100
AcDbEntity
  8
0
  6
Continuous
 62
     7
370
    15
100
AcDbEllipse
 10
1701.968541032308
 20
1340.498266799225
 30
0.0
 11
2.555205607683263
 21
10.59909328466006
 31
0.0
210
0.0
220
0.0
230
0.9999999999999998
 40
0.2854313889643606
 41
4.735129962514756
 42
4.922995499166879
  0
LWPOLYLINE
  5
C68
330
B1C
100
AcDbEntity
  8
0
  6
Continuous
 62
     7
370
    15
100
AcDbPolyline
 90
       15
 70
   128
 43
0.0
 10
1700.102244799547
 20
1345.094467321045
 10
1700.766384301669
 20
1345.256383096647
 10
1701.470367722158
 20
1345.346105795782
 10
1702.190861512007
 20
1345.360662491769
 10
1702.903988164444
 20
1345.299568848472
 10
1703.586108565813
 20
1345.164851930476
 10
1704.21461883442
 20
1344.960974929499
 10
1704.768683939122
 20
1344.694696501621
 10
1705.229941683404
 20
1344.374841524981
 10
1705.583103956511
 20
1344.012011030334
 10
1705.816468422538
 20
1343.618229783783
 10
1705.922294549337
 20
1343.206552050848
 10
1705.897080197216
 20
1342.790619078995
 10
1705.74165908352
 20
1342.384218100835
 10
1705.461182343392
 20
1342.000818527149
  0
ELLIPSE
  5
C69
330
B1C
100
AcDbEntity
  8
0
  6
Continuous
 62
     7
370
    15
100
AcDbEllipse
 10
1701.968541032308
 20
1340.498266799225
 30
0.0
 11
2.555205607683263
 21
10.59909328466006
 31
0.0
210
0.0
220
0.0
230
0.9999999999999998
 40
0.2854313889643606
 41
1.192104749987182
 42
1.350900197841376
  0
LINE
  5
C6A
330
B1C
100
AcDbEntity
  8
0
  6
Continuous
 62
     7
370
    15
100
AcDbLine
 10
1699.81186519638
 20
1342.28221040947
 30
0.0
 11
1700.766459375743
 21
1342.833285899245
 31
0.0
  0
LINE
  5
C6B
330
B1C
100
AcDbEntity
  8
0
  6
Continuous
 62
     7
370
    15
100
AcDbLine
 10
1700.58968265147
 20
1341.833185950401
 30
0.0
 11
1699.81186519638
 21
1342.28221040947
 31
0.0
  0
LINE
  5
C6C
330
B1C
100
AcDbEntity
  8
0
  6
Continuous
 62
     7
370
    15
100
AcDbLine
 10
1701.544276830833
 20
1342.384261440175
 30
0.0
 11
1700.58968265147
 21
1341.833185950401
 31
0.0
  0
LINE
  5
C6D
330
B1C
100
AcDbEntity
  8
0
  6
Continuous
 62
     7
370
    15
100
AcDbLine
 10
1701.544276830833
 20
1342.384261440175
 30
0.0
 11
1703.834836875211
 21
1341.061949272762
 31
0.0
  0
LINE
  5
C6E
330
B1C
100
AcDbEntity
  8
0
  6
Continuous
 62
     7
370
    15
100
AcDbLine
 10
1698.475899331365
 20
1344.155598066658
 30
0.0
 11
1700.766459375743
 21
1342.833285899245
 31
0.0
  0
LINE
  5
C6F
330
B1C
100
AcDbEntity
  8
0
  6
Continuous
 62
     7
370
    15
100
AcDbLine
 10
1705.0511751669
 20
1340.010132333258
 30
0.0
 11
1704.054660349065
 21
1340.585408092506
 31
0.0
  0
LINE
  5
C70
330
B1C
100
AcDbEntity
  8
0
  6
Continuous
 62
     7
370
    15
100
AcDbLine
 10
1701.241447773016
 20
1342.209441144143
 30
0.0
 11
1700.964656247955
 21
1342.36922949037
 31
0.0
  0
LINE
  5
C71
330
B1C
100
AcDbEntity
  8
0
  6
Continuous
 62
     7
370
    15
100
AcDbLine
 10
1702.25501922288
 20
1341.973958168867
 30
0.0
 11
1702.858372432738
 21
1342.322266562965
 31
0.0
  0
LWPOLYLINE
  5
C72
330
B1C
100
AcDbEntity
  8
0
  6
Continuous
 62
     7
370
    15
100
AcDbPolyline
 90
       22
 70
   128
 43
0.0
 10
1695.990954687774
 20
1336.367110082916
 10
1695.922552986819
 20
1336.313550346847
 10
1695.595571150626
 20
1335.965498385741
 10
1695.343382848383
 20
1335.522922582128
 10
1695.171900492682
 20
1334.996194683699
 10
1695.085142522112
 20
1334.397662323249
 10
1695.085142522112
 20
1333.741353570318
 10
1695.171900492682
 20
1333.042652208965
 10
1695.343382848383
 20
1332.317935377196
 10
1695.595571150626
 20
1331.584188777319
 10
1695.922552986819
 20
1330.858612004226
 10
1696.316665533066
 20
1330.158211140873
 10
1696.768669409921
 20
1329.499403904239
 10
1697.267971270429
 20
1328.897631449901
 10
1697.802867461592
 20
1328.366999076184
 10
1698.36082061307
 20
1327.919944117949
 10
1698.928752030932
 20
1327.566946047546
 10
1699.493351213584
 20
1327.316277452268
 10
1700.041384050593
 20
1327.173814517885
 10
1700.560003655698
 20
1327.142897132648
 10
1701.037058565637
 20
1327.224247356556
 10
1701.228613357941
 20
1327.2942372324
  0
LINE
  5
C73
330
B1C
100
AcDbEntity
  8
0
  6
Continuous
 62
     7
370
    15
100
AcDbLine
 10
1702.674208814719
 20
1341.731965390755
 30
0.0
 11
1703.170622299014
 21
1343.323130694562
 31
0.0
  0
LINE
  5
C74
330
B1C
100
AcDbEntity
  8
0
  6
Continuous
 62
     7
370
    15
100
AcDbLine
 10
1703.170622299014
 20
1343.323130694562
 30
0.0
 11
1705.461182343392
 21
1342.000818527149
 31
0.0
  0
LINE
  5
C75
330
B1C
100
AcDbEntity
  8
0
  6
Continuous
 62
     7
370
    15
100
AcDbLine
 10
1702.392804843924
 20
1343.772155153632
 30
0.0
 11
1703.347399023287
 21
1344.323230643406
 31
0.0
  0
LINE
  5
C76
330
B1C
100
AcDbEntity
  8
0
  6
Continuous
 62
     7
370
    15
100
AcDbLine
 10
1702.392804843924
 20
1343.772155153632
 30
0.0
 11
1700.102244799547
 21
1345.094467321045
 31
0.0
  0
LINE
  5
C77
330
B1C
100
AcDbEntity
  8
0
  6
Continuous
 62
     7
370
    15
100
AcDbLine
 10
1703.170622299014
 20
1343.323130694562
 30
0.0
 11
1704.125216478378
 21
1343.874206184337
 31
0.0
  0
LINE
  5
C78
330
B1C
100
AcDbEntity
  8
0
  6
Continuous
 62
     7
370
    15
100
AcDbLine
 10
1703.347399023287
 20
1344.323230643406
 30
0.0
 11
1704.125216478378
 21
1343.874206184337
 31
0.0
  0
LINE
  5
C79
330
B1C
100
AcDbEntity
  8
0
  6
Continuous
 62
     7
370
    15
100
AcDbLine
 10
1701.074150138391
 20
1342.112862779561
 30
0.0
 11
1700.766459375743
 21
1342.833285899245
 31
0.0
  0
LINE
  5
C7A
330
B1C
100
AcDbEntity
  8
0
  6
Continuous
 62
     7
370
    15
100
AcDbLine
 10
1703.347399023287
 20
1344.323230643406
 30
0.0
 11
1703.347399023287
 21
1343.425181427324
 31
0.0
  0
LINE
  5
C7B
330
B1C
100
AcDbEntity
  8
0
  6
Continuous
 62
     7
370
    15
100
AcDbLine
 10
1702.392804843924
 20
1343.772155153632
 30
0.0
 11
1702.021354131285
 21
1342.108850377279
 31
0.0
  0
LWPOLYLINE
  5
C7C
330
B1C
100
AcDbEntity
  8
0
  6
Continuous
 62
     7
370
    15
100
AcDbPolyline
 90
       15
 70
   128
 43
0.0
 10
1694.996001320126
 20
1346.164500427858
 10
1694.331863299728
 20
1346.002583986959
 10
1693.62787987924
 20
1345.912861287824
 10
1692.907384936938
 20
1345.898305447218
 10
1692.194259519271
 20
1345.959398282655
 10
1691.512137636177
 20
1346.094115865948
 10
1690.883628931613
 20
1346.297992249149
 10
1690.329563826911
 20
1346.564270677027
 10
1689.868304765541
 20
1346.884126414006
 10
1689.515142245479
 20
1347.24695676609
 10
1689.281779261177
 20
1347.640737347344
 10
1689.175951899607
 20
1348.052415888139
 10
1689.201166745637
 20
1348.46834838478
 10
1689.356588517878
 20
1348.874748982771
 10
1689.637065093369
 20
1349.258148461414
  0
ELLIPSE
  5
C7D
330
B1C
100
AcDbEntity
  8
0
  6
Continuous
 62
     7
370
    15
100
AcDbEllipse
 10
1693.129706267476
 20
1345.600817498117
 30
0.0
 11
-3.558731157479712
 21
7.398056379327044
 31
0.0
210
0.0
220
0.0
230
1.0
 40
0.2347860887583189
 41
4.487843998479225
 42
4.675709535131312
  0
ARC
  5
C7E
330
B1C
100
AcDbEntity
  8
0
  6
Continuous
 62
     7
370
    15
100
AcDbCircle
 10
1694.057830242751
 20
1348.155551367591
 30
0.0
 40
3.72839990538342
100
AcDbArc
 50
294.694126857444
 51
305.3004966098628
  0
ELLIPSE
  5
C7F
330
B1C
100
AcDbEntity
  8
0
  6
Continuous
 62
     7
370
    15
100
AcDbEllipse
 10
1693.129706267476
 20
1345.600817498117
 30
0.0
 11
2.555205607683205
 21
10.59909328466011
 31
0.0
210
0.0
220
0.0
230
1.0
 40
0.2854313889643531
 41
4.735129962514759
 42
4.922995499166877
  0
LWPOLYLINE
  5
C80
330
B1C
100
AcDbEntity
  8
0
  6
Continuous
 62
     7
370
    15
100
AcDbPolyline
 90
       15
 70
   128
 43
0.0
 10
1691.26341056155
 20
1350.197017715801
 10
1691.927550063673
 20
1350.358933491403
 10
1692.631532825618
 20
1350.448656570708
 10
1693.352027274011
 20
1350.463212886525
 10
1694.065152609359
 20
1350.402120003567
 10
1694.747274327817
 20
1350.267402325232
 10
1695.375783279335
 20
1350.063526084595
 10
1695.929849701126
 20
1349.797246896377
 10
1696.391107445408
 20
1349.477391919738
 10
1696.744269718515
 20
1349.11456142509
 10
1696.977632867453
 20
1348.720780938878
 10
1697.083460311341
 20
1348.309102445604
 10
1697.05824595922
 20
1347.893169473751
 10
1696.902824845524
 20
1347.486768495591
 10
1696.622346788307
 20
1347.103369682245
  0
ELLIPSE
  5
C81
330
B1C
100
AcDbEntity
  8
0
  6
Continuous
 62
     7
370
    15
100
AcDbEllipse
 10
1693.129706267476
 20
1345.600817498117
 30
0.0
 11
2.555205607683205
 21
10.59909328466011
 31
0.0
210
0.0
220
0.0
230
1.0
 40
0.2854313889643531
 41
1.192104749987183
 42
1.350900197841375
  0
LINE
  5
C82
330
B1C
100
AcDbEntity
  8
0
  6
Continuous
 62
     7
370
    15
100
AcDbLine
 10
1690.973030958384
 20
1347.384760804226
 30
0.0
 11
1691.927625137747
 21
1347.935836294001
 31
0.0
  0
LINE
  5
C83
330
B1C
100
AcDbEntity
  8
0
  6
Continuous
 62
     7
370
    15
100
AcDbLine
 10
1691.750848413474
 20
1346.935736345157
 30
0.0
 11
1690.973030958384
 21
1347.384760804226
 31
0.0
  0
LINE
  5
C84
330
B1C
100
AcDbEntity
  8
0
  6
Continuous
 62
     7
370
    15
100
AcDbLine
 10
1692.705442592837
 20
1347.486811834932
 30
0.0
 11
1691.750848413474
 21
1346.935736345157
 31
0.0
  0
LINE
  5
C85
330
B1C
100
AcDbEntity
  8
0
  6
Continuous
 62
     7
370
    15
100
AcDbLine
 10
1692.705442592837
 20
1347.486811834932
 30
0.0
 11
1694.996001320126
 21
1346.164500427858
 31
0.0
  0
LINE
  5
C86
330
B1C
100
AcDbEntity
  8
0
  6
Continuous
 62
     7
370
    15
100
AcDbLine
 10
1689.637065093369
 20
1349.258148461414
 30
0.0
 11
1691.927625137747
 21
1347.935836294001
 31
0.0
  0
LINE
  5
C87
330
B1C
100
AcDbEntity
  8
0
  6
Continuous
 62
     7
370
    15
100
AcDbLine
 10
1696.212340928904
 20
1345.112682728014
 30
0.0
 11
1695.215824793979
 21
1345.687959247601
 31
0.0
  0
LINE
  5
C88
330
B1C
100
AcDbEntity
  8
0
  6
Continuous
 62
     7
370
    15
100
AcDbLine
 10
1692.40261221793
 20
1347.311992299239
 30
0.0
 11
1692.125822009958
 21
1347.471779885127
 31
0.0
  0
LINE
  5
C89
330
B1C
100
AcDbEntity
  8
0
  6
Continuous
 62
     7
370
    15
100
AcDbLine
 10
1693.416183667795
 20
1347.076509323962
 30
0.0
 11
1694.019536877653
 21
1347.42481771806
 31
0.0
  0
LINE
  5
C8A
330
B1C
100
AcDbEntity
  8
0
  6
Continuous
 62
     7
370
    15
100
AcDbLine
 10
1693.835374576723
 20
1346.834515785511
 30
0.0
 11
1694.331788061019
 21
1348.425681089319
 31
0.0
  0
LINE
  5
C8B
330
B1C
100
AcDbEntity
  8
0
  6
Continuous
 62
     7
370
    15
100
AcDbLine
 10
1694.331788061019
 20
1348.425681089319
 30
0.0
 11
1696.622346788307
 21
1347.103369682245
 31
0.0
  0
LINE
  5
C8C
330
B1C
100
AcDbEntity
  8
0
  6
Continuous
 62
     7
370
    15
100
AcDbLine
 10
1693.553970605928
 20
1348.874705548388
 30
0.0
 11
1694.508564785291
 21
1349.425781038163
 31
0.0
  0
LINE
  5
C8D
330
B1C
100
AcDbEntity
  8
0
  6
Continuous
 62
     7
370
    15
100
AcDbLine
 10
1693.553970605928
 20
1348.874705548388
 30
0.0
 11
1691.26341056155
 21
1350.197017715801
 31
0.0
  0
LINE
  5
C8E
330
B1C
100
AcDbEntity
  8
0
  6
Continuous
 62
     7
370
    15
100
AcDbLine
 10
1694.331788061019
 20
1348.425681089319
 30
0.0
 11
1695.286382240382
 21
1348.976756579093
 31
0.0
  0
LINE
  5
C8F
330
B1C
100
AcDbEntity
  8
0
  6
Continuous
 62
     7
370
    15
100
AcDbLine
 10
1694.508564785291
 20
1349.425781038163
 30
0.0
 11
1695.286382240382
 21
1348.976756579093
 31
0.0
  0
LWPOLYLINE
  5
C90
330
B1C
100
AcDbEntity
  8
0
  6
Continuous
 62
     7
370
    15
100
AcDbPolyline
 90
       19
 70
   128
 43
0.0
 10
1687.653485530229
 20
1340.601176390341
 10
1687.457885299012
 20
1340.415909656496
 10
1687.209298576683
 20
1340.045556492302
 10
1687.039490899666
 20
1339.588603122438
 10
1686.953348009666
 20
1339.058194986655
 10
1686.953348009666
 20
1338.469591005391
 10
1687.039490899666
 20
1337.839724786077
 10
1687.209298576683
 20
1337.186715645495
 10
1687.457885299012
 20
1336.529350360925
 10
1687.778100590385
 20
1335.886539072364
 10
1688.16073207168
 20
1335.276774992669
 10
1688.594771512902
 20
1334.71760020734
 10
1689.067734227268
 20
1334.225099996669
 10
1689.566011392521
 20
1333.81344411956
 10
1690.07527044599
 20
1333.494473919749
 10
1690.580860089459
 20
1333.277366429323
 10
1691.068235708927
 20
1333.168367105937
 10
1691.523375574729
 20
1333.170612113661
 10
1691.88841206386
 20
1333.265273045113
  0
LINE
  5
C91
330
B1C
100
AcDbEntity
  8
0
  6
Continuous
 62
     7
370
    15
100
AcDbLine
 10
1692.235315900395
 20
1347.215413174318
 30
0.0
 11
1691.927625137747
 21
1347.935836294001
 31
0.0
  0
LINE
  5
C92
330
B1C
100
AcDbEntity
  8
0
  6
Continuous
 62
     7
370
    15
100
AcDbLine
 10
1694.508564785291
 20
1349.425781038163
 30
0.0
 11
1694.508564785291
 21
1348.52773182208
 31
0.0
  0
LINE
  5
C93
330
B1C
100
AcDbEntity
  8
0
  6
Continuous
 62
     7
370
    15
100
AcDbLine
 10
1693.553970605928
 20
1348.874705548388
 30
0.0
 11
1693.182519893289
 21
1347.211400772035
 31
0.0
  0
ENDBLK
  5
B1E
330
B1C
100
AcDbEntity
  8
0
100
AcDbBlockEnd
  0
ENDSEC
  0
SECTION
  2
ENTITIES
  0
INSERT
  5
950
330
1F
100
AcDbEntity
  8
0
100
AcDbBlockReference
  2
1
 10
0.0
 20
0.0
 30
0.0
  0
INSERT
  5
B0C
330
1F
100
AcDbEntity
  8
0
100
AcDbBlockReference
  2
2
 10
0.0
 20
19.2038728786988
 30
0.0
  0
INSERT
  5
B1B
330
1F
100
AcDbEntity
  8
0
100
AcDbBlockReference
  2
3
 10
31.00912217821406
 20
0.0
 30
0.0
  0
INSERT
  5
C94
330
1F
100
AcDbEntity
  8
0
100
AcDbBlockReference
  2
4
 10
-27.23131972232977
 20
0.0
 30
0.0
  0
ENDSEC
  0
SECTION
  2
OBJECTS
  0
DICTIONARY
  5
C
330
0
100
AcDbDictionary
281
     1
  3
ACAD_COLOR
350
6B
  3
ACAD_GROUP
350
D
  3
ACAD_LAYOUT
350
1A
  3
ACAD_MATERIAL
350
6A
  3
ACAD_MLEADERSTYLE
350
12D
  3
ACAD_MLINESTYLE
350
17
  3
ACAD_PLOTSETTINGS
350
19
  3
ACAD_PLOTSTYLENAME
350
E
  3
ACAD_SCALELIST
350
10C
  3
ACAD_TABLESTYLE
350
7E
  3
ACAD_VISUALSTYLE
350
EF
  3
ACDB_RECOMPOSE_DATA
350
15D
  3
AcDbVariableDictionary
350
5E
  3
DWGPROPS
350
CBB
  0
DICTIONARY
  5
13C
330
10
100
AcDbDictionary
280
     1
281
     1
  3
ADSK_XREC_LAYER_RECONCILED
360
CAE
  0
DICTIONARY
  5
6B
102
{ACAD_REACTORS
330
C
102
}
330
C
100
AcDbDictionary
281
     1
  0
DICTIONARY
  5
D
102
{ACAD_REACTORS
330
C
102
}
330
C
100
AcDbDictionary
281
     1
  0
DICTIONARY
  5
1A
102
{ACAD_REACTORS
330
C
102
}
330
C
100
AcDbDictionary
281
     1
  3
Layout1
350
D3
  3
Layout2
350
D7
  3
Model
350
22
  0
DICTIONARY
  5
6A
102
{ACAD_REACTORS
330
C
102
}
330
C
100
AcDbDictionary
281
     1
  3
ByBlock
350
ED
  3
ByLayer
350
EC
  3
Global
350
EE
  0
DICTIONARY
  5
12D
102
{ACAD_REACTORS
330
C
102
}
330
C
100
AcDbDictionary
281
     1
  3
Annotative
350
13B
  3
Standard
350
12E
  0
DICTIONARY
  5
17
102
{ACAD_REACTORS
330
C
102
}
330
C
100
AcDbDictionary
281
     1
  3
Standard
350
18
  0
DICTIONARY
  5
19
102
{ACAD_REACTORS
330
C
102
}
330
C
100
AcDbDictionary
281
     1
  0
ACDBDICTIONARYWDFLT
  5
E
102
{ACAD_REACTORS
330
C
102
}
330
C
100
AcDbDictionary
281
     1
  3
Normal
350
F
100
AcDbDictionaryWithDefault
340
F
  0
DICTIONARY
  5
10C
102
{ACAD_REACTORS
330
C
102
}
330
C
100
AcDbDictionary
281
     1
  3
A0
350
10D
  3
A1
350
188
  3
A2
350
189
  3
A3
350
18A
  3
A4
350
18B
  3
A5
350
18C
  3
A6
350
18D
  3
A7
350
18E
  3
A8
350
18F
  3
A9
350
190
  3
B0
350
191
  3
B1
350
192
  3
B2
350
193
  3
B3
350
194
  3
B4
350
195
  3
B5
350
196
  3
B6
350
197
  3
B7
350
198
  3
B8
350
199
  3
B9
350
19A
  3
C0
350
19B
  3
C1
350
19C
  3
C2
350
19D
  3
C3
350
19E
  3
C4
350
19F
  3
C5
350
1A0
  3
C6
350
1A1
  3
C7
350
1A2
  3
C8
350
1A3
  3
C9
350
1A4
  3
D0
350
1A5
  3
D1
350
1A6
  3
D2
350
1A7
  0
DICTIONARY
  5
7E
102
{ACAD_REACTORS
330
C
102
}
330
C
100
AcDbDictionary
281
     1
  3
Standard
350
7F
  0
DICTIONARY
  5
EF
102
{ACAD_REACTORS
330
C
102
}
330
C
100
AcDbDictionary
281
     1
  3
2dWireframe
350
F5
  3
3D Hidden
350
F7
  3
3dWireframe
350
F6
  3
Basic
350
F4
  3
Brighten
350
FB
  3
ColorChange
350
FF
  3
Conceptual
350
F8
  3
Dim
350
FA
  3
Facepattern
350
FE
  3
Flat
350
F0
  3
FlatWithEdges
350
F1
  3
Gouraud
350
F2
  3
GouraudWithEdges
350
F3
  3
Linepattern
350
FD
  3
Realistic
350
F9
  3
Thicken
350
FC
  0
XRECORD
  5
15D
102
{ACAD_REACTORS
330
C
102
}
330
C
100
AcDbXrecord
280
     1
 90
        1
330
7F
  0
DICTIONARY
  5
5E
102
{ACAD_REACTORS
330
C
102
}
330
C
100
AcDbDictionary
281
     1
  3
CANNOSCALE
350
146
  3
CMLEADERSTYLE
350
145
  3
CTABLESTYLE
350
84
  3
DIMASSOC
350
5F
  3
HIDETEXT
350
63
  3
INDEXCTL
350
CB7
  3
LIGHTINGUNITS
350
CB5
  3
MSLTSCALE
350
CB4
  3
PSOLHEIGHT
350
CB9
  3
PSOLWIDTH
350
CB8
  3
SORTENTS
350
CB6
  0
XRECORD
  5
CBB
102
{ACAD_REACTORS
330
C
102
}
330
C
100
AcDbXrecord
280
     1
  1
DWGPROPS COOKIE
  2

  3

  4

  6

  7

  8
orhan kara
  9

300
=
301
=
302
=
303
=
304
=
305
=
306
=
307
=
308
=
309
=
 40
0.0005973032407407
 41
2458492.448452997
 42
2458983.561289502
  1

 90
        0
  0
XRECORD
  5
CAE
102
{ACAD_REACTORS
330
13C
102
}
330
13C
100
AcDbXrecord
280
     1
290
     1
  0
LAYOUT
  5
D3
102
{ACAD_XDICTIONARY
360
CBF
102
}
102
{ACAD_REACTORS
330
1A
102
}
330
1A
100
AcDbPlotSettings
  1

  2
C:\Documents and Settings\basas\Application Data\Autodesk\AutoCAD 2005\R16.1\enu\plotters\Default Windows System Printer.pc3
  4

  6

 40
0.0
 41
0.0
 42
0.0
 43
0.0
 44
0.0
 45
0.0
 46
0.0
 47
0.0
 48
0.0
 49
0.0
140
0.0
141
0.0
142
1.0
143
1.0
 70
   688
 72
     0
 73
     0
 74
     5
  7

 75
    16
147
1.0
148
0.0
149
0.0
100
AcDbLayout
  1
Layout1
 70
     1
 71
     1
 10
0.0
 20
0.0
 11
12.0
 21
9.0
 12
0.0
 22
0.0
 32
0.0
 14
0.0
 24
0.0
 34
0.0
 15
0.0
 25
0.0
 35
0.0
146
0.0
 13
0.0
 23
0.0
 33
0.0
 16
1.0
 26
0.0
 36
0.0
 17
0.0
 27
1.0
 37
0.0
 76
     0
330
D2
  0
LAYOUT
  5
D7
102
{ACAD_XDICTIONARY
360
CC1
102
}
102
{ACAD_REACTORS
330
1A
102
}
330
1A
100
AcDbPlotSettings
  1

  2
C:\Documents and Settings\basas\Application Data\Autodesk\AutoCAD 2005\R16.1\enu\plotters\Default Windows System Printer.pc3
  4

  6

 40
0.0
 41
0.0
 42
0.0
 43
0.0
 44
0.0
 45
0.0
 46
0.0
 47
0.0
 48
0.0
 49
0.0
140
0.0
141
0.0
142
1.0
143
1.0
 70
   688
 72
     0
 73
     0
 74
     5
  7

 75
    16
147
1.0
148
0.0
149
0.0
100
AcDbLayout
  1
Layout2
 70
     1
 71
     2
 10
0.0
 20
0.0
 11
12.0
 21
9.0
 12
0.0
 22
0.0
 32
0.0
 14
0.0
 24
0.0
 34
0.0
 15
0.0
 25
0.0
 35
0.0
146
0.0
 13
0.0
 23
0.0
 33
0.0
 16
1.0
 26
0.0
 36
0.0
 17
0.0
 27
1.0
 37
0.0
 76
     0
330
D6
  0
LAYOUT
  5
22
102
{ACAD_XDICTIONARY
360
CBC
102
}
102
{ACAD_REACTORS
330
1A
102
}
330
1A
100
AcDbPlotSettings
  1

  2
none_device
  4
ISO_A4_(210.00_x_297.00_MM)
  6

 40
7.5
 41
20.0
 42
7.5
 43
20.0
 44
210.0
 45
297.0
 46
11.54999923706054
 47
-13.65000009536743
 48
0.0
 49
0.0
140
0.0
141
0.0
142
1.0
143
8.704084754739808
 70
 11952
 72
     1
 73
     0
 74
     0
  7

 75
     0
147
0.1148885871608098
148
0.0
149
0.0
100
AcDbLayout
  1
Model
 70
     1
 71
     0
 10
0.0
 20
0.0
 11
12.0
 21
9.0
 12
0.0
 22
0.0
 32
0.0
 14
0.0
 24
0.0
 34
0.0
 15
0.0
 25
0.0
 35
0.0
146
0.0
 13
0.0
 23
0.0
 33
0.0
 16
1.0
 26
0.0
 36
0.0
 17
0.0
 27
1.0
 37
0.0
 76
     0
330
1F
331
EA
1001
ACAD_PSEXT
1000
None
1000
None
1000
Not applicable
1000
The layout will not be plotted unless a new plotter configuration name is selected.
1070
     0
  0
MATERIAL
  5
ED
102
{ACAD_XDICTIONARY
360
CC5
102
}
102
{ACAD_REACTORS
330
6A
102
}
330
6A
100
AcDbMaterial
  1
ByBlock
  0
MATERIAL
  5
EC
102
{ACAD_XDICTIONARY
360
CC3
102
}
102
{ACAD_REACTORS
330
6A
102
}
330
6A
100
AcDbMaterial
  1
ByLayer
  0
MATERIAL
  5
EE
102
{ACAD_XDICTIONARY
360
173
102
}
102
{ACAD_REACTORS
330
6A
102
}
330
6A
100
AcDbMaterial
  1
Global
 43
0.0007999999797903
 43
0.0
 43
0.0
 43
0.0
 43
0.0
 43
0.0007999999797903
 43
0.0
 43
0.0
 43
0.0
 43
0.0
 43
1.0
 43
0.0
 43
0.0
 43
0.0
 43
0.0
 43
1.0
 49
0.0007999999797903
 49
0.0
 49
0.0
 49
0.0
 49
0.0
 49
0.0007999999797903
 49
0.0
 49
0.0
 49
0.0
 49
0.0
 49
1.0
 49
0.0
 49
0.0
 49
0.0
 49
0.0
 49
1.0
142
0.0007999999797903
142
0.0
142
0.0
142
0.0
142
0.0
142
0.0007999999797903
142
0.0
142
0.0
142
0.0
142
0.0
142
1.0
142
0.0
142
0.0
142
0.0
142
0.0
142
1.0
144
0.0007999999797903
144
0.0
144
0.0
144
0.0
144
0.0
144
0.0007999999797903
144
0.0
144
0.0
144
0.0
144
0.0
144
1.0
144
0.0
144
0.0
144
0.0
144
0.0
144
1.0
1001
ACAD
1070
    -1
1070
     3
1070
     0
1000

1071
        0
1070
     0
  0
MLEADERSTYLE
  5
13B
102
{ACAD_REACTORS
330
12D
102
}
330
12D
100
AcDbMLeaderStyle
170
     2
171
     1
172
     0
 90
        2
 40
0.0
 41
0.0
173
     1
 91
-1056964608
340
14
 92
       -2
290
     1
 42
2.0
291
     1
 43
8.0
  3
Standard
 44
4.0
300

342
11
174
     1
178
     1
175
     1
176
     0
 93
-1056964608
 45
4.0
292
     0
297
     0
 46
4.0
 94
-1056964608
 47
1.0
 49
1.0
140
1.0
293
     1
141
0.0
294
     1
177
     0
142
1.0
295
     0
296
     1
143
3.75
1001
ACAD_MLEADERVER
1070
     2
  0
MLEADERSTYLE
  5
12E
102
{ACAD_REACTORS
330
12D
102
}
330
12D
100
AcDbMLeaderStyle
170
     2
171
     1
172
     0
 90
        2
 40
0.0
 41
0.0
173
     1
 91
-1056964608
340
14
 92
       -2
290
     1
 42
2.0
291
     1
 43
8.0
  3
Standard
 44
4.0
300

342
11
174
     1
178
     1
175
     1
176
     0
 93
-1056964608
 45
4.0
292
     0
297
     0
 46
4.0
 94
-1056964608
 47
1.0
 49
1.0
140
1.0
293
     1
141
0.0
294
     1
177
     0
142
1.0
295
     0
296
     0
143
3.75
1001
ACAD_MLEADERVER
1070
     2
  0
MLINESTYLE
  5
18
102
{ACAD_REACTORS
330
17
102
}
330
17
100
AcDbMlineStyle
  2
STANDARD
 70
     0
  3

 62
   256
 51
90.0
 52
90.0
 71
     2
 49
0.5
 62
   256
  6
BYLAYER
 49
-0.5
 62
   256
  6
BYLAYER
  0
ACDBPLACEHOLDER
  5
F
102
{ACAD_REACTORS
330
E
102
}
330
E
  0
SCALE
  5
10D
102
{ACAD_REACTORS
330
10C
102
}
330
10C
100
AcDbScale
 70
     0
300
1:1
140
1.0
141
1.0
290
     1
  0
SCALE
  5
188
102
{ACAD_REACTORS
330
10C
102
}
330
10C
100
AcDbScale
 70
     0
300
1:2
140
1.0
141
2.0
290
     0
  0
SCALE
  5
189
102
{ACAD_REACTORS
330
10C
102
}
330
10C
100
AcDbScale
 70
     0
300
1:4
140
1.0
141
4.0
290
     0
  0
SCALE
  5
18A
102
{ACAD_REACTORS
330
10C
102
}
330
10C
100
AcDbScale
 70
     0
300
1:5
140
1.0
141
5.0
290
     0
  0
SCALE
  5
18B
102
{ACAD_REACTORS
330
10C
102
}
330
10C
100
AcDbScale
 70
     0
300
1:8
140
1.0
141
8.0
290
     0
  0
SCALE
  5
18C
102
{ACAD_REACTORS
330
10C
102
}
330
10C
100
AcDbScale
 70
     0
300
1:10
140
1.0
141
10.0
290
     0
  0
SCALE
  5
18D
102
{ACAD_REACTORS
330
10C
102
}
330
10C
100
AcDbScale
 70
     0
300
1:16
140
1.0
141
16.0
290
     0
  0
SCALE
  5
18E
102
{ACAD_REACTORS
330
10C
102
}
330
10C
100
AcDbScale
 70
     0
300
1:20
140
1.0
141
20.0
290
     0
  0
SCALE
  5
18F
102
{ACAD_REACTORS
330
10C
102
}
330
10C
100
AcDbScale
 70
     0
300
1:30
140
1.0
141
30.0
290
     0
  0
SCALE
  5
190
102
{ACAD_REACTORS
330
10C
102
}
330
10C
100
AcDbScale
 70
     0
300
1:40
140
1.0
141
40.0
290
     0
  0
SCALE
  5
191
102
{ACAD_REACTORS
330
10C
102
}
330
10C
100
AcDbScale
 70
     0
300
1:50
140
1.0
141
50.0
290
     0
  0
SCALE
  5
192
102
{ACAD_REACTORS
330
10C
102
}
330
10C
100
AcDbScale
 70
     0
300
1:100
140
1.0
141
100.0
290
     0
  0
SCALE
  5
193
102
{ACAD_REACTORS
330
10C
102
}
330
10C
100
AcDbScale
 70
     0
300
2:1
140
2.0
141
1.0
290
     0
  0
SCALE
  5
194
102
{ACAD_REACTORS
330
10C
102
}
330
10C
100
AcDbScale
 70
     0
300
4:1
140
4.0
141
1.0
290
     0
  0
SCALE
  5
195
102
{ACAD_REACTORS
330
10C
102
}
330
10C
100
AcDbScale
 70
     0
300
8:1
140
8.0
141
1.0
290
     0
  0
SCALE
  5
196
102
{ACAD_REACTORS
330
10C
102
}
330
10C
100
AcDbScale
 70
     0
300
10:1
140
10.0
141
1.0
290
     0
  0
SCALE
  5
197
102
{ACAD_REACTORS
330
10C
102
}
330
10C
100
AcDbScale
 70
     0
300
100:1
140
100.0
141
1.0
290
     0
  0
SCALE
  5
198
102
{ACAD_REACTORS
330
10C
102
}
330
10C
100
AcDbScale
 70
     0
300
1/128" = 1'-0"
140
0.0078125
141
12.0
290
     0
  0
SCALE
  5
199
102
{ACAD_REACTORS
330
10C
102
}
330
10C
100
AcDbScale
 70
     0
300
1/64" = 1'-0"
140
0.015625
141
12.0
290
     0
  0
SCALE
  5
19A
102
{ACAD_REACTORS
330
10C
102
}
330
10C
100
AcDbScale
 70
     0
300
1/32" = 1'-0"
140
0.03125
141
12.0
290
     0
  0
SCALE
  5
19B
102
{ACAD_REACTORS
330
10C
102
}
330
10C
100
AcDbScale
 70
     0
300
1/16" = 1'-0"
140
0.0625
141
12.0
290
     0
  0
SCALE
  5
19C
102
{ACAD_REACTORS
330
10C
102
}
330
10C
100
AcDbScale
 70
     0
300
3/32" = 1'-0"
140
0.09375
141
12.0
290
     0
  0
SCALE
  5
19D
102
{ACAD_REACTORS
330
10C
102
}
330
10C
100
AcDbScale
 70
     0
300
1/8" = 1'-0"
140
0.125
141
12.0
290
     0
  0
SCALE
  5
19E
102
{ACAD_REACTORS
330
10C
102
}
330
10C
100
AcDbScale
 70
     0
300
3/16" = 1'-0"
140
0.1875
141
12.0
290
     0
  0
SCALE
  5
19F
102
{ACAD_REACTORS
330
10C
102
}
330
10C
100
AcDbScale
 70
     0
300
1/4" = 1'-0"
140
0.25
141
12.0
290
     0
  0
SCALE
  5
1A0
102
{ACAD_REACTORS
330
10C
102
}
330
10C
100
AcDbScale
 70
     0
300
3/8" = 1'-0"
140
0.375
141
12.0
290
     0
  0
SCALE
  5
1A1
102
{ACAD_REACTORS
330
10C
102
}
330
10C
100
AcDbScale
 70
     0
300
1/2" = 1'-0"
140
0.5
141
12.0
290
     0
  0
SCALE
  5
1A2
102
{ACAD_REACTORS
330
10C
102
}
330
10C
100
AcDbScale
 70
     0
300
3/4" = 1'-0"
140
0.75
141
12.0
290
     0
  0
SCALE
  5
1A3
102
{ACAD_REACTORS
330
10C
102
}
330
10C
100
AcDbScale
 70
     0
300
1" = 1'-0"
140
1.0
141
12.0
290
     0
  0
SCALE
  5
1A4
102
{ACAD_REACTORS
330
10C
102
}
330
10C
100
AcDbScale
 70
     0
300
1-1/2" = 1'-0"
140
1.5
141
12.0
290
     0
  0
SCALE
  5
1A5
102
{ACAD_REACTORS
330
10C
102
}
330
10C
100
AcDbScale
 70
     0
300
3" = 1'-0"
140
3.0
141
12.0
290
     0
  0
SCALE
  5
1A6
102
{ACAD_REACTORS
330
10C
102
}
330
10C
100
AcDbScale
 70
     0
300
6" = 1'-0"
140
6.0
141
12.0
290
     0
  0
SCALE
  5
1A7
102
{ACAD_REACTORS
330
10C
102
}
330
10C
100
AcDbScale
 70
     0
300
1'-0" = 1'-0"
140
12.0
141
12.0
290
     0
  0
TABLESTYLE
  5
7F
102
{ACAD_XDICTIONARY
360
162
102
}
102
{ACAD_REACTORS
330
7E
102
}
330
7E
100
AcDbTableStyle
  3
Standard
 70
     0
 71
     0
 40
1.5
 41
1.5
280
     0
281
     0
  7
Standard
140
4.5
170
     2
 62
     0
 63
     7
283
     0
274
    -2
284
     1
 64
     0
275
    -2
285
     1
 65
     0
276
    -2
286
     1
 66
     0
277
    -2
287
     1
 67
     0
278
    -2
288
     1
 68
     0
279
    -2
289
     1
 69
     0
  7
Standard
140
6.0
170
     5
 62
     0
 63
     7
283
     0
274
    -2
284
     1
 64
     0
275
    -2
285
     1
 65
     0
276
    -2
286
     1
 66
     0
277
    -2
287
     1
 67
     0
278
    -2
288
     1
 68
     0
279
    -2
289
     1
 69
     0
  7
Standard
140
4.5
170
     5
 62
     0
 63
     7
283
     0
274
    -2
284
     1
 64
     0
275
    -2
285
     1
 65
     0
276
    -2
286
     1
 66
     0
277
    -2
287
     1
 67
     0
278
    -2
288
     1
 68
     0
279
    -2
289
     1
 69
     0
  0
VISUALSTYLE
  5
F5
102
{ACAD_REACTORS
330
EF
102
}
330
EF
100
AcDbVisualStyle
  2
2dWireframe
 70
     4
 71
     0
 72
     2
 73
     1
 90
        0
 40
-0.6
 41
-30.0
 62
     5
 63
     7
 74
     1
 91
        4
 64
     7
 65
   257
 75
     1
175
     1
 42
1.0
 92
        0
 66
   257
 43
1.0
 76
     1
 77
     6
 78
     2
 67
     7
 79
     5
170
     0
171
     0
290
     0
174
     0
 93
        1
 44
0.0
173
     0
291
     0
 45
0.0
1001
ACAD
1000
AcDbSavedByObjectVersion
1070
     0
  0
VISUALSTYLE
  5
F7
102
{ACAD_REACTORS
330
EF
102
}
330
EF
100
AcDbVisualStyle
  2
3D Hidden
 70
     6
 71
     1
 72
     2
 73
     2
 90
        0
 40
-0.6
 41
-30.0
 62
     5
 63
     7
 74
     2
 91
        2
 64
     7
 65
   257
 75
     2
175
     1
 42
40.0
 92
        0
 66
   257
 43
1.0
 76
     1
 77
     6
 78
     2
 67
     7
 79
     3
170
     0
171
     0
290
     0
174
     0
 93
        1
 44
0.0
173
     0
291
     0
 45
0.0
1001
ACAD
1000
AcDbSavedByObjectVersion
1070
     0
  0
VISUALSTYLE
  5
F6
102
{ACAD_REACTORS
330
EF
102
}
330
EF
100
AcDbVisualStyle
  2
3dWireframe
 70
     5
 71
     0
 72
     2
 73
     1
 90
        0
 40
-0.6
 41
-30.0
 62
     5
 63
     7
 74
     1
 91
        4
 64
     7
 65
   257
 75
     1
175
     1
 42
1.0
 92
        0
 66
   257
 43
1.0
 76
     1
 77
     6
 78
     2
 67
     7
 79
     5
170
     0
171
     0
290
     0
174
     0
 93
        1
 44
0.0
173
     0
291
     0
 45
0.0
1001
ACAD
1000
AcDbSavedByObjectVersion
1070
     0
  0
VISUALSTYLE
  5
F4
102
{ACAD_REACTORS
330
EF
102
}
330
EF
100
AcDbVisualStyle
  2
Basic
 70
     7
 71
     1
 72
     0
 73
     1
 90
        0
 40
-0.6
 41
-30.0
 62
     5
 63
     7
 74
     0
 91
        4
 64
     7
 65
   257
 75
     1
175
     1
 42
1.0
 92
        8
 66
     7
 43
1.0
 76
     1
 77
     6
 78
     2
 67
     7
 79
     5
170
     0
171
     0
290
     0
174
     0
 93
        1
 44
0.0
173
     0
291
     1
 45
0.0
1001
ACAD
1000
AcDbSavedByObjectVersion
1070
     0
  0
VISUALSTYLE
  5
FB
102
{ACAD_REACTORS
330
EF
102
}
330
EF
100
AcDbVisualStyle
  2
Brighten
 70
    12
 71
     2
 72
     2
 73
     1
 90
        0
 40
-0.6
 41
-30.0
 62
     5
 63
     7
 74
     1
 91
        4
 64
     7
 65
   257
 75
     1
175
     1
 42
1.0
 92
        8
 66
     7
 43
1.0
 76
     1
 77
     6
 78
     2
 67
     7
 79
     5
170
     0
171
     0
290
     0
174
     0
 93
        1
 44
50.0
173
     0
291
     1
 45
0.0
1001
ACAD
1000
AcDbSavedByObjectVersion
1070
     0
  0
VISUALSTYLE
  5
FF
102
{ACAD_REACTORS
330
EF
102
}
330
EF
100
AcDbVisualStyle
  2
ColorChange
 70
    16
 71
     2
 72
     2
 73
     3
 90
        0
 40
-0.6
 41
-30.0
 62
     5
 63
     8
 74
     1
 91
        4
 64
     7
 65
   257
 75
     1
175
     1
 42
1.0
 92
        8
 66
     8
 43
1.0
 76
     1
 77
     6
 78
     2
 67
     7
 79
     5
170
     0
171
     0
290
     0
174
     0
 93
        1
 44
0.0
173
     0
291
     1
 45
0.0
1001
ACAD
1000
AcDbSavedByObjectVersion
1070
     0
  0
VISUALSTYLE
  5
F8
102
{ACAD_REACTORS
330
EF
102
}
330
EF
100
AcDbVisualStyle
  2
Conceptual
 70
     9
 71
     3
 72
     2
 73
     1
 90
        0
 40
-0.6
 41
-30.0
 62
     5
 63
     7
 74
     2
 91
        2
 64
     7
 65
   257
 75
     1
175
     1
 42
40.0
 92
        8
 66
     7
 43
1.0
 76
     1
 77
     6
 78
     2
 67
     7
 79
     3
170
     0
171
     0
290
     0
174
     0
 93
        1
 44
0.0
173
     0
291
     0
 45
0.0
1001
ACAD
1000
AcDbSavedByObjectVersion
1070
     0
  0
VISUALSTYLE
  5
FA
102
{ACAD_REACTORS
330
EF
102
}
330
EF
100
AcDbVisualStyle
  2
Dim
 70
    11
 71
     2
 72
     2
 73
     1
 90
        0
 40
-0.6
 41
-30.0
 62
     5
 63
     7
 74
     1
 91
        4
 64
     7
 65
   257
 75
     1
175
     1
 42
1.0
 92
        8
 66
     7
 43
1.0
 76
     1
 77
     6
 78
     2
 67
     7
 79
     5
170
     0
171
     0
290
     0
174
     0
 93
        1
 44
-50.0
173
     0
291
     1
 45
0.0
1001
ACAD
1000
AcDbSavedByObjectVersion
1070
     0
  0
VISUALSTYLE
  5
FE
102
{ACAD_REACTORS
330
EF
102
}
330
EF
100
AcDbVisualStyle
  2
Facepattern
 70
    15
 71
     2
 72
     2
 73
     1
 90
        0
 40
-0.6
 41
-30.0
 62
     5
 63
     7
 74
     1
 91
        4
 64
     7
 65
   257
 75
     1
175
     1
 42
1.0
 92
        8
 66
     7
 43
1.0
 76
     1
 77
     6
 78
     2
 67
     7
 79
     5
170
     0
171
     0
290
     0
174
     0
 93
        1
 44
0.0
173
     0
291
     1
 45
0.0
1001
ACAD
1000
AcDbSavedByObjectVersion
1070
     0
  0
VISUALSTYLE
  5
F0
102
{ACAD_REACTORS
330
EF
102
}
330
EF
100
AcDbVisualStyle
  2
Flat
 70
     0
 71
     2
 72
     1
 73
     1
 90
        2
 40
-0.6
 41
30.0
 62
     5
 63
     7
 74
     0
 91
        4
 64
     7
 65
   257
 75
     1
175
     1
 42
1.0
 92
        8
 66
     7
 43
1.0
 76
     1
 77
     6
 78
     2
 67
     7
 79
     5
170
     0
171
     0
290
     0
174
     0
 93
        1
 44
0.0
173
     0
291
     1
 45
0.0
1001
ACAD
1000
AcDbSavedByObjectVersion
1070
     0
  0
VISUALSTYLE
  5
F1
102
{ACAD_REACTORS
330
EF
102
}
330
EF
100
AcDbVisualStyle
  2
FlatWithEdges
 70
     1
 71
     2
 72
     1
 73
     1
 90
        2
 40
-0.6
 41
30.0
 62
     5
 63
     7
 74
     1
 91
        4
 64
     7
 65
   257
 75
     1
175
     1
 42
1.0
 92
        0
 66
   257
 43
1.0
 76
     1
 77
     6
 78
     2
 67
     7
 79
     5
170
     0
171
     0
290
     0
174
     0
 93
        1
 44
0.0
173
     0
291
     1
 45
0.0
1001
ACAD
1000
AcDbSavedByObjectVersion
1070
     0
  0
VISUALSTYLE
  5
F2
102
{ACAD_REACTORS
330
EF
102
}
330
EF
100
AcDbVisualStyle
  2
Gouraud
 70
     2
 71
     2
 72
     2
 73
     1
 90
        2
 40
-0.6
 41
30.0
 62
     5
 63
     7
 74
     0
 91
        4
 64
     7
 65
   257
 75
     1
175
     1
 42
1.0
 92
        0
 66
     7
 43
1.0
 76
     1
 77
     6
 78
     2
 67
     7
 79
     5
170
     0
171
     0
290
     0
174
     0
 93
        1
 44
0.0
173
     0
291
     1
 45
0.0
1001
ACAD
1000
AcDbSavedByObjectVersion
1070
     0
  0
VISUALSTYLE
  5
F3
102
{ACAD_REACTORS
330
EF
102
}
330
EF
100
AcDbVisualStyle
  2
GouraudWithEdges
 70
     3
 71
     2
 72
     2
 73
     1
 90
        2
 40
-0.6
 41
30.0
 62
     5
 63
     7
 74
     1
 91
        4
 64
     7
 65
   257
 75
     1
175
     1
 42
1.0
 92
        0
 66
   257
 43
1.0
 76
     1
 77
     6
 78
     2
 67
     7
 79
     5
170
     0
171
     0
290
     0
174
     0
 93
        1
 44
0.0
173
     0
291
     1
 45
0.0
1001
ACAD
1000
AcDbSavedByObjectVersion
1070
     0
  0
VISUALSTYLE
  5
FD
102
{ACAD_REACTORS
330
EF
102
}
330
EF
100
AcDbVisualStyle
  2
Linepattern
 70
    14
 71
     2
 72
     2
 73
     1
 90
        0
 40
-0.6
 41
-30.0
 62
     5
 63
     7
 74
     1
 91
        4
 64
     7
 65
   257
 75
     7
175
     7
 42
1.0
 92
        8
 66
     7
 43
1.0
 76
     1
 77
     6
 78
     2
 67
     7
 79
     5
170
     0
171
     0
290
     0
174
     0
 93
        1
 44
0.0
173
     0
291
     1
 45
0.0
1001
ACAD
1000
AcDbSavedByObjectVersion
1070
     0
  0
VISUALSTYLE
  5
F9
102
{ACAD_REACTORS
330
EF
102
}
330
EF
100
AcDbVisualStyle
  2
Realistic
 70
     8
 71
     2
 72
     2
 73
     1
 90
        0
 40
-0.6
 41
-30.0
 62
     5
 63
     7
 74
     1
 91
        0
 64
     7
 65
   257
 75
     1
175
     1
 42
1.0
 92
        8
 66
     8
 43
1.0
 76
     1
 77
     6
 78
     2
 67
     7
 79
     5
170
     0
171
     0
290
     0
174
     0
 93
       13
 44
0.0
173
     0
291
     0
 45
0.0
1001
ACAD
1000
AcDbSavedByObjectVersion
1070
     0
  0
VISUALSTYLE
  5
FC
102
{ACAD_REACTORS
330
EF
102
}
330
EF
100
AcDbVisualStyle
  2
Thicken
 70
    13
 71
     2
 72
     2
 73
     1
 90
        0
 40
-0.6
 41
-30.0
 62
     5
 63
     7
 74
     1
 91
        4
 64
     7
 65
   257
 75
     1
175
     1
 42
1.0
 92
       12
 66
     7
 43
1.0
 76
     1
 77
     6
 78
     2
 67
     7
 79
     5
170
     0
171
     0
290
     0
174
     0
 93
        1
 44
0.0
173
     0
291
     1
 45
0.0
1001
ACAD
1000
AcDbSavedByObjectVersion
1070
     0
  0
DICTIONARYVAR
  5
146
102
{ACAD_REACTORS
330
5E
102
}
330
5E
100
DictionaryVariables
280
     0
  1
1:1
  0
DICTIONARYVAR
  5
145
102
{ACAD_REACTORS
330
5E
102
}
330
5E
100
DictionaryVariables
280
     0
  1
STANDARD
  0
DICTIONARYVAR
  5
84
102
{ACAD_REACTORS
330
5E
102
}
330
5E
100
DictionaryVariables
280
     0
  1
STANDARD
  0
DICTIONARYVAR
  5
5F
102
{ACAD_REACTORS
330
5E
102
}
330
5E
100
DictionaryVariables
280
     0
  1
2
  0
DICTIONARYVAR
  5
63
102
{ACAD_REACTORS
330
5E
102
}
330
5E
100
DictionaryVariables
280
     0
  1
1
  0
DICTIONARYVAR
  5
CB7
102
{ACAD_REACTORS
330
5E
102
}
330
5E
100
DictionaryVariables
280
     0
  1
0
  0
DICTIONARYVAR
  5
CB5
102
{ACAD_REACTORS
330
5E
102
}
330
5E
100
DictionaryVariables
280
     0
  1
2
  0
DICTIONARYVAR
  5
CB4
102
{ACAD_REACTORS
330
5E
102
}
330
5E
100
DictionaryVariables
280
     0
  1
1
  0
DICTIONARYVAR
  5
CB9
102
{ACAD_REACTORS
330
5E
102
}
330
5E
100
DictionaryVariables
280
     0
  1
80.000000
  0
DICTIONARYVAR
  5
CB8
102
{ACAD_REACTORS
330
5E
102
}
330
5E
100
DictionaryVariables
280
     0
  1
5.000000
  0
DICTIONARYVAR
  5
CB6
102
{ACAD_REACTORS
330
5E
102
}
330
5E
100
DictionaryVariables
280
     0
  1
127
  0
DICTIONARY
  5
CBF
330
D3
100
AcDbDictionary
280
     1
281
     1
  3
ACAD_XREC_ROUNDTRIP
360
CC0
  0
DICTIONARY
  5
CC1
330
D7
100
AcDbDictionary
280
     1
281
     1
  3
ACAD_XREC_ROUNDTRIP
360
CC2
  0
DICTIONARY
  5
CBC
330
22
100
AcDbDictionary
280
     1
281
     1
  3
ACAD_XREC_ROUNDTRIP
360
CBD
  0
DICTIONARY
  5
CC5
330
ED
100
AcDbDictionary
280
     1
281
     1
  3
ACAD_XREC_ROUNDTRIP
360
CC6
  0
DICTIONARY
  5
CC3
330
EC
100
AcDbDictionary
280
     1
281
     1
  3
ACAD_XREC_ROUNDTRIP
360
CC4
  0
DICTIONARY
  5
173
330
EE
100
AcDbDictionary
280
     1
281
     1
  3
ACAD_XREC_ROUNDTRIP
360
CC7
  3
BUMPTILE
360
175
  3
DIFFUSETILE
360
174
  3
OPACITYTILE
360
176
  3
REFLECTIONTILE
360
177
  0
DICTIONARY
  5
162
330
7F
100
AcDbDictionary
280
     1
281
     1
  3
ACAD_ROUNDTRIP_2008_TABLESTYLE_CELLSTYLEMAP
360
CBA
  3
ACAD_XREC_ROUNDTRIP
360
CBE
  0
XRECORD
  5
CC0
102
{ACAD_REACTORS
330
CBF
102
}
330
CBF
100
AcDbXrecord
280
     1
102
SHADEPLOT
 70
     0
102
SHADEPLOTRESLEVEL
 70
     2
102
SHADEPLOTCUSTOMDPI
 70
   300
  0
XRECORD
  5
CC2
102
{ACAD_REACTORS
330
CC1
102
}
330
CC1
100
AcDbXrecord
280
     1
102
SHADEPLOT
 70
     0
102
SHADEPLOTRESLEVEL
 70
     2
102
SHADEPLOTCUSTOMDPI
 70
   300
  0
XRECORD
  5
CBD
102
{ACAD_REACTORS
330
CBC
102
}
330
CBC
100
AcDbXrecord
280
     1
102
SHADEPLOT
 70
     0
102
SHADEPLOTRESLEVEL
 70
     2
102
SHADEPLOTCUSTOMDPI
 70
   300
  0
XRECORD
  5
CC6
102
{ACAD_REACTORS
330
CC5
102
}
330
CC5
100
AcDbXrecord
280
     1
102
MATERIAL
148
0.0
149
0.0
149
0.0
 93
        0
 94
       63
282
     0
 72
     1
 77
     1
171
     1
175
     1
179
     1
273
     0
  0
XRECORD
  5
CC4
102
{ACAD_REACTORS
330
CC3
102
}
330
CC3
100
AcDbXrecord
280
     1
102
MATERIAL
148
0.0
149
0.0
149
0.0
 93
        0
 94
       63
282
     0
 72
     1
 77
     1
171
     1
175
     1
179
     1
273
     0
  0
XRECORD
  5
CC7
102
{ACAD_REACTORS
330
173
102
}
330
173
100
AcDbXrecord
280
     1
102
MATERIAL
148
0.0
149
0.0
149
0.0
 93
        0
 94
       63
282
     0
 72
     1
 77
     1
171
     1
175
     1
179
     1
273
     0
  0
XRECORD
  5
175
102
{ACAD_REACTORS
330
173
102
}
330
173
100
AcDbXrecord
280
     1
270
     1
271
     1
  0
XRECORD
  5
174
102
{ACAD_REACTORS
330
173
102
}
330
173
100
AcDbXrecord
280
     1
270
     1
271
     1
  0
XRECORD
  5
176
102
{ACAD_REACTORS
330
173
102
}
330
173
100
AcDbXrecord
280
     1
270
     1
271
     1
  0
XRECORD
  5
177
102
{ACAD_REACTORS
330
173
102
}
330
173
100
AcDbXrecord
280
     1
270
     1
271
     1
  0
CELLSTYLEMAP
  5
CBA
102
{ACAD_REACTORS
330
162
102
}
330
162
100
AcDbCellStyleMap
 90
        3
300
CELLSTYLE
  1
TABLEFORMAT_BEGIN
 90
        5
170
     1
 91
        0
 92
    32768
 62
   257
 93
        1
300
CONTENTFORMAT
  1
CONTENTFORMAT_BEGIN
 90
        0
 91
        0
 92
      512
 93
        0
300

 40
0.0
140
1.0
 94
        5
 62
     0
340
11
144
6.0
309
CONTENTFORMAT_END
171
     1
301
MARGIN
  1
CELLMARGIN_BEGIN
 40
1.5
 40
1.5
 40
1.5
 40
1.5
 40
4.5
 40
4.5
309
CELLMARGIN_END
 94
        6
 95
        1
302
GRIDFORMAT
  1
GRIDFORMAT_BEGIN
 90
        0
 91
        1
 62
     0
 92
       -2
340
14
 93
        0
 40
1.125
309
GRIDFORMAT_END
 95
        2
302
GRIDFORMAT
  1
GRIDFORMAT_BEGIN
 90
        0
 91
        1
 62
     0
 92
       -2
340
14
 93
        0
 40
1.125
309
GRIDFORMAT_END
 95
        4
302
GRIDFORMAT
  1
GRIDFORMAT_BEGIN
 90
        0
 91
        1
 62
     0
 92
       -2
340
14
 93
        0
 40
1.125
309
GRIDFORMAT_END
 95
        8
302
GRIDFORMAT
  1
GRIDFORMAT_BEGIN
 90
        0
 91
        1
 62
     0
 92
       -2
340
14
 93
        0
 40
1.125
309
GRIDFORMAT_END
 95
       16
302
GRIDFORMAT
  1
GRIDFORMAT_BEGIN
 90
        0
 91
        1
 62
     0
 92
       -2
340
14
 93
        0
 40
1.125
309
GRIDFORMAT_END
 95
       32
302
GRIDFORMAT
  1
GRIDFORMAT_BEGIN
 90
        0
 91
        1
 62
     0
 92
       -2
340
14
 93
        0
 40
1.125
309
GRIDFORMAT_END
309
TABLEFORMAT_END
  1
CELLSTYLE_BEGIN
 90
        1
 91
        1
300
_TITLE
309
CELLSTYLE_END
300
CELLSTYLE
  1
TABLEFORMAT_BEGIN
 90
        5
170
     1
 91
        0
 92
        0
 62
   257
 93
        1
300
CONTENTFORMAT
  1
CONTENTFORMAT_BEGIN
 90
        0
 91
        0
 92
      512
 93
        0
300

 40
0.0
140
1.0
 94
        5
 62
     0
340
11
144
4.5
309
CONTENTFORMAT_END
171
     1
301
MARGIN
  1
CELLMARGIN_BEGIN
 40
1.5
 40
1.5
 40
1.5
 40
1.5
 40
4.5
 40
4.5
309
CELLMARGIN_END
 94
        6
 95
        1
302
GRIDFORMAT
  1
GRIDFORMAT_BEGIN
 90
        0
 91
        1
 62
     0
 92
       -2
340
14
 93
        0
 40
1.125
309
GRIDFORMAT_END
 95
        2
302
GRIDFORMAT
  1
GRIDFORMAT_BEGIN
 90
        0
 91
        1
 62
     0
 92
       -2
340
14
 93
        0
 40
1.125
309
GRIDFORMAT_END
 95
        4
302
GRIDFORMAT
  1
GRIDFORMAT_BEGIN
 90
        0
 91
        1
 62
     0
 92
       -2
340
14
 93
        0
 40
1.125
309
GRIDFORMAT_END
 95
        8
302
GRIDFORMAT
  1
GRIDFORMAT_BEGIN
 90
        0
 91
        1
 62
     0
 92
       -2
340
14
 93
        0
 40
1.125
309
GRIDFORMAT_END
 95
       16
302
GRIDFORMAT
  1
GRIDFORMAT_BEGIN
 90
        0
 91
        1
 62
     0
 92
       -2
340
14
 93
        0
 40
1.125
309
GRIDFORMAT_END
 95
       32
302
GRIDFORMAT
  1
GRIDFORMAT_BEGIN
 90
        0
 91
        1
 62
     0
 92
       -2
340
14
 93
        0
 40
1.125
309
GRIDFORMAT_END
309
TABLEFORMAT_END
  1
CELLSTYLE_BEGIN
 90
        2
 91
        1
300
_HEADER
309
CELLSTYLE_END
300
CELLSTYLE
  1
TABLEFORMAT_BEGIN
 90
        5
170
     1
 91
        0
 92
        0
 62
   257
 93
        1
300
CONTENTFORMAT
  1
CONTENTFORMAT_BEGIN
 90
        0
 91
        0
 92
      512
 93
        0
300

 40
0.0
140
1.0
 94
        2
 62
     0
340
11
144
4.5
309
CONTENTFORMAT_END
171
     1
301
MARGIN
  1
CELLMARGIN_BEGIN
 40
1.5
 40
1.5
 40
1.5
 40
1.5
 40
4.5
 40
4.5
309
CELLMARGIN_END
 94
        6
 95
        1
302
GRIDFORMAT
  1
GRIDFORMAT_BEGIN
 90
        0
 91
        1
 62
     0
 92
       -2
340
14
 93
        0
 40
1.125
309
GRIDFORMAT_END
 95
        2
302
GRIDFORMAT
  1
GRIDFORMAT_BEGIN
 90
        0
 91
        1
 62
     0
 92
       -2
340
14
 93
        0
 40
1.125
309
GRIDFORMAT_END
 95
        4
302
GRIDFORMAT
  1
GRIDFORMAT_BEGIN
 90
        0
 91
        1
 62
     0
 92
       -2
340
14
 93
        0
 40
1.125
309
GRIDFORMAT_END
 95
        8
302
GRIDFORMAT
  1
GRIDFORMAT_BEGIN
 90
        0
 91
        1
 62
     0
 92
       -2
340
14
 93
        0
 40
1.125
309
GRIDFORMAT_END
 95
       16
302
GRIDFORMAT
  1
GRIDFORMAT_BEGIN
 90
        0
 91
        1
 62
     0
 92
       -2
340
14
 93
        0
 40
1.125
309
GRIDFORMAT_END
 95
       32
302
GRIDFORMAT
  1
GRIDFORMAT_BEGIN
 90
        0
 91
        1
 62
     0
 92
       -2
340
14
 93
        0
 40
1.125
309
GRIDFORMAT_END
309
TABLEFORMAT_END
  1
CELLSTYLE_BEGIN
 90
        3
 91
        2
300
_DATA
309
CELLSTYLE_END
  0
XRECORD
  5
CBE
102
{ACAD_REACTORS
330
162
102
}
330
162
100
AcDbXrecord
280
     1
102
ACAD_ROUNDTRIP_PRE2007_TABLESTYLE
 90
      512
 91
        0
  1

 92
      512
 93
        0
  2

 94
      512
 95
        0
  3

  0
ENDSEC
  0
EOF
