  0
SECTION
  2
HEADER
  9
$ACADVER
  1
AC1015
  9
$ACADMAINTVER
 70
    20
  9
$DWGCODEPAGE
  3
ANSI_1254
  9
$INSBASE
 10
0.0
 20
0.0
 30
0.0
  9
$EXTMIN
 10
1439.706054330408
 20
1086.200202139508
 30
0.0
  9
$EXTMAX
 10
1750.220531731288
 20
1163.3527592077
 30
0.0
  9
$LIMMIN
 10
0.0
 20
0.0
  9
$LIMMAX
 10
420.0
 20
297.0
  9
$ORTHOMODE
 70
     0
  9
$REGENMODE
 70
     1
  9
$FILLMODE
 70
     1
  9
$QTEXTMODE
 70
     0
  9
$MIRRTEXT
 70
     0
  9
$LTSCALE
 40
1.0
  9
$ATTMODE
 70
     1
  9
$TEXTSIZE
 40
2.5
  9
$TRACEWID
 40
1.0
  9
$TEXTSTYLE
  7
Standard
  9
$CLAYER
  8
0
  9
$CELTYPE
  6
ByLayer
  9
$CECOLOR
 62
   256
  9
$CELTSCALE
 40
1.0
  9
$DISPSILH
 70
     0
  9
$DIMSCALE
 40
1.0
  9
$DIMASZ
 40
2.5
  9
$DIMEXO
 40
0.625
  9
$DIMDLI
 40
3.75
  9
$DIMRND
 40
0.0
  9
$DIMDLE
 40
0.0
  9
$DIMEXE
 40
1.25
  9
$DIMTP
 40
0.0
  9
$DIMTM
 40
0.0
  9
$DIMTXT
 40
2.5
  9
$DIMCEN
 40
2.5
  9
$DIMTSZ
 40
0.0
  9
$DIMTOL
 70
     0
  9
$DIMLIM
 70
     0
  9
$DIMTIH
 70
     0
  9
$DIMTOH
 70
     0
  9
$DIMSE1
 70
     0
  9
$DIMSE2
 70
     0
  9
$DIMTAD
 70
     1
  9
$DIMZIN
 70
     8
  9
$DIMBLK
  1

  9
$DIMASO
 70
     1
  9
$DIMSHO
 70
     1
  9
$DIMPOST
  1

  9
$DIMAPOST
  1

  9
$DIMALT
 70
     0
  9
$DIMALTD
 70
     3
  9
$DIMALTF
 40
0.03937007874016
  9
$DIMLFAC
 40
1.0
  9
$DIMTOFL
 70
     1
  9
$DIMTVP
 40
0.0
  9
$DIMTIX
 70
     0
  9
$DIMSOXD
 70
     0
  9
$DIMSAH
 70
     0
  9
$DIMBLK1
  1

  9
$DIMBLK2
  1

  9
$DIMSTYLE
  2
ISO-25
  9
$DIMCLRD
 70
     0
  9
$DIMCLRE
 70
     0
  9
$DIMCLRT
 70
     0
  9
$DIMTFAC
 40
1.0
  9
$DIMGAP
 40
0.625
  9
$DIMJUST
 70
     0
  9
$DIMSD1
 70
     0
  9
$DIMSD2
 70
     0
  9
$DIMTOLJ
 70
     0
  9
$DIMTZIN
 70
     8
  9
$DIMALTZ
 70
     0
  9
$DIMALTTZ
 70
     0
  9
$DIMUPT
 70
     0
  9
$DIMDEC
 70
     2
  9
$DIMTDEC
 70
     2
  9
$DIMALTU
 70
     2
  9
$DIMALTTD
 70
     3
  9
$DIMTXSTY
  7
Standard
  9
$DIMAUNIT
 70
     0
  9
$DIMADEC
 70
     0
  9
$DIMALTRND
 40
0.0
  9
$DIMAZIN
 70
     0
  9
$DIMDSEP
 70
    44
  9
$DIMATFIT
 70
     3
  9
$DIMFRAC
 70
     0
  9
$DIMLDRBLK
  1

  9
$DIMLUNIT
 70
     2
  9
$DIMLWD
 70
    -2
  9
$DIMLWE
 70
    -2
  9
$DIMTMOVE
 70
     0
  9
$LUNITS
 70
     2
  9
$LUPREC
 70
     4
  9
$SKETCHINC
 40
1.0
  9
$FILLETRAD
 40
0.0
  9
$AUNITS
 70
     0
  9
$AUPREC
 70
     0
  9
$MENU
  1
.
  9
$ELEVATION
 40
0.0
  9
$PELEVATION
 40
0.0
  9
$THICKNESS
 40
0.0
  9
$LIMCHECK
 70
     0
  9
$CHAMFERA
 40
0.0
  9
$CHAMFERB
 40
0.0
  9
$CHAMFERC
 40
0.0
  9
$CHAMFERD
 40
0.0
  9
$SKPOLY
 70
     0
  9
$TDCREATE
 40
2458492.456901308
  9
$TDUCREATE
 40
2458492.331901308
  9
$TDUPDATE
 40
2458983.561070961
  9
$TDUUPDATE
 40
2458983.436070961
  9
$TDINDWG
 40
0.0006426505
  9
$TDUSRTIMER
 40
0.0006426505
  9
$USRTIMER
 70
     1
  9
$ANGBASE
 50
0.0
  9
$ANGDIR
 70
     0
  9
$PDMODE
 70
     0
  9
$PDSIZE
 40
0.0
  9
$PLINEWID
 40
0.0
  9
$SPLFRAME
 70
     0
  9
$SPLINETYPE
 70
     6
  9
$SPLINESEGS
 70
     8
  9
$HANDSEED
  5
AF2
  9
$SURFTAB1
 70
     6
  9
$SURFTAB2
 70
     6
  9
$SURFTYPE
 70
     6
  9
$SURFU
 70
     6
  9
$SURFV
 70
     6
  9
$UCSBASE
  2

  9
$UCSNAME
  2

  9
$UCSORG
 10
0.0
 20
0.0
 30
0.0
  9
$UCSXDIR
 10
1.0
 20
0.0
 30
0.0
  9
$UCSYDIR
 10
0.0
 20
1.0
 30
0.0
  9
$UCSORTHOREF
  2

  9
$UCSORTHOVIEW
 70
     0
  9
$UCSORGTOP
 10
0.0
 20
0.0
 30
0.0
  9
$UCSORGBOTTOM
 10
0.0
 20
0.0
 30
0.0
  9
$UCSORGLEFT
 10
0.0
 20
0.0
 30
0.0
  9
$UCSORGRIGHT
 10
0.0
 20
0.0
 30
0.0
  9
$UCSORGFRONT
 10
0.0
 20
0.0
 30
0.0
  9
$UCSORGBACK
 10
0.0
 20
0.0
 30
0.0
  9
$PUCSBASE
  2

  9
$PUCSNAME
  2

  9
$PUCSORG
 10
0.0
 20
0.0
 30
0.0
  9
$PUCSXDIR
 10
1.0
 20
0.0
 30
0.0
  9
$PUCSYDIR
 10
0.0
 20
1.0
 30
0.0
  9
$PUCSORTHOREF
  2

  9
$PUCSORTHOVIEW
 70
     0
  9
$PUCSORGTOP
 10
0.0
 20
0.0
 30
0.0
  9
$PUCSORGBOTTOM
 10
0.0
 20
0.0
 30
0.0
  9
$PUCSORGLEFT
 10
0.0
 20
0.0
 30
0.0
  9
$PUCSORGRIGHT
 10
0.0
 20
0.0
 30
0.0
  9
$PUCSORGFRONT
 10
0.0
 20
0.0
 30
0.0
  9
$PUCSORGBACK
 10
0.0
 20
0.0
 30
0.0
  9
$USERI1
 70
     0
  9
$USERI2
 70
     0
  9
$USERI3
 70
     0
  9
$USERI4
 70
     0
  9
$USERI5
 70
     0
  9
$USERR1
 40
0.0
  9
$USERR2
 40
0.0
  9
$USERR3
 40
0.0
  9
$USERR4
 40
0.0
  9
$USERR5
 40
0.0
  9
$WORLDVIEW
 70
     1
  9
$SHADEDGE
 70
     3
  9
$SHADEDIF
 70
    70
  9
$TILEMODE
 70
     1
  9
$MAXACTVP
 70
    64
  9
$PINSBASE
 10
0.0
 20
0.0
 30
0.0
  9
$PLIMCHECK
 70
     0
  9
$PEXTMIN
 10
0.0
 20
0.0
 30
0.0
  9
$PEXTMAX
 10
0.0
 20
0.0
 30
0.0
  9
$PLIMMIN
 10
0.0
 20
0.0
  9
$PLIMMAX
 10
12.0
 20
9.0
  9
$UNITMODE
 70
     0
  9
$VISRETAIN
 70
     1
  9
$PLINEGEN
 70
     0
  9
$PSLTSCALE
 70
     1
  9
$TREEDEPTH
 70
  3020
  9
$CMLSTYLE
  2
Standard
  9
$CMLJUST
 70
     0
  9
$CMLSCALE
 40
20.0
  9
$PROXYGRAPHICS
 70
     1
  9
$MEASUREMENT
 70
     1
  9
$CELWEIGHT
370
    -1
  9
$ENDCAPS
280
     0
  9
$JOINSTYLE
280
     0
  9
$LWDISPLAY
290
     0
  9
$INSUNITS
 70
     4
  9
$HYPERLINKBASE
  1

  9
$STYLESHEET
  1

  9
$XEDIT
290
     1
  9
$CEPSNTYPE
380
     0
  9
$PSTYLEMODE
290
     1
  9
$FINGERPRINTGUID
  2
{10C8524E-9AA7-4C39-ACA8-220835B1B2C6}
  9
$VERSIONGUID
  2
{D4779BA9-228C-4F3A-AFE0-1B092FF021CF}
  9
$EXTNAMES
290
     1
  9
$PSVPSCALE
 40
0.0
  9
$OLESTARTUP
290
     0
  0
ENDSEC
  0
SECTION
  2
CLASSES
  0
CLASS
  1
ACDBDICTIONARYWDFLT
  2
AcDbDictionaryWithDefault
  3
ObjectDBX Classes
 90
        0
280
     0
281
     0
  0
CLASS
  1
ACDBPLACEHOLDER
  2
AcDbPlaceHolder
  3
ObjectDBX Classes
 90
        0
280
     0
281
     0
  0
CLASS
  1
LAYOUT
  2
AcDbLayout
  3
ObjectDBX Classes
 90
        0
280
     0
281
     0
  0
CLASS
  1
DICTIONARYVAR
  2
AcDbDictionaryVar
  3
ObjectDBX Classes
 90
        0
280
     0
281
     0
  0
CLASS
  1
TABLESTYLE
  2
AcDbTableStyle
  3
ObjectDBX Classes
 90
     4095
280
     0
281
     0
  0
CLASS
  1
MATERIAL
  2
AcDbMaterial
  3
ObjectDBX Classes
 90
     1153
280
     0
281
     0
  0
CLASS
  1
VISUALSTYLE
  2
AcDbVisualStyle
  3
ObjectDBX Classes
 90
     4095
280
     0
281
     0
  0
CLASS
  1
SCALE
  2
AcDbScale
  3
ObjectDBX Classes
 90
     1153
280
     0
281
     0
  0
CLASS
  1
MLEADERSTYLE
  2
AcDbMLeaderStyle
  3
ACDB_MLEADERSTYLE_CLASS
 90
     4095
280
     0
281
     0
  0
CLASS
  1
CELLSTYLEMAP
  2
AcDbCellStyleMap
  3
ObjectDBX Classes
 90
     1152
280
     0
281
     0
  0
ENDSEC
  0
SECTION
  2
TABLES
  0
TABLE
  2
VPORT
  5
8
330
0
100
AcDbSymbolTable
 70
     1
  0
VPORT
  5
EA
330
8
100
AcDbSymbolTableRecord
100
AcDbViewportTableRecord
  2
*Active
 70
     0
 10
0.0
 20
0.0
 11
1.0
 21
1.0
 12
1620.388177570554
 22
1132.539129001762
 13
0.0
 23
0.0
 14
10.0
 24
10.0
 15
10.0
 25
10.0
 16
0.0
 26
0.0
 36
1.0
 17
0.0
 27
0.0
 37
0.0
 40
275.0452461760136
 41
1.903110047846889
 42
50.0
 43
0.0
 44
0.0
 50
0.0
 51
0.0
 71
     0
 72
  1000
 73
     1
 74
     3
 75
     0
 76
     0
 77
     0
 78
     0
281
     0
 65
     1
110
0.0
120
0.0
130
0.0
111
1.0
121
0.0
131
0.0
112
0.0
122
1.0
132
0.0
 79
     0
146
0.0
  0
ENDTAB
  0
TABLE
  2
LTYPE
  5
5
330
0
100
AcDbSymbolTable
 70
     1
  0
LTYPE
  5
14
330
5
100
AcDbSymbolTableRecord
100
AcDbLinetypeTableRecord
  2
ByBlock
 70
     0
  3

 72
    65
 73
     0
 40
0.0
  0
LTYPE
  5
15
330
5
100
AcDbSymbolTableRecord
100
AcDbLinetypeTableRecord
  2
ByLayer
 70
     0
  3

 72
    65
 73
     0
 40
0.0
  0
LTYPE
  5
16
330
5
100
AcDbSymbolTableRecord
100
AcDbLinetypeTableRecord
  2
Continuous
 70
     0
  3
Solid line
 72
    65
 73
     0
 40
0.0
  0
ENDTAB
  0
TABLE
  2
LAYER
  5
2
330
0
100
AcDbSymbolTable
 70
     1
  0
LAYER
  5
10
102
{ACAD_XDICTIONARY
360
13C
102
}
330
2
100
AcDbSymbolTableRecord
100
AcDbLayerTableRecord
  2
0
 70
     0
 62
     7
  6
Continuous
370
    -3
390
F
  0
ENDTAB
  0
TABLE
  2
STYLE
  5
3
330
0
100
AcDbSymbolTable
 70
     2
  0
STYLE
  5
11
330
3
100
AcDbSymbolTableRecord
100
AcDbTextStyleTableRecord
  2
Standard
 70
     0
 40
0.0
 41
1.0
 50
0.0
 71
     0
 42
2.5
  3
txt
  4

  0
STYLE
  5
132
330
3
100
AcDbSymbolTableRecord
100
AcDbTextStyleTableRecord
  2
Annotative
 70
     0
 40
0.0
 41
1.0
 50
0.0
 71
     0
 42
2.5
  3
txt.shx
  4

1001
AcadAnnotative
1000
AnnotativeData
1002
{
1070
     1
1070
     1
1002
}
  0
ENDTAB
  0
TABLE
  2
VIEW
  5
6
330
0
100
AcDbSymbolTable
 70
     0
  0
ENDTAB
  0
TABLE
  2
UCS
  5
7
330
0
100
AcDbSymbolTable
 70
     0
  0
ENDTAB
  0
TABLE
  2
APPID
  5
9
330
0
100
AcDbSymbolTable
 70
     7
  0
APPID
  5
12
330
9
100
AcDbSymbolTableRecord
100
AcDbRegAppTableRecord
  2
ACAD
 70
     0
  0
APPID
  5
9E
330
9
100
AcDbSymbolTableRecord
100
AcDbRegAppTableRecord
  2
ACAD_PSEXT
 70
     0
  0
APPID
  5
133
330
9
100
AcDbSymbolTableRecord
100
AcDbRegAppTableRecord
  2
AcadAnnoPO
 70
     0
  0
APPID
  5
134
330
9
100
AcDbSymbolTableRecord
100
AcDbRegAppTableRecord
  2
AcadAnnotative
 70
     0
  0
APPID
  5
135
330
9
100
AcDbSymbolTableRecord
100
AcDbRegAppTableRecord
  2
ACAD_DSTYLE_DIMJAG
 70
     0
  0
APPID
  5
136
330
9
100
AcDbSymbolTableRecord
100
AcDbRegAppTableRecord
  2
ACAD_DSTYLE_DIMTALN
 70
     0
  0
APPID
  5
165
330
9
100
AcDbSymbolTableRecord
100
AcDbRegAppTableRecord
  2
ACAD_MLEADERVER
 70
     0
  0
ENDTAB
  0
TABLE
  2
DIMSTYLE
  5
A
330
0
100
AcDbSymbolTable
 70
     2
100
AcDbDimStyleTable
 71
     2
340
27
340
137
  0
DIMSTYLE
105
27
330
A
100
AcDbSymbolTableRecord
100
AcDbDimStyleTableRecord
  2
ISO-25
 70
     0
 41
2.5
 42
0.625
 43
3.75
 44
1.25
 73
     0
 74
     0
 77
     1
 78
     8
140
2.5
141
2.5
143
0.03937007874016
147
0.625
171
     3
172
     1
271
     2
272
     2
274
     3
278
    44
283
     0
284
     8
340
11
  0
DIMSTYLE
105
137
330
A
100
AcDbSymbolTableRecord
100
AcDbDimStyleTableRecord
  2
Annotative
 70
     0
 40
0.0
 41
2.5
 42
0.625
 43
3.75
 44
1.25
 73
     0
 74
     0
 77
     1
 78
     8
140
2.5
141
2.5
143
0.03937007874016
147
0.625
171
     3
172
     1
271
     2
272
     2
274
     3
278
    44
283
     0
284
     8
340
11
1001
AcadAnnotative
1000
AnnotativeData
1002
{
1070
     1
1070
     1
1002
}
1001
ACAD_DSTYLE_DIMJAG
1070
   388
1040
1.5
1001
ACAD_DSTYLE_DIMTALN
1070
   392
1070
     0
  0
ENDTAB
  0
TABLE
  2
BLOCK_RECORD
  5
1
330
0
100
AcDbSymbolTable
 70
     5
  0
BLOCK_RECORD
  5
1F
330
1
100
AcDbSymbolTableRecord
100
AcDbBlockTableRecord
  2
*Model_Space
340
22
  0
BLOCK_RECORD
  5
D2
330
1
100
AcDbSymbolTableRecord
100
AcDbBlockTableRecord
  2
*Paper_Space
340
D3
  0
BLOCK_RECORD
  5
D6
330
1
100
AcDbSymbolTableRecord
100
AcDbBlockTableRecord
  2
*Paper_Space0
340
D7
  0
BLOCK_RECORD
  5
7BD
330
1
100
AcDbSymbolTableRecord
100
AcDbBlockTableRecord
  2
1
340
0
310
2800000020000000200000000100080000000000000400000000000000000000000000000000000000000000000080000080000000808000800000008000800080800000C0C0C000C0DCC000F0CAA6000020400000206000002080000020A0000020C0000020E00000400000004020000040400000406000004080000040A0
310
000040C0000040E00000600000006020000060400000606000006080000060A0000060C0000060E00000800000008020000080400000806000008080000080A0000080C0000080E00000A0000000A0200000A0400000A0600000A0800000A0A00000A0C00000A0E00000C0000000C0200000C0400000C0600000C0800000C0
310
A00000C0C00000C0E00000E0000000E0200000E0400000E0600000E0800000E0A00000E0C00000E0E00040000000400020004000400040006000400080004000A0004000C0004000E00040200000402020004020400040206000402080004020A0004020C0004020E000404000004040200040404000404060004040800040
310
40A0004040C0004040E00040600000406020004060400040606000406080004060A0004060C0004060E00040800000408020004080400040806000408080004080A0004080C0004080E00040A0000040A0200040A0400040A0600040A0800040A0A00040A0C00040A0E00040C0000040C0200040C0400040C0600040C08000
310
40C0A00040C0C00040C0E00040E0000040E0200040E0400040E0600040E0800040E0A00040E0C00040E0E00080000000800020008000400080006000800080008000A0008000C0008000E00080200000802020008020400080206000802080008020A0008020C0008020E00080400000804020008040400080406000804080
310
008040A0008040C0008040E00080600000806020008060400080606000806080008060A0008060C0008060E00080800000808020008080400080806000808080008080A0008080C0008080E00080A0000080A0200080A0400080A0600080A0800080A0A00080A0C00080A0E00080C0000080C0200080C0400080C0600080C0
310
800080C0A00080C0C00080C0E00080E0000080E0200080E0400080E0600080E0800080E0A00080E0C00080E0E000C0000000C0002000C0004000C0006000C0008000C000A000C000C000C000E000C0200000C0202000C0204000C0206000C0208000C020A000C020C000C020E000C0400000C0402000C0404000C0406000C0
310
408000C040A000C040C000C040E000C0600000C0602000C0604000C0606000C0608000C060A000C060C000C060E000C0800000C0802000C0804000C0806000C0808000C080A000C080C000C080E000C0A00000C0A02000C0A04000C0A06000C0A08000C0A0A000C0A0C000C0A0E000C0C00000C0C02000C0C04000C0C06000
310
C0C08000C0C0A000F0FBFF00A4A0A000808080000000FF0000FF000000FFFF00FF000000FF00FF00FFFF0000FFFFFF0000000000000000000000000000000000000000000000000000000000000000000000000000000000000000000000000000000000000000000000000000000000000000000000000000000000000000
310
00000000000000000000000000000000000000000000000000000000000000000000000000000000000000000000000000000000000000000000000000000000000000000000000000000000000000000000000000000000000000000000000000000000000000000000000000000000000000000000000000000000000000
310
00000000000000000000000000000000000000000000000000000000000000000000000000000000000000000000000000000000000000000000000000000000000000000000000000000000000000000000000000000000000000000000000000000000000000000000000000000000000000000000000000000000000000
310
0000000000000000000000000000000000000000000000000000000000000000000000000000000000000000000000000000000000000000000000000000000000000000000000000000000000000000000000000000000000000000000000000000000000000000000000000000000000000000FFFFFFFFFFFFFFFFFFFFFF
310
FFFFFFFFFFFFFFFFFFFFFFFFFFFFFFFFFFFFFF0000FF0000FFFFFFFFFFFFFF00FFFFFFFFFFFF00FFFFFFFFFFFFFFFFFF0000FF0000FF0000FFFF00FF00FF0000FF00FF00FF0000FF00FF00FFFF00FF000000FF0000FFFFFFFFFFFFFFFFFFFFFFFFFFFFFFFFFFFFFFFFFFFFFFFFFFFFFFFFFFFF000000000000000000000000
310
00000000000000000000000000000000000000000000000000000000000000000000000000000000000000000000000000000000000000000000000000000000000000000000000000000000000000000000000000000000000000000000000000000000000000000000000000000000000000000000000000000000000000
310
00000000000000000000000000000000000000000000000000000000000000000000000000000000000000000000000000000000000000000000000000000000000000000000000000000000000000000000000000000000000000000000000000000000000000000000000000000000000000000000000000000000000000
310
00000000000000000000000000000000000000000000000000000000000000000000000000000000000000000000000000000000000000000000000000000000000000000000000000000000000000000000000000000000000000000000000000000000000000000000000000000000000000000000000000000000000000
310
0000000000000000000000000000000000000000000000000000000000000000000000000000000000000000000000000000000000000000
102
{BLKREFS
331
814
102
}
1001
ACAD
1000
DesignCenter Data
1002
{
1070
     1
1070
     4
1002
}
  0
BLOCK_RECORD
  5
815
330
1
100
AcDbSymbolTableRecord
100
AcDbBlockTableRecord
  2
2
340
0
310
2800000020000000200000000100080000000000000400000000000000000000000000000000000000000000000080000080000000808000800000008000800080800000C0C0C000C0DCC000F0CAA6000020400000206000002080000020A0000020C0000020E00000400000004020000040400000406000004080000040A0
310
000040C0000040E00000600000006020000060400000606000006080000060A0000060C0000060E00000800000008020000080400000806000008080000080A0000080C0000080E00000A0000000A0200000A0400000A0600000A0800000A0A00000A0C00000A0E00000C0000000C0200000C0400000C0600000C0800000C0
310
A00000C0C00000C0E00000E0000000E0200000E0400000E0600000E0800000E0A00000E0C00000E0E00040000000400020004000400040006000400080004000A0004000C0004000E00040200000402020004020400040206000402080004020A0004020C0004020E000404000004040200040404000404060004040800040
310
40A0004040C0004040E00040600000406020004060400040606000406080004060A0004060C0004060E00040800000408020004080400040806000408080004080A0004080C0004080E00040A0000040A0200040A0400040A0600040A0800040A0A00040A0C00040A0E00040C0000040C0200040C0400040C0600040C08000
310
40C0A00040C0C00040C0E00040E0000040E0200040E0400040E0600040E0800040E0A00040E0C00040E0E00080000000800020008000400080006000800080008000A0008000C0008000E00080200000802020008020400080206000802080008020A0008020C0008020E00080400000804020008040400080406000804080
310
008040A0008040C0008040E00080600000806020008060400080606000806080008060A0008060C0008060E00080800000808020008080400080806000808080008080A0008080C0008080E00080A0000080A0200080A0400080A0600080A0800080A0A00080A0C00080A0E00080C0000080C0200080C0400080C0600080C0
310
800080C0A00080C0C00080C0E00080E0000080E0200080E0400080E0600080E0800080E0A00080E0C00080E0E000C0000000C0002000C0004000C0006000C0008000C000A000C000C000C000E000C0200000C0202000C0204000C0206000C0208000C020A000C020C000C020E000C0400000C0402000C0404000C0406000C0
310
408000C040A000C040C000C040E000C0600000C0602000C0604000C0606000C0608000C060A000C060C000C060E000C0800000C0802000C0804000C0806000C0808000C080A000C080C000C080E000C0A00000C0A02000C0A04000C0A06000C0A08000C0A0A000C0A0C000C0A0E000C0C00000C0C02000C0C04000C0C06000
310
C0C08000C0C0A000F0FBFF00A4A0A000808080000000FF0000FF000000FFFF00FF000000FF00FF00FFFF0000FFFFFF0000000000000000000000000000000000000000000000000000000000000000000000000000000000000000000000000000000000000000000000000000000000000000000000000000000000000000
310
00000000000000000000000000000000000000000000000000000000000000000000000000000000000000000000000000000000000000000000000000000000000000000000000000000000000000000000000000000000000000000000000000000000000000000000000000000000000000000000000000000000000000
310
00000000000000000000000000000000000000000000000000000000000000000000000000000000000000000000000000000000000000000000000000000000000000000000000000000000000000000000000000000000000000000000000000000000000000000000000000000000000000000000000000000000000000
310
00000000000000000000000000000000000000000000000000000000000000000000000000000000000000000000000000000000000000000000000000000000000000000000000000000000000000000000000000000000000000000000000000000000000000000000000000000000000000000000000000000000000000
310
000000000000000000000000000000000000000000FFFFFFFFFFFFFFFFFFFFFFFFFFFFFFFFFFFFFFFFFFFFFFFFFFFFFFFFFFFF0000FFFFFFFFFFFFFFFFFFFFFFFFFFFFFFFFFFFFFFFFFFFFFFFFFFFFFFFFFFFF0000000000000000000000000000000000000000000000000000000000000000000000000000000000000000
310
00000000000000000000000000000000000000000000000000000000000000000000000000000000000000000000000000000000000000000000000000000000000000000000000000000000000000000000000000000000000000000000000000000000000000000000000000000000000000000000000000000000000000
310
00000000000000000000000000000000000000000000000000000000000000000000000000000000000000000000000000000000000000000000000000000000000000000000000000000000000000000000000000000000000000000000000000000000000000000000000000000000000000000000000000000000000000
310
00000000000000000000000000000000000000000000000000000000000000000000000000000000000000000000000000000000000000000000000000000000000000000000000000000000000000000000000000000000000000000000000000000000000000000000000000000000000000000000000000000000000000
310
0000000000000000000000000000000000000000000000000000000000000000000000000000000000000000000000000000000000000000
102
{BLKREFS
331
988
102
}
1001
ACAD
1000
DesignCenter Data
1002
{
1070
     1
1070
     4
1002
}
  0
BLOCK_RECORD
  5
989
330
1
100
AcDbSymbolTableRecord
100
AcDbBlockTableRecord
  2
3
340
0
310
2800000020000000200000000100080000000000000400000000000000000000000000000000000000000000000080000080000000808000800000008000800080800000C0C0C000C0DCC000F0CAA6000020400000206000002080000020A0000020C0000020E00000400000004020000040400000406000004080000040A0
310
000040C0000040E00000600000006020000060400000606000006080000060A0000060C0000060E00000800000008020000080400000806000008080000080A0000080C0000080E00000A0000000A0200000A0400000A0600000A0800000A0A00000A0C00000A0E00000C0000000C0200000C0400000C0600000C0800000C0
310
A00000C0C00000C0E00000E0000000E0200000E0400000E0600000E0800000E0A00000E0C00000E0E00040000000400020004000400040006000400080004000A0004000C0004000E00040200000402020004020400040206000402080004020A0004020C0004020E000404000004040200040404000404060004040800040
310
40A0004040C0004040E00040600000406020004060400040606000406080004060A0004060C0004060E00040800000408020004080400040806000408080004080A0004080C0004080E00040A0000040A0200040A0400040A0600040A0800040A0A00040A0C00040A0E00040C0000040C0200040C0400040C0600040C08000
310
40C0A00040C0C00040C0E00040E0000040E0200040E0400040E0600040E0800040E0A00040E0C00040E0E00080000000800020008000400080006000800080008000A0008000C0008000E00080200000802020008020400080206000802080008020A0008020C0008020E00080400000804020008040400080406000804080
310
008040A0008040C0008040E00080600000806020008060400080606000806080008060A0008060C0008060E00080800000808020008080400080806000808080008080A0008080C0008080E00080A0000080A0200080A0400080A0600080A0800080A0A00080A0C00080A0E00080C0000080C0200080C0400080C0600080C0
310
800080C0A00080C0C00080C0E00080E0000080E0200080E0400080E0600080E0800080E0A00080E0C00080E0E000C0000000C0002000C0004000C0006000C0008000C000A000C000C000C000E000C0200000C0202000C0204000C0206000C0208000C020A000C020C000C020E000C0400000C0402000C0404000C0406000C0
310
408000C040A000C040C000C040E000C0600000C0602000C0604000C0606000C0608000C060A000C060C000C060E000C0800000C0802000C0804000C0806000C0808000C080A000C080C000C080E000C0A00000C0A02000C0A04000C0A06000C0A08000C0A0A000C0A0C000C0A0E000C0C00000C0C02000C0C04000C0C06000
310
C0C08000C0C0A000F0FBFF00A4A0A000808080000000FF0000FF000000FFFF00FF000000FF00FF00FFFF0000FFFFFF0000000000000000000000000000000000000000000000000000000000000000000000000000000000FFFFFFFFFFFFFFFFFFFFFFFFFFFFFFFF00000000000000000000000000000000FF000000000000
310
0000000000000000FF00000000000000000000000000000000FF0000000000000000000000000000FF00000000000000000000000000000000FF0000000000000000000000000000FF00000000000000000000000000000000FF0000000000000000000000000000FF00000000000000000000000000000000FF0000000000
310
000000000000000000FF00000000000000000000000000000000FF0000000000000000000000000000FF00000000000000000000000000000000FF0000000000000000000000000000FF00000000000000000000000000000000FF0000000000000000000000000000FF00000000000000000000000000000000FF00000000
310
00000000000000000000FF00000000000000000000000000000000FF0000000000000000000000000000FF00000000000000000000000000000000FF0000000000000000000000000000FF00000000000000000000000000000000FF0000000000000000000000000000FF00000000000000000000000000000000FF000000
310
0000000000000000000000FF00000000000000000000000000000000FF0000000000000000000000000000FF00000000000000000000000000000000FF0000000000000000000000000000FF00000000000000000000000000000000FF0000000000000000000000000000FF00000000000000000000000000000000FF0000
310
000000000000000000000000FF00000000000000000000000000000000FF0000000000000000000000000000FF00000000000000000000000000000000FF0000000000000000000000000000FF00000000000000000000000000000000FF0000000000000000000000000000FF00000000000000000000000000000000FF00
310
00000000000000000000000000FF00000000000000000000000000000000FF0000000000000000000000000000FF00000000000000000000000000000000FFFFFFFFFFFFFFFFFFFFFFFFFFFFFFFF000000000000000000000000000000000000FF00000000000000000000FF00000000000000000000000000000000000000
310
00FF00000000000000000000FF0000000000000000000000000000000000000000FF00000000FFFF00000000FF0000000000000000000000000000000000000000FF00000000FFFF00000000FF0000000000000000000000000000000000000000FF000000FF0000FF000000FF000000000000000000000000000000000000
310
0000FFFFFFFFFF0000FFFFFFFFFF000000000000000000000000000000000000000000000000000000000000000000000000000000000000
102
{BLKREFS
331
997
102
}
1001
ACAD
1000
DesignCenter Data
1002
{
1070
     1
1070
     4
1002
}
  0
BLOCK_RECORD
  5
998
330
1
100
AcDbSymbolTableRecord
100
AcDbBlockTableRecord
  2
4
340
0
310
2800000020000000200000000100080000000000000400000000000000000000000000000000000000000000000080000080000000808000800000008000800080800000C0C0C000C0DCC000F0CAA6000020400000206000002080000020A0000020C0000020E00000400000004020000040400000406000004080000040A0
310
000040C0000040E00000600000006020000060400000606000006080000060A0000060C0000060E00000800000008020000080400000806000008080000080A0000080C0000080E00000A0000000A0200000A0400000A0600000A0800000A0A00000A0C00000A0E00000C0000000C0200000C0400000C0600000C0800000C0
310
A00000C0C00000C0E00000E0000000E0200000E0400000E0600000E0800000E0A00000E0C00000E0E00040000000400020004000400040006000400080004000A0004000C0004000E00040200000402020004020400040206000402080004020A0004020C0004020E000404000004040200040404000404060004040800040
310
40A0004040C0004040E00040600000406020004060400040606000406080004060A0004060C0004060E00040800000408020004080400040806000408080004080A0004080C0004080E00040A0000040A0200040A0400040A0600040A0800040A0A00040A0C00040A0E00040C0000040C0200040C0400040C0600040C08000
310
40C0A00040C0C00040C0E00040E0000040E0200040E0400040E0600040E0800040E0A00040E0C00040E0E00080000000800020008000400080006000800080008000A0008000C0008000E00080200000802020008020400080206000802080008020A0008020C0008020E00080400000804020008040400080406000804080
310
008040A0008040C0008040E00080600000806020008060400080606000806080008060A0008060C0008060E00080800000808020008080400080806000808080008080A0008080C0008080E00080A0000080A0200080A0400080A0600080A0800080A0A00080A0C00080A0E00080C0000080C0200080C0400080C0600080C0
310
800080C0A00080C0C00080C0E00080E0000080E0200080E0400080E0600080E0800080E0A00080E0C00080E0E000C0000000C0002000C0004000C0006000C0008000C000A000C000C000C000E000C0200000C0202000C0204000C0206000C0208000C020A000C020C000C020E000C0400000C0402000C0404000C0406000C0
310
408000C040A000C040C000C040E000C0600000C0602000C0604000C0606000C0608000C060A000C060C000C060E000C0800000C0802000C0804000C0806000C0808000C080A000C080C000C080E000C0A00000C0A02000C0A04000C0A06000C0A08000C0A0A000C0A0C000C0A0E000C0C00000C0C02000C0C04000C0C06000
310
C0C08000C0C0A000F0FBFF00A4A0A000808080000000FF0000FF000000FFFF00FF000000FF00FF00FFFF0000FFFFFF0000000000000000000000000000000000000000000000000000000000000000000000000000000000000000000000000000000000000000000000000000000000000000000000000000000000000000
310
00000000000000000000000000000000000000000000000000000000000000000000000000000000000000000000000000000000000000000000000000000000000000000000000000000000000000000000000000000000000000000000000000000000000000000000000000000000000000000000000000000000000000
310
0000000000000000000000000000FF0000000000000000000000000000000000000000000000000000000000FFFFFFFFFF00000000000000000000000000000000000000000000000000FFFF0000FF00FF0000000000000000000000000000000000000000000000FFFFFFFF00FFFF00FF0000000000000000000000000000
310
00000000000000FFFFFFFFFFFFFFFFFFFFFF0000000000000000000000000000000000000000FFFFFFFFFFFFFFFFFFFFFF00000000000000000000000000000000000000FFFFFFFFFFFFFFFFFFFFFF00000000000000000000000000000000000000FFFFFFFFFFFFFFFFFFFFFFFF0000000000000000000000000000000000
310
00FFFFFFFFFFFFFFFFFFFFFFFF000000000000000000000000000000000000FFFFFFFFFFFFFFFFFFFFFFFF00000000000000000000000000000000000000FFFFFFFFFFFFFFFFFFFFFF00000000000000000000000000000000000000FFFFFFFFFFFFFFFFFFFFFF00000000000000000000000000000000000000FFFFFFFFFF
310
FFFFFFFFFFFFFF000000000000000000000000000000000000FFFFFFFFFFFFFFFFFFFFFFFF000000000000000000000000000000000000FFFFFFFFFFFFFFFFFFFFFFFF00000000000000000000000000000000000000FF0000FFFFFFFFFFFFFFFF000000000000000000000000000000000000000000FF0000FFFFFFFFFFFF
310
FF00000000000000000000000000000000000000000000FFFFFF00FFFFFFFFFF0000000000000000000000000000000000000000000000FFFFFFFFFFFFFF0000000000000000000000000000000000000000000000000000FFFFFF000000000000000000000000000000000000000000000000000000000000000000000000
310
00000000000000000000000000000000000000000000000000000000000000000000000000000000000000000000000000000000000000000000000000000000000000000000000000000000000000000000000000000000000000000000000000000000000000000000000000000000000000000000000000000000000000
310
0000000000000000000000000000000000000000000000000000000000000000000000000000000000000000000000000000000000000000
102
{BLKREFS
331
AD2
102
}
1001
ACAD
1000
DesignCenter Data
1002
{
1070
     1
1070
     4
1002
}
  0
ENDTAB
  0
ENDSEC
  0
SECTION
  2
BLOCKS
  0
BLOCK
  5
20
330
1F
100
AcDbEntity
  8
0
100
AcDbBlockBegin
  2
*Model_Space
 70
     0
 10
0.0
 20
0.0
 30
0.0
  3
*Model_Space
  1

  0
ENDBLK
  5
21
330
1F
100
AcDbEntity
  8
0
100
AcDbBlockEnd
  0
BLOCK
  5
D4
330
D2
100
AcDbEntity
 67
     1
  8
0
100
AcDbBlockBegin
  2
*Paper_Space
 70
     0
 10
0.0
 20
0.0
 30
0.0
  3
*Paper_Space
  1

  0
ENDBLK
  5
D5
330
D2
100
AcDbEntity
 67
     1
  8
0
100
AcDbBlockEnd
  0
BLOCK
  5
D8
330
D6
100
AcDbEntity
 67
     1
  8
0
100
AcDbBlockBegin
  2
*Paper_Space0
 70
     0
 10
0.0
 20
0.0
 30
0.0
  3
*Paper_Space0
  1

  0
ENDBLK
  5
D9
330
D6
100
AcDbEntity
 67
     1
  8
0
100
AcDbBlockEnd
  0
BLOCK
  5
7BE
330
7BD
100
AcDbEntity
  8
0
100
AcDbBlockBegin
  2
1
 70
     0
 10
0.0
 20
0.0
 30
0.0
  3
1
  1

  0
LINE
  5
7C0
330
7BD
100
AcDbEntity
  8
0
  6
Continuous
 62
     7
370
    15
100
AcDbLine
 10
1518.493392692947
 20
1149.650311445114
 30
0.0
 11
1518.493392692947
 21
1147.950311445114
 31
0.0
  0
LINE
  5
7C1
330
7BD
100
AcDbEntity
  8
0
  6
Continuous
 62
     7
370
    15
100
AcDbLine
 10
1526.413392692947
 20
1147.950311445114
 30
0.0
 11
1526.413392692947
 21
1149.650311445114
 31
0.0
  0
LINE
  5
7C2
330
7BD
100
AcDbEntity
  8
0
  6
Continuous
 62
     7
370
    15
100
AcDbLine
 10
1568.493392692947
 20
1149.650311445114
 30
0.0
 11
1568.493392692947
 21
1147.950311445114
 31
0.0
  0
LINE
  5
7C3
330
7BD
100
AcDbEntity
  8
0
  6
Continuous
 62
     7
370
    15
100
AcDbLine
 10
1576.413392692947
 20
1147.950311445114
 30
0.0
 11
1576.413392692947
 21
1149.650311445114
 31
0.0
  0
LINE
  5
7C4
330
7BD
100
AcDbEntity
  8
0
  6
Continuous
 62
     7
370
    15
100
AcDbLine
 10
1493.493392692947
 20
1149.650311445114
 30
0.0
 11
1493.493392692947
 21
1147.950311445114
 31
0.0
  0
LINE
  5
7C5
330
7BD
100
AcDbEntity
  8
0
  6
Continuous
 62
     7
370
    15
100
AcDbLine
 10
1501.413392692947
 20
1147.950311445114
 30
0.0
 11
1501.413392692947
 21
1149.650311445114
 31
0.0
  0
LINE
  5
7C6
330
7BD
100
AcDbEntity
  8
0
  6
Continuous
 62
     7
370
    15
100
AcDbLine
 10
1593.493392692947
 20
1149.650311445114
 30
0.0
 11
1593.493392692947
 21
1147.950311445114
 31
0.0
  0
LINE
  5
7C7
330
7BD
100
AcDbEntity
  8
0
  6
Continuous
 62
     7
370
    15
100
AcDbLine
 10
1601.413392692947
 20
1147.950311445114
 30
0.0
 11
1601.413392692947
 21
1149.650311445114
 31
0.0
  0
LINE
  5
7C8
330
7BD
100
AcDbEntity
  8
0
  6
Continuous
 62
     7
370
    15
100
AcDbLine
 10
1505.993392692947
 20
1149.650311445114
 30
0.0
 11
1505.993392692947
 21
1147.950311445114
 31
0.0
  0
LINE
  5
7C9
330
7BD
100
AcDbEntity
  8
0
  6
Continuous
 62
     7
370
    15
100
AcDbLine
 10
1513.913392692947
 20
1147.950311445114
 30
0.0
 11
1513.913392692947
 21
1149.650311445114
 31
0.0
  0
LINE
  5
7CA
330
7BD
100
AcDbEntity
  8
0
  6
Continuous
 62
     7
370
    15
100
AcDbLine
 10
1530.993392692947
 20
1149.650311445114
 30
0.0
 11
1530.993392692947
 21
1147.950311445114
 31
0.0
  0
LINE
  5
7CB
330
7BD
100
AcDbEntity
  8
0
  6
Continuous
 62
     7
370
    15
100
AcDbLine
 10
1538.913392692947
 20
1147.950311445114
 30
0.0
 11
1538.913392692947
 21
1149.650311445114
 31
0.0
  0
LINE
  5
7CC
330
7BD
100
AcDbEntity
  8
0
  6
Continuous
 62
     7
370
    15
100
AcDbLine
 10
1543.493392692947
 20
1149.650311445114
 30
0.0
 11
1543.493392692947
 21
1147.950311445114
 31
0.0
  0
LINE
  5
7CD
330
7BD
100
AcDbEntity
  8
0
  6
Continuous
 62
     7
370
    15
100
AcDbLine
 10
1551.413392692947
 20
1147.950311445114
 30
0.0
 11
1551.413392692947
 21
1149.650311445114
 31
0.0
  0
LINE
  5
7CE
330
7BD
100
AcDbEntity
  8
0
  6
Continuous
 62
     7
370
    15
100
AcDbLine
 10
1580.993392692947
 20
1149.650311445114
 30
0.0
 11
1580.993392692947
 21
1147.950311445114
 31
0.0
  0
LINE
  5
7CF
330
7BD
100
AcDbEntity
  8
0
  6
Continuous
 62
     7
370
    15
100
AcDbLine
 10
1588.913392692947
 20
1147.950311445114
 30
0.0
 11
1588.913392692947
 21
1149.650311445114
 31
0.0
  0
LINE
  5
7D0
330
7BD
100
AcDbEntity
  8
0
  6
Continuous
 62
     7
370
    15
100
AcDbLine
 10
1555.993392692947
 20
1149.650311445114
 30
0.0
 11
1555.993392692947
 21
1147.950311445114
 31
0.0
  0
LINE
  5
7D1
330
7BD
100
AcDbEntity
  8
0
  6
Continuous
 62
     7
370
    15
100
AcDbLine
 10
1563.913392692947
 20
1147.950311445114
 30
0.0
 11
1563.913392692947
 21
1149.650311445114
 31
0.0
  0
LINE
  5
7D2
330
7BD
100
AcDbEntity
  8
0
  6
Continuous
 62
     7
370
    15
100
AcDbLine
 10
1480.993392692947
 20
1149.650311445114
 30
0.0
 11
1480.993392692947
 21
1147.950311445114
 31
0.0
  0
LINE
  5
7D3
330
7BD
100
AcDbEntity
  8
0
  6
Continuous
 62
     7
370
    15
100
AcDbLine
 10
1488.913392692947
 20
1147.950311445114
 30
0.0
 11
1488.913392692947
 21
1149.650311445114
 31
0.0
  0
CIRCLE
  5
7D4
330
7BD
100
AcDbEntity
  8
0
  6
Continuous
 62
     7
370
    15
100
AcDbCircle
 10
1509.953392692947
 20
1140.250311445114
 30
0.0
 40
4.25
  0
CIRCLE
  5
7D5
330
7BD
100
AcDbEntity
  8
0
  6
Continuous
 62
     7
370
    15
100
AcDbCircle
 10
1522.453392692947
 20
1140.250311445114
 30
0.0
 40
4.25
  0
LINE
  5
7D6
330
7BD
100
AcDbEntity
  8
0
  6
Continuous
 62
     7
370
    15
100
AcDbLine
 10
1466.703392692947
 20
1147.950311445114
 30
0.0
 11
1615.703392692947
 21
1147.950311445114
 31
0.0
  0
LINE
  5
7D7
330
7BD
100
AcDbEntity
  8
0
  6
Continuous
 62
     7
370
    15
100
AcDbLine
 10
1466.703392692947
 20
1132.950311445114
 30
0.0
 11
1466.703392692947
 21
1147.950311445114
 31
0.0
  0
LINE
  5
7D8
330
7BD
100
AcDbEntity
  8
0
  6
Continuous
 62
     7
370
    15
100
AcDbLine
 10
1615.703392692947
 20
1132.950311445114
 30
0.0
 11
1466.703392692947
 21
1132.950311445114
 31
0.0
  0
CIRCLE
  5
7D9
330
7BD
100
AcDbEntity
  8
0
  6
Continuous
 62
     7
370
    15
100
AcDbCircle
 10
1534.953392692947
 20
1140.250311445114
 30
0.0
 40
4.250000000000056
  0
CIRCLE
  5
7DA
330
7BD
100
AcDbEntity
  8
0
  6
Continuous
 62
     7
370
    15
100
AcDbCircle
 10
1559.953392692947
 20
1140.250311445114
 30
0.0
 40
4.249999999999971
  0
CIRCLE
  5
7DB
330
7BD
100
AcDbEntity
  8
0
  6
Continuous
 62
     7
370
    15
100
AcDbCircle
 10
1547.453392692947
 20
1140.250311445114
 30
0.0
 40
4.25
  0
CIRCLE
  5
7DC
330
7BD
100
AcDbEntity
  8
0
  6
Continuous
 62
     7
370
    15
100
AcDbCircle
 10
1572.453392692947
 20
1140.250311445114
 30
0.0
 40
5.250000000000014
  0
CIRCLE
  5
7DD
330
7BD
100
AcDbEntity
  8
0
  6
Continuous
 62
     7
370
    15
100
AcDbCircle
 10
1584.953392692947
 20
1140.250311445114
 30
0.0
 40
4.25
  0
CIRCLE
  5
7DE
330
7BD
100
AcDbEntity
  8
0
  6
Continuous
 62
     7
370
    15
100
AcDbCircle
 10
1597.453392692947
 20
1140.250311445114
 30
0.0
 40
4.25
  0
CIRCLE
  5
7DF
330
7BD
100
AcDbEntity
  8
0
  6
Continuous
 62
     7
370
    15
100
AcDbCircle
 10
1497.453392692947
 20
1140.250311445114
 30
0.0
 40
5.249999999999971
  0
CIRCLE
  5
7E0
330
7BD
100
AcDbEntity
  8
0
  6
Continuous
 62
     7
370
    15
100
AcDbCircle
 10
1484.953392692947
 20
1140.250311445114
 30
0.0
 40
4.25
  0
LINE
  5
7E1
330
7BD
100
AcDbEntity
  8
0
  6
Continuous
 62
     7
370
    15
100
AcDbLine
 10
1615.703392692947
 20
1147.950311445114
 30
0.0
 11
1615.703392692947
 21
1132.950311445114
 31
0.0
  0
LINE
  5
7E2
330
7BD
100
AcDbEntity
  8
0
  6
Continuous
 62
     7
370
    15
100
AcDbLine
 10
1518.515948629612
 20
1149.650311445114
 30
0.0
 11
1518.493392692947
 21
1149.650311445114
 31
0.0
  0
ELLIPSE
  5
7E3
330
7BD
100
AcDbEntity
  8
0
  6
Continuous
 62
     7
370
    15
100
AcDbEllipse
 10
1522.453392692947
 20
1148.490712412741
 30
0.0
 11
0.0000000000013927
 21
10.88001058104026
 31
0.0
210
0.0
220
0.0
230
1.0
 40
0.3639702342662017
 41
1.276147278999999
 42
1.464012815652137
  0
LINE
  5
7E4
330
7BD
100
AcDbEntity
  8
0
  6
Continuous
 62
     7
370
    15
100
AcDbLine
 10
1526.242733004928
 20
1151.650311445114
 30
0.0
 11
1518.664052380967
 21
1151.650311445114
 31
0.0
  0
ELLIPSE
  5
7E5
330
7BD
100
AcDbEntity
  8
0
  6
Continuous
 62
     7
370
    15
100
AcDbEllipse
 10
1522.453392692947
 20
1148.490712412741
 30
0.0
 11
0.0000000000013927
 21
10.88001058104026
 31
0.0
210
0.0
220
0.0
230
1.0
 40
0.3639702342662017
 41
4.819172491527588
 42
5.007038028179698
  0
LINE
  5
7E6
330
7BD
100
AcDbEntity
  8
0
  6
Continuous
 62
     7
370
    15
100
AcDbLine
 10
1526.413392692947
 20
1149.650311445114
 30
0.0
 11
1526.390836756283
 21
1149.650311445114
 31
0.0
  0
LINE
  5
7E7
330
7BD
100
AcDbEntity
  8
0
  6
Continuous
 62
     7
370
    15
100
AcDbLine
 10
1568.515948629612
 20
1149.650311445114
 30
0.0
 11
1568.493392692947
 21
1149.650311445114
 31
0.0
  0
ELLIPSE
  5
7E8
330
7BD
100
AcDbEntity
  8
0
  6
Continuous
 62
     7
370
    15
100
AcDbEllipse
 10
1572.453392692947
 20
1148.490712412741
 30
0.0
 11
0.0000000000014069
 21
10.88001058104026
 31
0.0
210
0.0
220
0.0
230
1.0
 40
0.363970234266203
 41
1.276147278999998
 42
1.464012815652137
  0
ELLIPSE
  5
7E9
330
7BD
100
AcDbEntity
  8
0
  6
Continuous
 62
     7
370
    15
100
AcDbEllipse
 10
1572.453392692947
 20
1148.490712412741
 30
0.0
 11
0.0000000000014069
 21
10.88001058104026
 31
0.0
210
0.0
220
0.0
230
1.0
 40
0.363970234266203
 41
4.81917249152759
 42
5.0070380281797
  0
LINE
  5
7EA
330
7BD
100
AcDbEntity
  8
0
  6
Continuous
 62
     7
370
    15
100
AcDbLine
 10
1576.413392692947
 20
1149.650311445114
 30
0.0
 11
1576.390836756283
 21
1149.650311445114
 31
0.0
  0
LINE
  5
7EB
330
7BD
100
AcDbEntity
  8
0
  6
Continuous
 62
     7
370
    15
100
AcDbLine
 10
1576.242733004928
 20
1151.650311445114
 30
0.0
 11
1568.664052380967
 21
1151.650311445114
 31
0.0
  0
LINE
  5
7EC
330
7BD
100
AcDbEntity
  8
0
  6
Continuous
 62
     7
370
    15
100
AcDbLine
 10
1493.515948629612
 20
1149.650311445114
 30
0.0
 11
1493.493392692947
 21
1149.650311445114
 31
0.0
  0
ELLIPSE
  5
7ED
330
7BD
100
AcDbEntity
  8
0
  6
Continuous
 62
     7
370
    15
100
AcDbEllipse
 10
1497.453392692947
 20
1148.490712412741
 30
0.0
 11
0.0000000000013927
 21
10.88001058104026
 31
0.0
210
0.0
220
0.0
230
1.0
 40
0.3639702342662043
 41
1.276147278999997
 42
1.464012815652137
  0
LINE
  5
7EE
330
7BD
100
AcDbEntity
  8
0
  6
Continuous
 62
     7
370
    15
100
AcDbLine
 10
1501.242733004928
 20
1151.650311445114
 30
0.0
 11
1493.664052380967
 21
1151.650311445114
 31
0.0
  0
ELLIPSE
  5
7EF
330
7BD
100
AcDbEntity
  8
0
  6
Continuous
 62
     7
370
    15
100
AcDbEllipse
 10
1497.453392692947
 20
1148.490712412741
 30
0.0
 11
0.0000000000013927
 21
10.88001058104026
 31
0.0
210
0.0
220
0.0
230
1.0
 40
0.3639702342662043
 41
4.81917249152759
 42
5.0070380281797
  0
LINE
  5
7F0
330
7BD
100
AcDbEntity
  8
0
  6
Continuous
 62
     7
370
    15
100
AcDbLine
 10
1501.413392692947
 20
1149.650311445114
 30
0.0
 11
1501.390836756283
 21
1149.650311445114
 31
0.0
  0
LINE
  5
7F1
330
7BD
100
AcDbEntity
  8
0
  6
Continuous
 62
     7
370
    15
100
AcDbLine
 10
1593.515948629612
 20
1149.650311445114
 30
0.0
 11
1593.493392692947
 21
1149.650311445114
 31
0.0
  0
ELLIPSE
  5
7F2
330
7BD
100
AcDbEntity
  8
0
  6
Continuous
 62
     7
370
    15
100
AcDbEllipse
 10
1597.453392692947
 20
1148.490712412741
 30
0.0
 11
0.0000000000014069
 21
10.88001058104026
 31
0.0
210
0.0
220
0.0
230
1.0
 40
0.3639702342662043
 41
1.276147278999997
 42
1.464012815652137
  0
LINE
  5
7F3
330
7BD
100
AcDbEntity
  8
0
  6
Continuous
 62
     7
370
    15
100
AcDbLine
 10
1601.242733004928
 20
1151.650311445114
 30
0.0
 11
1593.664052380967
 21
1151.650311445114
 31
0.0
  0
ELLIPSE
  5
7F4
330
7BD
100
AcDbEntity
  8
0
  6
Continuous
 62
     7
370
    15
100
AcDbEllipse
 10
1597.453392692947
 20
1148.490712412741
 30
0.0
 11
0.0000000000014069
 21
10.88001058104026
 31
0.0
210
0.0
220
0.0
230
1.0
 40
0.3639702342662043
 41
4.81917249152759
 42
5.007038028179701
  0
LINE
  5
7F5
330
7BD
100
AcDbEntity
  8
0
  6
Continuous
 62
     7
370
    15
100
AcDbLine
 10
1601.413392692947
 20
1149.650311445114
 30
0.0
 11
1601.390836756283
 21
1149.650311445114
 31
0.0
  0
LINE
  5
7F6
330
7BD
100
AcDbEntity
  8
0
  6
Continuous
 62
     7
370
    15
100
AcDbLine
 10
1506.015948629612
 20
1149.650311445114
 30
0.0
 11
1505.993392692947
 21
1149.650311445114
 31
0.0
  0
ELLIPSE
  5
7F7
330
7BD
100
AcDbEntity
  8
0
  6
Continuous
 62
     7
370
    15
100
AcDbEllipse
 10
1509.953392692947
 20
1148.490712412741
 30
0.0
 11
0.0000000000013642
 21
10.88001058104026
 31
0.0
210
0.0
220
0.0
230
1.0
 40
0.363970234266207
 41
1.276147278999993
 42
1.464012815652136
  0
LINE
  5
7F8
330
7BD
100
AcDbEntity
  8
0
  6
Continuous
 62
     7
370
    15
100
AcDbLine
 10
1513.742733004928
 20
1151.650311445114
 30
0.0
 11
1506.164052380967
 21
1151.650311445114
 31
0.0
  0
ELLIPSE
  5
7F9
330
7BD
100
AcDbEntity
  8
0
  6
Continuous
 62
     7
370
    15
100
AcDbEllipse
 10
1509.953392692947
 20
1148.490712412741
 30
0.0
 11
0.0000000000013642
 21
10.88001058104026
 31
0.0
210
0.0
220
0.0
230
1.0
 40
0.363970234266207
 41
4.81917249152759
 42
5.007038028179702
  0
LINE
  5
7FA
330
7BD
100
AcDbEntity
  8
0
  6
Continuous
 62
     7
370
    15
100
AcDbLine
 10
1513.913392692947
 20
1149.650311445114
 30
0.0
 11
1513.890836756283
 21
1149.650311445114
 31
0.0
  0
LINE
  5
7FB
330
7BD
100
AcDbEntity
  8
0
  6
Continuous
 62
     7
370
    15
100
AcDbLine
 10
1531.015948629612
 20
1149.650311445114
 30
0.0
 11
1530.993392692947
 21
1149.650311445114
 31
0.0
  0
ELLIPSE
  5
7FC
330
7BD
100
AcDbEntity
  8
0
  6
Continuous
 62
     7
370
    15
100
AcDbEllipse
 10
1534.953392692947
 20
1148.490712412741
 30
0.0
 11
0.0000000000014211
 21
10.88001058104026
 31
0.0
210
0.0
220
0.0
230
1.0
 40
0.3639702342662017
 41
1.276147278999998
 42
1.464012815652138
  0
LINE
  5
7FD
330
7BD
100
AcDbEntity
  8
0
  6
Continuous
 62
     7
370
    15
100
AcDbLine
 10
1538.742733004928
 20
1151.650311445114
 30
0.0
 11
1531.164052380967
 21
1151.650311445114
 31
0.0
  0
ELLIPSE
  5
7FE
330
7BD
100
AcDbEntity
  8
0
  6
Continuous
 62
     7
370
    15
100
AcDbEllipse
 10
1534.953392692947
 20
1148.490712412741
 30
0.0
 11
0.0000000000014211
 21
10.88001058104026
 31
0.0
210
0.0
220
0.0
230
1.0
 40
0.3639702342662017
 41
4.819172491527589
 42
5.0070380281797
  0
LINE
  5
7FF
330
7BD
100
AcDbEntity
  8
0
  6
Continuous
 62
     7
370
    15
100
AcDbLine
 10
1538.913392692947
 20
1149.650311445114
 30
0.0
 11
1538.890836756283
 21
1149.650311445114
 31
0.0
  0
LINE
  5
800
330
7BD
100
AcDbEntity
  8
0
  6
Continuous
 62
     7
370
    15
100
AcDbLine
 10
1543.515948629612
 20
1149.650311445114
 30
0.0
 11
1543.493392692947
 21
1149.650311445114
 31
0.0
  0
ELLIPSE
  5
801
330
7BD
100
AcDbEntity
  8
0
  6
Continuous
 62
     7
370
    15
100
AcDbEllipse
 10
1547.453392692947
 20
1148.490712412741
 30
0.0
 11
0.0000000000013927
 21
10.88001058104026
 31
0.0
210
0.0
220
0.0
230
1.0
 40
0.3639702342662043
 41
1.276147278999997
 42
1.464012815652137
  0
ELLIPSE
  5
802
330
7BD
100
AcDbEntity
  8
0
  6
Continuous
 62
     7
370
    15
100
AcDbEllipse
 10
1547.453392692947
 20
1148.490712412741
 30
0.0
 11
0.0000000000013927
 21
10.88001058104026
 31
0.0
210
0.0
220
0.0
230
1.0
 40
0.3639702342662043
 41
4.81917249152759
 42
5.007038028179701
  0
LINE
  5
803
330
7BD
100
AcDbEntity
  8
0
  6
Continuous
 62
     7
370
    15
100
AcDbLine
 10
1551.413392692947
 20
1149.650311445114
 30
0.0
 11
1551.390836756283
 21
1149.650311445114
 31
0.0
  0
LINE
  5
804
330
7BD
100
AcDbEntity
  8
0
  6
Continuous
 62
     7
370
    15
100
AcDbLine
 10
1551.242733004928
 20
1151.650311445114
 30
0.0
 11
1543.664052380967
 21
1151.650311445114
 31
0.0
  0
LINE
  5
805
330
7BD
100
AcDbEntity
  8
0
  6
Continuous
 62
     7
370
    15
100
AcDbLine
 10
1581.015948629612
 20
1149.650311445114
 30
0.0
 11
1580.993392692947
 21
1149.650311445114
 31
0.0
  0
ELLIPSE
  5
806
330
7BD
100
AcDbEntity
  8
0
  6
Continuous
 62
     7
370
    15
100
AcDbEllipse
 10
1584.953392692947
 20
1148.490712412741
 30
0.0
 11
0.0000000000014069
 21
10.88001058104026
 31
0.0
210
0.0
220
0.0
230
1.0
 40
0.363970234266203
 41
1.276147278999998
 42
1.464012815652137
  0
LINE
  5
807
330
7BD
100
AcDbEntity
  8
0
  6
Continuous
 62
     7
370
    15
100
AcDbLine
 10
1588.742733004928
 20
1151.650311445114
 30
0.0
 11
1581.164052380967
 21
1151.650311445114
 31
0.0
  0
ELLIPSE
  5
808
330
7BD
100
AcDbEntity
  8
0
  6
Continuous
 62
     7
370
    15
100
AcDbEllipse
 10
1584.953392692947
 20
1148.490712412741
 30
0.0
 11
0.0000000000014069
 21
10.88001058104026
 31
0.0
210
0.0
220
0.0
230
1.0
 40
0.363970234266203
 41
4.81917249152759
 42
5.0070380281797
  0
LINE
  5
809
330
7BD
100
AcDbEntity
  8
0
  6
Continuous
 62
     7
370
    15
100
AcDbLine
 10
1588.913392692947
 20
1149.650311445114
 30
0.0
 11
1588.890836756283
 21
1149.650311445114
 31
0.0
  0
LINE
  5
80A
330
7BD
100
AcDbEntity
  8
0
  6
Continuous
 62
     7
370
    15
100
AcDbLine
 10
1556.015948629612
 20
1149.650311445114
 30
0.0
 11
1555.993392692947
 21
1149.650311445114
 31
0.0
  0
ELLIPSE
  5
80B
330
7BD
100
AcDbEntity
  8
0
  6
Continuous
 62
     7
370
    15
100
AcDbEllipse
 10
1559.953392692947
 20
1148.490712412741
 30
0.0
 11
0.0000000000013927
 21
10.88001058104026
 31
0.0
210
0.0
220
0.0
230
1.0
 40
0.3639702342662017
 41
1.276147278999999
 42
1.464012815652137
  0
ELLIPSE
  5
80C
330
7BD
100
AcDbEntity
  8
0
  6
Continuous
 62
     7
370
    15
100
AcDbEllipse
 10
1559.953392692947
 20
1148.490712412741
 30
0.0
 11
0.0000000000013927
 21
10.88001058104026
 31
0.0
210
0.0
220
0.0
230
1.0
 40
0.3639702342662017
 41
4.819172491527589
 42
5.007038028179698
  0
LINE
  5
80D
330
7BD
100
AcDbEntity
  8
0
  6
Continuous
 62
     7
370
    15
100
AcDbLine
 10
1563.913392692947
 20
1149.650311445114
 30
0.0
 11
1563.890836756283
 21
1149.650311445114
 31
0.0
  0
LINE
  5
80E
330
7BD
100
AcDbEntity
  8
0
  6
Continuous
 62
     7
370
    15
100
AcDbLine
 10
1563.742733004928
 20
1151.650311445114
 30
0.0
 11
1556.164052380967
 21
1151.650311445114
 31
0.0
  0
LINE
  5
80F
330
7BD
100
AcDbEntity
  8
0
  6
Continuous
 62
     7
370
    15
100
AcDbLine
 10
1481.015948629612
 20
1149.650311445114
 30
0.0
 11
1480.993392692947
 21
1149.650311445114
 31
0.0
  0
ELLIPSE
  5
810
330
7BD
100
AcDbEntity
  8
0
  6
Continuous
 62
     7
370
    15
100
AcDbEllipse
 10
1484.953392692947
 20
1148.490712412741
 30
0.0
 11
0.0000000000013927
 21
10.88001058104026
 31
0.0
210
0.0
220
0.0
230
1.0
 40
0.3639702342662043
 41
1.276147278999997
 42
1.464012815652136
  0
LINE
  5
811
330
7BD
100
AcDbEntity
  8
0
  6
Continuous
 62
     7
370
    15
100
AcDbLine
 10
1488.742733004928
 20
1151.650311445114
 30
0.0
 11
1481.164052380967
 21
1151.650311445114
 31
0.0
  0
ELLIPSE
  5
812
330
7BD
100
AcDbEntity
  8
0
  6
Continuous
 62
     7
370
    15
100
AcDbEllipse
 10
1484.953392692947
 20
1148.490712412741
 30
0.0
 11
0.0000000000013927
 21
10.88001058104026
 31
0.0
210
0.0
220
0.0
230
1.0
 40
0.3639702342662043
 41
4.81917249152759
 42
5.007038028179701
  0
LINE
  5
813
330
7BD
100
AcDbEntity
  8
0
  6
Continuous
 62
     7
370
    15
100
AcDbLine
 10
1488.913392692947
 20
1149.650311445114
 30
0.0
 11
1488.890836756283
 21
1149.650311445114
 31
0.0
  0
ENDBLK
  5
7BF
330
7BD
100
AcDbEntity
  8
0
100
AcDbBlockEnd
  0
BLOCK
  5
816
330
815
100
AcDbEntity
  8
0
100
AcDbBlockBegin
  2
2
 70
     0
 10
0.0
 20
0.0
 30
0.0
  3
2
  1

  0
LINE
  5
818
330
815
100
AcDbEntity
  8
0
  6
Continuous
 62
     7
370
    15
100
AcDbLine
 10
1497.008208251514
 20
1101.740636360533
 30
0.0
 11
1496.903392692948
 21
1101.635820801966
 31
0.0
  0
LINE
  5
819
330
815
100
AcDbEntity
  8
0
  6
Continuous
 62
     7
370
    15
100
AcDbLine
 10
1496.903392692948
 20
1101.635820801966
 30
0.0
 11
1496.903392692948
 21
1102.985820801966
 31
0.0
  0
LINE
  5
81A
330
815
100
AcDbEntity
  8
0
  6
Continuous
 62
     7
370
    15
100
AcDbLine
 10
1497.008208251514
 20
1103.713761270499
 30
0.0
 11
1496.903392692948
 21
1102.985820801966
 31
0.0
  0
LINE
  5
81B
330
815
100
AcDbEntity
  8
0
  6
Continuous
 62
     7
370
    15
100
AcDbLine
 10
1497.008208251514
 20
1101.740636360533
 30
0.0
 11
1497.008208251514
 21
1103.713761270499
 31
0.0
  0
LINE
  5
81C
330
815
100
AcDbEntity
  8
0
  6
Continuous
 62
     7
370
    15
100
AcDbLine
 10
1584.508208251514
 20
1101.740636360533
 30
0.0
 11
1584.403392692948
 21
1101.635820801966
 31
0.0
  0
LINE
  5
81D
330
815
100
AcDbEntity
  8
0
  6
Continuous
 62
     7
370
    15
100
AcDbLine
 10
1584.403392692948
 20
1101.635820801966
 30
0.0
 11
1584.403392692947
 21
1102.985820801966
 31
0.0
  0
LINE
  5
81E
330
815
100
AcDbEntity
  8
0
  6
Continuous
 62
     7
370
    15
100
AcDbLine
 10
1584.508208251514
 20
1103.713761270499
 30
0.0
 11
1584.403392692947
 21
1102.985820801966
 31
0.0
  0
LINE
  5
81F
330
815
100
AcDbEntity
  8
0
  6
Continuous
 62
     7
370
    15
100
AcDbLine
 10
1584.508208251514
 20
1101.740636360533
 30
0.0
 11
1584.508208251514
 21
1103.713761270499
 31
0.0
  0
LINE
  5
820
330
815
100
AcDbEntity
  8
0
  6
Continuous
 62
     7
370
    15
100
AcDbLine
 10
1559.508208251514
 20
1103.713761270499
 30
0.0
 11
1559.403392692948
 21
1102.985820801966
 31
0.0
  0
LINE
  5
821
330
815
100
AcDbEntity
  8
0
  6
Continuous
 62
     7
370
    15
100
AcDbLine
 10
1556.164052380967
 20
1102.985820801965
 30
0.0
 11
1559.403392692948
 21
1102.985820801965
 31
0.0
  0
ARC
  5
822
330
815
100
AcDbEntity
  8
0
  6
Continuous
 62
     7
370
    15
100
AcDbCircle
 10
1559.953392692947
 20
1104.135820801967
 30
0.0
 40
3.959999999999993
100
AcDbArc
 50
186.1182445100926
 51
196.8821468762186
  0
LINE
  5
823
330
815
100
AcDbEntity
  8
0
  6
Continuous
 62
     7
370
    15
100
AcDbLine
 10
1556.015948629612
 20
1103.713761270498
 30
0.0
 11
1559.508208251514
 21
1103.713761270499
 31
0.0
  0
LINE
  5
824
330
815
100
AcDbEntity
  8
0
  6
Continuous
 62
     7
370
    15
100
AcDbLine
 10
1534.508208251514
 20
1101.740636360533
 30
0.0
 11
1534.403392692948
 21
1101.635820801966
 31
0.0
  0
LINE
  5
825
330
815
100
AcDbEntity
  8
0
  6
Continuous
 62
     7
370
    15
100
AcDbLine
 10
1534.403392692948
 20
1101.635820801966
 30
0.0
 11
1534.403392692947
 21
1102.985820801966
 31
0.0
  0
LINE
  5
826
330
815
100
AcDbEntity
  8
0
  6
Continuous
 62
     7
370
    15
100
AcDbLine
 10
1534.508208251514
 20
1103.713761270499
 30
0.0
 11
1534.403392692947
 21
1102.985820801966
 31
0.0
  0
LINE
  5
827
330
815
100
AcDbEntity
  8
0
  6
Continuous
 62
     7
370
    15
100
AcDbLine
 10
1534.508208251514
 20
1101.740636360533
 30
0.0
 11
1534.508208251514
 21
1103.713761270499
 31
0.0
  0
LINE
  5
828
330
815
100
AcDbEntity
  8
0
  6
Continuous
 62
     7
370
    15
100
AcDbLine
 10
1547.008208251514
 20
1101.740636360533
 30
0.0
 11
1546.903392692948
 21
1101.635820801966
 31
0.0
  0
LINE
  5
829
330
815
100
AcDbEntity
  8
0
  6
Continuous
 62
     7
370
    15
100
AcDbLine
 10
1546.903392692948
 20
1101.635820801966
 30
0.0
 11
1546.903392692948
 21
1102.985820801966
 31
0.0
  0
LINE
  5
82A
330
815
100
AcDbEntity
  8
0
  6
Continuous
 62
     7
370
    15
100
AcDbLine
 10
1547.008208251513
 20
1103.713761270499
 30
0.0
 11
1546.903392692948
 21
1102.985820801966
 31
0.0
  0
LINE
  5
82B
330
815
100
AcDbEntity
  8
0
  6
Continuous
 62
     7
370
    15
100
AcDbLine
 10
1547.008208251514
 20
1101.740636360533
 30
0.0
 11
1547.008208251514
 21
1103.713761270499
 31
0.0
  0
LINE
  5
82C
330
815
100
AcDbEntity
  8
0
  6
Continuous
 62
     7
370
    15
100
AcDbLine
 10
1559.508208251514
 20
1101.740636360533
 30
0.0
 11
1559.403392692948
 21
1101.635820801966
 31
0.0
  0
LINE
  5
82D
330
815
100
AcDbEntity
  8
0
  6
Continuous
 62
     7
370
    15
100
AcDbLine
 10
1559.403392692948
 20
1101.635820801966
 30
0.0
 11
1559.403392692948
 21
1102.985820801966
 31
0.0
  0
LINE
  5
82E
330
815
100
AcDbEntity
  8
0
  6
Continuous
 62
     7
370
    15
100
AcDbLine
 10
1559.508208251514
 20
1101.740636360533
 30
0.0
 11
1559.508208251514
 21
1103.713761270499
 31
0.0
  0
LINE
  5
82F
330
815
100
AcDbEntity
  8
0
  6
Continuous
 62
     7
370
    15
100
AcDbLine
 10
1572.008208251514
 20
1101.740636360533
 30
0.0
 11
1571.903392692948
 21
1101.635820801966
 31
0.0
  0
LINE
  5
830
330
815
100
AcDbEntity
  8
0
  6
Continuous
 62
     7
370
    15
100
AcDbLine
 10
1571.903392692948
 20
1101.635820801966
 30
0.0
 11
1571.903392692948
 21
1102.985820801966
 31
0.0
  0
LINE
  5
831
330
815
100
AcDbEntity
  8
0
  6
Continuous
 62
     7
370
    15
100
AcDbLine
 10
1572.008208251514
 20
1103.713761270499
 30
0.0
 11
1571.903392692948
 21
1102.985820801966
 31
0.0
  0
LINE
  5
832
330
815
100
AcDbEntity
  8
0
  6
Continuous
 62
     7
370
    15
100
AcDbLine
 10
1572.008208251514
 20
1101.740636360533
 30
0.0
 11
1572.008208251514
 21
1103.713761270499
 31
0.0
  0
LINE
  5
833
330
815
100
AcDbEntity
  8
0
  6
Continuous
 62
     7
370
    15
100
AcDbLine
 10
1509.508208251514
 20
1101.740636360533
 30
0.0
 11
1509.403392692948
 21
1101.635820801966
 31
0.0
  0
LINE
  5
834
330
815
100
AcDbEntity
  8
0
  6
Continuous
 62
     7
370
    15
100
AcDbLine
 10
1509.403392692948
 20
1101.635820801966
 30
0.0
 11
1509.403392692948
 21
1102.985820801966
 31
0.0
  0
LINE
  5
835
330
815
100
AcDbEntity
  8
0
  6
Continuous
 62
     7
370
    15
100
AcDbLine
 10
1509.508208251514
 20
1103.713761270499
 30
0.0
 11
1509.403392692948
 21
1102.985820801966
 31
0.0
  0
LINE
  5
836
330
815
100
AcDbEntity
  8
0
  6
Continuous
 62
     7
370
    15
100
AcDbLine
 10
1509.508208251514
 20
1101.740636360533
 30
0.0
 11
1509.508208251514
 21
1103.713761270499
 31
0.0
  0
LINE
  5
837
330
815
100
AcDbEntity
  8
0
  6
Continuous
 62
     7
370
    15
100
AcDbLine
 10
1543.664052380967
 20
1102.985820801965
 30
0.0
 11
1546.903392692948
 21
1102.985820801965
 31
0.0
  0
ARC
  5
838
330
815
100
AcDbEntity
  8
0
  6
Continuous
 62
     7
370
    15
100
AcDbCircle
 10
1547.453392692947
 20
1104.135820801967
 30
0.0
 40
3.959999999999993
100
AcDbArc
 50
186.1182445100926
 51
196.8821468762186
  0
LINE
  5
839
330
815
100
AcDbEntity
  8
0
  6
Continuous
 62
     7
370
    15
100
AcDbLine
 10
1543.515948629612
 20
1103.713761270498
 30
0.0
 11
1547.008208251513
 21
1103.713761270499
 31
0.0
  0
LINE
  5
83A
330
815
100
AcDbEntity
  8
0
  6
Continuous
 62
     7
370
    15
100
AcDbLine
 10
1531.164052380967
 20
1102.985820801965
 30
0.0
 11
1534.403392692947
 21
1102.985820801965
 31
0.0
  0
ARC
  5
83B
330
815
100
AcDbEntity
  8
0
  6
Continuous
 62
     7
370
    15
100
AcDbCircle
 10
1534.953392692947
 20
1104.135820801967
 30
0.0
 40
3.960000000000008
100
AcDbArc
 50
186.1182445100926
 51
196.8821468762186
  0
LINE
  5
83C
330
815
100
AcDbEntity
  8
0
  6
Continuous
 62
     7
370
    15
100
AcDbLine
 10
1531.015948629612
 20
1103.713761270498
 30
0.0
 11
1534.508208251514
 21
1103.713761270499
 31
0.0
  0
LINE
  5
83D
330
815
100
AcDbEntity
  8
0
  6
Continuous
 62
     7
370
    15
100
AcDbLine
 10
1597.008208251514
 20
1101.740636360533
 30
0.0
 11
1596.903392692948
 21
1101.635820801966
 31
0.0
  0
LINE
  5
83E
330
815
100
AcDbEntity
  8
0
  6
Continuous
 62
     7
370
    15
100
AcDbLine
 10
1596.903392692948
 20
1101.635820801966
 30
0.0
 11
1596.903392692947
 21
1102.985820801966
 31
0.0
  0
LINE
  5
83F
330
815
100
AcDbEntity
  8
0
  6
Continuous
 62
     7
370
    15
100
AcDbLine
 10
1597.008208251514
 20
1103.713761270499
 30
0.0
 11
1596.903392692947
 21
1102.985820801966
 31
0.0
  0
LINE
  5
840
330
815
100
AcDbEntity
  8
0
  6
Continuous
 62
     7
370
    15
100
AcDbLine
 10
1597.008208251514
 20
1101.740636360533
 30
0.0
 11
1597.008208251514
 21
1103.713761270499
 31
0.0
  0
LINE
  5
841
330
815
100
AcDbEntity
  8
0
  6
Continuous
 62
     7
370
    15
100
AcDbLine
 10
1506.164052380967
 20
1102.985820801965
 30
0.0
 11
1509.403392692948
 21
1102.985820801965
 31
0.0
  0
ARC
  5
842
330
815
100
AcDbEntity
  8
0
  6
Continuous
 62
     7
370
    15
100
AcDbCircle
 10
1509.953392692947
 20
1104.135820801967
 30
0.0
 40
3.960000000000008
100
AcDbArc
 50
186.1182445100926
 51
196.8821468762186
  0
LINE
  5
843
330
815
100
AcDbEntity
  8
0
  6
Continuous
 62
     7
370
    15
100
AcDbLine
 10
1506.015948629612
 20
1103.713761270498
 30
0.0
 11
1509.508208251514
 21
1103.713761270499
 31
0.0
  0
LINE
  5
844
330
815
100
AcDbEntity
  8
0
  6
Continuous
 62
     7
370
    15
100
AcDbLine
 10
1493.664052380967
 20
1102.985820801965
 30
0.0
 11
1496.903392692948
 21
1102.985820801965
 31
0.0
  0
ARC
  5
845
330
815
100
AcDbEntity
  8
0
  6
Continuous
 62
     7
370
    15
100
AcDbCircle
 10
1497.453392692947
 20
1104.135820801967
 30
0.0
 40
3.959999999999993
100
AcDbArc
 50
186.1182445100926
 51
196.8821468762186
  0
LINE
  5
846
330
815
100
AcDbEntity
  8
0
  6
Continuous
 62
     7
370
    15
100
AcDbLine
 10
1493.515948629612
 20
1103.713761270498
 30
0.0
 11
1497.008208251514
 21
1103.713761270499
 31
0.0
  0
LINE
  5
847
330
815
100
AcDbEntity
  8
0
  6
Continuous
 62
     7
370
    15
100
AcDbLine
 10
1581.164052380967
 20
1102.985820801965
 30
0.0
 11
1584.403392692947
 21
1102.985820801965
 31
0.0
  0
ARC
  5
848
330
815
100
AcDbEntity
  8
0
  6
Continuous
 62
     7
370
    15
100
AcDbCircle
 10
1584.953392692947
 20
1104.135820801967
 30
0.0
 40
3.960000000000008
100
AcDbArc
 50
186.1182445100926
 51
196.8821468762186
  0
LINE
  5
849
330
815
100
AcDbEntity
  8
0
  6
Continuous
 62
     7
370
    15
100
AcDbLine
 10
1581.015948629612
 20
1103.713761270498
 30
0.0
 11
1584.508208251514
 21
1103.713761270499
 31
0.0
  0
LINE
  5
84A
330
815
100
AcDbEntity
  8
0
  6
Continuous
 62
     7
370
    15
100
AcDbLine
 10
1568.664052380967
 20
1102.985820801965
 30
0.0
 11
1571.903392692948
 21
1102.985820801965
 31
0.0
  0
ARC
  5
84B
330
815
100
AcDbEntity
  8
0
  6
Continuous
 62
     7
370
    15
100
AcDbCircle
 10
1572.453392692947
 20
1104.135820801967
 30
0.0
 40
3.959999999999994
100
AcDbArc
 50
186.1182445100926
 51
196.8821468762186
  0
LINE
  5
84C
330
815
100
AcDbEntity
  8
0
  6
Continuous
 62
     7
370
    15
100
AcDbLine
 10
1568.515948629612
 20
1103.713761270498
 30
0.0
 11
1572.008208251514
 21
1103.713761270499
 31
0.0
  0
LINE
  5
84D
330
815
100
AcDbEntity
  8
0
  6
Continuous
 62
     7
370
    15
100
AcDbLine
 10
1522.008208251514
 20
1101.740636360533
 30
0.0
 11
1521.903392692948
 21
1101.635820801966
 31
0.0
  0
LINE
  5
84E
330
815
100
AcDbEntity
  8
0
  6
Continuous
 62
     7
370
    15
100
AcDbLine
 10
1521.903392692948
 20
1101.635820801966
 30
0.0
 11
1521.903392692947
 21
1102.985820801966
 31
0.0
  0
LINE
  5
84F
330
815
100
AcDbEntity
  8
0
  6
Continuous
 62
     7
370
    15
100
AcDbLine
 10
1522.008208251514
 20
1103.713761270499
 30
0.0
 11
1521.903392692947
 21
1102.985820801966
 31
0.0
  0
LINE
  5
850
330
815
100
AcDbEntity
  8
0
  6
Continuous
 62
     7
370
    15
100
AcDbLine
 10
1522.008208251514
 20
1101.740636360533
 30
0.0
 11
1522.008208251514
 21
1103.713761270499
 31
0.0
  0
LINE
  5
851
330
815
100
AcDbEntity
  8
0
  6
Continuous
 62
     7
370
    15
100
AcDbLine
 10
1593.664052380967
 20
1102.985820801965
 30
0.0
 11
1596.903392692947
 21
1102.985820801965
 31
0.0
  0
ARC
  5
852
330
815
100
AcDbEntity
  8
0
  6
Continuous
 62
     7
370
    15
100
AcDbCircle
 10
1597.453392692947
 20
1104.135820801967
 30
0.0
 40
3.959999999999994
100
AcDbArc
 50
186.1182445100926
 51
196.8821468762186
  0
LINE
  5
853
330
815
100
AcDbEntity
  8
0
  6
Continuous
 62
     7
370
    15
100
AcDbLine
 10
1593.515948629612
 20
1103.713761270498
 30
0.0
 11
1597.008208251514
 21
1103.713761270499
 31
0.0
  0
LINE
  5
854
330
815
100
AcDbEntity
  8
0
  6
Continuous
 62
     7
370
    15
100
AcDbLine
 10
1518.664052380967
 20
1102.985820801965
 30
0.0
 11
1521.903392692947
 21
1102.985820801965
 31
0.0
  0
ARC
  5
855
330
815
100
AcDbEntity
  8
0
  6
Continuous
 62
     7
370
    15
100
AcDbCircle
 10
1522.453392692947
 20
1104.135820801967
 30
0.0
 40
3.960000000000008
100
AcDbArc
 50
186.1182445100926
 51
196.8821468762186
  0
LINE
  5
856
330
815
100
AcDbEntity
  8
0
  6
Continuous
 62
     7
370
    15
100
AcDbLine
 10
1518.515948629612
 20
1103.713761270498
 30
0.0
 11
1522.008208251514
 21
1103.713761270499
 31
0.0
  0
LINE
  5
857
330
815
100
AcDbEntity
  8
0
  6
Continuous
 62
     7
370
    15
100
AcDbLine
 10
1548.003392692948
 20
1101.635820801967
 30
0.0
 11
1546.903392692948
 21
1101.635820801966
 31
0.0
  0
LINE
  5
858
330
815
100
AcDbEntity
  8
0
  6
Continuous
 62
     7
370
    15
100
AcDbLine
 10
1548.003392692948
 20
1102.985820801967
 30
0.0
 11
1548.003392692948
 21
1101.635820801967
 31
0.0
  0
LINE
  5
859
330
815
100
AcDbEntity
  8
0
  6
Continuous
 62
     7
370
    15
100
AcDbLine
 10
1548.003392692948
 20
1102.985820801967
 30
0.0
 11
1551.242733004928
 21
1102.985820801967
 31
0.0
  0
ARC
  5
85A
330
815
100
AcDbEntity
  8
0
  6
Continuous
 62
     7
370
    15
100
AcDbCircle
 10
1547.453392692947
 20
1104.135820801967
 30
0.0
 40
3.959999999999993
100
AcDbArc
 50
196.8821468762186
 51
343.1178531238163
  0
LINE
  5
85B
330
815
100
AcDbEntity
  8
0
  6
Continuous
 62
     7
370
    15
100
AcDbLine
 10
1535.503392692948
 20
1101.635820801967
 30
0.0
 11
1534.403392692948
 21
1101.635820801966
 31
0.0
  0
LINE
  5
85C
330
815
100
AcDbEntity
  8
0
  6
Continuous
 62
     7
370
    15
100
AcDbLine
 10
1535.503392692947
 20
1102.985820801967
 30
0.0
 11
1535.503392692948
 21
1101.635820801967
 31
0.0
  0
LINE
  5
85D
330
815
100
AcDbEntity
  8
0
  6
Continuous
 62
     7
370
    15
100
AcDbLine
 10
1535.503392692948
 20
1102.985820801967
 30
0.0
 11
1538.742733004928
 21
1102.985820801967
 31
0.0
  0
ARC
  5
85E
330
815
100
AcDbEntity
  8
0
  6
Continuous
 62
     7
370
    15
100
AcDbCircle
 10
1534.953392692947
 20
1104.135820801967
 30
0.0
 40
3.960000000000008
100
AcDbArc
 50
196.8821468762186
 51
343.1178531238163
  0
LINE
  5
85F
330
815
100
AcDbEntity
  8
0
  6
Continuous
 62
     7
370
    15
100
AcDbLine
 10
1573.003392692948
 20
1101.635820801967
 30
0.0
 11
1571.903392692948
 21
1101.635820801966
 31
0.0
  0
LINE
  5
860
330
815
100
AcDbEntity
  8
0
  6
Continuous
 62
     7
370
    15
100
AcDbLine
 10
1573.003392692948
 20
1102.985820801967
 30
0.0
 11
1573.003392692948
 21
1101.635820801967
 31
0.0
  0
LINE
  5
861
330
815
100
AcDbEntity
  8
0
  6
Continuous
 62
     7
370
    15
100
AcDbLine
 10
1573.003392692948
 20
1102.985820801967
 30
0.0
 11
1576.242733004928
 21
1102.985820801967
 31
0.0
  0
ARC
  5
862
330
815
100
AcDbEntity
  8
0
  6
Continuous
 62
     7
370
    15
100
AcDbCircle
 10
1572.453392692947
 20
1104.135820801967
 30
0.0
 40
3.959999999999995
100
AcDbArc
 50
196.8821468762186
 51
343.1178531238163
  0
LINE
  5
863
330
815
100
AcDbEntity
  8
0
  6
Continuous
 62
     7
370
    15
100
AcDbLine
 10
1510.503392692948
 20
1101.635820801967
 30
0.0
 11
1509.403392692948
 21
1101.635820801966
 31
0.0
  0
LINE
  5
864
330
815
100
AcDbEntity
  8
0
  6
Continuous
 62
     7
370
    15
100
AcDbLine
 10
1510.503392692948
 20
1102.985820801967
 30
0.0
 11
1510.503392692948
 21
1101.635820801967
 31
0.0
  0
LINE
  5
865
330
815
100
AcDbEntity
  8
0
  6
Continuous
 62
     7
370
    15
100
AcDbLine
 10
1510.503392692948
 20
1102.985820801967
 30
0.0
 11
1513.742733004928
 21
1102.985820801967
 31
0.0
  0
ARC
  5
866
330
815
100
AcDbEntity
  8
0
  6
Continuous
 62
     7
370
    15
100
AcDbCircle
 10
1509.953392692947
 20
1104.135820801967
 30
0.0
 40
3.959999999999993
100
AcDbArc
 50
196.8821468762186
 51
343.1178531238163
  0
LINE
  5
867
330
815
100
AcDbEntity
  8
0
  6
Continuous
 62
     7
370
    15
100
AcDbLine
 10
1498.003392692948
 20
1101.635820801967
 30
0.0
 11
1496.903392692948
 21
1101.635820801966
 31
0.0
  0
LINE
  5
868
330
815
100
AcDbEntity
  8
0
  6
Continuous
 62
     7
370
    15
100
AcDbLine
 10
1498.003392692948
 20
1102.985820801967
 30
0.0
 11
1498.003392692948
 21
1101.635820801967
 31
0.0
  0
LINE
  5
869
330
815
100
AcDbEntity
  8
0
  6
Continuous
 62
     7
370
    15
100
AcDbLine
 10
1498.003392692948
 20
1102.985820801967
 30
0.0
 11
1501.242733004928
 21
1102.985820801967
 31
0.0
  0
ARC
  5
86A
330
815
100
AcDbEntity
  8
0
  6
Continuous
 62
     7
370
    15
100
AcDbCircle
 10
1497.453392692947
 20
1104.135820801967
 30
0.0
 40
3.960000000000008
100
AcDbArc
 50
196.8821468762186
 51
343.1178531238163
  0
LINE
  5
86B
330
815
100
AcDbEntity
  8
0
  6
Continuous
 62
     7
370
    15
100
AcDbLine
 10
1585.503392692948
 20
1101.635820801967
 30
0.0
 11
1584.403392692948
 21
1101.635820801966
 31
0.0
  0
LINE
  5
86C
330
815
100
AcDbEntity
  8
0
  6
Continuous
 62
     7
370
    15
100
AcDbLine
 10
1585.503392692948
 20
1102.985820801967
 30
0.0
 11
1585.503392692948
 21
1101.635820801967
 31
0.0
  0
LINE
  5
86D
330
815
100
AcDbEntity
  8
0
  6
Continuous
 62
     7
370
    15
100
AcDbLine
 10
1585.503392692948
 20
1102.985820801967
 30
0.0
 11
1588.742733004928
 21
1102.985820801967
 31
0.0
  0
ARC
  5
86E
330
815
100
AcDbEntity
  8
0
  6
Continuous
 62
     7
370
    15
100
AcDbCircle
 10
1584.953392692947
 20
1104.135820801967
 30
0.0
 40
3.959999999999995
100
AcDbArc
 50
196.8821468762186
 51
343.1178531238163
  0
LINE
  5
86F
330
815
100
AcDbEntity
  8
0
  6
Continuous
 62
     7
370
    15
100
AcDbLine
 10
1523.003392692948
 20
1101.635820801967
 30
0.0
 11
1521.903392692948
 21
1101.635820801966
 31
0.0
  0
LINE
  5
870
330
815
100
AcDbEntity
  8
0
  6
Continuous
 62
     7
370
    15
100
AcDbLine
 10
1523.003392692948
 20
1102.985820801967
 30
0.0
 11
1523.003392692948
 21
1101.635820801967
 31
0.0
  0
LINE
  5
871
330
815
100
AcDbEntity
  8
0
  6
Continuous
 62
     7
370
    15
100
AcDbLine
 10
1523.003392692948
 20
1102.985820801967
 30
0.0
 11
1526.242733004928
 21
1102.985820801967
 31
0.0
  0
ARC
  5
872
330
815
100
AcDbEntity
  8
0
  6
Continuous
 62
     7
370
    15
100
AcDbCircle
 10
1522.453392692947
 20
1104.135820801967
 30
0.0
 40
3.960000000000008
100
AcDbArc
 50
196.8821468762186
 51
343.1178531238163
  0
LINE
  5
873
330
815
100
AcDbEntity
  8
0
  6
Continuous
 62
     7
370
    15
100
AcDbLine
 10
1560.503392692948
 20
1101.635820801967
 30
0.0
 11
1559.403392692948
 21
1101.635820801966
 31
0.0
  0
LINE
  5
874
330
815
100
AcDbEntity
  8
0
  6
Continuous
 62
     7
370
    15
100
AcDbLine
 10
1560.503392692948
 20
1102.985820801967
 30
0.0
 11
1560.503392692948
 21
1101.635820801967
 31
0.0
  0
LINE
  5
875
330
815
100
AcDbEntity
  8
0
  6
Continuous
 62
     7
370
    15
100
AcDbLine
 10
1560.503392692948
 20
1102.985820801967
 30
0.0
 11
1563.742733004928
 21
1102.985820801967
 31
0.0
  0
ARC
  5
876
330
815
100
AcDbEntity
  8
0
  6
Continuous
 62
     7
370
    15
100
AcDbCircle
 10
1559.953392692947
 20
1104.135820801967
 30
0.0
 40
3.960000000000008
100
AcDbArc
 50
196.8821468762186
 51
343.1178531238163
  0
LINE
  5
877
330
815
100
AcDbEntity
  8
0
  6
Continuous
 62
     7
370
    15
100
AcDbLine
 10
1598.003392692948
 20
1101.635820801967
 30
0.0
 11
1596.903392692948
 21
1101.635820801966
 31
0.0
  0
LINE
  5
878
330
815
100
AcDbEntity
  8
0
  6
Continuous
 62
     7
370
    15
100
AcDbLine
 10
1598.003392692947
 20
1102.985820801967
 30
0.0
 11
1598.003392692948
 21
1101.635820801967
 31
0.0
  0
LINE
  5
879
330
815
100
AcDbEntity
  8
0
  6
Continuous
 62
     7
370
    15
100
AcDbLine
 10
1598.003392692948
 20
1102.985820801967
 30
0.0
 11
1601.242733004928
 21
1102.985820801967
 31
0.0
  0
ARC
  5
87A
330
815
100
AcDbEntity
  8
0
  6
Continuous
 62
     7
370
    15
100
AcDbCircle
 10
1597.453392692947
 20
1104.135820801967
 30
0.0
 40
3.959999999999995
100
AcDbArc
 50
196.8821468762186
 51
343.1178531238163
  0
LINE
  5
87B
330
815
100
AcDbEntity
  8
0
  6
Continuous
 62
     7
370
    15
100
AcDbLine
 10
1484.508208251514
 20
1101.740636360533
 30
0.0
 11
1484.403392692948
 21
1101.635820801966
 31
0.0
  0
LINE
  5
87C
330
815
100
AcDbEntity
  8
0
  6
Continuous
 62
     7
370
    15
100
AcDbLine
 10
1484.403392692948
 20
1101.635820801966
 30
0.0
 11
1484.403392692948
 21
1102.985820801966
 31
0.0
  0
LINE
  5
87D
330
815
100
AcDbEntity
  8
0
  6
Continuous
 62
     7
370
    15
100
AcDbLine
 10
1484.508208251513
 20
1103.713761270499
 30
0.0
 11
1484.403392692948
 21
1102.985820801966
 31
0.0
  0
LINE
  5
87E
330
815
100
AcDbEntity
  8
0
  6
Continuous
 62
     7
370
    15
100
AcDbLine
 10
1484.508208251514
 20
1101.740636360533
 30
0.0
 11
1484.508208251514
 21
1103.713761270499
 31
0.0
  0
LINE
  5
87F
330
815
100
AcDbEntity
  8
0
  6
Continuous
 62
     7
370
    15
100
AcDbLine
 10
1481.164052380967
 20
1102.985820801965
 30
0.0
 11
1484.403392692948
 21
1102.985820801965
 31
0.0
  0
ARC
  5
880
330
815
100
AcDbEntity
  8
0
  6
Continuous
 62
     7
370
    15
100
AcDbCircle
 10
1484.953392692947
 20
1104.135820801967
 30
0.0
 40
3.959999999999993
100
AcDbArc
 50
186.1182445100926
 51
196.8821468762186
  0
LINE
  5
881
330
815
100
AcDbEntity
  8
0
  6
Continuous
 62
     7
370
    15
100
AcDbLine
 10
1481.015948629612
 20
1103.713761270498
 30
0.0
 11
1484.508208251513
 21
1103.713761270499
 31
0.0
  0
LINE
  5
882
330
815
100
AcDbEntity
  8
0
  6
Continuous
 62
     7
370
    15
100
AcDbLine
 10
1485.503392692948
 20
1101.635820801967
 30
0.0
 11
1484.403392692948
 21
1101.635820801966
 31
0.0
  0
LINE
  5
883
330
815
100
AcDbEntity
  8
0
  6
Continuous
 62
     7
370
    15
100
AcDbLine
 10
1485.503392692948
 20
1102.985820801967
 30
0.0
 11
1485.503392692948
 21
1101.635820801967
 31
0.0
  0
LINE
  5
884
330
815
100
AcDbEntity
  8
0
  6
Continuous
 62
     7
370
    15
100
AcDbLine
 10
1485.503392692948
 20
1102.985820801967
 30
0.0
 11
1488.742733004928
 21
1102.985820801967
 31
0.0
  0
ARC
  5
885
330
815
100
AcDbEntity
  8
0
  6
Continuous
 62
     7
370
    15
100
AcDbCircle
 10
1484.953392692947
 20
1104.135820801967
 30
0.0
 40
3.959999999999993
100
AcDbArc
 50
196.8821468762186
 51
343.1178531238163
  0
LINE
  5
886
330
815
100
AcDbEntity
  8
0
  6
Continuous
 62
     7
370
    15
100
AcDbLine
 10
1571.903392692947
 20
1105.285820801966
 30
0.0
 11
1571.903392692947
 21
1106.635820801966
 31
0.0
  0
LINE
  5
887
330
815
100
AcDbEntity
  8
0
  6
Continuous
 62
     7
370
    15
100
AcDbLine
 10
1571.903392692946
 20
1105.285820801966
 30
0.0
 11
1568.664052380967
 21
1105.285820801966
 31
0.0
  0
ARC
  5
888
330
815
100
AcDbEntity
  8
0
  6
Continuous
 62
     7
370
    15
100
AcDbCircle
 10
1572.453392692947
 20
1104.135820801967
 30
0.0
 40
3.960000000000012
100
AcDbArc
 50
16.88214687621242
 51
163.11785312381
  0
LINE
  5
889
330
815
100
AcDbEntity
  8
0
  6
Continuous
 62
     7
370
    15
100
AcDbLine
 10
1573.003392692947
 20
1105.285820801967
 30
0.0
 11
1576.242733004927
 21
1105.285820801968
 31
0.0
  0
LINE
  5
88A
330
815
100
AcDbEntity
  8
0
  6
Continuous
 62
     7
370
    15
100
AcDbLine
 10
1573.003392692947
 20
1105.285820801967
 30
0.0
 11
1573.003392692947
 21
1106.635820801967
 31
0.0
  0
LINE
  5
88B
330
815
100
AcDbEntity
  8
0
  6
Continuous
 62
     7
370
    15
100
AcDbLine
 10
1571.903392692946
 20
1106.635820801966
 30
0.0
 11
1573.003392692947
 21
1106.635820801967
 31
0.0
  0
LINE
  5
88C
330
815
100
AcDbEntity
  8
0
  6
Continuous
 62
     7
370
    15
100
AcDbLine
 10
1571.903392692947
 20
1106.635820801966
 30
0.0
 11
1572.008208251513
 21
1106.5310052434
 31
0.0
  0
LINE
  5
88D
330
815
100
AcDbEntity
  8
0
  6
Continuous
 62
     7
370
    15
100
AcDbLine
 10
1572.008208251513
 20
1104.557880333433
 30
0.0
 11
1572.008208251513
 21
1106.5310052434
 31
0.0
  0
LINE
  5
88E
330
815
100
AcDbEntity
  8
0
  6
Continuous
 62
     7
370
    15
100
AcDbLine
 10
1571.903392692947
 20
1105.285820801966
 30
0.0
 11
1572.008208251513
 21
1104.557880333434
 31
0.0
  0
LINE
  5
88F
330
815
100
AcDbEntity
  8
0
  6
Continuous
 62
     7
370
    15
100
AcDbLine
 10
1572.008208251513
 20
1104.557880333434
 30
0.0
 11
1568.515948629612
 21
1104.557880333433
 31
0.0
  0
ARC
  5
890
330
815
100
AcDbEntity
  8
0
  6
Continuous
 62
     7
370
    15
100
AcDbCircle
 10
1572.453392692947
 20
1104.135820801967
 30
0.0
 40
3.960000000000003
100
AcDbArc
 50
163.11785312381
 51
173.8817554899462
  0
LINE
  5
891
330
815
100
AcDbEntity
  8
0
  6
Continuous
 62
     7
370
    15
100
AcDbLine
 10
1598.003392692948
 20
1101.635820801967
 30
0.0
 11
1597.898577134382
 21
1101.740636360533
 31
0.0
  0
LINE
  5
892
330
815
100
AcDbEntity
  8
0
  6
Continuous
 62
     7
370
    15
100
AcDbLine
 10
1597.898577134382
 20
1101.740636360533
 30
0.0
 11
1597.898577134381
 21
1103.713761270499
 31
0.0
  0
LINE
  5
893
330
815
100
AcDbEntity
  8
0
  6
Continuous
 62
     7
370
    15
100
AcDbLine
 10
1598.003392692947
 20
1102.985820801967
 30
0.0
 11
1597.898577134381
 21
1103.713761270499
 31
0.0
  0
LINE
  5
894
330
815
100
AcDbEntity
  8
0
  6
Continuous
 62
     7
370
    15
100
AcDbLine
 10
1597.898577134381
 20
1103.713761270499
 30
0.0
 11
1601.390836756283
 21
1103.7137612705
 31
0.0
  0
ARC
  5
895
330
815
100
AcDbEntity
  8
0
  6
Continuous
 62
     7
370
    15
100
AcDbCircle
 10
1597.453392692947
 20
1104.135820801967
 30
0.0
 40
3.960000000000014
100
AcDbArc
 50
343.1178531238163
 51
353.8817554899463
  0
LINE
  5
896
330
815
100
AcDbEntity
  8
0
  6
Continuous
 62
     7
370
    15
100
AcDbLine
 10
1534.403392692947
 20
1105.285820801966
 30
0.0
 11
1534.403392692946
 21
1106.635820801966
 31
0.0
  0
LINE
  5
897
330
815
100
AcDbEntity
  8
0
  6
Continuous
 62
     7
370
    15
100
AcDbLine
 10
1534.403392692946
 20
1105.285820801966
 30
0.0
 11
1531.164052380967
 21
1105.285820801966
 31
0.0
  0
ARC
  5
898
330
815
100
AcDbEntity
  8
0
  6
Continuous
 62
     7
370
    15
100
AcDbCircle
 10
1534.953392692947
 20
1104.135820801967
 30
0.0
 40
3.959999999999989
100
AcDbArc
 50
16.88214687621242
 51
163.11785312381
  0
LINE
  5
899
330
815
100
AcDbEntity
  8
0
  6
Continuous
 62
     7
370
    15
100
AcDbLine
 10
1535.503392692947
 20
1105.285820801967
 30
0.0
 11
1538.742733004927
 21
1105.285820801968
 31
0.0
  0
LINE
  5
89A
330
815
100
AcDbEntity
  8
0
  6
Continuous
 62
     7
370
    15
100
AcDbLine
 10
1535.503392692947
 20
1105.285820801967
 30
0.0
 11
1535.503392692947
 21
1106.635820801967
 31
0.0
  0
LINE
  5
89B
330
815
100
AcDbEntity
  8
0
  6
Continuous
 62
     7
370
    15
100
AcDbLine
 10
1534.403392692946
 20
1106.635820801966
 30
0.0
 11
1535.503392692946
 21
1106.635820801967
 31
0.0
  0
LINE
  5
89C
330
815
100
AcDbEntity
  8
0
  6
Continuous
 62
     7
370
    15
100
AcDbLine
 10
1546.903392692947
 20
1105.285820801966
 30
0.0
 11
1546.903392692946
 21
1106.635820801966
 31
0.0
  0
LINE
  5
89D
330
815
100
AcDbEntity
  8
0
  6
Continuous
 62
     7
370
    15
100
AcDbLine
 10
1546.903392692946
 20
1105.285820801966
 30
0.0
 11
1543.664052380967
 21
1105.285820801966
 31
0.0
  0
ARC
  5
89E
330
815
100
AcDbEntity
  8
0
  6
Continuous
 62
     7
370
    15
100
AcDbCircle
 10
1547.453392692947
 20
1104.135820801967
 30
0.0
 40
3.960000000000017
100
AcDbArc
 50
16.88214687621242
 51
163.11785312381
  0
LINE
  5
89F
330
815
100
AcDbEntity
  8
0
  6
Continuous
 62
     7
370
    15
100
AcDbLine
 10
1548.003392692947
 20
1105.285820801967
 30
0.0
 11
1551.242733004927
 21
1105.285820801968
 31
0.0
  0
LINE
  5
8A0
330
815
100
AcDbEntity
  8
0
  6
Continuous
 62
     7
370
    15
100
AcDbLine
 10
1548.003392692947
 20
1105.285820801967
 30
0.0
 11
1548.003392692947
 21
1106.635820801967
 31
0.0
  0
LINE
  5
8A1
330
815
100
AcDbEntity
  8
0
  6
Continuous
 62
     7
370
    15
100
AcDbLine
 10
1546.903392692946
 20
1106.635820801966
 30
0.0
 11
1548.003392692947
 21
1106.635820801967
 31
0.0
  0
LINE
  5
8A2
330
815
100
AcDbEntity
  8
0
  6
Continuous
 62
     7
370
    15
100
AcDbLine
 10
1584.403392692947
 20
1105.285820801966
 30
0.0
 11
1584.403392692946
 21
1106.635820801966
 31
0.0
  0
LINE
  5
8A3
330
815
100
AcDbEntity
  8
0
  6
Continuous
 62
     7
370
    15
100
AcDbLine
 10
1584.403392692946
 20
1105.285820801966
 30
0.0
 11
1581.164052380967
 21
1105.285820801966
 31
0.0
  0
ARC
  5
8A4
330
815
100
AcDbEntity
  8
0
  6
Continuous
 62
     7
370
    15
100
AcDbCircle
 10
1584.953392692947
 20
1104.135820801967
 30
0.0
 40
3.960000000000012
100
AcDbArc
 50
16.88214687621242
 51
163.11785312381
  0
LINE
  5
8A5
330
815
100
AcDbEntity
  8
0
  6
Continuous
 62
     7
370
    15
100
AcDbLine
 10
1585.503392692947
 20
1105.285820801967
 30
0.0
 11
1588.742733004927
 21
1105.285820801968
 31
0.0
  0
LINE
  5
8A6
330
815
100
AcDbEntity
  8
0
  6
Continuous
 62
     7
370
    15
100
AcDbLine
 10
1585.503392692947
 20
1105.285820801967
 30
0.0
 11
1585.503392692947
 21
1106.635820801967
 31
0.0
  0
LINE
  5
8A7
330
815
100
AcDbEntity
  8
0
  6
Continuous
 62
     7
370
    15
100
AcDbLine
 10
1584.403392692946
 20
1106.635820801966
 30
0.0
 11
1585.503392692947
 21
1106.635820801967
 31
0.0
  0
LINE
  5
8A8
330
815
100
AcDbEntity
  8
0
  6
Continuous
 62
     7
370
    15
100
AcDbLine
 10
1546.903392692946
 20
1106.635820801966
 30
0.0
 11
1547.008208251513
 21
1106.5310052434
 31
0.0
  0
LINE
  5
8A9
330
815
100
AcDbEntity
  8
0
  6
Continuous
 62
     7
370
    15
100
AcDbLine
 10
1547.008208251513
 20
1104.557880333433
 30
0.0
 11
1547.008208251513
 21
1106.5310052434
 31
0.0
  0
LINE
  5
8AA
330
815
100
AcDbEntity
  8
0
  6
Continuous
 62
     7
370
    15
100
AcDbLine
 10
1546.903392692947
 20
1105.285820801966
 30
0.0
 11
1547.008208251513
 21
1104.557880333434
 31
0.0
  0
LINE
  5
8AB
330
815
100
AcDbEntity
  8
0
  6
Continuous
 62
     7
370
    15
100
AcDbLine
 10
1584.403392692946
 20
1106.635820801966
 30
0.0
 11
1584.508208251513
 21
1106.5310052434
 31
0.0
  0
LINE
  5
8AC
330
815
100
AcDbEntity
  8
0
  6
Continuous
 62
     7
370
    15
100
AcDbLine
 10
1584.508208251513
 20
1104.557880333433
 30
0.0
 11
1584.508208251513
 21
1106.5310052434
 31
0.0
  0
LINE
  5
8AD
330
815
100
AcDbEntity
  8
0
  6
Continuous
 62
     7
370
    15
100
AcDbLine
 10
1584.403392692947
 20
1105.285820801966
 30
0.0
 11
1584.508208251513
 21
1104.557880333434
 31
0.0
  0
LINE
  5
8AE
330
815
100
AcDbEntity
  8
0
  6
Continuous
 62
     7
370
    15
100
AcDbLine
 10
1534.403392692946
 20
1106.635820801966
 30
0.0
 11
1534.508208251513
 21
1106.5310052434
 31
0.0
  0
LINE
  5
8AF
330
815
100
AcDbEntity
  8
0
  6
Continuous
 62
     7
370
    15
100
AcDbLine
 10
1534.508208251513
 20
1104.557880333433
 30
0.0
 11
1534.508208251513
 21
1106.5310052434
 31
0.0
  0
LINE
  5
8B0
330
815
100
AcDbEntity
  8
0
  6
Continuous
 62
     7
370
    15
100
AcDbLine
 10
1534.403392692947
 20
1105.285820801966
 30
0.0
 11
1534.508208251513
 21
1104.557880333434
 31
0.0
  0
LINE
  5
8B1
330
815
100
AcDbEntity
  8
0
  6
Continuous
 62
     7
370
    15
100
AcDbLine
 10
1534.508208251513
 20
1104.557880333434
 30
0.0
 11
1531.015948629611
 21
1104.557880333433
 31
0.0
  0
ARC
  5
8B2
330
815
100
AcDbEntity
  8
0
  6
Continuous
 62
     7
370
    15
100
AcDbCircle
 10
1534.953392692947
 20
1104.135820801967
 30
0.0
 40
3.960000000000014
100
AcDbArc
 50
163.11785312381
 51
173.8817554899462
  0
LINE
  5
8B3
330
815
100
AcDbEntity
  8
0
  6
Continuous
 62
     7
370
    15
100
AcDbLine
 10
1584.508208251513
 20
1104.557880333434
 30
0.0
 11
1581.015948629612
 21
1104.557880333433
 31
0.0
  0
ARC
  5
8B4
330
815
100
AcDbEntity
  8
0
  6
Continuous
 62
     7
370
    15
100
AcDbCircle
 10
1584.953392692947
 20
1104.135820801967
 30
0.0
 40
3.960000000000003
100
AcDbArc
 50
163.11785312381
 51
173.8817554899462
  0
LINE
  5
8B5
330
815
100
AcDbEntity
  8
0
  6
Continuous
 62
     7
370
    15
100
AcDbLine
 10
1547.008208251513
 20
1104.557880333434
 30
0.0
 11
1543.515948629611
 21
1104.557880333433
 31
0.0
  0
ARC
  5
8B6
330
815
100
AcDbEntity
  8
0
  6
Continuous
 62
     7
370
    15
100
AcDbCircle
 10
1547.453392692947
 20
1104.135820801967
 30
0.0
 40
3.960000000000017
100
AcDbArc
 50
163.11785312381
 51
173.8817554899462
  0
LINE
  5
8B7
330
815
100
AcDbEntity
  8
0
  6
Continuous
 62
     7
370
    15
100
AcDbLine
 10
1535.503392692947
 20
1102.985820801967
 30
0.0
 11
1535.398577134381
 21
1103.713761270499
 31
0.0
  0
LINE
  5
8B8
330
815
100
AcDbEntity
  8
0
  6
Continuous
 62
     7
370
    15
100
AcDbLine
 10
1535.398577134381
 20
1103.713761270499
 30
0.0
 11
1538.890836756283
 21
1103.7137612705
 31
0.0
  0
ARC
  5
8B9
330
815
100
AcDbEntity
  8
0
  6
Continuous
 62
     7
370
    15
100
AcDbCircle
 10
1534.953392692947
 20
1104.135820801967
 30
0.0
 40
3.960000000000014
100
AcDbArc
 50
343.1178531238163
 51
353.8817554899463
  0
LINE
  5
8BA
330
815
100
AcDbEntity
  8
0
  6
Continuous
 62
     7
370
    15
100
AcDbLine
 10
1560.503392692948
 20
1102.985820801967
 30
0.0
 11
1560.398577134381
 21
1103.713761270499
 31
0.0
  0
LINE
  5
8BB
330
815
100
AcDbEntity
  8
0
  6
Continuous
 62
     7
370
    15
100
AcDbLine
 10
1560.398577134381
 20
1103.713761270499
 30
0.0
 11
1563.890836756283
 21
1103.7137612705
 31
0.0
  0
ARC
  5
8BC
330
815
100
AcDbEntity
  8
0
  6
Continuous
 62
     7
370
    15
100
AcDbCircle
 10
1559.953392692947
 20
1104.135820801967
 30
0.0
 40
3.960000000000014
100
AcDbArc
 50
343.1178531238163
 51
353.8817554899463
  0
LINE
  5
8BD
330
815
100
AcDbEntity
  8
0
  6
Continuous
 62
     7
370
    15
100
AcDbLine
 10
1560.503392692948
 20
1101.635820801967
 30
0.0
 11
1560.398577134382
 21
1101.740636360533
 31
0.0
  0
LINE
  5
8BE
330
815
100
AcDbEntity
  8
0
  6
Continuous
 62
     7
370
    15
100
AcDbLine
 10
1560.398577134382
 20
1101.740636360533
 30
0.0
 11
1560.398577134381
 21
1103.713761270499
 31
0.0
  0
LINE
  5
8BF
330
815
100
AcDbEntity
  8
0
  6
Continuous
 62
     7
370
    15
100
AcDbLine
 10
1573.003392692948
 20
1102.985820801967
 30
0.0
 11
1572.898577134381
 21
1103.713761270499
 31
0.0
  0
LINE
  5
8C0
330
815
100
AcDbEntity
  8
0
  6
Continuous
 62
     7
370
    15
100
AcDbLine
 10
1572.898577134381
 20
1103.713761270499
 30
0.0
 11
1576.390836756283
 21
1103.7137612705
 31
0.0
  0
ARC
  5
8C1
330
815
100
AcDbEntity
  8
0
  6
Continuous
 62
     7
370
    15
100
AcDbCircle
 10
1572.453392692947
 20
1104.135820801967
 30
0.0
 40
3.959999999999999
100
AcDbArc
 50
343.1178531238163
 51
353.8817554899463
  0
LINE
  5
8C2
330
815
100
AcDbEntity
  8
0
  6
Continuous
 62
     7
370
    15
100
AcDbLine
 10
1548.003392692948
 20
1102.985820801967
 30
0.0
 11
1547.898577134381
 21
1103.713761270499
 31
0.0
  0
LINE
  5
8C3
330
815
100
AcDbEntity
  8
0
  6
Continuous
 62
     7
370
    15
100
AcDbLine
 10
1547.898577134381
 20
1103.713761270499
 30
0.0
 11
1551.390836756283
 21
1103.7137612705
 31
0.0
  0
ARC
  5
8C4
330
815
100
AcDbEntity
  8
0
  6
Continuous
 62
     7
370
    15
100
AcDbCircle
 10
1547.453392692947
 20
1104.135820801967
 30
0.0
 40
3.960000000000014
100
AcDbArc
 50
343.1178531238163
 51
353.8817554899463
  0
LINE
  5
8C5
330
815
100
AcDbEntity
  8
0
  6
Continuous
 62
     7
370
    15
100
AcDbLine
 10
1548.003392692948
 20
1101.635820801967
 30
0.0
 11
1547.898577134382
 21
1101.740636360533
 31
0.0
  0
LINE
  5
8C6
330
815
100
AcDbEntity
  8
0
  6
Continuous
 62
     7
370
    15
100
AcDbLine
 10
1547.898577134382
 20
1101.740636360533
 30
0.0
 11
1547.898577134381
 21
1103.713761270499
 31
0.0
  0
LINE
  5
8C7
330
815
100
AcDbEntity
  8
0
  6
Continuous
 62
     7
370
    15
100
AcDbLine
 10
1573.003392692948
 20
1101.635820801967
 30
0.0
 11
1572.898577134382
 21
1101.740636360533
 31
0.0
  0
LINE
  5
8C8
330
815
100
AcDbEntity
  8
0
  6
Continuous
 62
     7
370
    15
100
AcDbLine
 10
1572.898577134382
 20
1101.740636360533
 30
0.0
 11
1572.898577134381
 21
1103.713761270499
 31
0.0
  0
LINE
  5
8C9
330
815
100
AcDbEntity
  8
0
  6
Continuous
 62
     7
370
    15
100
AcDbLine
 10
1535.503392692948
 20
1101.635820801967
 30
0.0
 11
1535.398577134382
 21
1101.740636360533
 31
0.0
  0
LINE
  5
8CA
330
815
100
AcDbEntity
  8
0
  6
Continuous
 62
     7
370
    15
100
AcDbLine
 10
1535.398577134382
 20
1101.740636360533
 30
0.0
 11
1535.398577134381
 21
1103.713761270499
 31
0.0
  0
LINE
  5
8CB
330
815
100
AcDbEntity
  8
0
  6
Continuous
 62
     7
370
    15
100
AcDbLine
 10
1547.89857713438
 20
1106.5310052434
 30
0.0
 11
1548.003392692947
 21
1106.635820801967
 31
0.0
  0
LINE
  5
8CC
330
815
100
AcDbEntity
  8
0
  6
Continuous
 62
     7
370
    15
100
AcDbLine
 10
1547.898577134381
 20
1104.557880333434
 30
0.0
 11
1548.003392692947
 21
1105.285820801967
 31
0.0
  0
LINE
  5
8CD
330
815
100
AcDbEntity
  8
0
  6
Continuous
 62
     7
370
    15
100
AcDbLine
 10
1547.89857713438
 20
1106.5310052434
 30
0.0
 11
1547.89857713438
 21
1104.557880333434
 31
0.0
  0
LINE
  5
8CE
330
815
100
AcDbEntity
  8
0
  6
Continuous
 62
     7
370
    15
100
AcDbLine
 10
1535.39857713438
 20
1106.5310052434
 30
0.0
 11
1535.503392692946
 21
1106.635820801967
 31
0.0
  0
LINE
  5
8CF
330
815
100
AcDbEntity
  8
0
  6
Continuous
 62
     7
370
    15
100
AcDbLine
 10
1535.398577134381
 20
1104.557880333434
 30
0.0
 11
1535.503392692947
 21
1105.285820801967
 31
0.0
  0
LINE
  5
8D0
330
815
100
AcDbEntity
  8
0
  6
Continuous
 62
     7
370
    15
100
AcDbLine
 10
1535.39857713438
 20
1106.5310052434
 30
0.0
 11
1535.39857713438
 21
1104.557880333434
 31
0.0
  0
LINE
  5
8D1
330
815
100
AcDbEntity
  8
0
  6
Continuous
 62
     7
370
    15
100
AcDbLine
 10
1547.89857713438
 20
1106.531005243401
 30
0.0
 11
1547.008208251513
 21
1106.5310052434
 31
0.0
  0
LINE
  5
8D2
330
815
100
AcDbEntity
  8
0
  6
Continuous
 62
     7
370
    15
100
AcDbLine
 10
1535.39857713438
 20
1106.531005243401
 30
0.0
 11
1534.508208251513
 21
1106.5310052434
 31
0.0
  0
LINE
  5
8D3
330
815
100
AcDbEntity
  8
0
  6
Continuous
 62
     7
370
    15
100
AcDbLine
 10
1485.503392692948
 20
1101.635820801967
 30
0.0
 11
1485.398577134382
 21
1101.740636360533
 31
0.0
  0
LINE
  5
8D4
330
815
100
AcDbEntity
  8
0
  6
Continuous
 62
     7
370
    15
100
AcDbLine
 10
1485.398577134382
 20
1101.740636360533
 30
0.0
 11
1485.398577134381
 21
1103.713761270499
 31
0.0
  0
LINE
  5
8D5
330
815
100
AcDbEntity
  8
0
  6
Continuous
 62
     7
370
    15
100
AcDbLine
 10
1485.503392692948
 20
1102.985820801967
 30
0.0
 11
1485.398577134381
 21
1103.713761270499
 31
0.0
  0
LINE
  5
8D6
330
815
100
AcDbEntity
  8
0
  6
Continuous
 62
     7
370
    15
100
AcDbLine
 10
1485.398577134381
 20
1103.713761270499
 30
0.0
 11
1488.890836756283
 21
1103.7137612705
 31
0.0
  0
ARC
  5
8D7
330
815
100
AcDbEntity
  8
0
  6
Continuous
 62
     7
370
    15
100
AcDbCircle
 10
1484.953392692947
 20
1104.135820801967
 30
0.0
 40
3.960000000000014
100
AcDbArc
 50
343.1178531238163
 51
353.8817554899463
  0
LINE
  5
8D8
330
815
100
AcDbEntity
  8
0
  6
Continuous
 62
     7
370
    15
100
AcDbLine
 10
1509.403392692947
 20
1105.285820801966
 30
0.0
 11
1509.403392692946
 21
1106.635820801966
 31
0.0
  0
LINE
  5
8D9
330
815
100
AcDbEntity
  8
0
  6
Continuous
 62
     7
370
    15
100
AcDbLine
 10
1509.403392692946
 20
1105.285820801966
 30
0.0
 11
1506.164052380967
 21
1105.285820801966
 31
0.0
  0
ARC
  5
8DA
330
815
100
AcDbEntity
  8
0
  6
Continuous
 62
     7
370
    15
100
AcDbCircle
 10
1509.953392692947
 20
1104.135820801967
 30
0.0
 40
3.960000000000044
100
AcDbArc
 50
16.88214687621242
 51
163.1178531238163
  0
LINE
  5
8DB
330
815
100
AcDbEntity
  8
0
  6
Continuous
 62
     7
370
    15
100
AcDbLine
 10
1510.503392692947
 20
1105.285820801967
 30
0.0
 11
1513.742733004927
 21
1105.285820801968
 31
0.0
  0
LINE
  5
8DC
330
815
100
AcDbEntity
  8
0
  6
Continuous
 62
     7
370
    15
100
AcDbLine
 10
1510.503392692947
 20
1105.285820801967
 30
0.0
 11
1510.503392692947
 21
1106.635820801967
 31
0.0
  0
LINE
  5
8DD
330
815
100
AcDbEntity
  8
0
  6
Continuous
 62
     7
370
    15
100
AcDbLine
 10
1509.403392692946
 20
1106.635820801966
 30
0.0
 11
1510.503392692947
 21
1106.635820801967
 31
0.0
  0
LINE
  5
8DE
330
815
100
AcDbEntity
  8
0
  6
Continuous
 62
     7
370
    15
100
AcDbLine
 10
1509.403392692946
 20
1106.635820801966
 30
0.0
 11
1509.508208251513
 21
1106.5310052434
 31
0.0
  0
LINE
  5
8DF
330
815
100
AcDbEntity
  8
0
  6
Continuous
 62
     7
370
    15
100
AcDbLine
 10
1509.508208251513
 20
1104.557880333433
 30
0.0
 11
1509.508208251513
 21
1106.5310052434
 31
0.0
  0
LINE
  5
8E0
330
815
100
AcDbEntity
  8
0
  6
Continuous
 62
     7
370
    15
100
AcDbLine
 10
1509.403392692947
 20
1105.285820801966
 30
0.0
 11
1509.508208251513
 21
1104.557880333434
 31
0.0
  0
LINE
  5
8E1
330
815
100
AcDbEntity
  8
0
  6
Continuous
 62
     7
370
    15
100
AcDbLine
 10
1509.508208251513
 20
1104.557880333434
 30
0.0
 11
1506.015948629611
 21
1104.557880333433
 31
0.0
  0
ARC
  5
8E2
330
815
100
AcDbEntity
  8
0
  6
Continuous
 62
     7
370
    15
100
AcDbCircle
 10
1509.953392692947
 20
1104.135820801967
 30
0.0
 40
3.960000000000044
100
AcDbArc
 50
163.1178531238163
 51
173.8817554899462
  0
LINE
  5
8E3
330
815
100
AcDbEntity
  8
0
  6
Continuous
 62
     7
370
    15
100
AcDbLine
 10
1523.003392692948
 20
1102.985820801967
 30
0.0
 11
1522.898577134381
 21
1103.713761270499
 31
0.0
  0
LINE
  5
8E4
330
815
100
AcDbEntity
  8
0
  6
Continuous
 62
     7
370
    15
100
AcDbLine
 10
1522.898577134381
 20
1103.713761270499
 30
0.0
 11
1526.390836756283
 21
1103.7137612705
 31
0.0
  0
ARC
  5
8E5
330
815
100
AcDbEntity
  8
0
  6
Continuous
 62
     7
370
    15
100
AcDbCircle
 10
1522.453392692947
 20
1104.135820801967
 30
0.0
 40
3.960000000000008
100
AcDbArc
 50
343.1178531238163
 51
353.8817554899463
  0
LINE
  5
8E6
330
815
100
AcDbEntity
  8
0
  6
Continuous
 62
     7
370
    15
100
AcDbLine
 10
1523.003392692948
 20
1101.635820801967
 30
0.0
 11
1522.898577134382
 21
1101.740636360533
 31
0.0
  0
LINE
  5
8E7
330
815
100
AcDbEntity
  8
0
  6
Continuous
 62
     7
370
    15
100
AcDbLine
 10
1522.898577134382
 20
1101.740636360533
 30
0.0
 11
1522.898577134381
 21
1103.713761270499
 31
0.0
  0
LINE
  5
8E8
330
815
100
AcDbEntity
  8
0
  6
Continuous
 62
     7
370
    15
100
AcDbLine
 10
1498.003392692948
 20
1102.985820801967
 30
0.0
 11
1497.898577134381
 21
1103.713761270499
 31
0.0
  0
LINE
  5
8E9
330
815
100
AcDbEntity
  8
0
  6
Continuous
 62
     7
370
    15
100
AcDbLine
 10
1497.898577134381
 20
1103.713761270499
 30
0.0
 11
1501.390836756283
 21
1103.7137612705
 31
0.0
  0
ARC
  5
8EA
330
815
100
AcDbEntity
  8
0
  6
Continuous
 62
     7
370
    15
100
AcDbCircle
 10
1497.453392692947
 20
1104.135820801967
 30
0.0
 40
3.960000000000014
100
AcDbArc
 50
343.1178531238163
 51
353.8817554899463
  0
LINE
  5
8EB
330
815
100
AcDbEntity
  8
0
  6
Continuous
 62
     7
370
    15
100
AcDbLine
 10
1510.503392692948
 20
1101.635820801967
 30
0.0
 11
1510.398577134382
 21
1101.740636360533
 31
0.0
  0
LINE
  5
8EC
330
815
100
AcDbEntity
  8
0
  6
Continuous
 62
     7
370
    15
100
AcDbLine
 10
1510.398577134382
 20
1101.740636360533
 30
0.0
 11
1510.398577134381
 21
1103.713761270499
 31
0.0
  0
LINE
  5
8ED
330
815
100
AcDbEntity
  8
0
  6
Continuous
 62
     7
370
    15
100
AcDbLine
 10
1510.503392692948
 20
1102.985820801967
 30
0.0
 11
1510.398577134381
 21
1103.713761270499
 31
0.0
  0
LINE
  5
8EE
330
815
100
AcDbEntity
  8
0
  6
Continuous
 62
     7
370
    15
100
AcDbLine
 10
1510.398577134381
 20
1103.713761270499
 30
0.0
 11
1513.890836756283
 21
1103.7137612705
 31
0.0
  0
ARC
  5
8EF
330
815
100
AcDbEntity
  8
0
  6
Continuous
 62
     7
370
    15
100
AcDbCircle
 10
1509.953392692947
 20
1104.135820801967
 30
0.0
 40
3.959999999999986
100
AcDbArc
 50
343.1178531238163
 51
353.8817554899463
  0
LINE
  5
8F0
330
815
100
AcDbEntity
  8
0
  6
Continuous
 62
     7
370
    15
100
AcDbLine
 10
1498.003392692948
 20
1101.635820801967
 30
0.0
 11
1497.898577134382
 21
1101.740636360533
 31
0.0
  0
LINE
  5
8F1
330
815
100
AcDbEntity
  8
0
  6
Continuous
 62
     7
370
    15
100
AcDbLine
 10
1497.898577134382
 20
1101.740636360533
 30
0.0
 11
1497.898577134381
 21
1103.713761270499
 31
0.0
  0
LINE
  5
8F2
330
815
100
AcDbEntity
  8
0
  6
Continuous
 62
     7
370
    15
100
AcDbLine
 10
1521.903392692947
 20
1105.285820801966
 30
0.0
 11
1521.903392692946
 21
1106.635820801966
 31
0.0
  0
LINE
  5
8F3
330
815
100
AcDbEntity
  8
0
  6
Continuous
 62
     7
370
    15
100
AcDbLine
 10
1521.903392692946
 20
1105.285820801966
 30
0.0
 11
1518.664052380967
 21
1105.285820801966
 31
0.0
  0
ARC
  5
8F4
330
815
100
AcDbEntity
  8
0
  6
Continuous
 62
     7
370
    15
100
AcDbCircle
 10
1522.453392692947
 20
1104.135820801967
 30
0.0
 40
3.960000000000012
100
AcDbArc
 50
16.88214687621242
 51
163.11785312381
  0
LINE
  5
8F5
330
815
100
AcDbEntity
  8
0
  6
Continuous
 62
     7
370
    15
100
AcDbLine
 10
1523.003392692947
 20
1105.285820801967
 30
0.0
 11
1526.242733004927
 21
1105.285820801968
 31
0.0
  0
LINE
  5
8F6
330
815
100
AcDbEntity
  8
0
  6
Continuous
 62
     7
370
    15
100
AcDbLine
 10
1523.003392692947
 20
1105.285820801967
 30
0.0
 11
1523.003392692947
 21
1106.635820801967
 31
0.0
  0
LINE
  5
8F7
330
815
100
AcDbEntity
  8
0
  6
Continuous
 62
     7
370
    15
100
AcDbLine
 10
1521.903392692946
 20
1106.635820801966
 30
0.0
 11
1523.003392692947
 21
1106.635820801967
 31
0.0
  0
LINE
  5
8F8
330
815
100
AcDbEntity
  8
0
  6
Continuous
 62
     7
370
    15
100
AcDbLine
 10
1496.903392692947
 20
1105.285820801966
 30
0.0
 11
1496.903392692946
 21
1106.635820801966
 31
0.0
  0
LINE
  5
8F9
330
815
100
AcDbEntity
  8
0
  6
Continuous
 62
     7
370
    15
100
AcDbLine
 10
1496.903392692946
 20
1105.285820801966
 30
0.0
 11
1493.664052380967
 21
1105.285820801966
 31
0.0
  0
ARC
  5
8FA
330
815
100
AcDbEntity
  8
0
  6
Continuous
 62
     7
370
    15
100
AcDbCircle
 10
1497.453392692947
 20
1104.135820801967
 30
0.0
 40
3.960000000000039
100
AcDbArc
 50
16.88214687621242
 51
163.11785312381
  0
LINE
  5
8FB
330
815
100
AcDbEntity
  8
0
  6
Continuous
 62
     7
370
    15
100
AcDbLine
 10
1498.003392692947
 20
1105.285820801967
 30
0.0
 11
1501.242733004927
 21
1105.285820801968
 31
0.0
  0
LINE
  5
8FC
330
815
100
AcDbEntity
  8
0
  6
Continuous
 62
     7
370
    15
100
AcDbLine
 10
1498.003392692947
 20
1105.285820801967
 30
0.0
 11
1498.003392692947
 21
1106.635820801967
 31
0.0
  0
LINE
  5
8FD
330
815
100
AcDbEntity
  8
0
  6
Continuous
 62
     7
370
    15
100
AcDbLine
 10
1496.903392692946
 20
1106.635820801966
 30
0.0
 11
1498.003392692946
 21
1106.635820801967
 31
0.0
  0
LINE
  5
8FE
330
815
100
AcDbEntity
  8
0
  6
Continuous
 62
     7
370
    15
100
AcDbLine
 10
1497.89857713438
 20
1106.5310052434
 30
0.0
 11
1498.003392692946
 21
1106.635820801967
 31
0.0
  0
LINE
  5
8FF
330
815
100
AcDbEntity
  8
0
  6
Continuous
 62
     7
370
    15
100
AcDbLine
 10
1497.898577134381
 20
1104.557880333434
 30
0.0
 11
1498.003392692947
 21
1105.285820801967
 31
0.0
  0
LINE
  5
900
330
815
100
AcDbEntity
  8
0
  6
Continuous
 62
     7
370
    15
100
AcDbLine
 10
1497.89857713438
 20
1106.5310052434
 30
0.0
 11
1497.89857713438
 21
1104.557880333434
 31
0.0
  0
LINE
  5
901
330
815
100
AcDbEntity
  8
0
  6
Continuous
 62
     7
370
    15
100
AcDbLine
 10
1522.89857713438
 20
1106.5310052434
 30
0.0
 11
1523.003392692946
 21
1106.635820801967
 31
0.0
  0
LINE
  5
902
330
815
100
AcDbEntity
  8
0
  6
Continuous
 62
     7
370
    15
100
AcDbLine
 10
1522.89857713438
 20
1106.531005243401
 30
0.0
 11
1522.008208251513
 21
1106.5310052434
 31
0.0
  0
LINE
  5
903
330
815
100
AcDbEntity
  8
0
  6
Continuous
 62
     7
370
    15
100
AcDbLine
 10
1521.903392692946
 20
1106.635820801966
 30
0.0
 11
1522.008208251513
 21
1106.5310052434
 31
0.0
  0
LINE
  5
904
330
815
100
AcDbEntity
  8
0
  6
Continuous
 62
     7
370
    15
100
AcDbLine
 10
1522.898577134381
 20
1104.557880333434
 30
0.0
 11
1523.003392692947
 21
1105.285820801967
 31
0.0
  0
LINE
  5
905
330
815
100
AcDbEntity
  8
0
  6
Continuous
 62
     7
370
    15
100
AcDbLine
 10
1522.89857713438
 20
1106.5310052434
 30
0.0
 11
1522.89857713438
 21
1104.557880333434
 31
0.0
  0
LINE
  5
906
330
815
100
AcDbEntity
  8
0
  6
Continuous
 62
     7
370
    15
100
AcDbLine
 10
1497.89857713438
 20
1106.531005243401
 30
0.0
 11
1497.008208251513
 21
1106.5310052434
 31
0.0
  0
LINE
  5
907
330
815
100
AcDbEntity
  8
0
  6
Continuous
 62
     7
370
    15
100
AcDbLine
 10
1496.903392692946
 20
1106.635820801966
 30
0.0
 11
1497.008208251513
 21
1106.5310052434
 31
0.0
  0
LINE
  5
908
330
815
100
AcDbEntity
  8
0
  6
Continuous
 62
     7
370
    15
100
AcDbLine
 10
1484.403392692947
 20
1105.285820801966
 30
0.0
 11
1484.403392692946
 21
1106.635820801966
 31
0.0
  0
LINE
  5
909
330
815
100
AcDbEntity
  8
0
  6
Continuous
 62
     7
370
    15
100
AcDbLine
 10
1484.403392692946
 20
1105.285820801966
 30
0.0
 11
1481.164052380967
 21
1105.285820801966
 31
0.0
  0
ARC
  5
90A
330
815
100
AcDbEntity
  8
0
  6
Continuous
 62
     7
370
    15
100
AcDbCircle
 10
1484.953392692947
 20
1104.135820801967
 30
0.0
 40
3.960000000000017
100
AcDbArc
 50
16.88214687621242
 51
163.11785312381
  0
LINE
  5
90B
330
815
100
AcDbEntity
  8
0
  6
Continuous
 62
     7
370
    15
100
AcDbLine
 10
1485.503392692947
 20
1105.285820801967
 30
0.0
 11
1488.742733004927
 21
1105.285820801968
 31
0.0
  0
LINE
  5
90C
330
815
100
AcDbEntity
  8
0
  6
Continuous
 62
     7
370
    15
100
AcDbLine
 10
1485.503392692947
 20
1105.285820801967
 30
0.0
 11
1485.503392692947
 21
1106.635820801967
 31
0.0
  0
LINE
  5
90D
330
815
100
AcDbEntity
  8
0
  6
Continuous
 62
     7
370
    15
100
AcDbLine
 10
1484.403392692946
 20
1106.635820801966
 30
0.0
 11
1485.503392692947
 21
1106.635820801967
 31
0.0
  0
LINE
  5
90E
330
815
100
AcDbEntity
  8
0
  6
Continuous
 62
     7
370
    15
100
AcDbLine
 10
1484.403392692946
 20
1106.635820801966
 30
0.0
 11
1484.508208251513
 21
1106.5310052434
 31
0.0
  0
LINE
  5
90F
330
815
100
AcDbEntity
  8
0
  6
Continuous
 62
     7
370
    15
100
AcDbLine
 10
1484.508208251513
 20
1104.557880333433
 30
0.0
 11
1484.508208251513
 21
1106.5310052434
 31
0.0
  0
LINE
  5
910
330
815
100
AcDbEntity
  8
0
  6
Continuous
 62
     7
370
    15
100
AcDbLine
 10
1484.403392692947
 20
1105.285820801966
 30
0.0
 11
1484.508208251513
 21
1104.557880333434
 31
0.0
  0
LINE
  5
911
330
815
100
AcDbEntity
  8
0
  6
Continuous
 62
     7
370
    15
100
AcDbLine
 10
1497.008208251513
 20
1104.557880333433
 30
0.0
 11
1497.008208251513
 21
1106.5310052434
 31
0.0
  0
LINE
  5
912
330
815
100
AcDbEntity
  8
0
  6
Continuous
 62
     7
370
    15
100
AcDbLine
 10
1496.903392692947
 20
1105.285820801966
 30
0.0
 11
1497.008208251513
 21
1104.557880333434
 31
0.0
  0
LINE
  5
913
330
815
100
AcDbEntity
  8
0
  6
Continuous
 62
     7
370
    15
100
AcDbLine
 10
1484.508208251513
 20
1104.557880333434
 30
0.0
 11
1481.015948629611
 21
1104.557880333433
 31
0.0
  0
ARC
  5
914
330
815
100
AcDbEntity
  8
0
  6
Continuous
 62
     7
370
    15
100
AcDbCircle
 10
1484.953392692947
 20
1104.135820801967
 30
0.0
 40
3.960000000000017
100
AcDbArc
 50
163.11785312381
 51
173.8817554899462
  0
LINE
  5
915
330
815
100
AcDbEntity
  8
0
  6
Continuous
 62
     7
370
    15
100
AcDbLine
 10
1497.008208251513
 20
1104.557880333434
 30
0.0
 11
1493.515948629611
 21
1104.557880333433
 31
0.0
  0
ARC
  5
916
330
815
100
AcDbEntity
  8
0
  6
Continuous
 62
     7
370
    15
100
AcDbCircle
 10
1497.453392692947
 20
1104.135820801967
 30
0.0
 40
3.959999999999989
100
AcDbArc
 50
163.11785312381
 51
173.8817554899462
  0
LINE
  5
917
330
815
100
AcDbEntity
  8
0
  6
Continuous
 62
     7
370
    15
100
AcDbLine
 10
1596.903392692947
 20
1105.285820801966
 30
0.0
 11
1596.903392692946
 21
1106.635820801966
 31
0.0
  0
LINE
  5
918
330
815
100
AcDbEntity
  8
0
  6
Continuous
 62
     7
370
    15
100
AcDbLine
 10
1596.903392692946
 20
1105.285820801966
 30
0.0
 11
1593.664052380967
 21
1105.285820801966
 31
0.0
  0
ARC
  5
919
330
815
100
AcDbEntity
  8
0
  6
Continuous
 62
     7
370
    15
100
AcDbCircle
 10
1597.453392692947
 20
1104.135820801967
 30
0.0
 40
3.96000000000003
100
AcDbArc
 50
16.88214687621242
 51
163.11785312381
  0
LINE
  5
91A
330
815
100
AcDbEntity
  8
0
  6
Continuous
 62
     7
370
    15
100
AcDbLine
 10
1598.003392692947
 20
1105.285820801967
 30
0.0
 11
1601.242733004927
 21
1105.285820801968
 31
0.0
  0
LINE
  5
91B
330
815
100
AcDbEntity
  8
0
  6
Continuous
 62
     7
370
    15
100
AcDbLine
 10
1598.003392692947
 20
1105.285820801967
 30
0.0
 11
1598.003392692947
 21
1106.635820801967
 31
0.0
  0
LINE
  5
91C
330
815
100
AcDbEntity
  8
0
  6
Continuous
 62
     7
370
    15
100
AcDbLine
 10
1596.903392692946
 20
1106.635820801966
 30
0.0
 11
1598.003392692947
 21
1106.635820801967
 31
0.0
  0
LINE
  5
91D
330
815
100
AcDbEntity
  8
0
  6
Continuous
 62
     7
370
    15
100
AcDbLine
 10
1559.403392692947
 20
1105.285820801966
 30
0.0
 11
1559.403392692946
 21
1106.635820801966
 31
0.0
  0
LINE
  5
91E
330
815
100
AcDbEntity
  8
0
  6
Continuous
 62
     7
370
    15
100
AcDbLine
 10
1559.403392692946
 20
1105.285820801966
 30
0.0
 11
1556.164052380967
 21
1105.285820801966
 31
0.0
  0
ARC
  5
91F
330
815
100
AcDbEntity
  8
0
  6
Continuous
 62
     7
370
    15
100
AcDbCircle
 10
1559.953392692947
 20
1104.135820801967
 30
0.0
 40
3.960000000000012
100
AcDbArc
 50
16.88214687621242
 51
163.11785312381
  0
LINE
  5
920
330
815
100
AcDbEntity
  8
0
  6
Continuous
 62
     7
370
    15
100
AcDbLine
 10
1560.503392692947
 20
1105.285820801967
 30
0.0
 11
1563.742733004927
 21
1105.285820801968
 31
0.0
  0
LINE
  5
921
330
815
100
AcDbEntity
  8
0
  6
Continuous
 62
     7
370
    15
100
AcDbLine
 10
1560.503392692947
 20
1105.285820801967
 30
0.0
 11
1560.503392692947
 21
1106.635820801967
 31
0.0
  0
LINE
  5
922
330
815
100
AcDbEntity
  8
0
  6
Continuous
 62
     7
370
    15
100
AcDbLine
 10
1559.403392692946
 20
1106.635820801966
 30
0.0
 11
1560.503392692947
 21
1106.635820801967
 31
0.0
  0
LINE
  5
923
330
815
100
AcDbEntity
  8
0
  6
Continuous
 62
     7
370
    15
100
AcDbLine
 10
1522.008208251513
 20
1104.557880333433
 30
0.0
 11
1522.008208251513
 21
1106.5310052434
 31
0.0
  0
LINE
  5
924
330
815
100
AcDbEntity
  8
0
  6
Continuous
 62
     7
370
    15
100
AcDbLine
 10
1521.903392692947
 20
1105.285820801966
 30
0.0
 11
1522.008208251513
 21
1104.557880333434
 31
0.0
  0
LINE
  5
925
330
815
100
AcDbEntity
  8
0
  6
Continuous
 62
     7
370
    15
100
AcDbLine
 10
1596.903392692946
 20
1106.635820801966
 30
0.0
 11
1597.008208251513
 21
1106.5310052434
 31
0.0
  0
LINE
  5
926
330
815
100
AcDbEntity
  8
0
  6
Continuous
 62
     7
370
    15
100
AcDbLine
 10
1597.008208251513
 20
1104.557880333433
 30
0.0
 11
1597.008208251513
 21
1106.5310052434
 31
0.0
  0
LINE
  5
927
330
815
100
AcDbEntity
  8
0
  6
Continuous
 62
     7
370
    15
100
AcDbLine
 10
1596.903392692947
 20
1105.285820801966
 30
0.0
 11
1597.008208251513
 21
1104.557880333434
 31
0.0
  0
LINE
  5
928
330
815
100
AcDbEntity
  8
0
  6
Continuous
 62
     7
370
    15
100
AcDbLine
 10
1559.403392692946
 20
1106.635820801966
 30
0.0
 11
1559.508208251513
 21
1106.5310052434
 31
0.0
  0
LINE
  5
929
330
815
100
AcDbEntity
  8
0
  6
Continuous
 62
     7
370
    15
100
AcDbLine
 10
1559.508208251513
 20
1104.557880333433
 30
0.0
 11
1559.508208251513
 21
1106.5310052434
 31
0.0
  0
LINE
  5
92A
330
815
100
AcDbEntity
  8
0
  6
Continuous
 62
     7
370
    15
100
AcDbLine
 10
1559.403392692947
 20
1105.285820801966
 30
0.0
 11
1559.508208251513
 21
1104.557880333434
 31
0.0
  0
LINE
  5
92B
330
815
100
AcDbEntity
  8
0
  6
Continuous
 62
     7
370
    15
100
AcDbLine
 10
1559.508208251513
 20
1104.557880333434
 30
0.0
 11
1556.015948629611
 21
1104.557880333433
 31
0.0
  0
ARC
  5
92C
330
815
100
AcDbEntity
  8
0
  6
Continuous
 62
     7
370
    15
100
AcDbCircle
 10
1559.953392692947
 20
1104.135820801967
 30
0.0
 40
3.960000000000014
100
AcDbArc
 50
163.11785312381
 51
173.8817554899462
  0
LINE
  5
92D
330
815
100
AcDbEntity
  8
0
  6
Continuous
 62
     7
370
    15
100
AcDbLine
 10
1597.008208251513
 20
1104.557880333434
 30
0.0
 11
1593.515948629612
 21
1104.557880333433
 31
0.0
  0
ARC
  5
92E
330
815
100
AcDbEntity
  8
0
  6
Continuous
 62
     7
370
    15
100
AcDbCircle
 10
1597.453392692947
 20
1104.135820801967
 30
0.0
 40
3.96000000000003
100
AcDbArc
 50
163.11785312381
 51
173.8817554899462
  0
LINE
  5
92F
330
815
100
AcDbEntity
  8
0
  6
Continuous
 62
     7
370
    15
100
AcDbLine
 10
1522.008208251513
 20
1104.557880333434
 30
0.0
 11
1518.515948629611
 21
1104.557880333433
 31
0.0
  0
ARC
  5
930
330
815
100
AcDbEntity
  8
0
  6
Continuous
 62
     7
370
    15
100
AcDbCircle
 10
1522.453392692947
 20
1104.135820801967
 30
0.0
 40
3.959999999999989
100
AcDbArc
 50
163.11785312381
 51
173.8817554899462
  0
LINE
  5
931
330
815
100
AcDbEntity
  8
0
  6
Continuous
 62
     7
370
    15
100
AcDbLine
 10
1585.503392692948
 20
1101.635820801967
 30
0.0
 11
1585.398577134382
 21
1101.740636360533
 31
0.0
  0
LINE
  5
932
330
815
100
AcDbEntity
  8
0
  6
Continuous
 62
     7
370
    15
100
AcDbLine
 10
1585.398577134382
 20
1101.740636360533
 30
0.0
 11
1585.398577134381
 21
1103.713761270499
 31
0.0
  0
LINE
  5
933
330
815
100
AcDbEntity
  8
0
  6
Continuous
 62
     7
370
    15
100
AcDbLine
 10
1585.503392692948
 20
1102.985820801967
 30
0.0
 11
1585.398577134381
 21
1103.713761270499
 31
0.0
  0
LINE
  5
934
330
815
100
AcDbEntity
  8
0
  6
Continuous
 62
     7
370
    15
100
AcDbLine
 10
1585.398577134381
 20
1103.713761270499
 30
0.0
 11
1588.890836756283
 21
1103.7137612705
 31
0.0
  0
ARC
  5
935
330
815
100
AcDbEntity
  8
0
  6
Continuous
 62
     7
370
    15
100
AcDbCircle
 10
1584.953392692947
 20
1104.135820801967
 30
0.0
 40
3.959999999999999
100
AcDbArc
 50
343.1178531238163
 51
353.8817554899463
  0
LINE
  5
936
330
815
100
AcDbEntity
  8
0
  6
Continuous
 62
     7
370
    15
100
AcDbLine
 10
1585.39857713438
 20
1106.5310052434
 30
0.0
 11
1585.503392692946
 21
1106.635820801967
 31
0.0
  0
LINE
  5
937
330
815
100
AcDbEntity
  8
0
  6
Continuous
 62
     7
370
    15
100
AcDbLine
 10
1585.39857713438
 20
1106.531005243401
 30
0.0
 11
1584.508208251513
 21
1106.5310052434
 31
0.0
  0
LINE
  5
938
330
815
100
AcDbEntity
  8
0
  6
Continuous
 62
     7
370
    15
100
AcDbLine
 10
1485.39857713438
 20
1106.5310052434
 30
0.0
 11
1485.503392692946
 21
1106.635820801967
 31
0.0
  0
LINE
  5
939
330
815
100
AcDbEntity
  8
0
  6
Continuous
 62
     7
370
    15
100
AcDbLine
 10
1485.398577134381
 20
1104.557880333434
 30
0.0
 11
1485.503392692947
 21
1105.285820801967
 31
0.0
  0
LINE
  5
93A
330
815
100
AcDbEntity
  8
0
  6
Continuous
 62
     7
370
    15
100
AcDbLine
 10
1485.39857713438
 20
1106.5310052434
 30
0.0
 11
1485.39857713438
 21
1104.557880333434
 31
0.0
  0
LINE
  5
93B
330
815
100
AcDbEntity
  8
0
  6
Continuous
 62
     7
370
    15
100
AcDbLine
 10
1585.398577134381
 20
1104.557880333434
 30
0.0
 11
1585.503392692947
 21
1105.285820801967
 31
0.0
  0
LINE
  5
93C
330
815
100
AcDbEntity
  8
0
  6
Continuous
 62
     7
370
    15
100
AcDbLine
 10
1585.39857713438
 20
1106.5310052434
 30
0.0
 11
1585.39857713438
 21
1104.557880333434
 31
0.0
  0
LINE
  5
93D
330
815
100
AcDbEntity
  8
0
  6
Continuous
 62
     7
370
    15
100
AcDbLine
 10
1560.39857713438
 20
1106.5310052434
 30
0.0
 11
1560.503392692947
 21
1106.635820801967
 31
0.0
  0
LINE
  5
93E
330
815
100
AcDbEntity
  8
0
  6
Continuous
 62
     7
370
    15
100
AcDbLine
 10
1560.398577134381
 20
1104.557880333434
 30
0.0
 11
1560.503392692947
 21
1105.285820801967
 31
0.0
  0
LINE
  5
93F
330
815
100
AcDbEntity
  8
0
  6
Continuous
 62
     7
370
    15
100
AcDbLine
 10
1560.39857713438
 20
1106.5310052434
 30
0.0
 11
1560.39857713438
 21
1104.557880333434
 31
0.0
  0
LINE
  5
940
330
815
100
AcDbEntity
  8
0
  6
Continuous
 62
     7
370
    15
100
AcDbLine
 10
1597.89857713438
 20
1106.5310052434
 30
0.0
 11
1598.003392692947
 21
1106.635820801967
 31
0.0
  0
LINE
  5
941
330
815
100
AcDbEntity
  8
0
  6
Continuous
 62
     7
370
    15
100
AcDbLine
 10
1597.89857713438
 20
1106.531005243401
 30
0.0
 11
1597.008208251513
 21
1106.5310052434
 31
0.0
  0
LINE
  5
942
330
815
100
AcDbEntity
  8
0
  6
Continuous
 62
     7
370
    15
100
AcDbLine
 10
1597.898577134381
 20
1104.557880333434
 30
0.0
 11
1598.003392692947
 21
1105.285820801967
 31
0.0
  0
LINE
  5
943
330
815
100
AcDbEntity
  8
0
  6
Continuous
 62
     7
370
    15
100
AcDbLine
 10
1597.89857713438
 20
1106.5310052434
 30
0.0
 11
1597.89857713438
 21
1104.557880333434
 31
0.0
  0
LINE
  5
944
330
815
100
AcDbEntity
  8
0
  6
Continuous
 62
     7
370
    15
100
AcDbLine
 10
1560.39857713438
 20
1106.531005243401
 30
0.0
 11
1559.508208251513
 21
1106.5310052434
 31
0.0
  0
LINE
  5
945
330
815
100
AcDbEntity
  8
0
  6
Continuous
 62
     7
370
    15
100
AcDbLine
 10
1485.39857713438
 20
1106.531005243401
 30
0.0
 11
1484.508208251513
 21
1106.5310052434
 31
0.0
  0
LINE
  5
946
330
815
100
AcDbEntity
  8
0
  6
Continuous
 62
     7
370
    15
100
AcDbLine
 10
1510.39857713438
 20
1106.5310052434
 30
0.0
 11
1510.503392692946
 21
1106.635820801967
 31
0.0
  0
LINE
  5
947
330
815
100
AcDbEntity
  8
0
  6
Continuous
 62
     7
370
    15
100
AcDbLine
 10
1510.39857713438
 20
1106.531005243401
 30
0.0
 11
1509.508208251513
 21
1106.5310052434
 31
0.0
  0
LINE
  5
948
330
815
100
AcDbEntity
  8
0
  6
Continuous
 62
     7
370
    15
100
AcDbLine
 10
1510.398577134381
 20
1104.557880333434
 30
0.0
 11
1510.503392692947
 21
1105.285820801967
 31
0.0
  0
LINE
  5
949
330
815
100
AcDbEntity
  8
0
  6
Continuous
 62
     7
370
    15
100
AcDbLine
 10
1510.39857713438
 20
1106.5310052434
 30
0.0
 11
1510.39857713438
 21
1104.557880333434
 31
0.0
  0
LINE
  5
94A
330
815
100
AcDbEntity
  8
0
  6
Continuous
 62
     7
370
    15
100
AcDbLine
 10
1572.89857713438
 20
1106.5310052434
 30
0.0
 11
1573.003392692946
 21
1106.635820801967
 31
0.0
  0
LINE
  5
94B
330
815
100
AcDbEntity
  8
0
  6
Continuous
 62
     7
370
    15
100
AcDbLine
 10
1572.898577134381
 20
1104.557880333434
 30
0.0
 11
1573.003392692947
 21
1105.285820801967
 31
0.0
  0
LINE
  5
94C
330
815
100
AcDbEntity
  8
0
  6
Continuous
 62
     7
370
    15
100
AcDbLine
 10
1572.89857713438
 20
1106.5310052434
 30
0.0
 11
1572.89857713438
 21
1104.557880333434
 31
0.0
  0
LINE
  5
94D
330
815
100
AcDbEntity
  8
0
  6
Continuous
 62
     7
370
    15
100
AcDbLine
 10
1572.89857713438
 20
1106.531005243401
 30
0.0
 11
1572.008208251513
 21
1106.5310052434
 31
0.0
  0
LINE
  5
94E
330
815
100
AcDbEntity
  8
0
  6
Continuous
 62
     7
370
    15
100
AcDbLine
 10
1572.898577134382
 20
1101.740636360533
 30
0.0
 11
1572.008208251514
 21
1101.740636360533
 31
0.0
  0
LINE
  5
94F
330
815
100
AcDbEntity
  8
0
  6
Continuous
 62
     7
370
    15
100
AcDbLine
 10
1535.398577134382
 20
1101.740636360533
 30
0.0
 11
1534.508208251514
 21
1101.740636360533
 31
0.0
  0
LINE
  5
950
330
815
100
AcDbEntity
  8
0
  6
Continuous
 62
     7
370
    15
100
AcDbLine
 10
1497.898577134382
 20
1101.740636360533
 30
0.0
 11
1497.008208251514
 21
1101.740636360533
 31
0.0
  0
LINE
  5
951
330
815
100
AcDbEntity
  8
0
  6
Continuous
 62
     7
370
    15
100
AcDbLine
 10
1560.398577134382
 20
1101.740636360533
 30
0.0
 11
1559.508208251514
 21
1101.740636360533
 31
0.0
  0
LINE
  5
952
330
815
100
AcDbEntity
  8
0
  6
Continuous
 62
     7
370
    15
100
AcDbLine
 10
1597.898577134382
 20
1101.740636360533
 30
0.0
 11
1597.008208251514
 21
1101.740636360533
 31
0.0
  0
LINE
  5
953
330
815
100
AcDbEntity
  8
0
  6
Continuous
 62
     7
370
    15
100
AcDbLine
 10
1585.398577134382
 20
1101.740636360533
 30
0.0
 11
1584.508208251514
 21
1101.740636360533
 31
0.0
  0
LINE
  5
954
330
815
100
AcDbEntity
  8
0
  6
Continuous
 62
     7
370
    15
100
AcDbLine
 10
1485.398577134382
 20
1101.740636360533
 30
0.0
 11
1484.508208251514
 21
1101.740636360533
 31
0.0
  0
LINE
  5
955
330
815
100
AcDbEntity
  8
0
  6
Continuous
 62
     7
370
    15
100
AcDbLine
 10
1510.398577134382
 20
1101.740636360533
 30
0.0
 11
1509.508208251514
 21
1101.740636360533
 31
0.0
  0
LINE
  5
956
330
815
100
AcDbEntity
  8
0
  6
Continuous
 62
     7
370
    15
100
AcDbLine
 10
1522.898577134382
 20
1101.740636360533
 30
0.0
 11
1522.008208251514
 21
1101.740636360533
 31
0.0
  0
LINE
  5
957
330
815
100
AcDbEntity
  8
0
  6
Continuous
 62
     7
370
    15
100
AcDbLine
 10
1547.898577134382
 20
1101.740636360533
 30
0.0
 11
1547.008208251514
 21
1101.740636360533
 31
0.0
  0
ARC
  5
958
330
815
100
AcDbEntity
  8
0
  6
Continuous
 62
     7
370
    15
100
AcDbCircle
 10
1522.453392692947
 20
1104.135820801967
 30
0.0
 40
3.960000000000012
100
AcDbArc
 50
6.118244510086123
 51
16.88214687621242
  0
LINE
  5
959
330
815
100
AcDbEntity
  8
0
  6
Continuous
 62
     7
370
    15
100
AcDbLine
 10
1526.390836756283
 20
1104.557880333435
 30
0.0
 11
1522.898577134381
 21
1104.557880333434
 31
0.0
  0
ARC
  5
95A
330
815
100
AcDbEntity
  8
0
  6
Continuous
 62
     7
370
    15
100
AcDbCircle
 10
1559.953392692947
 20
1104.135820801967
 30
0.0
 40
3.960000000000012
100
AcDbArc
 50
6.118244510086123
 51
16.88214687621242
  0
LINE
  5
95B
330
815
100
AcDbEntity
  8
0
  6
Continuous
 62
     7
370
    15
100
AcDbLine
 10
1563.890836756283
 20
1104.557880333435
 30
0.0
 11
1560.398577134381
 21
1104.557880333434
 31
0.0
  0
ARC
  5
95C
330
815
100
AcDbEntity
  8
0
  6
Continuous
 62
     7
370
    15
100
AcDbCircle
 10
1572.453392692947
 20
1104.135820801967
 30
0.0
 40
3.960000000000012
100
AcDbArc
 50
6.118244510086123
 51
16.88214687621242
  0
LINE
  5
95D
330
815
100
AcDbEntity
  8
0
  6
Continuous
 62
     7
370
    15
100
AcDbLine
 10
1576.390836756283
 20
1104.557880333435
 30
0.0
 11
1572.898577134381
 21
1104.557880333434
 31
0.0
  0
ARC
  5
95E
330
815
100
AcDbEntity
  8
0
  6
Continuous
 62
     7
370
    15
100
AcDbCircle
 10
1509.953392692947
 20
1104.135820801967
 30
0.0
 40
3.960000000000012
100
AcDbArc
 50
6.118244510086123
 51
16.88214687621242
  0
LINE
  5
95F
330
815
100
AcDbEntity
  8
0
  6
Continuous
 62
     7
370
    15
100
AcDbLine
 10
1513.890836756283
 20
1104.557880333435
 30
0.0
 11
1510.398577134381
 21
1104.557880333434
 31
0.0
  0
ARC
  5
960
330
815
100
AcDbEntity
  8
0
  6
Continuous
 62
     7
370
    15
100
AcDbCircle
 10
1597.453392692947
 20
1104.135820801967
 30
0.0
 40
3.960000000000012
100
AcDbArc
 50
6.118244510086123
 51
16.88214687621242
  0
LINE
  5
961
330
815
100
AcDbEntity
  8
0
  6
Continuous
 62
     7
370
    15
100
AcDbLine
 10
1601.390836756283
 20
1104.557880333435
 30
0.0
 11
1597.898577134381
 21
1104.557880333434
 31
0.0
  0
ARC
  5
962
330
815
100
AcDbEntity
  8
0
  6
Continuous
 62
     7
370
    15
100
AcDbCircle
 10
1584.953392692947
 20
1104.135820801967
 30
0.0
 40
3.960000000000012
100
AcDbArc
 50
6.118244510086123
 51
16.88214687621242
  0
LINE
  5
963
330
815
100
AcDbEntity
  8
0
  6
Continuous
 62
     7
370
    15
100
AcDbLine
 10
1588.890836756283
 20
1104.557880333435
 30
0.0
 11
1585.398577134381
 21
1104.557880333434
 31
0.0
  0
ARC
  5
964
330
815
100
AcDbEntity
  8
0
  6
Continuous
 62
     7
370
    15
100
AcDbCircle
 10
1547.453392692947
 20
1104.135820801967
 30
0.0
 40
3.960000000000012
100
AcDbArc
 50
6.118244510086123
 51
16.88214687621242
  0
LINE
  5
965
330
815
100
AcDbEntity
  8
0
  6
Continuous
 62
     7
370
    15
100
AcDbLine
 10
1551.390836756283
 20
1104.557880333435
 30
0.0
 11
1547.898577134381
 21
1104.557880333434
 31
0.0
  0
ARC
  5
966
330
815
100
AcDbEntity
  8
0
  6
Continuous
 62
     7
370
    15
100
AcDbCircle
 10
1534.953392692947
 20
1104.135820801967
 30
0.0
 40
3.960000000000008
100
AcDbArc
 50
6.118244510086123
 51
16.88214687621242
  0
LINE
  5
967
330
815
100
AcDbEntity
  8
0
  6
Continuous
 62
     7
370
    15
100
AcDbLine
 10
1538.890836756283
 20
1104.557880333435
 30
0.0
 11
1535.398577134381
 21
1104.557880333434
 31
0.0
  0
ARC
  5
968
330
815
100
AcDbEntity
  8
0
  6
Continuous
 62
     7
370
    15
100
AcDbCircle
 10
1497.453392692947
 20
1104.135820801967
 30
0.0
 40
3.960000000000039
100
AcDbArc
 50
6.118244510086123
 51
16.88214687621242
  0
LINE
  5
969
330
815
100
AcDbEntity
  8
0
  6
Continuous
 62
     7
370
    15
100
AcDbLine
 10
1501.390836756283
 20
1104.557880333435
 30
0.0
 11
1497.898577134381
 21
1104.557880333434
 31
0.0
  0
ARC
  5
96A
330
815
100
AcDbEntity
  8
0
  6
Continuous
 62
     7
370
    15
100
AcDbCircle
 10
1484.953392692947
 20
1104.135820801967
 30
0.0
 40
3.960000000000012
100
AcDbArc
 50
6.118244510086123
 51
16.88214687621242
  0
LINE
  5
96B
330
815
100
AcDbEntity
  8
0
  6
Continuous
 62
     7
370
    15
100
AcDbLine
 10
1488.890836756283
 20
1104.557880333435
 30
0.0
 11
1485.398577134381
 21
1104.557880333434
 31
0.0
  0
ARC
  5
96C
330
815
100
AcDbEntity
  8
0
  6
Continuous
 62
     7
370
    15
100
AcDbCircle
 10
1484.953392692947
 20
1104.135820801967
 30
0.0
 40
3.960000000000014
100
AcDbArc
 50
173.8817554899462
 51
186.1182445100926
  0
ARC
  5
96D
330
815
100
AcDbEntity
  8
0
  6
Continuous
 62
     7
370
    15
100
AcDbCircle
 10
1484.953392692947
 20
1104.135820801967
 30
0.0
 40
3.960000000000014
100
AcDbArc
 50
353.8817554899463
 51
6.118244510086123
  0
ARC
  5
96E
330
815
100
AcDbEntity
  8
0
  6
Continuous
 62
     7
370
    15
100
AcDbCircle
 10
1597.453392692947
 20
1104.135820801967
 30
0.0
 40
3.960000000000014
100
AcDbArc
 50
173.8817554899462
 51
186.1182445100926
  0
ARC
  5
96F
330
815
100
AcDbEntity
  8
0
  6
Continuous
 62
     7
370
    15
100
AcDbCircle
 10
1597.453392692947
 20
1104.135820801967
 30
0.0
 40
3.960000000000014
100
AcDbArc
 50
353.8817554899463
 51
6.118244510086123
  0
ARC
  5
970
330
815
100
AcDbEntity
  8
0
  6
Continuous
 62
     7
370
    15
100
AcDbCircle
 10
1572.453392692947
 20
1104.135820801967
 30
0.0
 40
3.959999999999999
100
AcDbArc
 50
173.8817554899462
 51
186.1182445100926
  0
ARC
  5
971
330
815
100
AcDbEntity
  8
0
  6
Continuous
 62
     7
370
    15
100
AcDbCircle
 10
1572.453392692947
 20
1104.135820801967
 30
0.0
 40
3.960000000000008
100
AcDbArc
 50
353.8817554899463
 51
6.118244510086123
  0
ARC
  5
972
330
815
100
AcDbEntity
  8
0
  6
Continuous
 62
     7
370
    15
100
AcDbCircle
 10
1509.953392692947
 20
1104.135820801967
 30
0.0
 40
3.960000000000014
100
AcDbArc
 50
173.8817554899462
 51
186.1182445100926
  0
ARC
  5
973
330
815
100
AcDbEntity
  8
0
  6
Continuous
 62
     7
370
    15
100
AcDbCircle
 10
1509.953392692947
 20
1104.135820801967
 30
0.0
 40
3.959999999999986
100
AcDbArc
 50
353.8817554899463
 51
6.118244510086123
  0
ARC
  5
974
330
815
100
AcDbEntity
  8
0
  6
Continuous
 62
     7
370
    15
100
AcDbCircle
 10
1559.953392692947
 20
1104.135820801967
 30
0.0
 40
3.960000000000014
100
AcDbArc
 50
173.8817554899462
 51
186.1182445100926
  0
ARC
  5
975
330
815
100
AcDbEntity
  8
0
  6
Continuous
 62
     7
370
    15
100
AcDbCircle
 10
1559.953392692947
 20
1104.135820801967
 30
0.0
 40
3.960000000000014
100
AcDbArc
 50
353.8817554899463
 51
6.118244510086123
  0
ARC
  5
976
330
815
100
AcDbEntity
  8
0
  6
Continuous
 62
     7
370
    15
100
AcDbCircle
 10
1497.453392692947
 20
1104.135820801967
 30
0.0
 40
3.959999999999986
100
AcDbArc
 50
173.8817554899462
 51
186.1182445100926
  0
ARC
  5
977
330
815
100
AcDbEntity
  8
0
  6
Continuous
 62
     7
370
    15
100
AcDbCircle
 10
1497.453392692947
 20
1104.135820801967
 30
0.0
 40
3.960000000000036
100
AcDbArc
 50
353.8817554899463
 51
6.118244510086123
  0
ARC
  5
978
330
815
100
AcDbEntity
  8
0
  6
Continuous
 62
     7
370
    15
100
AcDbCircle
 10
1584.953392692947
 20
1104.135820801967
 30
0.0
 40
3.960000000000008
100
AcDbArc
 50
173.8817554899462
 51
186.1182445100926
  0
ARC
  5
979
330
815
100
AcDbEntity
  8
0
  6
Continuous
 62
     7
370
    15
100
AcDbCircle
 10
1584.953392692947
 20
1104.135820801967
 30
0.0
 40
3.960000000000008
100
AcDbArc
 50
353.8817554899463
 51
6.118244510086123
  0
ARC
  5
97A
330
815
100
AcDbEntity
  8
0
  6
Continuous
 62
     7
370
    15
100
AcDbCircle
 10
1522.453392692947
 20
1104.135820801967
 30
0.0
 40
3.960000000000008
100
AcDbArc
 50
173.8817554899462
 51
186.1182445100926
  0
ARC
  5
97B
330
815
100
AcDbEntity
  8
0
  6
Continuous
 62
     7
370
    15
100
AcDbCircle
 10
1522.453392692947
 20
1104.135820801967
 30
0.0
 40
3.960000000000008
100
AcDbArc
 50
353.8817554899463
 51
6.118244510086123
  0
ARC
  5
97C
330
815
100
AcDbEntity
  8
0
  6
Continuous
 62
     7
370
    15
100
AcDbCircle
 10
1534.953392692947
 20
1104.135820801967
 30
0.0
 40
3.960000000000014
100
AcDbArc
 50
173.8817554899462
 51
186.1182445100926
  0
ARC
  5
97D
330
815
100
AcDbEntity
  8
0
  6
Continuous
 62
     7
370
    15
100
AcDbCircle
 10
1534.953392692947
 20
1104.135820801967
 30
0.0
 40
3.960000000000014
100
AcDbArc
 50
353.8817554899463
 51
6.118244510086123
  0
ARC
  5
97E
330
815
100
AcDbEntity
  8
0
  6
Continuous
 62
     7
370
    15
100
AcDbCircle
 10
1547.453392692947
 20
1104.135820801967
 30
0.0
 40
3.960000000000014
100
AcDbArc
 50
173.8817554899462
 51
186.1182445100926
  0
ARC
  5
97F
330
815
100
AcDbEntity
  8
0
  6
Continuous
 62
     7
370
    15
100
AcDbCircle
 10
1547.453392692947
 20
1104.135820801967
 30
0.0
 40
3.960000000000014
100
AcDbArc
 50
353.8817554899463
 51
6.118244510086123
  0
CIRCLE
  5
980
330
815
100
AcDbEntity
  8
0
  6
Continuous
 62
     7
370
    15
100
AcDbCircle
 10
1609.953392692947
 20
1104.135820801967
 30
0.0
 40
4.000000000000042
  0
LINE
  5
981
330
815
100
AcDbEntity
  8
0
  6
Continuous
 62
     7
370
    15
100
AcDbLine
 10
1466.703392692947
 20
1099.135820801967
 30
0.0
 11
1615.703392692947
 21
1099.135820801967
 31
0.0
  0
LINE
  5
982
330
815
100
AcDbEntity
  8
0
  6
Continuous
 62
     7
370
    15
100
AcDbLine
 10
1466.703392692947
 20
1099.135820801967
 30
0.0
 11
1466.703392692947
 21
1109.135820801967
 31
0.0
  0
LINE
  5
983
330
815
100
AcDbEntity
  8
0
  6
Continuous
 62
     7
370
    15
100
AcDbLine
 10
1466.703392692947
 20
1109.135820801967
 30
0.0
 11
1615.703392692947
 21
1109.135820801967
 31
0.0
  0
LINE
  5
984
330
815
100
AcDbEntity
  8
0
  6
Continuous
 62
     7
370
    15
100
AcDbLine
 10
1615.703392692947
 20
1099.135820801967
 30
0.0
 11
1615.703392692947
 21
1109.135820801967
 31
0.0
  0
CIRCLE
  5
985
330
815
100
AcDbEntity
  8
0
  6
Continuous
 62
     7
370
    15
100
AcDbCircle
 10
1472.453392692947
 20
1104.135820801967
 30
0.0
 40
4.000000000000056
  0
CIRCLE
  5
986
330
815
100
AcDbEntity
  8
0
  6
Continuous
 62
     7
370
    15
100
AcDbCircle
 10
1609.953392692947
 20
1104.135820801967
 30
0.0
 40
3.000000000000014
  0
CIRCLE
  5
987
330
815
100
AcDbEntity
  8
0
  6
Continuous
 62
     7
370
    15
100
AcDbCircle
 10
1472.453392692947
 20
1104.135820801967
 30
0.0
 40
3.0
  0
ENDBLK
  5
817
330
815
100
AcDbEntity
  8
0
100
AcDbBlockEnd
  0
BLOCK
  5
98A
330
989
100
AcDbEntity
  8
0
100
AcDbBlockBegin
  2
3
 70
     0
 10
0.0
 20
0.0
 30
0.0
  3
3
  1

  0
LINE
  5
98C
330
989
100
AcDbEntity
  8
0
  6
Continuous
 62
     7
370
    15
100
AcDbLine
 10
1440.746054330408
 20
1151.650311445114
 30
0.0
 11
1440.746054330408
 21
1147.950311445114
 31
0.0
  0
LINE
  5
98D
330
989
100
AcDbEntity
  8
0
  6
Continuous
 62
     7
370
    15
100
AcDbLine
 10
1448.666054330408
 20
1147.950311445114
 30
0.0
 11
1448.666054330408
 21
1151.650311445114
 31
0.0
  0
LINE
  5
98E
330
989
100
AcDbEntity
  8
0
  6
Continuous
 62
     7
370
    15
100
AcDbLine
 10
1449.706054330408
 20
1147.950311445114
 30
0.0
 11
1449.706054330408
 21
1132.950311445114
 31
0.0
  0
LINE
  5
98F
330
989
100
AcDbEntity
  8
0
  6
Continuous
 62
     7
370
    15
100
AcDbLine
 10
1449.706054330408
 20
1132.950311445114
 30
0.0
 11
1439.706054330408
 21
1132.950311445114
 31
0.0
  0
LINE
  5
990
330
989
100
AcDbEntity
  8
0
  6
Continuous
 62
     7
370
    15
100
AcDbLine
 10
1439.706054330408
 20
1147.950311445114
 30
0.0
 11
1439.706054330408
 21
1132.950311445114
 31
0.0
  0
LINE
  5
991
330
989
100
AcDbEntity
  8
0
  6
Continuous
 62
     7
370
    15
100
AcDbLine
 10
1439.706054330408
 20
1147.950311445114
 30
0.0
 11
1449.706054330408
 21
1147.950311445114
 31
0.0
  0
LINE
  5
992
330
989
100
AcDbEntity
  8
0
  6
Continuous
 62
     7
370
    15
100
AcDbLine
 10
1443.556054330408
 20
1151.650311445114
 30
0.0
 11
1440.746054330408
 21
1151.650311445114
 31
0.0
  0
LINE
  5
993
330
989
100
AcDbEntity
  8
0
  6
Continuous
 62
     7
370
    15
100
AcDbLine
 10
1444.283994798941
 20
1149.650311445114
 30
0.0
 11
1443.556054330409
 21
1151.650311445114
 31
0.0
  0
LINE
  5
994
330
989
100
AcDbEntity
  8
0
  6
Continuous
 62
     7
370
    15
100
AcDbLine
 10
1445.128113861876
 20
1149.650311445114
 30
0.0
 11
1444.283994798941
 21
1149.650311445114
 31
0.0
  0
LINE
  5
995
330
989
100
AcDbEntity
  8
0
  6
Continuous
 62
     7
370
    15
100
AcDbLine
 10
1445.856054330409
 20
1151.650311445114
 30
0.0
 11
1445.128113861876
 21
1149.650311445114
 31
0.0
  0
LINE
  5
996
330
989
100
AcDbEntity
  8
0
  6
Continuous
 62
     7
370
    15
100
AcDbLine
 10
1448.666054330408
 20
1151.650311445114
 30
0.0
 11
1445.856054330409
 21
1151.650311445114
 31
0.0
  0
ENDBLK
  5
98B
330
989
100
AcDbEntity
  8
0
100
AcDbBlockEnd
  0
BLOCK
  5
999
330
998
100
AcDbEntity
  8
0
100
AcDbBlockBegin
  2
4
 70
     0
 10
0.0
 20
0.0
 30
0.0
  3
4
  1

  0
LINE
  5
99B
330
998
100
AcDbEntity
  8
0
  6
Continuous
 62
     7
370
    15
100
AcDbLine
 10
1565.848039227773
 20
998.2069545862001
 30
0.0
 11
1565.848039227773
 21
995.1857535822229
 31
0.0
  0
LINE
  5
99C
330
998
100
AcDbEntity
  8
0
  6
Continuous
 62
     7
370
    15
100
AcDbLine
 10
1573.768039227773
 20
995.1857535822229
 30
0.0
 11
1573.768039227773
 21
998.2069545862001
 31
0.0
  0
LINE
  5
99D
330
998
100
AcDbEntity
  8
0
  6
Continuous
 62
     7
370
    15
100
AcDbLine
 10
1557.009204462941
 20
1003.309505285092
 30
0.0
 11
1557.009204462941
 21
1000.288304281115
 31
0.0
  0
LINE
  5
99E
330
998
100
AcDbEntity
  8
0
  6
Continuous
 62
     7
370
    15
100
AcDbLine
 10
1564.929204462941
 20
1000.288304281115
 30
0.0
 11
1564.929204462941
 21
1003.309505285092
 31
0.0
  0
LINE
  5
99F
330
998
100
AcDbEntity
  8
0
  6
Continuous
 62
     7
370
    15
100
AcDbLine
 10
1548.170369698109
 20
1008.412055983984
 30
0.0
 11
1548.170369698109
 21
1005.390854980007
 31
0.0
  0
LINE
  5
9A0
330
998
100
AcDbEntity
  8
0
  6
Continuous
 62
     7
370
    15
100
AcDbLine
 10
1556.090369698109
 20
1005.390854980007
 30
0.0
 11
1556.090369698109
 21
1008.412055983984
 31
0.0
  0
LINE
  5
9A1
330
998
100
AcDbEntity
  8
0
  6
Continuous
 62
     7
370
    15
100
AcDbLine
 10
1539.331534933277
 20
1013.514606682876
 30
0.0
 11
1539.331534933277
 21
1010.493405678899
 31
0.0
  0
LINE
  5
9A2
330
998
100
AcDbEntity
  8
0
  6
Continuous
 62
     7
370
    15
100
AcDbLine
 10
1547.251534933277
 20
1010.493405678899
 30
0.0
 11
1547.251534933277
 21
1013.514606682876
 31
0.0
  0
LINE
  5
9A3
330
998
100
AcDbEntity
  8
0
  6
Continuous
 62
     7
370
    15
100
AcDbLine
 10
1530.492700168445
 20
1018.617157381768
 30
0.0
 11
1530.492700168445
 21
1015.59595637779
 31
0.0
  0
LINE
  5
9A4
330
998
100
AcDbEntity
  8
0
  6
Continuous
 62
     7
370
    15
100
AcDbLine
 10
1538.412700168445
 20
1015.59595637779
 30
0.0
 11
1538.412700168445
 21
1018.617157381768
 31
0.0
  0
LINE
  5
9A5
330
998
100
AcDbEntity
  8
0
  6
Continuous
 62
     7
370
    15
100
AcDbLine
 10
1521.653865403613
 20
1023.71970808066
 30
0.0
 11
1521.653865403613
 21
1020.698507076682
 31
0.0
  0
LINE
  5
9A6
330
998
100
AcDbEntity
  8
0
  6
Continuous
 62
     7
370
    15
100
AcDbLine
 10
1529.573865403613
 20
1020.698507076682
 30
0.0
 11
1529.573865403613
 21
1023.71970808066
 31
0.0
  0
LINE
  5
9A7
330
998
100
AcDbEntity
  8
0
  6
Continuous
 62
     7
370
    15
100
AcDbLine
 10
1512.815030638782
 20
1028.822258779552
 30
0.0
 11
1512.815030638782
 21
1025.801057775574
 31
0.0
  0
LINE
  5
9A8
330
998
100
AcDbEntity
  8
0
  6
Continuous
 62
     7
370
    15
100
AcDbLine
 10
1520.735030638782
 20
1025.801057775574
 30
0.0
 11
1520.735030638782
 21
1028.822258779552
 31
0.0
  0
LINE
  5
9A9
330
998
100
AcDbEntity
  8
0
  6
Continuous
 62
     7
370
    15
100
AcDbLine
 10
1503.97619587395
 20
1033.924809478444
 30
0.0
 11
1503.97619587395
 21
1030.903608474466
 31
0.0
  0
LINE
  5
9AA
330
998
100
AcDbEntity
  8
0
  6
Continuous
 62
     7
370
    15
100
AcDbLine
 10
1511.89619587395
 20
1030.903608474466
 30
0.0
 11
1511.89619587395
 21
1033.924809478444
 31
0.0
  0
LINE
  5
9AB
330
998
100
AcDbEntity
  8
0
  6
Continuous
 62
     7
370
    15
100
AcDbLine
 10
1495.137361109118
 20
1039.027360177336
 30
0.0
 11
1495.137361109118
 21
1036.006159173358
 31
0.0
  0
LINE
  5
9AC
330
998
100
AcDbEntity
  8
0
  6
Continuous
 62
     7
370
    15
100
AcDbLine
 10
1503.057361109118
 20
1036.006159173358
 30
0.0
 11
1503.057361109118
 21
1039.027360177336
 31
0.0
  0
LINE
  5
9AD
330
998
100
AcDbEntity
  8
0
  6
Continuous
 62
     7
370
    15
100
AcDbLine
 10
1486.298526344286
 20
1044.129910876228
 30
0.0
 11
1486.298526344286
 21
1041.10870987225
 31
0.0
  0
LINE
  5
9AE
330
998
100
AcDbEntity
  8
0
  6
Continuous
 62
     7
370
    15
100
AcDbLine
 10
1494.218526344286
 20
1041.10870987225
 30
0.0
 11
1494.218526344286
 21
1044.129910876228
 31
0.0
  0
LINE
  5
9AF
330
998
100
AcDbEntity
  8
0
  6
Continuous
 62
     7
370
    15
100
AcDbLine
 10
1586.24827189036
 20
989.7770498413974
 30
0.0
 11
1586.24827189036
 21
977.5289376631112
 31
0.0
  0
LINE
  5
9B0
330
998
100
AcDbEntity
  8
0
  6
Continuous
 62
     7
370
    15
100
AcDbLine
 10
1586.24827189036
 20
977.5289376631112
 30
0.0
 11
1579.177204078494
 21
973.4468971039976
 31
0.0
  0
LINE
  5
9B1
330
998
100
AcDbEntity
  8
0
  6
Continuous
 62
     7
370
    15
100
AcDbLine
 10
1579.177204078494
 20
985.695009282284
 30
0.0
 11
1579.177204078494
 21
973.4468971039976
 31
0.0
  0
LINE
  5
9B2
330
998
100
AcDbEntity
  8
0
  6
Continuous
 62
     7
370
    15
100
AcDbLine
 10
1579.177204078494
 20
985.695009282284
 30
0.0
 11
1586.24827189036
 21
989.7770498413974
 31
0.0
  0
LWPOLYLINE
  5
9B3
330
998
100
AcDbEntity
  8
0
  6
Continuous
 62
     7
370
    15
100
AcDbPolyline
 90
       16
 70
   128
 43
0.0
 10
1567.007896374274
 20
993.5692655208139
 10
1567.506975038781
 20
993.3252471208753
 10
1568.068820735937
 20
993.131978487224
 10
1568.678107779746
 20
992.9947314843719
 10
1569.318216407946
 20
992.917249852781
 10
1569.971686125798
 20
992.9016470893813
 10
1570.620691982867
 20
992.9483487968852
 10
1571.247530791205
 20
993.0560810744541
 10
1571.835104022168
 20
993.221905266393
 10
1572.367384209702
 20
993.4412981210172
 10
1572.829852137844
 20
993.7082751731672
 10
1573.209892887077
 20
994.0155539848175
 10
1573.497139936456
 20
994.3547527910023
 10
1573.683757935269
 20
994.7166191325143
 10
1573.764656430986
 20
995.0912822388721
 10
1573.768039227773
 20
995.1857535822229
  0
ARC
  5
9B4
330
998
100
AcDbEntity
  8
0
  6
Continuous
 62
     7
370
    15
100
AcDbCircle
 10
1567.843361158586
 20
995.3930778938227
 30
0.0
 40
2.006064051261971
100
AcDbArc
 50
185.9320421668006
 51
245.3880987908194
  0
LWPOLYLINE
  5
9B5
330
998
100
AcDbEntity
  8
0
  6
Continuous
 62
     7
370
    15
100
AcDbPolyline
 90
       16
 70
   128
 43
0.0
 10
1558.169061609442
 20
998.6718162197059
 10
1558.668140273949
 20
998.4277978197672
 10
1559.229985971105
 20
998.2345291861159
 10
1559.839273014914
 20
998.0972821832638
 10
1560.479381643114
 20
998.0198005516729
 10
1561.132851360966
 20
998.0041977882732
 10
1561.781857218035
 20
998.0508994957771
 10
1562.408696026374
 20
998.158631773346
 10
1562.996269257336
 20
998.3244559652849
 10
1563.52854944487
 20
998.5438488199092
 10
1563.991017373012
 20
998.8108258720592
 10
1564.371058122246
 20
999.1181046837095
 10
1564.658305171624
 20
999.4573034898943
 10
1564.844923170437
 20
999.8191698314062
 10
1564.925821666155
 20
1000.193832937764
 10
1564.929204462941
 20
1000.288304281115
  0
ARC
  5
9B6
330
998
100
AcDbEntity
  8
0
  6
Continuous
 62
     7
370
    15
100
AcDbCircle
 10
1559.004526393754
 20
1000.495628592714
 30
0.0
 40
2.00606405126194
100
AcDbArc
 50
185.9320421667941
 51
245.3880987908194
  0
LWPOLYLINE
  5
9B7
330
998
100
AcDbEntity
  8
0
  6
Continuous
 62
     7
370
    15
100
AcDbPolyline
 90
       16
 70
   128
 43
0.0
 10
1549.33022684461
 20
1003.774366918598
 10
1549.829305509117
 20
1003.530348518659
 10
1550.391151206273
 20
1003.337079885008
 10
1551.000438250082
 20
1003.199832882156
 10
1551.640546878282
 20
1003.122351250565
 10
1552.294016596134
 20
1003.106748487165
 10
1552.943022453204
 20
1003.153450194669
 10
1553.569861261542
 20
1003.261182472238
 10
1554.157434492504
 20
1003.427006664177
 10
1554.689714680038
 20
1003.646399518801
 10
1555.15218260818
 20
1003.913376570951
 10
1555.532223357413
 20
1004.220655382601
 10
1555.819470406792
 20
1004.559854188786
 10
1556.006088405605
 20
1004.921720530298
 10
1556.086986901323
 20
1005.296383636656
 10
1556.090369698109
 20
1005.390854980007
  0
ARC
  5
9B8
330
998
100
AcDbEntity
  8
0
  6
Continuous
 62
     7
370
    15
100
AcDbCircle
 10
1550.165691628922
 20
1005.598179291607
 30
0.0
 40
2.006064051262077
100
AcDbArc
 50
185.9320421668006
 51
245.3880987908194
  0
LWPOLYLINE
  5
9B9
330
998
100
AcDbEntity
  8
0
  6
Continuous
 62
     7
370
    15
100
AcDbPolyline
 90
       16
 70
   128
 43
0.0
 10
1540.491392079778
 20
1008.87691761749
 10
1540.990470744286
 20
1008.632899217551
 10
1541.552316441442
 20
1008.4396305839
 10
1542.161603485251
 20
1008.302383581048
 10
1542.80171211345
 20
1008.224901949457
 10
1543.455181831302
 20
1008.209299186057
 10
1544.104187688372
 20
1008.256000893561
 10
1544.73102649671
 20
1008.36373317113
 10
1545.318599727672
 20
1008.529557363069
 10
1545.850879915207
 20
1008.748950217693
 10
1546.313347843348
 20
1009.015927269843
 10
1546.693388592582
 20
1009.323206081493
 10
1546.98063564196
 20
1009.662404887678
 10
1547.167253640774
 20
1010.02427122919
 10
1547.248152136491
 20
1010.398934335548
 10
1547.251534933277
 20
1010.493405678899
  0
ARC
  5
9BA
330
998
100
AcDbEntity
  8
0
  6
Continuous
 62
     7
370
    15
100
AcDbCircle
 10
1541.326856864091
 20
1010.700729990498
 30
0.0
 40
2.006064051262078
100
AcDbArc
 50
185.9320421668006
 51
245.3880987908194
  0
LWPOLYLINE
  5
9BB
330
998
100
AcDbEntity
  8
0
  6
Continuous
 62
     7
370
    15
100
AcDbPolyline
 90
       16
 70
   128
 43
0.0
 10
1531.652557314947
 20
1013.979468316382
 10
1532.151635979453
 20
1013.735449916443
 10
1532.71348167661
 20
1013.542181282792
 10
1533.322768720419
 20
1013.40493427994
 10
1533.962877348619
 20
1013.327452648349
 10
1534.616347066471
 20
1013.311849884949
 10
1535.26535292354
 20
1013.358551592453
 10
1535.892191731878
 20
1013.466283870022
 10
1536.47976496284
 20
1013.632108061961
 10
1537.012045150374
 20
1013.851500916585
 10
1537.474513078517
 20
1014.118477968735
 10
1537.85455382775
 20
1014.425756780385
 10
1538.141800877128
 20
1014.76495558657
 10
1538.328418875942
 20
1015.126821928082
 10
1538.409317371659
 20
1015.501485034439
 10
1538.412700168445
 20
1015.59595637779
  0
ARC
  5
9BC
330
998
100
AcDbEntity
  8
0
  6
Continuous
 62
     7
370
    15
100
AcDbCircle
 10
1532.488022099259
 20
1015.80328068939
 30
0.0
 40
2.006064051261991
100
AcDbArc
 50
185.9320421668006
 51
245.3880987908194
  0
LWPOLYLINE
  5
9BD
330
998
100
AcDbEntity
  8
0
  6
Continuous
 62
     7
370
    15
100
AcDbPolyline
 90
       16
 70
   128
 43
0.0
 10
1522.813722550115
 20
1019.082019015273
 10
1523.312801214622
 20
1018.838000615335
 10
1523.874646911778
 20
1018.644731981684
 10
1524.483933955587
 20
1018.507484978831
 10
1525.124042583787
 20
1018.430003347241
 10
1525.777512301639
 20
1018.414400583841
 10
1526.426518158708
 20
1018.461102291345
 10
1527.053356967046
 20
1018.568834568914
 10
1527.640930198008
 20
1018.734658760853
 10
1528.173210385543
 20
1018.954051615477
 10
1528.635678313685
 20
1019.221028667627
 10
1529.015719062918
 20
1019.528307479277
 10
1529.302966112297
 20
1019.867506285462
 10
1529.48958411111
 20
1020.229372626974
 10
1529.570482606827
 20
1020.604035733332
 10
1529.573865403613
 20
1020.698507076682
  0
ARC
  5
9BE
330
998
100
AcDbEntity
  8
0
  6
Continuous
 62
     7
370
    15
100
AcDbCircle
 10
1523.649187334427
 20
1020.905831388282
 30
0.0
 40
2.006064051261905
100
AcDbArc
 50
185.9320421667941
 51
245.3880987908194
  0
LWPOLYLINE
  5
9BF
330
998
100
AcDbEntity
  8
0
  6
Continuous
 62
     7
370
    15
100
AcDbPolyline
 90
       16
 70
   128
 43
0.0
 10
1513.974887785283
 20
1024.184569714166
 10
1514.47396644979
 20
1023.940551314227
 10
1515.035812146946
 20
1023.747282680576
 10
1515.645099190755
 20
1023.610035677723
 10
1516.285207818955
 20
1023.532554046132
 10
1516.938677536807
 20
1023.516951282733
 10
1517.587683393876
 20
1023.563652990237
 10
1518.214522202214
 20
1023.671385267806
 10
1518.802095433177
 20
1023.837209459744
 10
1519.334375620711
 20
1024.056602314369
 10
1519.796843548853
 20
1024.323579366519
 10
1520.176884298086
 20
1024.630858178169
 10
1520.464131347465
 20
1024.970056984354
 10
1520.650749346278
 20
1025.331923325866
 10
1520.731647841995
 20
1025.706586432224
 10
1520.735030638782
 20
1025.801057775574
  0
ARC
  5
9C0
330
998
100
AcDbEntity
  8
0
  6
Continuous
 62
     7
370
    15
100
AcDbCircle
 10
1514.810352569595
 20
1026.008382087174
 30
0.0
 40
2.006064051261983
100
AcDbArc
 50
185.9320421667941
 51
245.3880987908194
  0
LWPOLYLINE
  5
9C1
330
998
100
AcDbEntity
  8
0
  6
Continuous
 62
     7
370
    15
100
AcDbPolyline
 90
       16
 70
   128
 43
0.0
 10
1505.136053020451
 20
1029.287120413057
 10
1505.635131684958
 20
1029.043102013119
 10
1506.196977382114
 20
1028.849833379467
 10
1506.806264425923
 20
1028.712586376615
 10
1507.446373054123
 20
1028.635104745024
 10
1508.099842771975
 20
1028.619501981625
 10
1508.748848629045
 20
1028.666203689129
 10
1509.375687437383
 20
1028.773935966698
 10
1509.963260668345
 20
1028.939760158636
 10
1510.495540855879
 20
1029.159153013261
 10
1510.958008784021
 20
1029.426130065411
 10
1511.338049533255
 20
1029.733408877061
 10
1511.625296582633
 20
1030.072607683246
 10
1511.811914581446
 20
1030.434474024758
 10
1511.892813077164
 20
1030.809137131115
 10
1511.89619587395
 20
1030.903608474466
  0
ARC
  5
9C2
330
998
100
AcDbEntity
  8
0
  6
Continuous
 62
     7
370
    15
100
AcDbCircle
 10
1505.971517804763
 20
1031.110932786066
 30
0.0
 40
2.006064051261895
100
AcDbArc
 50
185.9320421667941
 51
245.3880987908194
  0
LWPOLYLINE
  5
9C3
330
998
100
AcDbEntity
  8
0
  6
Continuous
 62
     7
370
    15
100
AcDbPolyline
 90
       16
 70
   128
 43
0.0
 10
1496.297218255619
 20
1034.38967111195
 10
1496.796296920126
 20
1034.145652712011
 10
1497.358142617282
 20
1033.952384078359
 10
1497.967429661092
 20
1033.815137075507
 10
1498.607538289291
 20
1033.737655443916
 10
1499.261008007143
 20
1033.722052680517
 10
1499.910013864213
 20
1033.768754388021
 10
1500.536852672551
 20
1033.876486665589
 10
1501.124425903513
 20
1034.042310857528
 10
1501.656706091047
 20
1034.261703712153
 10
1502.119174019189
 20
1034.528680764303
 10
1502.499214768423
 20
1034.835959575953
 10
1502.786461817801
 20
1035.175158382138
 10
1502.973079816614
 20
1035.53702472365
 10
1503.053978312332
 20
1035.911687830007
 10
1503.057361109118
 20
1036.006159173358
  0
ARC
  5
9C4
330
998
100
AcDbEntity
  8
0
  6
Continuous
 62
     7
370
    15
100
AcDbCircle
 10
1497.132683039932
 20
1036.213483484958
 30
0.0
 40
2.006064051262046
100
AcDbArc
 50
185.9320421668006
 51
245.3880987908194
  0
LWPOLYLINE
  5
9C5
330
998
100
AcDbEntity
  8
0
  6
Continuous
 62
     7
370
    15
100
AcDbPolyline
 90
       16
 70
   128
 43
0.0
 10
1487.458383490787
 20
1039.492221810841
 10
1487.957462155295
 20
1039.248203410902
 10
1488.519307852451
 20
1039.054934777251
 10
1489.12859489626
 20
1038.917687774399
 10
1489.768703524459
 20
1038.840206142808
 10
1490.422173242311
 20
1038.824603379409
 10
1491.071179099381
 20
1038.871305086913
 10
1491.698017907719
 20
1038.979037364481
 10
1492.285591138681
 20
1039.14486155642
 10
1492.817871326216
 20
1039.364254411045
 10
1493.280339254357
 20
1039.631231463195
 10
1493.660380003591
 20
1039.938510274845
 10
1493.947627052969
 20
1040.27770908103
 10
1494.134245051782
 20
1040.639575422542
 10
1494.2151435475
 20
1041.014238528899
 10
1494.218526344286
 20
1041.10870987225
  0
ARC
  5
9C6
330
998
100
AcDbEntity
  8
0
  6
Continuous
 62
     7
370
    15
100
AcDbCircle
 10
1488.2938482751
 20
1041.31603418385
 30
0.0
 40
2.006064051262089
100
AcDbArc
 50
185.9320421668006
 51
245.3880987908194
  0
LWPOLYLINE
  5
9C7
330
998
100
AcDbEntity
  8
0
  6
Continuous
 62
     7
370
    15
100
AcDbPolyline
 90
       40
 70
   128
 43
0.0
 10
1575.818446867858
 20
991.7160191069765
 10
1575.401362638378
 20
991.4329524238793
 10
1575.068335448184
 20
991.1149279366728
 10
1574.82799052657
 20
990.770182312525
 10
1574.68655268076
 20
990.4076442820148
 10
1574.647685076665
 20
990.0367033897
 10
1574.712394364816
 20
989.666966809845
 10
1574.879004608639
 20
989.3080105256547
 10
1575.143200690337
 20
988.9691313163382
 10
1575.498140070168
 20
988.659105975412
 10
1575.934630004637
 20
988.3859639963574
 10
1576.441365633718
 20
988.1567796129568
 10
1577.005222770793
 20
987.9774885803552
 10
1577.611597812194
 20
987.8527344421199
 10
1578.244785962862
 20
987.7857482649009
 10
1578.888387982294
 20
987.7782649555017
 10
1579.525734916253
 20
987.8304783277052
 10
1580.140319813935
 20
987.9410360825977
 10
1580.716225249315
 20
988.1070748324006
 10
1581.238535574127
 20
988.3242942607106
 10
1581.693723225314
 20
988.587068498434
 10
1582.06999908181
 20
988.8885918308432
 10
1582.357617796581
 20
989.2210549620115
 10
1582.549130195993
 20
989.5758472714764
 10
1582.639576209498
 20
989.9437798247866
 10
1582.626613332855
 20
990.3153233620779
 10
1582.510577297761
 20
990.6808551008966
 10
1582.294473376573
 20
991.0309079612128
 10
1581.983898547336
 20
991.3564157578182
 10
1581.58689653499
 20
991.6489480097625
 10
1581.113749483119
 20
991.9009282853803
 10
1580.576711651833
 20
992.1058304278922
 10
1579.989692038871
 20
992.2583475794374
 10
1579.36789414386
 20
992.3545296259042
 10
1578.727422205666
 20
992.3918855028116
 10
1578.084864111064
 20
992.3694477125692
 10
1577.456861777184
 20
992.2877973821591
 10
1576.859680134598
 20
992.1490492122494
 10
1576.308785874165
 20
991.9567967075598
 10
1575.818446867858
 20
991.7160191069765
  0
LINE
  5
9C8
330
998
100
AcDbEntity
  8
0
  6
Continuous
 62
     7
370
    15
100
AcDbLine
 10
1473.818293681699
 20
1046.517413613076
 30
0.0
 11
1579.177204078494
 21
985.695009282284
 31
0.0
  0
LINE
  5
9C9
330
998
100
AcDbEntity
  8
0
  6
Continuous
 62
     7
370
    15
100
AcDbLine
 10
1473.818293681699
 20
1046.517413613076
 30
0.0
 11
1480.889361493565
 21
1050.599454172189
 31
0.0
  0
LINE
  5
9CA
330
998
100
AcDbEntity
  8
0
  6
Continuous
 62
     7
370
    15
100
AcDbLine
 10
1480.889361493565
 20
1050.599454172189
 30
0.0
 11
1488.532234680315
 21
1046.18731739645
 31
0.0
  0
LINE
  5
9CB
330
998
100
AcDbEntity
  8
0
  6
Continuous
 62
     7
370
    15
100
AcDbLine
 10
1494.218526344286
 20
1042.904691091505
 30
0.0
 11
1497.371069445147
 21
1041.084766697558
 31
0.0
  0
LINE
  5
9CC
330
998
100
AcDbEntity
  8
0
  6
Continuous
 62
     7
370
    15
100
AcDbLine
 10
1503.057361109118
 20
1037.802140392613
 30
0.0
 11
1506.209904209979
 21
1035.982215998666
 31
0.0
  0
LINE
  5
9CD
330
998
100
AcDbEntity
  8
0
  6
Continuous
 62
     7
370
    15
100
AcDbLine
 10
1511.89619587395
 20
1032.699589693721
 30
0.0
 11
1515.04873897481
 21
1030.879665299774
 31
0.0
  0
LINE
  5
9CE
330
998
100
AcDbEntity
  8
0
  6
Continuous
 62
     7
370
    15
100
AcDbLine
 10
1520.735030638782
 20
1027.597038994829
 30
0.0
 11
1523.887573739642
 21
1025.777114600882
 31
0.0
  0
LINE
  5
9CF
330
998
100
AcDbEntity
  8
0
  6
Continuous
 62
     7
370
    15
100
AcDbLine
 10
1529.573865403613
 20
1022.494488295937
 30
0.0
 11
1532.726408504474
 21
1020.67456390199
 31
0.0
  0
LINE
  5
9D0
330
998
100
AcDbEntity
  8
0
  6
Continuous
 62
     7
370
    15
100
AcDbLine
 10
1538.412700168446
 20
1017.391937597045
 30
0.0
 11
1541.565243269306
 21
1015.572013203098
 31
0.0
  0
LINE
  5
9D1
330
998
100
AcDbEntity
  8
0
  6
Continuous
 62
     7
370
    15
100
AcDbLine
 10
1547.251534933277
 20
1012.289386898153
 30
0.0
 11
1550.404078034138
 21
1010.469462504206
 31
0.0
  0
LINE
  5
9D2
330
998
100
AcDbEntity
  8
0
  6
Continuous
 62
     7
370
    15
100
AcDbLine
 10
1556.090369698109
 20
1007.186836199261
 30
0.0
 11
1559.24291279897
 21
1005.366911805315
 31
0.0
  0
LINE
  5
9D3
330
998
100
AcDbEntity
  8
0
  6
Continuous
 62
     7
370
    15
100
AcDbLine
 10
1564.929204462941
 20
1002.084285500369
 30
0.0
 11
1568.081747563802
 21
1000.264361106423
 31
0.0
  0
LINE
  5
9D4
330
998
100
AcDbEntity
  8
0
  6
Continuous
 62
     7
370
    15
100
AcDbLine
 10
1573.768039227773
 20
996.9817348014776
 30
0.0
 11
1586.24827189036
 21
989.7770498413974
 31
0.0
  0
LWPOLYLINE
  5
9D5
330
998
100
AcDbEntity
  8
0
  6
Continuous
 62
     7
370
    15
100
AcDbPolyline
 90
       40
 70
   128
 43
0.0
 10
1478.591264454708
 20
1047.844076794787
 10
1478.174180225228
 20
1047.561010111691
 10
1477.841153035034
 20
1047.242985624484
 10
1477.60080811342
 20
1046.898240000336
 10
1477.45937026761
 20
1046.535701969826
 10
1477.420502663515
 20
1046.164761077511
 10
1477.485211951666
 20
1045.795024497656
 10
1477.651822195489
 20
1045.436068213466
 10
1477.916018277187
 20
1045.09718900415
 10
1478.270957657018
 20
1044.787163663223
 10
1478.707447591487
 20
1044.514021684169
 10
1479.214183220568
 20
1044.284837300768
 10
1479.778040357643
 20
1044.105546268166
 10
1480.384415399044
 20
1043.980792129931
 10
1481.017603549712
 20
1043.913805952712
 10
1481.661205569143
 20
1043.906322643313
 10
1482.298552503103
 20
1043.958536015516
 10
1482.913137400785
 20
1044.069093770409
 10
1483.489042836165
 20
1044.235132520212
 10
1484.011353160976
 20
1044.452351948522
 10
1484.466540812164
 20
1044.715126186245
 10
1484.84281666866
 20
1045.016649518654
 10
1485.130435383431
 20
1045.349112649822
 10
1485.321947782843
 20
1045.703904959287
 10
1485.412393796347
 20
1046.071837512598
 10
1485.399430919705
 20
1046.443381049889
 10
1485.283394884611
 20
1046.808912788708
 10
1485.067290963423
 20
1047.158965649024
 10
1484.756716134186
 20
1047.484473445629
 10
1484.35971412184
 20
1047.777005697574
 10
1483.886567069968
 20
1048.028985973192
 10
1483.349529238683
 20
1048.233888115703
 10
1482.762509625721
 20
1048.386405267249
 10
1482.14071173071
 20
1048.482587313715
 10
1481.500239792516
 20
1048.519943190623
 10
1480.857681697914
 20
1048.497505400381
 10
1480.229679364033
 20
1048.41585506997
 10
1479.632497721448
 20
1048.277106900061
 10
1479.081603461015
 20
1048.084854395371
 10
1478.591264454708
 20
1047.844076794787
  0
LINE
  5
9D6
330
998
100
AcDbEntity
  8
0
  6
Continuous
 62
     7
370
    15
100
AcDbLine
 10
1579.177204078494
 20
973.4468971039976
 30
0.0
 11
1473.818293681699
 21
1034.26930143479
 31
0.0
  0
LINE
  5
9D7
330
998
100
AcDbEntity
  8
0
  6
Continuous
 62
     7
370
    15
100
AcDbLine
 10
1473.818293681699
 20
1034.26930143479
 30
0.0
 11
1473.818293681699
 21
1046.517413613076
 31
0.0
  0
LWPOLYLINE
  5
9D8
330
998
100
AcDbEntity
  8
0
  6
Continuous
 62
     7
370
    15
100
AcDbPolyline
 90
       41
 70
   128
 43
0.0
 10
1489.728196258396
 20
1031.04545810355
 10
1489.691197212521
 20
1031.609691479728
 10
1489.5811111142
 20
1032.202749746687
 10
1489.400648648527
 20
1032.810029841645
 10
1489.154253400329
 20
1033.416578513217
 10
1488.847992438353
 20
1034.007460520091
 10
1488.489406923907
 20
1034.568126386232
 10
1488.087326422434
 20
1035.084770657272
 10
1487.651651490307
 20
1035.544671836614
 10
1487.193109890279
 20
1035.936505630898
 10
1486.722992438353
 20
1036.250623791687
 10
1486.252874986428
 20
1036.479291687365
 10
1485.7943333864
 20
1036.616878755434
 10
1485.358658454273
 20
1036.659997145653
 10
1484.956577952799
 20
1036.607585140153
 10
1484.597992438353
 20
1036.460933296455
 10
1484.291731476378
 20
1036.22365266966
 10
1484.045336228179
 20
1035.90158589629
 10
1483.864873762507
 20
1035.502663329184
 10
1483.754787664185
 20
1035.03670776589
 10
1483.717788618311
 20
1034.515192578796
 10
1483.754787664185
 20
1033.950959202618
 10
1483.864873762507
 20
1033.35790093566
 10
1484.045336228179
 20
1032.750620840702
 10
1484.291731476378
 20
1032.144072169129
 10
1484.597992438353
 20
1031.553190162255
 10
1484.956577952799
 20
1030.992524296114
 10
1485.358658454273
 20
1030.475880025074
 10
1485.7943333864
 20
1030.015978845732
 10
1486.252874986428
 20
1029.624145051448
 10
1486.722992438354
 20
1029.310026890659
 10
1487.193109890279
 20
1029.081358994981
 10
1487.651651490307
 20
1028.943771926912
 10
1488.087326422434
 20
1028.900653536694
 10
1488.489406923907
 20
1028.953065542194
 10
1488.847992438353
 20
1029.099717385891
 10
1489.154253400329
 20
1029.336998012686
 10
1489.400648648527
 20
1029.659064786056
 10
1489.5811111142
 20
1030.057987353163
 10
1489.691197212521
 20
1030.523942916456
 10
1489.728196258396
 20
1031.04545810355
  0
LWPOLYLINE
  5
9D9
330
998
100
AcDbEntity
  8
0
  6
Continuous
 62
     7
370
    15
100
AcDbPolyline
 90
       45
 70
   128
 43
0.0
 10
1499.274137804414
 20
1025.534703348747
 10
1499.236351835204
 20
1026.166597560793
 10
1499.123763140939
 20
1026.829254980344
 10
1498.938663702757
 20
1027.509185813283
 10
1498.684821611436
 20
1028.192548628611
 10
1498.367404359935
 20
1028.865432130062
 10
1497.992873648139
 20
1029.514138349984
 10
1497.568853841283
 20
1030.125461500452
 10
1497.103976759862
 20
1030.686956805035
 10
1496.607705960659
 20
1031.187193838548
 10
1496.090144086019
 20
1031.615989217554
 10
1495.561827203185
 20
1031.964613904681
 10
1495.033510320351
 20
1032.22597090665
 10
1494.515948445711
 20
1032.39473974859
 10
1494.019677646508
 20
1032.46748478357
 10
1493.554800565087
 20
1032.442725132457
 10
1493.130780758231
 20
1032.320964830346
 10
1492.756250046435
 20
1032.104682565861
 10
1492.438832794934
 20
1031.798281222201
 10
1492.184990703613
 20
1031.407998247133
 10
1491.999891265431
 20
1030.941778676547
 10
1491.887302571166
 20
1030.409113396433
 10
1491.849516601956
 20
1029.820845935816
 10
1491.887302571166
 20
1029.188951723769
 10
1491.999891265431
 20
1028.526294304218
 10
1492.184990703613
 20
1027.846363471279
 10
1492.438832794934
 20
1027.163000655952
 10
1492.756250046435
 20
1026.4901171545
 10
1493.130780758231
 20
1025.841410934578
 10
1493.554800565087
 20
1025.23008778411
 10
1494.019677646508
 20
1024.668592479528
 10
1494.515948445711
 20
1024.168355446015
 10
1495.033510320351
 20
1023.739560067008
 10
1495.561827203185
 20
1023.390935379881
 10
1496.090144086019
 20
1023.129578377913
 10
1496.607705960659
 20
1022.960809535972
 10
1497.103976759862
 20
1022.888064500993
 10
1497.568853841283
 20
1022.912824152105
 10
1497.992873648139
 20
1023.034584454216
 10
1498.367404359935
 20
1023.250866718701
 10
1498.684821611436
 20
1023.557268062361
 10
1498.938663702757
 20
1023.947551037429
 10
1499.123763140939
 20
1024.413770608016
 10
1499.236351835204
 20
1024.946435888129
 10
1499.274137804414
 20
1025.534703348747
  0
LWPOLYLINE
  5
9DA
330
998
100
AcDbEntity
  8
0
  6
Continuous
 62
     7
370
    15
100
AcDbPolyline
 90
       41
 70
   128
 43
0.0
 10
1569.277709141883
 20
985.1225018135226
 10
1569.240710096008
 20
985.686735189701
 10
1569.130623997687
 20
986.2797934566593
 10
1568.950161532014
 20
986.8870735516173
 10
1568.703766283815
 20
987.4936222231902
 10
1568.39750532184
 20
988.0845042300641
 10
1568.038919807394
 20
988.6451700962048
 10
1567.63683930592
 20
989.1618143672447
 10
1567.201164373793
 20
989.6217155465867
 10
1566.742622773765
 20
990.013549340871
 10
1566.27250532184
 20
990.3276675016604
 10
1565.802387869915
 20
990.5563353973377
 10
1565.343846269886
 20
990.6939224654065
 10
1564.908171337759
 20
990.7370408556253
 10
1564.506090836286
 20
990.6846288501254
 10
1564.14750532184
 20
990.5379770064275
 10
1563.841244359865
 20
990.3006963796332
 10
1563.594849111666
 20
989.9786296062632
 10
1563.414386645993
 20
989.5797070391564
 10
1563.304300547672
 20
989.113751475863
 10
1563.267301501797
 20
988.5922362887692
 10
1563.304300547672
 20
988.0280029125906
 10
1563.414386645993
 20
987.4349446456324
 10
1563.594849111666
 20
986.8276645506744
 10
1563.841244359865
 20
986.2211158791016
 10
1564.14750532184
 20
985.6302338722276
 10
1564.506090836286
 20
985.0695680060869
 10
1564.908171337759
 20
984.552923735047
 10
1565.343846269886
 20
984.093022555705
 10
1565.802387869915
 20
983.7011887614208
 10
1566.27250532184
 20
983.3870706006313
 10
1566.742622773765
 20
983.1584027049538
 10
1567.201164373793
 20
983.0208156368852
 10
1567.63683930592
 20
982.9776972466664
 10
1568.038919807394
 20
983.0301092521663
 10
1568.39750532184
 20
983.1767610958642
 10
1568.703766283815
 20
983.4140417226585
 10
1568.950161532014
 20
983.7361084960285
 10
1569.130623997687
 20
984.1350310631353
 10
1569.240710096008
 20
984.6009866264287
 10
1569.277709141883
 20
985.1225018135226
  0
LWPOLYLINE
  5
9DB
330
998
100
AcDbEntity
  8
0
  6
Continuous
 62
     7
370
    15
100
AcDbPolyline
 90
       41
 70
   128
 43
0.0
 10
1560.438874377051
 20
990.2250525124145
 10
1560.401875331176
 20
990.7892858885929
 10
1560.291789232855
 20
991.3823441555512
 10
1560.111326767182
 20
991.9896242505092
 10
1559.864931518983
 20
992.5961729220821
 10
1559.558670557008
 20
993.1870549289559
 10
1559.200085042562
 20
993.7477207950967
 10
1558.798004541088
 20
994.2643650661366
 10
1558.362329608962
 20
994.7242662454787
 10
1557.903788008933
 20
995.1161000397629
 10
1557.433670557008
 20
995.4302182005523
 10
1556.963553105083
 20
995.6588860962297
 10
1556.505011505054
 20
995.7964731642984
 10
1556.069336572928
 20
995.8395915545173
 10
1555.667256071454
 20
995.7871795490174
 10
1555.308670557008
 20
995.6405277053194
 10
1555.002409595033
 20
995.4032470785252
 10
1554.756014346834
 20
995.0811803051552
 10
1554.575551881161
 20
994.6822577380483
 10
1554.46546578284
 20
994.2163021747548
 10
1554.428466736965
 20
993.6947869876609
 10
1554.46546578284
 20
993.1305536114825
 10
1554.575551881161
 20
992.5374953445244
 10
1554.756014346834
 20
991.9302152495664
 10
1555.002409595033
 20
991.3236665779935
 10
1555.308670557008
 20
990.7327845711195
 10
1555.667256071454
 20
990.1721187049789
 10
1556.069336572928
 20
989.655474433939
 10
1556.505011505054
 20
989.1955732545969
 10
1556.963553105083
 20
988.8037394603127
 10
1557.433670557008
 20
988.4896212995233
 10
1557.903788008933
 20
988.2609534038458
 10
1558.362329608962
 20
988.1233663357772
 10
1558.798004541088
 20
988.0802479455583
 10
1559.200085042562
 20
988.1326599510583
 10
1559.558670557008
 20
988.2793117947562
 10
1559.864931518983
 20
988.5165924215504
 10
1560.111326767182
 20
988.8386591949204
 10
1560.291789232855
 20
989.2375817620273
 10
1560.401875331176
 20
989.7035373253206
 10
1560.438874377051
 20
990.2250525124145
  0
LWPOLYLINE
  5
9DC
330
998
100
AcDbEntity
  8
0
  6
Continuous
 62
     7
370
    15
100
AcDbPolyline
 90
       45
 70
   128
 43
0.0
 10
1552.307146393405
 20
994.9193991553951
 10
1552.269360424195
 20
995.5512933674418
 10
1552.15677172993
 20
996.2139507869926
 10
1551.971672291748
 20
996.8938816199319
 10
1551.717830200427
 20
997.5772444352594
 10
1551.400412948926
 20
998.2501279367109
 10
1551.02588223713
 20
998.8988341566326
 10
1550.601862430274
 20
999.5101573071011
 10
1550.136985348853
 20
1000.071652611683
 10
1549.64071454965
 20
1000.571889645196
 10
1549.12315267501
 20
1001.000685024203
 10
1548.594835792176
 20
1001.34930971133
 10
1548.066518909342
 20
1001.610666713298
 10
1547.548957034702
 20
1001.779435555238
 10
1547.052686235499
 20
1001.852180590218
 10
1546.587809154078
 20
1001.827420939105
 10
1546.163789347222
 20
1001.705660636995
 10
1545.789258635426
 20
1001.48937837251
 10
1545.471841383925
 20
1001.182977028849
 10
1545.217999292604
 20
1000.792694053781
 10
1545.032899854422
 20
1000.326474483195
 10
1544.920311160157
 20
999.7938092030819
 10
1544.882525190947
 20
999.2055417424642
 10
1544.920311160157
 20
998.5736475304177
 10
1545.032899854422
 20
997.9109901108669
 10
1545.217999292604
 20
997.2310592779276
 10
1545.471841383925
 20
996.5476964626001
 10
1545.789258635426
 20
995.8748129611484
 10
1546.163789347222
 20
995.2261067412267
 10
1546.587809154078
 20
994.6147835907583
 10
1547.052686235499
 20
994.0532882861761
 10
1547.548957034702
 20
993.5530512526629
 10
1548.066518909342
 20
993.1242558736565
 10
1548.594835792176
 20
992.7756311865296
 10
1549.12315267501
 20
992.5142741845615
 10
1549.64071454965
 20
992.3455053426209
 10
1550.136985348853
 20
992.272760307641
 10
1550.601862430274
 20
992.297519958754
 10
1551.02588223713
 20
992.4192802608645
 10
1551.400412948926
 20
992.6355625253492
 10
1551.717830200427
 20
992.9419638690099
 10
1551.971672291748
 20
993.3322468440779
 10
1552.15677172993
 20
993.7984664146641
 10
1552.269360424195
 20
994.3311316947777
 10
1552.307146393405
 20
994.9193991553951
  0
LWPOLYLINE
  5
9DD
330
998
100
AcDbEntity
  8
0
  6
Continuous
 62
     7
370
    15
100
AcDbPolyline
 90
       41
 70
   128
 43
0.0
 10
1533.922370082555
 20
1005.53270460909
 10
1533.885371036681
 20
1006.096937985269
 10
1533.775284938359
 20
1006.689996252227
 10
1533.594822472687
 20
1007.297276347185
 10
1533.348427224488
 20
1007.903825018758
 10
1533.042166262513
 20
1008.494707025632
 10
1532.683580748067
 20
1009.055372891772
 10
1532.281500246593
 20
1009.572017162812
 10
1531.845825314466
 20
1010.031918342154
 10
1531.387283714438
 20
1010.423752136438
 10
1530.917166262512
 20
1010.737870297228
 10
1530.447048810587
 20
1010.966538192905
 10
1529.988507210559
 20
1011.104125260974
 10
1529.552832278432
 20
1011.147243651193
 10
1529.150751776958
 20
1011.094831645693
 10
1528.792166262513
 20
1010.948179801995
 10
1528.485905300537
 20
1010.710899175201
 10
1528.239510052339
 20
1010.388832401831
 10
1528.059047586666
 20
1009.989909834724
 10
1527.948961488344
 20
1009.523954271431
 10
1527.91196244247
 20
1009.002439084337
 10
1527.948961488344
 20
1008.438205708158
 10
1528.059047586666
 20
1007.8451474412
 10
1528.239510052339
 20
1007.237867346242
 10
1528.485905300537
 20
1006.631318674669
 10
1528.792166262513
 20
1006.040436667795
 10
1529.150751776958
 20
1005.479770801654
 10
1529.552832278432
 20
1004.963126530615
 10
1529.988507210559
 20
1004.503225351273
 10
1530.447048810587
 20
1004.111391556988
 10
1530.917166262512
 20
1003.797273396199
 10
1531.387283714438
 20
1003.568605500521
 10
1531.845825314466
 20
1003.431018432453
 10
1532.281500246593
 20
1003.387900042234
 10
1532.683580748067
 20
1003.440312047734
 10
1533.042166262513
 20
1003.586963891432
 10
1533.348427224488
 20
1003.824244518226
 10
1533.594822472687
 20
1004.146311291596
 10
1533.775284938359
 20
1004.545233858703
 10
1533.885371036681
 20
1005.011189421996
 10
1533.922370082555
 20
1005.53270460909
  0
LWPOLYLINE
  5
9DE
330
998
100
AcDbEntity
  8
0
  6
Continuous
 62
     7
370
    15
100
AcDbPolyline
 90
       41
 70
   128
 43
0.0
 10
1542.761204847387
 20
1000.430153910198
 10
1542.724205801512
 20
1000.994387286377
 10
1542.614119703191
 20
1001.587445553335
 10
1542.433657237518
 20
1002.194725648293
 10
1542.18726198932
 20
1002.801274319866
 10
1541.881001027344
 20
1003.39215632674
 10
1541.522415512899
 20
1003.95282219288
 10
1541.120335011425
 20
1004.46946646392
 10
1540.684660079298
 20
1004.929367643262
 10
1540.226118479269
 20
1005.321201437546
 10
1539.756001027345
 20
1005.635319598336
 10
1539.285883575419
 20
1005.863987494013
 10
1538.827341975391
 20
1006.001574562082
 10
1538.391667043264
 20
1006.044692952301
 10
1537.98958654179
 20
1005.992280946801
 10
1537.631001027344
 20
1005.845629103103
 10
1537.324740065369
 20
1005.608348476309
 10
1537.07834481717
 20
1005.286281702939
 10
1536.897882351498
 20
1004.887359135832
 10
1536.787796253176
 20
1004.421403572538
 10
1536.750797207302
 20
1003.899888385445
 10
1536.787796253176
 20
1003.335655009266
 10
1536.897882351498
 20
1002.742596742308
 10
1537.07834481717
 20
1002.13531664735
 10
1537.324740065369
 20
1001.528767975777
 10
1537.631001027344
 20
1000.937885968903
 10
1537.98958654179
 20
1000.377220102762
 10
1538.391667043264
 20
999.8605758317228
 10
1538.827341975391
 20
999.4006746523808
 10
1539.285883575419
 20
999.0088408580966
 10
1539.756001027345
 20
998.6947226973072
 10
1540.22611847927
 20
998.4660548016297
 10
1540.684660079298
 20
998.328467733561
 10
1541.120335011425
 20
998.2853493433422
 10
1541.522415512899
 20
998.3377613488421
 10
1541.881001027344
 20
998.4844131925401
 10
1542.18726198932
 20
998.7216938193343
 10
1542.433657237518
 20
999.0437605927043
 10
1542.614119703191
 20
999.4426831598111
 10
1542.724205801512
 20
999.9086387231045
 10
1542.761204847387
 20
1000.430153910198
  0
LWPOLYLINE
  5
9DF
330
998
100
AcDbEntity
  8
0
  6
Continuous
 62
     7
370
    15
100
AcDbPolyline
 90
       41
 70
   128
 43
0.0
 10
1525.083535317723
 20
1010.635255307982
 10
1525.046536271849
 20
1011.199488684161
 10
1524.936450173528
 20
1011.792546951119
 10
1524.755987707855
 20
1012.399827046077
 10
1524.509592459656
 20
1013.00637571765
 10
1524.203331497681
 20
1013.597257724524
 10
1523.844745983235
 20
1014.157923590664
 10
1523.442665481761
 20
1014.674567861704
 10
1523.006990549635
 20
1015.134469041046
 10
1522.548448949606
 20
1015.52630283533
 10
1522.078331497681
 20
1015.84042099612
 10
1521.608214045756
 20
1016.069088891797
 10
1521.149672445727
 20
1016.206675959866
 10
1520.7139975136
 20
1016.249794350085
 10
1520.311917012127
 20
1016.197382344585
 10
1519.953331497681
 20
1016.050730500887
 10
1519.647070535706
 20
1015.813449874093
 10
1519.400675287507
 20
1015.491383100723
 10
1519.220212821834
 20
1015.092460533616
 10
1519.110126723512
 20
1014.626504970323
 10
1519.073127677638
 20
1014.104989783229
 10
1519.110126723512
 20
1013.54075640705
 10
1519.220212821834
 20
1012.947698140092
 10
1519.400675287507
 20
1012.340418045134
 10
1519.647070535706
 20
1011.733869373561
 10
1519.953331497681
 20
1011.142987366687
 10
1520.311917012127
 20
1010.582321500546
 10
1520.7139975136
 20
1010.065677229507
 10
1521.149672445727
 20
1009.605776050165
 10
1521.608214045756
 20
1009.21394225588
 10
1522.078331497681
 20
1008.899824095091
 10
1522.548448949606
 20
1008.671156199413
 10
1523.006990549635
 20
1008.533569131345
 10
1523.442665481761
 20
1008.490450741126
 10
1523.844745983235
 20
1008.542862746626
 10
1524.203331497681
 20
1008.689514590324
 10
1524.509592459656
 20
1008.926795217118
 10
1524.755987707855
 20
1009.248861990488
 10
1524.936450173528
 20
1009.647784557595
 10
1525.046536271849
 20
1010.113740120888
 10
1525.083535317723
 20
1010.635255307982
  0
LWPOLYLINE
  5
9E0
330
998
100
AcDbEntity
  8
0
  6
Continuous
 62
     7
370
    15
100
AcDbPolyline
 90
       41
 70
   128
 43
0.0
 10
1516.244700552892
 20
1015.737806006874
 10
1516.207701507017
 20
1016.302039383052
 10
1516.097615408696
 20
1016.895097650011
 10
1515.917152943023
 20
1017.502377744968
 10
1515.670757694824
 20
1018.108926416541
 10
1515.364496732849
 20
1018.699808423416
 10
1515.005911218403
 20
1019.260474289556
 10
1514.603830716929
 20
1019.777118560596
 10
1514.168155784803
 20
1020.237019739938
 10
1513.709614184774
 20
1020.628853534222
 10
1513.239496732849
 20
1020.942971695012
 10
1512.769379280924
 20
1021.171639590689
 10
1512.310837680895
 20
1021.309226658758
 10
1511.875162748768
 20
1021.352345048977
 10
1511.473082247294
 20
1021.299933043477
 10
1511.114496732849
 20
1021.153281199779
 10
1510.808235770874
 20
1020.916000572984
 10
1510.561840522675
 20
1020.593933799615
 10
1510.381378057002
 20
1020.195011232508
 10
1510.27129195868
 20
1019.729055669214
 10
1510.234292912806
 20
1019.207540482121
 10
1510.27129195868
 20
1018.643307105942
 10
1510.381378057002
 20
1018.050248838984
 10
1510.561840522675
 20
1017.442968744026
 10
1510.808235770874
 20
1016.836420072453
 10
1511.114496732849
 20
1016.245538065579
 10
1511.473082247294
 20
1015.684872199438
 10
1511.875162748768
 20
1015.168227928398
 10
1512.310837680895
 20
1014.708326749056
 10
1512.769379280924
 20
1014.316492954772
 10
1513.239496732849
 20
1014.002374793983
 10
1513.709614184774
 20
1013.773706898305
 10
1514.168155784803
 20
1013.636119830237
 10
1514.603830716929
 20
1013.593001440018
 10
1515.005911218403
 20
1013.645413445518
 10
1515.364496732849
 20
1013.792065289216
 10
1515.670757694824
 20
1014.02934591601
 10
1515.917152943023
 20
1014.35141268938
 10
1516.097615408696
 20
1014.750335256487
 10
1516.207701507017
 20
1015.21629081978
 10
1516.244700552892
 20
1015.737806006874
  0
LWPOLYLINE
  5
9E1
330
998
100
AcDbEntity
  8
0
  6
Continuous
 62
     7
370
    15
100
AcDbPolyline
 90
       41
 70
   128
 43
0.0
 10
1507.40586578806
 20
1020.840356705766
 10
1507.368866742185
 20
1021.404590081944
 10
1507.258780643864
 20
1021.997648348903
 10
1507.078318178191
 20
1022.60492844386
 10
1506.831922929992
 20
1023.211477115433
 10
1506.525661968017
 20
1023.802359122307
 10
1506.167076453571
 20
1024.363024988448
 10
1505.764995952097
 20
1024.879669259488
 10
1505.329321019971
 20
1025.33957043883
 10
1504.870779419942
 20
1025.731404233114
 10
1504.400661968017
 20
1026.045522393904
 10
1503.930544516092
 20
1026.274190289581
 10
1503.472002916063
 20
1026.41177735765
 10
1503.036327983936
 20
1026.454895747868
 10
1502.634247482463
 20
1026.402483742369
 10
1502.275661968017
 20
1026.255831898671
 10
1501.969401006042
 20
1026.018551271876
 10
1501.723005757843
 20
1025.696484498507
 10
1501.54254329217
 20
1025.2975619314
 10
1501.432457193849
 20
1024.831606368106
 10
1501.395458147974
 20
1024.310091181012
 10
1501.432457193849
 20
1023.745857804834
 10
1501.54254329217
 20
1023.152799537876
 10
1501.723005757843
 20
1022.545519442918
 10
1501.969401006042
 20
1021.938970771345
 10
1502.275661968017
 20
1021.348088764471
 10
1502.634247482463
 20
1020.78742289833
 10
1503.036327983937
 20
1020.27077862729
 10
1503.472002916063
 20
1019.810877447948
 10
1503.930544516092
 20
1019.419043653664
 10
1504.400661968017
 20
1019.104925492875
 10
1504.870779419942
 20
1018.876257597197
 10
1505.329321019971
 20
1018.738670529129
 10
1505.764995952097
 20
1018.69555213891
 10
1506.167076453571
 20
1018.747964144409
 10
1506.525661968017
 20
1018.894615988107
 10
1506.831922929992
 20
1019.131896614902
 10
1507.078318178191
 20
1019.453963388272
 10
1507.258780643864
 20
1019.852885955379
 10
1507.368866742185
 20
1020.318841518672
 10
1507.40586578806
 20
1020.840356705766
  0
LWPOLYLINE
  5
9E2
330
998
100
AcDbEntity
  8
0
  6
Continuous
 62
     7
370
    15
100
AcDbPolyline
 90
       16
 70
   128
 43
0.0
 10
1571.674334660234
 20
996.1906958373235
 10
1571.055963479104
 20
996.0373751770863
 10
1570.401549438926
 20
995.9467168497237
 10
1569.729993489002
 20
995.9213392716273
 10
1569.060691675545
 20
995.9619754043286
 10
1568.412974940234
 20
996.0674515849213
 10
1567.805550799147
 20
996.2347214240864
 10
1567.255963027618
 20
996.4589537926674
 10
1566.780084956553
 20
996.7336723555444
 10
1566.391661014926
 20
997.0509426227602
 10
1566.101909759766
 20
997.4016011154338
 10
1565.919199858992
 20
997.775520027641
 10
1565.848808385467
 20
998.1618997402264
 10
1565.892768403263
 20
998.5495807380955
 10
1566.049810248194
 20
998.9273659221067
 10
1566.315398198583
 20
999.2843440064802
  0
ELLIPSE
  5
9E3
330
998
100
AcDbEntity
  8
0
  6
Continuous
 62
     7
370
    15
100
AcDbEllipse
 10
1569.808039227773
 20
995.6270130270731
 30
0.0
 11
-3.55873115747967
 21
7.398056379327002
 31
0.0
210
0.0
220
0.0
230
1.0
 40
0.2347860887583228
 41
4.487843998479218
 42
4.675709535131307
  0
ARC
  5
9E4
330
998
100
AcDbEntity
  8
0
  6
Continuous
 62
     7
370
    15
100
AcDbCircle
 10
1570.736204245978
 20
998.1816761405035
 30
0.0
 40
3.728317987087949
100
AcDbArc
 50
294.6940103409129
 51
305.3006131263639
  0
ELLIPSE
  5
9E5
330
998
100
AcDbEntity
  8
0
  6
Continuous
 62
     7
370
    15
100
AcDbEllipse
 10
1569.808039227773
 20
995.6270130270731
 30
0.0
 11
2.555205607683234
 21
10.59909328466008
 31
0.0
210
0.0
220
0.0
230
1.0
 40
0.2854313889643518
 41
4.735129962514756
 42
4.922995499166875
  0
LWPOLYLINE
  5
9E6
330
998
100
AcDbEntity
  8
0
  6
Continuous
 62
     7
370
    15
100
AcDbPolyline
 90
       16
 70
   128
 43
0.0
 10
1567.941743795311
 20
1000.223213335077
 10
1568.56011497644
 20
1000.376533995314
 10
1569.214529016619
 20
1000.467192322677
 10
1569.886084966543
 20
1000.492569900773
 10
1570.55538678
 20
1000.451933768072
 10
1571.203103515311
 20
1000.346457587479
 10
1571.810527656398
 20
1000.179187748314
 10
1572.360115427927
 20
999.9549553797331
 10
1572.835993498993
 20
999.6802368168559
 10
1573.224417440619
 20
999.3629665496401
 10
1573.51416869578
 20
999.0123080569665
 10
1573.696878596553
 20
998.6383891447594
 10
1573.767270070077
 20
998.2520094321738
 10
1573.723310052282
 20
997.864328434305
 10
1573.566268207351
 20
997.4865432502936
 10
1573.300680256963
 20
997.1295651659199
  0
ELLIPSE
  5
9E7
330
998
100
AcDbEntity
  8
0
  6
Continuous
 62
     7
370
    15
100
AcDbEllipse
 10
1569.808039227773
 20
995.6270130270731
 30
0.0
 11
2.555205607683234
 21
10.59909328466008
 31
0.0
210
0.0
220
0.0
230
1.0
 40
0.2854313889643518
 41
1.19210474998719
 42
1.350900197841377
  0
LINE
  5
9E8
330
998
100
AcDbEntity
  8
0
  6
Continuous
 62
     7
370
    15
100
AcDbLine
 10
1567.651363545154
 20
997.4109566771728
 30
0.0
 11
1568.605957699755
 21
997.962032152653
 31
0.0
  0
LINE
  5
9E9
330
998
100
AcDbEntity
  8
0
  6
Continuous
 62
     7
370
    15
100
AcDbLine
 10
1568.429181004459
 20
996.9619322156702
 30
0.0
 11
1567.651363545154
 21
997.4109566771726
 31
0.0
  0
LINE
  5
9EA
330
998
100
AcDbEntity
  8
0
  6
Continuous
 62
     7
370
    15
100
AcDbLine
 10
1569.383775159061
 20
997.5130076911508
 30
0.0
 11
1568.429181004459
 21
996.9619322156702
 31
0.0
  0
LINE
  5
9EB
330
998
100
AcDbEntity
  8
0
  6
Continuous
 62
     7
370
    15
100
AcDbLine
 10
1569.383775159061
 20
997.5130076911508
 30
0.0
 11
1571.674334660234
 21
996.1906958373235
 31
0.0
  0
LINE
  5
9EC
330
998
100
AcDbEntity
  8
0
  6
Continuous
 62
     7
370
    15
100
AcDbLine
 10
1566.315398198583
 20
999.2843440064802
 30
0.0
 11
1568.605957699755
 21
997.9620321526528
 31
0.0
  0
LINE
  5
9ED
330
998
100
AcDbEntity
  8
0
  6
Continuous
 62
     7
370
    15
100
AcDbLine
 10
1572.890673782266
 20
995.1388787384324
 30
0.0
 11
1571.894158457501
 21
995.7141547903239
 31
0.0
  0
LINE
  5
9EE
330
998
100
AcDbEntity
  8
0
  6
Continuous
 62
     7
370
    15
100
AcDbLine
 10
1569.080945683659
 20
997.338187956144
 30
0.0
 11
1568.804154902097
 21
997.4979758731581
 31
0.0
  0
LINE
  5
9EF
330
998
100
AcDbEntity
  8
0
  6
Continuous
 62
     7
370
    15
100
AcDbLine
 10
1570.094516922523
 20
997.1027052046386
 30
0.0
 11
1570.697869891466
 21
997.4510134596599
 31
0.0
  0
LINE
  5
9F0
330
998
100
AcDbEntity
  8
0
  6
Continuous
 62
     7
370
    15
100
AcDbLine
 10
1570.513706798862
 20
996.8607120399974
 30
0.0
 11
1571.01012075579
 21
998.4518770197473
 31
0.0
  0
LINE
  5
9F1
330
998
100
AcDbEntity
  8
0
  6
Continuous
 62
     7
370
    15
100
AcDbLine
 10
1571.01012075579
 20
998.4518770197473
 30
0.0
 11
1573.300680256963
 21
997.1295651659199
 31
0.0
  0
LINE
  5
9F2
330
998
100
AcDbEntity
  8
0
  6
Continuous
 62
     7
370
    15
100
AcDbLine
 10
1570.232303296484
 20
998.9009014812495
 30
0.0
 11
1571.186897451086
 21
999.45197695673
 31
0.0
  0
LINE
  5
9F3
330
998
100
AcDbEntity
  8
0
  6
Continuous
 62
     7
370
    15
100
AcDbLine
 10
1570.232303296484
 20
998.9009014812497
 30
0.0
 11
1567.941743795311
 21
1000.223213335077
 31
0.0
  0
LINE
  5
9F4
330
998
100
AcDbEntity
  8
0
  6
Continuous
 62
     7
370
    15
100
AcDbLine
 10
1571.01012075579
 20
998.4518770197473
 30
0.0
 11
1571.964714910391
 21
999.0029524952275
 31
0.0
  0
LINE
  5
9F5
330
998
100
AcDbEntity
  8
0
  6
Continuous
 62
     7
370
    15
100
AcDbLine
 10
1571.186897451086
 20
999.45197695673
 30
0.0
 11
1571.964714910391
 21
999.0029524952277
 31
0.0
  0
LWPOLYLINE
  5
9F6
330
998
100
AcDbEntity
  8
0
  6
Continuous
 62
     7
370
    15
100
AcDbPolyline
 90
       21
 70
   128
 43
0.0
 10
1564.331818619512
 20
990.6273716831853
 10
1564.194797750458
 20
990.5047984075888
 10
1563.948402502259
 20
990.182731634219
 10
1563.767940036586
 20
989.783809067112
 10
1563.657853938265
 20
989.3178535038186
 10
1563.62085489239
 20
988.7963383167248
 10
1563.657853938265
 20
988.2321049405463
 10
1563.767940036586
 20
987.6390466735882
 10
1563.948402502259
 20
987.03176657863
 10
1564.194797750458
 20
986.4252179070572
 10
1564.501058712433
 20
985.8343359001834
 10
1564.859644226879
 20
985.2736700340427
 10
1565.261724728353
 20
984.7570257630026
 10
1565.697399660479
 20
984.2971245836606
 10
1566.155941260508
 20
983.9052907893766
 10
1566.626058712433
 20
983.5911726285871
 10
1567.096176164358
 20
983.3625047329096
 10
1567.554717764387
 20
983.224917664841
 10
1567.990392696513
 20
983.1817992746222
 10
1568.392473197987
 20
983.2342112801221
 10
1568.566745414773
 20
983.2914684470686
  0
LINE
  5
9F7
330
998
100
AcDbEntity
  8
0
  6
Continuous
 62
     7
370
    15
100
AcDbLine
 10
1568.913648390122
 20
997.2416092843195
 30
0.0
 11
1568.605957699755
 21
997.9620321526533
 31
0.0
  0
LINE
  5
9F8
330
998
100
AcDbEntity
  8
0
  6
Continuous
 62
     7
370
    15
100
AcDbLine
 10
1571.186897451086
 20
999.45197695673
 30
0.0
 11
1571.186897451086
 21
998.5539280337247
 31
0.0
  0
LINE
  5
9F9
330
998
100
AcDbEntity
  8
0
  6
Continuous
 62
     7
370
    15
100
AcDbLine
 10
1570.232303296484
 20
998.9009014812497
 30
0.0
 11
1569.860852484781
 21
997.2375968132983
 31
0.0
  0
LWPOLYLINE
  5
9FA
330
998
100
AcDbEntity
  8
0
  6
Continuous
 62
     7
370
    15
100
AcDbPolyline
 90
       16
 70
   128
 43
0.0
 10
1562.835499895402
 20
1001.293246536215
 10
1562.217128714273
 20
1001.139925875978
 10
1561.562714674094
 20
1001.049267548616
 10
1560.891158724171
 20
1001.023889970519
 10
1560.221856910713
 20
1001.06452610322
 10
1559.574140175402
 20
1001.170002283813
 10
1558.966716034315
 20
1001.337272122978
 10
1558.417128262786
 20
1001.561504491559
 10
1557.941250191721
 20
1001.836223054436
 10
1557.552826250094
 20
1002.153493321652
 10
1557.263074994934
 20
1002.504151814326
 10
1557.08036509416
 20
1002.878070726533
 10
1557.009973620636
 20
1003.264450439118
 10
1557.053933638431
 20
1003.652131436987
 10
1557.210975483363
 20
1004.029916620998
 10
1557.476563433751
 20
1004.386894705372
  0
ELLIPSE
  5
9FB
330
998
100
AcDbEntity
  8
0
  6
Continuous
 62
     7
370
    15
100
AcDbEllipse
 10
1560.969204462941
 20
1000.729563725965
 30
0.0
 11
-3.558731157479684
 21
7.398056379327003
 31
0.0
210
0.0
220
0.0
230
1.0
 40
0.2347860887583227
 41
4.487843998479214
 42
4.675709535131307
  0
ARC
  5
9FC
330
998
100
AcDbEntity
  8
0
  6
Continuous
 62
     7
370
    15
100
AcDbCircle
 10
1561.897369481147
 20
1003.284226839393
 30
0.0
 40
3.728317987085311
100
AcDbArc
 50
294.6940103409129
 51
305.3006131263677
  0
ELLIPSE
  5
9FD
330
998
100
AcDbEntity
  8
0
  6
Continuous
 62
     7
370
    15
100
AcDbEllipse
 10
1560.969204462941
 20
1000.729563725965
 30
0.0
 11
2.555205607683205
 21
10.59909328466008
 31
0.0
210
0.0
220
0.0
230
1.0
 40
0.2854313889643519
 41
4.735129962514756
 42
4.922995499166875
  0
LWPOLYLINE
  5
9FE
330
998
100
AcDbEntity
  8
0
  6
Continuous
 62
     7
370
    15
100
AcDbPolyline
 90
       16
 70
   128
 43
0.0
 10
1559.10290903048
 20
1005.325764033969
 10
1559.721280211609
 20
1005.479084694206
 10
1560.375694251787
 20
1005.569743021568
 10
1561.047250201711
 20
1005.595120599665
 10
1561.716552015168
 20
1005.554484466964
 10
1562.364268750479
 20
1005.449008286371
 10
1562.971692891566
 20
1005.281738447206
 10
1563.521280663095
 20
1005.057506078625
 10
1563.997158734161
 20
1004.782787515748
 10
1564.385582675788
 20
1004.465517248532
 10
1564.675333930948
 20
1004.114858755858
 10
1564.858043831721
 20
1003.740939843651
 10
1564.928435305246
 20
1003.354560131066
 10
1564.884475287451
 20
1002.966879133197
 10
1564.727433442519
 20
1002.589093949185
 10
1564.461845492131
 20
1002.232115864812
  0
ELLIPSE
  5
9FF
330
998
100
AcDbEntity
  8
0
  6
Continuous
 62
     7
370
    15
100
AcDbEllipse
 10
1560.969204462941
 20
1000.729563725965
 30
0.0
 11
2.555205607683205
 21
10.59909328466008
 31
0.0
210
0.0
220
0.0
230
1.0
 40
0.2854313889643519
 41
1.192104749987188
 42
1.35090019784138
  0
LINE
  5
A00
330
998
100
AcDbEntity
  8
0
  6
Continuous
 62
     7
370
    15
100
AcDbLine
 10
1558.812528780322
 20
1002.513507376064
 30
0.0
 11
1559.767122934923
 21
1003.064582851545
 31
0.0
  0
LINE
  5
A01
330
998
100
AcDbEntity
  8
0
  6
Continuous
 62
     7
370
    15
100
AcDbLine
 10
1559.590346239628
 20
1002.064482914562
 30
0.0
 11
1558.812528780322
 21
1002.513507376064
 31
0.0
  0
LINE
  5
A02
330
998
100
AcDbEntity
  8
0
  6
Continuous
 62
     7
370
    15
100
AcDbLine
 10
1560.544940394229
 20
1002.615558390043
 30
0.0
 11
1559.590346239628
 21
1002.064482914562
 31
0.0
  0
LINE
  5
A03
330
998
100
AcDbEntity
  8
0
  6
Continuous
 62
     7
370
    15
100
AcDbLine
 10
1560.54494039423
 20
1002.615558390042
 30
0.0
 11
1562.835499895402
 21
1001.293246536215
 31
0.0
  0
LINE
  5
A04
330
998
100
AcDbEntity
  8
0
  6
Continuous
 62
     7
370
    15
100
AcDbLine
 10
1557.476563433751
 20
1004.386894705372
 30
0.0
 11
1559.767122934923
 21
1003.064582851544
 31
0.0
  0
LINE
  5
A05
330
998
100
AcDbEntity
  8
0
  6
Continuous
 62
     7
370
    15
100
AcDbLine
 10
1564.051839017434
 20
1000.241429437324
 30
0.0
 11
1563.055323692669
 21
1000.816705489216
 31
0.0
  0
LINE
  5
A06
330
998
100
AcDbEntity
  8
0
  6
Continuous
 62
     7
370
    15
100
AcDbLine
 10
1560.242110918827
 20
1002.440738655036
 30
0.0
 11
1559.965320137265
 21
1002.60052657205
 31
0.0
  0
LINE
  5
A07
330
998
100
AcDbEntity
  8
0
  6
Continuous
 62
     7
370
    15
100
AcDbLine
 10
1561.255682157691
 20
1002.20525590353
 30
0.0
 11
1561.859035126635
 21
1002.553564158552
 31
0.0
  0
LINE
  5
A08
330
998
100
AcDbEntity
  8
0
  6
Continuous
 62
     7
370
    15
100
AcDbLine
 10
1561.67487203403
 20
1001.963262738889
 30
0.0
 11
1562.171285990958
 21
1003.554427718639
 31
0.0
  0
LINE
  5
A09
330
998
100
AcDbEntity
  8
0
  6
Continuous
 62
     7
370
    15
100
AcDbLine
 10
1562.171285990958
 20
1003.554427718639
 30
0.0
 11
1564.461845492131
 21
1002.232115864812
 31
0.0
  0
LINE
  5
A0A
330
998
100
AcDbEntity
  8
0
  6
Continuous
 62
     7
370
    15
100
AcDbLine
 10
1561.393468531652
 20
1004.003452180141
 30
0.0
 11
1562.348062686254
 21
1004.554527655622
 31
0.0
  0
LINE
  5
A0B
330
998
100
AcDbEntity
  8
0
  6
Continuous
 62
     7
370
    15
100
AcDbLine
 10
1561.393468531652
 20
1004.003452180141
 30
0.0
 11
1559.10290903048
 21
1005.325764033969
 31
0.0
  0
LINE
  5
A0C
330
998
100
AcDbEntity
  8
0
  6
Continuous
 62
     7
370
    15
100
AcDbLine
 10
1562.171285990958
 20
1003.554427718639
 30
0.0
 11
1563.12588014556
 21
1004.105503194119
 31
0.0
  0
LINE
  5
A0D
330
998
100
AcDbEntity
  8
0
  6
Continuous
 62
     7
370
    15
100
AcDbLine
 10
1562.348062686254
 20
1004.554527655622
 30
0.0
 11
1563.12588014556
 21
1004.105503194119
 31
0.0
  0
LWPOLYLINE
  5
A0E
330
998
100
AcDbEntity
  8
0
  6
Continuous
 62
     7
370
    15
100
AcDbPolyline
 90
       21
 70
   128
 43
0.0
 10
1555.492983854674
 20
995.7299223820724
 10
1555.355962985626
 20
995.6073491064808
 10
1555.109567737427
 20
995.2852823331109
 10
1554.929105271755
 20
994.8863597660039
 10
1554.819019173433
 20
994.4204042027106
 10
1554.782020127558
 20
993.8988890156167
 10
1554.819019173433
 20
993.3346556394383
 10
1554.929105271755
 20
992.74159737248
 10
1555.109567737427
 20
992.134317277522
 10
1555.355962985626
 20
991.5277686059491
 10
1555.662223947601
 20
990.9368865990753
 10
1556.020809462047
 20
990.3762207329346
 10
1556.422889963521
 20
989.8595764618946
 10
1556.858564895648
 20
989.3996752825525
 10
1557.317106495676
 20
989.0078414882683
 10
1557.787223947601
 20
988.6937233274791
 10
1558.257341399526
 20
988.4650554318016
 10
1558.715882999555
 20
988.3274683637328
 10
1559.151557931682
 20
988.2843499735141
 10
1559.553638433155
 20
988.336761979014
 10
1559.727910649931
 20
988.3940191459565
  0
LINE
  5
A0F
330
998
100
AcDbEntity
  8
0
  6
Continuous
 62
     7
370
    15
100
AcDbLine
 10
1560.07481362529
 20
1002.344159983211
 30
0.0
 11
1559.767122934924
 21
1003.064582851545
 31
0.0
  0
LINE
  5
A10
330
998
100
AcDbEntity
  8
0
  6
Continuous
 62
     7
370
    15
100
AcDbLine
 10
1561.393468531652
 20
1004.003452180141
 30
0.0
 11
1561.022017719949
 21
1002.34014751219
 31
0.0
  0
LINE
  5
A11
330
998
100
AcDbEntity
  8
0
  6
Continuous
 62
     7
370
    15
100
AcDbLine
 10
1562.348062686254
 20
1004.554527655622
 30
0.0
 11
1562.348062686254
 21
1003.656478732616
 31
0.0
  0
LWPOLYLINE
  5
A12
330
998
100
AcDbEntity
  8
0
  6
Continuous
 62
     7
370
    15
100
AcDbPolyline
 90
       16
 70
   128
 43
0.0
 10
1553.99666513057
 20
1006.395797235107
 10
1553.378293949441
 20
1006.24247657487
 10
1552.723879909263
 20
1006.151818247507
 10
1552.052323959339
 20
1006.126440669411
 10
1551.383022145881
 20
1006.167076802112
 10
1550.735305410571
 20
1006.272552982705
 10
1550.127881269483
 20
1006.43982282187
 10
1549.578293497955
 20
1006.664055190451
 10
1549.102415426889
 20
1006.938773753328
 10
1548.713991485262
 20
1007.256044020544
 10
1548.424240230102
 20
1007.606702513218
 10
1548.241530329329
 20
1007.980621425425
 10
1548.171138855804
 20
1008.36700113801
 10
1548.215098873599
 20
1008.754682135879
 10
1548.372140718531
 20
1009.13246731989
 10
1548.637728668919
 20
1009.489445404264
  0
ELLIPSE
  5
A13
330
998
100
AcDbEntity
  8
0
  6
Continuous
 62
     7
370
    15
100
AcDbEllipse
 10
1552.130369698109
 20
1005.832114424857
 30
0.0
 11
-3.558731157479653
 21
7.398056379327001
 31
0.0
210
0.0
220
0.0
230
1.0
 40
0.2347860887583238
 41
4.487843998479219
 42
4.675709535131309
  0
ARC
  5
A14
330
998
100
AcDbEntity
  8
0
  6
Continuous
 62
     7
370
    15
100
AcDbCircle
 10
1553.058534716313
 20
1008.38677753829
 30
0.0
 40
3.728317987091095
100
AcDbArc
 50
294.6940103409129
 51
305.3006131263639
  0
ELLIPSE
  5
A15
330
998
100
AcDbEntity
  8
0
  6
Continuous
 62
     7
370
    15
100
AcDbEllipse
 10
1552.130369698109
 20
1005.832114424857
 30
0.0
 11
2.555205607683262
 21
10.59909328466011
 31
0.0
210
0.0
220
0.0
230
0.9999999999999998
 40
0.2854313889643508
 41
4.735129962514758
 42
4.922995499166877
  0
LWPOLYLINE
  5
A16
330
998
100
AcDbEntity
  8
0
  6
Continuous
 62
     7
370
    15
100
AcDbPolyline
 90
       16
 70
   128
 43
0.0
 10
1550.264074265648
 20
1010.428314732861
 10
1550.882445446777
 20
1010.581635393098
 10
1551.536859486956
 20
1010.67229372046
 10
1552.208415436879
 20
1010.697671298557
 10
1552.877717250336
 20
1010.657035165856
 10
1553.525433985647
 20
1010.551558985263
 10
1554.132858126735
 20
1010.384289146098
 10
1554.682445898263
 20
1010.160056777517
 10
1555.158323969329
 20
1009.88533821464
 10
1555.546747910956
 20
1009.568067947424
 10
1555.836499166116
 20
1009.21740945475
 10
1556.019209066889
 20
1008.843490542543
 10
1556.089600540414
 20
1008.457110829958
 10
1556.045640522619
 20
1008.069429832089
 10
1555.888598677687
 20
1007.691644648077
 10
1555.623010727299
 20
1007.334666563703
  0
ELLIPSE
  5
A17
330
998
100
AcDbEntity
  8
0
  6
Continuous
 62
     7
370
    15
100
AcDbEllipse
 10
1552.130369698109
 20
1005.832114424857
 30
0.0
 11
2.555205607683262
 21
10.59909328466011
 31
0.0
210
0.0
220
0.0
230
0.9999999999999998
 40
0.2854313889643508
 41
1.192104749987191
 42
1.350900197841379
  0
LINE
  5
A18
330
998
100
AcDbEntity
  8
0
  6
Continuous
 62
     7
370
    15
100
AcDbLine
 10
1549.97369401549
 20
1007.616058074956
 30
0.0
 11
1550.928288170092
 21
1008.167133550437
 31
0.0
  0
LINE
  5
A19
330
998
100
AcDbEntity
  8
0
  6
Continuous
 62
     7
370
    15
100
AcDbLine
 10
1550.751511474796
 20
1007.167033613454
 30
0.0
 11
1549.97369401549
 21
1007.616058074956
 31
0.0
  0
LINE
  5
A1A
330
998
100
AcDbEntity
  8
0
  6
Continuous
 62
     7
370
    15
100
AcDbLine
 10
1551.706105629397
 20
1007.718109088934
 30
0.0
 11
1550.751511474796
 21
1007.167033613454
 31
0.0
  0
LINE
  5
A1B
330
998
100
AcDbEntity
  8
0
  6
Continuous
 62
     7
370
    15
100
AcDbLine
 10
1551.706105629398
 20
1007.718109088934
 30
0.0
 11
1553.99666513057
 21
1006.395797235107
 31
0.0
  0
LINE
  5
A1C
330
998
100
AcDbEntity
  8
0
  6
Continuous
 62
     7
370
    15
100
AcDbLine
 10
1548.637728668919
 20
1009.489445404264
 30
0.0
 11
1550.928288170091
 21
1008.167133550436
 31
0.0
  0
LINE
  5
A1D
330
998
100
AcDbEntity
  8
0
  6
Continuous
 62
     7
370
    15
100
AcDbLine
 10
1555.213004252602
 20
1005.343980136216
 30
0.0
 11
1554.216488927838
 21
1005.919256188108
 31
0.0
  0
LINE
  5
A1E
330
998
100
AcDbEntity
  8
0
  6
Continuous
 62
     7
370
    15
100
AcDbLine
 10
1551.403276153996
 20
1007.543289353928
 30
0.0
 11
1551.126485372433
 21
1007.703077270942
 31
0.0
  0
LINE
  5
A1F
330
998
100
AcDbEntity
  8
0
  6
Continuous
 62
     7
370
    15
100
AcDbLine
 10
1552.416847392859
 20
1007.307806602422
 30
0.0
 11
1553.020200361803
 21
1007.656114857444
 31
0.0
  0
LWPOLYLINE
  5
A20
330
998
100
AcDbEntity
  8
0
  6
Continuous
 62
     7
370
    15
100
AcDbPolyline
 90
       24
 70
   128
 43
0.0
 10
1546.152783505661
 20
1001.700957848083
 10
1546.14281202602
 20
1001.693480400466
 10
1545.825394774519
 20
1001.387079056805
 10
1545.571552683197
 20
1000.996796081737
 10
1545.386453245015
 20
1000.530576511151
 10
1545.273864550751
 20
999.9979112310375
 10
1545.23607858154
 20
999.40964377042
 10
1545.273864550751
 20
998.7777495583735
 10
1545.386453245015
 20
998.1150921388225
 10
1545.571552683197
 20
997.4351613058832
 10
1545.825394774519
 20
996.7517984905557
 10
1546.14281202602
 20
996.0789149891041
 10
1546.517342737815
 20
995.4302087691825
 10
1546.941362544672
 20
994.818885618714
 10
1547.406239626093
 20
994.2573903141319
 10
1547.902510425296
 20
993.7571532806186
 10
1548.420072299935
 20
993.3283579016121
 10
1548.948389182769
 20
992.9797332144852
 10
1549.476706065604
 20
992.7183762125171
 10
1549.994267940244
 20
992.5496073705767
 10
1550.490538739446
 20
992.4768623355966
 10
1550.955415820867
 20
992.5016219867096
 10
1551.379435627723
 20
992.6233822888203
 10
1551.3904414693
 20
992.6280850777402
  0
LINE
  5
A21
330
998
100
AcDbEntity
  8
0
  6
Continuous
 62
     7
370
    15
100
AcDbLine
 10
1552.836037269198
 20
1007.065813437781
 30
0.0
 11
1553.332451226126
 21
1008.656978417531
 31
0.0
  0
LINE
  5
A22
330
998
100
AcDbEntity
  8
0
  6
Continuous
 62
     7
370
    15
100
AcDbLine
 10
1553.332451226126
 20
1008.656978417531
 30
0.0
 11
1555.623010727299
 21
1007.334666563703
 31
0.0
  0
LINE
  5
A23
330
998
100
AcDbEntity
  8
0
  6
Continuous
 62
     7
370
    15
100
AcDbLine
 10
1552.554633766821
 20
1009.106002879033
 30
0.0
 11
1553.509227921422
 21
1009.657078354514
 31
0.0
  0
LINE
  5
A24
330
998
100
AcDbEntity
  8
0
  6
Continuous
 62
     7
370
    15
100
AcDbLine
 10
1552.55463376682
 20
1009.106002879033
 30
0.0
 11
1550.264074265648
 21
1010.428314732861
 31
0.0
  0
LINE
  5
A25
330
998
100
AcDbEntity
  8
0
  6
Continuous
 62
     7
370
    15
100
AcDbLine
 10
1553.332451226126
 20
1008.656978417531
 30
0.0
 11
1554.287045380728
 21
1009.208053893011
 31
0.0
  0
LINE
  5
A26
330
998
100
AcDbEntity
  8
0
  6
Continuous
 62
     7
370
    15
100
AcDbLine
 10
1553.509227921422
 20
1009.657078354514
 30
0.0
 11
1554.287045380728
 21
1009.208053893011
 31
0.0
  0
LINE
  5
A27
330
998
100
AcDbEntity
  8
0
  6
Continuous
 62
     7
370
    15
100
AcDbLine
 10
1551.235978860458
 20
1007.446710682103
 30
0.0
 11
1550.928288170092
 21
1008.167133550437
 31
0.0
  0
LINE
  5
A28
330
998
100
AcDbEntity
  8
0
  6
Continuous
 62
     7
370
    15
100
AcDbLine
 10
1553.509227921422
 20
1009.657078354514
 30
0.0
 11
1553.509227921422
 21
1008.759029431508
 31
0.0
  0
LINE
  5
A29
330
998
100
AcDbEntity
  8
0
  6
Continuous
 62
     7
370
    15
100
AcDbLine
 10
1552.554633766821
 20
1009.106002879033
 30
0.0
 11
1552.183182955117
 21
1007.442698211082
 31
0.0
  0
LWPOLYLINE
  5
A2A
330
998
100
AcDbEntity
  8
0
  6
Continuous
 62
     7
370
    15
100
AcDbPolyline
 90
       16
 70
   128
 43
0.0
 10
1545.157830365738
 20
1011.498347933999
 10
1544.539459184609
 20
1011.345027273762
 10
1543.885045144431
 20
1011.254368946399
 10
1543.213489194507
 20
1011.228991368303
 10
1542.54418738105
 20
1011.269627501004
 10
1541.896470645739
 20
1011.375103681597
 10
1541.289046504652
 20
1011.542373520762
 10
1540.739458733123
 20
1011.766605889343
 10
1540.263580662057
 20
1012.04132445222
 10
1539.87515672043
 20
1012.358594719436
 10
1539.58540546527
 20
1012.70925321211
 10
1539.402695564497
 20
1013.083172124316
 10
1539.332304090972
 20
1013.469551836902
 10
1539.376264108767
 20
1013.857232834771
 10
1539.533305953699
 20
1014.235018018782
 10
1539.798893904087
 20
1014.591996103156
  0
ELLIPSE
  5
A2B
330
998
100
AcDbEntity
  8
0
  6
Continuous
 62
     7
370
    15
100
AcDbEllipse
 10
1543.291534933277
 20
1010.934665123749
 30
0.0
 11
-3.558731157479657
 21
7.398056379326987
 31
0.0
210
0.0
220
0.0
230
0.9999999999999998
 40
0.2347860887583241
 41
4.487843998479215
 42
4.675709535131307
  0
ARC
  5
A2C
330
998
100
AcDbEntity
  8
0
  6
Continuous
 62
     7
370
    15
100
AcDbCircle
 10
1544.219699951482
 20
1013.48932823718
 30
0.0
 40
3.728317987089031
100
AcDbArc
 50
294.6940103409129
 51
305.3006131263639
  0
ELLIPSE
  5
A2D
330
998
100
AcDbEntity
  8
0
  6
Continuous
 62
     7
370
    15
100
AcDbEllipse
 10
1543.291534933277
 20
1010.934665123749
 30
0.0
 11
2.555205607683263
 21
10.5990932846601
 31
0.0
210
0.0
220
0.0
230
1.0
 40
0.2854313889643512
 41
4.735129962514758
 42
4.922995499166874
  0
LWPOLYLINE
  5
A2E
330
998
100
AcDbEntity
  8
0
  6
Continuous
 62
     7
370
    15
100
AcDbPolyline
 90
       16
 70
   128
 43
0.0
 10
1541.425239500816
 20
1015.530865431752
 10
1542.043610681945
 20
1015.68418609199
 10
1542.698024722123
 20
1015.774844419352
 10
1543.369580672047
 20
1015.800221997449
 10
1544.038882485504
 20
1015.759585864747
 10
1544.686599220815
 20
1015.654109684155
 10
1545.294023361903
 20
1015.48683984499
 10
1545.843611133431
 20
1015.262607476409
 10
1546.319489204497
 20
1014.987888913532
 10
1546.707913146124
 20
1014.670618646316
 10
1546.997664401284
 20
1014.319960153642
 10
1547.180374302057
 20
1013.946041241435
 10
1547.250765775582
 20
1013.55966152885
 10
1547.206805757787
 20
1013.171980530981
 10
1547.049763912855
 20
1012.794195346969
 10
1546.784175962467
 20
1012.437217262595
  0
ELLIPSE
  5
A2F
330
998
100
AcDbEntity
  8
0
  6
Continuous
 62
     7
370
    15
100
AcDbEllipse
 10
1543.291534933277
 20
1010.934665123749
 30
0.0
 11
2.555205607683263
 21
10.5990932846601
 31
0.0
210
0.0
220
0.0
230
1.0
 40
0.2854313889643512
 41
1.192104749987191
 42
1.35090019784138
  0
LINE
  5
A30
330
998
100
AcDbEntity
  8
0
  6
Continuous
 62
     7
370
    15
100
AcDbLine
 10
1541.134859250659
 20
1012.718608773848
 30
0.0
 11
1542.08945340526
 21
1013.269684249329
 31
0.0
  0
LINE
  5
A31
330
998
100
AcDbEntity
  8
0
  6
Continuous
 62
     7
370
    15
100
AcDbLine
 10
1541.912676709964
 20
1012.269584312346
 30
0.0
 11
1541.134859250659
 21
1012.718608773848
 31
0.0
  0
LINE
  5
A32
330
998
100
AcDbEntity
  8
0
  6
Continuous
 62
     7
370
    15
100
AcDbLine
 10
1542.867270864565
 20
1012.820659787826
 30
0.0
 11
1541.912676709964
 21
1012.269584312346
 31
0.0
  0
LINE
  5
A33
330
998
100
AcDbEntity
  8
0
  6
Continuous
 62
     7
370
    15
100
AcDbLine
 10
1542.867270864566
 20
1012.820659787826
 30
0.0
 11
1545.157830365738
 21
1011.498347933999
 31
0.0
  0
LINE
  5
A34
330
998
100
AcDbEntity
  8
0
  6
Continuous
 62
     7
370
    15
100
AcDbLine
 10
1539.798893904087
 20
1014.591996103156
 30
0.0
 11
1542.089453405259
 21
1013.269684249328
 31
0.0
  0
LINE
  5
A35
330
998
100
AcDbEntity
  8
0
  6
Continuous
 62
     7
370
    15
100
AcDbLine
 10
1546.37416948777
 20
1010.446530835108
 30
0.0
 11
1545.377654163005
 21
1011.021806887
 31
0.0
  0
LINE
  5
A36
330
998
100
AcDbEntity
  8
0
  6
Continuous
 62
     7
370
    15
100
AcDbLine
 10
1542.564441389164
 20
1012.645840052819
 30
0.0
 11
1542.287650607602
 21
1012.805627969834
 31
0.0
  0
LINE
  5
A37
330
998
100
AcDbEntity
  8
0
  6
Continuous
 62
     7
370
    15
100
AcDbLine
 10
1543.578012628027
 20
1012.410357301314
 30
0.0
 11
1544.181365596971
 21
1012.758665556336
 31
0.0
  0
LINE
  5
A38
330
998
100
AcDbEntity
  8
0
  6
Continuous
 62
     7
370
    15
100
AcDbLine
 10
1543.997202504366
 20
1012.168364136673
 30
0.0
 11
1544.493616461294
 21
1013.759529116423
 31
0.0
  0
LINE
  5
A39
330
998
100
AcDbEntity
  8
0
  6
Continuous
 62
     7
370
    15
100
AcDbLine
 10
1544.493616461294
 20
1013.759529116423
 30
0.0
 11
1546.784175962467
 21
1012.437217262595
 31
0.0
  0
LINE
  5
A3A
330
998
100
AcDbEntity
  8
0
  6
Continuous
 62
     7
370
    15
100
AcDbLine
 10
1543.715799001989
 20
1014.208553577925
 30
0.0
 11
1544.67039315659
 21
1014.759629053406
 31
0.0
  0
LINE
  5
A3B
330
998
100
AcDbEntity
  8
0
  6
Continuous
 62
     7
370
    15
100
AcDbLine
 10
1543.715799001988
 20
1014.208553577925
 30
0.0
 11
1541.425239500816
 21
1015.530865431752
 31
0.0
  0
LINE
  5
A3C
330
998
100
AcDbEntity
  8
0
  6
Continuous
 62
     7
370
    15
100
AcDbLine
 10
1544.493616461294
 20
1013.759529116423
 30
0.0
 11
1545.448210615896
 21
1014.310604591903
 31
0.0
  0
LINE
  5
A3D
330
998
100
AcDbEntity
  8
0
  6
Continuous
 62
     7
370
    15
100
AcDbLine
 10
1544.67039315659
 20
1014.759629053406
 30
0.0
 11
1545.448210615896
 21
1014.310604591903
 31
0.0
  0
LWPOLYLINE
  5
A3E
330
998
100
AcDbEntity
  8
0
  6
Continuous
 62
     7
370
    15
100
AcDbPolyline
 90
       21
 70
   128
 43
0.0
 10
1537.815314325011
 20
1005.935023779857
 10
1537.678293455963
 20
1005.812450504264
 10
1537.431898207764
 20
1005.490383730895
 10
1537.251435742091
 20
1005.091461163788
 10
1537.141349643769
 20
1004.625505600494
 10
1537.104350597895
 20
1004.1039904134
 10
1537.141349643769
 20
1003.539757037222
 10
1537.251435742091
 20
1002.946698770264
 10
1537.431898207764
 20
1002.339418675306
 10
1537.678293455963
 20
1001.732870003733
 10
1537.984554417938
 20
1001.141987996859
 10
1538.343139932383
 20
1000.581322130718
 10
1538.745220433857
 20
1000.064677859678
 10
1539.180895365984
 20
999.6047766803364
 10
1539.639436966012
 20
999.2129428860522
 10
1540.109554417937
 20
998.8988247252629
 10
1540.579671869863
 20
998.6701568295854
 10
1541.038213469892
 20
998.5325697615166
 10
1541.473888402018
 20
998.4894513712978
 10
1541.875968903492
 20
998.5418633767977
 10
1542.050241120269
 20
998.5991205437409
  0
LINE
  5
A3F
330
998
100
AcDbEntity
  8
0
  6
Continuous
 62
     7
370
    15
100
AcDbLine
 10
1542.397144095627
 20
1012.549261380995
 30
0.0
 11
1542.08945340526
 21
1013.269684249329
 31
0.0
  0
LINE
  5
A40
330
998
100
AcDbEntity
  8
0
  6
Continuous
 62
     7
370
    15
100
AcDbLine
 10
1544.67039315659
 20
1014.759629053406
 30
0.0
 11
1544.67039315659
 21
1013.8615801304
 31
0.0
  0
LINE
  5
A41
330
998
100
AcDbEntity
  8
0
  6
Continuous
 62
     7
370
    15
100
AcDbLine
 10
1543.715799001988
 20
1014.208553577925
 30
0.0
 11
1543.344348190285
 21
1012.545248909974
 31
0.0
  0
LWPOLYLINE
  5
A42
330
998
100
AcDbEntity
  8
0
  6
Continuous
 62
     7
370
    15
100
AcDbPolyline
 90
       16
 70
   128
 43
0.0
 10
1536.318995600906
 20
1016.600898632891
 10
1535.700624419777
 20
1016.447577972654
 10
1535.046210379599
 20
1016.356919645291
 10
1534.374654429675
 20
1016.331542067195
 10
1533.705352616218
 20
1016.372178199896
 10
1533.057635880907
 20
1016.477654380489
 10
1532.45021173982
 20
1016.644924219654
 10
1531.900623968291
 20
1016.869156588235
 10
1531.424745897225
 20
1017.143875151112
 10
1531.036321955598
 20
1017.461145418328
 10
1530.746570700438
 20
1017.811803911001
 10
1530.563860799665
 20
1018.185722823209
 10
1530.49346932614
 20
1018.572102535794
 10
1530.537429343935
 20
1018.959783533663
 10
1530.694471188867
 20
1019.337568717674
 10
1530.960059139255
 20
1019.694546802048
  0
ELLIPSE
  5
A43
330
998
100
AcDbEntity
  8
0
  6
Continuous
 62
     7
370
    15
100
AcDbEllipse
 10
1534.452700168445
 20
1016.037215822641
 30
0.0
 11
-3.558731157479684
 21
7.398056379327003
 31
0.0
210
0.0
220
0.0
230
1.0
 40
0.2347860887583265
 41
4.487843998479209
 42
4.675709535131307
  0
ARC
  5
A44
330
998
100
AcDbEntity
  8
0
  6
Continuous
 62
     7
370
    15
100
AcDbCircle
 10
1535.38086518665
 20
1018.591878936071
 30
0.0
 40
3.728317987088489
100
AcDbArc
 50
294.6940103409129
 51
305.3006131263639
  0
ELLIPSE
  5
A45
330
998
100
AcDbEntity
  8
0
  6
Continuous
 62
     7
370
    15
100
AcDbEllipse
 10
1534.452700168445
 20
1016.037215822641
 30
0.0
 11
2.555205607683234
 21
10.5990932846601
 31
0.0
210
0.0
220
0.0
230
1.0
 40
0.2854313889643488
 41
4.735129962514756
 42
4.922995499166875
  0
LWPOLYLINE
  5
A46
330
998
100
AcDbEntity
  8
0
  6
Continuous
 62
     7
370
    15
100
AcDbPolyline
 90
       16
 70
   128
 43
0.0
 10
1532.586404735984
 20
1020.633416130644
 10
1533.204775917113
 20
1020.786736790882
 10
1533.859189957292
 20
1020.877395118244
 10
1534.530745907215
 20
1020.902772696341
 10
1535.200047720673
 20
1020.862136563639
 10
1535.847764455984
 20
1020.756660383047
 10
1536.455188597071
 20
1020.589390543881
 10
1537.004776368599
 20
1020.365158175301
 10
1537.480654439665
 20
1020.090439612424
 10
1537.869078381292
 20
1019.773169345208
 10
1538.158829636453
 20
1019.422510852534
 10
1538.341539537226
 20
1019.048591940327
 10
1538.41193101075
 20
1018.662212227742
 10
1538.367970992955
 20
1018.274531229873
 10
1538.210929148023
 20
1017.896746045861
 10
1537.945341197635
 20
1017.539767961487
  0
ELLIPSE
  5
A47
330
998
100
AcDbEntity
  8
0
  6
Continuous
 62
     7
370
    15
100
AcDbEllipse
 10
1534.452700168445
 20
1016.037215822641
 30
0.0
 11
2.555205607683234
 21
10.5990932846601
 31
0.0
210
0.0
220
0.0
230
1.0
 40
0.2854313889643488
 41
1.192104749987196
 42
1.350900197841382
  0
LINE
  5
A48
330
998
100
AcDbEntity
  8
0
  6
Continuous
 62
     7
370
    15
100
AcDbLine
 10
1532.296024485827
 20
1017.82115947274
 30
0.0
 11
1533.250618640428
 21
1018.372234948221
 31
0.0
  0
LINE
  5
A49
330
998
100
AcDbEntity
  8
0
  6
Continuous
 62
     7
370
    15
100
AcDbLine
 10
1533.073841945132
 20
1017.372135011238
 30
0.0
 11
1532.296024485827
 21
1017.82115947274
 31
0.0
  0
LINE
  5
A4A
330
998
100
AcDbEntity
  8
0
  6
Continuous
 62
     7
370
    15
100
AcDbLine
 10
1534.028436099734
 20
1017.923210486718
 30
0.0
 11
1533.073841945132
 21
1017.372135011238
 31
0.0
  0
LINE
  5
A4B
330
998
100
AcDbEntity
  8
0
  6
Continuous
 62
     7
370
    15
100
AcDbLine
 10
1534.028436099734
 20
1017.923210486718
 30
0.0
 11
1536.318995600906
 21
1016.600898632891
 31
0.0
  0
LINE
  5
A4C
330
998
100
AcDbEntity
  8
0
  6
Continuous
 62
     7
370
    15
100
AcDbLine
 10
1530.960059139255
 20
1019.694546802048
 30
0.0
 11
1533.250618640427
 21
1018.37223494822
 31
0.0
  0
LINE
  5
A4D
330
998
100
AcDbEntity
  8
0
  6
Continuous
 62
     7
370
    15
100
AcDbLine
 10
1537.535334722939
 20
1015.549081534
 30
0.0
 11
1536.538819398174
 21
1016.124357585892
 31
0.0
  0
LINE
  5
A4E
330
998
100
AcDbEntity
  8
0
  6
Continuous
 62
     7
370
    15
100
AcDbLine
 10
1533.725606624332
 20
1017.748390751711
 30
0.0
 11
1533.44881584277
 21
1017.908178668726
 31
0.0
  0
LINE
  5
A4F
330
998
100
AcDbEntity
  8
0
  6
Continuous
 62
     7
370
    15
100
AcDbLine
 10
1534.739177863195
 20
1017.512908000206
 30
0.0
 11
1535.342530832139
 21
1017.861216255228
 31
0.0
  0
LINE
  5
A50
330
998
100
AcDbEntity
  8
0
  6
Continuous
 62
     7
370
    15
100
AcDbLine
 10
1535.158367739534
 20
1017.270914835565
 30
0.0
 11
1535.654781696462
 21
1018.862079815315
 31
0.0
  0
LINE
  5
A51
330
998
100
AcDbEntity
  8
0
  6
Continuous
 62
     7
370
    15
100
AcDbLine
 10
1535.654781696462
 20
1018.862079815315
 30
0.0
 11
1537.945341197635
 21
1017.539767961487
 31
0.0
  0
LINE
  5
A52
330
998
100
AcDbEntity
  8
0
  6
Continuous
 62
     7
370
    15
100
AcDbLine
 10
1534.876964237157
 20
1019.311104276817
 30
0.0
 11
1535.831558391758
 21
1019.862179752298
 31
0.0
  0
LINE
  5
A53
330
998
100
AcDbEntity
  8
0
  6
Continuous
 62
     7
370
    15
100
AcDbLine
 10
1534.876964237156
 20
1019.311104276817
 30
0.0
 11
1532.586404735984
 21
1020.633416130644
 31
0.0
  0
LINE
  5
A54
330
998
100
AcDbEntity
  8
0
  6
Continuous
 62
     7
370
    15
100
AcDbLine
 10
1535.654781696462
 20
1018.862079815315
 30
0.0
 11
1536.609375851064
 21
1019.413155290795
 31
0.0
  0
LINE
  5
A55
330
998
100
AcDbEntity
  8
0
  6
Continuous
 62
     7
370
    15
100
AcDbLine
 10
1535.831558391758
 20
1019.862179752298
 30
0.0
 11
1536.609375851064
 21
1019.413155290795
 31
0.0
  0
LWPOLYLINE
  5
A56
330
998
100
AcDbEntity
  8
0
  6
Continuous
 62
     7
370
    15
100
AcDbPolyline
 90
       21
 70
   128
 43
0.0
 10
1528.976479560182
 20
1011.037574478751
 10
1528.839458691131
 20
1010.915001203156
 10
1528.593063442932
 20
1010.592934429787
 10
1528.412600977259
 20
1010.194011862679
 10
1528.302514878937
 20
1009.728056299386
 10
1528.265515833063
 20
1009.206541112292
 10
1528.302514878937
 20
1008.642307736114
 10
1528.412600977259
 20
1008.049249469156
 10
1528.593063442932
 20
1007.441969374198
 10
1528.839458691131
 20
1006.835420702625
 10
1529.145719653106
 20
1006.244538695751
 10
1529.504305167552
 20
1005.68387282961
 10
1529.906385669025
 20
1005.16722855857
 10
1530.342060601152
 20
1004.707327379228
 10
1530.800602201181
 20
1004.315493584944
 10
1531.270719653106
 20
1004.001375424155
 10
1531.740837105031
 20
1003.772707528477
 10
1532.199378705059
 20
1003.635120460408
 10
1532.635053637186
 20
1003.59200207019
 10
1533.03713413866
 20
1003.644414075689
 10
1533.211406355442
 20
1003.701671242635
  0
LINE
  5
A57
330
998
100
AcDbEntity
  8
0
  6
Continuous
 62
     7
370
    15
100
AcDbLine
 10
1533.558309330794
 20
1017.651812079887
 30
0.0
 11
1533.250618640428
 21
1018.372234948221
 31
0.0
  0
LINE
  5
A58
330
998
100
AcDbEntity
  8
0
  6
Continuous
 62
     7
370
    15
100
AcDbLine
 10
1534.876964237157
 20
1019.311104276817
 30
0.0
 11
1534.505513425453
 21
1017.647799608866
 31
0.0
  0
LINE
  5
A59
330
998
100
AcDbEntity
  8
0
  6
Continuous
 62
     7
370
    15
100
AcDbLine
 10
1535.831558391758
 20
1019.862179752298
 30
0.0
 11
1535.831558391758
 21
1018.964130829292
 31
0.0
  0
LWPOLYLINE
  5
A5A
330
998
100
AcDbEntity
  8
0
  6
Continuous
 62
     7
370
    15
100
AcDbPolyline
 90
       16
 70
   128
 43
0.0
 10
1527.480160836075
 20
1021.703449331783
 10
1526.861789654945
 20
1021.550128671546
 10
1526.207375614767
 20
1021.459470344183
 10
1525.535819664843
 20
1021.434092766087
 10
1524.866517851386
 20
1021.474728898788
 10
1524.218801116075
 20
1021.580205079381
 10
1523.611376974988
 20
1021.747474918546
 10
1523.061789203459
 20
1021.971707287127
 10
1522.585911132394
 20
1022.246425850004
 10
1522.197487190767
 20
1022.56369611722
 10
1521.907735935606
 20
1022.914354609893
 10
1521.725026034833
 20
1023.2882735221
 10
1521.654634561308
 20
1023.674653234686
 10
1521.698594579104
 20
1024.062334232555
 10
1521.855636424035
 20
1024.440119416566
 10
1522.121224374423
 20
1024.79709750094
  0
ELLIPSE
  5
A5B
330
998
100
AcDbEntity
  8
0
  6
Continuous
 62
     7
370
    15
100
AcDbEllipse
 10
1525.613865403613
 20
1021.139766521533
 30
0.0
 11
-3.558731157479681
 21
7.398056379326986
 31
0.0
210
0.0
220
0.0
230
1.0
 40
0.2347860887583262
 41
4.487843998479211
 42
4.675709535131305
  0
ARC
  5
A5C
330
998
100
AcDbEntity
  8
0
  6
Continuous
 62
     7
370
    15
100
AcDbCircle
 10
1526.54203042182
 20
1023.69442963496
 30
0.0
 40
3.728317987085098
100
AcDbArc
 50
294.6940103409129
 51
305.3006131263783
  0
ELLIPSE
  5
A5D
330
998
100
AcDbEntity
  8
0
  6
Continuous
 62
     7
370
    15
100
AcDbEllipse
 10
1525.613865403613
 20
1021.139766521533
 30
0.0
 11
2.555205607683206
 21
10.59909328466005
 31
0.0
210
0.0
220
0.0
230
1.0
 40
0.2854313889643536
 41
4.735129962514754
 42
4.922995499166872
  0
LWPOLYLINE
  5
A5E
330
998
100
AcDbEntity
  8
0
  6
Continuous
 62
     7
370
    15
100
AcDbPolyline
 90
       16
 70
   128
 43
0.0
 10
1523.747569971152
 20
1025.735966829536
 10
1524.365941152281
 20
1025.889287489774
 10
1525.02035519246
 20
1025.979945817136
 10
1525.691911142383
 20
1026.005323395233
 10
1526.361212955841
 20
1025.964687262532
 10
1527.008929691152
 20
1025.859211081939
 10
1527.616353832239
 20
1025.691941242774
 10
1528.165941603768
 20
1025.467708874193
 10
1528.641819674833
 20
1025.192990311316
 10
1529.03024361646
 20
1024.8757200441
 10
1529.31999487162
 20
1024.525061551426
 10
1529.502704772394
 20
1024.151142639219
 10
1529.573096245919
 20
1023.764762926633
 10
1529.529136228123
 20
1023.377081928765
 10
1529.372094383192
 20
1022.999296744753
 10
1529.106506432803
 20
1022.642318660379
  0
ELLIPSE
  5
A5F
330
998
100
AcDbEntity
  8
0
  6
Continuous
 62
     7
370
    15
100
AcDbEllipse
 10
1525.613865403613
 20
1021.139766521533
 30
0.0
 11
2.555205607683206
 21
10.59909328466005
 31
0.0
210
0.0
220
0.0
230
1.0
 40
0.2854313889643536
 41
1.192104749987191
 42
1.350900197841381
  0
LINE
  5
A60
330
998
100
AcDbEntity
  8
0
  6
Continuous
 62
     7
370
    15
100
AcDbLine
 10
1523.457189720995
 20
1022.923710171632
 30
0.0
 11
1524.411783875596
 21
1023.474785647112
 31
0.0
  0
LINE
  5
A61
330
998
100
AcDbEntity
  8
0
  6
Continuous
 62
     7
370
    15
100
AcDbLine
 10
1524.2350071803
 20
1022.47468571013
 30
0.0
 11
1523.457189720995
 21
1022.923710171632
 31
0.0
  0
LINE
  5
A62
330
998
100
AcDbEntity
  8
0
  6
Continuous
 62
     7
370
    15
100
AcDbLine
 10
1525.189601334902
 20
1023.02576118561
 30
0.0
 11
1524.2350071803
 21
1022.47468571013
 31
0.0
  0
LINE
  5
A63
330
998
100
AcDbEntity
  8
0
  6
Continuous
 62
     7
370
    15
100
AcDbLine
 10
1525.189601334902
 20
1023.02576118561
 30
0.0
 11
1527.480160836075
 21
1021.703449331783
 31
0.0
  0
LINE
  5
A64
330
998
100
AcDbEntity
  8
0
  6
Continuous
 62
     7
370
    15
100
AcDbLine
 10
1522.121224374423
 20
1024.79709750094
 30
0.0
 11
1524.411783875596
 21
1023.474785647112
 31
0.0
  0
LINE
  5
A65
330
998
100
AcDbEntity
  8
0
  6
Continuous
 62
     7
370
    15
100
AcDbLine
 10
1528.696499958107
 20
1020.651632232892
 30
0.0
 11
1527.699984633342
 21
1021.226908284783
 31
0.0
  0
LINE
  5
A66
330
998
100
AcDbEntity
  8
0
  6
Continuous
 62
     7
370
    15
100
AcDbLine
 10
1524.8867718595
 20
1022.850941450603
 30
0.0
 11
1524.609981077938
 21
1023.010729367618
 31
0.0
  0
LINE
  5
A67
330
998
100
AcDbEntity
  8
0
  6
Continuous
 62
     7
370
    15
100
AcDbLine
 10
1525.900343098364
 20
1022.615458699098
 30
0.0
 11
1526.503696067307
 21
1022.96376695412
 31
0.0
  0
LINE
  5
A68
330
998
100
AcDbEntity
  8
0
  6
Continuous
 62
     7
370
    15
100
AcDbLine
 10
1526.319532974702
 20
1022.373465534457
 30
0.0
 11
1526.81594693163
 21
1023.964630514207
 31
0.0
  0
LINE
  5
A69
330
998
100
AcDbEntity
  8
0
  6
Continuous
 62
     7
370
    15
100
AcDbLine
 10
1526.81594693163
 20
1023.964630514207
 30
0.0
 11
1529.106506432803
 21
1022.642318660379
 31
0.0
  0
LINE
  5
A6A
330
998
100
AcDbEntity
  8
0
  6
Continuous
 62
     7
370
    15
100
AcDbLine
 10
1526.038129472325
 20
1024.413654975709
 30
0.0
 11
1526.992723626927
 21
1024.964730451189
 31
0.0
  0
LINE
  5
A6B
330
998
100
AcDbEntity
  8
0
  6
Continuous
 62
     7
370
    15
100
AcDbLine
 10
1526.038129472325
 20
1024.413654975709
 30
0.0
 11
1523.747569971152
 21
1025.735966829536
 31
0.0
  0
LINE
  5
A6C
330
998
100
AcDbEntity
  8
0
  6
Continuous
 62
     7
370
    15
100
AcDbLine
 10
1526.81594693163
 20
1023.964630514207
 30
0.0
 11
1527.770541086232
 21
1024.515705989687
 31
0.0
  0
LINE
  5
A6D
330
998
100
AcDbEntity
  8
0
  6
Continuous
 62
     7
370
    15
100
AcDbLine
 10
1526.992723626927
 20
1024.964730451189
 30
0.0
 11
1527.770541086232
 21
1024.515705989687
 31
0.0
  0
LWPOLYLINE
  5
A6E
330
998
100
AcDbEntity
  8
0
  6
Continuous
 62
     7
370
    15
100
AcDbPolyline
 90
       21
 70
   128
 43
0.0
 10
1520.137644795347
 20
1016.14012517764
 10
1520.000623926299
 20
1016.017551902048
 10
1519.7542286781
 20
1015.695485128678
 10
1519.573766212427
 20
1015.296562561571
 10
1519.463680114106
 20
1014.830606998278
 10
1519.426681068231
 20
1014.309091811184
 10
1519.463680114106
 20
1013.744858435006
 10
1519.573766212427
 20
1013.151800168047
 10
1519.7542286781
 20
1012.544520073089
 10
1520.000623926299
 20
1011.937971401517
 10
1520.306884888274
 20
1011.347089394643
 10
1520.66547040272
 20
1010.786423528502
 10
1521.067550904193
 20
1010.269779257462
 10
1521.50322583632
 20
1009.80987807812
 10
1521.961767436349
 20
1009.418044283836
 10
1522.431884888274
 20
1009.103926123047
 10
1522.902002340199
 20
1008.875258227369
 10
1523.360543940228
 20
1008.7376711593
 10
1523.796218872354
 20
1008.694552769081
 10
1524.198299373828
 20
1008.746964774581
 10
1524.372571590603
 20
1008.804221941524
  0
LINE
  5
A6F
330
998
100
AcDbEntity
  8
0
  6
Continuous
 62
     7
370
    15
100
AcDbLine
 10
1524.719474565963
 20
1022.754362778779
 30
0.0
 11
1524.411783875596
 21
1023.474785647113
 31
0.0
  0
LINE
  5
A70
330
998
100
AcDbEntity
  8
0
  6
Continuous
 62
     7
370
    15
100
AcDbLine
 10
1526.992723626927
 20
1024.964730451189
 30
0.0
 11
1526.992723626927
 21
1024.066681528184
 31
0.0
  0
LINE
  5
A71
330
998
100
AcDbEntity
  8
0
  6
Continuous
 62
     7
370
    15
100
AcDbLine
 10
1526.038129472325
 20
1024.413654975709
 30
0.0
 11
1525.666678660622
 21
1022.750350307758
 31
0.0
  0
LWPOLYLINE
  5
A72
330
998
100
AcDbEntity
  8
0
  6
Continuous
 62
     7
370
    15
100
AcDbPolyline
 90
       16
 70
   128
 43
0.0
 10
1518.641326071243
 20
1026.806000030675
 10
1518.022954890114
 20
1026.652679370438
 10
1517.368540849935
 20
1026.562021043075
 10
1516.696984900011
 20
1026.536643464979
 10
1516.027683086554
 20
1026.57727959768
 10
1515.379966351243
 20
1026.682755778273
 10
1514.772542210156
 20
1026.850025617438
 10
1514.222954438627
 20
1027.074257986019
 10
1513.747076367562
 20
1027.348976548896
 10
1513.358652425935
 20
1027.666246816112
 10
1513.068901170775
 20
1028.016905308785
 10
1512.886191270001
 20
1028.390824220992
 10
1512.815799796477
 20
1028.777203933578
 10
1512.859759814272
 20
1029.164884931447
 10
1513.016801659203
 20
1029.542670115458
 10
1513.282389609592
 20
1029.899648199832
  0
ELLIPSE
  5
A73
330
998
100
AcDbEntity
  8
0
  6
Continuous
 62
     7
370
    15
100
AcDbEllipse
 10
1516.775030638782
 20
1026.242317220424
 30
0.0
 11
-3.558731157479685
 21
7.398056379327018
 31
0.0
210
0.0
220
0.0
230
1.0
 40
0.234786088758323
 41
4.48784399847921
 42
4.675709535131306
  0
ARC
  5
A74
330
998
100
AcDbEntity
  8
0
  6
Continuous
 62
     7
370
    15
100
AcDbCircle
 10
1517.703195656987
 20
1028.796980333854
 30
0.0
 40
3.72831798708732
100
AcDbArc
 50
294.6940103409129
 51
305.3006131263639
  0
ELLIPSE
  5
A75
330
998
100
AcDbEntity
  8
0
  6
Continuous
 62
     7
370
    15
100
AcDbEllipse
 10
1516.775030638782
 20
1026.242317220425
 30
0.0
 11
2.555205607683234
 21
10.59909328466011
 31
0.0
210
0.0
220
0.0
230
1.0
 40
0.285431388964351
 41
4.735129962514756
 42
4.922995499166874
  0
LWPOLYLINE
  5
A76
330
998
100
AcDbEntity
  8
0
  6
Continuous
 62
     7
370
    15
100
AcDbPolyline
 90
       16
 70
   128
 43
0.0
 10
1514.908735206321
 20
1030.838517528428
 10
1515.52710638745
 20
1030.991838188666
 10
1516.181520427628
 20
1031.082496516028
 10
1516.853076377552
 20
1031.107874094125
 10
1517.522378191009
 20
1031.067237961423
 10
1518.17009492632
 20
1030.961761780831
 10
1518.777519067407
 20
1030.794491941666
 10
1519.327106838936
 20
1030.570259573085
 10
1519.802984910002
 20
1030.295541010207
 10
1520.191408851628
 20
1029.978270742992
 10
1520.481160106789
 20
1029.627612250318
 10
1520.663870007562
 20
1029.253693338111
 10
1520.734261481087
 20
1028.867313625525
 10
1520.690301463291
 20
1028.479632627656
 10
1520.53325961836
 20
1028.101847443645
 10
1520.267671667972
 20
1027.744869359271
  0
ELLIPSE
  5
A77
330
998
100
AcDbEntity
  8
0
  6
Continuous
 62
     7
370
    15
100
AcDbEllipse
 10
1516.775030638782
 20
1026.242317220425
 30
0.0
 11
2.555205607683234
 21
10.59909328466011
 31
0.0
210
0.0
220
0.0
230
1.0
 40
0.285431388964351
 41
1.192104749987191
 42
1.350900197841381
  0
LINE
  5
A78
330
998
100
AcDbEntity
  8
0
  6
Continuous
 62
     7
370
    15
100
AcDbLine
 10
1514.618354956163
 20
1028.026260870524
 30
0.0
 11
1515.572949110764
 21
1028.577336346004
 31
0.0
  0
LINE
  5
A79
330
998
100
AcDbEntity
  8
0
  6
Continuous
 62
     7
370
    15
100
AcDbLine
 10
1515.396172415468
 20
1027.577236409022
 30
0.0
 11
1514.618354956163
 21
1028.026260870524
 31
0.0
  0
LINE
  5
A7A
330
998
100
AcDbEntity
  8
0
  6
Continuous
 62
     7
370
    15
100
AcDbLine
 10
1516.35076657007
 20
1028.128311884502
 30
0.0
 11
1515.396172415468
 21
1027.577236409022
 31
0.0
  0
LINE
  5
A7B
330
998
100
AcDbEntity
  8
0
  6
Continuous
 62
     7
370
    15
100
AcDbLine
 10
1516.35076657007
 20
1028.128311884502
 30
0.0
 11
1518.641326071243
 21
1026.806000030675
 31
0.0
  0
LINE
  5
A7C
330
998
100
AcDbEntity
  8
0
  6
Continuous
 62
     7
370
    15
100
AcDbLine
 10
1513.282389609592
 20
1029.899648199832
 30
0.0
 11
1515.572949110764
 21
1028.577336346004
 31
0.0
  0
LINE
  5
A7D
330
998
100
AcDbEntity
  8
0
  6
Continuous
 62
     7
370
    15
100
AcDbLine
 10
1519.857665193275
 20
1025.754182931784
 30
0.0
 11
1518.86114986851
 21
1026.329458983675
 31
0.0
  0
LINE
  5
A7E
330
998
100
AcDbEntity
  8
0
  6
Continuous
 62
     7
370
    15
100
AcDbLine
 10
1516.047937094668
 20
1027.953492149495
 30
0.0
 11
1515.771146313106
 21
1028.11328006651
 31
0.0
  0
LINE
  5
A7F
330
998
100
AcDbEntity
  8
0
  6
Continuous
 62
     7
370
    15
100
AcDbLine
 10
1517.061508333532
 20
1027.71800939799
 30
0.0
 11
1517.664861302475
 21
1028.066317653011
 31
0.0
  0
LINE
  5
A80
330
998
100
AcDbEntity
  8
0
  6
Continuous
 62
     7
370
    15
100
AcDbLine
 10
1517.480698209871
 20
1027.476016233349
 30
0.0
 11
1517.977112166798
 21
1029.067181213099
 31
0.0
  0
LINE
  5
A81
330
998
100
AcDbEntity
  8
0
  6
Continuous
 62
     7
370
    15
100
AcDbLine
 10
1517.977112166798
 20
1029.067181213099
 30
0.0
 11
1520.267671667972
 21
1027.744869359271
 31
0.0
  0
LINE
  5
A82
330
998
100
AcDbEntity
  8
0
  6
Continuous
 62
     7
370
    15
100
AcDbLine
 10
1517.199294707493
 20
1029.516205674601
 30
0.0
 11
1518.153888862095
 21
1030.067281150081
 31
0.0
  0
LINE
  5
A83
330
998
100
AcDbEntity
  8
0
  6
Continuous
 62
     7
370
    15
100
AcDbLine
 10
1517.199294707493
 20
1029.516205674601
 30
0.0
 11
1514.908735206321
 21
1030.838517528428
 31
0.0
  0
LINE
  5
A84
330
998
100
AcDbEntity
  8
0
  6
Continuous
 62
     7
370
    15
100
AcDbLine
 10
1517.977112166798
 20
1029.067181213099
 30
0.0
 11
1518.9317063214
 21
1029.618256688579
 31
0.0
  0
LINE
  5
A85
330
998
100
AcDbEntity
  8
0
  6
Continuous
 62
     7
370
    15
100
AcDbLine
 10
1518.153888862095
 20
1030.067281150081
 30
0.0
 11
1518.9317063214
 21
1029.618256688579
 31
0.0
  0
LWPOLYLINE
  5
A86
330
998
100
AcDbEntity
  8
0
  6
Continuous
 62
     7
370
    15
100
AcDbPolyline
 90
       21
 70
   128
 43
0.0
 10
1511.298810030516
 20
1021.242675876533
 10
1511.161789161467
 20
1021.12010260094
 10
1510.915393913268
 20
1020.79803582757
 10
1510.734931447595
 20
1020.399113260463
 10
1510.624845349274
 20
1019.93315769717
 10
1510.587846303399
 20
1019.411642510076
 10
1510.624845349274
 20
1018.847409133898
 10
1510.734931447595
 20
1018.254350866939
 10
1510.915393913268
 20
1017.647070771981
 10
1511.161789161467
 20
1017.040522100409
 10
1511.468050123442
 20
1016.449640093535
 10
1511.826635637888
 20
1015.888974227394
 10
1512.228716139362
 20
1015.372329956354
 10
1512.664391071488
 20
1014.912428777012
 10
1513.122932671517
 20
1014.520594982728
 10
1513.593050123442
 20
1014.206476821938
 10
1514.063167575367
 20
1013.977808926261
 10
1514.521709175396
 20
1013.840221858192
 10
1514.957384107523
 20
1013.797103467973
 10
1515.359464608996
 20
1013.849515473473
 10
1515.533736825775
 20
1013.906772640417
  0
LINE
  5
A87
330
998
100
AcDbEntity
  8
0
  6
Continuous
 62
     7
370
    15
100
AcDbLine
 10
1515.880639801131
 20
1027.856913477671
 30
0.0
 11
1515.572949110764
 21
1028.577336346005
 31
0.0
  0
LINE
  5
A88
330
998
100
AcDbEntity
  8
0
  6
Continuous
 62
     7
370
    15
100
AcDbLine
 10
1517.199294707493
 20
1029.516205674601
 30
0.0
 11
1516.82784389579
 21
1027.85290100665
 31
0.0
  0
LINE
  5
A89
330
998
100
AcDbEntity
  8
0
  6
Continuous
 62
     7
370
    15
100
AcDbLine
 10
1518.153888862095
 20
1030.067281150081
 30
0.0
 11
1518.153888862095
 21
1029.169232227076
 31
0.0
  0
LWPOLYLINE
  5
A8A
330
998
100
AcDbEntity
  8
0
  6
Continuous
 62
     7
370
    15
100
AcDbPolyline
 90
       16
 70
   128
 43
0.0
 10
1509.802491306411
 20
1031.908550729567
 10
1509.184120125282
 20
1031.75523006933
 10
1508.529706085103
 20
1031.664571741967
 10
1507.85815013518
 20
1031.639194163871
 10
1507.188848321722
 20
1031.679830296572
 10
1506.541131586411
 20
1031.785306477165
 10
1505.933707445324
 20
1031.95257631633
 10
1505.384119673796
 20
1032.176808684911
 10
1504.90824160273
 20
1032.451527247788
 10
1504.519817661103
 20
1032.768797515004
 10
1504.230066405943
 20
1033.119456007677
 10
1504.04735650517
 20
1033.493374919884
 10
1503.976965031645
 20
1033.87975463247
 10
1504.02092504944
 20
1034.267435630339
 10
1504.177966894371
 20
1034.64522081435
 10
1504.44355484476
 20
1035.002198898724
  0
ELLIPSE
  5
A8B
330
998
100
AcDbEntity
  8
0
  6
Continuous
 62
     7
370
    15
100
AcDbEllipse
 10
1507.93619587395
 20
1031.344867919316
 30
0.0
 11
-3.558731157479685
 21
7.398056379327018
 31
0.0
210
0.0
220
0.0
230
1.0
 40
0.234786088758323
 41
4.487843998479219
 42
4.67570953513131
  0
ARC
  5
A8C
330
998
100
AcDbEntity
  8
0
  6
Continuous
 62
     7
370
    15
100
AcDbCircle
 10
1508.864360892155
 20
1033.899531032748
 30
0.0
 40
3.72831798708866
100
AcDbArc
 50
294.6940103409129
 51
305.3006131263639
  0
ELLIPSE
  5
A8D
330
998
100
AcDbEntity
  8
0
  6
Continuous
 62
     7
370
    15
100
AcDbEllipse
 10
1507.93619587395
 20
1031.344867919316
 30
0.0
 11
2.555205607683234
 21
10.59909328466011
 31
0.0
210
0.0
220
0.0
230
1.0
 40
0.285431388964351
 41
4.735129962514759
 42
4.922995499166876
  0
LWPOLYLINE
  5
A8E
330
998
100
AcDbEntity
  8
0
  6
Continuous
 62
     7
370
    15
100
AcDbPolyline
 90
       16
 70
   128
 43
0.0
 10
1506.069900441489
 20
1035.94106822732
 10
1506.688271622618
 20
1036.094388887558
 10
1507.342685662796
 20
1036.18504721492
 10
1508.01424161272
 20
1036.210424793016
 10
1508.683543426177
 20
1036.169788660315
 10
1509.331260161488
 20
1036.064312479723
 10
1509.938684302575
 20
1035.897042640558
 10
1510.488272074104
 20
1035.672810271976
 10
1510.96415014517
 20
1035.398091709099
 10
1511.352574086797
 20
1035.080821441884
 10
1511.642325341957
 20
1034.73016294921
 10
1511.82503524273
 20
1034.356244037003
 10
1511.895426716255
 20
1033.969864324417
 10
1511.85146669846
 20
1033.582183326548
 10
1511.694424853528
 20
1033.204398142537
 10
1511.42883690314
 20
1032.847420058163
  0
ELLIPSE
  5
A8F
330
998
100
AcDbEntity
  8
0
  6
Continuous
 62
     7
370
    15
100
AcDbEllipse
 10
1507.93619587395
 20
1031.344867919316
 30
0.0
 11
2.555205607683234
 21
10.59909328466011
 31
0.0
210
0.0
220
0.0
230
1.0
 40
0.285431388964351
 41
1.192104749987189
 42
1.350900197841379
  0
LINE
  5
A90
330
998
100
AcDbEntity
  8
0
  6
Continuous
 62
     7
370
    15
100
AcDbLine
 10
1505.779520191331
 20
1033.128811569416
 30
0.0
 11
1506.734114345933
 21
1033.679887044896
 31
0.0
  0
LINE
  5
A91
330
998
100
AcDbEntity
  8
0
  6
Continuous
 62
     7
370
    15
100
AcDbLine
 10
1506.557337650637
 20
1032.679787107914
 30
0.0
 11
1505.779520191331
 21
1033.128811569416
 31
0.0
  0
LINE
  5
A92
330
998
100
AcDbEntity
  8
0
  6
Continuous
 62
     7
370
    15
100
AcDbLine
 10
1507.511931805238
 20
1033.230862583394
 30
0.0
 11
1506.557337650637
 21
1032.679787107914
 31
0.0
  0
LINE
  5
A93
330
998
100
AcDbEntity
  8
0
  6
Continuous
 62
     7
370
    15
100
AcDbLine
 10
1507.511931805239
 20
1033.230862583394
 30
0.0
 11
1509.802491306411
 21
1031.908550729567
 31
0.0
  0
LINE
  5
A94
330
998
100
AcDbEntity
  8
0
  6
Continuous
 62
     7
370
    15
100
AcDbLine
 10
1504.44355484476
 20
1035.002198898724
 30
0.0
 11
1506.734114345932
 21
1033.679887044896
 31
0.0
  0
LINE
  5
A95
330
998
100
AcDbEntity
  8
0
  6
Continuous
 62
     7
370
    15
100
AcDbLine
 10
1511.018830428443
 20
1030.856733630676
 30
0.0
 11
1510.022315103678
 21
1031.432009682567
 31
0.0
  0
LINE
  5
A96
330
998
100
AcDbEntity
  8
0
  6
Continuous
 62
     7
370
    15
100
AcDbLine
 10
1507.209102329837
 20
1033.056042848387
 30
0.0
 11
1506.932311548274
 21
1033.215830765402
 31
0.0
  0
LINE
  5
A97
330
998
100
AcDbEntity
  8
0
  6
Continuous
 62
     7
370
    15
100
AcDbLine
 10
1508.2226735687
 20
1032.820560096882
 30
0.0
 11
1508.826026537643
 21
1033.168868351903
 31
0.0
  0
LINE
  5
A98
330
998
100
AcDbEntity
  8
0
  6
Continuous
 62
     7
370
    15
100
AcDbLine
 10
1508.641863445039
 20
1032.578566932241
 30
0.0
 11
1509.138277401967
 21
1034.16973191199
 31
0.0
  0
LINE
  5
A99
330
998
100
AcDbEntity
  8
0
  6
Continuous
 62
     7
370
    15
100
AcDbLine
 10
1509.138277401967
 20
1034.16973191199
 30
0.0
 11
1511.42883690314
 21
1032.847420058163
 31
0.0
  0
LINE
  5
A9A
330
998
100
AcDbEntity
  8
0
  6
Continuous
 62
     7
370
    15
100
AcDbLine
 10
1508.360459942661
 20
1034.618756373493
 30
0.0
 11
1509.315054097263
 21
1035.169831848973
 31
0.0
  0
LINE
  5
A9B
330
998
100
AcDbEntity
  8
0
  6
Continuous
 62
     7
370
    15
100
AcDbLine
 10
1508.360459942661
 20
1034.618756373493
 30
0.0
 11
1506.069900441489
 21
1035.94106822732
 31
0.0
  0
LINE
  5
A9C
330
998
100
AcDbEntity
  8
0
  6
Continuous
 62
     7
370
    15
100
AcDbLine
 10
1509.138277401967
 20
1034.16973191199
 30
0.0
 11
1510.092871556569
 21
1034.720807387471
 31
0.0
  0
LINE
  5
A9D
330
998
100
AcDbEntity
  8
0
  6
Continuous
 62
     7
370
    15
100
AcDbLine
 10
1509.315054097263
 20
1035.169831848973
 30
0.0
 11
1510.092871556568
 21
1034.720807387471
 31
0.0
  0
LWPOLYLINE
  5
A9E
330
998
100
AcDbEntity
  8
0
  6
Continuous
 62
     7
370
    15
100
AcDbPolyline
 90
       21
 70
   128
 43
0.0
 10
1502.459975265685
 20
1026.345226575425
 10
1502.322954396635
 20
1026.222653299832
 10
1502.076559148436
 20
1025.900586526462
 10
1501.896096682764
 20
1025.501663959355
 10
1501.786010584442
 20
1025.035708396062
 10
1501.749011538567
 20
1024.514193208968
 10
1501.786010584442
 20
1023.949959832789
 10
1501.896096682764
 20
1023.356901565831
 10
1502.076559148436
 20
1022.749621470873
 10
1502.322954396635
 20
1022.1430727993
 10
1502.62921535861
 20
1021.552190792426
 10
1502.987800873056
 20
1020.991524926286
 10
1503.38988137453
 20
1020.474880655246
 10
1503.825556306657
 20
1020.014979475904
 10
1504.284097906685
 20
1019.62314568162
 10
1504.75421535861
 20
1019.30902752083
 10
1505.224332810536
 20
1019.080359625153
 10
1505.682874410564
 20
1018.942772557084
 10
1506.118549342691
 20
1018.899654166865
 10
1506.520629844164
 20
1018.952066172365
 10
1506.694902060944
 20
1019.009323339309
  0
LINE
  5
A9F
330
998
100
AcDbEntity
  8
0
  6
Continuous
 62
     7
370
    15
100
AcDbLine
 10
1507.041805036299
 20
1032.959464176563
 30
0.0
 11
1506.734114345933
 21
1033.679887044897
 31
0.0
  0
LINE
  5
AA0
330
998
100
AcDbEntity
  8
0
  6
Continuous
 62
     7
370
    15
100
AcDbLine
 10
1508.360459942661
 20
1034.618756373493
 30
0.0
 11
1507.989009130958
 21
1032.955451705542
 31
0.0
  0
LINE
  5
AA1
330
998
100
AcDbEntity
  8
0
  6
Continuous
 62
     7
370
    15
100
AcDbLine
 10
1509.315054097263
 20
1035.169831848973
 30
0.0
 11
1509.315054097263
 21
1034.271782925968
 31
0.0
  0
LWPOLYLINE
  5
AA2
330
998
100
AcDbEntity
  8
0
  6
Continuous
 62
     7
370
    15
100
AcDbPolyline
 90
       16
 70
   128
 43
0.0
 10
1500.963656541579
 20
1037.011101428459
 10
1500.34528536045
 20
1036.857780768221
 10
1499.690871320272
 20
1036.767122440859
 10
1499.019315370348
 20
1036.741744862763
 10
1498.350013556891
 20
1036.782380995464
 10
1497.70229682158
 20
1036.887857176057
 10
1497.094872680492
 20
1037.055127015222
 10
1496.545284908964
 20
1037.279359383803
 10
1496.069406837898
 20
1037.55407794668
 10
1495.680982896271
 20
1037.871348213895
 10
1495.391231641111
 20
1038.222006706569
 10
1495.208521740337
 20
1038.595925618776
 10
1495.138130266813
 20
1038.982305331362
 10
1495.182090284608
 20
1039.369986329231
 10
1495.33913212954
 20
1039.747771513242
 10
1495.604720079928
 20
1040.104749597616
  0
ELLIPSE
  5
AA3
330
998
100
AcDbEntity
  8
0
  6
Continuous
 62
     7
370
    15
100
AcDbEllipse
 10
1499.097361109118
 20
1036.447418618208
 30
0.0
 11
-3.558731157479681
 21
7.398056379326986
 31
0.0
210
0.0
220
0.0
230
1.0
 40
0.2347860887583223
 41
4.487843998479217
 42
4.675709535131309
  0
ARC
  5
AA4
330
998
100
AcDbEntity
  8
0
  6
Continuous
 62
     7
370
    15
100
AcDbCircle
 10
1500.025526127322
 20
1039.002081731641
 30
0.0
 40
3.728317987090211
100
AcDbArc
 50
294.6940103409129
 51
305.3006131263639
  0
ELLIPSE
  5
AA5
330
998
100
AcDbEntity
  8
0
  6
Continuous
 62
     7
370
    15
100
AcDbEllipse
 10
1499.097361109118
 20
1036.447418618209
 30
0.0
 11
2.555205607683206
 21
10.59909328466005
 31
0.0
210
0.0
220
0.0
230
1.0
 40
0.2854313889643527
 41
4.735129962514753
 42
4.922995499166873
  0
LWPOLYLINE
  5
AA6
330
998
100
AcDbEntity
  8
0
  6
Continuous
 62
     7
370
    15
100
AcDbPolyline
 90
       16
 70
   128
 43
0.0
 10
1497.231065676657
 20
1041.043618926212
 10
1497.849436857786
 20
1041.19693958645
 10
1498.503850897965
 20
1041.287597913812
 10
1499.175406847888
 20
1041.312975491909
 10
1499.844708661345
 20
1041.272339359207
 10
1500.492425396656
 20
1041.166863178615
 10
1501.099849537744
 20
1040.999593339449
 10
1501.649437309272
 20
1040.775360970868
 10
1502.125315380338
 20
1040.500642407991
 10
1502.513739321965
 20
1040.183372140775
 10
1502.803490577125
 20
1039.832713648102
 10
1502.986200477898
 20
1039.458794735895
 10
1503.056591951423
 20
1039.072415023309
 10
1503.012631933628
 20
1038.68473402544
 10
1502.855590088696
 20
1038.306948841429
 10
1502.590002138308
 20
1037.949970757055
  0
ELLIPSE
  5
AA7
330
998
100
AcDbEntity
  8
0
  6
Continuous
 62
     7
370
    15
100
AcDbEllipse
 10
1499.097361109118
 20
1036.447418618209
 30
0.0
 11
2.555205607683206
 21
10.59909328466005
 31
0.0
210
0.0
220
0.0
230
1.0
 40
0.2854313889643527
 41
1.192104749987186
 42
1.350900197841381
  0
LINE
  5
AA8
330
998
100
AcDbEntity
  8
0
  6
Continuous
 62
     7
370
    15
100
AcDbLine
 10
1496.940685426499
 20
1038.231362268308
 30
0.0
 11
1497.895279581101
 21
1038.782437743788
 31
0.0
  0
LINE
  5
AA9
330
998
100
AcDbEntity
  8
0
  6
Continuous
 62
     7
370
    15
100
AcDbLine
 10
1497.718502885805
 20
1037.782337806806
 30
0.0
 11
1496.940685426499
 21
1038.231362268308
 31
0.0
  0
LINE
  5
AAA
330
998
100
AcDbEntity
  8
0
  6
Continuous
 62
     7
370
    15
100
AcDbLine
 10
1498.673097040406
 20
1038.333413282286
 30
0.0
 11
1497.718502885805
 21
1037.782337806806
 31
0.0
  0
LINE
  5
AAB
330
998
100
AcDbEntity
  8
0
  6
Continuous
 62
     7
370
    15
100
AcDbLine
 10
1498.673097040407
 20
1038.333413282286
 30
0.0
 11
1500.963656541579
 21
1037.011101428459
 31
0.0
  0
LINE
  5
AAC
330
998
100
AcDbEntity
  8
0
  6
Continuous
 62
     7
370
    15
100
AcDbLine
 10
1495.604720079928
 20
1040.104749597616
 30
0.0
 11
1497.8952795811
 21
1038.782437743788
 31
0.0
  0
LINE
  5
AAD
330
998
100
AcDbEntity
  8
0
  6
Continuous
 62
     7
370
    15
100
AcDbLine
 10
1502.179995663611
 20
1035.959284329567
 30
0.0
 11
1501.183480338846
 21
1036.534560381459
 31
0.0
  0
LINE
  5
AAE
330
998
100
AcDbEntity
  8
0
  6
Continuous
 62
     7
370
    15
100
AcDbLine
 10
1498.370267565005
 20
1038.158593547279
 30
0.0
 11
1498.093476783443
 21
1038.318381464294
 31
0.0
  0
LINE
  5
AAF
330
998
100
AcDbEntity
  8
0
  6
Continuous
 62
     7
370
    15
100
AcDbLine
 10
1499.383838803868
 20
1037.923110795774
 30
0.0
 11
1499.987191772811
 21
1038.271419050795
 31
0.0
  0
LWPOLYLINE
  5
AB0
330
998
100
AcDbEntity
  8
0
  6
Continuous
 62
     7
370
    15
100
AcDbPolyline
 90
       24
 70
   128
 43
0.0
 10
1493.119774916665
 20
1032.316262041431
 10
1493.109803437028
 20
1032.308784593817
 10
1492.792386185528
 20
1032.002383250157
 10
1492.538544094206
 20
1031.612100275089
 10
1492.353444656024
 20
1031.145880704503
 10
1492.24085596176
 20
1030.613215424389
 10
1492.203069992549
 20
1030.024947963771
 10
1492.24085596176
 20
1029.393053751725
 10
1492.353444656024
 20
1028.730396332174
 10
1492.538544094206
 20
1028.050465499235
 10
1492.792386185528
 20
1027.367102683907
 10
1493.109803437029
 20
1026.694219182456
 10
1493.484334148824
 20
1026.045512962534
 10
1493.908353955681
 20
1025.434189812065
 10
1494.373231037102
 20
1024.872694507483
 10
1494.869501836305
 20
1024.37245747397
 10
1495.387063710944
 20
1023.943662094964
 10
1495.915380593778
 20
1023.595037407837
 10
1496.443697476613
 20
1023.333680405869
 10
1496.961259351252
 20
1023.164911563928
 10
1497.457530150455
 20
1023.092166528948
 10
1497.922407231876
 20
1023.116926180061
 10
1498.346427038732
 20
1023.238686482172
 10
1498.3574328803
 20
1023.243389271088
  0
LINE
  5
AB1
330
998
100
AcDbEntity
  8
0
  6
Continuous
 62
     7
370
    15
100
AcDbLine
 10
1499.803028680207
 20
1037.681117631133
 30
0.0
 11
1500.299442637135
 21
1039.272282610882
 31
0.0
  0
LINE
  5
AB2
330
998
100
AcDbEntity
  8
0
  6
Continuous
 62
     7
370
    15
100
AcDbLine
 10
1500.299442637135
 20
1039.272282610882
 30
0.0
 11
1502.590002138308
 21
1037.949970757055
 31
0.0
  0
LINE
  5
AB3
330
998
100
AcDbEntity
  8
0
  6
Continuous
 62
     7
370
    15
100
AcDbLine
 10
1499.52162517783
 20
1039.721307072385
 30
0.0
 11
1500.476219332431
 21
1040.272382547865
 31
0.0
  0
LINE
  5
AB4
330
998
100
AcDbEntity
  8
0
  6
Continuous
 62
     7
370
    15
100
AcDbLine
 10
1499.521625177829
 20
1039.721307072385
 30
0.0
 11
1497.231065676657
 21
1041.043618926212
 31
0.0
  0
LINE
  5
AB5
330
998
100
AcDbEntity
  8
0
  6
Continuous
 62
     7
370
    15
100
AcDbLine
 10
1500.299442637135
 20
1039.272282610882
 30
0.0
 11
1501.254036791737
 21
1039.823358086363
 31
0.0
  0
LINE
  5
AB6
330
998
100
AcDbEntity
  8
0
  6
Continuous
 62
     7
370
    15
100
AcDbLine
 10
1500.476219332431
 20
1040.272382547865
 30
0.0
 11
1501.254036791737
 21
1039.823358086363
 31
0.0
  0
LINE
  5
AB7
330
998
100
AcDbEntity
  8
0
  6
Continuous
 62
     7
370
    15
100
AcDbLine
 10
1498.202970271467
 20
1038.062014875455
 30
0.0
 11
1497.895279581101
 21
1038.782437743789
 31
0.0
  0
LINE
  5
AB8
330
998
100
AcDbEntity
  8
0
  6
Continuous
 62
     7
370
    15
100
AcDbLine
 10
1500.476219332431
 20
1040.272382547865
 30
0.0
 11
1500.476219332431
 21
1039.37433362486
 31
0.0
  0
LINE
  5
AB9
330
998
100
AcDbEntity
  8
0
  6
Continuous
 62
     7
370
    15
100
AcDbLine
 10
1499.521625177829
 20
1039.721307072385
 30
0.0
 11
1499.150174366126
 21
1038.058002404434
 31
0.0
  0
LWPOLYLINE
  5
ABA
330
998
100
AcDbEntity
  8
0
  6
Continuous
 62
     7
370
    15
100
AcDbPolyline
 90
       16
 70
   128
 43
0.0
 10
1492.124821776747
 20
1042.113652127351
 10
1491.506450595618
 20
1041.960331467113
 10
1490.85203655544
 20
1041.869673139751
 10
1490.180480605516
 20
1041.844295561655
 10
1489.511178792058
 20
1041.884931694356
 10
1488.863462056748
 20
1041.990407874949
 10
1488.256037915661
 20
1042.157677714114
 10
1487.706450144132
 20
1042.381910082694
 10
1487.230572073066
 20
1042.656628645572
 10
1486.842148131439
 20
1042.973898912787
 10
1486.552396876279
 20
1043.324557405461
 10
1486.369686975506
 20
1043.698476317668
 10
1486.299295501981
 20
1044.084856030254
 10
1486.343255519776
 20
1044.472537028123
 10
1486.500297364708
 20
1044.850322212134
 10
1486.765885315096
 20
1045.207300296508
  0
ELLIPSE
  5
ABB
330
998
100
AcDbEntity
  8
0
  6
Continuous
 62
     7
370
    15
100
AcDbEllipse
 10
1490.258526344286
 20
1041.5499693171
 30
0.0
 11
-3.558731157479714
 21
7.398056379327019
 31
0.0
210
0.0
220
0.0
230
1.0
 40
0.2347860887583227
 41
4.487843998479213
 42
4.675709535131309
  0
ARC
  5
ABC
330
998
100
AcDbEntity
  8
0
  6
Continuous
 62
     7
370
    15
100
AcDbCircle
 10
1491.186691362491
 20
1044.10463243053
 30
0.0
 40
3.728317987087982
100
AcDbArc
 50
294.6940103409129
 51
305.3006131263639
  0
ELLIPSE
  5
ABD
330
998
100
AcDbEntity
  8
0
  6
Continuous
 62
     7
370
    15
100
AcDbEllipse
 10
1490.258526344286
 20
1041.5499693171
 30
0.0
 11
2.555205607683205
 21
10.59909328466011
 31
0.0
210
0.0
220
0.0
230
1.0
 40
0.2854313889643512
 41
4.735129962514758
 42
4.922995499166876
  0
LWPOLYLINE
  5
ABE
330
998
100
AcDbEntity
  8
0
  6
Continuous
 62
     7
370
    15
100
AcDbPolyline
 90
       16
 70
   128
 43
0.0
 10
1488.392230911825
 20
1046.146169625104
 10
1489.010602092954
 20
1046.299490285341
 10
1489.665016133132
 20
1046.390148612704
 10
1490.336572083056
 20
1046.4155261908
 10
1491.005873896513
 20
1046.374890058099
 10
1491.653590631824
 20
1046.269413877507
 10
1492.261014772912
 20
1046.102144038341
 10
1492.81060254444
 20
1045.87791166976
 10
1493.286480615506
 20
1045.603193106883
 10
1493.674904557133
 20
1045.285922839667
 10
1493.964655812293
 20
1044.935264346994
 10
1494.147365713067
 20
1044.561345434787
 10
1494.217757186591
 20
1044.174965722201
 10
1494.173797168796
 20
1043.787284724332
 10
1494.016755323865
 20
1043.409499540321
 10
1493.751167373476
 20
1043.052521455947
  0
ELLIPSE
  5
ABF
330
998
100
AcDbEntity
  8
0
  6
Continuous
 62
     7
370
    15
100
AcDbEllipse
 10
1490.258526344286
 20
1041.5499693171
 30
0.0
 11
2.555205607683205
 21
10.59909328466011
 31
0.0
210
0.0
220
0.0
230
1.0
 40
0.2854313889643512
 41
1.192104749987187
 42
1.350900197841378
  0
LINE
  5
AC0
330
998
100
AcDbEntity
  8
0
  6
Continuous
 62
     7
370
    15
100
AcDbLine
 10
1488.101850661667
 20
1043.3339129672
 30
0.0
 11
1489.056444816269
 21
1043.88498844268
 31
0.0
  0
LINE
  5
AC1
330
998
100
AcDbEntity
  8
0
  6
Continuous
 62
     7
370
    15
100
AcDbLine
 10
1488.879668120973
 20
1042.884888505698
 30
0.0
 11
1488.101850661667
 21
1043.3339129672
 31
0.0
  0
LINE
  5
AC2
330
998
100
AcDbEntity
  8
0
  6
Continuous
 62
     7
370
    15
100
AcDbLine
 10
1489.834262275574
 20
1043.435963981178
 30
0.0
 11
1488.879668120973
 21
1042.884888505698
 31
0.0
  0
LINE
  5
AC3
330
998
100
AcDbEntity
  8
0
  6
Continuous
 62
     7
370
    15
100
AcDbLine
 10
1489.834262275575
 20
1043.435963981178
 30
0.0
 11
1492.124821776747
 21
1042.113652127351
 31
0.0
  0
LINE
  5
AC4
330
998
100
AcDbEntity
  8
0
  6
Continuous
 62
     7
370
    15
100
AcDbLine
 10
1486.765885315096
 20
1045.207300296508
 30
0.0
 11
1489.056444816269
 21
1043.88498844268
 31
0.0
  0
LINE
  5
AC5
330
998
100
AcDbEntity
  8
0
  6
Continuous
 62
     7
370
    15
100
AcDbLine
 10
1493.341160898779
 20
1041.06183502846
 30
0.0
 11
1492.344645574014
 21
1041.637111080351
 31
0.0
  0
LINE
  5
AC6
330
998
100
AcDbEntity
  8
0
  6
Continuous
 62
     7
370
    15
100
AcDbLine
 10
1489.531432800173
 20
1043.261144246171
 30
0.0
 11
1489.254642018611
 21
1043.420932163185
 31
0.0
  0
LINE
  5
AC7
330
998
100
AcDbEntity
  8
0
  6
Continuous
 62
     7
370
    15
100
AcDbLine
 10
1490.545004039036
 20
1043.025661494666
 30
0.0
 11
1491.14835700798
 21
1043.373969749687
 31
0.0
  0
LINE
  5
AC8
330
998
100
AcDbEntity
  8
0
  6
Continuous
 62
     7
370
    15
100
AcDbLine
 10
1490.964193915375
 20
1042.783668330025
 30
0.0
 11
1491.460607872303
 21
1044.374833309774
 31
0.0
  0
LINE
  5
AC9
330
998
100
AcDbEntity
  8
0
  6
Continuous
 62
     7
370
    15
100
AcDbLine
 10
1491.460607872303
 20
1044.374833309774
 30
0.0
 11
1493.751167373476
 21
1043.052521455947
 31
0.0
  0
LINE
  5
ACA
330
998
100
AcDbEntity
  8
0
  6
Continuous
 62
     7
370
    15
100
AcDbLine
 10
1490.682790412997
 20
1044.823857771277
 30
0.0
 11
1491.637384567599
 21
1045.374933246757
 31
0.0
  0
LINE
  5
ACB
330
998
100
AcDbEntity
  8
0
  6
Continuous
 62
     7
370
    15
100
AcDbLine
 10
1490.682790412997
 20
1044.823857771277
 30
0.0
 11
1488.392230911825
 21
1046.146169625104
 31
0.0
  0
LINE
  5
ACC
330
998
100
AcDbEntity
  8
0
  6
Continuous
 62
     7
370
    15
100
AcDbLine
 10
1491.460607872303
 20
1044.374833309774
 30
0.0
 11
1492.415202026905
 21
1044.925908785255
 31
0.0
  0
LINE
  5
ACD
330
998
100
AcDbEntity
  8
0
  6
Continuous
 62
     7
370
    15
100
AcDbLine
 10
1491.637384567599
 20
1045.374933246757
 30
0.0
 11
1492.415202026904
 21
1044.925908785255
 31
0.0
  0
LWPOLYLINE
  5
ACE
330
998
100
AcDbEntity
  8
0
  6
Continuous
 62
     7
370
    15
100
AcDbPolyline
 90
       21
 70
   128
 43
0.0
 10
1484.782305736021
 20
1036.550327973209
 10
1484.645284866972
 20
1036.427754697616
 10
1484.398889618773
 20
1036.105687924246
 10
1484.2184271531
 20
1035.706765357139
 10
1484.108341054778
 20
1035.240809793846
 10
1484.071342008904
 20
1034.719294606752
 10
1484.108341054778
 20
1034.155061230574
 10
1484.2184271531
 20
1033.562002963615
 10
1484.398889618773
 20
1032.954722868657
 10
1484.645284866972
 20
1032.348174197085
 10
1484.951545828947
 20
1031.757292190211
 10
1485.310131343393
 20
1031.19662632407
 10
1485.712211844866
 20
1030.67998205303
 10
1486.147886776993
 20
1030.220080873688
 10
1486.606428377021
 20
1029.828247079404
 10
1487.076545828947
 20
1029.514128918614
 10
1487.546663280872
 20
1029.285461022937
 10
1488.005204880901
 20
1029.147873954868
 10
1488.440879813027
 20
1029.104755564649
 10
1488.842960314501
 20
1029.157167570149
 10
1489.01723253128
 20
1029.214424737093
  0
LINE
  5
ACF
330
998
100
AcDbEntity
  8
0
  6
Continuous
 62
     7
370
    15
100
AcDbLine
 10
1489.364135506636
 20
1043.164565574347
 30
0.0
 11
1489.056444816269
 21
1043.884988442681
 31
0.0
  0
LINE
  5
AD0
330
998
100
AcDbEntity
  8
0
  6
Continuous
 62
     7
370
    15
100
AcDbLine
 10
1490.682790412997
 20
1044.823857771277
 30
0.0
 11
1490.311339601294
 21
1043.160553103326
 31
0.0
  0
LINE
  5
AD1
330
998
100
AcDbEntity
  8
0
  6
Continuous
 62
     7
370
    15
100
AcDbLine
 10
1491.637384567599
 20
1045.374933246757
 30
0.0
 11
1491.637384567599
 21
1044.476884323752
 31
0.0
  0
ENDBLK
  5
99A
330
998
100
AcDbEntity
  8
0
100
AcDbBlockEnd
  0
ENDSEC
  0
SECTION
  2
ENTITIES
  0
INSERT
  5
814
330
1F
100
AcDbEntity
  8
0
100
AcDbBlockReference
  2
1
 10
0.0
 20
0.0
 30
0.0
  0
INSERT
  5
988
330
1F
100
AcDbEntity
  8
0
100
AcDbBlockReference
  2
2
 10
0.0
 20
0.0
 30
0.0
  0
INSERT
  5
997
330
1F
100
AcDbEntity
  8
0
100
AcDbBlockReference
  2
3
 10
0.0
 20
0.0
 30
0.0
  0
INSERT
  5
AD2
330
1F
100
AcDbEntity
  8
0
100
AcDbBlockReference
  2
4
 10
163.9722598409278
 20
112.7533050355109
 30
0.0
  0
ENDSEC
  0
SECTION
  2
OBJECTS
  0
DICTIONARY
  5
C
330
0
100
AcDbDictionary
281
     1
  3
ACAD_COLOR
350
6B
  3
ACAD_GROUP
350
D
  3
ACAD_LAYOUT
350
1A
  3
ACAD_MATERIAL
350
6A
  3
ACAD_MLEADERSTYLE
350
12D
  3
ACAD_MLINESTYLE
350
17
  3
ACAD_PLOTSETTINGS
350
19
  3
ACAD_PLOTSTYLENAME
350
E
  3
ACAD_SCALELIST
350
10C
  3
ACAD_TABLESTYLE
350
7E
  3
ACAD_VISUALSTYLE
350
EF
  3
ACDB_RECOMPOSE_DATA
350
15D
  3
AcDbVariableDictionary
350
5E
  3
DWGPROPS
350
AE5
  0
DICTIONARY
  5
13C
330
10
100
AcDbDictionary
280
     1
281
     1
  3
ADSK_XREC_LAYER_RECONCILED
360
AD3
  0
DICTIONARY
  5
6B
102
{ACAD_REACTORS
330
C
102
}
330
C
100
AcDbDictionary
281
     1
  0
DICTIONARY
  5
D
102
{ACAD_REACTORS
330
C
102
}
330
C
100
AcDbDictionary
281
     1
  0
DICTIONARY
  5
1A
102
{ACAD_REACTORS
330
C
102
}
330
C
100
AcDbDictionary
281
     1
  3
Layout1
350
D3
  3
Layout2
350
D7
  3
Model
350
22
  0
DICTIONARY
  5
6A
102
{ACAD_REACTORS
330
C
102
}
330
C
100
AcDbDictionary
281
     1
  3
ByBlock
350
ED
  3
ByLayer
350
EC
  3
Global
350
EE
  0
DICTIONARY
  5
12D
102
{ACAD_REACTORS
330
C
102
}
330
C
100
AcDbDictionary
281
     1
  3
Annotative
350
13B
  3
Standard
350
12E
  0
DICTIONARY
  5
17
102
{ACAD_REACTORS
330
C
102
}
330
C
100
AcDbDictionary
281
     1
  3
Standard
350
18
  0
DICTIONARY
  5
19
102
{ACAD_REACTORS
330
C
102
}
330
C
100
AcDbDictionary
281
     1
  0
ACDBDICTIONARYWDFLT
  5
E
102
{ACAD_REACTORS
330
C
102
}
330
C
100
AcDbDictionary
281
     1
  3
Normal
350
F
100
AcDbDictionaryWithDefault
340
F
  0
DICTIONARY
  5
10C
102
{ACAD_REACTORS
330
C
102
}
330
C
100
AcDbDictionary
281
     1
  3
A0
350
10D
  3
A1
350
188
  3
A2
350
189
  3
A3
350
18A
  3
A4
350
18B
  3
A5
350
18C
  3
A6
350
18D
  3
A7
350
18E
  3
A8
350
18F
  3
A9
350
190
  3
B0
350
191
  3
B1
350
192
  3
B2
350
193
  3
B3
350
194
  3
B4
350
195
  3
B5
350
196
  3
B6
350
197
  3
B7
350
198
  3
B8
350
199
  3
B9
350
19A
  3
C0
350
19B
  3
C1
350
19C
  3
C2
350
19D
  3
C3
350
19E
  3
C4
350
19F
  3
C5
350
1A0
  3
C6
350
1A1
  3
C7
350
1A2
  3
C8
350
1A3
  3
C9
350
1A4
  3
D0
350
1A5
  3
D1
350
1A6
  3
D2
350
1A7
  0
DICTIONARY
  5
7E
102
{ACAD_REACTORS
330
C
102
}
330
C
100
AcDbDictionary
281
     1
  3
Standard
350
7F
  0
DICTIONARY
  5
EF
102
{ACAD_REACTORS
330
C
102
}
330
C
100
AcDbDictionary
281
     1
  3
2dWireframe
350
F5
  3
3D Hidden
350
F7
  3
3dWireframe
350
F6
  3
Basic
350
F4
  3
Brighten
350
FB
  3
ColorChange
350
FF
  3
Conceptual
350
F8
  3
Dim
350
FA
  3
Facepattern
350
FE
  3
Flat
350
F0
  3
FlatWithEdges
350
F1
  3
Gouraud
350
F2
  3
GouraudWithEdges
350
F3
  3
Linepattern
350
FD
  3
Realistic
350
F9
  3
Thicken
350
FC
  0
XRECORD
  5
15D
102
{ACAD_REACTORS
330
C
102
}
330
C
100
AcDbXrecord
280
     1
 90
        1
330
7F
  0
DICTIONARY
  5
5E
102
{ACAD_REACTORS
330
C
102
}
330
C
100
AcDbDictionary
281
     1
  3
CANNOSCALE
350
146
  3
CMLEADERSTYLE
350
145
  3
CTABLESTYLE
350
84
  3
DIMASSOC
350
5F
  3
HIDETEXT
350
63
  3
INDEXCTL
350
AE1
  3
LIGHTINGUNITS
350
ADF
  3
MSLTSCALE
350
ADE
  3
PSOLHEIGHT
350
AE3
  3
PSOLWIDTH
350
AE2
  3
SORTENTS
350
AE0
  0
XRECORD
  5
AE5
102
{ACAD_REACTORS
330
C
102
}
330
C
100
AcDbXrecord
280
     1
  1
DWGPROPS COOKIE
  2

  3

  4

  6

  7

  8
orhan kara
  9

300
=
301
=
302
=
303
=
304
=
305
=
306
=
307
=
308
=
309
=
 40
0.0006426388888889
 41
2458492.456901308
 42
2458983.561070961
  1

 90
        0
  0
XRECORD
  5
AD3
102
{ACAD_REACTORS
330
13C
102
}
330
13C
100
AcDbXrecord
280
     1
290
     1
  0
LAYOUT
  5
D3
102
{ACAD_XDICTIONARY
360
AE9
102
}
102
{ACAD_REACTORS
330
1A
102
}
330
1A
100
AcDbPlotSettings
  1

  2
C:\Documents and Settings\basas\Application Data\Autodesk\AutoCAD 2005\R16.1\enu\plotters\Default Windows System Printer.pc3
  4

  6

 40
0.0
 41
0.0
 42
0.0
 43
0.0
 44
0.0
 45
0.0
 46
0.0
 47
0.0
 48
0.0
 49
0.0
140
0.0
141
0.0
142
1.0
143
1.0
 70
   688
 72
     0
 73
     0
 74
     5
  7

 75
    16
147
1.0
148
0.0
149
0.0
100
AcDbLayout
  1
Layout1
 70
     1
 71
     1
 10
0.0
 20
0.0
 11
12.0
 21
9.0
 12
0.0
 22
0.0
 32
0.0
 14
0.0
 24
0.0
 34
0.0
 15
0.0
 25
0.0
 35
0.0
146
0.0
 13
0.0
 23
0.0
 33
0.0
 16
1.0
 26
0.0
 36
0.0
 17
0.0
 27
1.0
 37
0.0
 76
     0
330
D2
  0
LAYOUT
  5
D7
102
{ACAD_XDICTIONARY
360
AEB
102
}
102
{ACAD_REACTORS
330
1A
102
}
330
1A
100
AcDbPlotSettings
  1

  2
C:\Documents and Settings\basas\Application Data\Autodesk\AutoCAD 2005\R16.1\enu\plotters\Default Windows System Printer.pc3
  4

  6

 40
0.0
 41
0.0
 42
0.0
 43
0.0
 44
0.0
 45
0.0
 46
0.0
 47
0.0
 48
0.0
 49
0.0
140
0.0
141
0.0
142
1.0
143
1.0
 70
   688
 72
     0
 73
     0
 74
     5
  7

 75
    16
147
1.0
148
0.0
149
0.0
100
AcDbLayout
  1
Layout2
 70
     1
 71
     2
 10
0.0
 20
0.0
 11
12.0
 21
9.0
 12
0.0
 22
0.0
 32
0.0
 14
0.0
 24
0.0
 34
0.0
 15
0.0
 25
0.0
 35
0.0
146
0.0
 13
0.0
 23
0.0
 33
0.0
 16
1.0
 26
0.0
 36
0.0
 17
0.0
 27
1.0
 37
0.0
 76
     0
330
D6
  0
LAYOUT
  5
22
102
{ACAD_XDICTIONARY
360
AE6
102
}
102
{ACAD_REACTORS
330
1A
102
}
330
1A
100
AcDbPlotSettings
  1

  2
none_device
  4
ISO_A4_(210.00_x_297.00_MM)
  6

 40
7.5
 41
20.0
 42
7.5
 43
20.0
 44
210.0
 45
297.0
 46
11.54999923706054
 47
-13.65000009536743
 48
0.0
 49
0.0
140
0.0
141
0.0
142
1.0
143
8.704084754739808
 70
 11952
 72
     1
 73
     0
 74
     0
  7

 75
     0
147
0.1148885871608098
148
0.0
149
0.0
100
AcDbLayout
  1
Model
 70
     1
 71
     0
 10
0.0
 20
0.0
 11
12.0
 21
9.0
 12
0.0
 22
0.0
 32
0.0
 14
0.0
 24
0.0
 34
0.0
 15
0.0
 25
0.0
 35
0.0
146
0.0
 13
0.0
 23
0.0
 33
0.0
 16
1.0
 26
0.0
 36
0.0
 17
0.0
 27
1.0
 37
0.0
 76
     0
330
1F
331
EA
1001
ACAD_PSEXT
1000
None
1000
None
1000
Not applicable
1000
The layout will not be plotted unless a new plotter configuration name is selected.
1070
     0
  0
MATERIAL
  5
ED
102
{ACAD_XDICTIONARY
360
AEF
102
}
102
{ACAD_REACTORS
330
6A
102
}
330
6A
100
AcDbMaterial
  1
ByBlock
  0
MATERIAL
  5
EC
102
{ACAD_XDICTIONARY
360
AED
102
}
102
{ACAD_REACTORS
330
6A
102
}
330
6A
100
AcDbMaterial
  1
ByLayer
  0
MATERIAL
  5
EE
102
{ACAD_XDICTIONARY
360
173
102
}
102
{ACAD_REACTORS
330
6A
102
}
330
6A
100
AcDbMaterial
  1
Global
 43
0.0007999999797903
 43
0.0
 43
0.0
 43
0.0
 43
0.0
 43
0.0007999999797903
 43
0.0
 43
0.0
 43
0.0
 43
0.0
 43
1.0
 43
0.0
 43
0.0
 43
0.0
 43
0.0
 43
1.0
 49
0.0007999999797903
 49
0.0
 49
0.0
 49
0.0
 49
0.0
 49
0.0007999999797903
 49
0.0
 49
0.0
 49
0.0
 49
0.0
 49
1.0
 49
0.0
 49
0.0
 49
0.0
 49
0.0
 49
1.0
142
0.0007999999797903
142
0.0
142
0.0
142
0.0
142
0.0
142
0.0007999999797903
142
0.0
142
0.0
142
0.0
142
0.0
142
1.0
142
0.0
142
0.0
142
0.0
142
0.0
142
1.0
144
0.0007999999797903
144
0.0
144
0.0
144
0.0
144
0.0
144
0.0007999999797903
144
0.0
144
0.0
144
0.0
144
0.0
144
1.0
144
0.0
144
0.0
144
0.0
144
0.0
144
1.0
1001
ACAD
1070
    -1
1070
     3
1070
     0
1000

1071
        0
1070
     0
  0
MLEADERSTYLE
  5
13B
102
{ACAD_REACTORS
330
12D
102
}
330
12D
100
AcDbMLeaderStyle
170
     2
171
     1
172
     0
 90
        2
 40
0.0
 41
0.0
173
     1
 91
-1056964608
340
14
 92
       -2
290
     1
 42
2.0
291
     1
 43
8.0
  3
Standard
 44
4.0
300

342
11
174
     1
178
     1
175
     1
176
     0
 93
-1056964608
 45
4.0
292
     0
297
     0
 46
4.0
 94
-1056964608
 47
1.0
 49
1.0
140
1.0
293
     1
141
0.0
294
     1
177
     0
142
1.0
295
     0
296
     1
143
3.75
1001
ACAD_MLEADERVER
1070
     2
  0
MLEADERSTYLE
  5
12E
102
{ACAD_REACTORS
330
12D
102
}
330
12D
100
AcDbMLeaderStyle
170
     2
171
     1
172
     0
 90
        2
 40
0.0
 41
0.0
173
     1
 91
-1056964608
340
14
 92
       -2
290
     1
 42
2.0
291
     1
 43
8.0
  3
Standard
 44
4.0
300

342
11
174
     1
178
     1
175
     1
176
     0
 93
-1056964608
 45
4.0
292
     0
297
     0
 46
4.0
 94
-1056964608
 47
1.0
 49
1.0
140
1.0
293
     1
141
0.0
294
     1
177
     0
142
1.0
295
     0
296
     0
143
3.75
1001
ACAD_MLEADERVER
1070
     2
  0
MLINESTYLE
  5
18
102
{ACAD_REACTORS
330
17
102
}
330
17
100
AcDbMlineStyle
  2
STANDARD
 70
     0
  3

 62
   256
 51
90.0
 52
90.0
 71
     2
 49
0.5
 62
   256
  6
BYLAYER
 49
-0.5
 62
   256
  6
BYLAYER
  0
ACDBPLACEHOLDER
  5
F
102
{ACAD_REACTORS
330
E
102
}
330
E
  0
SCALE
  5
10D
102
{ACAD_REACTORS
330
10C
102
}
330
10C
100
AcDbScale
 70
     0
300
1:1
140
1.0
141
1.0
290
     1
  0
SCALE
  5
188
102
{ACAD_REACTORS
330
10C
102
}
330
10C
100
AcDbScale
 70
     0
300
1:2
140
1.0
141
2.0
290
     0
  0
SCALE
  5
189
102
{ACAD_REACTORS
330
10C
102
}
330
10C
100
AcDbScale
 70
     0
300
1:4
140
1.0
141
4.0
290
     0
  0
SCALE
  5
18A
102
{ACAD_REACTORS
330
10C
102
}
330
10C
100
AcDbScale
 70
     0
300
1:5
140
1.0
141
5.0
290
     0
  0
SCALE
  5
18B
102
{ACAD_REACTORS
330
10C
102
}
330
10C
100
AcDbScale
 70
     0
300
1:8
140
1.0
141
8.0
290
     0
  0
SCALE
  5
18C
102
{ACAD_REACTORS
330
10C
102
}
330
10C
100
AcDbScale
 70
     0
300
1:10
140
1.0
141
10.0
290
     0
  0
SCALE
  5
18D
102
{ACAD_REACTORS
330
10C
102
}
330
10C
100
AcDbScale
 70
     0
300
1:16
140
1.0
141
16.0
290
     0
  0
SCALE
  5
18E
102
{ACAD_REACTORS
330
10C
102
}
330
10C
100
AcDbScale
 70
     0
300
1:20
140
1.0
141
20.0
290
     0
  0
SCALE
  5
18F
102
{ACAD_REACTORS
330
10C
102
}
330
10C
100
AcDbScale
 70
     0
300
1:30
140
1.0
141
30.0
290
     0
  0
SCALE
  5
190
102
{ACAD_REACTORS
330
10C
102
}
330
10C
100
AcDbScale
 70
     0
300
1:40
140
1.0
141
40.0
290
     0
  0
SCALE
  5
191
102
{ACAD_REACTORS
330
10C
102
}
330
10C
100
AcDbScale
 70
     0
300
1:50
140
1.0
141
50.0
290
     0
  0
SCALE
  5
192
102
{ACAD_REACTORS
330
10C
102
}
330
10C
100
AcDbScale
 70
     0
300
1:100
140
1.0
141
100.0
290
     0
  0
SCALE
  5
193
102
{ACAD_REACTORS
330
10C
102
}
330
10C
100
AcDbScale
 70
     0
300
2:1
140
2.0
141
1.0
290
     0
  0
SCALE
  5
194
102
{ACAD_REACTORS
330
10C
102
}
330
10C
100
AcDbScale
 70
     0
300
4:1
140
4.0
141
1.0
290
     0
  0
SCALE
  5
195
102
{ACAD_REACTORS
330
10C
102
}
330
10C
100
AcDbScale
 70
     0
300
8:1
140
8.0
141
1.0
290
     0
  0
SCALE
  5
196
102
{ACAD_REACTORS
330
10C
102
}
330
10C
100
AcDbScale
 70
     0
300
10:1
140
10.0
141
1.0
290
     0
  0
SCALE
  5
197
102
{ACAD_REACTORS
330
10C
102
}
330
10C
100
AcDbScale
 70
     0
300
100:1
140
100.0
141
1.0
290
     0
  0
SCALE
  5
198
102
{ACAD_REACTORS
330
10C
102
}
330
10C
100
AcDbScale
 70
     0
300
1/128" = 1'-0"
140
0.0078125
141
12.0
290
     0
  0
SCALE
  5
199
102
{ACAD_REACTORS
330
10C
102
}
330
10C
100
AcDbScale
 70
     0
300
1/64" = 1'-0"
140
0.015625
141
12.0
290
     0
  0
SCALE
  5
19A
102
{ACAD_REACTORS
330
10C
102
}
330
10C
100
AcDbScale
 70
     0
300
1/32" = 1'-0"
140
0.03125
141
12.0
290
     0
  0
SCALE
  5
19B
102
{ACAD_REACTORS
330
10C
102
}
330
10C
100
AcDbScale
 70
     0
300
1/16" = 1'-0"
140
0.0625
141
12.0
290
     0
  0
SCALE
  5
19C
102
{ACAD_REACTORS
330
10C
102
}
330
10C
100
AcDbScale
 70
     0
300
3/32" = 1'-0"
140
0.09375
141
12.0
290
     0
  0
SCALE
  5
19D
102
{ACAD_REACTORS
330
10C
102
}
330
10C
100
AcDbScale
 70
     0
300
1/8" = 1'-0"
140
0.125
141
12.0
290
     0
  0
SCALE
  5
19E
102
{ACAD_REACTORS
330
10C
102
}
330
10C
100
AcDbScale
 70
     0
300
3/16" = 1'-0"
140
0.1875
141
12.0
290
     0
  0
SCALE
  5
19F
102
{ACAD_REACTORS
330
10C
102
}
330
10C
100
AcDbScale
 70
     0
300
1/4" = 1'-0"
140
0.25
141
12.0
290
     0
  0
SCALE
  5
1A0
102
{ACAD_REACTORS
330
10C
102
}
330
10C
100
AcDbScale
 70
     0
300
3/8" = 1'-0"
140
0.375
141
12.0
290
     0
  0
SCALE
  5
1A1
102
{ACAD_REACTORS
330
10C
102
}
330
10C
100
AcDbScale
 70
     0
300
1/2" = 1'-0"
140
0.5
141
12.0
290
     0
  0
SCALE
  5
1A2
102
{ACAD_REACTORS
330
10C
102
}
330
10C
100
AcDbScale
 70
     0
300
3/4" = 1'-0"
140
0.75
141
12.0
290
     0
  0
SCALE
  5
1A3
102
{ACAD_REACTORS
330
10C
102
}
330
10C
100
AcDbScale
 70
     0
300
1" = 1'-0"
140
1.0
141
12.0
290
     0
  0
SCALE
  5
1A4
102
{ACAD_REACTORS
330
10C
102
}
330
10C
100
AcDbScale
 70
     0
300
1-1/2" = 1'-0"
140
1.5
141
12.0
290
     0
  0
SCALE
  5
1A5
102
{ACAD_REACTORS
330
10C
102
}
330
10C
100
AcDbScale
 70
     0
300
3" = 1'-0"
140
3.0
141
12.0
290
     0
  0
SCALE
  5
1A6
102
{ACAD_REACTORS
330
10C
102
}
330
10C
100
AcDbScale
 70
     0
300
6" = 1'-0"
140
6.0
141
12.0
290
     0
  0
SCALE
  5
1A7
102
{ACAD_REACTORS
330
10C
102
}
330
10C
100
AcDbScale
 70
     0
300
1'-0" = 1'-0"
140
12.0
141
12.0
290
     0
  0
TABLESTYLE
  5
7F
102
{ACAD_XDICTIONARY
360
162
102
}
102
{ACAD_REACTORS
330
7E
102
}
330
7E
100
AcDbTableStyle
  3
Standard
 70
     0
 71
     0
 40
1.5
 41
1.5
280
     0
281
     0
  7
Standard
140
4.5
170
     2
 62
     0
 63
     7
283
     0
274
    -2
284
     1
 64
     0
275
    -2
285
     1
 65
     0
276
    -2
286
     1
 66
     0
277
    -2
287
     1
 67
     0
278
    -2
288
     1
 68
     0
279
    -2
289
     1
 69
     0
  7
Standard
140
6.0
170
     5
 62
     0
 63
     7
283
     0
274
    -2
284
     1
 64
     0
275
    -2
285
     1
 65
     0
276
    -2
286
     1
 66
     0
277
    -2
287
     1
 67
     0
278
    -2
288
     1
 68
     0
279
    -2
289
     1
 69
     0
  7
Standard
140
4.5
170
     5
 62
     0
 63
     7
283
     0
274
    -2
284
     1
 64
     0
275
    -2
285
     1
 65
     0
276
    -2
286
     1
 66
     0
277
    -2
287
     1
 67
     0
278
    -2
288
     1
 68
     0
279
    -2
289
     1
 69
     0
  0
VISUALSTYLE
  5
F5
102
{ACAD_REACTORS
330
EF
102
}
330
EF
100
AcDbVisualStyle
  2
2dWireframe
 70
     4
 71
     0
 72
     2
 73
     1
 90
        0
 40
-0.6
 41
-30.0
 62
     5
 63
     7
 74
     1
 91
        4
 64
     7
 65
   257
 75
     1
175
     1
 42
1.0
 92
        0
 66
   257
 43
1.0
 76
     1
 77
     6
 78
     2
 67
     7
 79
     5
170
     0
171
     0
290
     0
174
     0
 93
        1
 44
0.0
173
     0
291
     0
 45
0.0
1001
ACAD
1000
AcDbSavedByObjectVersion
1070
     0
  0
VISUALSTYLE
  5
F7
102
{ACAD_REACTORS
330
EF
102
}
330
EF
100
AcDbVisualStyle
  2
3D Hidden
 70
     6
 71
     1
 72
     2
 73
     2
 90
        0
 40
-0.6
 41
-30.0
 62
     5
 63
     7
 74
     2
 91
        2
 64
     7
 65
   257
 75
     2
175
     1
 42
40.0
 92
        0
 66
   257
 43
1.0
 76
     1
 77
     6
 78
     2
 67
     7
 79
     3
170
     0
171
     0
290
     0
174
     0
 93
        1
 44
0.0
173
     0
291
     0
 45
0.0
1001
ACAD
1000
AcDbSavedByObjectVersion
1070
     0
  0
VISUALSTYLE
  5
F6
102
{ACAD_REACTORS
330
EF
102
}
330
EF
100
AcDbVisualStyle
  2
3dWireframe
 70
     5
 71
     0
 72
     2
 73
     1
 90
        0
 40
-0.6
 41
-30.0
 62
     5
 63
     7
 74
     1
 91
        4
 64
     7
 65
   257
 75
     1
175
     1
 42
1.0
 92
        0
 66
   257
 43
1.0
 76
     1
 77
     6
 78
     2
 67
     7
 79
     5
170
     0
171
     0
290
     0
174
     0
 93
        1
 44
0.0
173
     0
291
     0
 45
0.0
1001
ACAD
1000
AcDbSavedByObjectVersion
1070
     0
  0
VISUALSTYLE
  5
F4
102
{ACAD_REACTORS
330
EF
102
}
330
EF
100
AcDbVisualStyle
  2
Basic
 70
     7
 71
     1
 72
     0
 73
     1
 90
        0
 40
-0.6
 41
-30.0
 62
     5
 63
     7
 74
     0
 91
        4
 64
     7
 65
   257
 75
     1
175
     1
 42
1.0
 92
        8
 66
     7
 43
1.0
 76
     1
 77
     6
 78
     2
 67
     7
 79
     5
170
     0
171
     0
290
     0
174
     0
 93
        1
 44
0.0
173
     0
291
     1
 45
0.0
1001
ACAD
1000
AcDbSavedByObjectVersion
1070
     0
  0
VISUALSTYLE
  5
FB
102
{ACAD_REACTORS
330
EF
102
}
330
EF
100
AcDbVisualStyle
  2
Brighten
 70
    12
 71
     2
 72
     2
 73
     1
 90
        0
 40
-0.6
 41
-30.0
 62
     5
 63
     7
 74
     1
 91
        4
 64
     7
 65
   257
 75
     1
175
     1
 42
1.0
 92
        8
 66
     7
 43
1.0
 76
     1
 77
     6
 78
     2
 67
     7
 79
     5
170
     0
171
     0
290
     0
174
     0
 93
        1
 44
50.0
173
     0
291
     1
 45
0.0
1001
ACAD
1000
AcDbSavedByObjectVersion
1070
     0
  0
VISUALSTYLE
  5
FF
102
{ACAD_REACTORS
330
EF
102
}
330
EF
100
AcDbVisualStyle
  2
ColorChange
 70
    16
 71
     2
 72
     2
 73
     3
 90
        0
 40
-0.6
 41
-30.0
 62
     5
 63
     8
 74
     1
 91
        4
 64
     7
 65
   257
 75
     1
175
     1
 42
1.0
 92
        8
 66
     8
 43
1.0
 76
     1
 77
     6
 78
     2
 67
     7
 79
     5
170
     0
171
     0
290
     0
174
     0
 93
        1
 44
0.0
173
     0
291
     1
 45
0.0
1001
ACAD
1000
AcDbSavedByObjectVersion
1070
     0
  0
VISUALSTYLE
  5
F8
102
{ACAD_REACTORS
330
EF
102
}
330
EF
100
AcDbVisualStyle
  2
Conceptual
 70
     9
 71
     3
 72
     2
 73
     1
 90
        0
 40
-0.6
 41
-30.0
 62
     5
 63
     7
 74
     2
 91
        2
 64
     7
 65
   257
 75
     1
175
     1
 42
40.0
 92
        8
 66
     7
 43
1.0
 76
     1
 77
     6
 78
     2
 67
     7
 79
     3
170
     0
171
     0
290
     0
174
     0
 93
        1
 44
0.0
173
     0
291
     0
 45
0.0
1001
ACAD
1000
AcDbSavedByObjectVersion
1070
     0
  0
VISUALSTYLE
  5
FA
102
{ACAD_REACTORS
330
EF
102
}
330
EF
100
AcDbVisualStyle
  2
Dim
 70
    11
 71
     2
 72
     2
 73
     1
 90
        0
 40
-0.6
 41
-30.0
 62
     5
 63
     7
 74
     1
 91
        4
 64
     7
 65
   257
 75
     1
175
     1
 42
1.0
 92
        8
 66
     7
 43
1.0
 76
     1
 77
     6
 78
     2
 67
     7
 79
     5
170
     0
171
     0
290
     0
174
     0
 93
        1
 44
-50.0
173
     0
291
     1
 45
0.0
1001
ACAD
1000
AcDbSavedByObjectVersion
1070
     0
  0
VISUALSTYLE
  5
FE
102
{ACAD_REACTORS
330
EF
102
}
330
EF
100
AcDbVisualStyle
  2
Facepattern
 70
    15
 71
     2
 72
     2
 73
     1
 90
        0
 40
-0.6
 41
-30.0
 62
     5
 63
     7
 74
     1
 91
        4
 64
     7
 65
   257
 75
     1
175
     1
 42
1.0
 92
        8
 66
     7
 43
1.0
 76
     1
 77
     6
 78
     2
 67
     7
 79
     5
170
     0
171
     0
290
     0
174
     0
 93
        1
 44
0.0
173
     0
291
     1
 45
0.0
1001
ACAD
1000
AcDbSavedByObjectVersion
1070
     0
  0
VISUALSTYLE
  5
F0
102
{ACAD_REACTORS
330
EF
102
}
330
EF
100
AcDbVisualStyle
  2
Flat
 70
     0
 71
     2
 72
     1
 73
     1
 90
        2
 40
-0.6
 41
30.0
 62
     5
 63
     7
 74
     0
 91
        4
 64
     7
 65
   257
 75
     1
175
     1
 42
1.0
 92
        8
 66
     7
 43
1.0
 76
     1
 77
     6
 78
     2
 67
     7
 79
     5
170
     0
171
     0
290
     0
174
     0
 93
        1
 44
0.0
173
     0
291
     1
 45
0.0
1001
ACAD
1000
AcDbSavedByObjectVersion
1070
     0
  0
VISUALSTYLE
  5
F1
102
{ACAD_REACTORS
330
EF
102
}
330
EF
100
AcDbVisualStyle
  2
FlatWithEdges
 70
     1
 71
     2
 72
     1
 73
     1
 90
        2
 40
-0.6
 41
30.0
 62
     5
 63
     7
 74
     1
 91
        4
 64
     7
 65
   257
 75
     1
175
     1
 42
1.0
 92
        0
 66
   257
 43
1.0
 76
     1
 77
     6
 78
     2
 67
     7
 79
     5
170
     0
171
     0
290
     0
174
     0
 93
        1
 44
0.0
173
     0
291
     1
 45
0.0
1001
ACAD
1000
AcDbSavedByObjectVersion
1070
     0
  0
VISUALSTYLE
  5
F2
102
{ACAD_REACTORS
330
EF
102
}
330
EF
100
AcDbVisualStyle
  2
Gouraud
 70
     2
 71
     2
 72
     2
 73
     1
 90
        2
 40
-0.6
 41
30.0
 62
     5
 63
     7
 74
     0
 91
        4
 64
     7
 65
   257
 75
     1
175
     1
 42
1.0
 92
        0
 66
     7
 43
1.0
 76
     1
 77
     6
 78
     2
 67
     7
 79
     5
170
     0
171
     0
290
     0
174
     0
 93
        1
 44
0.0
173
     0
291
     1
 45
0.0
1001
ACAD
1000
AcDbSavedByObjectVersion
1070
     0
  0
VISUALSTYLE
  5
F3
102
{ACAD_REACTORS
330
EF
102
}
330
EF
100
AcDbVisualStyle
  2
GouraudWithEdges
 70
     3
 71
     2
 72
     2
 73
     1
 90
        2
 40
-0.6
 41
30.0
 62
     5
 63
     7
 74
     1
 91
        4
 64
     7
 65
   257
 75
     1
175
     1
 42
1.0
 92
        0
 66
   257
 43
1.0
 76
     1
 77
     6
 78
     2
 67
     7
 79
     5
170
     0
171
     0
290
     0
174
     0
 93
        1
 44
0.0
173
     0
291
     1
 45
0.0
1001
ACAD
1000
AcDbSavedByObjectVersion
1070
     0
  0
VISUALSTYLE
  5
FD
102
{ACAD_REACTORS
330
EF
102
}
330
EF
100
AcDbVisualStyle
  2
Linepattern
 70
    14
 71
     2
 72
     2
 73
     1
 90
        0
 40
-0.6
 41
-30.0
 62
     5
 63
     7
 74
     1
 91
        4
 64
     7
 65
   257
 75
     7
175
     7
 42
1.0
 92
        8
 66
     7
 43
1.0
 76
     1
 77
     6
 78
     2
 67
     7
 79
     5
170
     0
171
     0
290
     0
174
     0
 93
        1
 44
0.0
173
     0
291
     1
 45
0.0
1001
ACAD
1000
AcDbSavedByObjectVersion
1070
     0
  0
VISUALSTYLE
  5
F9
102
{ACAD_REACTORS
330
EF
102
}
330
EF
100
AcDbVisualStyle
  2
Realistic
 70
     8
 71
     2
 72
     2
 73
     1
 90
        0
 40
-0.6
 41
-30.0
 62
     5
 63
     7
 74
     1
 91
        0
 64
     7
 65
   257
 75
     1
175
     1
 42
1.0
 92
        8
 66
     8
 43
1.0
 76
     1
 77
     6
 78
     2
 67
     7
 79
     5
170
     0
171
     0
290
     0
174
     0
 93
       13
 44
0.0
173
     0
291
     0
 45
0.0
1001
ACAD
1000
AcDbSavedByObjectVersion
1070
     0
  0
VISUALSTYLE
  5
FC
102
{ACAD_REACTORS
330
EF
102
}
330
EF
100
AcDbVisualStyle
  2
Thicken
 70
    13
 71
     2
 72
     2
 73
     1
 90
        0
 40
-0.6
 41
-30.0
 62
     5
 63
     7
 74
     1
 91
        4
 64
     7
 65
   257
 75
     1
175
     1
 42
1.0
 92
       12
 66
     7
 43
1.0
 76
     1
 77
     6
 78
     2
 67
     7
 79
     5
170
     0
171
     0
290
     0
174
     0
 93
        1
 44
0.0
173
     0
291
     1
 45
0.0
1001
ACAD
1000
AcDbSavedByObjectVersion
1070
     0
  0
DICTIONARYVAR
  5
146
102
{ACAD_REACTORS
330
5E
102
}
330
5E
100
DictionaryVariables
280
     0
  1
1:1
  0
DICTIONARYVAR
  5
145
102
{ACAD_REACTORS
330
5E
102
}
330
5E
100
DictionaryVariables
280
     0
  1
STANDARD
  0
DICTIONARYVAR
  5
84
102
{ACAD_REACTORS
330
5E
102
}
330
5E
100
DictionaryVariables
280
     0
  1
STANDARD
  0
DICTIONARYVAR
  5
5F
102
{ACAD_REACTORS
330
5E
102
}
330
5E
100
DictionaryVariables
280
     0
  1
2
  0
DICTIONARYVAR
  5
63
102
{ACAD_REACTORS
330
5E
102
}
330
5E
100
DictionaryVariables
280
     0
  1
1
  0
DICTIONARYVAR
  5
AE1
102
{ACAD_REACTORS
330
5E
102
}
330
5E
100
DictionaryVariables
280
     0
  1
0
  0
DICTIONARYVAR
  5
ADF
102
{ACAD_REACTORS
330
5E
102
}
330
5E
100
DictionaryVariables
280
     0
  1
2
  0
DICTIONARYVAR
  5
ADE
102
{ACAD_REACTORS
330
5E
102
}
330
5E
100
DictionaryVariables
280
     0
  1
1
  0
DICTIONARYVAR
  5
AE3
102
{ACAD_REACTORS
330
5E
102
}
330
5E
100
DictionaryVariables
280
     0
  1
80.000000
  0
DICTIONARYVAR
  5
AE2
102
{ACAD_REACTORS
330
5E
102
}
330
5E
100
DictionaryVariables
280
     0
  1
5.000000
  0
DICTIONARYVAR
  5
AE0
102
{ACAD_REACTORS
330
5E
102
}
330
5E
100
DictionaryVariables
280
     0
  1
127
  0
DICTIONARY
  5
AE9
330
D3
100
AcDbDictionary
280
     1
281
     1
  3
ACAD_XREC_ROUNDTRIP
360
AEA
  0
DICTIONARY
  5
AEB
330
D7
100
AcDbDictionary
280
     1
281
     1
  3
ACAD_XREC_ROUNDTRIP
360
AEC
  0
DICTIONARY
  5
AE6
330
22
100
AcDbDictionary
280
     1
281
     1
  3
ACAD_XREC_ROUNDTRIP
360
AE7
  0
DICTIONARY
  5
AEF
330
ED
100
AcDbDictionary
280
     1
281
     1
  3
ACAD_XREC_ROUNDTRIP
360
AF0
  0
DICTIONARY
  5
AED
330
EC
100
AcDbDictionary
280
     1
281
     1
  3
ACAD_XREC_ROUNDTRIP
360
AEE
  0
DICTIONARY
  5
173
330
EE
100
AcDbDictionary
280
     1
281
     1
  3
ACAD_XREC_ROUNDTRIP
360
AF1
  3
BUMPTILE
360
175
  3
DIFFUSETILE
360
174
  3
OPACITYTILE
360
176
  3
REFLECTIONTILE
360
177
  0
DICTIONARY
  5
162
330
7F
100
AcDbDictionary
280
     1
281
     1
  3
ACAD_ROUNDTRIP_2008_TABLESTYLE_CELLSTYLEMAP
360
AE4
  3
ACAD_XREC_ROUNDTRIP
360
AE8
  0
XRECORD
  5
AEA
102
{ACAD_REACTORS
330
AE9
102
}
330
AE9
100
AcDbXrecord
280
     1
102
SHADEPLOT
 70
     0
102
SHADEPLOTRESLEVEL
 70
     2
102
SHADEPLOTCUSTOMDPI
 70
   300
  0
XRECORD
  5
AEC
102
{ACAD_REACTORS
330
AEB
102
}
330
AEB
100
AcDbXrecord
280
     1
102
SHADEPLOT
 70
     0
102
SHADEPLOTRESLEVEL
 70
     2
102
SHADEPLOTCUSTOMDPI
 70
   300
  0
XRECORD
  5
AE7
102
{ACAD_REACTORS
330
AE6
102
}
330
AE6
100
AcDbXrecord
280
     1
102
SHADEPLOT
 70
     0
102
SHADEPLOTRESLEVEL
 70
     2
102
SHADEPLOTCUSTOMDPI
 70
   300
  0
XRECORD
  5
AF0
102
{ACAD_REACTORS
330
AEF
102
}
330
AEF
100
AcDbXrecord
280
     1
102
MATERIAL
148
0.0
149
0.0
149
0.0
 93
        0
 94
       63
282
     0
 72
     1
 77
     1
171
     1
175
     1
179
     1
273
     0
  0
XRECORD
  5
AEE
102
{ACAD_REACTORS
330
AED
102
}
330
AED
100
AcDbXrecord
280
     1
102
MATERIAL
148
0.0
149
0.0
149
0.0
 93
        0
 94
       63
282
     0
 72
     1
 77
     1
171
     1
175
     1
179
     1
273
     0
  0
XRECORD
  5
AF1
102
{ACAD_REACTORS
330
173
102
}
330
173
100
AcDbXrecord
280
     1
102
MATERIAL
148
0.0
149
0.0
149
0.0
 93
        0
 94
       63
282
     0
 72
     1
 77
     1
171
     1
175
     1
179
     1
273
     0
  0
XRECORD
  5
175
102
{ACAD_REACTORS
330
173
102
}
330
173
100
AcDbXrecord
280
     1
270
     1
271
     1
  0
XRECORD
  5
174
102
{ACAD_REACTORS
330
173
102
}
330
173
100
AcDbXrecord
280
     1
270
     1
271
     1
  0
XRECORD
  5
176
102
{ACAD_REACTORS
330
173
102
}
330
173
100
AcDbXrecord
280
     1
270
     1
271
     1
  0
XRECORD
  5
177
102
{ACAD_REACTORS
330
173
102
}
330
173
100
AcDbXrecord
280
     1
270
     1
271
     1
  0
CELLSTYLEMAP
  5
AE4
102
{ACAD_REACTORS
330
162
102
}
330
162
100
AcDbCellStyleMap
 90
        3
300
CELLSTYLE
  1
TABLEFORMAT_BEGIN
 90
        5
170
     1
 91
        0
 92
    32768
 62
   257
 93
        1
300
CONTENTFORMAT
  1
CONTENTFORMAT_BEGIN
 90
        0
 91
        0
 92
      512
 93
        0
300

 40
0.0
140
1.0
 94
        5
 62
     0
340
11
144
6.0
309
CONTENTFORMAT_END
171
     1
301
MARGIN
  1
CELLMARGIN_BEGIN
 40
1.5
 40
1.5
 40
1.5
 40
1.5
 40
4.5
 40
4.5
309
CELLMARGIN_END
 94
        6
 95
        1
302
GRIDFORMAT
  1
GRIDFORMAT_BEGIN
 90
        0
 91
        1
 62
     0
 92
       -2
340
14
 93
        0
 40
1.125
309
GRIDFORMAT_END
 95
        2
302
GRIDFORMAT
  1
GRIDFORMAT_BEGIN
 90
        0
 91
        1
 62
     0
 92
       -2
340
14
 93
        0
 40
1.125
309
GRIDFORMAT_END
 95
        4
302
GRIDFORMAT
  1
GRIDFORMAT_BEGIN
 90
        0
 91
        1
 62
     0
 92
       -2
340
14
 93
        0
 40
1.125
309
GRIDFORMAT_END
 95
        8
302
GRIDFORMAT
  1
GRIDFORMAT_BEGIN
 90
        0
 91
        1
 62
     0
 92
       -2
340
14
 93
        0
 40
1.125
309
GRIDFORMAT_END
 95
       16
302
GRIDFORMAT
  1
GRIDFORMAT_BEGIN
 90
        0
 91
        1
 62
     0
 92
       -2
340
14
 93
        0
 40
1.125
309
GRIDFORMAT_END
 95
       32
302
GRIDFORMAT
  1
GRIDFORMAT_BEGIN
 90
        0
 91
        1
 62
     0
 92
       -2
340
14
 93
        0
 40
1.125
309
GRIDFORMAT_END
309
TABLEFORMAT_END
  1
CELLSTYLE_BEGIN
 90
        1
 91
        1
300
_TITLE
309
CELLSTYLE_END
300
CELLSTYLE
  1
TABLEFORMAT_BEGIN
 90
        5
170
     1
 91
        0
 92
        0
 62
   257
 93
        1
300
CONTENTFORMAT
  1
CONTENTFORMAT_BEGIN
 90
        0
 91
        0
 92
      512
 93
        0
300

 40
0.0
140
1.0
 94
        5
 62
     0
340
11
144
4.5
309
CONTENTFORMAT_END
171
     1
301
MARGIN
  1
CELLMARGIN_BEGIN
 40
1.5
 40
1.5
 40
1.5
 40
1.5
 40
4.5
 40
4.5
309
CELLMARGIN_END
 94
        6
 95
        1
302
GRIDFORMAT
  1
GRIDFORMAT_BEGIN
 90
        0
 91
        1
 62
     0
 92
       -2
340
14
 93
        0
 40
1.125
309
GRIDFORMAT_END
 95
        2
302
GRIDFORMAT
  1
GRIDFORMAT_BEGIN
 90
        0
 91
        1
 62
     0
 92
       -2
340
14
 93
        0
 40
1.125
309
GRIDFORMAT_END
 95
        4
302
GRIDFORMAT
  1
GRIDFORMAT_BEGIN
 90
        0
 91
        1
 62
     0
 92
       -2
340
14
 93
        0
 40
1.125
309
GRIDFORMAT_END
 95
        8
302
GRIDFORMAT
  1
GRIDFORMAT_BEGIN
 90
        0
 91
        1
 62
     0
 92
       -2
340
14
 93
        0
 40
1.125
309
GRIDFORMAT_END
 95
       16
302
GRIDFORMAT
  1
GRIDFORMAT_BEGIN
 90
        0
 91
        1
 62
     0
 92
       -2
340
14
 93
        0
 40
1.125
309
GRIDFORMAT_END
 95
       32
302
GRIDFORMAT
  1
GRIDFORMAT_BEGIN
 90
        0
 91
        1
 62
     0
 92
       -2
340
14
 93
        0
 40
1.125
309
GRIDFORMAT_END
309
TABLEFORMAT_END
  1
CELLSTYLE_BEGIN
 90
        2
 91
        1
300
_HEADER
309
CELLSTYLE_END
300
CELLSTYLE
  1
TABLEFORMAT_BEGIN
 90
        5
170
     1
 91
        0
 92
        0
 62
   257
 93
        1
300
CONTENTFORMAT
  1
CONTENTFORMAT_BEGIN
 90
        0
 91
        0
 92
      512
 93
        0
300

 40
0.0
140
1.0
 94
        2
 62
     0
340
11
144
4.5
309
CONTENTFORMAT_END
171
     1
301
MARGIN
  1
CELLMARGIN_BEGIN
 40
1.5
 40
1.5
 40
1.5
 40
1.5
 40
4.5
 40
4.5
309
CELLMARGIN_END
 94
        6
 95
        1
302
GRIDFORMAT
  1
GRIDFORMAT_BEGIN
 90
        0
 91
        1
 62
     0
 92
       -2
340
14
 93
        0
 40
1.125
309
GRIDFORMAT_END
 95
        2
302
GRIDFORMAT
  1
GRIDFORMAT_BEGIN
 90
        0
 91
        1
 62
     0
 92
       -2
340
14
 93
        0
 40
1.125
309
GRIDFORMAT_END
 95
        4
302
GRIDFORMAT
  1
GRIDFORMAT_BEGIN
 90
        0
 91
        1
 62
     0
 92
       -2
340
14
 93
        0
 40
1.125
309
GRIDFORMAT_END
 95
        8
302
GRIDFORMAT
  1
GRIDFORMAT_BEGIN
 90
        0
 91
        1
 62
     0
 92
       -2
340
14
 93
        0
 40
1.125
309
GRIDFORMAT_END
 95
       16
302
GRIDFORMAT
  1
GRIDFORMAT_BEGIN
 90
        0
 91
        1
 62
     0
 92
       -2
340
14
 93
        0
 40
1.125
309
GRIDFORMAT_END
 95
       32
302
GRIDFORMAT
  1
GRIDFORMAT_BEGIN
 90
        0
 91
        1
 62
     0
 92
       -2
340
14
 93
        0
 40
1.125
309
GRIDFORMAT_END
309
TABLEFORMAT_END
  1
CELLSTYLE_BEGIN
 90
        3
 91
        2
300
_DATA
309
CELLSTYLE_END
  0
XRECORD
  5
AE8
102
{ACAD_REACTORS
330
162
102
}
330
162
100
AcDbXrecord
280
     1
102
ACAD_ROUNDTRIP_PRE2007_TABLESTYLE
 90
      512
 91
        0
  1

 92
      512
 93
        0
  2

 94
      512
 95
        0
  3

  0
ENDSEC
  0
EOF
