  0
SECTION
  2
HEADER
  9
$ACADVER
  1
AC1015
  9
$ACADMAINTVER
 70
    20
  9
$DWGCODEPAGE
  3
ANSI_1254
  9
$INSBASE
 10
0.0
 20
0.0
 30
0.0
  9
$EXTMIN
 10
1632.122461054934
 20
1197.682111672072
 30
0.0
  9
$EXTMAX
 10
1886.425907347194
 20
1259.322914615633
 30
0.0
  9
$LIMMIN
 10
0.0
 20
0.0
  9
$LIMMAX
 10
420.0
 20
297.0
  9
$ORTHOMODE
 70
     0
  9
$REGENMODE
 70
     1
  9
$FILLMODE
 70
     1
  9
$QTEXTMODE
 70
     0
  9
$MIRRTEXT
 70
     0
  9
$LTSCALE
 40
1.0
  9
$ATTMODE
 70
     1
  9
$TEXTSIZE
 40
2.5
  9
$TRACEWID
 40
1.0
  9
$TEXTSTYLE
  7
Standard
  9
$CLAYER
  8
0
  9
$CELTYPE
  6
ByLayer
  9
$CECOLOR
 62
   256
  9
$CELTSCALE
 40
1.0
  9
$DISPSILH
 70
     0
  9
$DIMSCALE
 40
1.0
  9
$DIMASZ
 40
2.5
  9
$DIMEXO
 40
0.625
  9
$DIMDLI
 40
3.75
  9
$DIMRND
 40
0.0
  9
$DIMDLE
 40
0.0
  9
$DIMEXE
 40
1.25
  9
$DIMTP
 40
0.0
  9
$DIMTM
 40
0.0
  9
$DIMTXT
 40
2.5
  9
$DIMCEN
 40
2.5
  9
$DIMTSZ
 40
0.0
  9
$DIMTOL
 70
     0
  9
$DIMLIM
 70
     0
  9
$DIMTIH
 70
     0
  9
$DIMTOH
 70
     0
  9
$DIMSE1
 70
     0
  9
$DIMSE2
 70
     0
  9
$DIMTAD
 70
     1
  9
$DIMZIN
 70
     8
  9
$DIMBLK
  1

  9
$DIMASO
 70
     1
  9
$DIMSHO
 70
     1
  9
$DIMPOST
  1

  9
$DIMAPOST
  1

  9
$DIMALT
 70
     0
  9
$DIMALTD
 70
     3
  9
$DIMALTF
 40
0.03937007874016
  9
$DIMLFAC
 40
1.0
  9
$DIMTOFL
 70
     1
  9
$DIMTVP
 40
0.0
  9
$DIMTIX
 70
     0
  9
$DIMSOXD
 70
     0
  9
$DIMSAH
 70
     0
  9
$DIMBLK1
  1

  9
$DIMBLK2
  1

  9
$DIMSTYLE
  2
ISO-25
  9
$DIMCLRD
 70
     0
  9
$DIMCLRE
 70
     0
  9
$DIMCLRT
 70
     0
  9
$DIMTFAC
 40
1.0
  9
$DIMGAP
 40
0.625
  9
$DIMJUST
 70
     0
  9
$DIMSD1
 70
     0
  9
$DIMSD2
 70
     0
  9
$DIMTOLJ
 70
     0
  9
$DIMTZIN
 70
     8
  9
$DIMALTZ
 70
     0
  9
$DIMALTTZ
 70
     0
  9
$DIMUPT
 70
     0
  9
$DIMDEC
 70
     2
  9
$DIMTDEC
 70
     2
  9
$DIMALTU
 70
     2
  9
$DIMALTTD
 70
     3
  9
$DIMTXSTY
  7
Standard
  9
$DIMAUNIT
 70
     0
  9
$DIMADEC
 70
     0
  9
$DIMALTRND
 40
0.0
  9
$DIMAZIN
 70
     0
  9
$DIMDSEP
 70
    44
  9
$DIMATFIT
 70
     3
  9
$DIMFRAC
 70
     0
  9
$DIMLDRBLK
  1

  9
$DIMLUNIT
 70
     2
  9
$DIMLWD
 70
    -2
  9
$DIMLWE
 70
    -2
  9
$DIMTMOVE
 70
     0
  9
$LUNITS
 70
     2
  9
$LUPREC
 70
     4
  9
$SKETCHINC
 40
1.0
  9
$FILLETRAD
 40
0.0
  9
$AUNITS
 70
     0
  9
$AUPREC
 70
     0
  9
$MENU
  1
.
  9
$ELEVATION
 40
0.0
  9
$PELEVATION
 40
0.0
  9
$THICKNESS
 40
0.0
  9
$LIMCHECK
 70
     0
  9
$CHAMFERA
 40
0.0
  9
$CHAMFERB
 40
0.0
  9
$CHAMFERC
 40
0.0
  9
$CHAMFERD
 40
0.0
  9
$SKPOLY
 70
     0
  9
$TDCREATE
 40
2458492.440608310
  9
$TDUCREATE
 40
2458492.315608310
  9
$TDUPDATE
 40
2458983.560566968
  9
$TDUUPDATE
 40
2458983.435566968
  9
$TDINDWG
 40
0.0005573148
  9
$TDUSRTIMER
 40
0.0005573148
  9
$USRTIMER
 70
     1
  9
$ANGBASE
 50
0.0
  9
$ANGDIR
 70
     0
  9
$PDMODE
 70
     0
  9
$PDSIZE
 40
0.0
  9
$PLINEWID
 40
0.0
  9
$SPLFRAME
 70
     0
  9
$SPLINETYPE
 70
     6
  9
$SPLINESEGS
 70
     8
  9
$HANDSEED
  5
859
  9
$SURFTAB1
 70
     6
  9
$SURFTAB2
 70
     6
  9
$SURFTYPE
 70
     6
  9
$SURFU
 70
     6
  9
$SURFV
 70
     6
  9
$UCSBASE
  2

  9
$UCSNAME
  2

  9
$UCSORG
 10
0.0
 20
0.0
 30
0.0
  9
$UCSXDIR
 10
1.0
 20
0.0
 30
0.0
  9
$UCSYDIR
 10
0.0
 20
1.0
 30
0.0
  9
$UCSORTHOREF
  2

  9
$UCSORTHOVIEW
 70
     0
  9
$UCSORGTOP
 10
0.0
 20
0.0
 30
0.0
  9
$UCSORGBOTTOM
 10
0.0
 20
0.0
 30
0.0
  9
$UCSORGLEFT
 10
0.0
 20
0.0
 30
0.0
  9
$UCSORGRIGHT
 10
0.0
 20
0.0
 30
0.0
  9
$UCSORGFRONT
 10
0.0
 20
0.0
 30
0.0
  9
$UCSORGBACK
 10
0.0
 20
0.0
 30
0.0
  9
$PUCSBASE
  2

  9
$PUCSNAME
  2

  9
$PUCSORG
 10
0.0
 20
0.0
 30
0.0
  9
$PUCSXDIR
 10
1.0
 20
0.0
 30
0.0
  9
$PUCSYDIR
 10
0.0
 20
1.0
 30
0.0
  9
$PUCSORTHOREF
  2

  9
$PUCSORTHOVIEW
 70
     0
  9
$PUCSORGTOP
 10
0.0
 20
0.0
 30
0.0
  9
$PUCSORGBOTTOM
 10
0.0
 20
0.0
 30
0.0
  9
$PUCSORGLEFT
 10
0.0
 20
0.0
 30
0.0
  9
$PUCSORGRIGHT
 10
0.0
 20
0.0
 30
0.0
  9
$PUCSORGFRONT
 10
0.0
 20
0.0
 30
0.0
  9
$PUCSORGBACK
 10
0.0
 20
0.0
 30
0.0
  9
$USERI1
 70
     0
  9
$USERI2
 70
     0
  9
$USERI3
 70
     0
  9
$USERI4
 70
     0
  9
$USERI5
 70
     0
  9
$USERR1
 40
0.0
  9
$USERR2
 40
0.0
  9
$USERR3
 40
0.0
  9
$USERR4
 40
0.0
  9
$USERR5
 40
0.0
  9
$WORLDVIEW
 70
     1
  9
$SHADEDGE
 70
     3
  9
$SHADEDIF
 70
    70
  9
$TILEMODE
 70
     1
  9
$MAXACTVP
 70
    64
  9
$PINSBASE
 10
0.0
 20
0.0
 30
0.0
  9
$PLIMCHECK
 70
     0
  9
$PEXTMIN
 10
0.0
 20
0.0
 30
0.0
  9
$PEXTMAX
 10
0.0
 20
0.0
 30
0.0
  9
$PLIMMIN
 10
0.0
 20
0.0
  9
$PLIMMAX
 10
12.0
 20
9.0
  9
$UNITMODE
 70
     0
  9
$VISRETAIN
 70
     1
  9
$PLINEGEN
 70
     0
  9
$PSLTSCALE
 70
     1
  9
$TREEDEPTH
 70
  3020
  9
$CMLSTYLE
  2
Standard
  9
$CMLJUST
 70
     0
  9
$CMLSCALE
 40
20.0
  9
$PROXYGRAPHICS
 70
     1
  9
$MEASUREMENT
 70
     1
  9
$CELWEIGHT
370
    -1
  9
$ENDCAPS
280
     0
  9
$JOINSTYLE
280
     0
  9
$LWDISPLAY
290
     0
  9
$INSUNITS
 70
     4
  9
$HYPERLINKBASE
  1

  9
$STYLESHEET
  1

  9
$XEDIT
290
     1
  9
$CEPSNTYPE
380
     0
  9
$PSTYLEMODE
290
     1
  9
$FINGERPRINTGUID
  2
{1EE79950-E2EE-43F1-A2FC-4A050C432759}
  9
$VERSIONGUID
  2
{1AF93499-D7AB-4A92-B764-D38E21A11E66}
  9
$EXTNAMES
290
     1
  9
$PSVPSCALE
 40
0.0
  9
$OLESTARTUP
290
     0
  0
ENDSEC
  0
SECTION
  2
CLASSES
  0
CLASS
  1
ACDBDICTIONARYWDFLT
  2
AcDbDictionaryWithDefault
  3
ObjectDBX Classes
 90
        0
280
     0
281
     0
  0
CLASS
  1
ACDBPLACEHOLDER
  2
AcDbPlaceHolder
  3
ObjectDBX Classes
 90
        0
280
     0
281
     0
  0
CLASS
  1
LAYOUT
  2
AcDbLayout
  3
ObjectDBX Classes
 90
        0
280
     0
281
     0
  0
CLASS
  1
DICTIONARYVAR
  2
AcDbDictionaryVar
  3
ObjectDBX Classes
 90
        0
280
     0
281
     0
  0
CLASS
  1
TABLESTYLE
  2
AcDbTableStyle
  3
ObjectDBX Classes
 90
     4095
280
     0
281
     0
  0
CLASS
  1
MATERIAL
  2
AcDbMaterial
  3
ObjectDBX Classes
 90
     1153
280
     0
281
     0
  0
CLASS
  1
VISUALSTYLE
  2
AcDbVisualStyle
  3
ObjectDBX Classes
 90
     4095
280
     0
281
     0
  0
CLASS
  1
SCALE
  2
AcDbScale
  3
ObjectDBX Classes
 90
     1153
280
     0
281
     0
  0
CLASS
  1
MLEADERSTYLE
  2
AcDbMLeaderStyle
  3
ACDB_MLEADERSTYLE_CLASS
 90
     4095
280
     0
281
     0
  0
CLASS
  1
CELLSTYLEMAP
  2
AcDbCellStyleMap
  3
ObjectDBX Classes
 90
     1152
280
     0
281
     0
  0
ENDSEC
  0
SECTION
  2
TABLES
  0
TABLE
  2
VPORT
  5
8
330
0
100
AcDbSymbolTable
 70
     1
  0
VPORT
  5
EA
330
8
100
AcDbSymbolTableRecord
100
AcDbViewportTableRecord
  2
*Active
 70
     0
 10
0.0
 20
0.0
 11
1.0
 21
1.0
 12
1852.196933641641
 22
1243.255147102314
 13
0.0
 23
0.0
 14
10.0
 24
10.0
 15
10.0
 25
10.0
 16
0.0
 26
0.0
 36
1.0
 17
0.0
 27
0.0
 37
0.0
 40
301.5525578402343
 41
1.903110047846889
 42
50.0
 43
0.0
 44
0.0
 50
0.0
 51
0.0
 71
     0
 72
  1000
 73
     1
 74
     3
 75
     0
 76
     0
 77
     0
 78
     0
281
     0
 65
     1
110
0.0
120
0.0
130
0.0
111
1.0
121
0.0
131
0.0
112
0.0
122
1.0
132
0.0
 79
     0
146
0.0
  0
ENDTAB
  0
TABLE
  2
LTYPE
  5
5
330
0
100
AcDbSymbolTable
 70
     1
  0
LTYPE
  5
14
330
5
100
AcDbSymbolTableRecord
100
AcDbLinetypeTableRecord
  2
ByBlock
 70
     0
  3

 72
    65
 73
     0
 40
0.0
  0
LTYPE
  5
15
330
5
100
AcDbSymbolTableRecord
100
AcDbLinetypeTableRecord
  2
ByLayer
 70
     0
  3

 72
    65
 73
     0
 40
0.0
  0
LTYPE
  5
16
330
5
100
AcDbSymbolTableRecord
100
AcDbLinetypeTableRecord
  2
Continuous
 70
     0
  3
Solid line
 72
    65
 73
     0
 40
0.0
  0
ENDTAB
  0
TABLE
  2
LAYER
  5
2
330
0
100
AcDbSymbolTable
 70
     1
  0
LAYER
  5
10
102
{ACAD_XDICTIONARY
360
13C
102
}
330
2
100
AcDbSymbolTableRecord
100
AcDbLayerTableRecord
  2
0
 70
     0
 62
     7
  6
Continuous
370
    -3
390
F
  0
ENDTAB
  0
TABLE
  2
STYLE
  5
3
330
0
100
AcDbSymbolTable
 70
     2
  0
STYLE
  5
11
330
3
100
AcDbSymbolTableRecord
100
AcDbTextStyleTableRecord
  2
Standard
 70
     0
 40
0.0
 41
1.0
 50
0.0
 71
     0
 42
2.5
  3
txt
  4

  0
STYLE
  5
132
330
3
100
AcDbSymbolTableRecord
100
AcDbTextStyleTableRecord
  2
Annotative
 70
     0
 40
0.0
 41
1.0
 50
0.0
 71
     0
 42
2.5
  3
txt.shx
  4

1001
AcadAnnotative
1000
AnnotativeData
1002
{
1070
     1
1070
     1
1002
}
  0
ENDTAB
  0
TABLE
  2
VIEW
  5
6
330
0
100
AcDbSymbolTable
 70
     0
  0
ENDTAB
  0
TABLE
  2
UCS
  5
7
330
0
100
AcDbSymbolTable
 70
     0
  0
ENDTAB
  0
TABLE
  2
APPID
  5
9
330
0
100
AcDbSymbolTable
 70
     7
  0
APPID
  5
12
330
9
100
AcDbSymbolTableRecord
100
AcDbRegAppTableRecord
  2
ACAD
 70
     0
  0
APPID
  5
9E
330
9
100
AcDbSymbolTableRecord
100
AcDbRegAppTableRecord
  2
ACAD_PSEXT
 70
     0
  0
APPID
  5
133
330
9
100
AcDbSymbolTableRecord
100
AcDbRegAppTableRecord
  2
AcadAnnoPO
 70
     0
  0
APPID
  5
134
330
9
100
AcDbSymbolTableRecord
100
AcDbRegAppTableRecord
  2
AcadAnnotative
 70
     0
  0
APPID
  5
135
330
9
100
AcDbSymbolTableRecord
100
AcDbRegAppTableRecord
  2
ACAD_DSTYLE_DIMJAG
 70
     0
  0
APPID
  5
136
330
9
100
AcDbSymbolTableRecord
100
AcDbRegAppTableRecord
  2
ACAD_DSTYLE_DIMTALN
 70
     0
  0
APPID
  5
165
330
9
100
AcDbSymbolTableRecord
100
AcDbRegAppTableRecord
  2
ACAD_MLEADERVER
 70
     0
  0
ENDTAB
  0
TABLE
  2
DIMSTYLE
  5
A
330
0
100
AcDbSymbolTable
 70
     2
100
AcDbDimStyleTable
 71
     2
340
27
340
137
  0
DIMSTYLE
105
27
330
A
100
AcDbSymbolTableRecord
100
AcDbDimStyleTableRecord
  2
ISO-25
 70
     0
 41
2.5
 42
0.625
 43
3.75
 44
1.25
 73
     0
 74
     0
 77
     1
 78
     8
140
2.5
141
2.5
143
0.03937007874016
147
0.625
171
     3
172
     1
271
     2
272
     2
274
     3
278
    44
283
     0
284
     8
340
11
  0
DIMSTYLE
105
137
330
A
100
AcDbSymbolTableRecord
100
AcDbDimStyleTableRecord
  2
Annotative
 70
     0
 40
0.0
 41
2.5
 42
0.625
 43
3.75
 44
1.25
 73
     0
 74
     0
 77
     1
 78
     8
140
2.5
141
2.5
143
0.03937007874016
147
0.625
171
     3
172
     1
271
     2
272
     2
274
     3
278
    44
283
     0
284
     8
340
11
1001
AcadAnnotative
1000
AnnotativeData
1002
{
1070
     1
1070
     1
1002
}
1001
ACAD_DSTYLE_DIMJAG
1070
   388
1040
1.5
1001
ACAD_DSTYLE_DIMTALN
1070
   392
1070
     0
  0
ENDTAB
  0
TABLE
  2
BLOCK_RECORD
  5
1
330
0
100
AcDbSymbolTable
 70
     5
  0
BLOCK_RECORD
  5
1F
330
1
100
AcDbSymbolTableRecord
100
AcDbBlockTableRecord
  2
*Model_Space
340
22
  0
BLOCK_RECORD
  5
D2
330
1
100
AcDbSymbolTableRecord
100
AcDbBlockTableRecord
  2
*Paper_Space
340
D3
  0
BLOCK_RECORD
  5
D6
330
1
100
AcDbSymbolTableRecord
100
AcDbBlockTableRecord
  2
*Paper_Space0
340
D7
  0
BLOCK_RECORD
  5
605
330
1
100
AcDbSymbolTableRecord
100
AcDbBlockTableRecord
  2
1
340
0
310
2800000020000000200000000100080000000000000400000000000000000000000000000000000000000000000080000080000000808000800000008000800080800000C0C0C000C0DCC000F0CAA6000020400000206000002080000020A0000020C0000020E00000400000004020000040400000406000004080000040A0
310
000040C0000040E00000600000006020000060400000606000006080000060A0000060C0000060E00000800000008020000080400000806000008080000080A0000080C0000080E00000A0000000A0200000A0400000A0600000A0800000A0A00000A0C00000A0E00000C0000000C0200000C0400000C0600000C0800000C0
310
A00000C0C00000C0E00000E0000000E0200000E0400000E0600000E0800000E0A00000E0C00000E0E00040000000400020004000400040006000400080004000A0004000C0004000E00040200000402020004020400040206000402080004020A0004020C0004020E000404000004040200040404000404060004040800040
310
40A0004040C0004040E00040600000406020004060400040606000406080004060A0004060C0004060E00040800000408020004080400040806000408080004080A0004080C0004080E00040A0000040A0200040A0400040A0600040A0800040A0A00040A0C00040A0E00040C0000040C0200040C0400040C0600040C08000
310
40C0A00040C0C00040C0E00040E0000040E0200040E0400040E0600040E0800040E0A00040E0C00040E0E00080000000800020008000400080006000800080008000A0008000C0008000E00080200000802020008020400080206000802080008020A0008020C0008020E00080400000804020008040400080406000804080
310
008040A0008040C0008040E00080600000806020008060400080606000806080008060A0008060C0008060E00080800000808020008080400080806000808080008080A0008080C0008080E00080A0000080A0200080A0400080A0600080A0800080A0A00080A0C00080A0E00080C0000080C0200080C0400080C0600080C0
310
800080C0A00080C0C00080C0E00080E0000080E0200080E0400080E0600080E0800080E0A00080E0C00080E0E000C0000000C0002000C0004000C0006000C0008000C000A000C000C000C000E000C0200000C0202000C0204000C0206000C0208000C020A000C020C000C020E000C0400000C0402000C0404000C0406000C0
310
408000C040A000C040C000C040E000C0600000C0602000C0604000C0606000C0608000C060A000C060C000C060E000C0800000C0802000C0804000C0806000C0808000C080A000C080C000C080E000C0A00000C0A02000C0A04000C0A06000C0A08000C0A0A000C0A0C000C0A0E000C0C00000C0C02000C0C04000C0C06000
310
C0C08000C0C0A000F0FBFF00A4A0A000808080000000FF0000FF000000FFFF00FF000000FF00FF00FFFF0000FFFFFF0000000000000000000000000000000000000000000000000000000000000000000000000000000000000000000000000000000000000000000000000000000000000000000000000000000000000000
310
00000000000000000000000000000000000000000000000000000000000000000000000000000000000000000000000000000000000000000000000000000000000000000000000000000000000000000000000000000000000000000000000000000000000000000000000000000000000000000000000000000000000000
310
00000000000000000000000000000000000000000000000000000000000000000000000000000000000000000000000000000000000000000000000000000000000000000000000000000000000000000000000000000000000000000000000000000000000000000000000000000000000000000000000000000000000000
310
000000000000000000000000000000000000000000000000000000000000000000000000000000000000000000000000000000000000000000000000000000000000000000000000000000000000000000000000FFFFFFFFFFFFFFFFFFFFFFFFFFFFFFFFFFFFFFFFFFFFFFFFFFFFFFFFFFFF0000FF000000FF0000FF000000
310
FF0000FF0000FF0000FF0000FF0000000000FF0000FF000000FFFFFFFFFFFF00FFFF00FFFFFFFFFFFFFFFFFFFFFFFF000000FF0000FF000000FFFF00FFFF0000FF0000FFFF00FFFF00FFFF00FFFF00000000FF0000FFFFFFFFFFFFFFFFFFFFFFFFFFFFFFFFFFFFFFFFFFFFFFFFFFFFFFFFFFFF000000000000FFFFFFFFFFFF
310
FFFFFF00FFFF00FFFFFFFFFFFFFFFFFF000000000000000000000000000000000000000000000000000000000000000000000000000000000000000000000000000000000000000000000000000000000000000000000000000000000000000000000000000000000000000000000000000000000000000000000000000000
310
00000000000000000000000000000000000000000000000000000000000000000000000000000000000000000000000000000000000000000000000000000000000000000000000000000000000000000000000000000000000000000000000000000000000000000000000000000000000000000000000000000000000000
310
00000000000000000000000000000000000000000000000000000000000000000000000000000000000000000000000000000000000000000000000000000000000000000000000000000000000000000000000000000000000000000000000000000000000000000000000000000000000000000000000000000000000000
310
0000000000000000000000000000000000000000000000000000000000000000000000000000000000000000000000000000000000000000
102
{BLKREFS
331
644
102
}
1001
ACAD
1000
DesignCenter Data
1002
{
1070
     1
1070
     4
1002
}
  0
BLOCK_RECORD
  5
645
330
1
100
AcDbSymbolTableRecord
100
AcDbBlockTableRecord
  2
2
340
0
310
2800000020000000200000000100080000000000000400000000000000000000000000000000000000000000000080000080000000808000800000008000800080800000C0C0C000C0DCC000F0CAA6000020400000206000002080000020A0000020C0000020E00000400000004020000040400000406000004080000040A0
310
000040C0000040E00000600000006020000060400000606000006080000060A0000060C0000060E00000800000008020000080400000806000008080000080A0000080C0000080E00000A0000000A0200000A0400000A0600000A0800000A0A00000A0C00000A0E00000C0000000C0200000C0400000C0600000C0800000C0
310
A00000C0C00000C0E00000E0000000E0200000E0400000E0600000E0800000E0A00000E0C00000E0E00040000000400020004000400040006000400080004000A0004000C0004000E00040200000402020004020400040206000402080004020A0004020C0004020E000404000004040200040404000404060004040800040
310
40A0004040C0004040E00040600000406020004060400040606000406080004060A0004060C0004060E00040800000408020004080400040806000408080004080A0004080C0004080E00040A0000040A0200040A0400040A0600040A0800040A0A00040A0C00040A0E00040C0000040C0200040C0400040C0600040C08000
310
40C0A00040C0C00040C0E00040E0000040E0200040E0400040E0600040E0800040E0A00040E0C00040E0E00080000000800020008000400080006000800080008000A0008000C0008000E00080200000802020008020400080206000802080008020A0008020C0008020E00080400000804020008040400080406000804080
310
008040A0008040C0008040E00080600000806020008060400080606000806080008060A0008060C0008060E00080800000808020008080400080806000808080008080A0008080C0008080E00080A0000080A0200080A0400080A0600080A0800080A0A00080A0C00080A0E00080C0000080C0200080C0400080C0600080C0
310
800080C0A00080C0C00080C0E00080E0000080E0200080E0400080E0600080E0800080E0A00080E0C00080E0E000C0000000C0002000C0004000C0006000C0008000C000A000C000C000C000E000C0200000C0202000C0204000C0206000C0208000C020A000C020C000C020E000C0400000C0402000C0404000C0406000C0
310
408000C040A000C040C000C040E000C0600000C0602000C0604000C0606000C0608000C060A000C060C000C060E000C0800000C0802000C0804000C0806000C0808000C080A000C080C000C080E000C0A00000C0A02000C0A04000C0A06000C0A08000C0A0A000C0A0C000C0A0E000C0C00000C0C02000C0C04000C0C06000
310
C0C08000C0C0A000F0FBFF00A4A0A000808080000000FF0000FF000000FFFF00FF000000FF00FF00FFFF0000FFFFFF0000000000000000000000000000000000000000000000000000000000000000000000000000000000000000000000000000000000000000000000000000000000000000000000000000000000000000
310
00000000000000000000000000000000000000000000000000000000000000000000000000000000000000000000000000000000000000000000000000000000000000000000000000000000000000000000000000000000000000000000000000000000000000000000000000000000000000000000000000000000000000
310
00000000000000000000000000000000000000000000000000000000000000000000000000000000000000000000000000000000000000000000000000000000000000000000000000000000000000000000000000000000000000000000000000000000000000000000000000000000000000000000000000000000000000
310
0000000000000000000000000000000000000000000000000000000000000000000000000000000000000000000000000000000000000000000000000000000000000000000000000000000000000000000000000000000000000000000000000000000000000000000000000000000000000000FFFFFFFFFFFFFFFFFFFFFF
310
FFFFFFFFFFFFFFFFFFFFFFFFFFFFFFFFFFFFFF0000FFFFFFFFFFFFFFFFFFFFFFFFFF00FFFF00FFFFFFFFFFFFFFFFFF00FFFFFF0000FFFFFFFFFFFFFFFFFFFFFFFFFF00FFFF00FFFFFFFFFFFFFFFFFFFFFFFFFF0000FFFFFFFFFFFFFFFFFFFFFFFFFFFFFFFFFFFFFFFFFFFFFFFFFFFFFFFFFFFF000000000000000000000000
310
00000000000000000000000000000000000000000000000000000000000000000000000000000000000000000000000000000000000000000000000000000000000000000000000000000000000000000000000000000000000000000000000000000000000000000000000000000000000000000000000000000000000000
310
00000000000000000000000000000000000000000000000000000000000000000000000000000000000000000000000000000000000000000000000000000000000000000000000000000000000000000000000000000000000000000000000000000000000000000000000000000000000000000000000000000000000000
310
00000000000000000000000000000000000000000000000000000000000000000000000000000000000000000000000000000000000000000000000000000000000000000000000000000000000000000000000000000000000000000000000000000000000000000000000000000000000000000000000000000000000000
310
0000000000000000000000000000000000000000000000000000000000000000000000000000000000000000000000000000000000000000
102
{BLKREFS
331
74C
102
}
1001
ACAD
1000
DesignCenter Data
1002
{
1070
     1
1070
     4
1002
}
  0
BLOCK_RECORD
  5
74D
330
1
100
AcDbSymbolTableRecord
100
AcDbBlockTableRecord
  2
3
340
0
310
2800000020000000200000000100080000000000000400000000000000000000000000000000000000000000000080000080000000808000800000008000800080800000C0C0C000C0DCC000F0CAA6000020400000206000002080000020A0000020C0000020E00000400000004020000040400000406000004080000040A0
310
000040C0000040E00000600000006020000060400000606000006080000060A0000060C0000060E00000800000008020000080400000806000008080000080A0000080C0000080E00000A0000000A0200000A0400000A0600000A0800000A0A00000A0C00000A0E00000C0000000C0200000C0400000C0600000C0800000C0
310
A00000C0C00000C0E00000E0000000E0200000E0400000E0600000E0800000E0A00000E0C00000E0E00040000000400020004000400040006000400080004000A0004000C0004000E00040200000402020004020400040206000402080004020A0004020C0004020E000404000004040200040404000404060004040800040
310
40A0004040C0004040E00040600000406020004060400040606000406080004060A0004060C0004060E00040800000408020004080400040806000408080004080A0004080C0004080E00040A0000040A0200040A0400040A0600040A0800040A0A00040A0C00040A0E00040C0000040C0200040C0400040C0600040C08000
310
40C0A00040C0C00040C0E00040E0000040E0200040E0400040E0600040E0800040E0A00040E0C00040E0E00080000000800020008000400080006000800080008000A0008000C0008000E00080200000802020008020400080206000802080008020A0008020C0008020E00080400000804020008040400080406000804080
310
008040A0008040C0008040E00080600000806020008060400080606000806080008060A0008060C0008060E00080800000808020008080400080806000808080008080A0008080C0008080E00080A0000080A0200080A0400080A0600080A0800080A0A00080A0C00080A0E00080C0000080C0200080C0400080C0600080C0
310
800080C0A00080C0C00080C0E00080E0000080E0200080E0400080E0600080E0800080E0A00080E0C00080E0E000C0000000C0002000C0004000C0006000C0008000C000A000C000C000C000E000C0200000C0202000C0204000C0206000C0208000C020A000C020C000C020E000C0400000C0402000C0404000C0406000C0
310
408000C040A000C040C000C040E000C0600000C0602000C0604000C0606000C0608000C060A000C060C000C060E000C0800000C0802000C0804000C0806000C0808000C080A000C080C000C080E000C0A00000C0A02000C0A04000C0A06000C0A08000C0A0A000C0A0C000C0A0E000C0C00000C0C02000C0C04000C0C06000
310
C0C08000C0C0A000F0FBFF00A4A0A000808080000000FF0000FF000000FFFF00FF000000FF00FF00FFFF0000FFFFFF0000000000000000000000000000000000000000000000000000000000000000000000000000000000FFFFFFFFFFFFFFFFFFFFFFFFFFFFFFFF00000000000000000000000000000000FF000000000000
310
0000000000000000FF00000000000000000000000000000000FF0000000000000000000000000000FF00000000000000000000000000000000FF0000000000000000000000000000FF00000000000000000000000000000000FF0000000000000000000000000000FF00000000000000000000000000000000FF0000000000
310
000000000000000000FF00000000000000000000000000000000FF0000000000000000000000000000FF00000000000000000000000000000000FF0000000000000000000000000000FF00000000000000000000000000000000FF0000000000000000000000000000FF00000000000000000000000000000000FF00000000
310
00000000000000000000FF00000000000000000000000000000000FF0000000000000000000000000000FF00000000000000000000000000000000FF0000000000000000000000000000FF00000000000000000000000000000000FF0000000000000000000000000000FF00000000000000000000000000000000FF000000
310
0000000000000000000000FF00000000000000000000000000000000FF0000000000000000000000000000FF00000000000000000000000000000000FF0000000000000000000000000000FF00000000000000000000000000000000FF0000000000000000000000000000FF00000000000000000000000000000000FF0000
310
000000000000000000000000FF00000000000000000000000000000000FF0000000000000000000000000000FF00000000000000000000000000000000FF0000000000000000000000000000FF00000000000000000000000000000000FF0000000000000000000000000000FF00000000000000000000000000000000FF00
310
00000000000000000000000000FF00000000000000000000000000000000FF0000000000000000000000000000FF00000000000000000000000000000000FFFFFFFFFFFFFFFFFFFFFFFFFFFFFFFF000000000000000000000000000000000000FF00000000000000000000FF00000000000000000000000000000000000000
310
00FF00000000000000000000FF0000000000000000000000000000000000000000FF00000000FFFF00000000FF0000000000000000000000000000000000000000FF00000000FFFF00000000FF0000000000000000000000000000000000000000FF000000FF0000FF000000FF000000000000000000000000000000000000
310
0000FFFFFFFFFF0000FFFFFFFFFF000000000000000000000000000000000000000000000000000000000000000000000000000000000000
102
{BLKREFS
331
75B
102
}
1001
ACAD
1000
DesignCenter Data
1002
{
1070
     1
1070
     4
1002
}
  0
BLOCK_RECORD
  5
75C
330
1
100
AcDbSymbolTableRecord
100
AcDbBlockTableRecord
  2
4
340
0
310
2800000020000000200000000100080000000000000400000000000000000000000000000000000000000000000080000080000000808000800000008000800080800000C0C0C000C0DCC000F0CAA6000020400000206000002080000020A0000020C0000020E00000400000004020000040400000406000004080000040A0
310
000040C0000040E00000600000006020000060400000606000006080000060A0000060C0000060E00000800000008020000080400000806000008080000080A0000080C0000080E00000A0000000A0200000A0400000A0600000A0800000A0A00000A0C00000A0E00000C0000000C0200000C0400000C0600000C0800000C0
310
A00000C0C00000C0E00000E0000000E0200000E0400000E0600000E0800000E0A00000E0C00000E0E00040000000400020004000400040006000400080004000A0004000C0004000E00040200000402020004020400040206000402080004020A0004020C0004020E000404000004040200040404000404060004040800040
310
40A0004040C0004040E00040600000406020004060400040606000406080004060A0004060C0004060E00040800000408020004080400040806000408080004080A0004080C0004080E00040A0000040A0200040A0400040A0600040A0800040A0A00040A0C00040A0E00040C0000040C0200040C0400040C0600040C08000
310
40C0A00040C0C00040C0E00040E0000040E0200040E0400040E0600040E0800040E0A00040E0C00040E0E00080000000800020008000400080006000800080008000A0008000C0008000E00080200000802020008020400080206000802080008020A0008020C0008020E00080400000804020008040400080406000804080
310
008040A0008040C0008040E00080600000806020008060400080606000806080008060A0008060C0008060E00080800000808020008080400080806000808080008080A0008080C0008080E00080A0000080A0200080A0400080A0600080A0800080A0A00080A0C00080A0E00080C0000080C0200080C0400080C0600080C0
310
800080C0A00080C0C00080C0E00080E0000080E0200080E0400080E0600080E0800080E0A00080E0C00080E0E000C0000000C0002000C0004000C0006000C0008000C000A000C000C000C000E000C0200000C0202000C0204000C0206000C0208000C020A000C020C000C020E000C0400000C0402000C0404000C0406000C0
310
408000C040A000C040C000C040E000C0600000C0602000C0604000C0606000C0608000C060A000C060C000C060E000C0800000C0802000C0804000C0806000C0808000C080A000C080C000C080E000C0A00000C0A02000C0A04000C0A06000C0A08000C0A0A000C0A0C000C0A0E000C0C00000C0C02000C0C04000C0C06000
310
C0C08000C0C0A000F0FBFF00A4A0A000808080000000FF0000FF000000FFFF00FF000000FF00FF00FFFF0000FFFFFF0000000000000000000000000000000000000000000000000000000000000000000000000000000000000000000000000000000000000000000000000000000000000000000000000000000000000000
310
000000000000000000000000000000000000000000000000000000000000000000000000000000000000000000000000000000000000000000000000000000000000000000000000000000000000000000000000000000000000000000000000000000000000000000000000FF000000000000000000000000000000000000
310
0000000000000000000000FFFFFFFFFF00000000000000000000000000000000000000000000000000FFFF0000FF0000FF00000000000000000000000000000000000000000000FFFFFFFF0000FF0000FF000000000000000000000000000000000000000000FF00FFFFFF0000FF0000FF0000000000000000000000000000
310
0000000000FFFFFFFFFF00FFFFFFFFFFFFFF0000000000000000000000000000000000FFFF00FFFFFFFFFFFF00FFFFFF00FF00000000000000000000000000000000FFFFFFFFFFFFFFFFFFFFFFFFFFFFFF000000000000000000000000000000FFFFFFFFFFFFFFFFFFFFFFFFFFFFFF000000000000000000000000000000FF
310
FF00FFFFFFFFFFFFFFFFFFFFFFFFFF0000000000000000000000000000FFFFFFFFFFFFFFFFFFFFFFFFFFFFFF00000000000000000000000000000000FF0000FFFFFFFFFF00FFFFFFFFFFFF000000000000000000000000000000FFFFFFFFFFFFFFFF00FFFFFFFFFFFF000000000000000000000000000000FFFF00FFFF00FF
310
FFFFFFFFFFFFFFFFFF0000000000000000000000000000FFFF00FFFFFFFFFFFFFFFFFFFFFFFFFF000000000000000000000000000000FF000000FFFFFFFFFFFFFFFFFFFF000000000000000000000000000000000000FF000000FFFFFFFFFFFFFFFFFFFF000000000000000000000000000000000000FF0000FFFFFFFFFFFF
310
FFFF000000000000000000000000000000000000000000FFFFFFFFFFFFFFFFFFFF00000000000000000000000000000000000000000000FF00FFFFFFFFFFFF00000000000000000000000000000000000000000000000000FFFFFFFF000000000000000000000000000000000000000000000000000000000000FF00000000
310
00000000000000000000000000000000000000000000000000000000000000000000000000000000000000000000000000000000000000000000000000000000000000000000000000000000000000000000000000000000000000000000000000000000000000000000000000000000000000000000000000000000000000
310
0000000000000000000000000000000000000000000000000000000000000000000000000000000000000000000000000000000000000000
102
{BLKREFS
331
83E
102
}
1001
ACAD
1000
DesignCenter Data
1002
{
1070
     1
1070
     4
1002
}
  0
ENDTAB
  0
ENDSEC
  0
SECTION
  2
BLOCKS
  0
BLOCK
  5
20
330
1F
100
AcDbEntity
  8
0
100
AcDbBlockBegin
  2
*Model_Space
 70
     0
 10
0.0
 20
0.0
 30
0.0
  3
*Model_Space
  1

  0
ENDBLK
  5
21
330
1F
100
AcDbEntity
  8
0
100
AcDbBlockEnd
  0
BLOCK
  5
D4
330
D2
100
AcDbEntity
 67
     1
  8
0
100
AcDbBlockBegin
  2
*Paper_Space
 70
     0
 10
0.0
 20
0.0
 30
0.0
  3
*Paper_Space
  1

  0
ENDBLK
  5
D5
330
D2
100
AcDbEntity
 67
     1
  8
0
100
AcDbBlockEnd
  0
BLOCK
  5
D8
330
D6
100
AcDbEntity
 67
     1
  8
0
100
AcDbBlockBegin
  2
*Paper_Space0
 70
     0
 10
0.0
 20
0.0
 30
0.0
  3
*Paper_Space0
  1

  0
ENDBLK
  5
D9
330
D6
100
AcDbEntity
 67
     1
  8
0
100
AcDbBlockEnd
  0
BLOCK
  5
606
330
605
100
AcDbEntity
  8
0
100
AcDbBlockBegin
  2
1
 70
     0
 10
0.0
 20
0.0
 30
0.0
  3
1
  1

  0
LINE
  5
608
330
605
100
AcDbEntity
  8
0
  6
Continuous
 62
     7
370
    15
100
AcDbLine
 10
1683.348622462142
 20
1254.046370917136
 30
0.0
 11
1683.348622462142
 21
1252.346370917136
 31
0.0
  0
LINE
  5
609
330
605
100
AcDbEntity
  8
0
  6
Continuous
 62
     7
370
    15
100
AcDbLine
 10
1691.268622462142
 20
1252.346370917136
 30
0.0
 11
1691.268622462142
 21
1254.046370917136
 31
0.0
  0
LINE
  5
60A
330
605
100
AcDbEntity
  8
0
  6
Continuous
 62
     7
370
    15
100
AcDbLine
 10
1670.848622462142
 20
1254.046370917136
 30
0.0
 11
1670.848622462142
 21
1252.346370917136
 31
0.0
  0
LINE
  5
60B
330
605
100
AcDbEntity
  8
0
  6
Continuous
 62
     7
370
    15
100
AcDbLine
 10
1678.768622462142
 20
1252.346370917136
 30
0.0
 11
1678.768622462142
 21
1254.046370917136
 31
0.0
  0
LINE
  5
60C
330
605
100
AcDbEntity
  8
0
  6
Continuous
 62
     7
370
    15
100
AcDbLine
 10
1695.848622462142
 20
1254.046370917136
 30
0.0
 11
1695.848622462142
 21
1252.346370917136
 31
0.0
  0
LINE
  5
60D
330
605
100
AcDbEntity
  8
0
  6
Continuous
 62
     7
370
    15
100
AcDbLine
 10
1703.768622462142
 20
1252.346370917136
 30
0.0
 11
1703.768622462142
 21
1254.046370917136
 31
0.0
  0
LINE
  5
60E
330
605
100
AcDbEntity
  8
0
  6
Continuous
 62
     7
370
    15
100
AcDbLine
 10
1733.348622462142
 20
1254.046370917136
 30
0.0
 11
1733.348622462142
 21
1252.346370917136
 31
0.0
  0
LINE
  5
60F
330
605
100
AcDbEntity
  8
0
  6
Continuous
 62
     7
370
    15
100
AcDbLine
 10
1741.268622462142
 20
1252.346370917136
 30
0.0
 11
1741.268622462142
 21
1254.046370917136
 31
0.0
  0
LINE
  5
610
330
605
100
AcDbEntity
  8
0
  6
Continuous
 62
     7
370
    15
100
AcDbLine
 10
1720.848622462142
 20
1254.046370917136
 30
0.0
 11
1720.848622462142
 21
1252.346370917136
 31
0.0
  0
LINE
  5
611
330
605
100
AcDbEntity
  8
0
  6
Continuous
 62
     7
370
    15
100
AcDbLine
 10
1728.768622462142
 20
1252.346370917136
 30
0.0
 11
1728.768622462142
 21
1254.046370917136
 31
0.0
  0
LINE
  5
612
330
605
100
AcDbEntity
  8
0
  6
Continuous
 62
     7
370
    15
100
AcDbLine
 10
1708.348622462142
 20
1254.046370917136
 30
0.0
 11
1708.348622462142
 21
1252.346370917136
 31
0.0
  0
LINE
  5
613
330
605
100
AcDbEntity
  8
0
  6
Continuous
 62
     7
370
    15
100
AcDbLine
 10
1716.268622462142
 20
1252.346370917136
 30
0.0
 11
1716.268622462142
 21
1254.046370917136
 31
0.0
  0
LINE
  5
614
330
605
100
AcDbEntity
  8
0
  6
Continuous
 62
     7
370
    15
100
AcDbLine
 10
1745.848622462142
 20
1254.046370917136
 30
0.0
 11
1745.848622462142
 21
1252.346370917136
 31
0.0
  0
LINE
  5
615
330
605
100
AcDbEntity
  8
0
  6
Continuous
 62
     7
370
    15
100
AcDbLine
 10
1753.768622462142
 20
1252.346370917136
 30
0.0
 11
1753.768622462142
 21
1254.046370917136
 31
0.0
  0
CIRCLE
  5
616
330
605
100
AcDbEntity
  8
0
  6
Continuous
 62
     7
370
    15
100
AcDbCircle
 10
1724.808622462142
 20
1244.646370917136
 30
0.0
 40
5.250000000000028
  0
CIRCLE
  5
617
330
605
100
AcDbEntity
  8
0
  6
Continuous
 62
     7
370
    15
100
AcDbCircle
 10
1712.308622462142
 20
1244.646370917136
 30
0.0
 40
4.25
  0
CIRCLE
  5
618
330
605
100
AcDbEntity
  8
0
  6
Continuous
 62
     7
370
    15
100
AcDbCircle
 10
1699.808622462142
 20
1244.646370917136
 30
0.0
 40
4.25
  0
CIRCLE
  5
619
330
605
100
AcDbEntity
  8
0
  6
Continuous
 62
     7
370
    15
100
AcDbCircle
 10
1737.308622462142
 20
1244.646370917136
 30
0.0
 40
4.25
  0
CIRCLE
  5
61A
330
605
100
AcDbEntity
  8
0
  6
Continuous
 62
     7
370
    15
100
AcDbCircle
 10
1749.808622462142
 20
1244.646370917136
 30
0.0
 40
4.25
  0
CIRCLE
  5
61B
330
605
100
AcDbEntity
  8
0
  6
Continuous
 62
     7
370
    15
100
AcDbCircle
 10
1687.308622462142
 20
1244.646370917136
 30
0.0
 40
5.25
  0
CIRCLE
  5
61C
330
605
100
AcDbEntity
  8
0
  6
Continuous
 62
     7
370
    15
100
AcDbCircle
 10
1674.808622462142
 20
1244.646370917136
 30
0.0
 40
4.250000000000056
  0
LINE
  5
61D
330
605
100
AcDbEntity
  8
0
  6
Continuous
 62
     7
370
    15
100
AcDbLine
 10
1767.808622462142
 20
1237.346370917136
 30
0.0
 11
1656.808622462142
 21
1237.346370917136
 31
0.0
  0
LINE
  5
61E
330
605
100
AcDbEntity
  8
0
  6
Continuous
 62
     7
370
    15
100
AcDbLine
 10
1656.808622462142
 20
1237.346370917136
 30
0.0
 11
1656.808622462142
 21
1252.346370917136
 31
0.0
  0
LINE
  5
61F
330
605
100
AcDbEntity
  8
0
  6
Continuous
 62
     7
370
    15
100
AcDbLine
 10
1656.808622462142
 20
1252.346370917136
 30
0.0
 11
1767.808622462142
 21
1252.346370917136
 31
0.0
  0
LINE
  5
620
330
605
100
AcDbEntity
  8
0
  6
Continuous
 62
     7
370
    15
100
AcDbLine
 10
1767.808622462142
 20
1252.346370917136
 30
0.0
 11
1767.808622462142
 21
1237.346370917136
 31
0.0
  0
LINE
  5
621
330
605
100
AcDbEntity
  8
0
  6
Continuous
 62
     7
370
    15
100
AcDbLine
 10
1683.371178398807
 20
1254.046370917136
 30
0.0
 11
1683.348622462142
 21
1254.046370917136
 31
0.0
  0
ELLIPSE
  5
622
330
605
100
AcDbEntity
  8
0
  6
Continuous
 62
     7
370
    15
100
AcDbEllipse
 10
1687.308622462142
 20
1252.886771884764
 30
0.0
 11
0.0000000000014211
 21
10.88001058104029
 31
0.0
210
0.0
220
0.0
230
1.0
 40
0.3639702342662008
 41
1.276147279000003
 42
1.46401281565212
  0
LINE
  5
623
330
605
100
AcDbEntity
  8
0
  6
Continuous
 62
     7
370
    15
100
AcDbLine
 10
1691.097962774122
 20
1256.046370917136
 30
0.0
 11
1683.519282150162
 21
1256.046370917136
 31
0.0
  0
ELLIPSE
  5
624
330
605
100
AcDbEntity
  8
0
  6
Continuous
 62
     7
370
    15
100
AcDbEllipse
 10
1687.308622462142
 20
1252.886771884764
 30
0.0
 11
0.0000000000014211
 21
10.88001058104029
 31
0.0
210
0.0
220
0.0
230
1.0
 40
0.3639702342662008
 41
4.8191724915276
 42
5.0070380281797
  0
LINE
  5
625
330
605
100
AcDbEntity
  8
0
  6
Continuous
 62
     7
370
    15
100
AcDbLine
 10
1691.268622462142
 20
1254.046370917136
 30
0.0
 11
1691.246066525478
 21
1254.046370917136
 31
0.0
  0
LINE
  5
626
330
605
100
AcDbEntity
  8
0
  6
Continuous
 62
     7
370
    15
100
AcDbLine
 10
1670.871178398807
 20
1254.046370917136
 30
0.0
 11
1670.848622462142
 21
1254.046370917136
 31
0.0
  0
ELLIPSE
  5
627
330
605
100
AcDbEntity
  8
0
  6
Continuous
 62
     7
370
    15
100
AcDbEllipse
 10
1674.808622462142
 20
1252.886771884764
 30
0.0
 11
0.0000000000014779
 21
10.88001058104029
 31
0.0
210
0.0
220
0.0
230
1.0
 40
0.3639702342661955
 41
1.27614727900001
 42
1.464012815652122
  0
LINE
  5
628
330
605
100
AcDbEntity
  8
0
  6
Continuous
 62
     7
370
    15
100
AcDbLine
 10
1678.597962774122
 20
1256.046370917136
 30
0.0
 11
1671.019282150162
 21
1256.046370917136
 31
0.0
  0
ELLIPSE
  5
629
330
605
100
AcDbEntity
  8
0
  6
Continuous
 62
     7
370
    15
100
AcDbEllipse
 10
1674.808622462142
 20
1252.886771884764
 30
0.0
 11
0.0000000000014779
 21
10.88001058104029
 31
0.0
210
0.0
220
0.0
230
1.0
 40
0.3639702342661955
 41
4.819172491527599
 42
5.007038028179694
  0
LINE
  5
62A
330
605
100
AcDbEntity
  8
0
  6
Continuous
 62
     7
370
    15
100
AcDbLine
 10
1678.768622462142
 20
1254.046370917136
 30
0.0
 11
1678.746066525478
 21
1254.046370917136
 31
0.0
  0
LINE
  5
62B
330
605
100
AcDbEntity
  8
0
  6
Continuous
 62
     7
370
    15
100
AcDbLine
 10
1695.871178398807
 20
1254.046370917136
 30
0.0
 11
1695.848622462142
 21
1254.046370917136
 31
0.0
  0
ELLIPSE
  5
62C
330
605
100
AcDbEntity
  8
0
  6
Continuous
 62
     7
370
    15
100
AcDbEllipse
 10
1699.808622462142
 20
1252.886771884764
 30
0.0
 11
0.0000000000013642
 21
10.88001058104029
 31
0.0
210
0.0
220
0.0
230
1.0
 40
0.3639702342662008
 41
1.276147279
 42
1.464012815652118
  0
LINE
  5
62D
330
605
100
AcDbEntity
  8
0
  6
Continuous
 62
     7
370
    15
100
AcDbLine
 10
1703.597962774123
 20
1256.046370917136
 30
0.0
 11
1696.019282150162
 21
1256.046370917136
 31
0.0
  0
ELLIPSE
  5
62E
330
605
100
AcDbEntity
  8
0
  6
Continuous
 62
     7
370
    15
100
AcDbEllipse
 10
1699.808622462142
 20
1252.886771884764
 30
0.0
 11
0.0000000000013642
 21
10.88001058104029
 31
0.0
210
0.0
220
0.0
230
1.0
 40
0.3639702342662008
 41
4.819172491527599
 42
5.007038028179692
  0
LINE
  5
62F
330
605
100
AcDbEntity
  8
0
  6
Continuous
 62
     7
370
    15
100
AcDbLine
 10
1703.768622462142
 20
1254.046370917136
 30
0.0
 11
1703.746066525478
 21
1254.046370917136
 31
0.0
  0
LINE
  5
630
330
605
100
AcDbEntity
  8
0
  6
Continuous
 62
     7
370
    15
100
AcDbLine
 10
1733.371178398807
 20
1254.046370917136
 30
0.0
 11
1733.348622462142
 21
1254.046370917136
 31
0.0
  0
ELLIPSE
  5
631
330
605
100
AcDbEntity
  8
0
  6
Continuous
 62
     7
370
    15
100
AcDbEllipse
 10
1737.308622462142
 20
1252.886771884764
 30
0.0
 11
0.0000000000013927
 21
10.88001058104029
 31
0.0
210
0.0
220
0.0
230
1.0
 40
0.363970234266206
 41
1.276147278999998
 42
1.464012815652118
  0
ELLIPSE
  5
632
330
605
100
AcDbEntity
  8
0
  6
Continuous
 62
     7
370
    15
100
AcDbEllipse
 10
1737.308622462142
 20
1252.886771884764
 30
0.0
 11
0.0000000000013927
 21
10.88001058104029
 31
0.0
210
0.0
220
0.0
230
1.0
 40
0.363970234266206
 41
4.8191724915276
 42
5.0070380281797
  0
LINE
  5
633
330
605
100
AcDbEntity
  8
0
  6
Continuous
 62
     7
370
    15
100
AcDbLine
 10
1741.268622462142
 20
1254.046370917136
 30
0.0
 11
1741.246066525478
 21
1254.046370917136
 31
0.0
  0
LINE
  5
634
330
605
100
AcDbEntity
  8
0
  6
Continuous
 62
     7
370
    15
100
AcDbLine
 10
1741.097962774123
 20
1256.046370917136
 30
0.0
 11
1733.519282150162
 21
1256.046370917136
 31
0.0
  0
LINE
  5
635
330
605
100
AcDbEntity
  8
0
  6
Continuous
 62
     7
370
    15
100
AcDbLine
 10
1720.871178398807
 20
1254.046370917136
 30
0.0
 11
1720.848622462142
 21
1254.046370917136
 31
0.0
  0
ELLIPSE
  5
636
330
605
100
AcDbEntity
  8
0
  6
Continuous
 62
     7
370
    15
100
AcDbEllipse
 10
1724.808622462142
 20
1252.886771884764
 30
0.0
 11
0.0000000000013927
 21
10.88001058104029
 31
0.0
210
0.0
220
0.0
230
1.0
 40
0.3639702342662034
 41
1.276147279
 42
1.464012815652118
  0
ELLIPSE
  5
637
330
605
100
AcDbEntity
  8
0
  6
Continuous
 62
     7
370
    15
100
AcDbEllipse
 10
1724.808622462142
 20
1252.886771884764
 30
0.0
 11
0.0000000000013927
 21
10.88001058104029
 31
0.0
210
0.0
220
0.0
230
1.0
 40
0.3639702342662034
 41
4.819172491527599
 42
5.007038028179696
  0
LINE
  5
638
330
605
100
AcDbEntity
  8
0
  6
Continuous
 62
     7
370
    15
100
AcDbLine
 10
1728.768622462142
 20
1254.046370917136
 30
0.0
 11
1728.746066525478
 21
1254.046370917136
 31
0.0
  0
LINE
  5
639
330
605
100
AcDbEntity
  8
0
  6
Continuous
 62
     7
370
    15
100
AcDbLine
 10
1728.597962774123
 20
1256.046370917136
 30
0.0
 11
1721.019282150162
 21
1256.046370917136
 31
0.0
  0
LINE
  5
63A
330
605
100
AcDbEntity
  8
0
  6
Continuous
 62
     7
370
    15
100
AcDbLine
 10
1708.371178398807
 20
1254.046370917136
 30
0.0
 11
1708.348622462142
 21
1254.046370917136
 31
0.0
  0
ELLIPSE
  5
63B
330
605
100
AcDbEntity
  8
0
  6
Continuous
 62
     7
370
    15
100
AcDbEllipse
 10
1712.308622462142
 20
1252.886771884764
 30
0.0
 11
0.0000000000013927
 21
10.88001058104029
 31
0.0
210
0.0
220
0.0
230
1.0
 40
0.3639702342662034
 41
1.276147279
 42
1.464012815652119
  0
ELLIPSE
  5
63C
330
605
100
AcDbEntity
  8
0
  6
Continuous
 62
     7
370
    15
100
AcDbEllipse
 10
1712.308622462142
 20
1252.886771884764
 30
0.0
 11
0.0000000000013927
 21
10.88001058104029
 31
0.0
210
0.0
220
0.0
230
1.0
 40
0.3639702342662034
 41
4.8191724915276
 42
5.007038028179696
  0
LINE
  5
63D
330
605
100
AcDbEntity
  8
0
  6
Continuous
 62
     7
370
    15
100
AcDbLine
 10
1716.268622462142
 20
1254.046370917136
 30
0.0
 11
1716.246066525478
 21
1254.046370917136
 31
0.0
  0
LINE
  5
63E
330
605
100
AcDbEntity
  8
0
  6
Continuous
 62
     7
370
    15
100
AcDbLine
 10
1716.097962774123
 20
1256.046370917136
 30
0.0
 11
1708.519282150162
 21
1256.046370917136
 31
0.0
  0
LINE
  5
63F
330
605
100
AcDbEntity
  8
0
  6
Continuous
 62
     7
370
    15
100
AcDbLine
 10
1745.871178398807
 20
1254.046370917136
 30
0.0
 11
1745.848622462142
 21
1254.046370917136
 31
0.0
  0
ELLIPSE
  5
640
330
605
100
AcDbEntity
  8
0
  6
Continuous
 62
     7
370
    15
100
AcDbEllipse
 10
1749.808622462142
 20
1252.886771884764
 30
0.0
 11
0.0000000000013927
 21
10.88001058104029
 31
0.0
210
0.0
220
0.0
230
1.0
 40
0.3639702342662008
 41
1.276147279000002
 42
1.464012815652119
  0
LINE
  5
641
330
605
100
AcDbEntity
  8
0
  6
Continuous
 62
     7
370
    15
100
AcDbLine
 10
1753.597962774123
 20
1256.046370917136
 30
0.0
 11
1746.019282150162
 21
1256.046370917136
 31
0.0
  0
ELLIPSE
  5
642
330
605
100
AcDbEntity
  8
0
  6
Continuous
 62
     7
370
    15
100
AcDbEllipse
 10
1749.808622462142
 20
1252.886771884764
 30
0.0
 11
0.0000000000013927
 21
10.88001058104029
 31
0.0
210
0.0
220
0.0
230
1.0
 40
0.3639702342662008
 41
4.819172491527599
 42
5.007038028179694
  0
LINE
  5
643
330
605
100
AcDbEntity
  8
0
  6
Continuous
 62
     7
370
    15
100
AcDbLine
 10
1753.768622462142
 20
1254.046370917136
 30
0.0
 11
1753.746066525478
 21
1254.046370917136
 31
0.0
  0
ENDBLK
  5
607
330
605
100
AcDbEntity
  8
0
100
AcDbBlockEnd
  0
BLOCK
  5
646
330
645
100
AcDbEntity
  8
0
100
AcDbBlockBegin
  2
2
 70
     0
 10
0.0
 20
0.0
 30
0.0
  3
2
  1

  0
LINE
  5
648
330
645
100
AcDbEntity
  8
0
  6
Continuous
 62
     7
370
    15
100
AcDbLine
 10
1699.258622462143
 20
1206.261186164814
 30
0.0
 11
1699.258622462142
 21
1207.611186164814
 31
0.0
  0
LINE
  5
649
330
645
100
AcDbEntity
  8
0
  6
Continuous
 62
     7
370
    15
100
AcDbLine
 10
1699.363438020708
 20
1208.339126633346
 30
0.0
 11
1699.258622462142
 21
1207.611186164814
 31
0.0
  0
LINE
  5
64A
330
645
100
AcDbEntity
  8
0
  6
Continuous
 62
     7
370
    15
100
AcDbLine
 10
1699.363438020709
 20
1206.36600172338
 30
0.0
 11
1699.363438020709
 21
1208.339126633347
 31
0.0
  0
LINE
  5
64B
330
645
100
AcDbEntity
  8
0
  6
Continuous
 62
     7
370
    15
100
AcDbLine
 10
1699.363438020709
 20
1206.36600172338
 30
0.0
 11
1699.258622462143
 21
1206.261186164814
 31
0.0
  0
LINE
  5
64C
330
645
100
AcDbEntity
  8
0
  6
Continuous
 62
     7
370
    15
100
AcDbLine
 10
1683.519282150162
 20
1207.611186164813
 30
0.0
 11
1686.758622462142
 21
1207.611186164813
 31
0.0
  0
ARC
  5
64D
330
645
100
AcDbEntity
  8
0
  6
Continuous
 62
     7
370
    15
100
AcDbCircle
 10
1687.308622462142
 20
1208.761186164814
 30
0.0
 40
3.960000000000001
100
AcDbArc
 50
186.1182445100861
 51
196.8821468762186
  0
LINE
  5
64E
330
645
100
AcDbEntity
  8
0
  6
Continuous
 62
     7
370
    15
100
AcDbLine
 10
1683.371178398807
 20
1208.339126633345
 30
0.0
 11
1686.863438020709
 21
1208.339126633346
 31
0.0
  0
LINE
  5
64F
330
645
100
AcDbEntity
  8
0
  6
Continuous
 62
     7
370
    15
100
AcDbLine
 10
1686.863438020709
 20
1208.339126633346
 30
0.0
 11
1686.758622462142
 21
1207.611186164814
 31
0.0
  0
LINE
  5
650
330
645
100
AcDbEntity
  8
0
  6
Continuous
 62
     7
370
    15
100
AcDbLine
 10
1736.758622462143
 20
1206.261186164814
 30
0.0
 11
1736.758622462143
 21
1207.611186164814
 31
0.0
  0
LINE
  5
651
330
645
100
AcDbEntity
  8
0
  6
Continuous
 62
     7
370
    15
100
AcDbLine
 10
1736.863438020709
 20
1208.339126633346
 30
0.0
 11
1736.758622462143
 21
1207.611186164814
 31
0.0
  0
LINE
  5
652
330
645
100
AcDbEntity
  8
0
  6
Continuous
 62
     7
370
    15
100
AcDbLine
 10
1736.863438020709
 20
1206.36600172338
 30
0.0
 11
1736.863438020709
 21
1208.339126633347
 31
0.0
  0
LINE
  5
653
330
645
100
AcDbEntity
  8
0
  6
Continuous
 62
     7
370
    15
100
AcDbLine
 10
1736.863438020709
 20
1206.36600172338
 30
0.0
 11
1736.758622462143
 21
1206.261186164814
 31
0.0
  0
LINE
  5
654
330
645
100
AcDbEntity
  8
0
  6
Continuous
 62
     7
370
    15
100
AcDbLine
 10
1696.019282150162
 20
1207.611186164813
 30
0.0
 11
1699.258622462142
 21
1207.611186164813
 31
0.0
  0
ARC
  5
655
330
645
100
AcDbEntity
  8
0
  6
Continuous
 62
     7
370
    15
100
AcDbCircle
 10
1699.808622462142
 20
1208.761186164814
 30
0.0
 40
3.960000000000001
100
AcDbArc
 50
186.1182445100861
 51
196.8821468762186
  0
LINE
  5
656
330
645
100
AcDbEntity
  8
0
  6
Continuous
 62
     7
370
    15
100
AcDbLine
 10
1695.871178398807
 20
1208.339126633345
 30
0.0
 11
1699.363438020708
 21
1208.339126633346
 31
0.0
  0
LINE
  5
657
330
645
100
AcDbEntity
  8
0
  6
Continuous
 62
     7
370
    15
100
AcDbLine
 10
1711.758622462143
 20
1206.261186164814
 30
0.0
 11
1711.758622462143
 21
1207.611186164814
 31
0.0
  0
LINE
  5
658
330
645
100
AcDbEntity
  8
0
  6
Continuous
 62
     7
370
    15
100
AcDbLine
 10
1711.863438020708
 20
1208.339126633346
 30
0.0
 11
1711.758622462143
 21
1207.611186164814
 31
0.0
  0
LINE
  5
659
330
645
100
AcDbEntity
  8
0
  6
Continuous
 62
     7
370
    15
100
AcDbLine
 10
1711.863438020709
 20
1206.36600172338
 30
0.0
 11
1711.863438020709
 21
1208.339126633347
 31
0.0
  0
LINE
  5
65A
330
645
100
AcDbEntity
  8
0
  6
Continuous
 62
     7
370
    15
100
AcDbLine
 10
1711.863438020709
 20
1206.36600172338
 30
0.0
 11
1711.758622462143
 21
1206.261186164814
 31
0.0
  0
LINE
  5
65B
330
645
100
AcDbEntity
  8
0
  6
Continuous
 62
     7
370
    15
100
AcDbLine
 10
1708.519282150162
 20
1207.611186164813
 30
0.0
 11
1711.758622462143
 21
1207.611186164813
 31
0.0
  0
ARC
  5
65C
330
645
100
AcDbEntity
  8
0
  6
Continuous
 62
     7
370
    15
100
AcDbCircle
 10
1712.308622462142
 20
1208.761186164814
 30
0.0
 40
3.960000000000017
100
AcDbArc
 50
186.1182445100861
 51
196.8821468762186
  0
LINE
  5
65D
330
645
100
AcDbEntity
  8
0
  6
Continuous
 62
     7
370
    15
100
AcDbLine
 10
1708.371178398807
 20
1208.339126633345
 30
0.0
 11
1711.863438020708
 21
1208.339126633346
 31
0.0
  0
LINE
  5
65E
330
645
100
AcDbEntity
  8
0
  6
Continuous
 62
     7
370
    15
100
AcDbLine
 10
1671.019282150162
 20
1207.611186164813
 30
0.0
 11
1674.258622462143
 21
1207.611186164813
 31
0.0
  0
ARC
  5
65F
330
645
100
AcDbEntity
  8
0
  6
Continuous
 62
     7
370
    15
100
AcDbCircle
 10
1674.808622462142
 20
1208.761186164814
 30
0.0
 40
3.960000000000001
100
AcDbArc
 50
186.1182445100861
 51
196.8821468762186
  0
LINE
  5
660
330
645
100
AcDbEntity
  8
0
  6
Continuous
 62
     7
370
    15
100
AcDbLine
 10
1670.871178398807
 20
1208.339126633345
 30
0.0
 11
1674.363438020709
 21
1208.339126633346
 31
0.0
  0
LINE
  5
661
330
645
100
AcDbEntity
  8
0
  6
Continuous
 62
     7
370
    15
100
AcDbLine
 10
1674.363438020709
 20
1208.339126633346
 30
0.0
 11
1674.258622462143
 21
1207.611186164814
 31
0.0
  0
LINE
  5
662
330
645
100
AcDbEntity
  8
0
  6
Continuous
 62
     7
370
    15
100
AcDbLine
 10
1724.258622462143
 20
1206.261186164814
 30
0.0
 11
1724.258622462143
 21
1207.611186164814
 31
0.0
  0
LINE
  5
663
330
645
100
AcDbEntity
  8
0
  6
Continuous
 62
     7
370
    15
100
AcDbLine
 10
1724.363438020709
 20
1208.339126633346
 30
0.0
 11
1724.258622462143
 21
1207.611186164814
 31
0.0
  0
LINE
  5
664
330
645
100
AcDbEntity
  8
0
  6
Continuous
 62
     7
370
    15
100
AcDbLine
 10
1724.363438020709
 20
1206.36600172338
 30
0.0
 11
1724.363438020709
 21
1208.339126633347
 31
0.0
  0
LINE
  5
665
330
645
100
AcDbEntity
  8
0
  6
Continuous
 62
     7
370
    15
100
AcDbLine
 10
1724.363438020709
 20
1206.36600172338
 30
0.0
 11
1724.258622462143
 21
1206.261186164814
 31
0.0
  0
LINE
  5
666
330
645
100
AcDbEntity
  8
0
  6
Continuous
 62
     7
370
    15
100
AcDbLine
 10
1733.519282150162
 20
1207.611186164813
 30
0.0
 11
1736.758622462143
 21
1207.611186164813
 31
0.0
  0
ARC
  5
667
330
645
100
AcDbEntity
  8
0
  6
Continuous
 62
     7
370
    15
100
AcDbCircle
 10
1737.308622462142
 20
1208.761186164814
 30
0.0
 40
3.960000000000017
100
AcDbArc
 50
186.1182445100861
 51
196.8821468762186
  0
LINE
  5
668
330
645
100
AcDbEntity
  8
0
  6
Continuous
 62
     7
370
    15
100
AcDbLine
 10
1733.371178398807
 20
1208.339126633345
 30
0.0
 11
1736.863438020709
 21
1208.339126633346
 31
0.0
  0
LINE
  5
669
330
645
100
AcDbEntity
  8
0
  6
Continuous
 62
     7
370
    15
100
AcDbLine
 10
1686.758622462143
 20
1206.261186164814
 30
0.0
 11
1686.758622462142
 21
1207.611186164814
 31
0.0
  0
LINE
  5
66A
330
645
100
AcDbEntity
  8
0
  6
Continuous
 62
     7
370
    15
100
AcDbLine
 10
1686.863438020709
 20
1206.36600172338
 30
0.0
 11
1686.863438020709
 21
1208.339126633347
 31
0.0
  0
LINE
  5
66B
330
645
100
AcDbEntity
  8
0
  6
Continuous
 62
     7
370
    15
100
AcDbLine
 10
1686.863438020709
 20
1206.36600172338
 30
0.0
 11
1686.758622462143
 21
1206.261186164814
 31
0.0
  0
LINE
  5
66C
330
645
100
AcDbEntity
  8
0
  6
Continuous
 62
     7
370
    15
100
AcDbLine
 10
1674.258622462143
 20
1206.261186164814
 30
0.0
 11
1674.258622462143
 21
1207.611186164814
 31
0.0
  0
LINE
  5
66D
330
645
100
AcDbEntity
  8
0
  6
Continuous
 62
     7
370
    15
100
AcDbLine
 10
1674.363438020709
 20
1206.36600172338
 30
0.0
 11
1674.363438020709
 21
1208.339126633347
 31
0.0
  0
LINE
  5
66E
330
645
100
AcDbEntity
  8
0
  6
Continuous
 62
     7
370
    15
100
AcDbLine
 10
1674.363438020709
 20
1206.36600172338
 30
0.0
 11
1674.258622462143
 21
1206.261186164814
 31
0.0
  0
LINE
  5
66F
330
645
100
AcDbEntity
  8
0
  6
Continuous
 62
     7
370
    15
100
AcDbLine
 10
1749.258622462143
 20
1206.261186164814
 30
0.0
 11
1749.258622462142
 21
1207.611186164814
 31
0.0
  0
LINE
  5
670
330
645
100
AcDbEntity
  8
0
  6
Continuous
 62
     7
370
    15
100
AcDbLine
 10
1749.363438020709
 20
1208.339126633346
 30
0.0
 11
1749.258622462142
 21
1207.611186164814
 31
0.0
  0
LINE
  5
671
330
645
100
AcDbEntity
  8
0
  6
Continuous
 62
     7
370
    15
100
AcDbLine
 10
1749.363438020709
 20
1206.36600172338
 30
0.0
 11
1749.363438020709
 21
1208.339126633347
 31
0.0
  0
LINE
  5
672
330
645
100
AcDbEntity
  8
0
  6
Continuous
 62
     7
370
    15
100
AcDbLine
 10
1749.363438020709
 20
1206.36600172338
 30
0.0
 11
1749.258622462143
 21
1206.261186164814
 31
0.0
  0
LINE
  5
673
330
645
100
AcDbEntity
  8
0
  6
Continuous
 62
     7
370
    15
100
AcDbLine
 10
1721.019282150162
 20
1207.611186164813
 30
0.0
 11
1724.258622462143
 21
1207.611186164813
 31
0.0
  0
ARC
  5
674
330
645
100
AcDbEntity
  8
0
  6
Continuous
 62
     7
370
    15
100
AcDbCircle
 10
1724.808622462142
 20
1208.761186164814
 30
0.0
 40
3.960000000000001
100
AcDbArc
 50
186.1182445100861
 51
196.8821468762186
  0
LINE
  5
675
330
645
100
AcDbEntity
  8
0
  6
Continuous
 62
     7
370
    15
100
AcDbLine
 10
1720.871178398807
 20
1208.339126633345
 30
0.0
 11
1724.363438020709
 21
1208.339126633346
 31
0.0
  0
LINE
  5
676
330
645
100
AcDbEntity
  8
0
  6
Continuous
 62
     7
370
    15
100
AcDbLine
 10
1746.019282150162
 20
1207.611186164813
 30
0.0
 11
1749.258622462142
 21
1207.611186164813
 31
0.0
  0
ARC
  5
677
330
645
100
AcDbEntity
  8
0
  6
Continuous
 62
     7
370
    15
100
AcDbCircle
 10
1749.808622462142
 20
1208.761186164814
 30
0.0
 40
3.960000000000001
100
AcDbArc
 50
186.1182445100861
 51
196.8821468762186
  0
LINE
  5
678
330
645
100
AcDbEntity
  8
0
  6
Continuous
 62
     7
370
    15
100
AcDbLine
 10
1745.871178398807
 20
1208.339126633345
 30
0.0
 11
1749.363438020709
 21
1208.339126633346
 31
0.0
  0
LINE
  5
679
330
645
100
AcDbEntity
  8
0
  6
Continuous
 62
     7
370
    15
100
AcDbLine
 10
1737.858622462143
 20
1206.261186164814
 30
0.0
 11
1736.758622462143
 21
1206.261186164814
 31
0.0
  0
LINE
  5
67A
330
645
100
AcDbEntity
  8
0
  6
Continuous
 62
     7
370
    15
100
AcDbLine
 10
1737.858622462142
 20
1207.611186164814
 30
0.0
 11
1737.858622462143
 21
1206.261186164814
 31
0.0
  0
LINE
  5
67B
330
645
100
AcDbEntity
  8
0
  6
Continuous
 62
     7
370
    15
100
AcDbLine
 10
1737.858622462143
 20
1207.611186164814
 30
0.0
 11
1741.097962774123
 21
1207.611186164815
 31
0.0
  0
ARC
  5
67C
330
645
100
AcDbEntity
  8
0
  6
Continuous
 62
     7
370
    15
100
AcDbCircle
 10
1737.308622462142
 20
1208.761186164814
 30
0.0
 40
3.960000000000001
100
AcDbArc
 50
196.8821468762186
 51
343.1178531238101
  0
LINE
  5
67D
330
645
100
AcDbEntity
  8
0
  6
Continuous
 62
     7
370
    15
100
AcDbLine
 10
1675.358622462143
 20
1206.261186164814
 30
0.0
 11
1674.258622462143
 21
1206.261186164814
 31
0.0
  0
LINE
  5
67E
330
645
100
AcDbEntity
  8
0
  6
Continuous
 62
     7
370
    15
100
AcDbLine
 10
1675.358622462142
 20
1207.611186164814
 30
0.0
 11
1675.358622462143
 21
1206.261186164814
 31
0.0
  0
LINE
  5
67F
330
645
100
AcDbEntity
  8
0
  6
Continuous
 62
     7
370
    15
100
AcDbLine
 10
1675.358622462143
 20
1207.611186164814
 30
0.0
 11
1678.597962774122
 21
1207.611186164815
 31
0.0
  0
ARC
  5
680
330
645
100
AcDbEntity
  8
0
  6
Continuous
 62
     7
370
    15
100
AcDbCircle
 10
1674.808622462142
 20
1208.761186164814
 30
0.0
 40
3.960000000000017
100
AcDbArc
 50
196.8821468762186
 51
343.1178531238101
  0
LINE
  5
681
330
645
100
AcDbEntity
  8
0
  6
Continuous
 62
     7
370
    15
100
AcDbLine
 10
1750.358622462143
 20
1206.261186164814
 30
0.0
 11
1749.258622462143
 21
1206.261186164814
 31
0.0
  0
LINE
  5
682
330
645
100
AcDbEntity
  8
0
  6
Continuous
 62
     7
370
    15
100
AcDbLine
 10
1750.358622462142
 20
1207.611186164814
 30
0.0
 11
1750.358622462143
 21
1206.261186164814
 31
0.0
  0
LINE
  5
683
330
645
100
AcDbEntity
  8
0
  6
Continuous
 62
     7
370
    15
100
AcDbLine
 10
1750.358622462143
 20
1207.611186164814
 30
0.0
 11
1753.597962774123
 21
1207.611186164815
 31
0.0
  0
ARC
  5
684
330
645
100
AcDbEntity
  8
0
  6
Continuous
 62
     7
370
    15
100
AcDbCircle
 10
1749.808622462142
 20
1208.761186164814
 30
0.0
 40
3.960000000000017
100
AcDbArc
 50
196.8821468762186
 51
343.1178531238101
  0
LINE
  5
685
330
645
100
AcDbEntity
  8
0
  6
Continuous
 62
     7
370
    15
100
AcDbLine
 10
1700.358622462143
 20
1206.261186164814
 30
0.0
 11
1699.258622462143
 21
1206.261186164814
 31
0.0
  0
LINE
  5
686
330
645
100
AcDbEntity
  8
0
  6
Continuous
 62
     7
370
    15
100
AcDbLine
 10
1700.358622462142
 20
1207.611186164814
 30
0.0
 11
1700.358622462143
 21
1206.261186164814
 31
0.0
  0
LINE
  5
687
330
645
100
AcDbEntity
  8
0
  6
Continuous
 62
     7
370
    15
100
AcDbLine
 10
1700.358622462143
 20
1207.611186164814
 30
0.0
 11
1703.597962774123
 21
1207.611186164815
 31
0.0
  0
ARC
  5
688
330
645
100
AcDbEntity
  8
0
  6
Continuous
 62
     7
370
    15
100
AcDbCircle
 10
1699.808622462142
 20
1208.761186164814
 30
0.0
 40
3.960000000000017
100
AcDbArc
 50
196.8821468762186
 51
343.1178531238101
  0
LINE
  5
689
330
645
100
AcDbEntity
  8
0
  6
Continuous
 62
     7
370
    15
100
AcDbLine
 10
1687.858622462143
 20
1206.261186164814
 30
0.0
 11
1686.758622462143
 21
1206.261186164814
 31
0.0
  0
LINE
  5
68A
330
645
100
AcDbEntity
  8
0
  6
Continuous
 62
     7
370
    15
100
AcDbLine
 10
1687.858622462142
 20
1207.611186164814
 30
0.0
 11
1687.858622462143
 21
1206.261186164814
 31
0.0
  0
LINE
  5
68B
330
645
100
AcDbEntity
  8
0
  6
Continuous
 62
     7
370
    15
100
AcDbLine
 10
1687.858622462143
 20
1207.611186164814
 30
0.0
 11
1691.097962774122
 21
1207.611186164815
 31
0.0
  0
ARC
  5
68C
330
645
100
AcDbEntity
  8
0
  6
Continuous
 62
     7
370
    15
100
AcDbCircle
 10
1687.308622462142
 20
1208.761186164814
 30
0.0
 40
3.960000000000001
100
AcDbArc
 50
196.8821468762186
 51
343.1178531238101
  0
LINE
  5
68D
330
645
100
AcDbEntity
  8
0
  6
Continuous
 62
     7
370
    15
100
AcDbLine
 10
1725.358622462143
 20
1206.261186164814
 30
0.0
 11
1724.258622462143
 21
1206.261186164814
 31
0.0
  0
LINE
  5
68E
330
645
100
AcDbEntity
  8
0
  6
Continuous
 62
     7
370
    15
100
AcDbLine
 10
1725.358622462142
 20
1207.611186164814
 30
0.0
 11
1725.358622462143
 21
1206.261186164814
 31
0.0
  0
LINE
  5
68F
330
645
100
AcDbEntity
  8
0
  6
Continuous
 62
     7
370
    15
100
AcDbLine
 10
1725.358622462143
 20
1207.611186164814
 30
0.0
 11
1728.597962774123
 21
1207.611186164815
 31
0.0
  0
ARC
  5
690
330
645
100
AcDbEntity
  8
0
  6
Continuous
 62
     7
370
    15
100
AcDbCircle
 10
1724.808622462142
 20
1208.761186164814
 30
0.0
 40
3.960000000000017
100
AcDbArc
 50
196.8821468762186
 51
343.1178531238101
  0
LINE
  5
691
330
645
100
AcDbEntity
  8
0
  6
Continuous
 62
     7
370
    15
100
AcDbLine
 10
1712.858622462143
 20
1206.261186164814
 30
0.0
 11
1711.758622462143
 21
1206.261186164814
 31
0.0
  0
LINE
  5
692
330
645
100
AcDbEntity
  8
0
  6
Continuous
 62
     7
370
    15
100
AcDbLine
 10
1712.858622462142
 20
1207.611186164814
 30
0.0
 11
1712.858622462143
 21
1206.261186164814
 31
0.0
  0
LINE
  5
693
330
645
100
AcDbEntity
  8
0
  6
Continuous
 62
     7
370
    15
100
AcDbLine
 10
1712.858622462143
 20
1207.611186164814
 30
0.0
 11
1716.097962774123
 21
1207.611186164815
 31
0.0
  0
ARC
  5
694
330
645
100
AcDbEntity
  8
0
  6
Continuous
 62
     7
370
    15
100
AcDbCircle
 10
1712.308622462142
 20
1208.761186164814
 30
0.0
 40
3.960000000000017
100
AcDbArc
 50
196.8821468762186
 51
343.1178531238101
  0
LINE
  5
695
330
645
100
AcDbEntity
  8
0
  6
Continuous
 62
     7
370
    15
100
AcDbLine
 10
1750.253806903576
 20
1208.339126633347
 30
0.0
 11
1750.253806903576
 21
1206.36600172338
 31
0.0
  0
LINE
  5
696
330
645
100
AcDbEntity
  8
0
  6
Continuous
 62
     7
370
    15
100
AcDbLine
 10
1750.358622462142
 20
1207.611186164814
 30
0.0
 11
1750.253806903576
 21
1208.339126633347
 31
0.0
  0
LINE
  5
697
330
645
100
AcDbEntity
  8
0
  6
Continuous
 62
     7
370
    15
100
AcDbLine
 10
1750.358622462143
 20
1206.261186164814
 30
0.0
 11
1750.253806903577
 21
1206.36600172338
 31
0.0
  0
LINE
  5
698
330
645
100
AcDbEntity
  8
0
  6
Continuous
 62
     7
370
    15
100
AcDbLine
 10
1750.253806903576
 20
1208.339126633347
 30
0.0
 11
1753.746066525478
 21
1208.339126633348
 31
0.0
  0
ARC
  5
699
330
645
100
AcDbEntity
  8
0
  6
Continuous
 62
     7
370
    15
100
AcDbCircle
 10
1749.808622462142
 20
1208.761186164814
 30
0.0
 40
3.960000000000017
100
AcDbArc
 50
343.1178531238101
 51
353.8817554899398
  0
LINE
  5
69A
330
645
100
AcDbEntity
  8
0
  6
Continuous
 62
     7
370
    15
100
AcDbLine
 10
1711.758622462141
 20
1209.911186164814
 30
0.0
 11
1708.519282150161
 21
1209.911186164814
 31
0.0
  0
ARC
  5
69B
330
645
100
AcDbEntity
  8
0
  6
Continuous
 62
     7
370
    15
100
AcDbCircle
 10
1712.308622462142
 20
1208.761186164814
 30
0.0
 40
3.960000000000004
100
AcDbArc
 50
16.88214687621865
 51
163.11785312381
  0
LINE
  5
69C
330
645
100
AcDbEntity
  8
0
  6
Continuous
 62
     7
370
    15
100
AcDbLine
 10
1712.858622462142
 20
1209.911186164814
 30
0.0
 11
1716.097962774122
 21
1209.911186164815
 31
0.0
  0
LINE
  5
69D
330
645
100
AcDbEntity
  8
0
  6
Continuous
 62
     7
370
    15
100
AcDbLine
 10
1712.858622462142
 20
1209.911186164814
 30
0.0
 11
1712.858622462142
 21
1211.261186164815
 31
0.0
  0
LINE
  5
69E
330
645
100
AcDbEntity
  8
0
  6
Continuous
 62
     7
370
    15
100
AcDbLine
 10
1711.758622462141
 20
1211.261186164814
 30
0.0
 11
1712.858622462141
 21
1211.261186164815
 31
0.0
  0
LINE
  5
69F
330
645
100
AcDbEntity
  8
0
  6
Continuous
 62
     7
370
    15
100
AcDbLine
 10
1711.758622462142
 20
1209.911186164814
 30
0.0
 11
1711.758622462141
 21
1211.261186164814
 31
0.0
  0
LINE
  5
6A0
330
645
100
AcDbEntity
  8
0
  6
Continuous
 62
     7
370
    15
100
AcDbLine
 10
1711.863438020708
 20
1209.183245696282
 30
0.0
 11
1711.863438020708
 21
1211.156370606248
 31
0.0
  0
LINE
  5
6A1
330
645
100
AcDbEntity
  8
0
  6
Continuous
 62
     7
370
    15
100
AcDbLine
 10
1711.758622462142
 20
1209.911186164814
 30
0.0
 11
1711.863438020708
 21
1209.183245696282
 31
0.0
  0
LINE
  5
6A2
330
645
100
AcDbEntity
  8
0
  6
Continuous
 62
     7
370
    15
100
AcDbLine
 10
1711.758622462141
 20
1211.261186164814
 30
0.0
 11
1711.863438020708
 21
1211.156370606248
 31
0.0
  0
LINE
  5
6A3
330
645
100
AcDbEntity
  8
0
  6
Continuous
 62
     7
370
    15
100
AcDbLine
 10
1711.863438020708
 20
1209.183245696282
 30
0.0
 11
1708.371178398806
 21
1209.183245696281
 31
0.0
  0
ARC
  5
6A4
330
645
100
AcDbEntity
  8
0
  6
Continuous
 62
     7
370
    15
100
AcDbCircle
 10
1712.308622462142
 20
1208.761186164814
 30
0.0
 40
3.959999999999989
100
AcDbArc
 50
163.11785312381
 51
173.8817554899398
  0
LINE
  5
6A5
330
645
100
AcDbEntity
  8
0
  6
Continuous
 62
     7
370
    15
100
AcDbLine
 10
1686.758622462141
 20
1209.911186164814
 30
0.0
 11
1683.519282150162
 21
1209.911186164814
 31
0.0
  0
ARC
  5
6A6
330
645
100
AcDbEntity
  8
0
  6
Continuous
 62
     7
370
    15
100
AcDbCircle
 10
1687.308622462142
 20
1208.761186164814
 30
0.0
 40
3.960000000000031
100
AcDbArc
 50
16.88214687621865
 51
163.11785312381
  0
LINE
  5
6A7
330
645
100
AcDbEntity
  8
0
  6
Continuous
 62
     7
370
    15
100
AcDbLine
 10
1687.858622462142
 20
1209.911186164814
 30
0.0
 11
1691.097962774122
 21
1209.911186164815
 31
0.0
  0
LINE
  5
6A8
330
645
100
AcDbEntity
  8
0
  6
Continuous
 62
     7
370
    15
100
AcDbLine
 10
1687.858622462142
 20
1209.911186164814
 30
0.0
 11
1687.858622462142
 21
1211.261186164815
 31
0.0
  0
LINE
  5
6A9
330
645
100
AcDbEntity
  8
0
  6
Continuous
 62
     7
370
    15
100
AcDbLine
 10
1686.758622462141
 20
1211.261186164814
 30
0.0
 11
1687.858622462141
 21
1211.261186164815
 31
0.0
  0
LINE
  5
6AA
330
645
100
AcDbEntity
  8
0
  6
Continuous
 62
     7
370
    15
100
AcDbLine
 10
1686.758622462142
 20
1209.911186164814
 30
0.0
 11
1686.758622462141
 21
1211.261186164814
 31
0.0
  0
LINE
  5
6AB
330
645
100
AcDbEntity
  8
0
  6
Continuous
 62
     7
370
    15
100
AcDbLine
 10
1736.758622462141
 20
1209.911186164814
 30
0.0
 11
1733.519282150162
 21
1209.911186164814
 31
0.0
  0
ARC
  5
6AC
330
645
100
AcDbEntity
  8
0
  6
Continuous
 62
     7
370
    15
100
AcDbCircle
 10
1737.308622462142
 20
1208.761186164814
 30
0.0
 40
3.960000000000008
100
AcDbArc
 50
16.88214687621865
 51
163.11785312381
  0
LINE
  5
6AD
330
645
100
AcDbEntity
  8
0
  6
Continuous
 62
     7
370
    15
100
AcDbLine
 10
1737.858622462142
 20
1209.911186164814
 30
0.0
 11
1741.097962774122
 21
1209.911186164815
 31
0.0
  0
LINE
  5
6AE
330
645
100
AcDbEntity
  8
0
  6
Continuous
 62
     7
370
    15
100
AcDbLine
 10
1737.858622462142
 20
1209.911186164814
 30
0.0
 11
1737.858622462142
 21
1211.261186164815
 31
0.0
  0
LINE
  5
6AF
330
645
100
AcDbEntity
  8
0
  6
Continuous
 62
     7
370
    15
100
AcDbLine
 10
1736.758622462141
 20
1211.261186164814
 30
0.0
 11
1737.858622462141
 21
1211.261186164815
 31
0.0
  0
LINE
  5
6B0
330
645
100
AcDbEntity
  8
0
  6
Continuous
 62
     7
370
    15
100
AcDbLine
 10
1736.758622462142
 20
1209.911186164814
 30
0.0
 11
1736.758622462141
 21
1211.261186164814
 31
0.0
  0
LINE
  5
6B1
330
645
100
AcDbEntity
  8
0
  6
Continuous
 62
     7
370
    15
100
AcDbLine
 10
1724.258622462141
 20
1209.911186164814
 30
0.0
 11
1721.019282150162
 21
1209.911186164814
 31
0.0
  0
ARC
  5
6B2
330
645
100
AcDbEntity
  8
0
  6
Continuous
 62
     7
370
    15
100
AcDbCircle
 10
1724.808622462142
 20
1208.761186164814
 30
0.0
 40
3.960000000000004
100
AcDbArc
 50
16.88214687621865
 51
163.11785312381
  0
LINE
  5
6B3
330
645
100
AcDbEntity
  8
0
  6
Continuous
 62
     7
370
    15
100
AcDbLine
 10
1725.358622462142
 20
1209.911186164814
 30
0.0
 11
1728.597962774122
 21
1209.911186164815
 31
0.0
  0
LINE
  5
6B4
330
645
100
AcDbEntity
  8
0
  6
Continuous
 62
     7
370
    15
100
AcDbLine
 10
1725.358622462142
 20
1209.911186164814
 30
0.0
 11
1725.358622462142
 21
1211.261186164815
 31
0.0
  0
LINE
  5
6B5
330
645
100
AcDbEntity
  8
0
  6
Continuous
 62
     7
370
    15
100
AcDbLine
 10
1724.258622462141
 20
1211.261186164814
 30
0.0
 11
1725.358622462141
 21
1211.261186164815
 31
0.0
  0
LINE
  5
6B6
330
645
100
AcDbEntity
  8
0
  6
Continuous
 62
     7
370
    15
100
AcDbLine
 10
1724.258622462142
 20
1209.911186164814
 30
0.0
 11
1724.258622462141
 21
1211.261186164814
 31
0.0
  0
LINE
  5
6B7
330
645
100
AcDbEntity
  8
0
  6
Continuous
 62
     7
370
    15
100
AcDbLine
 10
1749.258622462141
 20
1209.911186164814
 30
0.0
 11
1746.019282150162
 21
1209.911186164814
 31
0.0
  0
ARC
  5
6B8
330
645
100
AcDbEntity
  8
0
  6
Continuous
 62
     7
370
    15
100
AcDbCircle
 10
1749.808622462142
 20
1208.761186164814
 30
0.0
 40
3.960000000000004
100
AcDbArc
 50
16.88214687621865
 51
163.11785312381
  0
LINE
  5
6B9
330
645
100
AcDbEntity
  8
0
  6
Continuous
 62
     7
370
    15
100
AcDbLine
 10
1750.358622462142
 20
1209.911186164814
 30
0.0
 11
1753.597962774122
 21
1209.911186164815
 31
0.0
  0
LINE
  5
6BA
330
645
100
AcDbEntity
  8
0
  6
Continuous
 62
     7
370
    15
100
AcDbLine
 10
1750.358622462142
 20
1209.911186164814
 30
0.0
 11
1750.358622462142
 21
1211.261186164815
 31
0.0
  0
LINE
  5
6BB
330
645
100
AcDbEntity
  8
0
  6
Continuous
 62
     7
370
    15
100
AcDbLine
 10
1749.258622462141
 20
1211.261186164814
 30
0.0
 11
1750.358622462141
 21
1211.261186164815
 31
0.0
  0
LINE
  5
6BC
330
645
100
AcDbEntity
  8
0
  6
Continuous
 62
     7
370
    15
100
AcDbLine
 10
1749.258622462142
 20
1209.911186164814
 30
0.0
 11
1749.258622462141
 21
1211.261186164814
 31
0.0
  0
LINE
  5
6BD
330
645
100
AcDbEntity
  8
0
  6
Continuous
 62
     7
370
    15
100
AcDbLine
 10
1699.258622462141
 20
1209.911186164814
 30
0.0
 11
1696.019282150162
 21
1209.911186164814
 31
0.0
  0
ARC
  5
6BE
330
645
100
AcDbEntity
  8
0
  6
Continuous
 62
     7
370
    15
100
AcDbCircle
 10
1699.808622462142
 20
1208.761186164814
 30
0.0
 40
3.960000000000008
100
AcDbArc
 50
16.88214687621865
 51
163.11785312381
  0
LINE
  5
6BF
330
645
100
AcDbEntity
  8
0
  6
Continuous
 62
     7
370
    15
100
AcDbLine
 10
1700.358622462142
 20
1209.911186164814
 30
0.0
 11
1703.597962774122
 21
1209.911186164815
 31
0.0
  0
LINE
  5
6C0
330
645
100
AcDbEntity
  8
0
  6
Continuous
 62
     7
370
    15
100
AcDbLine
 10
1700.358622462142
 20
1209.911186164814
 30
0.0
 11
1700.358622462142
 21
1211.261186164815
 31
0.0
  0
LINE
  5
6C1
330
645
100
AcDbEntity
  8
0
  6
Continuous
 62
     7
370
    15
100
AcDbLine
 10
1699.258622462141
 20
1211.261186164814
 30
0.0
 11
1700.358622462141
 21
1211.261186164815
 31
0.0
  0
LINE
  5
6C2
330
645
100
AcDbEntity
  8
0
  6
Continuous
 62
     7
370
    15
100
AcDbLine
 10
1699.258622462142
 20
1209.911186164814
 30
0.0
 11
1699.258622462141
 21
1211.261186164814
 31
0.0
  0
LINE
  5
6C3
330
645
100
AcDbEntity
  8
0
  6
Continuous
 62
     7
370
    15
100
AcDbLine
 10
1699.363438020708
 20
1209.183245696282
 30
0.0
 11
1699.363438020708
 21
1211.156370606248
 31
0.0
  0
LINE
  5
6C4
330
645
100
AcDbEntity
  8
0
  6
Continuous
 62
     7
370
    15
100
AcDbLine
 10
1699.258622462142
 20
1209.911186164814
 30
0.0
 11
1699.363438020708
 21
1209.183245696282
 31
0.0
  0
LINE
  5
6C5
330
645
100
AcDbEntity
  8
0
  6
Continuous
 62
     7
370
    15
100
AcDbLine
 10
1699.258622462141
 20
1211.261186164814
 30
0.0
 11
1699.363438020707
 21
1211.156370606248
 31
0.0
  0
LINE
  5
6C6
330
645
100
AcDbEntity
  8
0
  6
Continuous
 62
     7
370
    15
100
AcDbLine
 10
1724.363438020708
 20
1209.183245696282
 30
0.0
 11
1724.363438020708
 21
1211.156370606248
 31
0.0
  0
LINE
  5
6C7
330
645
100
AcDbEntity
  8
0
  6
Continuous
 62
     7
370
    15
100
AcDbLine
 10
1724.258622462142
 20
1209.911186164814
 30
0.0
 11
1724.363438020708
 21
1209.183245696282
 31
0.0
  0
LINE
  5
6C8
330
645
100
AcDbEntity
  8
0
  6
Continuous
 62
     7
370
    15
100
AcDbLine
 10
1724.258622462141
 20
1211.261186164814
 30
0.0
 11
1724.363438020708
 21
1211.156370606248
 31
0.0
  0
LINE
  5
6C9
330
645
100
AcDbEntity
  8
0
  6
Continuous
 62
     7
370
    15
100
AcDbLine
 10
1749.363438020708
 20
1209.183245696282
 30
0.0
 11
1749.363438020708
 21
1211.156370606248
 31
0.0
  0
LINE
  5
6CA
330
645
100
AcDbEntity
  8
0
  6
Continuous
 62
     7
370
    15
100
AcDbLine
 10
1749.258622462142
 20
1209.911186164814
 30
0.0
 11
1749.363438020708
 21
1209.183245696282
 31
0.0
  0
LINE
  5
6CB
330
645
100
AcDbEntity
  8
0
  6
Continuous
 62
     7
370
    15
100
AcDbLine
 10
1749.258622462141
 20
1211.261186164814
 30
0.0
 11
1749.363438020707
 21
1211.156370606248
 31
0.0
  0
LINE
  5
6CC
330
645
100
AcDbEntity
  8
0
  6
Continuous
 62
     7
370
    15
100
AcDbLine
 10
1736.863438020708
 20
1209.183245696282
 30
0.0
 11
1736.863438020708
 21
1211.156370606248
 31
0.0
  0
LINE
  5
6CD
330
645
100
AcDbEntity
  8
0
  6
Continuous
 62
     7
370
    15
100
AcDbLine
 10
1736.758622462142
 20
1209.911186164814
 30
0.0
 11
1736.863438020708
 21
1209.183245696282
 31
0.0
  0
LINE
  5
6CE
330
645
100
AcDbEntity
  8
0
  6
Continuous
 62
     7
370
    15
100
AcDbLine
 10
1736.758622462141
 20
1211.261186164814
 30
0.0
 11
1736.863438020708
 21
1211.156370606248
 31
0.0
  0
LINE
  5
6CF
330
645
100
AcDbEntity
  8
0
  6
Continuous
 62
     7
370
    15
100
AcDbLine
 10
1686.863438020708
 20
1209.183245696282
 30
0.0
 11
1686.863438020708
 21
1211.156370606248
 31
0.0
  0
LINE
  5
6D0
330
645
100
AcDbEntity
  8
0
  6
Continuous
 62
     7
370
    15
100
AcDbLine
 10
1686.758622462142
 20
1209.911186164814
 30
0.0
 11
1686.863438020708
 21
1209.183245696282
 31
0.0
  0
LINE
  5
6D1
330
645
100
AcDbEntity
  8
0
  6
Continuous
 62
     7
370
    15
100
AcDbLine
 10
1686.758622462141
 20
1211.261186164814
 30
0.0
 11
1686.863438020707
 21
1211.156370606248
 31
0.0
  0
LINE
  5
6D2
330
645
100
AcDbEntity
  8
0
  6
Continuous
 62
     7
370
    15
100
AcDbLine
 10
1750.253806903576
 20
1209.183245696282
 30
0.0
 11
1750.358622462142
 21
1209.911186164814
 31
0.0
  0
LINE
  5
6D3
330
645
100
AcDbEntity
  8
0
  6
Continuous
 62
     7
370
    15
100
AcDbLine
 10
1750.253806903575
 20
1211.156370606248
 30
0.0
 11
1750.253806903575
 21
1209.183245696282
 31
0.0
  0
LINE
  5
6D4
330
645
100
AcDbEntity
  8
0
  6
Continuous
 62
     7
370
    15
100
AcDbLine
 10
1750.253806903575
 20
1211.156370606248
 30
0.0
 11
1750.358622462141
 21
1211.261186164815
 31
0.0
  0
LINE
  5
6D5
330
645
100
AcDbEntity
  8
0
  6
Continuous
 62
     7
370
    15
100
AcDbLine
 10
1750.253806903575
 20
1211.156370606248
 30
0.0
 11
1749.363438020707
 21
1211.156370606248
 31
0.0
  0
LINE
  5
6D6
330
645
100
AcDbEntity
  8
0
  6
Continuous
 62
     7
370
    15
100
AcDbLine
 10
1699.363438020708
 20
1209.183245696282
 30
0.0
 11
1695.871178398806
 21
1209.183245696281
 31
0.0
  0
ARC
  5
6D7
330
645
100
AcDbEntity
  8
0
  6
Continuous
 62
     7
370
    15
100
AcDbCircle
 10
1699.808622462142
 20
1208.761186164814
 30
0.0
 40
3.960000000000017
100
AcDbArc
 50
163.11785312381
 51
173.8817554899398
  0
LINE
  5
6D8
330
645
100
AcDbEntity
  8
0
  6
Continuous
 62
     7
370
    15
100
AcDbLine
 10
1724.363438020708
 20
1209.183245696282
 30
0.0
 11
1720.871178398806
 21
1209.183245696281
 31
0.0
  0
ARC
  5
6D9
330
645
100
AcDbEntity
  8
0
  6
Continuous
 62
     7
370
    15
100
AcDbCircle
 10
1724.808622462142
 20
1208.761186164814
 30
0.0
 40
3.959999999999989
100
AcDbArc
 50
163.11785312381
 51
173.8817554899398
  0
LINE
  5
6DA
330
645
100
AcDbEntity
  8
0
  6
Continuous
 62
     7
370
    15
100
AcDbLine
 10
1736.863438020708
 20
1209.183245696282
 30
0.0
 11
1733.371178398806
 21
1209.183245696281
 31
0.0
  0
ARC
  5
6DB
330
645
100
AcDbEntity
  8
0
  6
Continuous
 62
     7
370
    15
100
AcDbCircle
 10
1737.308622462142
 20
1208.761186164814
 30
0.0
 40
3.960000000000008
100
AcDbArc
 50
163.11785312381
 51
173.8817554899398
  0
LINE
  5
6DC
330
645
100
AcDbEntity
  8
0
  6
Continuous
 62
     7
370
    15
100
AcDbLine
 10
1749.363438020708
 20
1209.183245696282
 30
0.0
 11
1745.871178398806
 21
1209.183245696281
 31
0.0
  0
ARC
  5
6DD
330
645
100
AcDbEntity
  8
0
  6
Continuous
 62
     7
370
    15
100
AcDbCircle
 10
1749.808622462142
 20
1208.761186164814
 30
0.0
 40
3.959999999999989
100
AcDbArc
 50
163.11785312381
 51
173.8817554899398
  0
LINE
  5
6DE
330
645
100
AcDbEntity
  8
0
  6
Continuous
 62
     7
370
    15
100
AcDbLine
 10
1686.863438020708
 20
1209.183245696282
 30
0.0
 11
1683.371178398806
 21
1209.183245696281
 31
0.0
  0
ARC
  5
6DF
330
645
100
AcDbEntity
  8
0
  6
Continuous
 62
     7
370
    15
100
AcDbCircle
 10
1687.308622462142
 20
1208.761186164814
 30
0.0
 40
3.960000000000017
100
AcDbArc
 50
163.11785312381
 51
173.8817554899398
  0
LINE
  5
6E0
330
645
100
AcDbEntity
  8
0
  6
Continuous
 62
     7
370
    15
100
AcDbLine
 10
1687.753806903576
 20
1208.339126633347
 30
0.0
 11
1691.246066525478
 21
1208.339126633348
 31
0.0
  0
ARC
  5
6E1
330
645
100
AcDbEntity
  8
0
  6
Continuous
 62
     7
370
    15
100
AcDbCircle
 10
1687.308622462142
 20
1208.761186164814
 30
0.0
 40
3.959999999999963
100
AcDbArc
 50
343.1178531238101
 51
353.8817554899398
  0
LINE
  5
6E2
330
645
100
AcDbEntity
  8
0
  6
Continuous
 62
     7
370
    15
100
AcDbLine
 10
1687.858622462142
 20
1207.611186164814
 30
0.0
 11
1687.753806903576
 21
1208.339126633347
 31
0.0
  0
LINE
  5
6E3
330
645
100
AcDbEntity
  8
0
  6
Continuous
 62
     7
370
    15
100
AcDbLine
 10
1712.753806903576
 20
1208.339126633347
 30
0.0
 11
1716.246066525478
 21
1208.339126633348
 31
0.0
  0
ARC
  5
6E4
330
645
100
AcDbEntity
  8
0
  6
Continuous
 62
     7
370
    15
100
AcDbCircle
 10
1712.308622462142
 20
1208.761186164814
 30
0.0
 40
3.960000000000017
100
AcDbArc
 50
343.1178531238101
 51
353.8817554899398
  0
LINE
  5
6E5
330
645
100
AcDbEntity
  8
0
  6
Continuous
 62
     7
370
    15
100
AcDbLine
 10
1712.858622462142
 20
1207.611186164814
 30
0.0
 11
1712.753806903576
 21
1208.339126633347
 31
0.0
  0
LINE
  5
6E6
330
645
100
AcDbEntity
  8
0
  6
Continuous
 62
     7
370
    15
100
AcDbLine
 10
1687.753806903576
 20
1208.339126633347
 30
0.0
 11
1687.753806903576
 21
1206.36600172338
 31
0.0
  0
LINE
  5
6E7
330
645
100
AcDbEntity
  8
0
  6
Continuous
 62
     7
370
    15
100
AcDbLine
 10
1687.858622462143
 20
1206.261186164814
 30
0.0
 11
1687.753806903577
 21
1206.36600172338
 31
0.0
  0
LINE
  5
6E8
330
645
100
AcDbEntity
  8
0
  6
Continuous
 62
     7
370
    15
100
AcDbLine
 10
1737.753806903576
 20
1208.339126633347
 30
0.0
 11
1737.753806903576
 21
1206.36600172338
 31
0.0
  0
LINE
  5
6E9
330
645
100
AcDbEntity
  8
0
  6
Continuous
 62
     7
370
    15
100
AcDbLine
 10
1737.858622462142
 20
1207.611186164814
 30
0.0
 11
1737.753806903576
 21
1208.339126633347
 31
0.0
  0
LINE
  5
6EA
330
645
100
AcDbEntity
  8
0
  6
Continuous
 62
     7
370
    15
100
AcDbLine
 10
1737.858622462143
 20
1206.261186164814
 30
0.0
 11
1737.753806903577
 21
1206.36600172338
 31
0.0
  0
LINE
  5
6EB
330
645
100
AcDbEntity
  8
0
  6
Continuous
 62
     7
370
    15
100
AcDbLine
 10
1725.253806903576
 20
1208.339126633347
 30
0.0
 11
1728.746066525478
 21
1208.339126633348
 31
0.0
  0
ARC
  5
6EC
330
645
100
AcDbEntity
  8
0
  6
Continuous
 62
     7
370
    15
100
AcDbCircle
 10
1724.808622462142
 20
1208.761186164814
 30
0.0
 40
3.96000000000002
100
AcDbArc
 50
343.1178531238101
 51
353.8817554899398
  0
LINE
  5
6ED
330
645
100
AcDbEntity
  8
0
  6
Continuous
 62
     7
370
    15
100
AcDbLine
 10
1725.358622462142
 20
1207.611186164814
 30
0.0
 11
1725.253806903576
 21
1208.339126633347
 31
0.0
  0
LINE
  5
6EE
330
645
100
AcDbEntity
  8
0
  6
Continuous
 62
     7
370
    15
100
AcDbLine
 10
1675.253806903576
 20
1208.339126633347
 30
0.0
 11
1678.746066525478
 21
1208.339126633348
 31
0.0
  0
ARC
  5
6EF
330
645
100
AcDbEntity
  8
0
  6
Continuous
 62
     7
370
    15
100
AcDbCircle
 10
1674.808622462142
 20
1208.761186164814
 30
0.0
 40
3.960000000000076
100
AcDbArc
 50
343.1178531238101
 51
353.8817554899398
  0
LINE
  5
6F0
330
645
100
AcDbEntity
  8
0
  6
Continuous
 62
     7
370
    15
100
AcDbLine
 10
1675.358622462142
 20
1207.611186164814
 30
0.0
 11
1675.253806903576
 21
1208.339126633347
 31
0.0
  0
LINE
  5
6F1
330
645
100
AcDbEntity
  8
0
  6
Continuous
 62
     7
370
    15
100
AcDbLine
 10
1737.753806903576
 20
1208.339126633347
 30
0.0
 11
1741.246066525478
 21
1208.339126633348
 31
0.0
  0
ARC
  5
6F2
330
645
100
AcDbEntity
  8
0
  6
Continuous
 62
     7
370
    15
100
AcDbCircle
 10
1737.308622462142
 20
1208.761186164814
 30
0.0
 40
3.959999999999991
100
AcDbArc
 50
343.1178531238101
 51
353.8817554899398
  0
LINE
  5
6F3
330
645
100
AcDbEntity
  8
0
  6
Continuous
 62
     7
370
    15
100
AcDbLine
 10
1712.753806903576
 20
1208.339126633347
 30
0.0
 11
1712.753806903576
 21
1206.36600172338
 31
0.0
  0
LINE
  5
6F4
330
645
100
AcDbEntity
  8
0
  6
Continuous
 62
     7
370
    15
100
AcDbLine
 10
1712.858622462143
 20
1206.261186164814
 30
0.0
 11
1712.753806903577
 21
1206.36600172338
 31
0.0
  0
LINE
  5
6F5
330
645
100
AcDbEntity
  8
0
  6
Continuous
 62
     7
370
    15
100
AcDbLine
 10
1725.253806903576
 20
1208.339126633347
 30
0.0
 11
1725.253806903576
 21
1206.36600172338
 31
0.0
  0
LINE
  5
6F6
330
645
100
AcDbEntity
  8
0
  6
Continuous
 62
     7
370
    15
100
AcDbLine
 10
1725.358622462143
 20
1206.261186164814
 30
0.0
 11
1725.253806903577
 21
1206.36600172338
 31
0.0
  0
LINE
  5
6F7
330
645
100
AcDbEntity
  8
0
  6
Continuous
 62
     7
370
    15
100
AcDbLine
 10
1675.253806903576
 20
1208.339126633347
 30
0.0
 11
1675.253806903576
 21
1206.36600172338
 31
0.0
  0
LINE
  5
6F8
330
645
100
AcDbEntity
  8
0
  6
Continuous
 62
     7
370
    15
100
AcDbLine
 10
1675.358622462143
 20
1206.261186164814
 30
0.0
 11
1675.253806903577
 21
1206.36600172338
 31
0.0
  0
LINE
  5
6F9
330
645
100
AcDbEntity
  8
0
  6
Continuous
 62
     7
370
    15
100
AcDbLine
 10
1674.258622462141
 20
1209.911186164814
 30
0.0
 11
1671.019282150162
 21
1209.911186164814
 31
0.0
  0
ARC
  5
6FA
330
645
100
AcDbEntity
  8
0
  6
Continuous
 62
     7
370
    15
100
AcDbCircle
 10
1674.808622462142
 20
1208.761186164814
 30
0.0
 40
3.960000000000031
100
AcDbArc
 50
16.88214687621865
 51
163.11785312381
  0
LINE
  5
6FB
330
645
100
AcDbEntity
  8
0
  6
Continuous
 62
     7
370
    15
100
AcDbLine
 10
1675.358622462142
 20
1209.911186164814
 30
0.0
 11
1678.597962774122
 21
1209.911186164815
 31
0.0
  0
LINE
  5
6FC
330
645
100
AcDbEntity
  8
0
  6
Continuous
 62
     7
370
    15
100
AcDbLine
 10
1675.358622462142
 20
1209.911186164814
 30
0.0
 11
1675.358622462142
 21
1211.261186164815
 31
0.0
  0
LINE
  5
6FD
330
645
100
AcDbEntity
  8
0
  6
Continuous
 62
     7
370
    15
100
AcDbLine
 10
1674.258622462141
 20
1211.261186164814
 30
0.0
 11
1675.358622462141
 21
1211.261186164815
 31
0.0
  0
LINE
  5
6FE
330
645
100
AcDbEntity
  8
0
  6
Continuous
 62
     7
370
    15
100
AcDbLine
 10
1674.258622462142
 20
1209.911186164814
 30
0.0
 11
1674.258622462141
 21
1211.261186164814
 31
0.0
  0
LINE
  5
6FF
330
645
100
AcDbEntity
  8
0
  6
Continuous
 62
     7
370
    15
100
AcDbLine
 10
1674.363438020708
 20
1209.183245696282
 30
0.0
 11
1674.363438020708
 21
1211.156370606248
 31
0.0
  0
LINE
  5
700
330
645
100
AcDbEntity
  8
0
  6
Continuous
 62
     7
370
    15
100
AcDbLine
 10
1674.258622462142
 20
1209.911186164814
 30
0.0
 11
1674.363438020708
 21
1209.183245696282
 31
0.0
  0
LINE
  5
701
330
645
100
AcDbEntity
  8
0
  6
Continuous
 62
     7
370
    15
100
AcDbLine
 10
1674.258622462141
 20
1211.261186164814
 30
0.0
 11
1674.363438020708
 21
1211.156370606248
 31
0.0
  0
LINE
  5
702
330
645
100
AcDbEntity
  8
0
  6
Continuous
 62
     7
370
    15
100
AcDbLine
 10
1674.363438020708
 20
1209.183245696282
 30
0.0
 11
1670.871178398806
 21
1209.183245696281
 31
0.0
  0
ARC
  5
703
330
645
100
AcDbEntity
  8
0
  6
Continuous
 62
     7
370
    15
100
AcDbCircle
 10
1674.808622462142
 20
1208.761186164814
 30
0.0
 40
3.95999999999996
100
AcDbArc
 50
163.11785312381
 51
173.8817554899398
  0
LINE
  5
704
330
645
100
AcDbEntity
  8
0
  6
Continuous
 62
     7
370
    15
100
AcDbLine
 10
1687.753806903576
 20
1209.183245696282
 30
0.0
 11
1687.858622462142
 21
1209.911186164814
 31
0.0
  0
LINE
  5
705
330
645
100
AcDbEntity
  8
0
  6
Continuous
 62
     7
370
    15
100
AcDbLine
 10
1687.753806903575
 20
1211.156370606248
 30
0.0
 11
1687.753806903575
 21
1209.183245696282
 31
0.0
  0
LINE
  5
706
330
645
100
AcDbEntity
  8
0
  6
Continuous
 62
     7
370
    15
100
AcDbLine
 10
1687.753806903575
 20
1211.156370606248
 30
0.0
 11
1687.858622462141
 21
1211.261186164815
 31
0.0
  0
LINE
  5
707
330
645
100
AcDbEntity
  8
0
  6
Continuous
 62
     7
370
    15
100
AcDbLine
 10
1700.253806903576
 20
1209.183245696282
 30
0.0
 11
1700.358622462142
 21
1209.911186164814
 31
0.0
  0
LINE
  5
708
330
645
100
AcDbEntity
  8
0
  6
Continuous
 62
     7
370
    15
100
AcDbLine
 10
1700.253806903575
 20
1211.156370606248
 30
0.0
 11
1700.253806903575
 21
1209.183245696282
 31
0.0
  0
LINE
  5
709
330
645
100
AcDbEntity
  8
0
  6
Continuous
 62
     7
370
    15
100
AcDbLine
 10
1700.253806903575
 20
1211.156370606248
 30
0.0
 11
1700.358622462141
 21
1211.261186164815
 31
0.0
  0
LINE
  5
70A
330
645
100
AcDbEntity
  8
0
  6
Continuous
 62
     7
370
    15
100
AcDbLine
 10
1687.753806903575
 20
1211.156370606248
 30
0.0
 11
1686.863438020707
 21
1211.156370606248
 31
0.0
  0
LINE
  5
70B
330
645
100
AcDbEntity
  8
0
  6
Continuous
 62
     7
370
    15
100
AcDbLine
 10
1700.253806903575
 20
1211.156370606248
 30
0.0
 11
1699.363438020707
 21
1211.156370606248
 31
0.0
  0
LINE
  5
70C
330
645
100
AcDbEntity
  8
0
  6
Continuous
 62
     7
370
    15
100
AcDbLine
 10
1700.253806903576
 20
1208.339126633347
 30
0.0
 11
1700.253806903576
 21
1206.36600172338
 31
0.0
  0
LINE
  5
70D
330
645
100
AcDbEntity
  8
0
  6
Continuous
 62
     7
370
    15
100
AcDbLine
 10
1700.358622462142
 20
1207.611186164814
 30
0.0
 11
1700.253806903576
 21
1208.339126633347
 31
0.0
  0
LINE
  5
70E
330
645
100
AcDbEntity
  8
0
  6
Continuous
 62
     7
370
    15
100
AcDbLine
 10
1700.358622462143
 20
1206.261186164814
 30
0.0
 11
1700.253806903577
 21
1206.36600172338
 31
0.0
  0
LINE
  5
70F
330
645
100
AcDbEntity
  8
0
  6
Continuous
 62
     7
370
    15
100
AcDbLine
 10
1700.253806903576
 20
1208.339126633347
 30
0.0
 11
1703.746066525478
 21
1208.339126633348
 31
0.0
  0
ARC
  5
710
330
645
100
AcDbEntity
  8
0
  6
Continuous
 62
     7
370
    15
100
AcDbCircle
 10
1699.808622462142
 20
1208.761186164814
 30
0.0
 40
3.960000000000017
100
AcDbArc
 50
343.1178531238101
 51
353.8817554899398
  0
LINE
  5
711
330
645
100
AcDbEntity
  8
0
  6
Continuous
 62
     7
370
    15
100
AcDbLine
 10
1675.253806903576
 20
1209.183245696282
 30
0.0
 11
1675.358622462142
 21
1209.911186164814
 31
0.0
  0
LINE
  5
712
330
645
100
AcDbEntity
  8
0
  6
Continuous
 62
     7
370
    15
100
AcDbLine
 10
1675.253806903575
 20
1211.156370606248
 30
0.0
 11
1675.253806903575
 21
1209.183245696282
 31
0.0
  0
LINE
  5
713
330
645
100
AcDbEntity
  8
0
  6
Continuous
 62
     7
370
    15
100
AcDbLine
 10
1675.253806903575
 20
1211.156370606248
 30
0.0
 11
1675.358622462141
 21
1211.261186164815
 31
0.0
  0
LINE
  5
714
330
645
100
AcDbEntity
  8
0
  6
Continuous
 62
     7
370
    15
100
AcDbLine
 10
1675.253806903575
 20
1211.156370606248
 30
0.0
 11
1674.363438020708
 21
1211.156370606248
 31
0.0
  0
LINE
  5
715
330
645
100
AcDbEntity
  8
0
  6
Continuous
 62
     7
370
    15
100
AcDbLine
 10
1737.753806903575
 20
1211.156370606248
 30
0.0
 11
1737.858622462141
 21
1211.261186164815
 31
0.0
  0
LINE
  5
716
330
645
100
AcDbEntity
  8
0
  6
Continuous
 62
     7
370
    15
100
AcDbLine
 10
1737.753806903575
 20
1211.156370606248
 30
0.0
 11
1736.863438020708
 21
1211.156370606248
 31
0.0
  0
LINE
  5
717
330
645
100
AcDbEntity
  8
0
  6
Continuous
 62
     7
370
    15
100
AcDbLine
 10
1712.753806903576
 20
1209.183245696282
 30
0.0
 11
1712.858622462142
 21
1209.911186164814
 31
0.0
  0
LINE
  5
718
330
645
100
AcDbEntity
  8
0
  6
Continuous
 62
     7
370
    15
100
AcDbLine
 10
1712.753806903575
 20
1211.156370606248
 30
0.0
 11
1712.753806903575
 21
1209.183245696282
 31
0.0
  0
LINE
  5
719
330
645
100
AcDbEntity
  8
0
  6
Continuous
 62
     7
370
    15
100
AcDbLine
 10
1712.753806903575
 20
1211.156370606248
 30
0.0
 11
1712.858622462141
 21
1211.261186164815
 31
0.0
  0
LINE
  5
71A
330
645
100
AcDbEntity
  8
0
  6
Continuous
 62
     7
370
    15
100
AcDbLine
 10
1737.753806903576
 20
1209.183245696282
 30
0.0
 11
1737.858622462142
 21
1209.911186164814
 31
0.0
  0
LINE
  5
71B
330
645
100
AcDbEntity
  8
0
  6
Continuous
 62
     7
370
    15
100
AcDbLine
 10
1737.753806903575
 20
1211.156370606248
 30
0.0
 11
1737.753806903575
 21
1209.183245696282
 31
0.0
  0
LINE
  5
71C
330
645
100
AcDbEntity
  8
0
  6
Continuous
 62
     7
370
    15
100
AcDbLine
 10
1712.753806903575
 20
1211.156370606248
 30
0.0
 11
1711.863438020708
 21
1211.156370606248
 31
0.0
  0
LINE
  5
71D
330
645
100
AcDbEntity
  8
0
  6
Continuous
 62
     7
370
    15
100
AcDbLine
 10
1725.253806903576
 20
1209.183245696282
 30
0.0
 11
1725.358622462142
 21
1209.911186164814
 31
0.0
  0
LINE
  5
71E
330
645
100
AcDbEntity
  8
0
  6
Continuous
 62
     7
370
    15
100
AcDbLine
 10
1725.253806903575
 20
1211.156370606248
 30
0.0
 11
1725.253806903575
 21
1209.183245696282
 31
0.0
  0
LINE
  5
71F
330
645
100
AcDbEntity
  8
0
  6
Continuous
 62
     7
370
    15
100
AcDbLine
 10
1725.253806903575
 20
1211.156370606248
 30
0.0
 11
1725.358622462141
 21
1211.261186164815
 31
0.0
  0
LINE
  5
720
330
645
100
AcDbEntity
  8
0
  6
Continuous
 62
     7
370
    15
100
AcDbLine
 10
1725.253806903575
 20
1211.156370606248
 30
0.0
 11
1724.363438020708
 21
1211.156370606248
 31
0.0
  0
ARC
  5
721
330
645
100
AcDbEntity
  8
0
  6
Continuous
 62
     7
370
    15
100
AcDbCircle
 10
1737.308622462142
 20
1208.761186164814
 30
0.0
 40
3.960000000000004
100
AcDbArc
 50
6.118244510086123
 51
16.88214687621865
  0
LINE
  5
722
330
645
100
AcDbEntity
  8
0
  6
Continuous
 62
     7
370
    15
100
AcDbLine
 10
1741.246066525478
 20
1209.183245696283
 30
0.0
 11
1737.753806903576
 21
1209.183245696282
 31
0.0
  0
LINE
  5
723
330
645
100
AcDbEntity
  8
0
  6
Continuous
 62
     7
370
    15
100
AcDbLine
 10
1749.363438020709
 20
1206.36600172338
 30
0.0
 11
1750.253806903577
 21
1206.36600172338
 31
0.0
  0
LINE
  5
724
330
645
100
AcDbEntity
  8
0
  6
Continuous
 62
     7
370
    15
100
AcDbLine
 10
1736.863438020709
 20
1206.36600172338
 30
0.0
 11
1737.753806903577
 21
1206.36600172338
 31
0.0
  0
LINE
  5
725
330
645
100
AcDbEntity
  8
0
  6
Continuous
 62
     7
370
    15
100
AcDbLine
 10
1699.363438020709
 20
1206.36600172338
 30
0.0
 11
1700.253806903577
 21
1206.36600172338
 31
0.0
  0
LINE
  5
726
330
645
100
AcDbEntity
  8
0
  6
Continuous
 62
     7
370
    15
100
AcDbLine
 10
1724.363438020709
 20
1206.36600172338
 30
0.0
 11
1725.253806903577
 21
1206.36600172338
 31
0.0
  0
LINE
  5
727
330
645
100
AcDbEntity
  8
0
  6
Continuous
 62
     7
370
    15
100
AcDbLine
 10
1674.363438020709
 20
1206.36600172338
 30
0.0
 11
1675.253806903577
 21
1206.36600172338
 31
0.0
  0
LINE
  5
728
330
645
100
AcDbEntity
  8
0
  6
Continuous
 62
     7
370
    15
100
AcDbLine
 10
1711.863438020709
 20
1206.36600172338
 30
0.0
 11
1712.753806903577
 21
1206.36600172338
 31
0.0
  0
LINE
  5
729
330
645
100
AcDbEntity
  8
0
  6
Continuous
 62
     7
370
    15
100
AcDbLine
 10
1686.863438020709
 20
1206.36600172338
 30
0.0
 11
1687.753806903577
 21
1206.36600172338
 31
0.0
  0
ARC
  5
72A
330
645
100
AcDbEntity
  8
0
  6
Continuous
 62
     7
370
    15
100
AcDbCircle
 10
1687.308622462142
 20
1208.761186164814
 30
0.0
 40
3.960000000000031
100
AcDbArc
 50
6.118244510086123
 51
16.88214687621865
  0
LINE
  5
72B
330
645
100
AcDbEntity
  8
0
  6
Continuous
 62
     7
370
    15
100
AcDbLine
 10
1691.246066525478
 20
1209.183245696283
 30
0.0
 11
1687.753806903576
 21
1209.183245696282
 31
0.0
  0
ARC
  5
72C
330
645
100
AcDbEntity
  8
0
  6
Continuous
 62
     7
370
    15
100
AcDbCircle
 10
1674.808622462142
 20
1208.761186164814
 30
0.0
 40
3.960000000000042
100
AcDbArc
 50
6.118244510086123
 51
16.88214687621865
  0
LINE
  5
72D
330
645
100
AcDbEntity
  8
0
  6
Continuous
 62
     7
370
    15
100
AcDbLine
 10
1678.746066525478
 20
1209.183245696283
 30
0.0
 11
1675.253806903576
 21
1209.183245696282
 31
0.0
  0
ARC
  5
72E
330
645
100
AcDbEntity
  8
0
  6
Continuous
 62
     7
370
    15
100
AcDbCircle
 10
1699.808622462142
 20
1208.761186164814
 30
0.0
 40
3.959999999999986
100
AcDbArc
 50
6.118244510086123
 51
16.88214687621865
  0
LINE
  5
72F
330
645
100
AcDbEntity
  8
0
  6
Continuous
 62
     7
370
    15
100
AcDbLine
 10
1703.746066525478
 20
1209.183245696283
 30
0.0
 11
1700.253806903576
 21
1209.183245696282
 31
0.0
  0
ARC
  5
730
330
645
100
AcDbEntity
  8
0
  6
Continuous
 62
     7
370
    15
100
AcDbCircle
 10
1712.308622462142
 20
1208.761186164814
 30
0.0
 40
3.960000000000004
100
AcDbArc
 50
6.118244510086123
 51
16.88214687621865
  0
LINE
  5
731
330
645
100
AcDbEntity
  8
0
  6
Continuous
 62
     7
370
    15
100
AcDbLine
 10
1716.246066525477
 20
1209.183245696283
 30
0.0
 11
1712.753806903576
 21
1209.183245696282
 31
0.0
  0
ARC
  5
732
330
645
100
AcDbEntity
  8
0
  6
Continuous
 62
     7
370
    15
100
AcDbCircle
 10
1724.808622462142
 20
1208.761186164814
 30
0.0
 40
3.960000000000014
100
AcDbArc
 50
6.118244510086123
 51
16.88214687621865
  0
LINE
  5
733
330
645
100
AcDbEntity
  8
0
  6
Continuous
 62
     7
370
    15
100
AcDbLine
 10
1728.746066525477
 20
1209.183245696283
 30
0.0
 11
1725.253806903576
 21
1209.183245696282
 31
0.0
  0
ARC
  5
734
330
645
100
AcDbEntity
  8
0
  6
Continuous
 62
     7
370
    15
100
AcDbCircle
 10
1749.808622462142
 20
1208.761186164814
 30
0.0
 40
3.960000000000014
100
AcDbArc
 50
6.118244510086123
 51
16.88214687621865
  0
LINE
  5
735
330
645
100
AcDbEntity
  8
0
  6
Continuous
 62
     7
370
    15
100
AcDbLine
 10
1753.746066525478
 20
1209.183245696283
 30
0.0
 11
1750.253806903576
 21
1209.183245696282
 31
0.0
  0
ARC
  5
736
330
645
100
AcDbEntity
  8
0
  6
Continuous
 62
     7
370
    15
100
AcDbCircle
 10
1724.808622462142
 20
1208.761186164814
 30
0.0
 40
3.959999999999989
100
AcDbArc
 50
173.8817554899398
 51
186.1182445100861
  0
ARC
  5
737
330
645
100
AcDbEntity
  8
0
  6
Continuous
 62
     7
370
    15
100
AcDbCircle
 10
1724.808622462142
 20
1208.761186164814
 30
0.0
 40
3.96000000000002
100
AcDbArc
 50
353.8817554899398
 51
6.118244510086123
  0
ARC
  5
738
330
645
100
AcDbEntity
  8
0
  6
Continuous
 62
     7
370
    15
100
AcDbCircle
 10
1699.808622462142
 20
1208.761186164814
 30
0.0
 40
3.960000000000017
100
AcDbArc
 50
173.8817554899398
 51
186.1182445100861
  0
ARC
  5
739
330
645
100
AcDbEntity
  8
0
  6
Continuous
 62
     7
370
    15
100
AcDbCircle
 10
1699.808622462142
 20
1208.761186164814
 30
0.0
 40
3.959999999999986
100
AcDbArc
 50
353.8817554899398
 51
6.118244510086123
  0
ARC
  5
73A
330
645
100
AcDbEntity
  8
0
  6
Continuous
 62
     7
370
    15
100
AcDbCircle
 10
1687.308622462142
 20
1208.761186164814
 30
0.0
 40
3.960000000000017
100
AcDbArc
 50
173.8817554899398
 51
186.1182445100861
  0
ARC
  5
73B
330
645
100
AcDbEntity
  8
0
  6
Continuous
 62
     7
370
    15
100
AcDbCircle
 10
1687.308622462142
 20
1208.761186164814
 30
0.0
 40
3.959999999999986
100
AcDbArc
 50
353.8817554899398
 51
6.118244510086123
  0
ARC
  5
73C
330
645
100
AcDbEntity
  8
0
  6
Continuous
 62
     7
370
    15
100
AcDbCircle
 10
1712.308622462142
 20
1208.761186164814
 30
0.0
 40
3.960000000000017
100
AcDbArc
 50
173.8817554899398
 51
186.1182445100861
  0
ARC
  5
73D
330
645
100
AcDbEntity
  8
0
  6
Continuous
 62
     7
370
    15
100
AcDbCircle
 10
1712.308622462142
 20
1208.761186164814
 30
0.0
 40
3.959999999999991
100
AcDbArc
 50
353.8817554899398
 51
6.118244510086123
  0
ARC
  5
73E
330
645
100
AcDbEntity
  8
0
  6
Continuous
 62
     7
370
    15
100
AcDbCircle
 10
1737.308622462142
 20
1208.761186164814
 30
0.0
 40
3.960000000000017
100
AcDbArc
 50
173.8817554899398
 51
186.1182445100861
  0
ARC
  5
73F
330
645
100
AcDbEntity
  8
0
  6
Continuous
 62
     7
370
    15
100
AcDbCircle
 10
1737.308622462142
 20
1208.761186164814
 30
0.0
 40
3.959999999999991
100
AcDbArc
 50
353.8817554899398
 51
6.118244510086123
  0
ARC
  5
740
330
645
100
AcDbEntity
  8
0
  6
Continuous
 62
     7
370
    15
100
AcDbCircle
 10
1674.808622462142
 20
1208.761186164814
 30
0.0
 40
3.95999999999996
100
AcDbArc
 50
173.8817554899398
 51
186.1182445100861
  0
ARC
  5
741
330
645
100
AcDbEntity
  8
0
  6
Continuous
 62
     7
370
    15
100
AcDbCircle
 10
1674.808622462142
 20
1208.761186164814
 30
0.0
 40
3.960000000000076
100
AcDbArc
 50
353.8817554899398
 51
6.118244510086123
  0
ARC
  5
742
330
645
100
AcDbEntity
  8
0
  6
Continuous
 62
     7
370
    15
100
AcDbCircle
 10
1749.808622462142
 20
1208.761186164814
 30
0.0
 40
3.959999999999989
100
AcDbArc
 50
173.8817554899398
 51
186.1182445100861
  0
ARC
  5
743
330
645
100
AcDbEntity
  8
0
  6
Continuous
 62
     7
370
    15
100
AcDbCircle
 10
1749.808622462142
 20
1208.761186164814
 30
0.0
 40
3.960000000000014
100
AcDbArc
 50
353.8817554899398
 51
6.118244510086123
  0
CIRCLE
  5
744
330
645
100
AcDbEntity
  8
0
  6
Continuous
 62
     7
370
    15
100
AcDbCircle
 10
1662.308622462142
 20
1208.761186164815
 30
0.0
 40
4.000000000000056
  0
LINE
  5
745
330
645
100
AcDbEntity
  8
0
  6
Continuous
 62
     7
370
    15
100
AcDbLine
 10
1656.808622462142
 20
1203.761186164814
 30
0.0
 11
1656.808622462142
 21
1213.761186164815
 31
0.0
  0
LINE
  5
746
330
645
100
AcDbEntity
  8
0
  6
Continuous
 62
     7
370
    15
100
AcDbLine
 10
1656.808622462142
 20
1213.761186164815
 30
0.0
 11
1767.808622462142
 21
1213.761186164815
 31
0.0
  0
LINE
  5
747
330
645
100
AcDbEntity
  8
0
  6
Continuous
 62
     7
370
    15
100
AcDbLine
 10
1767.808622462142
 20
1203.761186164814
 30
0.0
 11
1767.808622462142
 21
1213.761186164815
 31
0.0
  0
LINE
  5
748
330
645
100
AcDbEntity
  8
0
  6
Continuous
 62
     7
370
    15
100
AcDbLine
 10
1656.808622462142
 20
1203.761186164814
 30
0.0
 11
1767.808622462142
 21
1203.761186164814
 31
0.0
  0
CIRCLE
  5
749
330
645
100
AcDbEntity
  8
0
  6
Continuous
 62
     7
370
    15
100
AcDbCircle
 10
1762.308622462142
 20
1208.761186164815
 30
0.0
 40
4.000000000000028
  0
CIRCLE
  5
74A
330
645
100
AcDbEntity
  8
0
  6
Continuous
 62
     7
370
    15
100
AcDbCircle
 10
1762.308622462142
 20
1208.761186164815
 30
0.0
 40
2.999999999999971
  0
CIRCLE
  5
74B
330
645
100
AcDbEntity
  8
0
  6
Continuous
 62
     7
370
    15
100
AcDbCircle
 10
1662.308622462142
 20
1208.761186164815
 30
0.0
 40
3.0
  0
ENDBLK
  5
647
330
645
100
AcDbEntity
  8
0
100
AcDbBlockEnd
  0
BLOCK
  5
74E
330
74D
100
AcDbEntity
  8
0
100
AcDbBlockBegin
  2
3
 70
     0
 10
0.0
 20
0.0
 30
0.0
  3
3
  1

  0
LINE
  5
750
330
74D
100
AcDbEntity
  8
0
  6
Continuous
 62
     7
370
    15
100
AcDbLine
 10
1633.162461054934
 20
1256.046370917136
 30
0.0
 11
1633.162461054934
 21
1252.346370917136
 31
0.0
  0
LINE
  5
751
330
74D
100
AcDbEntity
  8
0
  6
Continuous
 62
     7
370
    15
100
AcDbLine
 10
1641.082461054934
 20
1252.346370917136
 30
0.0
 11
1641.082461054934
 21
1256.046370917136
 31
0.0
  0
LINE
  5
752
330
74D
100
AcDbEntity
  8
0
  6
Continuous
 62
     7
370
    15
100
AcDbLine
 10
1632.122461054934
 20
1252.346370917136
 30
0.0
 11
1632.122461054934
 21
1237.346370917136
 31
0.0
  0
LINE
  5
753
330
74D
100
AcDbEntity
  8
0
  6
Continuous
 62
     7
370
    15
100
AcDbLine
 10
1632.122461054934
 20
1252.346370917136
 30
0.0
 11
1642.122461054934
 21
1252.346370917136
 31
0.0
  0
LINE
  5
754
330
74D
100
AcDbEntity
  8
0
  6
Continuous
 62
     7
370
    15
100
AcDbLine
 10
1642.122461054934
 20
1252.346370917136
 30
0.0
 11
1642.122461054934
 21
1237.346370917136
 31
0.0
  0
LINE
  5
755
330
74D
100
AcDbEntity
  8
0
  6
Continuous
 62
     7
370
    15
100
AcDbLine
 10
1642.122461054934
 20
1237.346370917136
 30
0.0
 11
1632.122461054934
 21
1237.346370917136
 31
0.0
  0
LINE
  5
756
330
74D
100
AcDbEntity
  8
0
  6
Continuous
 62
     7
370
    15
100
AcDbLine
 10
1635.972461054935
 20
1256.046370917136
 30
0.0
 11
1633.162461054934
 21
1256.046370917136
 31
0.0
  0
LINE
  5
757
330
74D
100
AcDbEntity
  8
0
  6
Continuous
 62
     7
370
    15
100
AcDbLine
 10
1636.700401523468
 20
1254.046370917136
 30
0.0
 11
1635.972461054936
 21
1256.046370917137
 31
0.0
  0
LINE
  5
758
330
74D
100
AcDbEntity
  8
0
  6
Continuous
 62
     7
370
    15
100
AcDbLine
 10
1638.272461054936
 20
1256.046370917136
 30
0.0
 11
1637.544520586403
 21
1254.046370917136
 31
0.0
  0
LINE
  5
759
330
74D
100
AcDbEntity
  8
0
  6
Continuous
 62
     7
370
    15
100
AcDbLine
 10
1641.082461054934
 20
1256.046370917136
 30
0.0
 11
1638.272461054936
 21
1256.046370917136
 31
0.0
  0
LINE
  5
75A
330
74D
100
AcDbEntity
  8
0
  6
Continuous
 62
     7
370
    15
100
AcDbLine
 10
1637.544520586403
 20
1254.046370917136
 30
0.0
 11
1636.700401523468
 21
1254.046370917136
 31
0.0
  0
ENDBLK
  5
74F
330
74D
100
AcDbEntity
  8
0
100
AcDbBlockEnd
  0
BLOCK
  5
75D
330
75C
100
AcDbEntity
  8
0
100
AcDbBlockBegin
  2
4
 70
     0
 10
0.0
 20
0.0
 30
0.0
  3
4
  1

  0
LINE
  5
75F
330
75C
100
AcDbEntity
  8
0
  6
Continuous
 62
     7
370
    15
100
AcDbLine
 10
1866.202451379903
 20
1222.340118140297
 30
0.0
 11
1866.202451379903
 21
1219.31891713632
 31
0.0
  0
LINE
  5
760
330
75C
100
AcDbEntity
  8
0
  6
Continuous
 62
     7
370
    15
100
AcDbLine
 10
1874.122451379903
 20
1219.31891713632
 30
0.0
 11
1874.122451379903
 21
1222.340118140297
 31
0.0
  0
LINE
  5
761
330
75C
100
AcDbEntity
  8
0
  6
Continuous
 62
     7
370
    15
100
AcDbLine
 10
1857.363616615072
 20
1227.442668839189
 30
0.0
 11
1857.363616615072
 21
1224.421467835212
 31
0.0
  0
LINE
  5
762
330
75C
100
AcDbEntity
  8
0
  6
Continuous
 62
     7
370
    15
100
AcDbLine
 10
1865.283616615071
 20
1224.421467835212
 30
0.0
 11
1865.283616615071
 21
1227.442668839189
 31
0.0
  0
LINE
  5
763
330
75C
100
AcDbEntity
  8
0
  6
Continuous
 62
     7
370
    15
100
AcDbLine
 10
1848.52478185024
 20
1232.545219538081
 30
0.0
 11
1848.52478185024
 21
1229.524018534104
 31
0.0
  0
LINE
  5
764
330
75C
100
AcDbEntity
  8
0
  6
Continuous
 62
     7
370
    15
100
AcDbLine
 10
1856.44478185024
 20
1229.524018534104
 30
0.0
 11
1856.44478185024
 21
1232.545219538081
 31
0.0
  0
LINE
  5
765
330
75C
100
AcDbEntity
  8
0
  6
Continuous
 62
     7
370
    15
100
AcDbLine
 10
1839.685947085408
 20
1237.647770236973
 30
0.0
 11
1839.685947085408
 21
1234.626569232996
 31
0.0
  0
LINE
  5
766
330
75C
100
AcDbEntity
  8
0
  6
Continuous
 62
     7
370
    15
100
AcDbLine
 10
1847.605947085408
 20
1234.626569232996
 30
0.0
 11
1847.605947085408
 21
1237.647770236973
 31
0.0
  0
LINE
  5
767
330
75C
100
AcDbEntity
  8
0
  6
Continuous
 62
     7
370
    15
100
AcDbLine
 10
1830.847112320576
 20
1242.750320935865
 30
0.0
 11
1830.847112320576
 21
1239.729119931888
 31
0.0
  0
LINE
  5
768
330
75C
100
AcDbEntity
  8
0
  6
Continuous
 62
     7
370
    15
100
AcDbLine
 10
1838.767112320576
 20
1239.729119931888
 30
0.0
 11
1838.767112320576
 21
1242.750320935865
 31
0.0
  0
LINE
  5
769
330
75C
100
AcDbEntity
  8
0
  6
Continuous
 62
     7
370
    15
100
AcDbLine
 10
1822.008277555744
 20
1247.852871634757
 30
0.0
 11
1822.008277555744
 21
1244.83167063078
 31
0.0
  0
LINE
  5
76A
330
75C
100
AcDbEntity
  8
0
  6
Continuous
 62
     7
370
    15
100
AcDbLine
 10
1829.928277555744
 20
1244.83167063078
 30
0.0
 11
1829.928277555744
 21
1247.852871634757
 31
0.0
  0
LINE
  5
76B
330
75C
100
AcDbEntity
  8
0
  6
Continuous
 62
     7
370
    15
100
AcDbLine
 10
1813.169442790913
 20
1252.955422333649
 30
0.0
 11
1813.169442790913
 21
1249.934221329671
 31
0.0
  0
LINE
  5
76C
330
75C
100
AcDbEntity
  8
0
  6
Continuous
 62
     7
370
    15
100
AcDbLine
 10
1821.089442790912
 20
1249.934221329671
 30
0.0
 11
1821.089442790912
 21
1252.955422333649
 31
0.0
  0
LWPOLYLINE
  5
76D
330
75C
100
AcDbEntity
  8
0
  6
Continuous
 62
     7
370
    15
100
AcDbPolyline
 90
       52
 70
   128
 43
0.0
 10
1845.236937343078
 20
1223.338705296561
 10
1845.265074765375
 20
1222.795659559109
 10
1845.349060497624
 20
1222.228359065202
 10
1845.487621401737
 20
1221.645403512055
 10
1845.678657035648
 20
1221.055629911621
 10
1845.919271493876
 20
1220.467978630501
 10
1846.205817306506
 20
1219.891357863096
 10
1846.533950731105
 20
1219.334508592468
 10
1846.898697599438
 20
1218.805872085936
 10
1847.294528720783
 20
1218.313461934078
 10
1847.715443698829
 20
1217.864742572862
 10
1848.155061891566
 20
1217.466516130403
 10
1848.606719135313
 20
1217.124819313639
 10
1849.06356876665
 20
1216.844831898006
 10
1849.518685410853
 20
1216.630798207322
 10
1849.965169963516
 20
1216.485962774164
 10
1850.396254173941
 20
1216.41252115606
 10
1850.805403244922
 20
1216.41158665308
 10
1851.186414893606
 20
1216.483173431336
 10
1851.533513371781
 20
1216.626196308241
 10
1851.841437020331
 20
1216.83848720277
 10
1852.105518030623
 20
1217.11682800136
 10
1852.321753203731
 20
1217.45699934123
 10
1852.486864634849
 20
1217.853844571618
 10
1852.598349402987
 20
1218.301347923354
 10
1852.6545175127
 20
1218.792725701785
 10
1852.6545175127
 20
1219.320529120673
 10
1852.598349402987
 20
1219.8767572182
 10
1852.486864634849
 20
1220.452978143397
 10
1852.321753203731
 20
1221.040456974404
 10
1852.105518030623
 20
1221.630288130986
 10
1851.84143702033
 20
1222.21353037405
 10
1851.533513371781
 20
1222.781342345717
 10
1851.186414893606
 20
1223.325116595289
 10
1850.805403244922
 20
1223.836610059439
 10
1850.396254173941
 20
1224.308069018635
 10
1849.965169963516
 20
1224.732346635637
 10
1849.518685410853
 20
1225.103011294255
 10
1849.06356876665
 20
1225.414444096098
 10
1848.606719135313
 20
1225.661924037349
 10
1848.155061891566
 20
1225.841699574365
 10
1847.715443698829
 20
1225.951045493258
 10
1847.294528720783
 20
1225.988304221359
 10
1846.898697599438
 20
1225.952910954329
 10
1846.533950731105
 20
1225.845402218018
 10
1846.205817306506
 20
1225.66740773528
 10
1845.919271493876
 20
1225.421625721037
 10
1845.678657035648
 20
1225.111781980088
 10
1845.487621401737
 20
1224.742573427707
 10
1845.349060497624
 20
1224.3195968892
 10
1845.265074765375
 20
1223.84926425773
 10
1845.236937343078
 20
1223.338705296561
  0
LWPOLYLINE
  5
76E
330
75C
100
AcDbEntity
  8
0
  6
Continuous
 62
     7
370
    15
100
AcDbPolyline
 90
       47
 70
   128
 43
0.0
 10
1843.115616999518
 20
1224.563317464295
 10
1843.087626368966
 20
1225.052015022737
 10
1843.004175889798
 20
1225.563926364458
 10
1842.866820086546
 20
1226.089515549736
 10
1842.678117637937
 20
1226.618991846502
 10
1842.441583713551
 20
1227.142492113154
 10
1842.161624492858
 20
1227.650264530226
 10
1841.843455086438
 20
1228.132850258331
 10
1841.493002388333
 20
1228.58125963844
 10
1841.116794669226
 20
1228.987139652224
 10
1840.721839967112
 20
1229.342929522984
 10
1840.315495540808
 20
1229.642001558605
 10
1839.905330818143
 20
1229.87878461293
 10
1839.498986391839
 20
1230.048867865668
 10
1839.104031689725
 20
1230.149082987632
 10
1838.727823970617
 20
1230.177563160711
 10
1838.377371272512
 20
1230.133777853169
 10
1838.059201866093
 20
1230.01854270244
 10
1837.7792426454
 20
1229.834004321349
 10
1837.542708721013
 20
1229.583600310776
 10
1837.354006272405
 20
1229.271995223655
 10
1837.216650469152
 20
1228.904993673179
 10
1837.133199989984
 20
1228.489432203841
 10
1837.105209359432
 20
1228.033051939542
 10
1837.133199989984
 20
1227.544354381101
 10
1837.216650469152
 20
1227.032443039379
 10
1837.354006272405
 20
1226.506853854101
 10
1837.542708721014
 20
1225.977377557336
 10
1837.7792426454
 20
1225.453877290683
 10
1838.059201866093
 20
1224.946104873611
 10
1838.377371272512
 20
1224.463519145507
 10
1838.727823970618
 20
1224.015109765398
 10
1839.104031689725
 20
1223.609229751613
 10
1839.498986391839
 20
1223.253439880854
 10
1839.905330818143
 20
1222.954367845233
 10
1840.315495540808
 20
1222.717584790907
 10
1840.721839967112
 20
1222.547501538169
 10
1841.116794669226
 20
1222.447286416206
 10
1841.493002388333
 20
1222.418806243126
 10
1841.843455086438
 20
1222.462591550668
 10
1842.161624492858
 20
1222.577826701397
 10
1842.441583713551
 20
1222.762365082488
 10
1842.678117637937
 20
1223.012769093061
 10
1842.866820086546
 20
1223.324374180182
 10
1843.004175889798
 20
1223.691375730658
 10
1843.087626368966
 20
1224.106937199996
 10
1843.115616999518
 20
1224.563317464295
  0
LWPOLYLINE
  5
76F
330
75C
100
AcDbEntity
  8
0
  6
Continuous
 62
     7
370
    15
100
AcDbPolyline
 90
       47
 70
   128
 43
0.0
 10
1834.276782234686
 20
1229.665868163187
 10
1834.248791604134
 20
1230.154565721629
 10
1834.165341124966
 20
1230.66647706335
 10
1834.027985321714
 20
1231.192066248628
 10
1833.839282873105
 20
1231.721542545394
 10
1833.602748948718
 20
1232.245042812046
 10
1833.322789728026
 20
1232.752815229118
 10
1833.004620321607
 20
1233.235400957223
 10
1832.654167623501
 20
1233.683810337331
 10
1832.277959904394
 20
1234.089690351116
 10
1831.88300520228
 20
1234.445480221875
 10
1831.476660775976
 20
1234.744552257496
 10
1831.066496053311
 20
1234.981335311822
 10
1830.660151627007
 20
1235.15141856456
 10
1830.265196924893
 20
1235.251633686523
 10
1829.888989205786
 20
1235.280113859603
 10
1829.53853650768
 20
1235.236328552061
 10
1829.22036710126
 20
1235.121093401332
 10
1828.940407880568
 20
1234.936555020241
 10
1828.703873956182
 20
1234.686151009668
 10
1828.515171507573
 20
1234.374545922547
 10
1828.377815704321
 20
1234.007544372071
 10
1828.294365225152
 20
1233.591982902733
 10
1828.266374594601
 20
1233.135602638434
 10
1828.294365225152
 20
1232.646905079992
 10
1828.377815704321
 20
1232.134993738271
 10
1828.515171507573
 20
1231.609404552993
 10
1828.703873956182
 20
1231.079928256228
 10
1828.940407880568
 20
1230.556427989575
 10
1829.22036710126
 20
1230.048655572503
 10
1829.53853650768
 20
1229.566069844399
 10
1829.888989205786
 20
1229.11766046429
 10
1830.265196924893
 20
1228.711780450505
 10
1830.660151627007
 20
1228.355990579746
 10
1831.066496053311
 20
1228.056918544125
 10
1831.476660775976
 20
1227.820135489799
 10
1831.88300520228
 20
1227.650052237061
 10
1832.277959904394
 20
1227.549837115098
 10
1832.654167623502
 20
1227.521356942018
 10
1833.004620321607
 20
1227.56514224956
 10
1833.322789728026
 20
1227.680377400289
 10
1833.602748948719
 20
1227.86491578138
 10
1833.839282873105
 20
1228.115319791953
 10
1834.027985321714
 20
1228.426924879074
 10
1834.165341124966
 20
1228.79392642955
 10
1834.248791604135
 20
1229.209487898888
 10
1834.276782234686
 20
1229.665868163187
  0
LWPOLYLINE
  5
770
330
75C
100
AcDbEntity
  8
0
  6
Continuous
 62
     7
370
    15
100
AcDbPolyline
 90
       47
 70
   128
 43
0.0
 10
1854.782878889096
 20
1217.827950541758
 10
1854.810869519648
 20
1217.339252983317
 10
1854.894319998816
 20
1216.827341641596
 10
1855.031675802068
 20
1216.301752456318
 10
1855.220378250677
 20
1215.772276159552
 10
1855.456912175064
 20
1215.248775892899
 10
1855.736871395756
 20
1214.741003475827
 10
1856.055040802176
 20
1214.258417747723
 10
1856.405493500281
 20
1213.810008367614
 10
1856.781701219388
 20
1213.404128353829
 10
1857.176655921502
 20
1213.04833848307
 10
1857.583000347807
 20
1212.749266447449
 10
1857.993165070471
 20
1212.512483393124
 10
1858.399509496775
 20
1212.342400140385
 10
1858.79446419889
 20
1212.242185018422
 10
1859.170671917997
 20
1212.213704845343
 10
1859.521124616102
 20
1212.257490152884
 10
1859.839294022522
 20
1212.372725303614
 10
1860.119253243214
 20
1212.557263684704
 10
1860.355787167601
 20
1212.807667695277
 10
1860.544489616209
 20
1213.119272782398
 10
1860.681845419462
 20
1213.486274332874
 10
1860.76529589863
 20
1213.901835802212
 10
1860.793286529182
 20
1214.358216066512
 10
1860.76529589863
 20
1214.846913624953
 10
1860.681845419462
 20
1215.358824966674
 10
1860.544489616209
 20
1215.884414151952
 10
1860.3557871676
 20
1216.413890448718
 10
1860.119253243214
 20
1216.93739071537
 10
1859.839294022522
 20
1217.445163132443
 10
1859.521124616102
 20
1217.927748860547
 10
1859.170671917997
 20
1218.376158240656
 10
1858.79446419889
 20
1218.78203825444
 10
1858.399509496775
 20
1219.1378281252
 10
1857.993165070471
 20
1219.436900160821
 10
1857.583000347807
 20
1219.673683215146
 10
1857.176655921502
 20
1219.843766467884
 10
1856.781701219388
 20
1219.943981589848
 10
1856.405493500281
 20
1219.972461762927
 10
1856.055040802176
 20
1219.928676455385
 10
1855.736871395756
 20
1219.813441304656
 10
1855.456912175064
 20
1219.628902923565
 10
1855.220378250677
 20
1219.378498912992
 10
1855.031675802068
 20
1219.066893825871
 10
1854.894319998816
 20
1218.699892275395
 10
1854.810869519648
 20
1218.284330806058
 10
1854.782878889096
 20
1217.827950541758
  0
LWPOLYLINE
  5
771
330
75C
100
AcDbEntity
  8
0
  6
Continuous
 62
     7
370
    15
100
AcDbPolyline
 90
       47
 70
   128
 43
0.0
 10
1869.632121294014
 20
1209.25566536762
 10
1869.604130663462
 20
1209.744362926061
 10
1869.520680184294
 20
1210.256274267782
 10
1869.383324381042
 20
1210.78186345306
 10
1869.194621932433
 20
1211.311339749826
 10
1868.958088008046
 20
1211.834840016478
 10
1868.678128787354
 20
1212.342612433551
 10
1868.359959380934
 20
1212.825198161655
 10
1868.009506682829
 20
1213.273607541764
 10
1867.633298963722
 20
1213.679487555548
 10
1867.238344261607
 20
1214.035277426308
 10
1866.831999835303
 20
1214.334349461929
 10
1866.421835112638
 20
1214.571132516254
 10
1866.015490686334
 20
1214.741215768993
 10
1865.62053598422
 20
1214.841430890956
 10
1865.244328265113
 20
1214.869911064035
 10
1864.893875567008
 20
1214.826125756493
 10
1864.575706160588
 20
1214.710890605764
 10
1864.295746939896
 20
1214.526352224673
 10
1864.059213015509
 20
1214.2759482141
 10
1863.8705105669
 20
1213.964343126979
 10
1863.733154763648
 20
1213.597341576504
 10
1863.64970428448
 20
1213.181780107166
 10
1863.621713653928
 20
1212.725399842866
 10
1863.64970428448
 20
1212.236702284425
 10
1863.733154763648
 20
1211.724790942704
 10
1863.8705105669
 20
1211.199201757426
 10
1864.059213015509
 20
1210.66972546066
 10
1864.295746939896
 20
1210.146225194007
 10
1864.575706160588
 20
1209.638452776935
 10
1864.893875567008
 20
1209.155867048831
 10
1865.244328265113
 20
1208.707457668722
 10
1865.62053598422
 20
1208.301577654937
 10
1866.015490686334
 20
1207.945787784178
 10
1866.421835112639
 20
1207.646715748557
 10
1866.831999835303
 20
1207.409932694232
 10
1867.238344261607
 20
1207.239849441493
 10
1867.633298963722
 20
1207.13963431953
 10
1868.009506682829
 20
1207.111154146451
 10
1868.359959380934
 20
1207.154939453993
 10
1868.678128787354
 20
1207.270174604722
 10
1868.958088008046
 20
1207.454712985812
 10
1869.194621932433
 20
1207.705116996385
 10
1869.383324381042
 20
1208.016722083506
 10
1869.520680184294
 20
1208.383723633982
 10
1869.604130663462
 20
1208.79928510332
 10
1869.632121294014
 20
1209.25566536762
  0
LWPOLYLINE
  5
772
330
75C
100
AcDbEntity
  8
0
  6
Continuous
 62
     7
370
    15
100
AcDbPolyline
 90
       52
 70
   128
 43
0.0
 10
1826.145054251041
 20
1234.360214806168
 10
1826.116916828744
 20
1234.90326054362
 10
1826.032931096494
 20
1235.470561037527
 10
1825.894370192381
 20
1236.053516590674
 10
1825.703334558471
 20
1236.643290191108
 10
1825.462720100242
 20
1237.230941472229
 10
1825.176174287613
 20
1237.807562239633
 10
1824.848040863013
 20
1238.364411510262
 10
1824.483293994681
 20
1238.893048016793
 10
1824.087462873335
 20
1239.385458168651
 10
1823.66654789529
 20
1239.834177529868
 10
1823.226929702553
 20
1240.232403972327
 10
1822.775272458805
 20
1240.57410078909
 10
1822.318422827468
 20
1240.854088204723
 10
1821.863306183265
 20
1241.068121895407
 10
1821.416821630603
 20
1241.212957328565
 10
1820.985737420178
 20
1241.286398946669
 10
1820.576588349197
 20
1241.287333449649
 10
1820.195576700513
 20
1241.215746671393
 10
1819.848478222338
 20
1241.072723794488
 10
1819.540554573788
 20
1240.860432899959
 10
1819.276473563496
 20
1240.582092101369
 10
1819.060238390387
 20
1240.241920761499
 10
1818.895126959269
 20
1239.845075531111
 10
1818.783642191132
 20
1239.397572179375
 10
1818.727474081419
 20
1238.906194400944
 10
1818.727474081419
 20
1238.378390982056
 10
1818.783642191132
 20
1237.822162884529
 10
1818.895126959269
 20
1237.245941959332
 10
1819.060238390387
 20
1236.658463128325
 10
1819.276473563496
 20
1236.068631971743
 10
1819.540554573788
 20
1235.485389728679
 10
1819.848478222338
 20
1234.917577757013
 10
1820.195576700513
 20
1234.37380350744
 10
1820.576588349197
 20
1233.862310043291
 10
1820.985737420178
 20
1233.390851084094
 10
1821.416821630603
 20
1232.966573467092
 10
1821.863306183265
 20
1232.595908808475
 10
1822.318422827468
 20
1232.284476006631
 10
1822.775272458805
 20
1232.03699606538
 10
1823.226929702553
 20
1231.857220528364
 10
1823.66654789529
 20
1231.747874609471
 10
1824.087462873336
 20
1231.71061588137
 10
1824.483293994681
 20
1231.7460091484
 10
1824.848040863014
 20
1231.853517884712
 10
1825.176174287613
 20
1232.031512367449
 10
1825.462720100242
 20
1232.277294381692
 10
1825.703334558471
 20
1232.587138122642
 10
1825.894370192381
 20
1232.956346675022
 10
1826.032931096494
 20
1233.37932321353
 10
1826.116916828744
 20
1233.849655844999
 10
1826.145054251041
 20
1234.360214806168
  0
LWPOLYLINE
  5
773
330
75C
100
AcDbEntity
  8
0
  6
Continuous
 62
     7
370
    15
100
AcDbPolyline
 90
       47
 70
   128
 43
0.0
 10
1816.599112705022
 20
1239.870969560971
 10
1816.571122074471
 20
1240.359667119413
 10
1816.487671595303
 20
1240.871578461134
 10
1816.35031579205
 20
1241.397167646411
 10
1816.161613343442
 20
1241.926643943177
 10
1815.925079419055
 20
1242.45014420983
 10
1815.645120198363
 20
1242.957916626902
 10
1815.326950791943
 20
1243.440502355007
 10
1814.976498093838
 20
1243.888911735115
 10
1814.60029037473
 20
1244.2947917489
 10
1814.205335672616
 20
1244.650581619659
 10
1813.798991246312
 20
1244.94965365528
 10
1813.388826523647
 20
1245.186436709606
 10
1812.982482097343
 20
1245.356519962344
 10
1812.587527395229
 20
1245.456735084307
 10
1812.211319676122
 20
1245.485215257386
 10
1811.860866978017
 20
1245.441429949845
 10
1811.542697571597
 20
1245.326194799116
 10
1811.262738350905
 20
1245.141656418025
 10
1811.026204426518
 20
1244.891252407452
 10
1810.837501977909
 20
1244.579647320331
 10
1810.700146174657
 20
1244.212645769855
 10
1810.616695695489
 20
1243.797084300517
 10
1810.588705064937
 20
1243.340704036218
 10
1810.616695695489
 20
1242.852006477776
 10
1810.700146174657
 20
1242.340095136055
 10
1810.837501977909
 20
1241.814505950778
 10
1811.026204426518
 20
1241.285029654012
 10
1811.262738350905
 20
1240.761529387359
 10
1811.542697571597
 20
1240.253756970287
 10
1811.860866978017
 20
1239.771171242182
 10
1812.211319676122
 20
1239.322761862074
 10
1812.587527395229
 20
1238.916881848289
 10
1812.982482097343
 20
1238.56109197753
 10
1813.388826523647
 20
1238.262019941908
 10
1813.798991246312
 20
1238.025236887583
 10
1814.205335672616
 20
1237.855153634845
 10
1814.60029037473
 20
1237.754938512882
 10
1814.976498093838
 20
1237.726458339802
 10
1815.326950791943
 20
1237.770243647344
 10
1815.645120198363
 20
1237.885478798073
 10
1815.925079419055
 20
1238.070017179164
 10
1816.161613343442
 20
1238.320421189737
 10
1816.35031579205
 20
1238.632026276858
 10
1816.487671595303
 20
1238.999027827334
 10
1816.571122074471
 20
1239.414589296672
 10
1816.599112705022
 20
1239.870969560971
  0
LINE
  5
774
330
75C
100
AcDbEntity
  8
0
  6
Continuous
 62
     7
370
    15
100
AcDbLine
 10
1879.354839535329
 20
1197.682111672072
 30
0.0
 11
1800.865986823622
 21
1242.992761878233
 31
0.0
  0
LINE
  5
775
330
75C
100
AcDbEntity
  8
0
  6
Continuous
 62
     7
370
    15
100
AcDbLine
 10
1800.865986823622
 20
1242.992761878233
 30
0.0
 11
1800.865986823622
 21
1255.240874056519
 31
0.0
  0
LINE
  5
776
330
75C
100
AcDbEntity
  8
0
  6
Continuous
 62
     7
370
    15
100
AcDbLine
 10
1800.865986823622
 20
1255.240874056519
 30
0.0
 11
1879.354839535329
 21
1209.930223850359
 31
0.0
  0
LINE
  5
777
330
75C
100
AcDbEntity
  8
0
  6
Continuous
 62
     7
370
    15
100
AcDbLine
 10
1879.354839535329
 20
1209.930223850359
 30
0.0
 11
1879.354839535329
 21
1197.682111672072
 31
0.0
  0
LINE
  5
778
330
75C
100
AcDbEntity
  8
0
  6
Continuous
 62
     7
370
    15
100
AcDbLine
 10
1886.425907347194
 20
1201.764152231186
 30
0.0
 11
1879.354839535329
 21
1197.682111672072
 31
0.0
  0
LINE
  5
779
330
75C
100
AcDbEntity
  8
0
  6
Continuous
 62
     7
370
    15
100
AcDbLine
 10
1879.354839535329
 20
1209.930223850359
 30
0.0
 11
1886.425907347194
 21
1214.012264409472
 31
0.0
  0
LINE
  5
77A
330
75C
100
AcDbEntity
  8
0
  6
Continuous
 62
     7
370
    15
100
AcDbLine
 10
1886.425907347194
 20
1214.012264409472
 30
0.0
 11
1886.425907347194
 21
1201.764152231186
 31
0.0
  0
LWPOLYLINE
  5
77B
330
75C
100
AcDbEntity
  8
0
  6
Continuous
 62
     7
370
    15
100
AcDbPolyline
 90
       46
 70
   128
 43
0.0
 10
1805.462180901335
 20
1256.669588252209
 10
1805.096065985891
 20
1256.42645369982
 10
1804.792129197523
 20
1256.15627057444
 10
1804.556286320092
 20
1255.864297683275
 10
1804.39312776694
 20
1255.556217946537
 10
1804.305829233714
 20
1255.238027785867
 10
1804.296089887062
 20
1254.915920410806
 10
1804.36409929229
 20
1254.596165275019
 10
1804.508533723683
 20
1254.284986048506
 10
1804.726581929327
 20
1253.988439480951
 10
1805.013999848925
 20
1253.712297513974
 10
1805.365193219604
 20
1253.461934936857
 10
1805.773326461881
 20
1253.242224772379
 10
1806.23045572644
 20
1253.057443428976
 10
1806.727683512123
 20
1252.911187465311
 10
1807.255331845671
 20
1252.806303587353
 10
1807.80313065246
 20
1252.744833240482
 10
1808.36041765183
 20
1252.72797287508
 10
1808.916345886242
 20
1252.75605065898
 10
1809.460094844972
 20
1252.828520090058
 10
1809.981081073044
 20
1252.943970633269
 10
1810.469164166141
 20
1253.100155175113
 10
1810.914844142043
 20
1253.29403376114
 10
1811.309446346972
 20
1253.521832765208
 10
1811.645290297862
 20
1253.779118338818
 10
1811.915839174227
 20
1254.06088271094
 10
1812.115827049933
 20
1254.361641658572
 10
1812.241361388461
 20
1254.675541250906
 10
1812.289998806706
 20
1254.996471789433
 10
1812.260792632646
 20
1255.318186726274
 10
1812.154311331237
 20
1255.634424246129
 10
1811.972627439891
 20
1255.939029145388
 10
1811.719277228889
 20
1256.226072636171
 10
1811.399191871909
 20
1256.489967743435
 10
1811.018601466331
 20
1256.725578049096
 10
1810.584913771485
 20
1256.928317666555
 10
1810.106570025039
 20
1257.094240499771
 10
1809.592880643909
 20
1257.220117049532
 10
1809.053844007587
 20
1257.303497271977
 10
1808.499951851052
 20
1257.342758265922
 10
1807.94198505509
 20
1257.337135860776
 10
1807.390803808705
 20
1257.286739490261
 10
1806.857136227899
 20
1257.192550062405
 10
1806.351369545095
 20
1257.056400867281
 10
1805.883347933473
 20
1256.880941894105
 10
1805.462180901335
 20
1256.669588252209
  0
LINE
  5
77C
330
75C
100
AcDbEntity
  8
0
  6
Continuous
 62
     7
370
    15
100
AcDbLine
 10
1800.865986823622
 20
1255.240874056519
 30
0.0
 11
1807.937054635488
 21
1259.322914615633
 31
0.0
  0
LINE
  5
77D
330
75C
100
AcDbEntity
  8
0
  6
Continuous
 62
     7
370
    15
100
AcDbLine
 10
1807.937054635488
 20
1259.322914615633
 30
0.0
 11
1815.403151126941
 21
1255.012828853871
 31
0.0
  0
LINE
  5
77E
330
75C
100
AcDbEntity
  8
0
  6
Continuous
 62
     7
370
    15
100
AcDbLine
 10
1821.089442790912
 20
1251.730202548926
 30
0.0
 11
1824.241985891773
 21
1249.91027815498
 31
0.0
  0
LINE
  5
77F
330
75C
100
AcDbEntity
  8
0
  6
Continuous
 62
     7
370
    15
100
AcDbLine
 10
1829.928277555744
 20
1246.627651850034
 30
0.0
 11
1833.080820656605
 21
1244.807727456088
 31
0.0
  0
LINE
  5
780
330
75C
100
AcDbEntity
  8
0
  6
Continuous
 62
     7
370
    15
100
AcDbLine
 10
1838.767112320576
 20
1241.525101151143
 30
0.0
 11
1841.919655421437
 21
1239.705176757196
 31
0.0
  0
LINE
  5
781
330
75C
100
AcDbEntity
  8
0
  6
Continuous
 62
     7
370
    15
100
AcDbLine
 10
1847.605947085408
 20
1236.422550452251
 30
0.0
 11
1850.758490186269
 21
1234.602626058304
 31
0.0
  0
LINE
  5
782
330
75C
100
AcDbEntity
  8
0
  6
Continuous
 62
     7
370
    15
100
AcDbLine
 10
1856.44478185024
 20
1231.319999753359
 30
0.0
 11
1859.597324951101
 21
1229.500075359412
 31
0.0
  0
LINE
  5
783
330
75C
100
AcDbEntity
  8
0
  6
Continuous
 62
     7
370
    15
100
AcDbLine
 10
1865.283616615071
 20
1226.217449054467
 30
0.0
 11
1868.436159715932
 21
1224.39752466052
 31
0.0
  0
LINE
  5
784
330
75C
100
AcDbEntity
  8
0
  6
Continuous
 62
     7
370
    15
100
AcDbLine
 10
1874.122451379903
 20
1221.114898355575
 30
0.0
 11
1886.425907347194
 21
1214.012264409472
 31
0.0
  0
LWPOLYLINE
  5
785
330
75C
100
AcDbEntity
  8
0
  6
Continuous
 62
     7
370
    15
100
AcDbPolyline
 90
       46
 70
   128
 43
0.0
 10
1876.172859019989
 20
1215.849182661073
 10
1875.806744104546
 20
1215.606048108685
 10
1875.502807316178
 20
1215.335864983304
 10
1875.266964438747
 20
1215.043892092139
 10
1875.103805885595
 20
1214.735812355401
 10
1875.016507352368
 20
1214.417622194732
 10
1875.006768005717
 20
1214.095514819671
 10
1875.074777410945
 20
1213.775759683883
 10
1875.219211842338
 20
1213.46458045737
 10
1875.437260047982
 20
1213.168033889815
 10
1875.724677967579
 20
1212.891891922839
 10
1876.075871338259
 20
1212.641529345722
 10
1876.484004580536
 20
1212.421819181244
 10
1876.941133845095
 20
1212.237037837841
 10
1877.438361630778
 20
1212.090781874175
 10
1877.966009964325
 20
1211.985897996217
 10
1878.513808771115
 20
1211.924427649347
 10
1879.071095770484
 20
1211.907567283944
 10
1879.627024004896
 20
1211.935645067845
 10
1880.170772963626
 20
1212.008114498922
 10
1880.691759191698
 20
1212.123565042133
 10
1881.179842284796
 20
1212.279749583977
 10
1881.625522260697
 20
1212.473628170005
 10
1882.020124465627
 20
1212.701427174072
 10
1882.355968416517
 20
1212.958712747683
 10
1882.626517292882
 20
1213.240477119805
 10
1882.826505168587
 20
1213.541236067436
 10
1882.952039507116
 20
1213.85513565977
 10
1883.000676925361
 20
1214.176066198298
 10
1882.971470751301
 20
1214.497781135139
 10
1882.864989449891
 20
1214.814018654994
 10
1882.683305558545
 20
1215.118623554253
 10
1882.429955347544
 20
1215.405667045035
 10
1882.109869990563
 20
1215.6695621523
 10
1881.729279584985
 20
1215.90517245796
 10
1881.295591890139
 20
1216.107912075419
 10
1880.817248143694
 20
1216.273834908636
 10
1880.303558762564
 20
1216.399711458396
 10
1879.764522126242
 20
1216.483091680842
 10
1879.210629969707
 20
1216.522352674786
 10
1878.652663173745
 20
1216.51673026964
 10
1878.10148192736
 20
1216.466333899126
 10
1877.567814346554
 20
1216.37214447127
 10
1877.06204766375
 20
1216.235995276146
 10
1876.594026052127
 20
1216.06053630297
 10
1876.172859019989
 20
1215.849182661073
  0
LWPOLYLINE
  5
786
330
75C
100
AcDbEntity
  8
0
  6
Continuous
 62
     7
370
    15
100
AcDbPolyline
 90
       18
 70
   128
 43
0.0
 10
1867.362308526405
 20
1217.702429074911
 10
1867.789311820519
 20
1217.488832355563
 10
1868.264625392492
 20
1217.312490884822
 10
1868.778573228691
 20
1217.176994466506
 10
1869.320692833274
 20
1217.085101416953
 10
1869.879948214434
 20
1217.038682413653
 10
1870.444954545372
 20
1217.038682413653
 10
1871.004209926533
 20
1217.085101416953
 10
1871.546329531116
 20
1217.176994466506
 10
1872.060277367315
 20
1217.312490884822
 10
1872.535590939288
 20
1217.488832355563
 10
1872.962594233402
 20
1217.702429074911
 10
1873.332594693964
 20
1217.948932829623
 10
1873.63806017859
 20
1218.223325514111
 10
1873.872772290902
 20
1218.520021284601
 10
1874.031952969149
 20
1218.832980270807
 10
1874.11236175376
 20
1219.155831530269
 10
1874.122451379903
 20
1219.31891713632
  0
ARC
  5
787
330
75C
100
AcDbEntity
  8
0
  6
Continuous
 62
     7
370
    15
100
AcDbCircle
 10
1868.167087331138
 20
1219.50422374574
 30
0.0
 40
1.97335576122967
100
AcDbArc
 50
185.3882594288907
 51
245.9318815287269
  0
LWPOLYLINE
  5
788
330
75C
100
AcDbEntity
  8
0
  6
Continuous
 62
     7
370
    15
100
AcDbPolyline
 90
       18
 70
   128
 43
0.0
 10
1858.523473761573
 20
1222.804979773803
 10
1858.950477055687
 20
1222.591383054454
 10
1859.42579062766
 20
1222.415041583714
 10
1859.939738463859
 20
1222.279545165398
 10
1860.481858068442
 20
1222.187652115845
 10
1861.041113449603
 20
1222.141233112545
 10
1861.606119780541
 20
1222.141233112545
 10
1862.165375161701
 20
1222.187652115845
 10
1862.707494766284
 20
1222.279545165398
 10
1863.221442602483
 20
1222.415041583714
 10
1863.696756174456
 20
1222.591383054454
 10
1864.12375946857
 20
1222.804979773803
 10
1864.493759929132
 20
1223.051483528515
 10
1864.799225413758
 20
1223.325876213002
 10
1865.033937526071
 20
1223.622571983493
 10
1865.193118204317
 20
1223.935530969699
 10
1865.273526988928
 20
1224.258382229161
 10
1865.283616615071
 20
1224.421467835212
  0
ARC
  5
789
330
75C
100
AcDbEntity
  8
0
  6
Continuous
 62
     7
370
    15
100
AcDbCircle
 10
1859.328252566306
 20
1224.606774444632
 30
0.0
 40
1.973355761229316
100
AcDbArc
 50
185.3882594288907
 51
245.9318815287269
  0
LWPOLYLINE
  5
78A
330
75C
100
AcDbEntity
  8
0
  6
Continuous
 62
     7
370
    15
100
AcDbPolyline
 90
       18
 70
   128
 43
0.0
 10
1849.684638996741
 20
1227.907530472695
 10
1850.111642290855
 20
1227.693933753347
 10
1850.586955862828
 20
1227.517592282606
 10
1851.100903699027
 20
1227.38209586429
 10
1851.64302330361
 20
1227.290202814737
 10
1852.202278684771
 20
1227.243783811437
 10
1852.767285015709
 20
1227.243783811437
 10
1853.326540396869
 20
1227.290202814737
 10
1853.868660001452
 20
1227.38209586429
 10
1854.382607837651
 20
1227.517592282606
 10
1854.857921409625
 20
1227.693933753347
 10
1855.284924703738
 20
1227.907530472695
 10
1855.6549251643
 20
1228.154034227407
 10
1855.960390648926
 20
1228.428426911894
 10
1856.195102761239
 20
1228.725122682385
 10
1856.354283439486
 20
1229.038081668591
 10
1856.434692224096
 20
1229.360932928053
 10
1856.44478185024
 20
1229.524018534104
  0
ARC
  5
78B
330
75C
100
AcDbEntity
  8
0
  6
Continuous
 62
     7
370
    15
100
AcDbCircle
 10
1850.489417801474
 20
1229.709325143524
 30
0.0
 40
1.97335576122959
100
AcDbArc
 50
185.3882594288907
 51
245.9318815287269
  0
LWPOLYLINE
  5
78C
330
75C
100
AcDbEntity
  8
0
  6
Continuous
 62
     7
370
    15
100
AcDbPolyline
 90
       18
 70
   128
 43
0.0
 10
1840.845804231909
 20
1233.010081171587
 10
1841.272807526023
 20
1232.796484452238
 10
1841.748121097996
 20
1232.620142981498
 10
1842.262068934196
 20
1232.484646563182
 10
1842.804188538778
 20
1232.392753513629
 10
1843.363443919939
 20
1232.346334510329
 10
1843.928450250877
 20
1232.346334510329
 10
1844.487705632038
 20
1232.392753513629
 10
1845.02982523662
 20
1232.484646563182
 10
1845.543773072819
 20
1232.620142981498
 10
1846.019086644792
 20
1232.796484452238
 10
1846.446089938907
 20
1233.010081171587
 10
1846.816090399468
 20
1233.256584926299
 10
1847.121555884094
 20
1233.530977610786
 10
1847.356267996407
 20
1233.827673381277
 10
1847.515448674653
 20
1234.140632367483
 10
1847.595857459264
 20
1234.463483626945
 10
1847.605947085408
 20
1234.626569232996
  0
ARC
  5
78D
330
75C
100
AcDbEntity
  8
0
  6
Continuous
 62
     7
370
    15
100
AcDbCircle
 10
1841.650583036642
 20
1234.811875842416
 30
0.0
 40
1.973355761229303
100
AcDbArc
 50
185.3882594288907
 51
245.9318815287322
  0
LWPOLYLINE
  5
78E
330
75C
100
AcDbEntity
  8
0
  6
Continuous
 62
     7
370
    15
100
AcDbPolyline
 90
       18
 70
   128
 43
0.0
 10
1832.006969467077
 20
1238.112631870478
 10
1832.433972761191
 20
1237.89903515113
 10
1832.909286333165
 20
1237.72269368039
 10
1833.423234169364
 20
1237.587197262074
 10
1833.965353773946
 20
1237.495304212521
 10
1834.524609155107
 20
1237.448885209221
 10
1835.089615486045
 20
1237.448885209221
 10
1835.648870867206
 20
1237.495304212521
 10
1836.190990471789
 20
1237.587197262074
 10
1836.704938307988
 20
1237.72269368039
 10
1837.180251879961
 20
1237.89903515113
 10
1837.607255174075
 20
1238.112631870478
 10
1837.977255634637
 20
1238.359135625191
 10
1838.282721119263
 20
1238.633528309678
 10
1838.517433231575
 20
1238.930224080169
 10
1838.676613909822
 20
1239.243183066375
 10
1838.757022694433
 20
1239.566034325837
 10
1838.767112320576
 20
1239.729119931888
  0
ARC
  5
78F
330
75C
100
AcDbEntity
  8
0
  6
Continuous
 62
     7
370
    15
100
AcDbCircle
 10
1832.81174827181
 20
1239.914426541308
 30
0.0
 40
1.973355761229254
100
AcDbArc
 50
185.3882594288907
 51
245.9318815287322
  0
LWPOLYLINE
  5
790
330
75C
100
AcDbEntity
  8
0
  6
Continuous
 62
     7
370
    15
100
AcDbPolyline
 90
       18
 70
   128
 43
0.0
 10
1823.168134702245
 20
1243.21518256937
 10
1823.595137996359
 20
1243.001585850022
 10
1824.070451568333
 20
1242.825244379281
 10
1824.584399404532
 20
1242.689747960966
 10
1825.126519009115
 20
1242.597854911412
 10
1825.685774390275
 20
1242.551435908113
 10
1826.250780721213
 20
1242.551435908113
 10
1826.810036102374
 20
1242.597854911412
 10
1827.352155706957
 20
1242.689747960966
 10
1827.866103543156
 20
1242.825244379281
 10
1828.341417115129
 20
1243.001585850022
 10
1828.768420409243
 20
1243.21518256937
 10
1829.138420869805
 20
1243.461686324083
 10
1829.443886354431
 20
1243.73607900857
 10
1829.678598466744
 20
1244.032774779061
 10
1829.83777914499
 20
1244.345733765267
 10
1829.918187929601
 20
1244.668585024729
 10
1829.928277555744
 20
1244.83167063078
  0
ARC
  5
791
330
75C
100
AcDbEntity
  8
0
  6
Continuous
 62
     7
370
    15
100
AcDbCircle
 10
1823.972913506979
 20
1245.0169772402
 30
0.0
 40
1.973355761229189
100
AcDbArc
 50
185.3882594288907
 51
245.9318815287322
  0
LWPOLYLINE
  5
792
330
75C
100
AcDbEntity
  8
0
  6
Continuous
 62
     7
370
    15
100
AcDbPolyline
 90
       18
 70
   128
 43
0.0
 10
1814.329299937414
 20
1248.317733268262
 10
1814.756303231527
 20
1248.104136548914
 10
1815.231616803501
 20
1247.927795078173
 10
1815.7455646397
 20
1247.792298659858
 10
1816.287684244283
 20
1247.700405610304
 10
1816.846939625444
 20
1247.653986607005
 10
1817.411945956381
 20
1247.653986607005
 10
1817.971201337542
 20
1247.700405610304
 10
1818.513320942125
 20
1247.792298659858
 10
1819.027268778324
 20
1247.927795078173
 10
1819.502582350297
 20
1248.104136548914
 10
1819.929585644411
 20
1248.317733268262
 10
1820.299586104973
 20
1248.564237022974
 10
1820.605051589599
 20
1248.838629707462
 10
1820.839763701911
 20
1249.135325477953
 10
1820.998944380158
 20
1249.448284464159
 10
1821.079353164769
 20
1249.771135723621
 10
1821.089442790912
 20
1249.934221329671
  0
ARC
  5
793
330
75C
100
AcDbEntity
  8
0
  6
Continuous
 62
     7
370
    15
100
AcDbCircle
 10
1815.134078742147
 20
1250.119527939092
 30
0.0
 40
1.973355761229404
100
AcDbArc
 50
185.3882594288907
 51
245.9318815287269
  0
LWPOLYLINE
  5
794
330
75C
100
AcDbEntity
  8
0
  6
Continuous
 62
     7
370
    15
100
AcDbPolyline
 90
       19
 70
   128
 43
0.0
 10
1872.028746812364
 20
1220.32385939142
 10
1871.516438545911
 20
1220.191838368905
 10
1870.976953163996
 20
1220.102937435602
 10
1870.421119171411
 20
1220.058941003497
 10
1869.860093220873
 20
1220.06073216524
 10
1869.305136177636
 20
1220.108274968787
 10
1868.767387092365
 20
1220.200615139018
 10
1868.257639619051
 20
1220.335899231877
 10
1867.786125365709
 20
1220.511411836534
 10
1867.362308526405
 20
1220.723630078888
 10
1866.994695916763
 20
1220.968294332392
 10
1866.690666225878
 20
1221.24049371692
 10
1866.456321911897
 20
1221.534764669531
 10
1866.296366713997
 20
1221.845200608643
 10
1866.214011239333
 20
1222.165570490439
 10
1866.210908520002
 20
1222.489443877846
 10
1866.287120833523
 20
1222.810320011724
 10
1866.441118452807
 20
1223.121758293554
 10
1866.669810350714
 20
1223.417507560577
  0
ELLIPSE
  5
795
330
75C
100
AcDbEntity
  8
0
  6
Continuous
 62
     7
370
    15
100
AcDbEllipse
 10
1870.162451379903
 20
1219.76017658117
 30
0.0
 11
-3.558731157479682
 21
7.398056379326986
 31
0.0
210
0.0
220
0.0
230
0.9999999999999998
 40
0.2347860887583254
 41
4.487843998479222
 42
4.675709535131305
  0
ARC
  5
796
330
75C
100
AcDbEntity
  8
0
  6
Continuous
 62
     7
370
    15
100
AcDbCircle
 10
1871.090616398103
 20
1222.31483969461
 30
0.0
 40
3.728317987098967
100
AcDbArc
 50
294.6940103409302
 51
305.3006131263639
  0
ELLIPSE
  5
797
330
75C
100
AcDbEntity
  8
0
  6
Continuous
 62
     7
370
    15
100
AcDbEllipse
 10
1870.162451379903
 20
1219.76017658117
 30
0.0
 11
2.55520560768322
 21
10.59909328466008
 31
0.0
210
0.0
220
0.0
230
1.0
 40
0.2854313889643505
 41
4.735129962514775
 42
4.922995499166874
  0
LWPOLYLINE
  5
798
330
75C
100
AcDbEntity
  8
0
  6
Continuous
 62
     7
370
    15
100
AcDbPolyline
 90
       19
 70
   128
 43
0.0
 10
1868.296155947442
 20
1224.356376889174
 10
1868.808464213896
 20
1224.488397911689
 10
1869.347949595811
 20
1224.577298844993
 10
1869.903783588395
 20
1224.621295277097
 10
1870.464809538934
 20
1224.619504115354
 10
1871.019766582171
 20
1224.571961311808
 10
1871.557515667442
 20
1224.479621141576
 10
1872.067263140755
 20
1224.344337048718
 10
1872.538777394098
 20
1224.16882444406
 10
1872.962594233402
 20
1223.956606201706
 10
1873.330206843044
 20
1223.711941948202
 10
1873.634236533929
 20
1223.439742563674
 10
1873.868580847911
 20
1223.145471611063
 10
1874.02853604581
 20
1222.835035671951
 10
1874.110891520474
 20
1222.514665790155
 10
1874.113994239805
 20
1222.190792402748
 10
1874.037781926284
 20
1221.86991626887
 10
1873.883784307
 20
1221.558477987041
 10
1873.655092409093
 20
1221.262728720017
  0
ELLIPSE
  5
799
330
75C
100
AcDbEntity
  8
0
  6
Continuous
 62
     7
370
    15
100
AcDbEllipse
 10
1870.162451379903
 20
1219.76017658117
 30
0.0
 11
2.55520560768322
 21
10.59909328466008
 31
0.0
210
0.0
220
0.0
230
1.0
 40
0.2854313889643505
 41
1.192104749987191
 42
1.350900197841381
  0
LINE
  5
79A
330
75C
100
AcDbEntity
  8
0
  6
Continuous
 62
     7
370
    15
100
AcDbLine
 10
1868.783593156591
 20
1221.095095769767
 30
0.0
 11
1868.005775697285
 21
1221.54412023127
 31
0.0
  0
LINE
  5
79B
330
75C
100
AcDbEntity
  8
0
  6
Continuous
 62
     7
370
    15
100
AcDbLine
 10
1869.738187311192
 20
1221.646171245248
 30
0.0
 11
1868.783593156591
 21
1221.095095769767
 31
0.0
  0
LINE
  5
79C
330
75C
100
AcDbEntity
  8
0
  6
Continuous
 62
     7
370
    15
100
AcDbLine
 10
1869.738187311192
 20
1221.646171245248
 30
0.0
 11
1872.028746812364
 21
1220.32385939142
 31
0.0
  0
LINE
  5
79D
330
75C
100
AcDbEntity
  8
0
  6
Continuous
 62
     7
370
    15
100
AcDbLine
 10
1866.669810350714
 20
1223.417507560577
 30
0.0
 11
1868.960369851886
 21
1222.09519570675
 31
0.0
  0
LINE
  5
79E
330
75C
100
AcDbEntity
  8
0
  6
Continuous
 62
     7
370
    15
100
AcDbLine
 10
1868.005775697285
 20
1221.54412023127
 30
0.0
 11
1868.960369851886
 21
1222.09519570675
 31
0.0
  0
LINE
  5
79F
330
75C
100
AcDbEntity
  8
0
  6
Continuous
 62
     7
370
    15
100
AcDbLine
 10
1873.245085934397
 20
1219.272042292529
 30
0.0
 11
1872.248570609632
 21
1219.847318344421
 31
0.0
  0
LINE
  5
7A0
330
75C
100
AcDbEntity
  8
0
  6
Continuous
 62
     7
370
    15
100
AcDbLine
 10
1869.43535783579
 20
1221.471351510241
 30
0.0
 11
1869.158567054228
 21
1221.631139427255
 31
0.0
  0
LINE
  5
7A1
330
75C
100
AcDbEntity
  8
0
  6
Continuous
 62
     7
370
    15
100
AcDbLine
 10
1870.448929074654
 20
1221.235868758736
 30
0.0
 11
1871.052282043597
 21
1221.584177013757
 31
0.0
  0
LINE
  5
7A2
330
75C
100
AcDbEntity
  8
0
  6
Continuous
 62
     7
370
    15
100
AcDbLine
 10
1871.36453290792
 20
1222.585040573844
 30
0.0
 11
1873.655092409093
 21
1221.262728720017
 31
0.0
  0
LINE
  5
7A3
330
75C
100
AcDbEntity
  8
0
  6
Continuous
 62
     7
370
    15
100
AcDbLine
 10
1870.868118950992
 20
1220.993875594095
 30
0.0
 11
1871.36453290792
 21
1222.585040573844
 31
0.0
  0
LINE
  5
7A4
330
75C
100
AcDbEntity
  8
0
  6
Continuous
 62
     7
370
    15
100
AcDbLine
 10
1870.586715448615
 20
1223.034065035347
 30
0.0
 11
1868.296155947442
 21
1224.356376889174
 31
0.0
  0
LINE
  5
7A5
330
75C
100
AcDbEntity
  8
0
  6
Continuous
 62
     7
370
    15
100
AcDbLine
 10
1871.36453290792
 20
1222.585040573844
 30
0.0
 11
1872.319127062522
 21
1223.136116049324
 31
0.0
  0
LINE
  5
7A6
330
75C
100
AcDbEntity
  8
0
  6
Continuous
 62
     7
370
    15
100
AcDbLine
 10
1871.541309603216
 20
1223.585140510827
 30
0.0
 11
1872.319127062522
 21
1223.136116049325
 31
0.0
  0
LINE
  5
7A7
330
75C
100
AcDbEntity
  8
0
  6
Continuous
 62
     7
370
    15
100
AcDbLine
 10
1870.586715448615
 20
1223.034065035347
 30
0.0
 11
1871.541309603216
 21
1223.585140510827
 31
0.0
  0
LWPOLYLINE
  5
7A8
330
75C
100
AcDbEntity
  8
0
  6
Continuous
 62
     7
370
    15
100
AcDbPolyline
 90
       24
 70
   128
 43
0.0
 10
1864.686230771642
 20
1214.760535237281
 10
1864.649300330489
 20
1214.730454252629
 10
1864.412766406102
 20
1214.480050242056
 10
1864.224063957493
 20
1214.168445154935
 10
1864.086708154241
 20
1213.801443604459
 10
1864.003257675073
 20
1213.385882135121
 10
1863.975267044521
 20
1212.929501870822
 10
1864.003257675073
 20
1212.44080431238
 10
1864.086708154241
 20
1211.928892970659
 10
1864.224063957493
 20
1211.403303785381
 10
1864.412766406102
 20
1210.873827488615
 10
1864.649300330489
 20
1210.350327221963
 10
1864.929259551181
 20
1209.842554804891
 10
1865.247428957601
 20
1209.359969076787
 10
1865.597881655706
 20
1208.911559696678
 10
1865.974089374813
 20
1208.505679682893
 10
1866.369044076928
 20
1208.149889812134
 10
1866.775388503231
 20
1207.850817776513
 10
1867.185553225897
 20
1207.614034722187
 10
1867.591897652201
 20
1207.443951469449
 10
1867.986852354315
 20
1207.343736347486
 10
1868.363060073422
 20
1207.315256174406
 10
1868.713512771527
 20
1207.359041481948
 10
1868.921157566902
 20
1207.424632001165
  0
LINE
  5
7A9
330
75C
100
AcDbEntity
  8
0
  6
Continuous
 62
     7
370
    15
100
AcDbLine
 10
1869.268060542253
 20
1221.374772838416
 30
0.0
 11
1868.960369851886
 21
1222.09519570675
 31
0.0
  0
LINE
  5
7AA
330
75C
100
AcDbEntity
  8
0
  6
Continuous
 62
     7
370
    15
100
AcDbLine
 10
1870.586715448615
 20
1223.034065035347
 30
0.0
 11
1870.215264636912
 21
1221.370760367395
 31
0.0
  0
LINE
  5
7AB
330
75C
100
AcDbEntity
  8
0
  6
Continuous
 62
     7
370
    15
100
AcDbLine
 10
1871.541309603216
 20
1223.585140510827
 30
0.0
 11
1871.541309603216
 21
1222.687091587822
 31
0.0
  0
LWPOLYLINE
  5
7AC
330
75C
100
AcDbEntity
  8
0
  6
Continuous
 62
     7
370
    15
100
AcDbPolyline
 90
       19
 70
   128
 43
0.0
 10
1863.189912047532
 20
1225.426410090312
 10
1862.677603781079
 20
1225.294389067797
 10
1862.138118399164
 20
1225.205488134494
 10
1861.58228440658
 20
1225.161491702389
 10
1861.021258456041
 20
1225.163282864133
 10
1860.466301412804
 20
1225.210825667679
 10
1859.928552327533
 20
1225.30316583791
 10
1859.41880485422
 20
1225.438449930768
 10
1858.947290600877
 20
1225.613962535426
 10
1858.523473761574
 20
1225.82618077778
 10
1858.155861151931
 20
1226.070845031284
 10
1857.851831461046
 20
1226.343044415812
 10
1857.617487147065
 20
1226.637315368423
 10
1857.457531949165
 20
1226.947751307535
 10
1857.375176474501
 20
1227.268121189331
 10
1857.37207375517
 20
1227.591994576738
 10
1857.448286068691
 20
1227.912870710616
 10
1857.602283687975
 20
1228.224308992446
 10
1857.830975585882
 20
1228.520058259469
  0
ELLIPSE
  5
7AD
330
75C
100
AcDbEntity
  8
0
  6
Continuous
 62
     7
370
    15
100
AcDbEllipse
 10
1861.323616615072
 20
1224.862727280062
 30
0.0
 11
-3.558731157479685
 21
7.398056379327018
 31
0.0
210
0.0
220
0.0
230
1.0
 40
0.2347860887583216
 41
4.487843998479231
 42
4.67570953513131
  0
ARC
  5
7AE
330
75C
100
AcDbEntity
  8
0
  6
Continuous
 62
     7
370
    15
100
AcDbCircle
 10
1862.251781633272
 20
1227.417390393501
 30
0.0
 40
3.728317987098175
100
AcDbArc
 50
294.6940103409302
 51
305.3006131263639
  0
ELLIPSE
  5
7AF
330
75C
100
AcDbEntity
  8
0
  6
Continuous
 62
     7
370
    15
100
AcDbEllipse
 10
1861.323616615072
 20
1224.862727280062
 30
0.0
 11
2.555205607683221
 21
10.59909328466011
 31
0.0
210
0.0
220
0.0
230
1.0
 40
0.2854313889643511
 41
4.735129962514772
 42
4.922995499166875
  0
LWPOLYLINE
  5
7B0
330
75C
100
AcDbEntity
  8
0
  6
Continuous
 62
     7
370
    15
100
AcDbPolyline
 90
       19
 70
   128
 43
0.0
 10
1859.457321182611
 20
1229.458927588066
 10
1859.969629449064
 20
1229.590948610581
 10
1860.509114830979
 20
1229.679849543884
 10
1861.064948823564
 20
1229.723845975989
 10
1861.625974774102
 20
1229.722054814246
 10
1862.180931817339
 20
1229.674512010699
 10
1862.71868090261
 20
1229.582171840468
 10
1863.228428375924
 20
1229.44688774761
 10
1863.699942629266
 20
1229.271375142952
 10
1864.12375946857
 20
1229.059156900598
 10
1864.491372078212
 20
1228.814492647094
 10
1864.795401769097
 20
1228.542293262566
 10
1865.029746083079
 20
1228.248022309955
 10
1865.189701280978
 20
1227.937586370843
 10
1865.272056755642
 20
1227.617216489047
 10
1865.275159474973
 20
1227.29334310164
 10
1865.198947161452
 20
1226.972466967762
 10
1865.044949542168
 20
1226.661028685932
 10
1864.816257644261
 20
1226.365279418909
  0
ELLIPSE
  5
7B1
330
75C
100
AcDbEntity
  8
0
  6
Continuous
 62
     7
370
    15
100
AcDbEllipse
 10
1861.323616615072
 20
1224.862727280062
 30
0.0
 11
2.555205607683221
 21
10.59909328466011
 31
0.0
210
0.0
220
0.0
230
1.0
 40
0.2854313889643511
 41
1.192104749987192
 42
1.350900197841382
  0
LINE
  5
7B2
330
75C
100
AcDbEntity
  8
0
  6
Continuous
 62
     7
370
    15
100
AcDbLine
 10
1859.944758391758
 20
1226.197646468659
 30
0.0
 11
1859.166940932453
 21
1226.646670930161
 31
0.0
  0
LINE
  5
7B3
330
75C
100
AcDbEntity
  8
0
  6
Continuous
 62
     7
370
    15
100
AcDbLine
 10
1860.89935254636
 20
1226.748721944139
 30
0.0
 11
1859.944758391758
 21
1226.197646468659
 31
0.0
  0
LINE
  5
7B4
330
75C
100
AcDbEntity
  8
0
  6
Continuous
 62
     7
370
    15
100
AcDbLine
 10
1860.89935254636
 20
1226.748721944139
 30
0.0
 11
1863.189912047532
 21
1225.426410090312
 31
0.0
  0
LINE
  5
7B5
330
75C
100
AcDbEntity
  8
0
  6
Continuous
 62
     7
370
    15
100
AcDbLine
 10
1857.830975585882
 20
1228.520058259469
 30
0.0
 11
1860.121535087054
 21
1227.197746405642
 31
0.0
  0
LINE
  5
7B6
330
75C
100
AcDbEntity
  8
0
  6
Continuous
 62
     7
370
    15
100
AcDbLine
 10
1859.166940932453
 20
1226.646670930161
 30
0.0
 11
1860.121535087055
 21
1227.197746405642
 31
0.0
  0
LINE
  5
7B7
330
75C
100
AcDbEntity
  8
0
  6
Continuous
 62
     7
370
    15
100
AcDbLine
 10
1864.406251169565
 20
1224.374592991421
 30
0.0
 11
1863.4097358448
 21
1224.949869043313
 31
0.0
  0
LINE
  5
7B8
330
75C
100
AcDbEntity
  8
0
  6
Continuous
 62
     7
370
    15
100
AcDbLine
 10
1860.596523070958
 20
1226.573902209133
 30
0.0
 11
1860.319732289396
 21
1226.733690126147
 31
0.0
  0
LINE
  5
7B9
330
75C
100
AcDbEntity
  8
0
  6
Continuous
 62
     7
370
    15
100
AcDbLine
 10
1861.610094309822
 20
1226.338419457627
 30
0.0
 11
1862.213447278765
 21
1226.686727712649
 31
0.0
  0
LINE
  5
7BA
330
75C
100
AcDbEntity
  8
0
  6
Continuous
 62
     7
370
    15
100
AcDbLine
 10
1862.525698143089
 20
1227.687591272736
 30
0.0
 11
1864.816257644261
 21
1226.365279418909
 31
0.0
  0
LINE
  5
7BB
330
75C
100
AcDbEntity
  8
0
  6
Continuous
 62
     7
370
    15
100
AcDbLine
 10
1862.029284186161
 20
1226.096426292986
 30
0.0
 11
1862.525698143089
 21
1227.687591272736
 31
0.0
  0
LINE
  5
7BC
330
75C
100
AcDbEntity
  8
0
  6
Continuous
 62
     7
370
    15
100
AcDbLine
 10
1861.747880683783
 20
1228.136615734239
 30
0.0
 11
1859.457321182611
 21
1229.458927588066
 31
0.0
  0
LINE
  5
7BD
330
75C
100
AcDbEntity
  8
0
  6
Continuous
 62
     7
370
    15
100
AcDbLine
 10
1862.525698143089
 20
1227.687591272736
 30
0.0
 11
1863.48029229769
 21
1228.238666748216
 31
0.0
  0
LINE
  5
7BE
330
75C
100
AcDbEntity
  8
0
  6
Continuous
 62
     7
370
    15
100
AcDbLine
 10
1862.702474838385
 20
1228.687691209719
 30
0.0
 11
1863.48029229769
 21
1228.238666748217
 31
0.0
  0
LINE
  5
7BF
330
75C
100
AcDbEntity
  8
0
  6
Continuous
 62
     7
370
    15
100
AcDbLine
 10
1861.747880683783
 20
1228.136615734239
 30
0.0
 11
1862.702474838385
 21
1228.687691209719
 31
0.0
  0
LWPOLYLINE
  5
7C0
330
75C
100
AcDbEntity
  8
0
  6
Continuous
 62
     7
370
    15
100
AcDbPolyline
 90
       18
 70
   128
 43
0.0
 10
1855.136432279689
 20
1218.032052569714
 10
1855.164422910241
 20
1217.543355011272
 10
1855.247873389409
 20
1217.031443669551
 10
1855.385229192662
 20
1216.505854484273
 10
1855.57393164127
 20
1215.976378187508
 10
1855.810465565657
 20
1215.452877920855
 10
1856.090424786349
 20
1214.945105503782
 10
1856.408594192769
 20
1214.462519775678
 10
1856.759046890874
 20
1214.01411039557
 10
1857.135254609982
 20
1213.608230381785
 10
1857.530209312096
 20
1213.252440511026
 10
1857.9365537384
 20
1212.953368475405
 10
1858.346718461065
 20
1212.716585421079
 10
1858.753062887369
 20
1212.546502168341
 10
1859.148017589483
 20
1212.446287046378
 10
1859.52422530859
 20
1212.417806873298
 10
1859.874678006695
 20
1212.46159218084
 10
1860.082322802068
 20
1212.527182700056
  0
ARC
  5
7C1
330
75C
100
AcDbEntity
  8
0
  6
Continuous
 62
     7
370
    15
100
AcDbCircle
 10
1857.344780151709
 20
1218.228128227259
 30
0.0
 40
2.217035405070757
100
AcDbArc
 50
132.485165269521
 51
185.0738949268916
  0
LINE
  5
7C2
330
75C
100
AcDbEntity
  8
0
  6
Continuous
 62
     7
370
    15
100
AcDbLine
 10
1860.429225777421
 20
1226.477323537308
 30
0.0
 11
1860.121535087055
 21
1227.197746405642
 31
0.0
  0
LINE
  5
7C3
330
75C
100
AcDbEntity
  8
0
  6
Continuous
 62
     7
370
    15
100
AcDbLine
 10
1861.747880683783
 20
1228.136615734239
 30
0.0
 11
1861.37642987208
 21
1226.473311066287
 31
0.0
  0
LINE
  5
7C4
330
75C
100
AcDbEntity
  8
0
  6
Continuous
 62
     7
370
    15
100
AcDbLine
 10
1862.702474838385
 20
1228.687691209719
 30
0.0
 11
1862.702474838385
 21
1227.789642286714
 31
0.0
  0
LWPOLYLINE
  5
7C5
330
75C
100
AcDbEntity
  8
0
  6
Continuous
 62
     7
370
    15
100
AcDbPolyline
 90
       19
 70
   128
 43
0.0
 10
1854.351077282701
 20
1230.528960789204
 10
1853.838769016247
 20
1230.396939766689
 10
1853.299283634332
 20
1230.308038833386
 10
1852.743449641748
 20
1230.26404240128
 10
1852.182423691209
 20
1230.265833563024
 10
1851.627466647973
 20
1230.313376366571
 10
1851.089717562701
 20
1230.405716536802
 10
1850.579970089388
 20
1230.54100062966
 10
1850.108455836045
 20
1230.716513234318
 10
1849.684638996742
 20
1230.928731476672
 10
1849.317026387099
 20
1231.173395730176
 10
1849.012996696214
 20
1231.445595114704
 10
1848.778652382233
 20
1231.739866067315
 10
1848.618697184333
 20
1232.050302006427
 10
1848.536341709669
 20
1232.370671888223
 10
1848.533238990339
 20
1232.69454527563
 10
1848.609451303859
 20
1233.015421409508
 10
1848.763448923143
 20
1233.326859691337
 10
1848.99214082105
 20
1233.622608958361
  0
ELLIPSE
  5
7C6
330
75C
100
AcDbEntity
  8
0
  6
Continuous
 62
     7
370
    15
100
AcDbEllipse
 10
1852.48478185024
 20
1229.965277978954
 30
0.0
 11
-3.558731157479673
 21
7.398056379327017
 31
0.0
210
0.0
220
0.0
230
1.0
 40
0.2347860887583232
 41
4.487843998479232
 42
4.675709535131309
  0
ARC
  5
7C7
330
75C
100
AcDbEntity
  8
0
  6
Continuous
 62
     7
370
    15
100
AcDbCircle
 10
1853.412946868441
 20
1232.519941092391
 30
0.0
 40
3.728317987096226
100
AcDbArc
 50
294.6940103409248
 51
305.3006131263639
  0
ELLIPSE
  5
7C8
330
75C
100
AcDbEntity
  8
0
  6
Continuous
 62
     7
370
    15
100
AcDbEllipse
 10
1852.48478185024
 20
1229.965277978954
 30
0.0
 11
2.555205607683234
 21
10.59909328466011
 31
0.0
210
0.0
220
0.0
230
1.0
 40
0.285431388964351
 41
4.735129962514776
 42
4.922995499166876
  0
LWPOLYLINE
  5
7C9
330
75C
100
AcDbEntity
  8
0
  6
Continuous
 62
     7
370
    15
100
AcDbPolyline
 90
       19
 70
   128
 43
0.0
 10
1850.618486417779
 20
1234.561478286958
 10
1851.130794684232
 20
1234.693499309473
 10
1851.670280066147
 20
1234.782400242776
 10
1852.226114058732
 20
1234.826396674881
 10
1852.787140009271
 20
1234.824605513138
 10
1853.342097052507
 20
1234.777062709591
 10
1853.879846137778
 20
1234.68472253936
 10
1854.389593611092
 20
1234.549438446501
 10
1854.861107864434
 20
1234.373925841844
 10
1855.284924703738
 20
1234.16170759949
 10
1855.65253731338
 20
1233.917043345986
 10
1855.956567004266
 20
1233.644843961458
 10
1856.190911318247
 20
1233.350573008847
 10
1856.350866516146
 20
1233.040137069735
 10
1856.43322199081
 20
1232.719767187939
 10
1856.436324710141
 20
1232.395893800532
 10
1856.360112396621
 20
1232.075017666654
 10
1856.206114777336
 20
1231.763579384824
 10
1855.97742287943
 20
1231.467830117801
  0
ELLIPSE
  5
7CA
330
75C
100
AcDbEntity
  8
0
  6
Continuous
 62
     7
370
    15
100
AcDbEllipse
 10
1852.48478185024
 20
1229.965277978954
 30
0.0
 11
2.555205607683234
 21
10.59909328466011
 31
0.0
210
0.0
220
0.0
230
1.0
 40
0.285431388964351
 41
1.192104749987188
 42
1.350900197841378
  0
LINE
  5
7CB
330
75C
100
AcDbEntity
  8
0
  6
Continuous
 62
     7
370
    15
100
AcDbLine
 10
1851.105923626927
 20
1231.300197167551
 30
0.0
 11
1850.328106167621
 21
1231.749221629053
 31
0.0
  0
LINE
  5
7CC
330
75C
100
AcDbEntity
  8
0
  6
Continuous
 62
     7
370
    15
100
AcDbLine
 10
1852.060517781528
 20
1231.851272643031
 30
0.0
 11
1851.105923626927
 21
1231.300197167551
 31
0.0
  0
LINE
  5
7CD
330
75C
100
AcDbEntity
  8
0
  6
Continuous
 62
     7
370
    15
100
AcDbLine
 10
1852.060517781529
 20
1231.851272643031
 30
0.0
 11
1854.351077282701
 21
1230.528960789204
 31
0.0
  0
LINE
  5
7CE
330
75C
100
AcDbEntity
  8
0
  6
Continuous
 62
     7
370
    15
100
AcDbLine
 10
1848.99214082105
 20
1233.622608958361
 30
0.0
 11
1851.282700322222
 21
1232.300297104534
 31
0.0
  0
LINE
  5
7CF
330
75C
100
AcDbEntity
  8
0
  6
Continuous
 62
     7
370
    15
100
AcDbLine
 10
1850.328106167621
 20
1231.749221629053
 30
0.0
 11
1851.282700322222
 21
1232.300297104534
 31
0.0
  0
LINE
  5
7D0
330
75C
100
AcDbEntity
  8
0
  6
Continuous
 62
     7
370
    15
100
AcDbLine
 10
1855.567416404733
 20
1229.477143690313
 30
0.0
 11
1854.570901079968
 21
1230.052419742205
 31
0.0
  0
LINE
  5
7D1
330
75C
100
AcDbEntity
  8
0
  6
Continuous
 62
     7
370
    15
100
AcDbLine
 10
1851.757688306127
 20
1231.676452908025
 30
0.0
 11
1851.480897524564
 21
1231.836240825039
 31
0.0
  0
LINE
  5
7D2
330
75C
100
AcDbEntity
  8
0
  6
Continuous
 62
     7
370
    15
100
AcDbLine
 10
1852.77125954499
 20
1231.440970156519
 30
0.0
 11
1853.374612513934
 21
1231.789278411541
 31
0.0
  0
LWPOLYLINE
  5
7D3
330
75C
100
AcDbEntity
  8
0
  6
Continuous
 62
     7
370
    15
100
AcDbPolyline
 90
       20
 70
   128
 43
0.0
 10
1845.590490733671
 20
1223.542807324517
 10
1845.618628155968
 20
1222.999761587065
 10
1845.702613888218
 20
1222.432461093158
 10
1845.841174792331
 20
1221.849505540011
 10
1846.032210426241
 20
1221.259731939577
 10
1846.27282488447
 20
1220.672080658456
 10
1846.559370697099
 20
1220.095459891052
 10
1846.887504121698
 20
1219.538610620423
 10
1847.252250990031
 20
1219.009974113892
 10
1847.648082111376
 20
1218.517563962034
 10
1848.068997089423
 20
1218.068844600817
 10
1848.508615282159
 20
1217.670618158358
 10
1848.960272525907
 20
1217.328921341594
 10
1849.417122157244
 20
1217.048933925962
 10
1849.872238801447
 20
1216.834900235278
 10
1850.318723354109
 20
1216.69006480212
 10
1850.749807564534
 20
1216.616623184016
 10
1851.158956635515
 20
1216.615688681036
 10
1851.539968284199
 20
1216.687275459292
 10
1851.74485362142
 20
1216.761248631832
  0
ARC
  5
7D4
330
75C
100
AcDbEntity
  8
0
  6
Continuous
 62
     7
370
    15
100
AcDbCircle
 10
1848.345682351938
 20
1223.769548975479
 30
0.0
 40
2.764505856323926
100
AcDbArc
 50
131.6848313314617
 51
184.7046200115535
  0
LINE
  5
7D5
330
75C
100
AcDbEntity
  8
0
  6
Continuous
 62
     7
370
    15
100
AcDbLine
 10
1853.686863378257
 20
1232.790141971628
 30
0.0
 11
1855.97742287943
 21
1231.467830117801
 31
0.0
  0
LINE
  5
7D6
330
75C
100
AcDbEntity
  8
0
  6
Continuous
 62
     7
370
    15
100
AcDbLine
 10
1853.190449421329
 20
1231.198976991878
 30
0.0
 11
1853.686863378257
 21
1232.790141971628
 31
0.0
  0
LINE
  5
7D7
330
75C
100
AcDbEntity
  8
0
  6
Continuous
 62
     7
370
    15
100
AcDbLine
 10
1852.909045918951
 20
1233.239166433131
 30
0.0
 11
1850.618486417779
 21
1234.561478286958
 31
0.0
  0
LINE
  5
7D8
330
75C
100
AcDbEntity
  8
0
  6
Continuous
 62
     7
370
    15
100
AcDbLine
 10
1853.686863378257
 20
1232.790141971628
 30
0.0
 11
1854.641457532858
 21
1233.341217447108
 31
0.0
  0
LINE
  5
7D9
330
75C
100
AcDbEntity
  8
0
  6
Continuous
 62
     7
370
    15
100
AcDbLine
 10
1853.863640073553
 20
1233.790241908611
 30
0.0
 11
1854.641457532858
 21
1233.341217447109
 31
0.0
  0
LINE
  5
7DA
330
75C
100
AcDbEntity
  8
0
  6
Continuous
 62
     7
370
    15
100
AcDbLine
 10
1852.909045918951
 20
1233.23916643313
 30
0.0
 11
1853.863640073553
 21
1233.790241908611
 31
0.0
  0
LINE
  5
7DB
330
75C
100
AcDbEntity
  8
0
  6
Continuous
 62
     7
370
    15
100
AcDbLine
 10
1851.590391012589
 20
1231.5798742362
 30
0.0
 11
1851.282700322222
 21
1232.300297104534
 31
0.0
  0
LINE
  5
7DC
330
75C
100
AcDbEntity
  8
0
  6
Continuous
 62
     7
370
    15
100
AcDbLine
 10
1852.909045918951
 20
1233.23916643313
 30
0.0
 11
1852.537595107248
 21
1231.575861765179
 31
0.0
  0
LINE
  5
7DD
330
75C
100
AcDbEntity
  8
0
  6
Continuous
 62
     7
370
    15
100
AcDbLine
 10
1853.863640073553
 20
1233.790241908611
 30
0.0
 11
1853.863640073553
 21
1232.892192985606
 31
0.0
  0
LWPOLYLINE
  5
7DE
330
75C
100
AcDbEntity
  8
0
  6
Continuous
 62
     7
370
    15
100
AcDbPolyline
 90
       19
 70
   128
 43
0.0
 10
1845.512242517869
 20
1235.631511488096
 10
1844.999934251415
 20
1235.499490465581
 10
1844.460448869501
 20
1235.410589532278
 10
1843.904614876916
 20
1235.366593100173
 10
1843.343588926377
 20
1235.368384261916
 10
1842.788631883141
 20
1235.415927065462
 10
1842.250882797869
 20
1235.508267235694
 10
1841.741135324556
 20
1235.643551328552
 10
1841.269621071213
 20
1235.81906393321
 10
1840.84580423191
 20
1236.031282175564
 10
1840.478191622268
 20
1236.275946429068
 10
1840.174161931382
 20
1236.548145813596
 10
1839.939817617401
 20
1236.842416766207
 10
1839.779862419501
 20
1237.152852705319
 10
1839.697506944838
 20
1237.473222587115
 10
1839.694404225507
 20
1237.797095974522
 10
1839.770616539027
 20
1238.1179721084
 10
1839.924614158311
 20
1238.429410390229
 10
1840.153306056218
 20
1238.725159657253
  0
ELLIPSE
  5
7DF
330
75C
100
AcDbEntity
  8
0
  6
Continuous
 62
     7
370
    15
100
AcDbEllipse
 10
1843.645947085408
 20
1235.067828677846
 30
0.0
 11
-3.558731157479685
 21
7.398056379326959
 31
0.0
210
0.0
220
0.0
230
1.0
 40
0.2347860887583261
 41
4.487843998479221
 42
4.675709535131305
  0
ARC
  5
7E0
330
75C
100
AcDbEntity
  8
0
  6
Continuous
 62
     7
370
    15
100
AcDbCircle
 10
1844.574112103607
 20
1237.622491791287
 30
0.0
 40
3.72831798710041
100
AcDbArc
 50
294.6940103409302
 51
305.3006131263458
  0
ELLIPSE
  5
7E1
330
75C
100
AcDbEntity
  8
0
  6
Continuous
 62
     7
370
    15
100
AcDbEllipse
 10
1843.645947085408
 20
1235.067828677846
 30
0.0
 11
2.555205607683205
 21
10.59909328466008
 31
0.0
210
0.0
220
0.0
230
1.0
 40
0.2854313889643507
 41
4.735129962514772
 42
4.922995499166871
  0
LWPOLYLINE
  5
7E2
330
75C
100
AcDbEntity
  8
0
  6
Continuous
 62
     7
370
    15
100
AcDbPolyline
 90
       19
 70
   128
 43
0.0
 10
1841.779651652947
 20
1239.664028985849
 10
1842.291959919401
 20
1239.796050008365
 10
1842.831445301315
 20
1239.884950941668
 10
1843.3872792939
 20
1239.928947373774
 10
1843.948305244438
 20
1239.927156212029
 10
1844.503262287675
 20
1239.879613408483
 10
1845.041011372946
 20
1239.787273238252
 10
1845.55075884626
 20
1239.651989145393
 10
1846.022273099602
 20
1239.476476540736
 10
1846.446089938906
 20
1239.264258298382
 10
1846.813702548548
 20
1239.019594044878
 10
1847.117732239433
 20
1238.74739466035
 10
1847.352076553415
 20
1238.453123707739
 10
1847.512031751315
 20
1238.142687768627
 10
1847.594387225978
 20
1237.822317886831
 10
1847.597489945309
 20
1237.498444499424
 10
1847.521277631789
 20
1237.177568365545
 10
1847.367280012505
 20
1236.866130083716
 10
1847.138588114598
 20
1236.570380816693
  0
ELLIPSE
  5
7E3
330
75C
100
AcDbEntity
  8
0
  6
Continuous
 62
     7
370
    15
100
AcDbEllipse
 10
1843.645947085408
 20
1235.067828677846
 30
0.0
 11
2.555205607683205
 21
10.59909328466008
 31
0.0
210
0.0
220
0.0
230
1.0
 40
0.2854313889643507
 41
1.19210474998719
 42
1.350900197841381
  0
LINE
  5
7E4
330
75C
100
AcDbEntity
  8
0
  6
Continuous
 62
     7
370
    15
100
AcDbLine
 10
1842.267088862095
 20
1236.402747866443
 30
0.0
 11
1841.489271402789
 21
1236.851772327945
 31
0.0
  0
LINE
  5
7E5
330
75C
100
AcDbEntity
  8
0
  6
Continuous
 62
     7
370
    15
100
AcDbLine
 10
1843.221683016696
 20
1236.953823341923
 30
0.0
 11
1842.267088862095
 21
1236.402747866443
 31
0.0
  0
LINE
  5
7E6
330
75C
100
AcDbEntity
  8
0
  6
Continuous
 62
     7
370
    15
100
AcDbLine
 10
1843.221683016697
 20
1236.953823341923
 30
0.0
 11
1845.512242517869
 21
1235.631511488096
 31
0.0
  0
LINE
  5
7E7
330
75C
100
AcDbEntity
  8
0
  6
Continuous
 62
     7
370
    15
100
AcDbLine
 10
1840.153306056218
 20
1238.725159657253
 30
0.0
 11
1842.44386555739
 21
1237.402847803426
 31
0.0
  0
LINE
  5
7E8
330
75C
100
AcDbEntity
  8
0
  6
Continuous
 62
     7
370
    15
100
AcDbLine
 10
1841.489271402789
 20
1236.851772327945
 30
0.0
 11
1842.443865557391
 21
1237.402847803426
 31
0.0
  0
LINE
  5
7E9
330
75C
100
AcDbEntity
  8
0
  6
Continuous
 62
     7
370
    15
100
AcDbLine
 10
1846.728581639901
 20
1234.579694389205
 30
0.0
 11
1845.732066315136
 21
1235.154970441097
 31
0.0
  0
LINE
  5
7EA
330
75C
100
AcDbEntity
  8
0
  6
Continuous
 62
     7
370
    15
100
AcDbLine
 10
1842.918853541295
 20
1236.779003606917
 30
0.0
 11
1842.642062759733
 21
1236.938791523931
 31
0.0
  0
LINE
  5
7EB
330
75C
100
AcDbEntity
  8
0
  6
Continuous
 62
     7
370
    15
100
AcDbLine
 10
1843.932424780158
 20
1236.543520855411
 30
0.0
 11
1844.535777749102
 21
1236.891829110433
 31
0.0
  0
LINE
  5
7EC
330
75C
100
AcDbEntity
  8
0
  6
Continuous
 62
     7
370
    15
100
AcDbLine
 10
1844.848028613425
 20
1237.89269267052
 30
0.0
 11
1847.138588114598
 21
1236.570380816693
 31
0.0
  0
LINE
  5
7ED
330
75C
100
AcDbEntity
  8
0
  6
Continuous
 62
     7
370
    15
100
AcDbLine
 10
1844.351614656497
 20
1236.30152769077
 30
0.0
 11
1844.848028613425
 21
1237.89269267052
 31
0.0
  0
LINE
  5
7EE
330
75C
100
AcDbEntity
  8
0
  6
Continuous
 62
     7
370
    15
100
AcDbLine
 10
1844.070211154119
 20
1238.341717132023
 30
0.0
 11
1841.779651652947
 21
1239.664028985849
 31
0.0
  0
LINE
  5
7EF
330
75C
100
AcDbEntity
  8
0
  6
Continuous
 62
     7
370
    15
100
AcDbLine
 10
1844.848028613425
 20
1237.89269267052
 30
0.0
 11
1845.802622768027
 21
1238.443768146
 31
0.0
  0
LINE
  5
7F0
330
75C
100
AcDbEntity
  8
0
  6
Continuous
 62
     7
370
    15
100
AcDbLine
 10
1845.024805308721
 20
1238.892792607503
 30
0.0
 11
1845.802622768027
 21
1238.443768146
 31
0.0
  0
LINE
  5
7F1
330
75C
100
AcDbEntity
  8
0
  6
Continuous
 62
     7
370
    15
100
AcDbLine
 10
1844.070211154119
 20
1238.341717132022
 30
0.0
 11
1845.024805308721
 21
1238.892792607503
 31
0.0
  0
LWPOLYLINE
  5
7F2
330
75C
100
AcDbEntity
  8
0
  6
Continuous
 62
     7
370
    15
100
AcDbPolyline
 90
       24
 70
   128
 43
0.0
 10
1838.169726477143
 20
1230.068187333955
 10
1838.132796035993
 20
1230.038106349305
 10
1837.896262111607
 20
1229.787702338732
 10
1837.707559662998
 20
1229.476097251611
 10
1837.570203859746
 20
1229.109095701135
 10
1837.486753380577
 20
1228.693534231797
 10
1837.458762750026
 20
1228.237153967498
 10
1837.486753380577
 20
1227.748456409056
 10
1837.570203859746
 20
1227.236545067335
 10
1837.707559662998
 20
1226.710955882057
 10
1837.896262111607
 20
1226.181479585291
 10
1838.132796035993
 20
1225.657979318639
 10
1838.412755256685
 20
1225.150206901566
 10
1838.730924663105
 20
1224.667621173462
 10
1839.081377361211
 20
1224.219211793354
 10
1839.457585080318
 20
1223.813331779568
 10
1839.852539782432
 20
1223.45754190881
 10
1840.258884208736
 20
1223.158469873188
 10
1840.669048931401
 20
1222.921686818863
 10
1841.075393357705
 20
1222.751603566125
 10
1841.470348059819
 20
1222.651388444162
 10
1841.846555778926
 20
1222.622908271082
 10
1842.197008477032
 20
1222.666693578624
 10
1842.404653272401
 20
1222.732284097838
  0
LINE
  5
7F3
330
75C
100
AcDbEntity
  8
0
  6
Continuous
 62
     7
370
    15
100
AcDbLine
 10
1842.751556247757
 20
1236.682424935092
 30
0.0
 11
1842.443865557391
 21
1237.402847803426
 31
0.0
  0
LINE
  5
7F4
330
75C
100
AcDbEntity
  8
0
  6
Continuous
 62
     7
370
    15
100
AcDbLine
 10
1844.070211154119
 20
1238.341717132022
 30
0.0
 11
1843.698760342416
 21
1236.678412464071
 31
0.0
  0
LINE
  5
7F5
330
75C
100
AcDbEntity
  8
0
  6
Continuous
 62
     7
370
    15
100
AcDbLine
 10
1845.024805308721
 20
1238.892792607503
 30
0.0
 11
1845.024805308721
 21
1237.994743684498
 31
0.0
  0
LWPOLYLINE
  5
7F6
330
75C
100
AcDbEntity
  8
0
  6
Continuous
 62
     7
370
    15
100
AcDbPolyline
 90
       19
 70
   128
 43
0.0
 10
1836.673407753037
 20
1240.734062186988
 10
1836.161099486583
 20
1240.602041164473
 10
1835.621614104669
 20
1240.51314023117
 10
1835.065780112084
 20
1240.469143799064
 10
1834.504754161546
 20
1240.470934960808
 10
1833.949797118309
 20
1240.518477764354
 10
1833.412048033038
 20
1240.610817934586
 10
1832.902300559724
 20
1240.746102027444
 10
1832.430786306381
 20
1240.921614632102
 10
1832.006969467078
 20
1241.133832874456
 10
1831.639356857436
 20
1241.37849712796
 10
1831.33532716655
 20
1241.650696512488
 10
1831.100982852569
 20
1241.944967465099
 10
1830.941027654669
 20
1242.255403404211
 10
1830.858672180006
 20
1242.575773286007
 10
1830.855569460675
 20
1242.899646673414
 10
1830.931781774195
 20
1243.220522807292
 10
1831.08577939348
 20
1243.531961089121
 10
1831.314471291386
 20
1243.827710356145
  0
ELLIPSE
  5
7F7
330
75C
100
AcDbEntity
  8
0
  6
Continuous
 62
     7
370
    15
100
AcDbEllipse
 10
1834.807112320576
 20
1240.170379376738
 30
0.0
 11
-3.558731157479673
 21
7.398056379327017
 31
0.0
210
0.0
220
0.0
230
1.0
 40
0.2347860887583248
 41
4.487843998479225
 42
4.67570953513131
  0
ARC
  5
7F8
330
75C
100
AcDbEntity
  8
0
  6
Continuous
 62
     7
370
    15
100
AcDbCircle
 10
1835.735277338777
 20
1242.725042490176
 30
0.0
 40
3.728317987096749
100
AcDbArc
 50
294.6940103409302
 51
305.3006131263639
  0
ELLIPSE
  5
7F9
330
75C
100
AcDbEntity
  8
0
  6
Continuous
 62
     7
370
    15
100
AcDbEllipse
 10
1834.807112320576
 20
1240.170379376738
 30
0.0
 11
2.555205607683205
 21
10.59909328466011
 31
0.0
210
0.0
220
0.0
230
1.0
 40
0.2854313889643499
 41
4.735129962514774
 42
4.922995499166876
  0
LWPOLYLINE
  5
7FA
330
75C
100
AcDbEntity
  8
0
  6
Continuous
 62
     7
370
    15
100
AcDbPolyline
 90
       19
 70
   128
 43
0.0
 10
1832.940816888115
 20
1244.766579684742
 10
1833.453125154569
 20
1244.898600707257
 10
1833.992610536483
 20
1244.98750164056
 10
1834.548444529068
 20
1245.031498072665
 10
1835.109470479607
 20
1245.029706910921
 10
1835.664427522844
 20
1244.982164107375
 10
1836.202176608115
 20
1244.889823937144
 10
1836.711924081428
 20
1244.754539844285
 10
1837.183438334771
 20
1244.579027239628
 10
1837.607255174074
 20
1244.366808997274
 10
1837.974867783717
 20
1244.12214474377
 10
1838.278897474602
 20
1243.849945359242
 10
1838.513241788583
 20
1243.555674406631
 10
1838.673196986483
 20
1243.245238467519
 10
1838.755552461146
 20
1242.924868585723
 10
1838.758655180478
 20
1242.600995198316
 10
1838.682442866957
 20
1242.280119064438
 10
1838.528445247672
 20
1241.968680782608
 10
1838.299753349766
 20
1241.672931515584
  0
ELLIPSE
  5
7FB
330
75C
100
AcDbEntity
  8
0
  6
Continuous
 62
     7
370
    15
100
AcDbEllipse
 10
1834.807112320576
 20
1240.170379376738
 30
0.0
 11
2.555205607683205
 21
10.59909328466011
 31
0.0
210
0.0
220
0.0
230
1.0
 40
0.2854313889643499
 41
1.192104749987191
 42
1.350900197841378
  0
LINE
  5
7FC
330
75C
100
AcDbEntity
  8
0
  6
Continuous
 62
     7
370
    15
100
AcDbLine
 10
1833.428254097263
 20
1241.505298565335
 30
0.0
 11
1832.650436637958
 21
1241.954323026837
 31
0.0
  0
LINE
  5
7FD
330
75C
100
AcDbEntity
  8
0
  6
Continuous
 62
     7
370
    15
100
AcDbLine
 10
1834.382848251865
 20
1242.056374040815
 30
0.0
 11
1833.428254097263
 21
1241.505298565335
 31
0.0
  0
LINE
  5
7FE
330
75C
100
AcDbEntity
  8
0
  6
Continuous
 62
     7
370
    15
100
AcDbLine
 10
1834.382848251865
 20
1242.056374040815
 30
0.0
 11
1836.673407753037
 21
1240.734062186988
 31
0.0
  0
LINE
  5
7FF
330
75C
100
AcDbEntity
  8
0
  6
Continuous
 62
     7
370
    15
100
AcDbLine
 10
1831.314471291386
 20
1243.827710356145
 30
0.0
 11
1833.605030792558
 21
1242.505398502318
 31
0.0
  0
LINE
  5
800
330
75C
100
AcDbEntity
  8
0
  6
Continuous
 62
     7
370
    15
100
AcDbLine
 10
1832.650436637958
 20
1241.954323026837
 30
0.0
 11
1833.605030792559
 21
1242.505398502318
 31
0.0
  0
LINE
  5
801
330
75C
100
AcDbEntity
  8
0
  6
Continuous
 62
     7
370
    15
100
AcDbLine
 10
1837.889746875069
 20
1239.682245088097
 30
0.0
 11
1836.893231550304
 21
1240.257521139989
 31
0.0
  0
LINE
  5
802
330
75C
100
AcDbEntity
  8
0
  6
Continuous
 62
     7
370
    15
100
AcDbLine
 10
1834.080018776463
 20
1241.881554305809
 30
0.0
 11
1833.8032279949
 21
1242.041342222823
 31
0.0
  0
LINE
  5
803
330
75C
100
AcDbEntity
  8
0
  6
Continuous
 62
     7
370
    15
100
AcDbLine
 10
1835.093590015326
 20
1241.646071554303
 30
0.0
 11
1835.69694298427
 21
1241.994379809325
 31
0.0
  0
LINE
  5
804
330
75C
100
AcDbEntity
  8
0
  6
Continuous
 62
     7
370
    15
100
AcDbLine
 10
1836.009193848593
 20
1242.995243369412
 30
0.0
 11
1838.299753349766
 21
1241.672931515584
 31
0.0
  0
LINE
  5
805
330
75C
100
AcDbEntity
  8
0
  6
Continuous
 62
     7
370
    15
100
AcDbLine
 10
1835.512779891665
 20
1241.404078389662
 30
0.0
 11
1836.009193848593
 21
1242.995243369412
 31
0.0
  0
LINE
  5
806
330
75C
100
AcDbEntity
  8
0
  6
Continuous
 62
     7
370
    15
100
AcDbLine
 10
1835.231376389288
 20
1243.444267830914
 30
0.0
 11
1832.940816888115
 21
1244.766579684742
 31
0.0
  0
LINE
  5
807
330
75C
100
AcDbEntity
  8
0
  6
Continuous
 62
     7
370
    15
100
AcDbLine
 10
1836.009193848593
 20
1242.995243369412
 30
0.0
 11
1836.963788003195
 21
1243.546318844892
 31
0.0
  0
LINE
  5
808
330
75C
100
AcDbEntity
  8
0
  6
Continuous
 62
     7
370
    15
100
AcDbLine
 10
1836.185970543889
 20
1243.995343306395
 30
0.0
 11
1836.963788003195
 21
1243.546318844892
 31
0.0
  0
LINE
  5
809
330
75C
100
AcDbEntity
  8
0
  6
Continuous
 62
     7
370
    15
100
AcDbLine
 10
1835.231376389288
 20
1243.444267830914
 30
0.0
 11
1836.185970543889
 21
1243.995343306395
 31
0.0
  0
LWPOLYLINE
  5
80A
330
75C
100
AcDbEntity
  8
0
  6
Continuous
 62
     7
370
    15
100
AcDbPolyline
 90
       24
 70
   128
 43
0.0
 10
1829.330891712311
 20
1235.170738032847
 10
1829.293961271162
 20
1235.140657048197
 10
1829.057427346775
 20
1234.890253037624
 10
1828.868724898166
 20
1234.578647950503
 10
1828.731369094914
 20
1234.211646400027
 10
1828.647918615746
 20
1233.796084930689
 10
1828.619927985194
 20
1233.33970466639
 10
1828.647918615746
 20
1232.851007107948
 10
1828.731369094914
 20
1232.339095766227
 10
1828.868724898166
 20
1231.813506580949
 10
1829.057427346775
 20
1231.284030284183
 10
1829.293961271162
 20
1230.760530017531
 10
1829.573920491854
 20
1230.252757600458
 10
1829.892089898274
 20
1229.770171872354
 10
1830.242542596379
 20
1229.321762492246
 10
1830.618750315486
 20
1228.91588247846
 10
1831.0137050176
 20
1228.560092607702
 10
1831.420049443904
 20
1228.26102057208
 10
1831.830214166569
 20
1228.024237517755
 10
1832.236558592873
 20
1227.854154265016
 10
1832.631513294987
 20
1227.753939143054
 10
1833.007721014094
 20
1227.725458969974
 10
1833.3581737122
 20
1227.769244277516
 10
1833.56581850757
 20
1227.834834796731
  0
LINE
  5
80B
330
75C
100
AcDbEntity
  8
0
  6
Continuous
 62
     7
370
    15
100
AcDbLine
 10
1833.912721482925
 20
1241.784975633984
 30
0.0
 11
1833.605030792559
 21
1242.505398502318
 31
0.0
  0
LINE
  5
80C
330
75C
100
AcDbEntity
  8
0
  6
Continuous
 62
     7
370
    15
100
AcDbLine
 10
1835.231376389288
 20
1243.444267830914
 30
0.0
 11
1834.859925577584
 21
1241.780963162963
 31
0.0
  0
LINE
  5
80D
330
75C
100
AcDbEntity
  8
0
  6
Continuous
 62
     7
370
    15
100
AcDbLine
 10
1836.185970543889
 20
1243.995343306395
 30
0.0
 11
1836.185970543889
 21
1243.09729438339
 31
0.0
  0
LWPOLYLINE
  5
80E
330
75C
100
AcDbEntity
  8
0
  6
Continuous
 62
     7
370
    15
100
AcDbPolyline
 90
       19
 70
   128
 43
0.0
 10
1827.834572988205
 20
1245.83661288588
 10
1827.322264721752
 20
1245.704591863365
 10
1826.782779339837
 20
1245.615690930061
 10
1826.226945347252
 20
1245.571694497956
 10
1825.665919396714
 20
1245.5734856597
 10
1825.110962353477
 20
1245.621028463246
 10
1824.573213268206
 20
1245.713368633478
 10
1824.063465794892
 20
1245.848652726336
 10
1823.59195154155
 20
1246.024165330993
 10
1823.168134702246
 20
1246.236383573348
 10
1822.800522092604
 20
1246.481047826852
 10
1822.496492401719
 20
1246.75324721138
 10
1822.262148087737
 20
1247.047518163991
 10
1822.102192889838
 20
1247.357954103103
 10
1822.019837415174
 20
1247.678323984899
 10
1822.016734695843
 20
1248.002197372306
 10
1822.092947009364
 20
1248.323073506184
 10
1822.246944628648
 20
1248.634511788013
 10
1822.475636526554
 20
1248.930261055037
  0
ELLIPSE
  5
80F
330
75C
100
AcDbEntity
  8
0
  6
Continuous
 62
     7
370
    15
100
AcDbEllipse
 10
1825.968277555744
 20
1245.27293007563
 30
0.0
 11
-3.558731157479682
 21
7.398056379326986
 31
0.0
210
0.0
220
0.0
230
0.9999999999999998
 40
0.2347860887583269
 41
4.487843998479225
 42
4.675709535131306
  0
ARC
  5
810
330
75C
100
AcDbEntity
  8
0
  6
Continuous
 62
     7
370
    15
100
AcDbCircle
 10
1826.89644257395
 20
1247.827593189058
 30
0.0
 40
3.728317987085863
100
AcDbArc
 50
294.6940103409129
 51
305.3006131263746
  0
ELLIPSE
  5
811
330
75C
100
AcDbEntity
  8
0
  6
Continuous
 62
     7
370
    15
100
AcDbEllipse
 10
1825.968277555744
 20
1245.27293007563
 30
0.0
 11
2.555205607683205
 21
10.59909328466011
 31
0.0
210
0.0
220
0.0
230
1.0
 40
0.2854313889643486
 41
4.735129962514774
 42
4.922995499166872
  0
LWPOLYLINE
  5
812
330
75C
100
AcDbEntity
  8
0
  6
Continuous
 62
     7
370
    15
100
AcDbPolyline
 90
       19
 70
   128
 43
0.0
 10
1824.101982123283
 20
1249.869130383634
 10
1824.614290389737
 20
1250.001151406149
 10
1825.153775771651
 20
1250.090052339452
 10
1825.709609764237
 20
1250.134048771557
 10
1826.270635714775
 20
1250.132257609813
 10
1826.825592758012
 20
1250.084714806267
 10
1827.363341843283
 20
1249.992374636036
 10
1827.873089316596
 20
1249.857090543177
 10
1828.344603569939
 20
1249.68157793852
 10
1828.768420409242
 20
1249.469359696166
 10
1829.136033018884
 20
1249.224695442662
 10
1829.44006270977
 20
1248.952496058134
 10
1829.674407023751
 20
1248.658225105523
 10
1829.834362221651
 20
1248.347789166411
 10
1829.916717696315
 20
1248.027419284615
 10
1829.919820415646
 20
1247.703545897208
 10
1829.843608102125
 20
1247.382669763329
 10
1829.689610482841
 20
1247.0712314815
 10
1829.460918584934
 20
1246.775482214476
  0
ELLIPSE
  5
813
330
75C
100
AcDbEntity
  8
0
  6
Continuous
 62
     7
370
    15
100
AcDbEllipse
 10
1825.968277555744
 20
1245.27293007563
 30
0.0
 11
2.555205607683205
 21
10.59909328466011
 31
0.0
210
0.0
220
0.0
230
1.0
 40
0.2854313889643486
 41
1.192104749987194
 42
1.350900197841382
  0
LINE
  5
814
330
75C
100
AcDbEntity
  8
0
  6
Continuous
 62
     7
370
    15
100
AcDbLine
 10
1824.589419332431
 20
1246.607849264227
 30
0.0
 11
1823.811601873126
 21
1247.056873725729
 31
0.0
  0
LINE
  5
815
330
75C
100
AcDbEntity
  8
0
  6
Continuous
 62
     7
370
    15
100
AcDbLine
 10
1825.544013487032
 20
1247.158924739707
 30
0.0
 11
1824.589419332431
 21
1246.607849264227
 31
0.0
  0
LINE
  5
816
330
75C
100
AcDbEntity
  8
0
  6
Continuous
 62
     7
370
    15
100
AcDbLine
 10
1825.544013487033
 20
1247.158924739707
 30
0.0
 11
1827.834572988205
 21
1245.83661288588
 31
0.0
  0
LINE
  5
817
330
75C
100
AcDbEntity
  8
0
  6
Continuous
 62
     7
370
    15
100
AcDbLine
 10
1822.475636526554
 20
1248.930261055037
 30
0.0
 11
1824.766196027727
 21
1247.607949201209
 31
0.0
  0
LINE
  5
818
330
75C
100
AcDbEntity
  8
0
  6
Continuous
 62
     7
370
    15
100
AcDbLine
 10
1823.811601873126
 20
1247.056873725729
 30
0.0
 11
1824.766196027727
 21
1247.60794920121
 31
0.0
  0
LINE
  5
819
330
75C
100
AcDbEntity
  8
0
  6
Continuous
 62
     7
370
    15
100
AcDbLine
 10
1829.050912110238
 20
1244.784795786989
 30
0.0
 11
1828.054396785473
 21
1245.360071838881
 31
0.0
  0
LINE
  5
81A
330
75C
100
AcDbEntity
  8
0
  6
Continuous
 62
     7
370
    15
100
AcDbLine
 10
1825.241184011631
 20
1246.984105004701
 30
0.0
 11
1824.964393230069
 21
1247.143892921715
 31
0.0
  0
LINE
  5
81B
330
75C
100
AcDbEntity
  8
0
  6
Continuous
 62
     7
370
    15
100
AcDbLine
 10
1826.254755250494
 20
1246.748622253195
 30
0.0
 11
1826.858108219438
 21
1247.096930508217
 31
0.0
  0
LWPOLYLINE
  5
81C
330
75C
100
AcDbEntity
  8
0
  6
Continuous
 62
     7
370
    15
100
AcDbPolyline
 90
       27
 70
   128
 43
0.0
 10
1819.990691363291
 20
1241.141773498852
 10
1819.894107964381
 20
1241.064534927915
 10
1819.630026954089
 20
1240.786194129325
 10
1819.413791780981
 20
1240.446022789455
 10
1819.248680349862
 20
1240.049177559067
 10
1819.137195581725
 20
1239.601674207331
 10
1819.081027472012
 20
1239.1102964289
 10
1819.081027472012
 20
1238.582493010012
 10
1819.137195581725
 20
1238.026264912484
 10
1819.248680349862
 20
1237.450043987287
 10
1819.413791780981
 20
1236.862565156281
 10
1819.630026954089
 20
1236.272733999699
 10
1819.894107964381
 20
1235.689491756635
 10
1820.202031612931
 20
1235.121679784968
 10
1820.549130091106
 20
1234.577905535396
 10
1820.93014173979
 20
1234.066412071247
 10
1821.339290810771
 20
1233.59495311205
 10
1821.770375021196
 20
1233.170675495048
 10
1822.216859573859
 20
1232.80001083643
 10
1822.671976218061
 20
1232.488578034586
 10
1823.128825849398
 20
1232.241098093336
 10
1823.580483093146
 20
1232.06132255632
 10
1824.020101285883
 20
1231.951976637426
 10
1824.441016263929
 20
1231.914717909326
 10
1824.836847385274
 20
1231.950111176356
 10
1825.201594253607
 20
1232.057619912667
 10
1825.228349326924
 20
1232.068900728508
  0
LINE
  5
81D
330
75C
100
AcDbEntity
  8
0
  6
Continuous
 62
     7
370
    15
100
AcDbLine
 10
1827.170359083761
 20
1248.097794068304
 30
0.0
 11
1829.460918584934
 21
1246.775482214476
 31
0.0
  0
LINE
  5
81E
330
75C
100
AcDbEntity
  8
0
  6
Continuous
 62
     7
370
    15
100
AcDbLine
 10
1826.673945126833
 20
1246.506629088554
 30
0.0
 11
1827.170359083761
 21
1248.097794068304
 31
0.0
  0
LINE
  5
81F
330
75C
100
AcDbEntity
  8
0
  6
Continuous
 62
     7
370
    15
100
AcDbLine
 10
1826.392541624455
 20
1248.546818529806
 30
0.0
 11
1824.101982123283
 21
1249.869130383634
 31
0.0
  0
LINE
  5
820
330
75C
100
AcDbEntity
  8
0
  6
Continuous
 62
     7
370
    15
100
AcDbLine
 10
1827.170359083761
 20
1248.097794068304
 30
0.0
 11
1828.124953238363
 21
1248.648869543784
 31
0.0
  0
LINE
  5
821
330
75C
100
AcDbEntity
  8
0
  6
Continuous
 62
     7
370
    15
100
AcDbLine
 10
1827.347135779058
 20
1249.097894005287
 30
0.0
 11
1828.124953238363
 21
1248.648869543784
 31
0.0
  0
LINE
  5
822
330
75C
100
AcDbEntity
  8
0
  6
Continuous
 62
     7
370
    15
100
AcDbLine
 10
1826.392541624456
 20
1248.546818529806
 30
0.0
 11
1827.347135779058
 21
1249.097894005287
 31
0.0
  0
LINE
  5
823
330
75C
100
AcDbEntity
  8
0
  6
Continuous
 62
     7
370
    15
100
AcDbLine
 10
1825.073886718093
 20
1246.887526332876
 30
0.0
 11
1824.766196027727
 21
1247.60794920121
 31
0.0
  0
LINE
  5
824
330
75C
100
AcDbEntity
  8
0
  6
Continuous
 62
     7
370
    15
100
AcDbLine
 10
1826.392541624456
 20
1248.546818529806
 30
0.0
 11
1826.021090812752
 21
1246.883513861855
 31
0.0
  0
LINE
  5
825
330
75C
100
AcDbEntity
  8
0
  6
Continuous
 62
     7
370
    15
100
AcDbLine
 10
1827.347135779058
 20
1249.097894005287
 30
0.0
 11
1827.347135779058
 21
1248.199845082281
 31
0.0
  0
LWPOLYLINE
  5
826
330
75C
100
AcDbEntity
  8
0
  6
Continuous
 62
     7
370
    15
100
AcDbPolyline
 90
       19
 70
   128
 43
0.0
 10
1818.995738223373
 20
1250.939163584772
 10
1818.48342995692
 20
1250.807142562257
 10
1817.943944575005
 20
1250.718241628953
 10
1817.38811058242
 20
1250.674245196848
 10
1816.827084631882
 20
1250.676036358592
 10
1816.272127588645
 20
1250.723579162138
 10
1815.734378503374
 20
1250.81591933237
 10
1815.22463103006
 20
1250.951203425228
 10
1814.753116776718
 20
1251.126716029885
 10
1814.329299937415
 20
1251.338934272239
 10
1813.961687327772
 20
1251.583598525744
 10
1813.657657636887
 20
1251.855797910272
 10
1813.423313322905
 20
1252.150068862883
 10
1813.263358125006
 20
1252.460504801995
 10
1813.181002650342
 20
1252.78087468379
 10
1813.177899931011
 20
1253.104748071198
 10
1813.254112244532
 20
1253.425624205076
 10
1813.408109863816
 20
1253.737062486905
 10
1813.636801761722
 20
1254.032811753929
  0
ELLIPSE
  5
827
330
75C
100
AcDbEntity
  8
0
  6
Continuous
 62
     7
370
    15
100
AcDbEllipse
 10
1817.129442790912
 20
1250.375480774521
 30
0.0
 11
-3.558731157479682
 21
7.398056379326986
 31
0.0
210
0.0
220
0.0
230
0.9999999999999998
 40
0.2347860887583269
 41
4.48784399847922
 42
4.67570953513131
  0
ARC
  5
828
330
75C
100
AcDbEntity
  8
0
  6
Continuous
 62
     7
370
    15
100
AcDbCircle
 10
1818.057607809113
 20
1252.93014388796
 30
0.0
 40
3.728317987097262
100
AcDbArc
 50
294.6940103409302
 51
305.3006131263639
  0
ELLIPSE
  5
829
330
75C
100
AcDbEntity
  8
0
  6
Continuous
 62
     7
370
    15
100
AcDbEllipse
 10
1817.129442790912
 20
1250.375480774521
 30
0.0
 11
2.555205607683205
 21
10.59909328466011
 31
0.0
210
0.0
220
0.0
230
1.0
 40
0.2854313889643486
 41
4.73512996251477
 42
4.922995499166875
  0
LWPOLYLINE
  5
82A
330
75C
100
AcDbEntity
  8
0
  6
Continuous
 62
     7
370
    15
100
AcDbPolyline
 90
       19
 70
   128
 43
0.0
 10
1815.263147358452
 20
1254.971681082525
 10
1815.775455624905
 20
1255.103702105041
 10
1816.31494100682
 20
1255.192603038344
 10
1816.870774999404
 20
1255.236599470449
 10
1817.431800949943
 20
1255.234808308705
 10
1817.98675799318
 20
1255.187265505159
 10
1818.524507078451
 20
1255.094925334928
 10
1819.034254551764
 20
1254.959641242069
 10
1819.505768805107
 20
1254.784128637412
 10
1819.92958564441
 20
1254.571910395058
 10
1820.297198254053
 20
1254.327246141553
 10
1820.601227944938
 20
1254.055046757026
 10
1820.83557225892
 20
1253.760775804415
 10
1820.995527456819
 20
1253.450339865303
 10
1821.077882931482
 20
1253.129969983507
 10
1821.080985650814
 20
1252.8060965961
 10
1821.004773337293
 20
1252.485220462222
 10
1820.850775718009
 20
1252.173782180392
 10
1820.622083820103
 20
1251.878032913368
  0
ELLIPSE
  5
82B
330
75C
100
AcDbEntity
  8
0
  6
Continuous
 62
     7
370
    15
100
AcDbEllipse
 10
1817.129442790912
 20
1250.375480774521
 30
0.0
 11
2.555205607683205
 21
10.59909328466011
 31
0.0
210
0.0
220
0.0
230
1.0
 40
0.2854313889643486
 41
1.192104749987194
 42
1.350900197841382
  0
LINE
  5
82C
330
75C
100
AcDbEntity
  8
0
  6
Continuous
 62
     7
370
    15
100
AcDbLine
 10
1815.750584567599
 20
1251.710399963119
 30
0.0
 11
1814.972767108294
 21
1252.159424424621
 31
0.0
  0
LINE
  5
82D
330
75C
100
AcDbEntity
  8
0
  6
Continuous
 62
     7
370
    15
100
AcDbLine
 10
1816.705178722201
 20
1252.261475438599
 30
0.0
 11
1815.750584567599
 21
1251.710399963119
 31
0.0
  0
LINE
  5
82E
330
75C
100
AcDbEntity
  8
0
  6
Continuous
 62
     7
370
    15
100
AcDbLine
 10
1816.705178722201
 20
1252.261475438599
 30
0.0
 11
1818.995738223373
 21
1250.939163584772
 31
0.0
  0
LINE
  5
82F
330
75C
100
AcDbEntity
  8
0
  6
Continuous
 62
     7
370
    15
100
AcDbLine
 10
1813.636801761722
 20
1254.032811753929
 30
0.0
 11
1815.927361262895
 21
1252.710499900101
 31
0.0
  0
LINE
  5
830
330
75C
100
AcDbEntity
  8
0
  6
Continuous
 62
     7
370
    15
100
AcDbLine
 10
1814.972767108294
 20
1252.159424424621
 30
0.0
 11
1815.927361262896
 21
1252.710499900102
 31
0.0
  0
LINE
  5
831
330
75C
100
AcDbEntity
  8
0
  6
Continuous
 62
     7
370
    15
100
AcDbLine
 10
1820.212077345406
 20
1249.887346485881
 30
0.0
 11
1819.215562020641
 21
1250.462622537773
 31
0.0
  0
LINE
  5
832
330
75C
100
AcDbEntity
  8
0
  6
Continuous
 62
     7
370
    15
100
AcDbLine
 10
1816.402349246799
 20
1252.086655703593
 30
0.0
 11
1816.125558465237
 21
1252.246443620607
 31
0.0
  0
LINE
  5
833
330
75C
100
AcDbEntity
  8
0
  6
Continuous
 62
     7
370
    15
100
AcDbLine
 10
1817.415920485662
 20
1251.851172952087
 30
0.0
 11
1818.019273454606
 21
1252.199481207109
 31
0.0
  0
LINE
  5
834
330
75C
100
AcDbEntity
  8
0
  6
Continuous
 62
     7
370
    15
100
AcDbLine
 10
1818.331524318929
 20
1253.200344767196
 30
0.0
 11
1820.622083820103
 21
1251.878032913368
 31
0.0
  0
LINE
  5
835
330
75C
100
AcDbEntity
  8
0
  6
Continuous
 62
     7
370
    15
100
AcDbLine
 10
1817.835110362002
 20
1251.609179787446
 30
0.0
 11
1818.331524318929
 21
1253.200344767196
 31
0.0
  0
LINE
  5
836
330
75C
100
AcDbEntity
  8
0
  6
Continuous
 62
     7
370
    15
100
AcDbLine
 10
1817.553706859624
 20
1253.649369228698
 30
0.0
 11
1815.263147358452
 21
1254.971681082525
 31
0.0
  0
LINE
  5
837
330
75C
100
AcDbEntity
  8
0
  6
Continuous
 62
     7
370
    15
100
AcDbLine
 10
1818.331524318929
 20
1253.200344767196
 30
0.0
 11
1819.286118473531
 21
1253.751420242676
 31
0.0
  0
LINE
  5
838
330
75C
100
AcDbEntity
  8
0
  6
Continuous
 62
     7
370
    15
100
AcDbLine
 10
1818.508301014226
 20
1254.200444704179
 30
0.0
 11
1819.286118473531
 21
1253.751420242676
 31
0.0
  0
LINE
  5
839
330
75C
100
AcDbEntity
  8
0
  6
Continuous
 62
     7
370
    15
100
AcDbLine
 10
1817.553706859624
 20
1253.649369228698
 30
0.0
 11
1818.508301014226
 21
1254.200444704179
 31
0.0
  0
LWPOLYLINE
  5
83A
330
75C
100
AcDbEntity
  8
0
  6
Continuous
 62
     7
370
    15
100
AcDbPolyline
 90
       24
 70
   128
 43
0.0
 10
1811.653222182647
 20
1245.37583943063
 10
1811.616291741498
 20
1245.345758445981
 10
1811.379757817111
 20
1245.095354435407
 10
1811.191055368502
 20
1244.783749348286
 10
1811.05369956525
 20
1244.416747797811
 10
1810.970249086082
 20
1244.001186328473
 10
1810.94225845553
 20
1243.544806064173
 10
1810.970249086082
 20
1243.056108505732
 10
1811.05369956525
 20
1242.544197164011
 10
1811.191055368502
 20
1242.018607978733
 10
1811.379757817111
 20
1241.489131681967
 10
1811.616291741498
 20
1240.965631415315
 10
1811.89625096219
 20
1240.457858998242
 10
1812.21442036861
 20
1239.975273270138
 10
1812.564873066715
 20
1239.526863890029
 10
1812.941080785822
 20
1239.120983876244
 10
1813.336035487937
 20
1238.765194005485
 10
1813.742379914241
 20
1238.466121969864
 10
1814.152544636906
 20
1238.229338915539
 10
1814.55888906321
 20
1238.0592556628
 10
1814.953843765324
 20
1237.959040540837
 10
1815.330051484431
 20
1237.930560367758
 10
1815.680504182536
 20
1237.9743456753
 10
1815.888148977906
 20
1238.039936194514
  0
LINE
  5
83B
330
75C
100
AcDbEntity
  8
0
  6
Continuous
 62
     7
370
    15
100
AcDbLine
 10
1816.235051953262
 20
1251.990077031768
 30
0.0
 11
1815.927361262895
 21
1252.710499900102
 31
0.0
  0
LINE
  5
83C
330
75C
100
AcDbEntity
  8
0
  6
Continuous
 62
     7
370
    15
100
AcDbLine
 10
1817.553706859624
 20
1253.649369228698
 30
0.0
 11
1817.182256047921
 21
1251.986064560747
 31
0.0
  0
LINE
  5
83D
330
75C
100
AcDbEntity
  8
0
  6
Continuous
 62
     7
370
    15
100
AcDbLine
 10
1818.508301014226
 20
1254.200444704179
 30
0.0
 11
1818.508301014226
 21
1253.302395781173
 31
0.0
  0
ENDBLK
  5
75E
330
75C
100
AcDbEntity
  8
0
100
AcDbBlockEnd
  0
ENDSEC
  0
SECTION
  2
ENTITIES
  0
INSERT
  5
644
330
1F
100
AcDbEntity
  8
0
100
AcDbBlockReference
  2
1
 10
0.0
 20
0.0
 30
0.0
  0
INSERT
  5
74C
330
1F
100
AcDbEntity
  8
0
100
AcDbBlockReference
  2
2
 10
0.0
 20
0.0
 30
0.0
  0
INSERT
  5
75B
330
1F
100
AcDbEntity
  8
0
100
AcDbBlockReference
  2
3
 10
0.0
 20
0.0
 30
0.0
  0
INSERT
  5
83E
330
1F
100
AcDbEntity
  8
0
100
AcDbBlockReference
  2
4
 10
0.0
 20
0.0
 30
0.0
  0
ENDSEC
  0
SECTION
  2
OBJECTS
  0
DICTIONARY
  5
C
330
0
100
AcDbDictionary
281
     1
  3
ACAD_COLOR
350
6B
  3
ACAD_GROUP
350
D
  3
ACAD_LAYOUT
350
1A
  3
ACAD_MATERIAL
350
6A
  3
ACAD_MLEADERSTYLE
350
12D
  3
ACAD_MLINESTYLE
350
17
  3
ACAD_PLOTSETTINGS
350
19
  3
ACAD_PLOTSTYLENAME
350
E
  3
ACAD_SCALELIST
350
10C
  3
ACAD_TABLESTYLE
350
7E
  3
ACAD_VISUALSTYLE
350
EF
  3
ACDB_RECOMPOSE_DATA
350
15D
  3
AcDbVariableDictionary
350
5E
  3
DWGPROPS
350
84C
  0
DICTIONARY
  5
13C
330
10
100
AcDbDictionary
280
     1
281
     1
  3
ADSK_XREC_LAYER_RECONCILED
360
83F
  0
DICTIONARY
  5
6B
102
{ACAD_REACTORS
330
C
102
}
330
C
100
AcDbDictionary
281
     1
  0
DICTIONARY
  5
D
102
{ACAD_REACTORS
330
C
102
}
330
C
100
AcDbDictionary
281
     1
  0
DICTIONARY
  5
1A
102
{ACAD_REACTORS
330
C
102
}
330
C
100
AcDbDictionary
281
     1
  3
Layout1
350
D3
  3
Layout2
350
D7
  3
Model
350
22
  0
DICTIONARY
  5
6A
102
{ACAD_REACTORS
330
C
102
}
330
C
100
AcDbDictionary
281
     1
  3
ByBlock
350
ED
  3
ByLayer
350
EC
  3
Global
350
EE
  0
DICTIONARY
  5
12D
102
{ACAD_REACTORS
330
C
102
}
330
C
100
AcDbDictionary
281
     1
  3
Annotative
350
13B
  3
Standard
350
12E
  0
DICTIONARY
  5
17
102
{ACAD_REACTORS
330
C
102
}
330
C
100
AcDbDictionary
281
     1
  3
Standard
350
18
  0
DICTIONARY
  5
19
102
{ACAD_REACTORS
330
C
102
}
330
C
100
AcDbDictionary
281
     1
  0
ACDBDICTIONARYWDFLT
  5
E
102
{ACAD_REACTORS
330
C
102
}
330
C
100
AcDbDictionary
281
     1
  3
Normal
350
F
100
AcDbDictionaryWithDefault
340
F
  0
DICTIONARY
  5
10C
102
{ACAD_REACTORS
330
C
102
}
330
C
100
AcDbDictionary
281
     1
  3
A0
350
10D
  3
A1
350
188
  3
A2
350
189
  3
A3
350
18A
  3
A4
350
18B
  3
A5
350
18C
  3
A6
350
18D
  3
A7
350
18E
  3
A8
350
18F
  3
A9
350
190
  3
B0
350
191
  3
B1
350
192
  3
B2
350
193
  3
B3
350
194
  3
B4
350
195
  3
B5
350
196
  3
B6
350
197
  3
B7
350
198
  3
B8
350
199
  3
B9
350
19A
  3
C0
350
19B
  3
C1
350
19C
  3
C2
350
19D
  3
C3
350
19E
  3
C4
350
19F
  3
C5
350
1A0
  3
C6
350
1A1
  3
C7
350
1A2
  3
C8
350
1A3
  3
C9
350
1A4
  3
D0
350
1A5
  3
D1
350
1A6
  3
D2
350
1A7
  0
DICTIONARY
  5
7E
102
{ACAD_REACTORS
330
C
102
}
330
C
100
AcDbDictionary
281
     1
  3
Standard
350
7F
  0
DICTIONARY
  5
EF
102
{ACAD_REACTORS
330
C
102
}
330
C
100
AcDbDictionary
281
     1
  3
2dWireframe
350
F5
  3
3D Hidden
350
F7
  3
3dWireframe
350
F6
  3
Basic
350
F4
  3
Brighten
350
FB
  3
ColorChange
350
FF
  3
Conceptual
350
F8
  3
Dim
350
FA
  3
Facepattern
350
FE
  3
Flat
350
F0
  3
FlatWithEdges
350
F1
  3
Gouraud
350
F2
  3
GouraudWithEdges
350
F3
  3
Linepattern
350
FD
  3
Realistic
350
F9
  3
Thicken
350
FC
  0
XRECORD
  5
15D
102
{ACAD_REACTORS
330
C
102
}
330
C
100
AcDbXrecord
280
     1
 90
        1
330
7F
  0
DICTIONARY
  5
5E
102
{ACAD_REACTORS
330
C
102
}
330
C
100
AcDbDictionary
281
     1
  3
CANNOSCALE
350
146
  3
CMLEADERSTYLE
350
145
  3
CTABLESTYLE
350
84
  3
DIMASSOC
350
5F
  3
HIDETEXT
350
63
  3
INDEXCTL
350
848
  3
LIGHTINGUNITS
350
846
  3
MSLTSCALE
350
845
  3
PSOLHEIGHT
350
84A
  3
PSOLWIDTH
350
849
  3
SORTENTS
350
847
  0
XRECORD
  5
84C
102
{ACAD_REACTORS
330
C
102
}
330
C
100
AcDbXrecord
280
     1
  1
DWGPROPS COOKIE
  2

  3

  4

  6

  7

  8
orhan kara
  9

300
=
301
=
302
=
303
=
304
=
305
=
306
=
307
=
308
=
309
=
 40
0.0005573032407407
 41
2458492.44060831
 42
2458983.560566968
  1

 90
        0
  0
XRECORD
  5
83F
102
{ACAD_REACTORS
330
13C
102
}
330
13C
100
AcDbXrecord
280
     1
290
     1
  0
LAYOUT
  5
D3
102
{ACAD_XDICTIONARY
360
850
102
}
102
{ACAD_REACTORS
330
1A
102
}
330
1A
100
AcDbPlotSettings
  1

  2
C:\Documents and Settings\basas\Application Data\Autodesk\AutoCAD 2005\R16.1\enu\plotters\Default Windows System Printer.pc3
  4

  6

 40
0.0
 41
0.0
 42
0.0
 43
0.0
 44
0.0
 45
0.0
 46
0.0
 47
0.0
 48
0.0
 49
0.0
140
0.0
141
0.0
142
1.0
143
1.0
 70
   688
 72
     0
 73
     0
 74
     5
  7

 75
    16
147
1.0
148
0.0
149
0.0
100
AcDbLayout
  1
Layout1
 70
     1
 71
     1
 10
0.0
 20
0.0
 11
12.0
 21
9.0
 12
0.0
 22
0.0
 32
0.0
 14
0.0
 24
0.0
 34
0.0
 15
0.0
 25
0.0
 35
0.0
146
0.0
 13
0.0
 23
0.0
 33
0.0
 16
1.0
 26
0.0
 36
0.0
 17
0.0
 27
1.0
 37
0.0
 76
     0
330
D2
  0
LAYOUT
  5
D7
102
{ACAD_XDICTIONARY
360
852
102
}
102
{ACAD_REACTORS
330
1A
102
}
330
1A
100
AcDbPlotSettings
  1

  2
C:\Documents and Settings\basas\Application Data\Autodesk\AutoCAD 2005\R16.1\enu\plotters\Default Windows System Printer.pc3
  4

  6

 40
0.0
 41
0.0
 42
0.0
 43
0.0
 44
0.0
 45
0.0
 46
0.0
 47
0.0
 48
0.0
 49
0.0
140
0.0
141
0.0
142
1.0
143
1.0
 70
   688
 72
     0
 73
     0
 74
     5
  7

 75
    16
147
1.0
148
0.0
149
0.0
100
AcDbLayout
  1
Layout2
 70
     1
 71
     2
 10
0.0
 20
0.0
 11
12.0
 21
9.0
 12
0.0
 22
0.0
 32
0.0
 14
0.0
 24
0.0
 34
0.0
 15
0.0
 25
0.0
 35
0.0
146
0.0
 13
0.0
 23
0.0
 33
0.0
 16
1.0
 26
0.0
 36
0.0
 17
0.0
 27
1.0
 37
0.0
 76
     0
330
D6
  0
LAYOUT
  5
22
102
{ACAD_XDICTIONARY
360
84D
102
}
102
{ACAD_REACTORS
330
1A
102
}
330
1A
100
AcDbPlotSettings
  1

  2
none_device
  4
ISO_A4_(210.00_x_297.00_MM)
  6

 40
7.5
 41
20.0
 42
7.5
 43
20.0
 44
210.0
 45
297.0
 46
11.54999923706054
 47
-13.65000009536743
 48
0.0
 49
0.0
140
0.0
141
0.0
142
1.0
143
8.704084754739808
 70
 11952
 72
     1
 73
     0
 74
     0
  7

 75
     0
147
0.1148885871608098
148
0.0
149
0.0
100
AcDbLayout
  1
Model
 70
     1
 71
     0
 10
0.0
 20
0.0
 11
12.0
 21
9.0
 12
0.0
 22
0.0
 32
0.0
 14
0.0
 24
0.0
 34
0.0
 15
0.0
 25
0.0
 35
0.0
146
0.0
 13
0.0
 23
0.0
 33
0.0
 16
1.0
 26
0.0
 36
0.0
 17
0.0
 27
1.0
 37
0.0
 76
     0
330
1F
331
EA
1001
ACAD_PSEXT
1000
None
1000
None
1000
Not applicable
1000
The layout will not be plotted unless a new plotter configuration name is selected.
1070
     0
  0
MATERIAL
  5
ED
102
{ACAD_XDICTIONARY
360
856
102
}
102
{ACAD_REACTORS
330
6A
102
}
330
6A
100
AcDbMaterial
  1
ByBlock
  0
MATERIAL
  5
EC
102
{ACAD_XDICTIONARY
360
854
102
}
102
{ACAD_REACTORS
330
6A
102
}
330
6A
100
AcDbMaterial
  1
ByLayer
  0
MATERIAL
  5
EE
102
{ACAD_XDICTIONARY
360
173
102
}
102
{ACAD_REACTORS
330
6A
102
}
330
6A
100
AcDbMaterial
  1
Global
 43
0.0007999999797903
 43
0.0
 43
0.0
 43
0.0
 43
0.0
 43
0.0007999999797903
 43
0.0
 43
0.0
 43
0.0
 43
0.0
 43
1.0
 43
0.0
 43
0.0
 43
0.0
 43
0.0
 43
1.0
 49
0.0007999999797903
 49
0.0
 49
0.0
 49
0.0
 49
0.0
 49
0.0007999999797903
 49
0.0
 49
0.0
 49
0.0
 49
0.0
 49
1.0
 49
0.0
 49
0.0
 49
0.0
 49
0.0
 49
1.0
142
0.0007999999797903
142
0.0
142
0.0
142
0.0
142
0.0
142
0.0007999999797903
142
0.0
142
0.0
142
0.0
142
0.0
142
1.0
142
0.0
142
0.0
142
0.0
142
0.0
142
1.0
144
0.0007999999797903
144
0.0
144
0.0
144
0.0
144
0.0
144
0.0007999999797903
144
0.0
144
0.0
144
0.0
144
0.0
144
1.0
144
0.0
144
0.0
144
0.0
144
0.0
144
1.0
1001
ACAD
1070
    -1
1070
     3
1070
     0
1000

1071
        0
1070
     0
  0
MLEADERSTYLE
  5
13B
102
{ACAD_REACTORS
330
12D
102
}
330
12D
100
AcDbMLeaderStyle
170
     2
171
     1
172
     0
 90
        2
 40
0.0
 41
0.0
173
     1
 91
-1056964608
340
14
 92
       -2
290
     1
 42
2.0
291
     1
 43
8.0
  3
Standard
 44
4.0
300

342
11
174
     1
178
     1
175
     1
176
     0
 93
-1056964608
 45
4.0
292
     0
297
     0
 46
4.0
 94
-1056964608
 47
1.0
 49
1.0
140
1.0
293
     1
141
0.0
294
     1
177
     0
142
1.0
295
     0
296
     1
143
3.75
1001
ACAD_MLEADERVER
1070
     2
  0
MLEADERSTYLE
  5
12E
102
{ACAD_REACTORS
330
12D
102
}
330
12D
100
AcDbMLeaderStyle
170
     2
171
     1
172
     0
 90
        2
 40
0.0
 41
0.0
173
     1
 91
-1056964608
340
14
 92
       -2
290
     1
 42
2.0
291
     1
 43
8.0
  3
Standard
 44
4.0
300

342
11
174
     1
178
     1
175
     1
176
     0
 93
-1056964608
 45
4.0
292
     0
297
     0
 46
4.0
 94
-1056964608
 47
1.0
 49
1.0
140
1.0
293
     1
141
0.0
294
     1
177
     0
142
1.0
295
     0
296
     0
143
3.75
1001
ACAD_MLEADERVER
1070
     2
  0
MLINESTYLE
  5
18
102
{ACAD_REACTORS
330
17
102
}
330
17
100
AcDbMlineStyle
  2
STANDARD
 70
     0
  3

 62
   256
 51
90.0
 52
90.0
 71
     2
 49
0.5
 62
   256
  6
BYLAYER
 49
-0.5
 62
   256
  6
BYLAYER
  0
ACDBPLACEHOLDER
  5
F
102
{ACAD_REACTORS
330
E
102
}
330
E
  0
SCALE
  5
10D
102
{ACAD_REACTORS
330
10C
102
}
330
10C
100
AcDbScale
 70
     0
300
1:1
140
1.0
141
1.0
290
     1
  0
SCALE
  5
188
102
{ACAD_REACTORS
330
10C
102
}
330
10C
100
AcDbScale
 70
     0
300
1:2
140
1.0
141
2.0
290
     0
  0
SCALE
  5
189
102
{ACAD_REACTORS
330
10C
102
}
330
10C
100
AcDbScale
 70
     0
300
1:4
140
1.0
141
4.0
290
     0
  0
SCALE
  5
18A
102
{ACAD_REACTORS
330
10C
102
}
330
10C
100
AcDbScale
 70
     0
300
1:5
140
1.0
141
5.0
290
     0
  0
SCALE
  5
18B
102
{ACAD_REACTORS
330
10C
102
}
330
10C
100
AcDbScale
 70
     0
300
1:8
140
1.0
141
8.0
290
     0
  0
SCALE
  5
18C
102
{ACAD_REACTORS
330
10C
102
}
330
10C
100
AcDbScale
 70
     0
300
1:10
140
1.0
141
10.0
290
     0
  0
SCALE
  5
18D
102
{ACAD_REACTORS
330
10C
102
}
330
10C
100
AcDbScale
 70
     0
300
1:16
140
1.0
141
16.0
290
     0
  0
SCALE
  5
18E
102
{ACAD_REACTORS
330
10C
102
}
330
10C
100
AcDbScale
 70
     0
300
1:20
140
1.0
141
20.0
290
     0
  0
SCALE
  5
18F
102
{ACAD_REACTORS
330
10C
102
}
330
10C
100
AcDbScale
 70
     0
300
1:30
140
1.0
141
30.0
290
     0
  0
SCALE
  5
190
102
{ACAD_REACTORS
330
10C
102
}
330
10C
100
AcDbScale
 70
     0
300
1:40
140
1.0
141
40.0
290
     0
  0
SCALE
  5
191
102
{ACAD_REACTORS
330
10C
102
}
330
10C
100
AcDbScale
 70
     0
300
1:50
140
1.0
141
50.0
290
     0
  0
SCALE
  5
192
102
{ACAD_REACTORS
330
10C
102
}
330
10C
100
AcDbScale
 70
     0
300
1:100
140
1.0
141
100.0
290
     0
  0
SCALE
  5
193
102
{ACAD_REACTORS
330
10C
102
}
330
10C
100
AcDbScale
 70
     0
300
2:1
140
2.0
141
1.0
290
     0
  0
SCALE
  5
194
102
{ACAD_REACTORS
330
10C
102
}
330
10C
100
AcDbScale
 70
     0
300
4:1
140
4.0
141
1.0
290
     0
  0
SCALE
  5
195
102
{ACAD_REACTORS
330
10C
102
}
330
10C
100
AcDbScale
 70
     0
300
8:1
140
8.0
141
1.0
290
     0
  0
SCALE
  5
196
102
{ACAD_REACTORS
330
10C
102
}
330
10C
100
AcDbScale
 70
     0
300
10:1
140
10.0
141
1.0
290
     0
  0
SCALE
  5
197
102
{ACAD_REACTORS
330
10C
102
}
330
10C
100
AcDbScale
 70
     0
300
100:1
140
100.0
141
1.0
290
     0
  0
SCALE
  5
198
102
{ACAD_REACTORS
330
10C
102
}
330
10C
100
AcDbScale
 70
     0
300
1/128" = 1'-0"
140
0.0078125
141
12.0
290
     0
  0
SCALE
  5
199
102
{ACAD_REACTORS
330
10C
102
}
330
10C
100
AcDbScale
 70
     0
300
1/64" = 1'-0"
140
0.015625
141
12.0
290
     0
  0
SCALE
  5
19A
102
{ACAD_REACTORS
330
10C
102
}
330
10C
100
AcDbScale
 70
     0
300
1/32" = 1'-0"
140
0.03125
141
12.0
290
     0
  0
SCALE
  5
19B
102
{ACAD_REACTORS
330
10C
102
}
330
10C
100
AcDbScale
 70
     0
300
1/16" = 1'-0"
140
0.0625
141
12.0
290
     0
  0
SCALE
  5
19C
102
{ACAD_REACTORS
330
10C
102
}
330
10C
100
AcDbScale
 70
     0
300
3/32" = 1'-0"
140
0.09375
141
12.0
290
     0
  0
SCALE
  5
19D
102
{ACAD_REACTORS
330
10C
102
}
330
10C
100
AcDbScale
 70
     0
300
1/8" = 1'-0"
140
0.125
141
12.0
290
     0
  0
SCALE
  5
19E
102
{ACAD_REACTORS
330
10C
102
}
330
10C
100
AcDbScale
 70
     0
300
3/16" = 1'-0"
140
0.1875
141
12.0
290
     0
  0
SCALE
  5
19F
102
{ACAD_REACTORS
330
10C
102
}
330
10C
100
AcDbScale
 70
     0
300
1/4" = 1'-0"
140
0.25
141
12.0
290
     0
  0
SCALE
  5
1A0
102
{ACAD_REACTORS
330
10C
102
}
330
10C
100
AcDbScale
 70
     0
300
3/8" = 1'-0"
140
0.375
141
12.0
290
     0
  0
SCALE
  5
1A1
102
{ACAD_REACTORS
330
10C
102
}
330
10C
100
AcDbScale
 70
     0
300
1/2" = 1'-0"
140
0.5
141
12.0
290
     0
  0
SCALE
  5
1A2
102
{ACAD_REACTORS
330
10C
102
}
330
10C
100
AcDbScale
 70
     0
300
3/4" = 1'-0"
140
0.75
141
12.0
290
     0
  0
SCALE
  5
1A3
102
{ACAD_REACTORS
330
10C
102
}
330
10C
100
AcDbScale
 70
     0
300
1" = 1'-0"
140
1.0
141
12.0
290
     0
  0
SCALE
  5
1A4
102
{ACAD_REACTORS
330
10C
102
}
330
10C
100
AcDbScale
 70
     0
300
1-1/2" = 1'-0"
140
1.5
141
12.0
290
     0
  0
SCALE
  5
1A5
102
{ACAD_REACTORS
330
10C
102
}
330
10C
100
AcDbScale
 70
     0
300
3" = 1'-0"
140
3.0
141
12.0
290
     0
  0
SCALE
  5
1A6
102
{ACAD_REACTORS
330
10C
102
}
330
10C
100
AcDbScale
 70
     0
300
6" = 1'-0"
140
6.0
141
12.0
290
     0
  0
SCALE
  5
1A7
102
{ACAD_REACTORS
330
10C
102
}
330
10C
100
AcDbScale
 70
     0
300
1'-0" = 1'-0"
140
12.0
141
12.0
290
     0
  0
TABLESTYLE
  5
7F
102
{ACAD_XDICTIONARY
360
162
102
}
102
{ACAD_REACTORS
330
7E
102
}
330
7E
100
AcDbTableStyle
  3
Standard
 70
     0
 71
     0
 40
1.5
 41
1.5
280
     0
281
     0
  7
Standard
140
4.5
170
     2
 62
     0
 63
     7
283
     0
274
    -2
284
     1
 64
     0
275
    -2
285
     1
 65
     0
276
    -2
286
     1
 66
     0
277
    -2
287
     1
 67
     0
278
    -2
288
     1
 68
     0
279
    -2
289
     1
 69
     0
  7
Standard
140
6.0
170
     5
 62
     0
 63
     7
283
     0
274
    -2
284
     1
 64
     0
275
    -2
285
     1
 65
     0
276
    -2
286
     1
 66
     0
277
    -2
287
     1
 67
     0
278
    -2
288
     1
 68
     0
279
    -2
289
     1
 69
     0
  7
Standard
140
4.5
170
     5
 62
     0
 63
     7
283
     0
274
    -2
284
     1
 64
     0
275
    -2
285
     1
 65
     0
276
    -2
286
     1
 66
     0
277
    -2
287
     1
 67
     0
278
    -2
288
     1
 68
     0
279
    -2
289
     1
 69
     0
  0
VISUALSTYLE
  5
F5
102
{ACAD_REACTORS
330
EF
102
}
330
EF
100
AcDbVisualStyle
  2
2dWireframe
 70
     4
 71
     0
 72
     2
 73
     1
 90
        0
 40
-0.6
 41
-30.0
 62
     5
 63
     7
 74
     1
 91
        4
 64
     7
 65
   257
 75
     1
175
     1
 42
1.0
 92
        0
 66
   257
 43
1.0
 76
     1
 77
     6
 78
     2
 67
     7
 79
     5
170
     0
171
     0
290
     0
174
     0
 93
        1
 44
0.0
173
     0
291
     0
 45
0.0
1001
ACAD
1000
AcDbSavedByObjectVersion
1070
     0
  0
VISUALSTYLE
  5
F7
102
{ACAD_REACTORS
330
EF
102
}
330
EF
100
AcDbVisualStyle
  2
3D Hidden
 70
     6
 71
     1
 72
     2
 73
     2
 90
        0
 40
-0.6
 41
-30.0
 62
     5
 63
     7
 74
     2
 91
        2
 64
     7
 65
   257
 75
     2
175
     1
 42
40.0
 92
        0
 66
   257
 43
1.0
 76
     1
 77
     6
 78
     2
 67
     7
 79
     3
170
     0
171
     0
290
     0
174
     0
 93
        1
 44
0.0
173
     0
291
     0
 45
0.0
1001
ACAD
1000
AcDbSavedByObjectVersion
1070
     0
  0
VISUALSTYLE
  5
F6
102
{ACAD_REACTORS
330
EF
102
}
330
EF
100
AcDbVisualStyle
  2
3dWireframe
 70
     5
 71
     0
 72
     2
 73
     1
 90
        0
 40
-0.6
 41
-30.0
 62
     5
 63
     7
 74
     1
 91
        4
 64
     7
 65
   257
 75
     1
175
     1
 42
1.0
 92
        0
 66
   257
 43
1.0
 76
     1
 77
     6
 78
     2
 67
     7
 79
     5
170
     0
171
     0
290
     0
174
     0
 93
        1
 44
0.0
173
     0
291
     0
 45
0.0
1001
ACAD
1000
AcDbSavedByObjectVersion
1070
     0
  0
VISUALSTYLE
  5
F4
102
{ACAD_REACTORS
330
EF
102
}
330
EF
100
AcDbVisualStyle
  2
Basic
 70
     7
 71
     1
 72
     0
 73
     1
 90
        0
 40
-0.6
 41
-30.0
 62
     5
 63
     7
 74
     0
 91
        4
 64
     7
 65
   257
 75
     1
175
     1
 42
1.0
 92
        8
 66
     7
 43
1.0
 76
     1
 77
     6
 78
     2
 67
     7
 79
     5
170
     0
171
     0
290
     0
174
     0
 93
        1
 44
0.0
173
     0
291
     1
 45
0.0
1001
ACAD
1000
AcDbSavedByObjectVersion
1070
     0
  0
VISUALSTYLE
  5
FB
102
{ACAD_REACTORS
330
EF
102
}
330
EF
100
AcDbVisualStyle
  2
Brighten
 70
    12
 71
     2
 72
     2
 73
     1
 90
        0
 40
-0.6
 41
-30.0
 62
     5
 63
     7
 74
     1
 91
        4
 64
     7
 65
   257
 75
     1
175
     1
 42
1.0
 92
        8
 66
     7
 43
1.0
 76
     1
 77
     6
 78
     2
 67
     7
 79
     5
170
     0
171
     0
290
     0
174
     0
 93
        1
 44
50.0
173
     0
291
     1
 45
0.0
1001
ACAD
1000
AcDbSavedByObjectVersion
1070
     0
  0
VISUALSTYLE
  5
FF
102
{ACAD_REACTORS
330
EF
102
}
330
EF
100
AcDbVisualStyle
  2
ColorChange
 70
    16
 71
     2
 72
     2
 73
     3
 90
        0
 40
-0.6
 41
-30.0
 62
     5
 63
     8
 74
     1
 91
        4
 64
     7
 65
   257
 75
     1
175
     1
 42
1.0
 92
        8
 66
     8
 43
1.0
 76
     1
 77
     6
 78
     2
 67
     7
 79
     5
170
     0
171
     0
290
     0
174
     0
 93
        1
 44
0.0
173
     0
291
     1
 45
0.0
1001
ACAD
1000
AcDbSavedByObjectVersion
1070
     0
  0
VISUALSTYLE
  5
F8
102
{ACAD_REACTORS
330
EF
102
}
330
EF
100
AcDbVisualStyle
  2
Conceptual
 70
     9
 71
     3
 72
     2
 73
     1
 90
        0
 40
-0.6
 41
-30.0
 62
     5
 63
     7
 74
     2
 91
        2
 64
     7
 65
   257
 75
     1
175
     1
 42
40.0
 92
        8
 66
     7
 43
1.0
 76
     1
 77
     6
 78
     2
 67
     7
 79
     3
170
     0
171
     0
290
     0
174
     0
 93
        1
 44
0.0
173
     0
291
     0
 45
0.0
1001
ACAD
1000
AcDbSavedByObjectVersion
1070
     0
  0
VISUALSTYLE
  5
FA
102
{ACAD_REACTORS
330
EF
102
}
330
EF
100
AcDbVisualStyle
  2
Dim
 70
    11
 71
     2
 72
     2
 73
     1
 90
        0
 40
-0.6
 41
-30.0
 62
     5
 63
     7
 74
     1
 91
        4
 64
     7
 65
   257
 75
     1
175
     1
 42
1.0
 92
        8
 66
     7
 43
1.0
 76
     1
 77
     6
 78
     2
 67
     7
 79
     5
170
     0
171
     0
290
     0
174
     0
 93
        1
 44
-50.0
173
     0
291
     1
 45
0.0
1001
ACAD
1000
AcDbSavedByObjectVersion
1070
     0
  0
VISUALSTYLE
  5
FE
102
{ACAD_REACTORS
330
EF
102
}
330
EF
100
AcDbVisualStyle
  2
Facepattern
 70
    15
 71
     2
 72
     2
 73
     1
 90
        0
 40
-0.6
 41
-30.0
 62
     5
 63
     7
 74
     1
 91
        4
 64
     7
 65
   257
 75
     1
175
     1
 42
1.0
 92
        8
 66
     7
 43
1.0
 76
     1
 77
     6
 78
     2
 67
     7
 79
     5
170
     0
171
     0
290
     0
174
     0
 93
        1
 44
0.0
173
     0
291
     1
 45
0.0
1001
ACAD
1000
AcDbSavedByObjectVersion
1070
     0
  0
VISUALSTYLE
  5
F0
102
{ACAD_REACTORS
330
EF
102
}
330
EF
100
AcDbVisualStyle
  2
Flat
 70
     0
 71
     2
 72
     1
 73
     1
 90
        2
 40
-0.6
 41
30.0
 62
     5
 63
     7
 74
     0
 91
        4
 64
     7
 65
   257
 75
     1
175
     1
 42
1.0
 92
        8
 66
     7
 43
1.0
 76
     1
 77
     6
 78
     2
 67
     7
 79
     5
170
     0
171
     0
290
     0
174
     0
 93
        1
 44
0.0
173
     0
291
     1
 45
0.0
1001
ACAD
1000
AcDbSavedByObjectVersion
1070
     0
  0
VISUALSTYLE
  5
F1
102
{ACAD_REACTORS
330
EF
102
}
330
EF
100
AcDbVisualStyle
  2
FlatWithEdges
 70
     1
 71
     2
 72
     1
 73
     1
 90
        2
 40
-0.6
 41
30.0
 62
     5
 63
     7
 74
     1
 91
        4
 64
     7
 65
   257
 75
     1
175
     1
 42
1.0
 92
        0
 66
   257
 43
1.0
 76
     1
 77
     6
 78
     2
 67
     7
 79
     5
170
     0
171
     0
290
     0
174
     0
 93
        1
 44
0.0
173
     0
291
     1
 45
0.0
1001
ACAD
1000
AcDbSavedByObjectVersion
1070
     0
  0
VISUALSTYLE
  5
F2
102
{ACAD_REACTORS
330
EF
102
}
330
EF
100
AcDbVisualStyle
  2
Gouraud
 70
     2
 71
     2
 72
     2
 73
     1
 90
        2
 40
-0.6
 41
30.0
 62
     5
 63
     7
 74
     0
 91
        4
 64
     7
 65
   257
 75
     1
175
     1
 42
1.0
 92
        0
 66
     7
 43
1.0
 76
     1
 77
     6
 78
     2
 67
     7
 79
     5
170
     0
171
     0
290
     0
174
     0
 93
        1
 44
0.0
173
     0
291
     1
 45
0.0
1001
ACAD
1000
AcDbSavedByObjectVersion
1070
     0
  0
VISUALSTYLE
  5
F3
102
{ACAD_REACTORS
330
EF
102
}
330
EF
100
AcDbVisualStyle
  2
GouraudWithEdges
 70
     3
 71
     2
 72
     2
 73
     1
 90
        2
 40
-0.6
 41
30.0
 62
     5
 63
     7
 74
     1
 91
        4
 64
     7
 65
   257
 75
     1
175
     1
 42
1.0
 92
        0
 66
   257
 43
1.0
 76
     1
 77
     6
 78
     2
 67
     7
 79
     5
170
     0
171
     0
290
     0
174
     0
 93
        1
 44
0.0
173
     0
291
     1
 45
0.0
1001
ACAD
1000
AcDbSavedByObjectVersion
1070
     0
  0
VISUALSTYLE
  5
FD
102
{ACAD_REACTORS
330
EF
102
}
330
EF
100
AcDbVisualStyle
  2
Linepattern
 70
    14
 71
     2
 72
     2
 73
     1
 90
        0
 40
-0.6
 41
-30.0
 62
     5
 63
     7
 74
     1
 91
        4
 64
     7
 65
   257
 75
     7
175
     7
 42
1.0
 92
        8
 66
     7
 43
1.0
 76
     1
 77
     6
 78
     2
 67
     7
 79
     5
170
     0
171
     0
290
     0
174
     0
 93
        1
 44
0.0
173
     0
291
     1
 45
0.0
1001
ACAD
1000
AcDbSavedByObjectVersion
1070
     0
  0
VISUALSTYLE
  5
F9
102
{ACAD_REACTORS
330
EF
102
}
330
EF
100
AcDbVisualStyle
  2
Realistic
 70
     8
 71
     2
 72
     2
 73
     1
 90
        0
 40
-0.6
 41
-30.0
 62
     5
 63
     7
 74
     1
 91
        0
 64
     7
 65
   257
 75
     1
175
     1
 42
1.0
 92
        8
 66
     8
 43
1.0
 76
     1
 77
     6
 78
     2
 67
     7
 79
     5
170
     0
171
     0
290
     0
174
     0
 93
       13
 44
0.0
173
     0
291
     0
 45
0.0
1001
ACAD
1000
AcDbSavedByObjectVersion
1070
     0
  0
VISUALSTYLE
  5
FC
102
{ACAD_REACTORS
330
EF
102
}
330
EF
100
AcDbVisualStyle
  2
Thicken
 70
    13
 71
     2
 72
     2
 73
     1
 90
        0
 40
-0.6
 41
-30.0
 62
     5
 63
     7
 74
     1
 91
        4
 64
     7
 65
   257
 75
     1
175
     1
 42
1.0
 92
       12
 66
     7
 43
1.0
 76
     1
 77
     6
 78
     2
 67
     7
 79
     5
170
     0
171
     0
290
     0
174
     0
 93
        1
 44
0.0
173
     0
291
     1
 45
0.0
1001
ACAD
1000
AcDbSavedByObjectVersion
1070
     0
  0
DICTIONARYVAR
  5
146
102
{ACAD_REACTORS
330
5E
102
}
330
5E
100
DictionaryVariables
280
     0
  1
1:1
  0
DICTIONARYVAR
  5
145
102
{ACAD_REACTORS
330
5E
102
}
330
5E
100
DictionaryVariables
280
     0
  1
STANDARD
  0
DICTIONARYVAR
  5
84
102
{ACAD_REACTORS
330
5E
102
}
330
5E
100
DictionaryVariables
280
     0
  1
STANDARD
  0
DICTIONARYVAR
  5
5F
102
{ACAD_REACTORS
330
5E
102
}
330
5E
100
DictionaryVariables
280
     0
  1
2
  0
DICTIONARYVAR
  5
63
102
{ACAD_REACTORS
330
5E
102
}
330
5E
100
DictionaryVariables
280
     0
  1
1
  0
DICTIONARYVAR
  5
848
102
{ACAD_REACTORS
330
5E
102
}
330
5E
100
DictionaryVariables
280
     0
  1
0
  0
DICTIONARYVAR
  5
846
102
{ACAD_REACTORS
330
5E
102
}
330
5E
100
DictionaryVariables
280
     0
  1
2
  0
DICTIONARYVAR
  5
845
102
{ACAD_REACTORS
330
5E
102
}
330
5E
100
DictionaryVariables
280
     0
  1
1
  0
DICTIONARYVAR
  5
84A
102
{ACAD_REACTORS
330
5E
102
}
330
5E
100
DictionaryVariables
280
     0
  1
80.000000
  0
DICTIONARYVAR
  5
849
102
{ACAD_REACTORS
330
5E
102
}
330
5E
100
DictionaryVariables
280
     0
  1
5.000000
  0
DICTIONARYVAR
  5
847
102
{ACAD_REACTORS
330
5E
102
}
330
5E
100
DictionaryVariables
280
     0
  1
127
  0
DICTIONARY
  5
850
330
D3
100
AcDbDictionary
280
     1
281
     1
  3
ACAD_XREC_ROUNDTRIP
360
851
  0
DICTIONARY
  5
852
330
D7
100
AcDbDictionary
280
     1
281
     1
  3
ACAD_XREC_ROUNDTRIP
360
853
  0
DICTIONARY
  5
84D
330
22
100
AcDbDictionary
280
     1
281
     1
  3
ACAD_XREC_ROUNDTRIP
360
84E
  0
DICTIONARY
  5
856
330
ED
100
AcDbDictionary
280
     1
281
     1
  3
ACAD_XREC_ROUNDTRIP
360
857
  0
DICTIONARY
  5
854
330
EC
100
AcDbDictionary
280
     1
281
     1
  3
ACAD_XREC_ROUNDTRIP
360
855
  0
DICTIONARY
  5
173
330
EE
100
AcDbDictionary
280
     1
281
     1
  3
ACAD_XREC_ROUNDTRIP
360
858
  3
BUMPTILE
360
175
  3
DIFFUSETILE
360
174
  3
OPACITYTILE
360
176
  3
REFLECTIONTILE
360
177
  0
DICTIONARY
  5
162
330
7F
100
AcDbDictionary
280
     1
281
     1
  3
ACAD_ROUNDTRIP_2008_TABLESTYLE_CELLSTYLEMAP
360
84B
  3
ACAD_XREC_ROUNDTRIP
360
84F
  0
XRECORD
  5
851
102
{ACAD_REACTORS
330
850
102
}
330
850
100
AcDbXrecord
280
     1
102
SHADEPLOT
 70
     0
102
SHADEPLOTRESLEVEL
 70
     2
102
SHADEPLOTCUSTOMDPI
 70
   300
  0
XRECORD
  5
853
102
{ACAD_REACTORS
330
852
102
}
330
852
100
AcDbXrecord
280
     1
102
SHADEPLOT
 70
     0
102
SHADEPLOTRESLEVEL
 70
     2
102
SHADEPLOTCUSTOMDPI
 70
   300
  0
XRECORD
  5
84E
102
{ACAD_REACTORS
330
84D
102
}
330
84D
100
AcDbXrecord
280
     1
102
SHADEPLOT
 70
     0
102
SHADEPLOTRESLEVEL
 70
     2
102
SHADEPLOTCUSTOMDPI
 70
   300
  0
XRECORD
  5
857
102
{ACAD_REACTORS
330
856
102
}
330
856
100
AcDbXrecord
280
     1
102
MATERIAL
148
0.0
149
0.0
149
0.0
 93
        0
 94
       63
282
     0
 72
     1
 77
     1
171
     1
175
     1
179
     1
273
     0
  0
XRECORD
  5
855
102
{ACAD_REACTORS
330
854
102
}
330
854
100
AcDbXrecord
280
     1
102
MATERIAL
148
0.0
149
0.0
149
0.0
 93
        0
 94
       63
282
     0
 72
     1
 77
     1
171
     1
175
     1
179
     1
273
     0
  0
XRECORD
  5
858
102
{ACAD_REACTORS
330
173
102
}
330
173
100
AcDbXrecord
280
     1
102
MATERIAL
148
0.0
149
0.0
149
0.0
 93
        0
 94
       63
282
     0
 72
     1
 77
     1
171
     1
175
     1
179
     1
273
     0
  0
XRECORD
  5
175
102
{ACAD_REACTORS
330
173
102
}
330
173
100
AcDbXrecord
280
     1
270
     1
271
     1
  0
XRECORD
  5
174
102
{ACAD_REACTORS
330
173
102
}
330
173
100
AcDbXrecord
280
     1
270
     1
271
     1
  0
XRECORD
  5
176
102
{ACAD_REACTORS
330
173
102
}
330
173
100
AcDbXrecord
280
     1
270
     1
271
     1
  0
XRECORD
  5
177
102
{ACAD_REACTORS
330
173
102
}
330
173
100
AcDbXrecord
280
     1
270
     1
271
     1
  0
CELLSTYLEMAP
  5
84B
102
{ACAD_REACTORS
330
162
102
}
330
162
100
AcDbCellStyleMap
 90
        3
300
CELLSTYLE
  1
TABLEFORMAT_BEGIN
 90
        5
170
     1
 91
        0
 92
    32768
 62
   257
 93
        1
300
CONTENTFORMAT
  1
CONTENTFORMAT_BEGIN
 90
        0
 91
        0
 92
      512
 93
        0
300

 40
0.0
140
1.0
 94
        5
 62
     0
340
11
144
6.0
309
CONTENTFORMAT_END
171
     1
301
MARGIN
  1
CELLMARGIN_BEGIN
 40
1.5
 40
1.5
 40
1.5
 40
1.5
 40
4.5
 40
4.5
309
CELLMARGIN_END
 94
        6
 95
        1
302
GRIDFORMAT
  1
GRIDFORMAT_BEGIN
 90
        0
 91
        1
 62
     0
 92
       -2
340
14
 93
        0
 40
1.125
309
GRIDFORMAT_END
 95
        2
302
GRIDFORMAT
  1
GRIDFORMAT_BEGIN
 90
        0
 91
        1
 62
     0
 92
       -2
340
14
 93
        0
 40
1.125
309
GRIDFORMAT_END
 95
        4
302
GRIDFORMAT
  1
GRIDFORMAT_BEGIN
 90
        0
 91
        1
 62
     0
 92
       -2
340
14
 93
        0
 40
1.125
309
GRIDFORMAT_END
 95
        8
302
GRIDFORMAT
  1
GRIDFORMAT_BEGIN
 90
        0
 91
        1
 62
     0
 92
       -2
340
14
 93
        0
 40
1.125
309
GRIDFORMAT_END
 95
       16
302
GRIDFORMAT
  1
GRIDFORMAT_BEGIN
 90
        0
 91
        1
 62
     0
 92
       -2
340
14
 93
        0
 40
1.125
309
GRIDFORMAT_END
 95
       32
302
GRIDFORMAT
  1
GRIDFORMAT_BEGIN
 90
        0
 91
        1
 62
     0
 92
       -2
340
14
 93
        0
 40
1.125
309
GRIDFORMAT_END
309
TABLEFORMAT_END
  1
CELLSTYLE_BEGIN
 90
        1
 91
        1
300
_TITLE
309
CELLSTYLE_END
300
CELLSTYLE
  1
TABLEFORMAT_BEGIN
 90
        5
170
     1
 91
        0
 92
        0
 62
   257
 93
        1
300
CONTENTFORMAT
  1
CONTENTFORMAT_BEGIN
 90
        0
 91
        0
 92
      512
 93
        0
300

 40
0.0
140
1.0
 94
        5
 62
     0
340
11
144
4.5
309
CONTENTFORMAT_END
171
     1
301
MARGIN
  1
CELLMARGIN_BEGIN
 40
1.5
 40
1.5
 40
1.5
 40
1.5
 40
4.5
 40
4.5
309
CELLMARGIN_END
 94
        6
 95
        1
302
GRIDFORMAT
  1
GRIDFORMAT_BEGIN
 90
        0
 91
        1
 62
     0
 92
       -2
340
14
 93
        0
 40
1.125
309
GRIDFORMAT_END
 95
        2
302
GRIDFORMAT
  1
GRIDFORMAT_BEGIN
 90
        0
 91
        1
 62
     0
 92
       -2
340
14
 93
        0
 40
1.125
309
GRIDFORMAT_END
 95
        4
302
GRIDFORMAT
  1
GRIDFORMAT_BEGIN
 90
        0
 91
        1
 62
     0
 92
       -2
340
14
 93
        0
 40
1.125
309
GRIDFORMAT_END
 95
        8
302
GRIDFORMAT
  1
GRIDFORMAT_BEGIN
 90
        0
 91
        1
 62
     0
 92
       -2
340
14
 93
        0
 40
1.125
309
GRIDFORMAT_END
 95
       16
302
GRIDFORMAT
  1
GRIDFORMAT_BEGIN
 90
        0
 91
        1
 62
     0
 92
       -2
340
14
 93
        0
 40
1.125
309
GRIDFORMAT_END
 95
       32
302
GRIDFORMAT
  1
GRIDFORMAT_BEGIN
 90
        0
 91
        1
 62
     0
 92
       -2
340
14
 93
        0
 40
1.125
309
GRIDFORMAT_END
309
TABLEFORMAT_END
  1
CELLSTYLE_BEGIN
 90
        2
 91
        1
300
_HEADER
309
CELLSTYLE_END
300
CELLSTYLE
  1
TABLEFORMAT_BEGIN
 90
        5
170
     1
 91
        0
 92
        0
 62
   257
 93
        1
300
CONTENTFORMAT
  1
CONTENTFORMAT_BEGIN
 90
        0
 91
        0
 92
      512
 93
        0
300

 40
0.0
140
1.0
 94
        2
 62
     0
340
11
144
4.5
309
CONTENTFORMAT_END
171
     1
301
MARGIN
  1
CELLMARGIN_BEGIN
 40
1.5
 40
1.5
 40
1.5
 40
1.5
 40
4.5
 40
4.5
309
CELLMARGIN_END
 94
        6
 95
        1
302
GRIDFORMAT
  1
GRIDFORMAT_BEGIN
 90
        0
 91
        1
 62
     0
 92
       -2
340
14
 93
        0
 40
1.125
309
GRIDFORMAT_END
 95
        2
302
GRIDFORMAT
  1
GRIDFORMAT_BEGIN
 90
        0
 91
        1
 62
     0
 92
       -2
340
14
 93
        0
 40
1.125
309
GRIDFORMAT_END
 95
        4
302
GRIDFORMAT
  1
GRIDFORMAT_BEGIN
 90
        0
 91
        1
 62
     0
 92
       -2
340
14
 93
        0
 40
1.125
309
GRIDFORMAT_END
 95
        8
302
GRIDFORMAT
  1
GRIDFORMAT_BEGIN
 90
        0
 91
        1
 62
     0
 92
       -2
340
14
 93
        0
 40
1.125
309
GRIDFORMAT_END
 95
       16
302
GRIDFORMAT
  1
GRIDFORMAT_BEGIN
 90
        0
 91
        1
 62
     0
 92
       -2
340
14
 93
        0
 40
1.125
309
GRIDFORMAT_END
 95
       32
302
GRIDFORMAT
  1
GRIDFORMAT_BEGIN
 90
        0
 91
        1
 62
     0
 92
       -2
340
14
 93
        0
 40
1.125
309
GRIDFORMAT_END
309
TABLEFORMAT_END
  1
CELLSTYLE_BEGIN
 90
        3
 91
        2
300
_DATA
309
CELLSTYLE_END
  0
XRECORD
  5
84F
102
{ACAD_REACTORS
330
162
102
}
330
162
100
AcDbXrecord
280
     1
102
ACAD_ROUNDTRIP_PRE2007_TABLESTYLE
 90
      512
 91
        0
  1

 92
      512
 93
        0
  2

 94
      512
 95
        0
  3

  0
ENDSEC
  0
EOF
