  0
SECTION
  2
HEADER
  9
$ACADVER
  1
AC1015
  9
$ACADMAINTVER
 70
    20
  9
$DWGCODEPAGE
  3
ANSI_1254
  9
$INSBASE
 10
0.0
 20
0.0
 30
0.0
  9
$EXTMIN
 10
2048.802414637227
 20
1049.555357810839
 30
0.0
  9
$EXTMAX
 10
2293.637815395107
 20
1106.093211955318
 30
0.0
  9
$LIMMIN
 10
0.0
 20
0.0
  9
$LIMMAX
 10
420.0
 20
297.0
  9
$ORTHOMODE
 70
     0
  9
$REGENMODE
 70
     1
  9
$FILLMODE
 70
     1
  9
$QTEXTMODE
 70
     0
  9
$MIRRTEXT
 70
     0
  9
$LTSCALE
 40
1.0
  9
$ATTMODE
 70
     1
  9
$TEXTSIZE
 40
2.5
  9
$TRACEWID
 40
1.0
  9
$TEXTSTYLE
  7
Standard
  9
$CLAYER
  8
0
  9
$CELTYPE
  6
ByLayer
  9
$CECOLOR
 62
   256
  9
$CELTSCALE
 40
1.0
  9
$DISPSILH
 70
     0
  9
$DIMSCALE
 40
1.0
  9
$DIMASZ
 40
2.5
  9
$DIMEXO
 40
0.625
  9
$DIMDLI
 40
3.75
  9
$DIMRND
 40
0.0
  9
$DIMDLE
 40
0.0
  9
$DIMEXE
 40
1.25
  9
$DIMTP
 40
0.0
  9
$DIMTM
 40
0.0
  9
$DIMTXT
 40
2.5
  9
$DIMCEN
 40
2.5
  9
$DIMTSZ
 40
0.0
  9
$DIMTOL
 70
     0
  9
$DIMLIM
 70
     0
  9
$DIMTIH
 70
     0
  9
$DIMTOH
 70
     0
  9
$DIMSE1
 70
     0
  9
$DIMSE2
 70
     0
  9
$DIMTAD
 70
     1
  9
$DIMZIN
 70
     8
  9
$DIMBLK
  1

  9
$DIMASO
 70
     1
  9
$DIMSHO
 70
     1
  9
$DIMPOST
  1

  9
$DIMAPOST
  1

  9
$DIMALT
 70
     0
  9
$DIMALTD
 70
     3
  9
$DIMALTF
 40
0.03937007874016
  9
$DIMLFAC
 40
1.0
  9
$DIMTOFL
 70
     1
  9
$DIMTVP
 40
0.0
  9
$DIMTIX
 70
     0
  9
$DIMSOXD
 70
     0
  9
$DIMSAH
 70
     0
  9
$DIMBLK1
  1

  9
$DIMBLK2
  1

  9
$DIMSTYLE
  2
ISO-25
  9
$DIMCLRD
 70
     0
  9
$DIMCLRE
 70
     0
  9
$DIMCLRT
 70
     0
  9
$DIMTFAC
 40
1.0
  9
$DIMGAP
 40
0.625
  9
$DIMJUST
 70
     0
  9
$DIMSD1
 70
     0
  9
$DIMSD2
 70
     0
  9
$DIMTOLJ
 70
     0
  9
$DIMTZIN
 70
     8
  9
$DIMALTZ
 70
     0
  9
$DIMALTTZ
 70
     0
  9
$DIMUPT
 70
     0
  9
$DIMDEC
 70
     2
  9
$DIMTDEC
 70
     2
  9
$DIMALTU
 70
     2
  9
$DIMALTTD
 70
     3
  9
$DIMTXSTY
  7
Standard
  9
$DIMAUNIT
 70
     0
  9
$DIMADEC
 70
     0
  9
$DIMALTRND
 40
0.0
  9
$DIMAZIN
 70
     0
  9
$DIMDSEP
 70
    44
  9
$DIMATFIT
 70
     3
  9
$DIMFRAC
 70
     0
  9
$DIMLDRBLK
  1

  9
$DIMLUNIT
 70
     2
  9
$DIMLWD
 70
    -2
  9
$DIMLWE
 70
    -2
  9
$DIMTMOVE
 70
     0
  9
$LUNITS
 70
     2
  9
$LUPREC
 70
     4
  9
$SKETCHINC
 40
1.0
  9
$FILLETRAD
 40
0.0
  9
$AUNITS
 70
     0
  9
$AUPREC
 70
     0
  9
$MENU
  1
.
  9
$ELEVATION
 40
0.0
  9
$PELEVATION
 40
0.0
  9
$THICKNESS
 40
0.0
  9
$LIMCHECK
 70
     0
  9
$CHAMFERA
 40
0.0
  9
$CHAMFERB
 40
0.0
  9
$CHAMFERC
 40
0.0
  9
$CHAMFERD
 40
0.0
  9
$SKPOLY
 70
     0
  9
$TDCREATE
 40
2458453.642440058
  9
$TDUCREATE
 40
2458453.517440058
  9
$TDUPDATE
 40
2458983.558578831
  9
$TDUUPDATE
 40
2458983.433578831
  9
$TDINDWG
 40
0.0004068403
  9
$TDUSRTIMER
 40
0.0004068403
  9
$USRTIMER
 70
     1
  9
$ANGBASE
 50
0.0
  9
$ANGDIR
 70
     0
  9
$PDMODE
 70
     0
  9
$PDSIZE
 40
0.0
  9
$PLINEWID
 40
0.0
  9
$SPLFRAME
 70
     0
  9
$SPLINETYPE
 70
     6
  9
$SPLINESEGS
 70
     8
  9
$HANDSEED
  5
CD6
  9
$SURFTAB1
 70
     6
  9
$SURFTAB2
 70
     6
  9
$SURFTYPE
 70
     6
  9
$SURFU
 70
     6
  9
$SURFV
 70
     6
  9
$UCSBASE
  2

  9
$UCSNAME
  2

  9
$UCSORG
 10
0.0
 20
0.0
 30
0.0
  9
$UCSXDIR
 10
1.0
 20
0.0
 30
0.0
  9
$UCSYDIR
 10
0.0
 20
1.0
 30
0.0
  9
$UCSORTHOREF
  2

  9
$UCSORTHOVIEW
 70
     0
  9
$UCSORGTOP
 10
0.0
 20
0.0
 30
0.0
  9
$UCSORGBOTTOM
 10
0.0
 20
0.0
 30
0.0
  9
$UCSORGLEFT
 10
0.0
 20
0.0
 30
0.0
  9
$UCSORGRIGHT
 10
0.0
 20
0.0
 30
0.0
  9
$UCSORGFRONT
 10
0.0
 20
0.0
 30
0.0
  9
$UCSORGBACK
 10
0.0
 20
0.0
 30
0.0
  9
$PUCSBASE
  2

  9
$PUCSNAME
  2

  9
$PUCSORG
 10
0.0
 20
0.0
 30
0.0
  9
$PUCSXDIR
 10
1.0
 20
0.0
 30
0.0
  9
$PUCSYDIR
 10
0.0
 20
1.0
 30
0.0
  9
$PUCSORTHOREF
  2

  9
$PUCSORTHOVIEW
 70
     0
  9
$PUCSORGTOP
 10
0.0
 20
0.0
 30
0.0
  9
$PUCSORGBOTTOM
 10
0.0
 20
0.0
 30
0.0
  9
$PUCSORGLEFT
 10
0.0
 20
0.0
 30
0.0
  9
$PUCSORGRIGHT
 10
0.0
 20
0.0
 30
0.0
  9
$PUCSORGFRONT
 10
0.0
 20
0.0
 30
0.0
  9
$PUCSORGBACK
 10
0.0
 20
0.0
 30
0.0
  9
$USERI1
 70
     0
  9
$USERI2
 70
     0
  9
$USERI3
 70
     0
  9
$USERI4
 70
     0
  9
$USERI5
 70
     0
  9
$USERR1
 40
0.0
  9
$USERR2
 40
0.0
  9
$USERR3
 40
0.0
  9
$USERR4
 40
0.0
  9
$USERR5
 40
0.0
  9
$WORLDVIEW
 70
     1
  9
$SHADEDGE
 70
     3
  9
$SHADEDIF
 70
    70
  9
$TILEMODE
 70
     1
  9
$MAXACTVP
 70
    64
  9
$PINSBASE
 10
0.0
 20
0.0
 30
0.0
  9
$PLIMCHECK
 70
     0
  9
$PEXTMIN
 10
0.0
 20
0.0
 30
0.0
  9
$PEXTMAX
 10
0.0
 20
0.0
 30
0.0
  9
$PLIMMIN
 10
0.0
 20
0.0
  9
$PLIMMAX
 10
12.0
 20
9.0
  9
$UNITMODE
 70
     0
  9
$VISRETAIN
 70
     1
  9
$PLINEGEN
 70
     0
  9
$PSLTSCALE
 70
     1
  9
$TREEDEPTH
 70
  3020
  9
$CMLSTYLE
  2
Standard
  9
$CMLJUST
 70
     0
  9
$CMLSCALE
 40
20.0
  9
$PROXYGRAPHICS
 70
     1
  9
$MEASUREMENT
 70
     1
  9
$CELWEIGHT
370
    -1
  9
$ENDCAPS
280
     0
  9
$JOINSTYLE
280
     0
  9
$LWDISPLAY
290
     0
  9
$INSUNITS
 70
     4
  9
$HYPERLINKBASE
  1

  9
$STYLESHEET
  1

  9
$XEDIT
290
     1
  9
$CEPSNTYPE
380
     0
  9
$PSTYLEMODE
290
     1
  9
$FINGERPRINTGUID
  2
{D439C032-2A06-466B-99BF-52EE94511534}
  9
$VERSIONGUID
  2
{DBC8C03B-8162-4263-9138-AA3379AC8414}
  9
$EXTNAMES
290
     1
  9
$PSVPSCALE
 40
0.0
  9
$OLESTARTUP
290
     0
  0
ENDSEC
  0
SECTION
  2
CLASSES
  0
CLASS
  1
ACDBDICTIONARYWDFLT
  2
AcDbDictionaryWithDefault
  3
ObjectDBX Classes
 90
        0
280
     0
281
     0
  0
CLASS
  1
ACDBPLACEHOLDER
  2
AcDbPlaceHolder
  3
ObjectDBX Classes
 90
        0
280
     0
281
     0
  0
CLASS
  1
LAYOUT
  2
AcDbLayout
  3
ObjectDBX Classes
 90
        0
280
     0
281
     0
  0
CLASS
  1
DICTIONARYVAR
  2
AcDbDictionaryVar
  3
ObjectDBX Classes
 90
        0
280
     0
281
     0
  0
CLASS
  1
TABLESTYLE
  2
AcDbTableStyle
  3
ObjectDBX Classes
 90
     4095
280
     0
281
     0
  0
CLASS
  1
MATERIAL
  2
AcDbMaterial
  3
ObjectDBX Classes
 90
     1153
280
     0
281
     0
  0
CLASS
  1
VISUALSTYLE
  2
AcDbVisualStyle
  3
ObjectDBX Classes
 90
     4095
280
     0
281
     0
  0
CLASS
  1
SCALE
  2
AcDbScale
  3
ObjectDBX Classes
 90
     1153
280
     0
281
     0
  0
CLASS
  1
MLEADERSTYLE
  2
AcDbMLeaderStyle
  3
ACDB_MLEADERSTYLE_CLASS
 90
     4095
280
     0
281
     0
  0
CLASS
  1
CELLSTYLEMAP
  2
AcDbCellStyleMap
  3
ObjectDBX Classes
 90
     1152
280
     0
281
     0
  0
ENDSEC
  0
SECTION
  2
TABLES
  0
TABLE
  2
VPORT
  5
8
330
0
100
AcDbSymbolTable
 70
     1
  0
VPORT
  5
EA
330
8
100
AcDbSymbolTableRecord
100
AcDbViewportTableRecord
  2
*Active
 70
     0
 10
0.0
 20
0.0
 11
1.0
 21
1.0
 12
2174.069805547185
 22
1079.924797663916
 13
0.0
 23
0.0
 14
10.0
 24
10.0
 15
10.0
 25
10.0
 16
0.0
 26
0.0
 36
1.0
 17
0.0
 27
0.0
 37
0.0
 40
159.9504643648942
 41
1.903110047846889
 42
50.0
 43
0.0
 44
0.0
 50
0.0
 51
0.0
 71
     0
 72
  1000
 73
     1
 74
     3
 75
     0
 76
     0
 77
     0
 78
     0
281
     0
 65
     1
110
0.0
120
0.0
130
0.0
111
1.0
121
0.0
131
0.0
112
0.0
122
1.0
132
0.0
 79
     0
146
0.0
  0
ENDTAB
  0
TABLE
  2
LTYPE
  5
5
330
0
100
AcDbSymbolTable
 70
     1
  0
LTYPE
  5
14
330
5
100
AcDbSymbolTableRecord
100
AcDbLinetypeTableRecord
  2
ByBlock
 70
     0
  3

 72
    65
 73
     0
 40
0.0
  0
LTYPE
  5
15
330
5
100
AcDbSymbolTableRecord
100
AcDbLinetypeTableRecord
  2
ByLayer
 70
     0
  3

 72
    65
 73
     0
 40
0.0
  0
LTYPE
  5
16
330
5
100
AcDbSymbolTableRecord
100
AcDbLinetypeTableRecord
  2
Continuous
 70
     0
  3
Solid line
 72
    65
 73
     0
 40
0.0
  0
ENDTAB
  0
TABLE
  2
LAYER
  5
2
330
0
100
AcDbSymbolTable
 70
     1
  0
LAYER
  5
10
102
{ACAD_XDICTIONARY
360
13C
102
}
330
2
100
AcDbSymbolTableRecord
100
AcDbLayerTableRecord
  2
0
 70
     0
 62
     7
  6
Continuous
370
    -3
390
F
  0
ENDTAB
  0
TABLE
  2
STYLE
  5
3
330
0
100
AcDbSymbolTable
 70
     2
  0
STYLE
  5
11
330
3
100
AcDbSymbolTableRecord
100
AcDbTextStyleTableRecord
  2
Standard
 70
     0
 40
0.0
 41
1.0
 50
0.0
 71
     0
 42
2.5
  3
txt
  4

  0
STYLE
  5
132
330
3
100
AcDbSymbolTableRecord
100
AcDbTextStyleTableRecord
  2
Annotative
 70
     0
 40
0.0
 41
1.0
 50
0.0
 71
     0
 42
2.5
  3
txt.shx
  4

1001
AcadAnnotative
1000
AnnotativeData
1002
{
1070
     1
1070
     1
1002
}
  0
ENDTAB
  0
TABLE
  2
VIEW
  5
6
330
0
100
AcDbSymbolTable
 70
     0
  0
ENDTAB
  0
TABLE
  2
UCS
  5
7
330
0
100
AcDbSymbolTable
 70
     0
  0
ENDTAB
  0
TABLE
  2
APPID
  5
9
330
0
100
AcDbSymbolTable
 70
     7
  0
APPID
  5
12
330
9
100
AcDbSymbolTableRecord
100
AcDbRegAppTableRecord
  2
ACAD
 70
     0
  0
APPID
  5
9E
330
9
100
AcDbSymbolTableRecord
100
AcDbRegAppTableRecord
  2
ACAD_PSEXT
 70
     0
  0
APPID
  5
133
330
9
100
AcDbSymbolTableRecord
100
AcDbRegAppTableRecord
  2
AcadAnnoPO
 70
     0
  0
APPID
  5
134
330
9
100
AcDbSymbolTableRecord
100
AcDbRegAppTableRecord
  2
AcadAnnotative
 70
     0
  0
APPID
  5
135
330
9
100
AcDbSymbolTableRecord
100
AcDbRegAppTableRecord
  2
ACAD_DSTYLE_DIMJAG
 70
     0
  0
APPID
  5
136
330
9
100
AcDbSymbolTableRecord
100
AcDbRegAppTableRecord
  2
ACAD_DSTYLE_DIMTALN
 70
     0
  0
APPID
  5
165
330
9
100
AcDbSymbolTableRecord
100
AcDbRegAppTableRecord
  2
ACAD_MLEADERVER
 70
     0
  0
ENDTAB
  0
TABLE
  2
DIMSTYLE
  5
A
330
0
100
AcDbSymbolTable
 70
     2
100
AcDbDimStyleTable
 71
     2
340
27
340
137
  0
DIMSTYLE
105
27
330
A
100
AcDbSymbolTableRecord
100
AcDbDimStyleTableRecord
  2
ISO-25
 70
     0
 41
2.5
 42
0.625
 43
3.75
 44
1.25
 73
     0
 74
     0
 77
     1
 78
     8
140
2.5
141
2.5
143
0.03937007874016
147
0.625
171
     3
172
     1
271
     2
272
     2
274
     3
278
    44
283
     0
284
     8
340
11
  0
DIMSTYLE
105
137
330
A
100
AcDbSymbolTableRecord
100
AcDbDimStyleTableRecord
  2
Annotative
 70
     0
 40
0.0
 41
2.5
 42
0.625
 43
3.75
 44
1.25
 73
     0
 74
     0
 77
     1
 78
     8
140
2.5
141
2.5
143
0.03937007874016
147
0.625
171
     3
172
     1
271
     2
272
     2
274
     3
278
    44
283
     0
284
     8
340
11
1001
AcadAnnotative
1000
AnnotativeData
1002
{
1070
     1
1070
     1
1002
}
1001
ACAD_DSTYLE_DIMJAG
1070
   388
1040
1.5
1001
ACAD_DSTYLE_DIMTALN
1070
   392
1070
     0
  0
ENDTAB
  0
TABLE
  2
BLOCK_RECORD
  5
1
330
0
100
AcDbSymbolTable
 70
     5
  0
BLOCK_RECORD
  5
1F
330
1
100
AcDbSymbolTableRecord
100
AcDbBlockTableRecord
  2
*Model_Space
340
22
  0
BLOCK_RECORD
  5
D2
330
1
100
AcDbSymbolTableRecord
100
AcDbBlockTableRecord
  2
*Paper_Space
340
D3
  0
BLOCK_RECORD
  5
D6
330
1
100
AcDbSymbolTableRecord
100
AcDbBlockTableRecord
  2
*Paper_Space0
340
D7
  0
BLOCK_RECORD
  5
903
330
1
100
AcDbSymbolTableRecord
100
AcDbBlockTableRecord
  2
11
340
0
310
2800000020000000200000000100080000000000000400000000000000000000000000000000000000000000000080000080000000808000800000008000800080800000C0C0C000C0DCC000F0CAA6000020400000206000002080000020A0000020C0000020E00000400000004020000040400000406000004080000040A0
310
000040C0000040E00000600000006020000060400000606000006080000060A0000060C0000060E00000800000008020000080400000806000008080000080A0000080C0000080E00000A0000000A0200000A0400000A0600000A0800000A0A00000A0C00000A0E00000C0000000C0200000C0400000C0600000C0800000C0
310
A00000C0C00000C0E00000E0000000E0200000E0400000E0600000E0800000E0A00000E0C00000E0E00040000000400020004000400040006000400080004000A0004000C0004000E00040200000402020004020400040206000402080004020A0004020C0004020E000404000004040200040404000404060004040800040
310
40A0004040C0004040E00040600000406020004060400040606000406080004060A0004060C0004060E00040800000408020004080400040806000408080004080A0004080C0004080E00040A0000040A0200040A0400040A0600040A0800040A0A00040A0C00040A0E00040C0000040C0200040C0400040C0600040C08000
310
40C0A00040C0C00040C0E00040E0000040E0200040E0400040E0600040E0800040E0A00040E0C00040E0E00080000000800020008000400080006000800080008000A0008000C0008000E00080200000802020008020400080206000802080008020A0008020C0008020E00080400000804020008040400080406000804080
310
008040A0008040C0008040E00080600000806020008060400080606000806080008060A0008060C0008060E00080800000808020008080400080806000808080008080A0008080C0008080E00080A0000080A0200080A0400080A0600080A0800080A0A00080A0C00080A0E00080C0000080C0200080C0400080C0600080C0
310
800080C0A00080C0C00080C0E00080E0000080E0200080E0400080E0600080E0800080E0A00080E0C00080E0E000C0000000C0002000C0004000C0006000C0008000C000A000C000C000C000E000C0200000C0202000C0204000C0206000C0208000C020A000C020C000C020E000C0400000C0402000C0404000C0406000C0
310
408000C040A000C040C000C040E000C0600000C0602000C0604000C0606000C0608000C060A000C060C000C060E000C0800000C0802000C0804000C0806000C0808000C080A000C080C000C080E000C0A00000C0A02000C0A04000C0A06000C0A08000C0A0A000C0A0C000C0A0E000C0C00000C0C02000C0C04000C0C06000
310
C0C08000C0C0A000F0FBFF00A4A0A000808080000000FF0000FF000000FFFF00FF000000FF00FF00FFFF0000FFFFFF0000000000000000000000000000000000000000000000000000000000000000000000000000000000000000000000000000000000000000000000000000000000000000000000000000000000000000
310
00000000000000000000000000000000000000000000000000000000000000000000000000000000000000000000000000000000000000000000000000000000000000000000000000000000000000000000000000000000000000000000000000000000000000000000000000000000000000000000000000000000000000
310
00000000000000000000000000000000000000000000000000000000000000000000000000000000000000000000000000000000000000000000000000000000000000000000000000000000000000000000000000000000000000000000000000000000000000000000000000000000000000000000000000000000000000
310
0000000000000000000000000000000000000000000000000000000000000000000000000000000000000000000000000000000000000000000000000000000000000000000000000000000000000000000000000000000000000000000000000000000000000000000000000000000000000000FFFFFFFFFFFFFFFFFFFFFF
310
FFFFFFFFFFFFFFFFFFFFFFFFFFFFFFFFFFFFFF0000FF0000FFFFFFFFFFFFFFFFFFFFFFFFFFFFFFFFFFFFFFFFFFFFFFFF0000FF0000FF0000FF00FF00FF00FF00FF00FF00FF00FF00FF00FFFFFF00FF000000FF0000FFFFFFFFFFFFFFFFFFFFFFFFFFFFFFFFFFFFFFFFFFFFFFFFFFFFFFFFFFFF000000000000000000000000
310
00000000000000000000000000000000000000000000000000000000000000000000000000000000000000000000000000000000000000000000000000000000000000000000000000000000000000000000000000000000000000000000000000000000000000000000000000000000000000000000000000000000000000
310
00000000000000000000000000000000000000000000000000000000000000000000000000000000000000000000000000000000000000000000000000000000000000000000000000000000000000000000000000000000000000000000000000000000000000000000000000000000000000000000000000000000000000
310
00000000000000000000000000000000000000000000000000000000000000000000000000000000000000000000000000000000000000000000000000000000000000000000000000000000000000000000000000000000000000000000000000000000000000000000000000000000000000000000000000000000000000
310
0000000000000000000000000000000000000000000000000000000000000000000000000000000000000000000000000000000000000000
102
{BLKREFS
331
982
102
}
1001
ACAD
1000
DesignCenter Data
1002
{
1070
     1
1070
     4
1002
}
  0
BLOCK_RECORD
  5
983
330
1
100
AcDbSymbolTableRecord
100
AcDbBlockTableRecord
  2
2
340
0
310
2800000020000000200000000100080000000000000400000000000000000000000000000000000000000000000080000080000000808000800000008000800080800000C0C0C000C0DCC000F0CAA6000020400000206000002080000020A0000020C0000020E00000400000004020000040400000406000004080000040A0
310
000040C0000040E00000600000006020000060400000606000006080000060A0000060C0000060E00000800000008020000080400000806000008080000080A0000080C0000080E00000A0000000A0200000A0400000A0600000A0800000A0A00000A0C00000A0E00000C0000000C0200000C0400000C0600000C0800000C0
310
A00000C0C00000C0E00000E0000000E0200000E0400000E0600000E0800000E0A00000E0C00000E0E00040000000400020004000400040006000400080004000A0004000C0004000E00040200000402020004020400040206000402080004020A0004020C0004020E000404000004040200040404000404060004040800040
310
40A0004040C0004040E00040600000406020004060400040606000406080004060A0004060C0004060E00040800000408020004080400040806000408080004080A0004080C0004080E00040A0000040A0200040A0400040A0600040A0800040A0A00040A0C00040A0E00040C0000040C0200040C0400040C0600040C08000
310
40C0A00040C0C00040C0E00040E0000040E0200040E0400040E0600040E0800040E0A00040E0C00040E0E00080000000800020008000400080006000800080008000A0008000C0008000E00080200000802020008020400080206000802080008020A0008020C0008020E00080400000804020008040400080406000804080
310
008040A0008040C0008040E00080600000806020008060400080606000806080008060A0008060C0008060E00080800000808020008080400080806000808080008080A0008080C0008080E00080A0000080A0200080A0400080A0600080A0800080A0A00080A0C00080A0E00080C0000080C0200080C0400080C0600080C0
310
800080C0A00080C0C00080C0E00080E0000080E0200080E0400080E0600080E0800080E0A00080E0C00080E0E000C0000000C0002000C0004000C0006000C0008000C000A000C000C000C000E000C0200000C0202000C0204000C0206000C0208000C020A000C020C000C020E000C0400000C0402000C0404000C0406000C0
310
408000C040A000C040C000C040E000C0600000C0602000C0604000C0606000C0608000C060A000C060C000C060E000C0800000C0802000C0804000C0806000C0808000C080A000C080C000C080E000C0A00000C0A02000C0A04000C0A06000C0A08000C0A0A000C0A0C000C0A0E000C0C00000C0C02000C0C04000C0C06000
310
C0C08000C0C0A000F0FBFF00A4A0A000808080000000FF0000FF000000FFFF00FF000000FF00FF00FFFF0000FFFFFF0000000000000000000000000000000000000000000000000000000000000000000000000000000000000000000000000000000000000000000000000000000000000000000000000000000000000000
310
00000000000000000000000000000000000000000000000000000000000000000000000000000000000000000000000000000000000000000000000000000000000000000000000000000000000000000000000000000000000000000000000000000000000000000000000000000000000000000000000000000000000000
310
00000000000000000000000000000000000000000000000000000000000000000000000000000000000000000000000000000000000000000000000000000000000000000000000000000000000000000000000000000000000000000000000000000000000000000000000000000000000000000000000000000000000000
310
00000000000000000000000000000000000000000000000000000000000000000000000000000000000000000000000000000000000000000000000000000000000000000000000000000000000000000000000000000000000000000000000000000000000000000000000000000000000000000000000000000000000000
310
000000000000000000000000000000000000000000FFFFFFFFFFFFFFFFFFFFFFFFFFFFFFFFFFFFFFFFFFFFFFFFFFFFFFFFFFFF0000FFFFFFFFFFFFFFFFFFFFFFFFFFFFFFFFFFFFFFFFFFFFFFFFFFFFFFFFFFFF0000000000000000000000000000000000000000000000000000000000000000000000000000000000000000
310
00000000000000000000000000000000000000000000000000000000000000000000000000000000000000000000000000000000000000000000000000000000000000000000000000000000000000000000000000000000000000000000000000000000000000000000000000000000000000000000000000000000000000
310
00000000000000000000000000000000000000000000000000000000000000000000000000000000000000000000000000000000000000000000000000000000000000000000000000000000000000000000000000000000000000000000000000000000000000000000000000000000000000000000000000000000000000
310
00000000000000000000000000000000000000000000000000000000000000000000000000000000000000000000000000000000000000000000000000000000000000000000000000000000000000000000000000000000000000000000000000000000000000000000000000000000000000000000000000000000000000
310
0000000000000000000000000000000000000000000000000000000000000000000000000000000000000000000000000000000000000000
102
{BLKREFS
331
B3C
102
}
1001
ACAD
1000
DesignCenter Data
1002
{
1070
     1
1070
     4
1002
}
  0
BLOCK_RECORD
  5
B3D
330
1
100
AcDbSymbolTableRecord
100
AcDbBlockTableRecord
  2
4
340
0
310
2800000020000000200000000100080000000000000400000000000000000000000000000000000000000000000080000080000000808000800000008000800080800000C0C0C000C0DCC000F0CAA6000020400000206000002080000020A0000020C0000020E00000400000004020000040400000406000004080000040A0
310
000040C0000040E00000600000006020000060400000606000006080000060A0000060C0000060E00000800000008020000080400000806000008080000080A0000080C0000080E00000A0000000A0200000A0400000A0600000A0800000A0A00000A0C00000A0E00000C0000000C0200000C0400000C0600000C0800000C0
310
A00000C0C00000C0E00000E0000000E0200000E0400000E0600000E0800000E0A00000E0C00000E0E00040000000400020004000400040006000400080004000A0004000C0004000E00040200000402020004020400040206000402080004020A0004020C0004020E000404000004040200040404000404060004040800040
310
40A0004040C0004040E00040600000406020004060400040606000406080004060A0004060C0004060E00040800000408020004080400040806000408080004080A0004080C0004080E00040A0000040A0200040A0400040A0600040A0800040A0A00040A0C00040A0E00040C0000040C0200040C0400040C0600040C08000
310
40C0A00040C0C00040C0E00040E0000040E0200040E0400040E0600040E0800040E0A00040E0C00040E0E00080000000800020008000400080006000800080008000A0008000C0008000E00080200000802020008020400080206000802080008020A0008020C0008020E00080400000804020008040400080406000804080
310
008040A0008040C0008040E00080600000806020008060400080606000806080008060A0008060C0008060E00080800000808020008080400080806000808080008080A0008080C0008080E00080A0000080A0200080A0400080A0600080A0800080A0A00080A0C00080A0E00080C0000080C0200080C0400080C0600080C0
310
800080C0A00080C0C00080C0E00080E0000080E0200080E0400080E0600080E0800080E0A00080E0C00080E0E000C0000000C0002000C0004000C0006000C0008000C000A000C000C000C000E000C0200000C0202000C0204000C0206000C0208000C020A000C020C000C020E000C0400000C0402000C0404000C0406000C0
310
408000C040A000C040C000C040E000C0600000C0602000C0604000C0606000C0608000C060A000C060C000C060E000C0800000C0802000C0804000C0806000C0808000C080A000C080C000C080E000C0A00000C0A02000C0A04000C0A06000C0A08000C0A0A000C0A0C000C0A0E000C0C00000C0C02000C0C04000C0C06000
310
C0C08000C0C0A000F0FBFF00A4A0A000808080000000FF0000FF000000FFFF00FF000000FF00FF00FFFF0000FFFFFF000000000000000000000000000000000000000000000000000000000000000000000000000000000000FFFFFFFFFFFFFFFFFFFFFFFFFFFF000000000000000000000000000000000000FF0000000000
310
00000000000000FF000000000000000000000000000000000000FF000000000000000000000000FF000000000000000000000000000000000000FF000000000000000000000000FF000000000000000000000000000000000000FF000000000000000000000000FF000000000000000000000000000000000000FF00000000
310
0000000000000000FF000000000000000000000000000000000000FF000000000000000000000000FF000000000000000000000000000000000000FF000000000000000000000000FF000000000000000000000000000000000000FF000000000000000000000000FF000000000000000000000000000000000000FF000000
310
000000000000000000FF000000000000000000000000000000000000FF000000000000000000000000FF000000000000000000000000000000000000FF000000000000000000000000FF000000000000000000000000000000000000FF000000000000000000000000FF000000000000000000000000000000000000FF0000
310
00000000000000000000FF000000000000000000000000000000000000FF000000000000000000000000FF000000000000000000000000000000000000FF000000000000000000000000FF000000000000000000000000000000000000FF000000000000000000000000FF000000000000000000000000000000000000FF00
310
0000000000000000000000FF000000000000000000000000000000000000FF000000000000000000000000FF000000000000000000000000000000000000FF000000000000000000000000FF000000000000000000000000000000000000FF000000000000000000000000FF000000000000000000000000000000000000FF
310
000000000000000000000000FF000000000000000000000000000000000000FF000000000000000000000000FF000000000000000000000000000000000000FFFFFFFFFFFFFFFFFFFFFFFFFFFF00000000000000000000000000000000000000FF00000000000000000000FF00000000000000000000000000000000000000
310
00FF00000000000000000000FF0000000000000000000000000000000000000000FF000000FFFFFFFF000000FF0000000000000000000000000000000000000000FF000000FF0000FF000000FF0000000000000000000000000000000000000000FF000000FF0000FF000000FF000000000000000000000000000000000000
310
0000FFFFFFFFFF0000FFFFFFFFFF000000000000000000000000000000000000000000000000000000000000000000000000000000000000
102
{BLKREFS
331
B50
102
}
1001
ACAD
1000
DesignCenter Data
1002
{
1070
     1
1070
     4
1002
}
  0
BLOCK_RECORD
  5
B51
330
1
100
AcDbSymbolTableRecord
100
AcDbBlockTableRecord
  2
3
340
0
310
2800000020000000200000000100080000000000000400000000000000000000000000000000000000000000000080000080000000808000800000008000800080800000C0C0C000C0DCC000F0CAA6000020400000206000002080000020A0000020C0000020E00000400000004020000040400000406000004080000040A0
310
000040C0000040E00000600000006020000060400000606000006080000060A0000060C0000060E00000800000008020000080400000806000008080000080A0000080C0000080E00000A0000000A0200000A0400000A0600000A0800000A0A00000A0C00000A0E00000C0000000C0200000C0400000C0600000C0800000C0
310
A00000C0C00000C0E00000E0000000E0200000E0400000E0600000E0800000E0A00000E0C00000E0E00040000000400020004000400040006000400080004000A0004000C0004000E00040200000402020004020400040206000402080004020A0004020C0004020E000404000004040200040404000404060004040800040
310
40A0004040C0004040E00040600000406020004060400040606000406080004060A0004060C0004060E00040800000408020004080400040806000408080004080A0004080C0004080E00040A0000040A0200040A0400040A0600040A0800040A0A00040A0C00040A0E00040C0000040C0200040C0400040C0600040C08000
310
40C0A00040C0C00040C0E00040E0000040E0200040E0400040E0600040E0800040E0A00040E0C00040E0E00080000000800020008000400080006000800080008000A0008000C0008000E00080200000802020008020400080206000802080008020A0008020C0008020E00080400000804020008040400080406000804080
310
008040A0008040C0008040E00080600000806020008060400080606000806080008060A0008060C0008060E00080800000808020008080400080806000808080008080A0008080C0008080E00080A0000080A0200080A0400080A0600080A0800080A0A00080A0C00080A0E00080C0000080C0200080C0400080C0600080C0
310
800080C0A00080C0C00080C0E00080E0000080E0200080E0400080E0600080E0800080E0A00080E0C00080E0E000C0000000C0002000C0004000C0006000C0008000C000A000C000C000C000E000C0200000C0202000C0204000C0206000C0208000C020A000C020C000C020E000C0400000C0402000C0404000C0406000C0
310
408000C040A000C040C000C040E000C0600000C0602000C0604000C0606000C0608000C060A000C060C000C060E000C0800000C0802000C0804000C0806000C0808000C080A000C080C000C080E000C0A00000C0A02000C0A04000C0A06000C0A08000C0A0A000C0A0C000C0A0E000C0C00000C0C02000C0C04000C0C06000
310
C0C08000C0C0A000F0FBFF00A4A0A000808080000000FF0000FF000000FFFF00FF000000FF00FF00FFFF0000FFFFFF0000000000000000000000000000000000000000000000000000000000000000000000000000000000000000000000000000000000000000000000000000000000000000000000000000000000000000
310
00000000000000000000000000000000000000000000000000000000000000000000000000000000000000000000000000000000000000000000000000000000000000000000000000000000000000000000000000000000000000000000000000000000000000000000000000000000000000000000000000000000000000
310
0000000000000000000000000000FF0000000000000000000000000000000000000000000000000000000000FFFFFFFFFF00000000000000000000000000000000000000000000000000FFFFFF00FF00FF0000000000000000000000000000000000000000000000FFFFFFFFFF00FF00FF0000000000000000000000000000
310
00000000000000FFFFFFFFFFFFFFFFFFFFFF0000000000000000000000000000000000000000FFFFFFFFFFFFFFFFFFFF0000000000000000000000000000000000000000FFFFFFFFFFFFFFFFFFFFFF00000000000000000000000000000000000000FFFFFFFFFFFFFFFFFFFFFFFF0000000000000000000000000000000000
310
00FFFFFFFFFFFFFFFFFFFFFFFFFF0000000000000000000000000000000000FFFFFFFFFFFFFFFFFFFFFFFFFF000000000000000000000000000000000000FFFFFFFFFFFFFFFFFFFFFFFF000000000000000000000000000000000000FFFFFFFFFFFFFFFFFFFFFFFF000000000000000000000000000000000000FFFFFFFFFF
310
FFFFFFFFFFFFFF000000000000000000000000000000000000FFFFFFFFFFFFFFFFFFFFFFFFFF0000000000000000000000000000000000FFFFFFFFFFFFFFFFFFFFFFFFFF000000000000000000000000000000000000FF00FFFFFFFFFFFFFFFFFFFF0000000000000000000000000000000000000000FF00FFFFFFFFFFFFFF
310
FF00000000000000000000000000000000000000000000FFFFFFFFFFFFFFFFFF0000000000000000000000000000000000000000000000FFFFFFFFFFFFFF0000000000000000000000000000000000000000000000000000FFFFFFFFFF00000000000000000000000000000000000000000000000000000000000000000000
310
00000000000000000000000000000000000000000000000000000000000000000000000000000000000000000000000000000000000000000000000000000000000000000000000000000000000000000000000000000000000000000000000000000000000000000000000000000000000000000000000000000000000000
310
0000000000000000000000000000000000000000000000000000000000000000000000000000000000000000000000000000000000000000
102
{BLKREFS
331
CBB
102
}
1001
ACAD
1000
DesignCenter Data
1002
{
1070
     1
1070
     4
1002
}
  0
ENDTAB
  0
ENDSEC
  0
SECTION
  2
BLOCKS
  0
BLOCK
  5
20
330
1F
100
AcDbEntity
  8
0
100
AcDbBlockBegin
  2
*Model_Space
 70
     0
 10
0.0
 20
0.0
 30
0.0
  3
*Model_Space
  1

  0
ENDBLK
  5
21
330
1F
100
AcDbEntity
  8
0
100
AcDbBlockEnd
  0
BLOCK
  5
D4
330
D2
100
AcDbEntity
 67
     1
  8
0
100
AcDbBlockBegin
  2
*Paper_Space
 70
     0
 10
0.0
 20
0.0
 30
0.0
  3
*Paper_Space
  1

  0
ENDBLK
  5
D5
330
D2
100
AcDbEntity
 67
     1
  8
0
100
AcDbBlockEnd
  0
BLOCK
  5
D8
330
D6
100
AcDbEntity
 67
     1
  8
0
100
AcDbBlockBegin
  2
*Paper_Space0
 70
     0
 10
0.0
 20
0.0
 30
0.0
  3
*Paper_Space0
  1

  0
ENDBLK
  5
D9
330
D6
100
AcDbEntity
 67
     1
  8
0
100
AcDbBlockEnd
  0
BLOCK
  5
904
330
903
100
AcDbEntity
  8
0
100
AcDbBlockBegin
  2
11
 70
     0
 10
0.0
 20
0.0
 30
0.0
  3
11
  1

  0
LINE
  5
906
330
903
100
AcDbEntity
  8
0
  6
Continuous
 62
     7
370
    15
100
AcDbLine
 10
2135.580919754725
 20
1094.868978497595
 30
0.0
 11
2135.580919754725
 21
1093.068978497595
 31
0.0
  0
LINE
  5
907
330
903
100
AcDbEntity
  8
0
  6
Continuous
 62
     7
370
    15
100
AcDbLine
 10
2141.380919754725
 20
1093.068978497595
 30
0.0
 11
2141.380919754725
 21
1094.868978497595
 31
0.0
  0
LINE
  5
908
330
903
100
AcDbEntity
  8
0
  6
Continuous
 62
     7
370
    15
100
AcDbLine
 10
2143.380919754725
 20
1094.868978497595
 30
0.0
 11
2143.380919754725
 21
1093.068978497595
 31
0.0
  0
LINE
  5
909
330
903
100
AcDbEntity
  8
0
  6
Continuous
 62
     7
370
    15
100
AcDbLine
 10
2149.180919754725
 20
1093.068978497595
 30
0.0
 11
2149.180919754725
 21
1094.868978497595
 31
0.0
  0
LINE
  5
90A
330
903
100
AcDbEntity
  8
0
  6
Continuous
 62
     7
370
    15
100
AcDbLine
 10
2119.980919754725
 20
1094.868978497595
 30
0.0
 11
2119.980919754725
 21
1093.068978497595
 31
0.0
  0
LINE
  5
90B
330
903
100
AcDbEntity
  8
0
  6
Continuous
 62
     7
370
    15
100
AcDbLine
 10
2125.780919754725
 20
1093.068978497595
 30
0.0
 11
2125.780919754725
 21
1094.868978497595
 31
0.0
  0
LINE
  5
90C
330
903
100
AcDbEntity
  8
0
  6
Continuous
 62
     7
370
    15
100
AcDbLine
 10
2174.580919754725
 20
1094.868978497595
 30
0.0
 11
2174.580919754725
 21
1093.068978497595
 31
0.0
  0
LINE
  5
90D
330
903
100
AcDbEntity
  8
0
  6
Continuous
 62
     7
370
    15
100
AcDbLine
 10
2180.380919754725
 20
1093.068978497595
 30
0.0
 11
2180.380919754725
 21
1094.868978497595
 31
0.0
  0
LINE
  5
90E
330
903
100
AcDbEntity
  8
0
  6
Continuous
 62
     7
370
    15
100
AcDbLine
 10
2166.780919754725
 20
1094.868978497595
 30
0.0
 11
2166.780919754725
 21
1093.068978497595
 31
0.0
  0
LINE
  5
90F
330
903
100
AcDbEntity
  8
0
  6
Continuous
 62
     7
370
    15
100
AcDbLine
 10
2172.580919754725
 20
1093.068978497595
 30
0.0
 11
2172.580919754725
 21
1094.868978497595
 31
0.0
  0
LINE
  5
910
330
903
100
AcDbEntity
  8
0
  6
Continuous
 62
     7
370
    15
100
AcDbLine
 10
2158.980919754725
 20
1094.868978497595
 30
0.0
 11
2158.980919754725
 21
1093.068978497595
 31
0.0
  0
LINE
  5
911
330
903
100
AcDbEntity
  8
0
  6
Continuous
 62
     7
370
    15
100
AcDbLine
 10
2164.780919754726
 20
1093.068978497595
 30
0.0
 11
2164.780919754726
 21
1094.868978497595
 31
0.0
  0
LINE
  5
912
330
903
100
AcDbEntity
  8
0
  6
Continuous
 62
     7
370
    15
100
AcDbLine
 10
2151.180919754725
 20
1094.868978497595
 30
0.0
 11
2151.180919754725
 21
1093.068978497595
 31
0.0
  0
LINE
  5
913
330
903
100
AcDbEntity
  8
0
  6
Continuous
 62
     7
370
    15
100
AcDbLine
 10
2156.980919754725
 20
1093.068978497595
 30
0.0
 11
2156.980919754725
 21
1094.868978497595
 31
0.0
  0
LINE
  5
914
330
903
100
AcDbEntity
  8
0
  6
Continuous
 62
     7
370
    15
100
AcDbLine
 10
2112.180919754725
 20
1094.868978497595
 30
0.0
 11
2112.180919754725
 21
1093.068978497595
 31
0.0
  0
LINE
  5
915
330
903
100
AcDbEntity
  8
0
  6
Continuous
 62
     7
370
    15
100
AcDbLine
 10
2117.980919754725
 20
1093.068978497595
 30
0.0
 11
2117.980919754725
 21
1094.868978497595
 31
0.0
  0
LINE
  5
916
330
903
100
AcDbEntity
  8
0
  6
Continuous
 62
     7
370
    15
100
AcDbLine
 10
2104.380919754726
 20
1094.868978497595
 30
0.0
 11
2104.380919754726
 21
1093.068978497595
 31
0.0
  0
LINE
  5
917
330
903
100
AcDbEntity
  8
0
  6
Continuous
 62
     7
370
    15
100
AcDbLine
 10
2110.180919754725
 20
1093.068978497595
 30
0.0
 11
2110.180919754725
 21
1094.868978497595
 31
0.0
  0
LINE
  5
918
330
903
100
AcDbEntity
  8
0
  6
Continuous
 62
     7
370
    15
100
AcDbLine
 10
2127.780919754725
 20
1094.868978497595
 30
0.0
 11
2127.780919754725
 21
1093.068978497595
 31
0.0
  0
LINE
  5
919
330
903
100
AcDbEntity
  8
0
  6
Continuous
 62
     7
370
    15
100
AcDbLine
 10
2133.580919754725
 20
1093.068978497595
 30
0.0
 11
2133.580919754725
 21
1094.868978497595
 31
0.0
  0
LINE
  5
91A
330
903
100
AcDbEntity
  8
0
  6
Continuous
 62
     7
370
    15
100
AcDbLine
 10
2088.780919754725
 20
1094.868978497595
 30
0.0
 11
2088.780919754725
 21
1093.068978497595
 31
0.0
  0
LINE
  5
91B
330
903
100
AcDbEntity
  8
0
  6
Continuous
 62
     7
370
    15
100
AcDbLine
 10
2094.580919754725
 20
1093.068978497595
 30
0.0
 11
2094.580919754725
 21
1094.868978497595
 31
0.0
  0
LINE
  5
91C
330
903
100
AcDbEntity
  8
0
  6
Continuous
 62
     7
370
    15
100
AcDbLine
 10
2096.580919754725
 20
1094.868978497595
 30
0.0
 11
2096.580919754725
 21
1093.068978497595
 31
0.0
  0
LINE
  5
91D
330
903
100
AcDbEntity
  8
0
  6
Continuous
 62
     7
370
    15
100
AcDbLine
 10
2102.380919754725
 20
1093.068978497595
 30
0.0
 11
2102.380919754725
 21
1094.868978497595
 31
0.0
  0
CIRCLE
  5
91E
330
903
100
AcDbEntity
  8
0
  6
Continuous
 62
     7
370
    15
100
AcDbCircle
 10
2130.680919754725
 20
1087.068978497595
 30
0.0
 40
3.0
  0
CIRCLE
  5
91F
330
903
100
AcDbEntity
  8
0
  6
Continuous
 62
     7
370
    15
100
AcDbCircle
 10
2138.480919754725
 20
1087.068978497595
 30
0.0
 40
3.0
  0
LINE
  5
920
330
903
100
AcDbEntity
  8
0
  6
Continuous
 62
     7
370
    15
100
AcDbLine
 10
2080.580919754725
 20
1093.068978497595
 30
0.0
 11
2080.580919754725
 21
1081.068978497595
 31
0.0
  0
LINE
  5
921
330
903
100
AcDbEntity
  8
0
  6
Continuous
 62
     7
370
    15
100
AcDbLine
 10
2188.580919754725
 20
1081.068978497595
 30
0.0
 11
2188.580919754725
 21
1093.068978497595
 31
0.0
  0
LINE
  5
922
330
903
100
AcDbEntity
  8
0
  6
Continuous
 62
     7
370
    15
100
AcDbLine
 10
2080.580919754725
 20
1081.068978497595
 30
0.0
 11
2188.580919754725
 21
1081.068978497595
 31
0.0
  0
CIRCLE
  5
923
330
903
100
AcDbEntity
  8
0
  6
Continuous
 62
     7
370
    15
100
AcDbCircle
 10
2161.880919754725
 20
1087.068978497595
 30
0.0
 40
3.75
  0
CIRCLE
  5
924
330
903
100
AcDbEntity
  8
0
  6
Continuous
 62
     7
370
    15
100
AcDbCircle
 10
2169.680919754725
 20
1087.068978497595
 30
0.0
 40
3.0
  0
CIRCLE
  5
925
330
903
100
AcDbEntity
  8
0
  6
Continuous
 62
     7
370
    15
100
AcDbCircle
 10
2177.480919754725
 20
1087.068978497595
 30
0.0
 40
3.0
  0
CIRCLE
  5
926
330
903
100
AcDbEntity
  8
0
  6
Continuous
 62
     7
370
    15
100
AcDbCircle
 10
2099.480919754725
 20
1087.068978497595
 30
0.0
 40
3.750000000000028
  0
CIRCLE
  5
927
330
903
100
AcDbEntity
  8
0
  6
Continuous
 62
     7
370
    15
100
AcDbCircle
 10
2091.680919754725
 20
1087.068978497595
 30
0.0
 40
3.0
  0
CIRCLE
  5
928
330
903
100
AcDbEntity
  8
0
  6
Continuous
 62
     7
370
    15
100
AcDbCircle
 10
2146.280919754725
 20
1087.068978497595
 30
0.0
 40
3.0
  0
CIRCLE
  5
929
330
903
100
AcDbEntity
  8
0
  6
Continuous
 62
     7
370
    15
100
AcDbCircle
 10
2154.080919754725
 20
1087.068978497595
 30
0.0
 40
3.0
  0
CIRCLE
  5
92A
330
903
100
AcDbEntity
  8
0
  6
Continuous
 62
     7
370
    15
100
AcDbCircle
 10
2107.280919754725
 20
1087.068978497595
 30
0.0
 40
3.000000000000028
  0
CIRCLE
  5
92B
330
903
100
AcDbEntity
  8
0
  6
Continuous
 62
     7
370
    15
100
AcDbCircle
 10
2115.080919754725
 20
1087.068978497595
 30
0.0
 40
3.0
  0
CIRCLE
  5
92C
330
903
100
AcDbEntity
  8
0
  6
Continuous
 62
     7
370
    15
100
AcDbCircle
 10
2122.880919754726
 20
1087.068978497595
 30
0.0
 40
3.000000000000028
  0
LINE
  5
92D
330
903
100
AcDbEntity
  8
0
  6
Continuous
 62
     7
370
    15
100
AcDbLine
 10
2188.580919754725
 20
1093.068978497595
 30
0.0
 11
2080.580919754725
 21
1093.068978497595
 31
0.0
  0
LINE
  5
92E
330
903
100
AcDbEntity
  8
0
  6
Continuous
 62
     7
370
    15
100
AcDbLine
 10
2135.630359153887
 20
1094.868978497595
 30
0.0
 11
2135.580919754725
 21
1094.868978497595
 31
0.0
  0
ELLIPSE
  5
92F
330
903
100
AcDbEntity
  8
0
  6
Continuous
 62
     7
370
    15
100
AcDbEllipse
 10
2138.480919754725
 20
1084.620296484958
 30
0.0
 11
-0.0039880259559197
 21
55.33529639401703
 31
0.0
210
0.0
220
0.0
230
1.0
 40
0.0524077297285928
 41
1.362390743167513
 42
1.384506410350494
  0
ELLIPSE
  5
930
330
903
100
AcDbEntity
  8
0
  6
Continuous
 62
     7
370
    15
100
AcDbEllipse
 10
2138.480919754725
 20
1084.620296484958
 30
0.0
 11
-0.0039880259559197
 21
55.33529639401703
 31
0.0
210
0.0
220
0.0
230
1.0
 40
0.0524077297285928
 41
4.898671342757833
 42
4.920787009940814
  0
LINE
  5
931
330
903
100
AcDbEntity
  8
0
  6
Continuous
 62
     7
370
    15
100
AcDbLine
 10
2141.380919754725
 20
1094.868978497595
 30
0.0
 11
2141.330007163778
 21
1094.868978497595
 31
0.0
  0
ELLIPSE
  5
932
330
903
100
AcDbEntity
  8
0
  6
Continuous
 62
     7
370
    15
100
AcDbEllipse
 10
2138.480919754725
 20
1084.620296484958
 30
0.0
 11
0.0039880259558913
 21
55.33529639401706
 31
0.0
210
0.0
220
0.0
230
1.0
 40
0.0524077297285927
 41
4.898678896829105
 42
4.920794564012086
  0
LINE
  5
933
330
903
100
AcDbEntity
  8
0
  6
Continuous
 62
     7
370
    15
100
AcDbLine
 10
2141.317346435866
 20
1096.068978497595
 30
0.0
 11
2135.642847388385
 21
1096.068978497595
 31
0.0
  0
LINE
  5
934
330
903
100
AcDbEntity
  8
0
  6
Continuous
 62
     7
370
    15
100
AcDbLine
 10
2143.430359153887
 20
1094.868978497595
 30
0.0
 11
2143.380919754725
 21
1094.868978497595
 31
0.0
  0
ELLIPSE
  5
935
330
903
100
AcDbEntity
  8
0
  6
Continuous
 62
     7
370
    15
100
AcDbEllipse
 10
2146.280919754725
 20
1084.620296484958
 30
0.0
 11
-0.0039880259558913
 21
55.33529639401703
 31
0.0
210
0.0
220
0.0
230
1.0
 40
0.0524077297285928
 41
1.362390743167511
 42
1.384506410350492
  0
ELLIPSE
  5
936
330
903
100
AcDbEntity
  8
0
  6
Continuous
 62
     7
370
    15
100
AcDbEllipse
 10
2146.280919754725
 20
1084.620296484958
 30
0.0
 11
-0.0039880259558913
 21
55.33529639401703
 31
0.0
210
0.0
220
0.0
230
1.0
 40
0.0524077297285928
 41
4.898671342757833
 42
4.920787009940814
  0
LINE
  5
937
330
903
100
AcDbEntity
  8
0
  6
Continuous
 62
     7
370
    15
100
AcDbLine
 10
2149.180919754725
 20
1094.868978497595
 30
0.0
 11
2149.130007163778
 21
1094.868978497595
 31
0.0
  0
ELLIPSE
  5
938
330
903
100
AcDbEntity
  8
0
  6
Continuous
 62
     7
370
    15
100
AcDbEllipse
 10
2146.280919754725
 20
1084.620296484958
 30
0.0
 11
0.0039880259559197
 21
55.33529639401706
 31
0.0
210
0.0
220
0.0
230
1.0
 40
0.0524077297285927
 41
4.898678896829103
 42
4.920794564012085
  0
LINE
  5
939
330
903
100
AcDbEntity
  8
0
  6
Continuous
 62
     7
370
    15
100
AcDbLine
 10
2149.117346435867
 20
1096.068978497595
 30
0.0
 11
2143.442847388386
 21
1096.068978497595
 31
0.0
  0
LINE
  5
93A
330
903
100
AcDbEntity
  8
0
  6
Continuous
 62
     7
370
    15
100
AcDbLine
 10
2120.030359153888
 20
1094.868978497595
 30
0.0
 11
2119.980919754725
 21
1094.868978497595
 31
0.0
  0
ELLIPSE
  5
93B
330
903
100
AcDbEntity
  8
0
  6
Continuous
 62
     7
370
    15
100
AcDbEllipse
 10
2122.880919754726
 20
1084.620296484958
 30
0.0
 11
-0.0039880259558913
 21
55.33529639401703
 31
0.0
210
0.0
220
0.0
230
1.0
 40
0.0524077297285928
 41
1.362390743167511
 42
1.384506410350492
  0
LINE
  5
93C
330
903
100
AcDbEntity
  8
0
  6
Continuous
 62
     7
370
    15
100
AcDbLine
 10
2125.717346435866
 20
1096.068978497595
 30
0.0
 11
2120.042847388386
 21
1096.068978497595
 31
0.0
  0
ELLIPSE
  5
93D
330
903
100
AcDbEntity
  8
0
  6
Continuous
 62
     7
370
    15
100
AcDbEllipse
 10
2122.880919754726
 20
1084.620296484958
 30
0.0
 11
-0.0039880259558913
 21
55.33529639401703
 31
0.0
210
0.0
220
0.0
230
1.0
 40
0.0524077297285928
 41
4.898671342757831
 42
4.920787009940812
  0
LINE
  5
93E
330
903
100
AcDbEntity
  8
0
  6
Continuous
 62
     7
370
    15
100
AcDbLine
 10
2125.780919754725
 20
1094.868978497595
 30
0.0
 11
2125.730007163777
 21
1094.868978497595
 31
0.0
  0
ELLIPSE
  5
93F
330
903
100
AcDbEntity
  8
0
  6
Continuous
 62
     7
370
    15
100
AcDbEllipse
 10
2122.880919754726
 20
1084.620296484958
 30
0.0
 11
0.0039880259559197
 21
55.33529639401706
 31
0.0
210
0.0
220
0.0
230
1.0
 40
0.0524077297285927
 41
4.898678896829103
 42
4.920794564012085
  0
LINE
  5
940
330
903
100
AcDbEntity
  8
0
  6
Continuous
 62
     7
370
    15
100
AcDbLine
 10
2174.630359153888
 20
1094.868978497595
 30
0.0
 11
2174.580919754725
 21
1094.868978497595
 31
0.0
  0
ELLIPSE
  5
941
330
903
100
AcDbEntity
  8
0
  6
Continuous
 62
     7
370
    15
100
AcDbEllipse
 10
2177.480919754725
 20
1084.620296484958
 30
0.0
 11
-0.0039880259559482
 21
55.33529639401703
 31
0.0
210
0.0
220
0.0
230
1.0
 40
0.0524077297285928
 41
1.36239074316751
 42
1.384506410350493
  0
ELLIPSE
  5
942
330
903
100
AcDbEntity
  8
0
  6
Continuous
 62
     7
370
    15
100
AcDbEllipse
 10
2177.480919754725
 20
1084.620296484958
 30
0.0
 11
-0.0039880259559482
 21
55.33529639401703
 31
0.0
210
0.0
220
0.0
230
1.0
 40
0.0524077297285928
 41
4.898671342757833
 42
4.920787009940813
  0
LINE
  5
943
330
903
100
AcDbEntity
  8
0
  6
Continuous
 62
     7
370
    15
100
AcDbLine
 10
2180.380919754725
 20
1094.868978497595
 30
0.0
 11
2180.330007163778
 21
1094.868978497595
 31
0.0
  0
ELLIPSE
  5
944
330
903
100
AcDbEntity
  8
0
  6
Continuous
 62
     7
370
    15
100
AcDbEllipse
 10
2177.480919754725
 20
1084.620296484958
 30
0.0
 11
0.0039880259559197
 21
55.33529639401706
 31
0.0
210
0.0
220
0.0
230
1.0
 40
0.0524077297285927
 41
4.898678896829103
 42
4.920794564012087
  0
LINE
  5
945
330
903
100
AcDbEntity
  8
0
  6
Continuous
 62
     7
370
    15
100
AcDbLine
 10
2180.317346435866
 20
1096.068978497595
 30
0.0
 11
2174.642847388386
 21
1096.068978497595
 31
0.0
  0
LINE
  5
946
330
903
100
AcDbEntity
  8
0
  6
Continuous
 62
     7
370
    15
100
AcDbLine
 10
2166.830359153887
 20
1094.868978497595
 30
0.0
 11
2166.780919754725
 21
1094.868978497595
 31
0.0
  0
ELLIPSE
  5
947
330
903
100
AcDbEntity
  8
0
  6
Continuous
 62
     7
370
    15
100
AcDbEllipse
 10
2169.680919754725
 20
1084.620296484958
 30
0.0
 11
-0.0039880259559197
 21
55.33529639401703
 31
0.0
210
0.0
220
0.0
230
1.0
 40
0.0524077297285928
 41
1.362390743167511
 42
1.384506410350492
  0
ELLIPSE
  5
948
330
903
100
AcDbEntity
  8
0
  6
Continuous
 62
     7
370
    15
100
AcDbEllipse
 10
2169.680919754725
 20
1084.620296484958
 30
0.0
 11
-0.0039880259559197
 21
55.33529639401703
 31
0.0
210
0.0
220
0.0
230
1.0
 40
0.0524077297285928
 41
4.89867134275783
 42
4.920787009940811
  0
LINE
  5
949
330
903
100
AcDbEntity
  8
0
  6
Continuous
 62
     7
370
    15
100
AcDbLine
 10
2172.580919754725
 20
1094.868978497595
 30
0.0
 11
2172.530007163778
 21
1094.868978497595
 31
0.0
  0
ELLIPSE
  5
94A
330
903
100
AcDbEntity
  8
0
  6
Continuous
 62
     7
370
    15
100
AcDbEllipse
 10
2169.680919754725
 20
1084.620296484958
 30
0.0
 11
0.0039880259559482
 21
55.33529639401706
 31
0.0
210
0.0
220
0.0
230
1.0
 40
0.0524077297285927
 41
4.898678896829104
 42
4.920794564012085
  0
LINE
  5
94B
330
903
100
AcDbEntity
  8
0
  6
Continuous
 62
     7
370
    15
100
AcDbLine
 10
2172.517346435866
 20
1096.068978497595
 30
0.0
 11
2166.842847388386
 21
1096.068978497595
 31
0.0
  0
LINE
  5
94C
330
903
100
AcDbEntity
  8
0
  6
Continuous
 62
     7
370
    15
100
AcDbLine
 10
2159.030359153888
 20
1094.868978497595
 30
0.0
 11
2158.980919754725
 21
1094.868978497595
 31
0.0
  0
ELLIPSE
  5
94D
330
903
100
AcDbEntity
  8
0
  6
Continuous
 62
     7
370
    15
100
AcDbEllipse
 10
2161.880919754725
 20
1084.620296484958
 30
0.0
 11
-0.0039880259559482
 21
55.33529639401703
 31
0.0
210
0.0
220
0.0
230
1.0
 40
0.0524077297285933
 41
1.36239074316751
 42
1.384506410350492
  0
LINE
  5
94E
330
903
100
AcDbEntity
  8
0
  6
Continuous
 62
     7
370
    15
100
AcDbLine
 10
2164.717346435866
 20
1096.068978497595
 30
0.0
 11
2159.042847388386
 21
1096.068978497595
 31
0.0
  0
ELLIPSE
  5
94F
330
903
100
AcDbEntity
  8
0
  6
Continuous
 62
     7
370
    15
100
AcDbEllipse
 10
2161.880919754725
 20
1084.620296484958
 30
0.0
 11
-0.0039880259559482
 21
55.33529639401703
 31
0.0
210
0.0
220
0.0
230
1.0
 40
0.0524077297285933
 41
4.898671342757834
 42
4.920787009940815
  0
LINE
  5
950
330
903
100
AcDbEntity
  8
0
  6
Continuous
 62
     7
370
    15
100
AcDbLine
 10
2164.780919754726
 20
1094.868978497595
 30
0.0
 11
2164.730007163777
 21
1094.868978497595
 31
0.0
  0
ELLIPSE
  5
951
330
903
100
AcDbEntity
  8
0
  6
Continuous
 62
     7
370
    15
100
AcDbEllipse
 10
2161.880919754725
 20
1084.620296484958
 30
0.0
 11
0.0039880259558913
 21
55.33529639401706
 31
0.0
210
0.0
220
0.0
230
1.0
 40
0.0524077297285927
 41
4.898678896829105
 42
4.920794564012086
  0
LINE
  5
952
330
903
100
AcDbEntity
  8
0
  6
Continuous
 62
     7
370
    15
100
AcDbLine
 10
2151.230359153888
 20
1094.868978497595
 30
0.0
 11
2151.180919754725
 21
1094.868978497595
 31
0.0
  0
ELLIPSE
  5
953
330
903
100
AcDbEntity
  8
0
  6
Continuous
 62
     7
370
    15
100
AcDbEllipse
 10
2154.080919754725
 20
1084.620296484958
 30
0.0
 11
-0.0039880259559197
 21
55.33529639401703
 31
0.0
210
0.0
220
0.0
230
1.0
 40
0.0524077297285928
 41
1.362390743167511
 42
1.384506410350494
  0
ELLIPSE
  5
954
330
903
100
AcDbEntity
  8
0
  6
Continuous
 62
     7
370
    15
100
AcDbEllipse
 10
2154.080919754725
 20
1084.620296484958
 30
0.0
 11
-0.0039880259559197
 21
55.33529639401703
 31
0.0
210
0.0
220
0.0
230
1.0
 40
0.0524077297285928
 41
4.898671342757833
 42
4.920787009940814
  0
LINE
  5
955
330
903
100
AcDbEntity
  8
0
  6
Continuous
 62
     7
370
    15
100
AcDbLine
 10
2156.980919754725
 20
1094.868978497595
 30
0.0
 11
2156.930007163778
 21
1094.868978497595
 31
0.0
  0
ELLIPSE
  5
956
330
903
100
AcDbEntity
  8
0
  6
Continuous
 62
     7
370
    15
100
AcDbEllipse
 10
2154.080919754725
 20
1084.620296484958
 30
0.0
 11
0.0039880259559197
 21
55.33529639401706
 31
0.0
210
0.0
220
0.0
230
1.0
 40
0.0524077297285927
 41
4.898678896829103
 42
4.920794564012087
  0
LINE
  5
957
330
903
100
AcDbEntity
  8
0
  6
Continuous
 62
     7
370
    15
100
AcDbLine
 10
2156.917346435866
 20
1096.068978497595
 30
0.0
 11
2151.242847388386
 21
1096.068978497595
 31
0.0
  0
LINE
  5
958
330
903
100
AcDbEntity
  8
0
  6
Continuous
 62
     7
370
    15
100
AcDbLine
 10
2112.230359153888
 20
1094.868978497595
 30
0.0
 11
2112.180919754725
 21
1094.868978497595
 31
0.0
  0
ELLIPSE
  5
959
330
903
100
AcDbEntity
  8
0
  6
Continuous
 62
     7
370
    15
100
AcDbEllipse
 10
2115.080919754725
 20
1084.620296484958
 30
0.0
 11
-0.0039880259559197
 21
55.33529639401703
 31
0.0
210
0.0
220
0.0
230
1.0
 40
0.0524077297285928
 41
1.362390743167513
 42
1.384506410350492
  0
ELLIPSE
  5
95A
330
903
100
AcDbEntity
  8
0
  6
Continuous
 62
     7
370
    15
100
AcDbEllipse
 10
2115.080919754725
 20
1084.620296484958
 30
0.0
 11
-0.0039880259559197
 21
55.33529639401703
 31
0.0
210
0.0
220
0.0
230
1.0
 40
0.0524077297285928
 41
4.898671342757833
 42
4.920787009940814
  0
LINE
  5
95B
330
903
100
AcDbEntity
  8
0
  6
Continuous
 62
     7
370
    15
100
AcDbLine
 10
2117.980919754725
 20
1094.868978497595
 30
0.0
 11
2117.930007163778
 21
1094.868978497595
 31
0.0
  0
ELLIPSE
  5
95C
330
903
100
AcDbEntity
  8
0
  6
Continuous
 62
     7
370
    15
100
AcDbEllipse
 10
2115.080919754725
 20
1084.620296484958
 30
0.0
 11
0.0039880259559197
 21
55.33529639401706
 31
0.0
210
0.0
220
0.0
230
1.0
 40
0.0524077297285927
 41
4.898678896829103
 42
4.920794564012087
  0
LINE
  5
95D
330
903
100
AcDbEntity
  8
0
  6
Continuous
 62
     7
370
    15
100
AcDbLine
 10
2117.917346435866
 20
1096.068978497595
 30
0.0
 11
2112.242847388386
 21
1096.068978497595
 31
0.0
  0
LINE
  5
95E
330
903
100
AcDbEntity
  8
0
  6
Continuous
 62
     7
370
    15
100
AcDbLine
 10
2104.430359153887
 20
1094.868978497595
 30
0.0
 11
2104.380919754726
 21
1094.868978497595
 31
0.0
  0
ELLIPSE
  5
95F
330
903
100
AcDbEntity
  8
0
  6
Continuous
 62
     7
370
    15
100
AcDbEllipse
 10
2107.280919754725
 20
1084.620296484958
 30
0.0
 11
-0.0039880259559197
 21
55.33529639401703
 31
0.0
210
0.0
220
0.0
230
1.0
 40
0.0524077297285928
 41
1.362390743167511
 42
1.384506410350494
  0
LINE
  5
960
330
903
100
AcDbEntity
  8
0
  6
Continuous
 62
     7
370
    15
100
AcDbLine
 10
2110.117346435866
 20
1096.068978497595
 30
0.0
 11
2104.442847388386
 21
1096.068978497595
 31
0.0
  0
ELLIPSE
  5
961
330
903
100
AcDbEntity
  8
0
  6
Continuous
 62
     7
370
    15
100
AcDbEllipse
 10
2107.280919754725
 20
1084.620296484958
 30
0.0
 11
-0.0039880259559197
 21
55.33529639401703
 31
0.0
210
0.0
220
0.0
230
1.0
 40
0.0524077297285928
 41
4.89867134275783
 42
4.920787009940811
  0
LINE
  5
962
330
903
100
AcDbEntity
  8
0
  6
Continuous
 62
     7
370
    15
100
AcDbLine
 10
2110.180919754725
 20
1094.868978497595
 30
0.0
 11
2110.130007163778
 21
1094.868978497595
 31
0.0
  0
ELLIPSE
  5
963
330
903
100
AcDbEntity
  8
0
  6
Continuous
 62
     7
370
    15
100
AcDbEllipse
 10
2107.280919754725
 20
1084.620296484958
 30
0.0
 11
0.0039880259559197
 21
55.33529639401706
 31
0.0
210
0.0
220
0.0
230
1.0
 40
0.0524077297285927
 41
4.898678896829103
 42
4.920794564012087
  0
LINE
  5
964
330
903
100
AcDbEntity
  8
0
  6
Continuous
 62
     7
370
    15
100
AcDbLine
 10
2127.830359153888
 20
1094.868978497595
 30
0.0
 11
2127.780919754725
 21
1094.868978497595
 31
0.0
  0
ELLIPSE
  5
965
330
903
100
AcDbEntity
  8
0
  6
Continuous
 62
     7
370
    15
100
AcDbEllipse
 10
2130.680919754725
 20
1084.620296484958
 30
0.0
 11
-0.0039880259559197
 21
55.33529639401703
 31
0.0
210
0.0
220
0.0
230
1.0
 40
0.0524077297285928
 41
1.362390743167511
 42
1.384506410350492
  0
ELLIPSE
  5
966
330
903
100
AcDbEntity
  8
0
  6
Continuous
 62
     7
370
    15
100
AcDbEllipse
 10
2130.680919754725
 20
1084.620296484958
 30
0.0
 11
-0.0039880259559197
 21
55.33529639401703
 31
0.0
210
0.0
220
0.0
230
1.0
 40
0.0524077297285928
 41
4.898671342757833
 42
4.920787009940814
  0
LINE
  5
967
330
903
100
AcDbEntity
  8
0
  6
Continuous
 62
     7
370
    15
100
AcDbLine
 10
2133.580919754725
 20
1094.868978497595
 30
0.0
 11
2133.530007163777
 21
1094.868978497595
 31
0.0
  0
ELLIPSE
  5
968
330
903
100
AcDbEntity
  8
0
  6
Continuous
 62
     7
370
    15
100
AcDbEllipse
 10
2130.680919754725
 20
1084.620296484958
 30
0.0
 11
0.0039880259559197
 21
55.33529639401706
 31
0.0
210
0.0
220
0.0
230
1.0
 40
0.0524077297285927
 41
4.898678896829103
 42
4.920794564012087
  0
LINE
  5
969
330
903
100
AcDbEntity
  8
0
  6
Continuous
 62
     7
370
    15
100
AcDbLine
 10
2133.517346435866
 20
1096.068978497595
 30
0.0
 11
2127.842847388386
 21
1096.068978497595
 31
0.0
  0
LINE
  5
96A
330
903
100
AcDbEntity
  8
0
  6
Continuous
 62
     7
370
    15
100
AcDbLine
 10
2088.830359153888
 20
1094.868978497595
 30
0.0
 11
2088.780919754725
 21
1094.868978497595
 31
0.0
  0
ELLIPSE
  5
96B
330
903
100
AcDbEntity
  8
0
  6
Continuous
 62
     7
370
    15
100
AcDbEllipse
 10
2091.680919754725
 20
1084.620296484958
 30
0.0
 11
-0.0039880259559482
 21
55.33529639401703
 31
0.0
210
0.0
220
0.0
230
1.0
 40
0.0524077297285928
 41
1.362390743167512
 42
1.384506410350493
  0
ELLIPSE
  5
96C
330
903
100
AcDbEntity
  8
0
  6
Continuous
 62
     7
370
    15
100
AcDbEllipse
 10
2091.680919754725
 20
1084.620296484958
 30
0.0
 11
-0.0039880259559482
 21
55.33529639401703
 31
0.0
210
0.0
220
0.0
230
1.0
 40
0.0524077297285928
 41
4.89867134275783
 42
4.920787009940811
  0
LINE
  5
96D
330
903
100
AcDbEntity
  8
0
  6
Continuous
 62
     7
370
    15
100
AcDbLine
 10
2094.580919754725
 20
1094.868978497595
 30
0.0
 11
2094.530007163777
 21
1094.868978497595
 31
0.0
  0
ELLIPSE
  5
96E
330
903
100
AcDbEntity
  8
0
  6
Continuous
 62
     7
370
    15
100
AcDbEllipse
 10
2091.680919754725
 20
1084.620296484958
 30
0.0
 11
0.0039880259559482
 21
55.33529639401706
 31
0.0
210
0.0
220
0.0
230
1.0
 40
0.0524077297285927
 41
4.898678896829104
 42
4.920794564012088
  0
LINE
  5
96F
330
903
100
AcDbEntity
  8
0
  6
Continuous
 62
     7
370
    15
100
AcDbLine
 10
2094.517346435866
 20
1096.068978497595
 30
0.0
 11
2088.842847388386
 21
1096.068978497595
 31
0.0
  0
LINE
  5
970
330
903
100
AcDbEntity
  8
0
  6
Continuous
 62
     7
370
    15
100
AcDbLine
 10
2096.630359153888
 20
1094.868978497595
 30
0.0
 11
2096.580919754725
 21
1094.868978497595
 31
0.0
  0
ELLIPSE
  5
971
330
903
100
AcDbEntity
  8
0
  6
Continuous
 62
     7
370
    15
100
AcDbEllipse
 10
2099.480919754725
 20
1084.620296484958
 30
0.0
 11
-0.0039880259558913
 21
55.33529639401703
 31
0.0
210
0.0
220
0.0
230
1.0
 40
0.0524077297285922
 41
1.362390743167513
 42
1.384506410350492
  0
ELLIPSE
  5
972
330
903
100
AcDbEntity
  8
0
  6
Continuous
 62
     7
370
    15
100
AcDbEllipse
 10
2099.480919754725
 20
1084.620296484958
 30
0.0
 11
-0.0039880259558913
 21
55.33529639401703
 31
0.0
210
0.0
220
0.0
230
1.0
 40
0.0524077297285922
 41
4.898671342757829
 42
4.92078700994081
  0
LINE
  5
973
330
903
100
AcDbEntity
  8
0
  6
Continuous
 62
     7
370
    15
100
AcDbLine
 10
2102.380919754725
 20
1094.868978497595
 30
0.0
 11
2102.330007163778
 21
1094.868978497595
 31
0.0
  0
ELLIPSE
  5
974
330
903
100
AcDbEntity
  8
0
  6
Continuous
 62
     7
370
    15
100
AcDbEllipse
 10
2099.480919754725
 20
1084.620296484958
 30
0.0
 11
0.0039880259559197
 21
55.33529639401706
 31
0.0
210
0.0
220
0.0
230
1.0
 40
0.0524077297285927
 41
4.898678896829103
 42
4.920794564012085
  0
LINE
  5
975
330
903
100
AcDbEntity
  8
0
  6
Continuous
 62
     7
370
    15
100
AcDbLine
 10
2102.317346435866
 20
1096.068978497595
 30
0.0
 11
2096.642847388386
 21
1096.068978497595
 31
0.0
  0
LINE
  5
976
330
903
100
AcDbEntity
  8
0
  6
Continuous
 62
     7
370
    15
100
AcDbLine
 10
2172.517346435866
 20
1096.068978497595
 30
0.0
 11
2172.518992121065
 21
1096.068978497595
 31
0.0
  0
LINE
  5
977
330
903
100
AcDbEntity
  8
0
  6
Continuous
 62
     7
370
    15
100
AcDbLine
 10
2180.317346435866
 20
1096.068978497595
 30
0.0
 11
2180.318992121065
 21
1096.068978497595
 31
0.0
  0
LINE
  5
978
330
903
100
AcDbEntity
  8
0
  6
Continuous
 62
     7
370
    15
100
AcDbLine
 10
2149.117346435867
 20
1096.068978497595
 30
0.0
 11
2149.118992121064
 21
1096.068978497595
 31
0.0
  0
LINE
  5
979
330
903
100
AcDbEntity
  8
0
  6
Continuous
 62
     7
370
    15
100
AcDbLine
 10
2164.717346435866
 20
1096.068978497595
 30
0.0
 11
2164.718992121064
 21
1096.068978497595
 31
0.0
  0
LINE
  5
97A
330
903
100
AcDbEntity
  8
0
  6
Continuous
 62
     7
370
    15
100
AcDbLine
 10
2156.917346435866
 20
1096.068978497595
 30
0.0
 11
2156.918992121065
 21
1096.068978497595
 31
0.0
  0
LINE
  5
97B
330
903
100
AcDbEntity
  8
0
  6
Continuous
 62
     7
370
    15
100
AcDbLine
 10
2125.717346435866
 20
1096.068978497595
 30
0.0
 11
2125.718992121065
 21
1096.068978497595
 31
0.0
  0
LINE
  5
97C
330
903
100
AcDbEntity
  8
0
  6
Continuous
 62
     7
370
    15
100
AcDbLine
 10
2141.317346435866
 20
1096.068978497595
 30
0.0
 11
2141.318992121065
 21
1096.068978497595
 31
0.0
  0
LINE
  5
97D
330
903
100
AcDbEntity
  8
0
  6
Continuous
 62
     7
370
    15
100
AcDbLine
 10
2133.517346435866
 20
1096.068978497595
 30
0.0
 11
2133.518992121064
 21
1096.068978497595
 31
0.0
  0
LINE
  5
97E
330
903
100
AcDbEntity
  8
0
  6
Continuous
 62
     7
370
    15
100
AcDbLine
 10
2102.317346435866
 20
1096.068978497595
 30
0.0
 11
2102.318992121065
 21
1096.068978497595
 31
0.0
  0
LINE
  5
97F
330
903
100
AcDbEntity
  8
0
  6
Continuous
 62
     7
370
    15
100
AcDbLine
 10
2117.917346435866
 20
1096.068978497595
 30
0.0
 11
2117.918992121065
 21
1096.068978497595
 31
0.0
  0
LINE
  5
980
330
903
100
AcDbEntity
  8
0
  6
Continuous
 62
     7
370
    15
100
AcDbLine
 10
2110.117346435866
 20
1096.068978497595
 30
0.0
 11
2110.118992121064
 21
1096.068978497595
 31
0.0
  0
LINE
  5
981
330
903
100
AcDbEntity
  8
0
  6
Continuous
 62
     7
370
    15
100
AcDbLine
 10
2094.517346435866
 20
1096.068978497595
 30
0.0
 11
2094.518992121065
 21
1096.068978497595
 31
0.0
  0
ENDBLK
  5
905
330
903
100
AcDbEntity
  8
0
100
AcDbBlockEnd
  0
BLOCK
  5
984
330
983
100
AcDbEntity
  8
0
100
AcDbBlockBegin
  2
2
 70
     0
 10
0.0
 20
0.0
 30
0.0
  3
2
  1

  0
LINE
  5
986
330
983
100
AcDbEntity
  8
0
  6
Continuous
 62
     7
370
    15
100
AcDbLine
 10
2145.783666265231
 20
1060.376306867408
 30
0.0
 11
2145.781744015437
 21
1058.97630808148
 31
0.0
  0
LINE
  5
987
330
983
100
AcDbEntity
  8
0
  6
Continuous
 62
     7
370
    15
100
AcDbLine
 10
2143.444489431601
 20
1058.979513460951
 30
0.0
 11
2145.781744015437
 21
1058.97630808148
 31
0.0
  0
LINE
  5
988
330
983
100
AcDbEntity
  8
0
  6
Continuous
 62
     7
370
    15
100
AcDbLine
 10
2146.781738591414
 20
1058.974936708989
 30
0.0
 11
2149.11899317525
 21
1058.971731329518
 31
0.0
  0
LINE
  5
989
330
983
100
AcDbEntity
  8
0
  6
Continuous
 62
     7
370
    15
100
AcDbLine
 10
2146.781738591414
 20
1058.974936708989
 30
0.0
 11
2146.783660841208
 21
1060.374935378501
 31
0.0
  0
LINE
  5
98A
330
983
100
AcDbEntity
  8
0
  6
Continuous
 62
     7
370
    15
100
AcDbLine
 10
2146.783660841208
 20
1060.374935378501
 30
0.0
 11
2145.783666265231
 21
1060.376306867408
 31
0.0
  0
ARC
  5
98B
330
983
100
AcDbEntity
  8
0
  6
Continuous
 62
     7
370
    15
100
AcDbCircle
 10
2146.280919754725
 20
1058.375623015868
 30
0.0
 40
2.900000000000029
100
AcDbArc
 50
11.86196825574012
 51
167.9808803345231
  0
LINE
  5
98C
330
983
100
AcDbEntity
  8
0
  6
Continuous
 62
     7
370
    15
100
AcDbLine
 10
2137.983660888892
 20
1060.376306867408
 30
0.0
 11
2137.981746089678
 21
1058.97630808148
 31
0.0
  0
LINE
  5
98D
330
983
100
AcDbEntity
  8
0
  6
Continuous
 62
     7
370
    15
100
AcDbLine
 10
2135.644491505843
 20
1058.979513460951
 30
0.0
 11
2137.981746089678
 21
1058.97630808148
 31
0.0
  0
LINE
  5
98E
330
983
100
AcDbEntity
  8
0
  6
Continuous
 62
     7
370
    15
100
AcDbLine
 10
2138.981740665656
 20
1058.974936708989
 30
0.0
 11
2141.318995249491
 21
1058.971731329518
 31
0.0
  0
LINE
  5
98F
330
983
100
AcDbEntity
  8
0
  6
Continuous
 62
     7
370
    15
100
AcDbLine
 10
2138.981740665656
 20
1058.974936708989
 30
0.0
 11
2138.98366291545
 21
1060.374935378501
 31
0.0
  0
LINE
  5
990
330
983
100
AcDbEntity
  8
0
  6
Continuous
 62
     7
370
    15
100
AcDbLine
 10
2138.98366291545
 20
1060.374935378501
 30
0.0
 11
2137.983660888892
 21
1060.376306867408
 31
0.0
  0
ARC
  5
991
330
983
100
AcDbEntity
  8
0
  6
Continuous
 62
     7
370
    15
100
AcDbCircle
 10
2138.480919754725
 20
1058.375623015868
 30
0.0
 40
2.900000000000001
100
AcDbArc
 50
11.86196825574012
 51
167.9808803345231
  0
LINE
  5
992
330
983
100
AcDbEntity
  8
0
  6
Continuous
 62
     7
370
    15
100
AcDbLine
 10
2130.183662963133
 20
1060.376306867408
 30
0.0
 11
2130.18174443863
 21
1058.97630808148
 31
0.0
  0
LINE
  5
993
330
983
100
AcDbEntity
  8
0
  6
Continuous
 62
     7
370
    15
100
AcDbLine
 10
2127.844493580084
 20
1058.979513460951
 30
0.0
 11
2130.18174443863
 21
1058.97630808148
 31
0.0
  0
ARC
  5
994
330
983
100
AcDbEntity
  8
0
  6
Continuous
 62
     7
370
    15
100
AcDbCircle
 10
2130.680919754725
 20
1058.375623015868
 30
0.0
 40
2.899999999999978
100
AcDbArc
 50
11.86196825574012
 51
167.9808803345231
  0
LINE
  5
995
330
983
100
AcDbEntity
  8
0
  6
Continuous
 62
     7
370
    15
100
AcDbLine
 10
2131.181742739897
 20
1058.974936708989
 30
0.0
 11
2133.518993598443
 21
1058.971731329518
 31
0.0
  0
LINE
  5
996
330
983
100
AcDbEntity
  8
0
  6
Continuous
 62
     7
370
    15
100
AcDbLine
 10
2131.181742739897
 20
1058.974936708989
 30
0.0
 11
2131.183661264401
 21
1060.374935378501
 31
0.0
  0
LINE
  5
997
330
983
100
AcDbEntity
  8
0
  6
Continuous
 62
     7
370
    15
100
AcDbLine
 10
2131.183661264401
 20
1060.374935378501
 30
0.0
 11
2130.183662963133
 21
1060.376306867408
 31
0.0
  0
LINE
  5
998
330
983
100
AcDbEntity
  8
0
  6
Continuous
 62
     7
370
    15
100
AcDbLine
 10
2122.383661312085
 20
1060.376306867408
 30
0.0
 11
2122.381742787581
 21
1058.97630808148
 31
0.0
  0
LINE
  5
999
330
983
100
AcDbEntity
  8
0
  6
Continuous
 62
     7
370
    15
100
AcDbLine
 10
2120.044491929036
 20
1058.979513460951
 30
0.0
 11
2122.381742787581
 21
1058.97630808148
 31
0.0
  0
LINE
  5
99A
330
983
100
AcDbEntity
  8
0
  6
Continuous
 62
     7
370
    15
100
AcDbLine
 10
2123.381741088849
 20
1058.974936708989
 30
0.0
 11
2125.718991947394
 21
1058.971731329518
 31
0.0
  0
LINE
  5
99B
330
983
100
AcDbEntity
  8
0
  6
Continuous
 62
     7
370
    15
100
AcDbLine
 10
2123.381741088849
 20
1058.974936708989
 30
0.0
 11
2123.383663338643
 21
1060.374935378501
 31
0.0
  0
LINE
  5
99C
330
983
100
AcDbEntity
  8
0
  6
Continuous
 62
     7
370
    15
100
AcDbLine
 10
2123.383663338643
 20
1060.374935378501
 30
0.0
 11
2122.383661312085
 21
1060.376306867408
 31
0.0
  0
ARC
  5
99D
330
983
100
AcDbEntity
  8
0
  6
Continuous
 62
     7
370
    15
100
AcDbCircle
 10
2122.880919754726
 20
1058.375623015868
 30
0.0
 40
2.900000000000029
100
AcDbArc
 50
11.86196825574012
 51
167.9808803345231
  0
LINE
  5
99E
330
983
100
AcDbEntity
  8
0
  6
Continuous
 62
     7
370
    15
100
AcDbLine
 10
2176.983665418845
 20
1060.376306867408
 30
0.0
 11
2176.981743169051
 21
1058.97630808148
 31
0.0
  0
LINE
  5
99F
330
983
100
AcDbEntity
  8
0
  6
Continuous
 62
     7
370
    15
100
AcDbLine
 10
2174.644496035796
 20
1058.979513460951
 30
0.0
 11
2176.981743169051
 21
1058.97630808148
 31
0.0
  0
LINE
  5
9A0
330
983
100
AcDbEntity
  8
0
  6
Continuous
 62
     7
370
    15
100
AcDbLine
 10
2177.981745195609
 20
1058.974936708989
 30
0.0
 11
2180.318992328864
 21
1058.971731329518
 31
0.0
  0
LINE
  5
9A1
330
983
100
AcDbEntity
  8
0
  6
Continuous
 62
     7
370
    15
100
AcDbLine
 10
2177.981745195609
 20
1058.974936708989
 30
0.0
 11
2177.983659994822
 21
1060.374935378501
 31
0.0
  0
LINE
  5
9A2
330
983
100
AcDbEntity
  8
0
  6
Continuous
 62
     7
370
    15
100
AcDbLine
 10
2177.983659994822
 20
1060.374935378501
 30
0.0
 11
2176.983665418845
 21
1060.376306867408
 31
0.0
  0
ARC
  5
9A3
330
983
100
AcDbEntity
  8
0
  6
Continuous
 62
     7
370
    15
100
AcDbCircle
 10
2177.480919754725
 20
1058.375623015868
 30
0.0
 40
2.900000000000001
100
AcDbArc
 50
11.86196825574012
 51
167.9808803345231
  0
LINE
  5
9A4
330
983
100
AcDbEntity
  8
0
  6
Continuous
 62
     7
370
    15
100
AcDbLine
 10
2169.183660042506
 20
1060.376306867408
 30
0.0
 11
2169.181745243292
 21
1058.97630808148
 31
0.0
  0
LINE
  5
9A5
330
983
100
AcDbEntity
  8
0
  6
Continuous
 62
     7
370
    15
100
AcDbLine
 10
2166.844490659457
 20
1058.979513460951
 30
0.0
 11
2169.181745243292
 21
1058.97630808148
 31
0.0
  0
ARC
  5
9A6
330
983
100
AcDbEntity
  8
0
  6
Continuous
 62
     7
370
    15
100
AcDbCircle
 10
2169.680919754725
 20
1058.375623015868
 30
0.0
 40
2.900000000000001
100
AcDbArc
 50
11.86196825574012
 51
167.9808803345231
  0
LINE
  5
9A7
330
983
100
AcDbEntity
  8
0
  6
Continuous
 62
     7
370
    15
100
AcDbLine
 10
2170.18173981927
 20
1058.974936708989
 30
0.0
 11
2172.518994403105
 21
1058.971731329518
 31
0.0
  0
LINE
  5
9A8
330
983
100
AcDbEntity
  8
0
  6
Continuous
 62
     7
370
    15
100
AcDbLine
 10
2170.18173981927
 20
1058.974936708989
 30
0.0
 11
2170.183662069064
 21
1060.374935378501
 31
0.0
  0
LINE
  5
9A9
330
983
100
AcDbEntity
  8
0
  6
Continuous
 62
     7
370
    15
100
AcDbLine
 10
2170.183662069064
 20
1060.374935378501
 30
0.0
 11
2169.183660042506
 21
1060.376306867408
 31
0.0
  0
LINE
  5
9AA
330
983
100
AcDbEntity
  8
0
  6
Continuous
 62
     7
370
    15
100
AcDbLine
 10
2161.383662116747
 20
1060.376306867408
 30
0.0
 11
2161.381739866953
 21
1058.97630808148
 31
0.0
  0
LINE
  5
9AB
330
983
100
AcDbEntity
  8
0
  6
Continuous
 62
     7
370
    15
100
AcDbLine
 10
2159.044492733698
 20
1058.979513460951
 30
0.0
 11
2161.381739866953
 21
1058.97630808148
 31
0.0
  0
LINE
  5
9AC
330
983
100
AcDbEntity
  8
0
  6
Continuous
 62
     7
370
    15
100
AcDbLine
 10
2162.381741893511
 20
1058.974936708989
 30
0.0
 11
2164.718989026766
 21
1058.971731329518
 31
0.0
  0
LINE
  5
9AD
330
983
100
AcDbEntity
  8
0
  6
Continuous
 62
     7
370
    15
100
AcDbLine
 10
2162.381741893511
 20
1058.974936708989
 30
0.0
 11
2162.383664143305
 21
1060.374935378501
 31
0.0
  0
LINE
  5
9AE
330
983
100
AcDbEntity
  8
0
  6
Continuous
 62
     7
370
    15
100
AcDbLine
 10
2162.383664143305
 20
1060.374935378501
 30
0.0
 11
2161.383662116747
 21
1060.376306867408
 31
0.0
  0
ARC
  5
9AF
330
983
100
AcDbEntity
  8
0
  6
Continuous
 62
     7
370
    15
100
AcDbCircle
 10
2161.880919754725
 20
1058.375623015868
 30
0.0
 40
2.900000000000001
100
AcDbArc
 50
11.86196825574012
 51
167.9808803345231
  0
LINE
  5
9B0
330
983
100
AcDbEntity
  8
0
  6
Continuous
 62
     7
370
    15
100
AcDbLine
 10
2153.583664190989
 20
1060.376306867408
 30
0.0
 11
2153.581741941195
 21
1058.97630808148
 31
0.0
  0
LINE
  5
9B1
330
983
100
AcDbEntity
  8
0
  6
Continuous
 62
     7
370
    15
100
AcDbLine
 10
2151.24449480794
 20
1058.979513460951
 30
0.0
 11
2153.581741941195
 21
1058.97630808148
 31
0.0
  0
LINE
  5
9B2
330
983
100
AcDbEntity
  8
0
  6
Continuous
 62
     7
370
    15
100
AcDbLine
 10
2154.581743967753
 20
1058.974936708989
 30
0.0
 11
2156.918991101008
 21
1058.971731329518
 31
0.0
  0
LINE
  5
9B3
330
983
100
AcDbEntity
  8
0
  6
Continuous
 62
     7
370
    15
100
AcDbLine
 10
2154.581743967753
 20
1058.974936708989
 30
0.0
 11
2154.583658766966
 21
1060.374935378501
 31
0.0
  0
LINE
  5
9B4
330
983
100
AcDbEntity
  8
0
  6
Continuous
 62
     7
370
    15
100
AcDbLine
 10
2154.583658766966
 20
1060.374935378501
 30
0.0
 11
2153.583664190989
 21
1060.376306867408
 31
0.0
  0
ARC
  5
9B5
330
983
100
AcDbEntity
  8
0
  6
Continuous
 62
     7
370
    15
100
AcDbCircle
 10
2154.080919754725
 20
1058.375623015868
 30
0.0
 40
2.900000000000001
100
AcDbArc
 50
11.86196825574012
 51
167.9808803345231
  0
LINE
  5
9B6
330
983
100
AcDbEntity
  8
0
  6
Continuous
 62
     7
370
    15
100
AcDbLine
 10
2114.583663386326
 20
1060.376306867408
 30
0.0
 11
2114.581744861823
 21
1058.97630808148
 31
0.0
  0
LINE
  5
9B7
330
983
100
AcDbEntity
  8
0
  6
Continuous
 62
     7
370
    15
100
AcDbLine
 10
2112.244494003277
 20
1058.979513460951
 30
0.0
 11
2114.581744861823
 21
1058.97630808148
 31
0.0
  0
ARC
  5
9B8
330
983
100
AcDbEntity
  8
0
  6
Continuous
 62
     7
370
    15
100
AcDbCircle
 10
2115.080919754725
 20
1058.375623015868
 30
0.0
 40
2.899999999999978
100
AcDbArc
 50
11.86196825574012
 51
167.9808803345231
  0
LINE
  5
9B9
330
983
100
AcDbEntity
  8
0
  6
Continuous
 62
     7
370
    15
100
AcDbLine
 10
2115.58174316309
 20
1058.974936708989
 30
0.0
 11
2117.918990296345
 21
1058.971731329518
 31
0.0
  0
LINE
  5
9BA
330
983
100
AcDbEntity
  8
0
  6
Continuous
 62
     7
370
    15
100
AcDbLine
 10
2115.58174316309
 20
1058.974936708989
 30
0.0
 11
2115.583661687594
 21
1060.374935378501
 31
0.0
  0
LINE
  5
9BB
330
983
100
AcDbEntity
  8
0
  6
Continuous
 62
     7
370
    15
100
AcDbLine
 10
2115.583661687594
 20
1060.374935378501
 30
0.0
 11
2114.583663386326
 21
1060.376306867408
 31
0.0
  0
LINE
  5
9BC
330
983
100
AcDbEntity
  8
0
  6
Continuous
 62
     7
370
    15
100
AcDbLine
 10
2106.783661735278
 20
1060.376306867408
 30
0.0
 11
2106.781743210774
 21
1058.97630808148
 31
0.0
  0
LINE
  5
9BD
330
983
100
AcDbEntity
  8
0
  6
Continuous
 62
     7
370
    15
100
AcDbLine
 10
2104.444492352229
 20
1058.979513460951
 30
0.0
 11
2106.781743210774
 21
1058.97630808148
 31
0.0
  0
LINE
  5
9BE
330
983
100
AcDbEntity
  8
0
  6
Continuous
 62
     7
370
    15
100
AcDbLine
 10
2107.781741512042
 20
1058.974936708989
 30
0.0
 11
2110.118992370587
 21
1058.971731329518
 31
0.0
  0
LINE
  5
9BF
330
983
100
AcDbEntity
  8
0
  6
Continuous
 62
     7
370
    15
100
AcDbLine
 10
2107.781741512042
 20
1058.974936708989
 30
0.0
 11
2107.783663761836
 21
1060.374935378501
 31
0.0
  0
LINE
  5
9C0
330
983
100
AcDbEntity
  8
0
  6
Continuous
 62
     7
370
    15
100
AcDbLine
 10
2107.783663761836
 20
1060.374935378501
 30
0.0
 11
2106.783661735278
 21
1060.376306867408
 31
0.0
  0
ARC
  5
9C1
330
983
100
AcDbEntity
  8
0
  6
Continuous
 62
     7
370
    15
100
AcDbCircle
 10
2107.280919754725
 20
1058.375623015868
 30
0.0
 40
2.900000000000001
100
AcDbArc
 50
11.86196825574012
 51
167.9808803345231
  0
LINE
  5
9C2
330
983
100
AcDbEntity
  8
0
  6
Continuous
 62
     7
370
    15
100
AcDbLine
 10
2098.983663809519
 20
1060.376306867408
 30
0.0
 11
2098.98174342237
 21
1058.97630808148
 31
0.0
  0
LINE
  5
9C3
330
983
100
AcDbEntity
  8
0
  6
Continuous
 62
     7
370
    15
100
AcDbLine
 10
2096.644492563825
 20
1058.979513460951
 30
0.0
 11
2098.98174342237
 21
1058.97630808148
 31
0.0
  0
LINE
  5
9C4
330
983
100
AcDbEntity
  8
0
  6
Continuous
 62
     7
370
    15
100
AcDbLine
 10
2099.981741723638
 20
1058.974936708989
 30
0.0
 11
2102.318992582183
 21
1058.971731329518
 31
0.0
  0
LINE
  5
9C5
330
983
100
AcDbEntity
  8
0
  6
Continuous
 62
     7
370
    15
100
AcDbLine
 10
2099.981741723638
 20
1058.974936708989
 30
0.0
 11
2099.983662110787
 21
1060.374935378501
 31
0.0
  0
LINE
  5
9C6
330
983
100
AcDbEntity
  8
0
  6
Continuous
 62
     7
370
    15
100
AcDbLine
 10
2099.983662110787
 20
1060.374935378501
 30
0.0
 11
2098.983663809519
 21
1060.376306867408
 31
0.0
  0
ARC
  5
9C7
330
983
100
AcDbEntity
  8
0
  6
Continuous
 62
     7
370
    15
100
AcDbCircle
 10
2099.480919754725
 20
1058.375623015868
 30
0.0
 40
2.900000000000001
100
AcDbArc
 50
11.86196825574012
 51
167.9808803345231
  0
LINE
  5
9C8
330
983
100
AcDbEntity
  8
0
  6
Continuous
 62
     7
370
    15
100
AcDbLine
 10
2091.183662158471
 20
1060.376306867408
 30
0.0
 11
2091.181743633967
 21
1058.97630808148
 31
0.0
  0
LINE
  5
9C9
330
983
100
AcDbEntity
  8
0
  6
Continuous
 62
     7
370
    15
100
AcDbLine
 10
2088.844492775422
 20
1058.979513460951
 30
0.0
 11
2091.181743633967
 21
1058.97630808148
 31
0.0
  0
ARC
  5
9CA
330
983
100
AcDbEntity
  8
0
  6
Continuous
 62
     7
370
    15
100
AcDbCircle
 10
2091.680919754725
 20
1058.375623015868
 30
0.0
 40
2.900000000000001
100
AcDbArc
 50
11.86196825574012
 51
167.9808803345231
  0
LINE
  5
9CB
330
983
100
AcDbEntity
  8
0
  6
Continuous
 62
     7
370
    15
100
AcDbLine
 10
2092.181741935235
 20
1058.974936708989
 30
0.0
 11
2094.51899279378
 21
1058.971731329518
 31
0.0
  0
LINE
  5
9CC
330
983
100
AcDbEntity
  8
0
  6
Continuous
 62
     7
370
    15
100
AcDbLine
 10
2092.181741935235
 20
1058.974936708989
 30
0.0
 11
2092.183662322383
 21
1060.374935378501
 31
0.0
  0
LINE
  5
9CD
330
983
100
AcDbEntity
  8
0
  6
Continuous
 62
     7
370
    15
100
AcDbLine
 10
2092.183662322383
 20
1060.374935378501
 30
0.0
 11
2091.183662158471
 21
1060.376306867408
 31
0.0
  0
LINE
  5
9CE
330
983
100
AcDbEntity
  8
0
  6
Continuous
 62
     7
370
    15
100
AcDbLine
 10
2146.720688534003
 20
1060.312132455589
 30
0.0
 11
2146.783660841208
 21
1060.374935378501
 31
0.0
  0
LINE
  5
9CF
330
983
100
AcDbEntity
  8
0
  6
Continuous
 62
     7
370
    15
100
AcDbLine
 10
2146.720688534003
 20
1060.312132455589
 30
0.0
 11
2145.846467209082
 21
1060.313331300574
 31
0.0
  0
LINE
  5
9D0
330
983
100
AcDbEntity
  8
0
  6
Continuous
 62
     7
370
    15
100
AcDbLine
 10
2145.846467209082
 20
1060.313331300574
 30
0.0
 11
2145.783666265231
 21
1060.376306867408
 31
0.0
  0
LINE
  5
9D1
330
983
100
AcDbEntity
  8
0
  6
Continuous
 62
     7
370
    15
100
AcDbLine
 10
2146.781738591414
 20
1058.974936708989
 30
0.0
 11
2146.718766284209
 21
1058.912133669662
 31
0.0
  0
LINE
  5
9D2
330
983
100
AcDbEntity
  8
0
  6
Continuous
 62
     7
370
    15
100
AcDbLine
 10
2146.718766284209
 20
1058.912133669662
 30
0.0
 11
2146.720688534003
 21
1060.312132455589
 31
0.0
  0
LINE
  5
9D3
330
983
100
AcDbEntity
  8
0
  6
Continuous
 62
     7
370
    15
100
AcDbLine
 10
2145.844544959288
 20
1058.913332747476
 30
0.0
 11
2145.781744015437
 21
1058.97630808148
 31
0.0
  0
LINE
  5
9D4
330
983
100
AcDbEntity
  8
0
  6
Continuous
 62
     7
370
    15
100
AcDbLine
 10
2145.846467209082
 20
1060.313331300574
 30
0.0
 11
2145.844544959288
 21
1058.913332747476
 31
0.0
  0
LINE
  5
9D5
330
983
100
AcDbEntity
  8
0
  6
Continuous
 62
     7
370
    15
100
AcDbLine
 10
2138.04454703353
 20
1058.913332747476
 30
0.0
 11
2137.981746089678
 21
1058.97630808148
 31
0.0
  0
LINE
  5
9D6
330
983
100
AcDbEntity
  8
0
  6
Continuous
 62
     7
370
    15
100
AcDbLine
 10
2138.046469283324
 20
1060.313331300574
 30
0.0
 11
2137.983660888892
 21
1060.376306867408
 31
0.0
  0
LINE
  5
9D7
330
983
100
AcDbEntity
  8
0
  6
Continuous
 62
     7
370
    15
100
AcDbLine
 10
2138.046469283324
 20
1060.313331300574
 30
0.0
 11
2138.04454703353
 21
1058.913332747476
 31
0.0
  0
LINE
  5
9D8
330
983
100
AcDbEntity
  8
0
  6
Continuous
 62
     7
370
    15
100
AcDbLine
 10
2138.920683157664
 20
1060.312132455589
 30
0.0
 11
2138.98366291545
 21
1060.374935378501
 31
0.0
  0
LINE
  5
9D9
330
983
100
AcDbEntity
  8
0
  6
Continuous
 62
     7
370
    15
100
AcDbLine
 10
2138.920683157664
 20
1060.312132455589
 30
0.0
 11
2138.046469283324
 21
1060.313331300574
 31
0.0
  0
LINE
  5
9DA
330
983
100
AcDbEntity
  8
0
  6
Continuous
 62
     7
370
    15
100
AcDbLine
 10
2138.981740665656
 20
1058.974936708989
 30
0.0
 11
2138.91876835845
 21
1058.912133669662
 31
0.0
  0
LINE
  5
9DB
330
983
100
AcDbEntity
  8
0
  6
Continuous
 62
     7
370
    15
100
AcDbLine
 10
2138.91876835845
 20
1058.912133669662
 30
0.0
 11
2138.920683157664
 21
1060.312132455589
 31
0.0
  0
LINE
  5
9DC
330
983
100
AcDbEntity
  8
0
  6
Continuous
 62
     7
370
    15
100
AcDbLine
 10
2131.181742739897
 20
1058.974936708989
 30
0.0
 11
2131.118766707402
 21
1058.912133669662
 31
0.0
  0
LINE
  5
9DD
330
983
100
AcDbEntity
  8
0
  6
Continuous
 62
     7
370
    15
100
AcDbLine
 10
2131.118766707402
 20
1058.912133669662
 30
0.0
 11
2131.120685231906
 21
1060.312132455589
 31
0.0
  0
LINE
  5
9DE
330
983
100
AcDbEntity
  8
0
  6
Continuous
 62
     7
370
    15
100
AcDbLine
 10
2131.120685231906
 20
1060.312132455589
 30
0.0
 11
2131.183661264401
 21
1060.374935378501
 31
0.0
  0
LINE
  5
9DF
330
983
100
AcDbEntity
  8
0
  6
Continuous
 62
     7
370
    15
100
AcDbLine
 10
2130.244545382481
 20
1058.913332747476
 30
0.0
 11
2130.18174443863
 21
1058.97630808148
 31
0.0
  0
LINE
  5
9E0
330
983
100
AcDbEntity
  8
0
  6
Continuous
 62
     7
370
    15
100
AcDbLine
 10
2130.246467632275
 20
1060.313331300574
 30
0.0
 11
2130.183662963133
 21
1060.376306867408
 31
0.0
  0
LINE
  5
9E1
330
983
100
AcDbEntity
  8
0
  6
Continuous
 62
     7
370
    15
100
AcDbLine
 10
2130.246467632275
 20
1060.313331300574
 30
0.0
 11
2130.244545382481
 21
1058.913332747476
 31
0.0
  0
LINE
  5
9E2
330
983
100
AcDbEntity
  8
0
  6
Continuous
 62
     7
370
    15
100
AcDbLine
 10
2131.120685231906
 20
1060.312132455589
 30
0.0
 11
2130.246467632275
 21
1060.313331300574
 31
0.0
  0
LINE
  5
9E3
330
983
100
AcDbEntity
  8
0
  6
Continuous
 62
     7
370
    15
100
AcDbLine
 10
2123.320687306147
 20
1060.312132455589
 30
0.0
 11
2123.383663338643
 21
1060.374935378501
 31
0.0
  0
LINE
  5
9E4
330
983
100
AcDbEntity
  8
0
  6
Continuous
 62
     7
370
    15
100
AcDbLine
 10
2123.320687306147
 20
1060.312132455589
 30
0.0
 11
2122.446465981226
 21
1060.313331300574
 31
0.0
  0
LINE
  5
9E5
330
983
100
AcDbEntity
  8
0
  6
Continuous
 62
     7
370
    15
100
AcDbLine
 10
2122.446465981226
 20
1060.313331300574
 30
0.0
 11
2122.383661312085
 21
1060.376306867408
 31
0.0
  0
LINE
  5
9E6
330
983
100
AcDbEntity
  8
0
  6
Continuous
 62
     7
370
    15
100
AcDbLine
 10
2123.381741088849
 20
1058.974936708989
 30
0.0
 11
2123.318765056353
 21
1058.912133669662
 31
0.0
  0
LINE
  5
9E7
330
983
100
AcDbEntity
  8
0
  6
Continuous
 62
     7
370
    15
100
AcDbLine
 10
2123.318765056353
 20
1058.912133669662
 30
0.0
 11
2123.320687306147
 21
1060.312132455589
 31
0.0
  0
LINE
  5
9E8
330
983
100
AcDbEntity
  8
0
  6
Continuous
 62
     7
370
    15
100
AcDbLine
 10
2122.444547456723
 20
1058.913332747476
 30
0.0
 11
2122.381742787581
 21
1058.97630808148
 31
0.0
  0
LINE
  5
9E9
330
983
100
AcDbEntity
  8
0
  6
Continuous
 62
     7
370
    15
100
AcDbLine
 10
2122.446465981226
 20
1060.313331300574
 30
0.0
 11
2122.444547456723
 21
1058.913332747476
 31
0.0
  0
LINE
  5
9EA
330
983
100
AcDbEntity
  8
0
  6
Continuous
 62
     7
370
    15
100
AcDbLine
 10
2177.044544112902
 20
1058.913332747476
 30
0.0
 11
2176.981743169051
 21
1058.97630808148
 31
0.0
  0
LINE
  5
9EB
330
983
100
AcDbEntity
  8
0
  6
Continuous
 62
     7
370
    15
100
AcDbLine
 10
2177.046466362696
 20
1060.313331300574
 30
0.0
 11
2176.983665418845
 21
1060.376306867408
 31
0.0
  0
LINE
  5
9EC
330
983
100
AcDbEntity
  8
0
  6
Continuous
 62
     7
370
    15
100
AcDbLine
 10
2177.046466362696
 20
1060.313331300574
 30
0.0
 11
2177.044544112902
 21
1058.913332747476
 31
0.0
  0
LINE
  5
9ED
330
983
100
AcDbEntity
  8
0
  6
Continuous
 62
     7
370
    15
100
AcDbLine
 10
2177.920687687617
 20
1060.312132455589
 30
0.0
 11
2177.983659994822
 21
1060.374935378501
 31
0.0
  0
LINE
  5
9EE
330
983
100
AcDbEntity
  8
0
  6
Continuous
 62
     7
370
    15
100
AcDbLine
 10
2177.920687687617
 20
1060.312132455589
 30
0.0
 11
2177.046466362696
 21
1060.313331300574
 31
0.0
  0
LINE
  5
9EF
330
983
100
AcDbEntity
  8
0
  6
Continuous
 62
     7
370
    15
100
AcDbLine
 10
2177.981745195609
 20
1058.974936708989
 30
0.0
 11
2177.918765437823
 21
1058.912133669662
 31
0.0
  0
LINE
  5
9F0
330
983
100
AcDbEntity
  8
0
  6
Continuous
 62
     7
370
    15
100
AcDbLine
 10
2177.918765437823
 20
1058.912133669662
 30
0.0
 11
2177.920687687617
 21
1060.312132455589
 31
0.0
  0
LINE
  5
9F1
330
983
100
AcDbEntity
  8
0
  6
Continuous
 62
     7
370
    15
100
AcDbLine
 10
2170.18173981927
 20
1058.974936708989
 30
0.0
 11
2170.118767512065
 21
1058.912133669662
 31
0.0
  0
LINE
  5
9F2
330
983
100
AcDbEntity
  8
0
  6
Continuous
 62
     7
370
    15
100
AcDbLine
 10
2170.118767512065
 20
1058.912133669662
 30
0.0
 11
2170.120689761859
 21
1060.312132455589
 31
0.0
  0
LINE
  5
9F3
330
983
100
AcDbEntity
  8
0
  6
Continuous
 62
     7
370
    15
100
AcDbLine
 10
2170.120689761859
 20
1060.312132455589
 30
0.0
 11
2170.183662069064
 21
1060.374935378501
 31
0.0
  0
LINE
  5
9F4
330
983
100
AcDbEntity
  8
0
  6
Continuous
 62
     7
370
    15
100
AcDbLine
 10
2169.244546187144
 20
1058.913332747476
 30
0.0
 11
2169.181745243292
 21
1058.97630808148
 31
0.0
  0
LINE
  5
9F5
330
983
100
AcDbEntity
  8
0
  6
Continuous
 62
     7
370
    15
100
AcDbLine
 10
2169.246468436938
 20
1060.313331300574
 30
0.0
 11
2169.183660042506
 21
1060.376306867408
 31
0.0
  0
LINE
  5
9F6
330
983
100
AcDbEntity
  8
0
  6
Continuous
 62
     7
370
    15
100
AcDbLine
 10
2169.246468436938
 20
1060.313331300574
 30
0.0
 11
2169.244546187144
 21
1058.913332747476
 31
0.0
  0
LINE
  5
9F7
330
983
100
AcDbEntity
  8
0
  6
Continuous
 62
     7
370
    15
100
AcDbLine
 10
2170.120689761859
 20
1060.312132455589
 30
0.0
 11
2169.246468436938
 21
1060.313331300574
 31
0.0
  0
LINE
  5
9F8
330
983
100
AcDbEntity
  8
0
  6
Continuous
 62
     7
370
    15
100
AcDbLine
 10
2162.32068438552
 20
1060.312132455589
 30
0.0
 11
2162.383664143305
 21
1060.374935378501
 31
0.0
  0
LINE
  5
9F9
330
983
100
AcDbEntity
  8
0
  6
Continuous
 62
     7
370
    15
100
AcDbLine
 10
2162.32068438552
 20
1060.312132455589
 30
0.0
 11
2161.446463060599
 21
1060.313331300574
 31
0.0
  0
LINE
  5
9FA
330
983
100
AcDbEntity
  8
0
  6
Continuous
 62
     7
370
    15
100
AcDbLine
 10
2161.446463060599
 20
1060.313331300574
 30
0.0
 11
2161.383662116747
 21
1060.376306867408
 31
0.0
  0
LINE
  5
9FB
330
983
100
AcDbEntity
  8
0
  6
Continuous
 62
     7
370
    15
100
AcDbLine
 10
2162.381741893511
 20
1058.974936708989
 30
0.0
 11
2162.318769586306
 21
1058.912133669662
 31
0.0
  0
LINE
  5
9FC
330
983
100
AcDbEntity
  8
0
  6
Continuous
 62
     7
370
    15
100
AcDbLine
 10
2162.318769586306
 20
1058.912133669662
 30
0.0
 11
2162.32068438552
 21
1060.312132455589
 31
0.0
  0
LINE
  5
9FD
330
983
100
AcDbEntity
  8
0
  6
Continuous
 62
     7
370
    15
100
AcDbLine
 10
2161.444548261385
 20
1058.913332747476
 30
0.0
 11
2161.381739866953
 21
1058.97630808148
 31
0.0
  0
LINE
  5
9FE
330
983
100
AcDbEntity
  8
0
  6
Continuous
 62
     7
370
    15
100
AcDbLine
 10
2161.446463060599
 20
1060.313331300574
 30
0.0
 11
2161.444548261385
 21
1058.913332747476
 31
0.0
  0
LINE
  5
9FF
330
983
100
AcDbEntity
  8
0
  6
Continuous
 62
     7
370
    15
100
AcDbLine
 10
2153.644542885047
 20
1058.913332747476
 30
0.0
 11
2153.581741941195
 21
1058.97630808148
 31
0.0
  0
LINE
  5
A00
330
983
100
AcDbEntity
  8
0
  6
Continuous
 62
     7
370
    15
100
AcDbLine
 10
2153.646465134841
 20
1060.313331300574
 30
0.0
 11
2153.583664190989
 21
1060.376306867408
 31
0.0
  0
LINE
  5
A01
330
983
100
AcDbEntity
  8
0
  6
Continuous
 62
     7
370
    15
100
AcDbLine
 10
2153.646465134841
 20
1060.313331300574
 30
0.0
 11
2153.644542885047
 21
1058.913332747476
 31
0.0
  0
LINE
  5
A02
330
983
100
AcDbEntity
  8
0
  6
Continuous
 62
     7
370
    15
100
AcDbLine
 10
2154.520686459761
 20
1060.312132455589
 30
0.0
 11
2154.583658766966
 21
1060.374935378501
 31
0.0
  0
LINE
  5
A03
330
983
100
AcDbEntity
  8
0
  6
Continuous
 62
     7
370
    15
100
AcDbLine
 10
2154.520686459761
 20
1060.312132455589
 30
0.0
 11
2153.646465134841
 21
1060.313331300574
 31
0.0
  0
LINE
  5
A04
330
983
100
AcDbEntity
  8
0
  6
Continuous
 62
     7
370
    15
100
AcDbLine
 10
2154.581743967753
 20
1058.974936708989
 30
0.0
 11
2154.518764209967
 21
1058.912133669662
 31
0.0
  0
LINE
  5
A05
330
983
100
AcDbEntity
  8
0
  6
Continuous
 62
     7
370
    15
100
AcDbLine
 10
2154.518764209967
 20
1058.912133669662
 30
0.0
 11
2154.520686459761
 21
1060.312132455589
 31
0.0
  0
LINE
  5
A06
330
983
100
AcDbEntity
  8
0
  6
Continuous
 62
     7
370
    15
100
AcDbLine
 10
2115.58174316309
 20
1058.974936708989
 30
0.0
 11
2115.518767130595
 21
1058.912133669662
 31
0.0
  0
LINE
  5
A07
330
983
100
AcDbEntity
  8
0
  6
Continuous
 62
     7
370
    15
100
AcDbLine
 10
2115.518767130595
 20
1058.912133669662
 30
0.0
 11
2115.520685655098
 21
1060.312132455589
 31
0.0
  0
LINE
  5
A08
330
983
100
AcDbEntity
  8
0
  6
Continuous
 62
     7
370
    15
100
AcDbLine
 10
2115.520685655098
 20
1060.312132455589
 30
0.0
 11
2115.583661687594
 21
1060.374935378501
 31
0.0
  0
LINE
  5
A09
330
983
100
AcDbEntity
  8
0
  6
Continuous
 62
     7
370
    15
100
AcDbLine
 10
2114.644545805674
 20
1058.913332747476
 30
0.0
 11
2114.581744861823
 21
1058.97630808148
 31
0.0
  0
LINE
  5
A0A
330
983
100
AcDbEntity
  8
0
  6
Continuous
 62
     7
370
    15
100
AcDbLine
 10
2114.646464330178
 20
1060.313331300574
 30
0.0
 11
2114.583663386326
 21
1060.376306867408
 31
0.0
  0
LINE
  5
A0B
330
983
100
AcDbEntity
  8
0
  6
Continuous
 62
     7
370
    15
100
AcDbLine
 10
2114.646464330178
 20
1060.313331300574
 30
0.0
 11
2114.644545805674
 21
1058.913332747476
 31
0.0
  0
LINE
  5
A0C
330
983
100
AcDbEntity
  8
0
  6
Continuous
 62
     7
370
    15
100
AcDbLine
 10
2115.520685655098
 20
1060.312132455589
 30
0.0
 11
2114.646464330178
 21
1060.313331300574
 31
0.0
  0
LINE
  5
A0D
330
983
100
AcDbEntity
  8
0
  6
Continuous
 62
     7
370
    15
100
AcDbLine
 10
2107.72068772934
 20
1060.312132455589
 30
0.0
 11
2107.783663761836
 21
1060.374935378501
 31
0.0
  0
LINE
  5
A0E
330
983
100
AcDbEntity
  8
0
  6
Continuous
 62
     7
370
    15
100
AcDbLine
 10
2107.72068772934
 20
1060.312132455589
 30
0.0
 11
2106.846466404419
 21
1060.313331300574
 31
0.0
  0
LINE
  5
A0F
330
983
100
AcDbEntity
  8
0
  6
Continuous
 62
     7
370
    15
100
AcDbLine
 10
2106.846466404419
 20
1060.313331300574
 30
0.0
 11
2106.783661735278
 21
1060.376306867408
 31
0.0
  0
LINE
  5
A10
330
983
100
AcDbEntity
  8
0
  6
Continuous
 62
     7
370
    15
100
AcDbLine
 10
2107.781741512042
 20
1058.974936708989
 30
0.0
 11
2107.718765479546
 21
1058.912133669662
 31
0.0
  0
LINE
  5
A11
330
983
100
AcDbEntity
  8
0
  6
Continuous
 62
     7
370
    15
100
AcDbLine
 10
2107.718765479546
 20
1058.912133669662
 30
0.0
 11
2107.72068772934
 21
1060.312132455589
 31
0.0
  0
LINE
  5
A12
330
983
100
AcDbEntity
  8
0
  6
Continuous
 62
     7
370
    15
100
AcDbLine
 10
2106.844547879916
 20
1058.913332747476
 30
0.0
 11
2106.781743210774
 21
1058.97630808148
 31
0.0
  0
LINE
  5
A13
330
983
100
AcDbEntity
  8
0
  6
Continuous
 62
     7
370
    15
100
AcDbLine
 10
2106.846466404419
 20
1060.313331300574
 30
0.0
 11
2106.844547879916
 21
1058.913332747476
 31
0.0
  0
LINE
  5
A14
330
983
100
AcDbEntity
  8
0
  6
Continuous
 62
     7
370
    15
100
AcDbLine
 10
2099.044546228867
 20
1058.913332747476
 30
0.0
 11
2098.98174342237
 21
1058.97630808148
 31
0.0
  0
LINE
  5
A15
330
983
100
AcDbEntity
  8
0
  6
Continuous
 62
     7
370
    15
100
AcDbLine
 10
2099.046466616016
 20
1060.313331300574
 30
0.0
 11
2098.983663809519
 21
1060.376306867408
 31
0.0
  0
LINE
  5
A16
330
983
100
AcDbEntity
  8
0
  6
Continuous
 62
     7
370
    15
100
AcDbLine
 10
2099.046466616016
 20
1060.313331300574
 30
0.0
 11
2099.044546228867
 21
1058.913332747476
 31
0.0
  0
LINE
  5
A17
330
983
100
AcDbEntity
  8
0
  6
Continuous
 62
     7
370
    15
100
AcDbLine
 10
2099.920686078291
 20
1060.312132455589
 30
0.0
 11
2099.983662110787
 21
1060.374935378501
 31
0.0
  0
LINE
  5
A18
330
983
100
AcDbEntity
  8
0
  6
Continuous
 62
     7
370
    15
100
AcDbLine
 10
2099.920686078291
 20
1060.312132455589
 30
0.0
 11
2099.046466616016
 21
1060.313331300574
 31
0.0
  0
LINE
  5
A19
330
983
100
AcDbEntity
  8
0
  6
Continuous
 62
     7
370
    15
100
AcDbLine
 10
2099.981741723638
 20
1058.974936708989
 30
0.0
 11
2099.918765691143
 21
1058.912133669662
 31
0.0
  0
LINE
  5
A1A
330
983
100
AcDbEntity
  8
0
  6
Continuous
 62
     7
370
    15
100
AcDbLine
 10
2099.918765691143
 20
1058.912133669662
 30
0.0
 11
2099.920686078291
 21
1060.312132455589
 31
0.0
  0
LINE
  5
A1B
330
983
100
AcDbEntity
  8
0
  6
Continuous
 62
     7
370
    15
100
AcDbLine
 10
2092.181741935235
 20
1058.974936708989
 30
0.0
 11
2092.118765902739
 21
1058.912133669662
 31
0.0
  0
LINE
  5
A1C
330
983
100
AcDbEntity
  8
0
  6
Continuous
 62
     7
370
    15
100
AcDbLine
 10
2092.118765902739
 20
1058.912133669662
 30
0.0
 11
2092.120686289888
 21
1060.312132455589
 31
0.0
  0
LINE
  5
A1D
330
983
100
AcDbEntity
  8
0
  6
Continuous
 62
     7
370
    15
100
AcDbLine
 10
2092.120686289888
 20
1060.312132455589
 30
0.0
 11
2092.183662322383
 21
1060.374935378501
 31
0.0
  0
LINE
  5
A1E
330
983
100
AcDbEntity
  8
0
  6
Continuous
 62
     7
370
    15
100
AcDbLine
 10
2091.244546440464
 20
1058.913332747476
 30
0.0
 11
2091.181743633967
 21
1058.97630808148
 31
0.0
  0
LINE
  5
A1F
330
983
100
AcDbEntity
  8
0
  6
Continuous
 62
     7
370
    15
100
AcDbLine
 10
2091.246466827612
 20
1060.313331300574
 30
0.0
 11
2091.183662158471
 21
1060.376306867408
 31
0.0
  0
LINE
  5
A20
330
983
100
AcDbEntity
  8
0
  6
Continuous
 62
     7
370
    15
100
AcDbLine
 10
2091.246466827612
 20
1060.313331300574
 30
0.0
 11
2091.244546440464
 21
1058.913332747476
 31
0.0
  0
LINE
  5
A21
330
983
100
AcDbEntity
  8
0
  6
Continuous
 62
     7
370
    15
100
AcDbLine
 10
2092.120686289888
 20
1060.312132455589
 30
0.0
 11
2091.246466827612
 21
1060.313331300574
 31
0.0
  0
LINE
  5
A22
330
983
100
AcDbEntity
  8
0
  6
Continuous
 62
     7
370
    15
100
AcDbLine
 10
2145.844544959288
 20
1058.913332747476
 30
0.0
 11
2143.431830895167
 21
1058.916641503753
 31
0.0
  0
ARC
  5
A23
330
983
100
AcDbEntity
  8
0
  6
Continuous
 62
     7
370
    15
100
AcDbCircle
 10
2146.280919754725
 20
1058.375623015868
 30
0.0
 40
2.90000000000002
100
AcDbArc
 50
167.9808803345231
 51
169.2480147252266
  0
LINE
  5
A24
330
983
100
AcDbEntity
  8
0
  6
Continuous
 62
     7
370
    15
100
AcDbLine
 10
2138.04454703353
 20
1058.913332747476
 30
0.0
 11
2135.631832969409
 21
1058.916641503753
 31
0.0
  0
ARC
  5
A25
330
983
100
AcDbEntity
  8
0
  6
Continuous
 62
     7
370
    15
100
AcDbCircle
 10
2138.480919754725
 20
1058.375623015868
 30
0.0
 40
2.90000000000002
100
AcDbArc
 50
167.9808803345231
 51
169.2480147252266
  0
LINE
  5
A26
330
983
100
AcDbEntity
  8
0
  6
Continuous
 62
     7
370
    15
100
AcDbLine
 10
2130.244545382481
 20
1058.913332747476
 30
0.0
 11
2127.83183131836
 21
1058.916641503753
 31
0.0
  0
ARC
  5
A27
330
983
100
AcDbEntity
  8
0
  6
Continuous
 62
     7
370
    15
100
AcDbCircle
 10
2130.680919754725
 20
1058.375623015868
 30
0.0
 40
2.90000000000002
100
AcDbArc
 50
167.9808803345231
 51
169.2480147252266
  0
LINE
  5
A28
330
983
100
AcDbEntity
  8
0
  6
Continuous
 62
     7
370
    15
100
AcDbLine
 10
2122.444547456723
 20
1058.913332747476
 30
0.0
 11
2120.031833392602
 21
1058.916641503753
 31
0.0
  0
ARC
  5
A29
330
983
100
AcDbEntity
  8
0
  6
Continuous
 62
     7
370
    15
100
AcDbCircle
 10
2122.880919754726
 20
1058.375623015868
 30
0.0
 40
2.900000000000006
100
AcDbArc
 50
167.9808803345231
 51
169.2480147252266
  0
LINE
  5
A2A
330
983
100
AcDbEntity
  8
0
  6
Continuous
 62
     7
370
    15
100
AcDbLine
 10
2177.044544112902
 20
1058.913332747476
 30
0.0
 11
2174.631830048781
 21
1058.916641503753
 31
0.0
  0
ARC
  5
A2B
330
983
100
AcDbEntity
  8
0
  6
Continuous
 62
     7
370
    15
100
AcDbCircle
 10
2177.480919754725
 20
1058.375623015868
 30
0.0
 40
2.90000000000002
100
AcDbArc
 50
167.9808803345231
 51
169.2480147252266
  0
LINE
  5
A2C
330
983
100
AcDbEntity
  8
0
  6
Continuous
 62
     7
370
    15
100
AcDbLine
 10
2169.244546187144
 20
1058.913332747476
 30
0.0
 11
2166.831832123023
 21
1058.916641503753
 31
0.0
  0
ARC
  5
A2D
330
983
100
AcDbEntity
  8
0
  6
Continuous
 62
     7
370
    15
100
AcDbCircle
 10
2169.680919754725
 20
1058.375623015868
 30
0.0
 40
2.899999999999992
100
AcDbArc
 50
167.9808803345231
 51
169.2480147252266
  0
LINE
  5
A2E
330
983
100
AcDbEntity
  8
0
  6
Continuous
 62
     7
370
    15
100
AcDbLine
 10
2161.444548261385
 20
1058.913332747476
 30
0.0
 11
2159.031834197264
 21
1058.916641503753
 31
0.0
  0
ARC
  5
A2F
330
983
100
AcDbEntity
  8
0
  6
Continuous
 62
     7
370
    15
100
AcDbCircle
 10
2161.880919754725
 20
1058.375623015868
 30
0.0
 40
2.90000000000002
100
AcDbArc
 50
167.9808803345231
 51
169.2480147252266
  0
LINE
  5
A30
330
983
100
AcDbEntity
  8
0
  6
Continuous
 62
     7
370
    15
100
AcDbLine
 10
2153.644542885047
 20
1058.913332747476
 30
0.0
 11
2151.231828820925
 21
1058.916641503753
 31
0.0
  0
ARC
  5
A31
330
983
100
AcDbEntity
  8
0
  6
Continuous
 62
     7
370
    15
100
AcDbCircle
 10
2154.080919754725
 20
1058.375623015868
 30
0.0
 40
2.90000000000002
100
AcDbArc
 50
167.9808803345231
 51
169.2480147252266
  0
LINE
  5
A32
330
983
100
AcDbEntity
  8
0
  6
Continuous
 62
     7
370
    15
100
AcDbLine
 10
2114.644545805674
 20
1058.913332747476
 30
0.0
 11
2112.231831741553
 21
1058.916641503753
 31
0.0
  0
ARC
  5
A33
330
983
100
AcDbEntity
  8
0
  6
Continuous
 62
     7
370
    15
100
AcDbCircle
 10
2115.080919754725
 20
1058.375623015868
 30
0.0
 40
2.90000000000002
100
AcDbArc
 50
167.9808803345231
 51
169.2480147252266
  0
LINE
  5
A34
330
983
100
AcDbEntity
  8
0
  6
Continuous
 62
     7
370
    15
100
AcDbLine
 10
2106.844547879916
 20
1058.913332747476
 30
0.0
 11
2104.431831953149
 21
1058.916641503753
 31
0.0
  0
ARC
  5
A35
330
983
100
AcDbEntity
  8
0
  6
Continuous
 62
     7
370
    15
100
AcDbCircle
 10
2107.280919754725
 20
1058.375623015868
 30
0.0
 40
2.900000000000006
100
AcDbArc
 50
167.9808803345231
 51
169.2480147252266
  0
LINE
  5
A36
330
983
100
AcDbEntity
  8
0
  6
Continuous
 62
     7
370
    15
100
AcDbLine
 10
2099.044546228867
 20
1058.913332747476
 30
0.0
 11
2096.631832164746
 21
1058.916641503753
 31
0.0
  0
ARC
  5
A37
330
983
100
AcDbEntity
  8
0
  6
Continuous
 62
     7
370
    15
100
AcDbCircle
 10
2099.480919754725
 20
1058.375623015868
 30
0.0
 40
2.90000000000002
100
AcDbArc
 50
167.9808803345231
 51
169.2480147252266
  0
LINE
  5
A38
330
983
100
AcDbEntity
  8
0
  6
Continuous
 62
     7
370
    15
100
AcDbLine
 10
2091.244546440464
 20
1058.913332747476
 30
0.0
 11
2088.831832376342
 21
1058.916641503753
 31
0.0
  0
ARC
  5
A39
330
983
100
AcDbEntity
  8
0
  6
Continuous
 62
     7
370
    15
100
AcDbCircle
 10
2091.680919754725
 20
1058.375623015868
 30
0.0
 40
2.900000000000006
100
AcDbArc
 50
167.9808803345231
 51
169.2480147252266
  0
LINE
  5
A3A
330
983
100
AcDbEntity
  8
0
  6
Continuous
 62
     7
370
    15
100
AcDbLine
 10
2149.13148034833
 20
1058.908824913385
 30
0.0
 11
2146.718766284209
 21
1058.912133669662
 31
0.0
  0
ARC
  5
A3B
330
983
100
AcDbEntity
  8
0
  6
Continuous
 62
     7
370
    15
100
AcDbCircle
 10
2146.280919754725
 20
1058.375623015868
 30
0.0
 40
2.900000000000003
100
AcDbArc
 50
10.59483386504108
 51
11.86196825574012
  0
LINE
  5
A3C
330
983
100
AcDbEntity
  8
0
  6
Continuous
 62
     7
370
    15
100
AcDbLine
 10
2141.331482422572
 20
1058.908824913385
 30
0.0
 11
2138.91876835845
 21
1058.912133669662
 31
0.0
  0
ARC
  5
A3D
330
983
100
AcDbEntity
  8
0
  6
Continuous
 62
     7
370
    15
100
AcDbCircle
 10
2138.480919754725
 20
1058.375623015868
 30
0.0
 40
2.899999999999975
100
AcDbArc
 50
10.59483386504108
 51
11.86196825574012
  0
LINE
  5
A3E
330
983
100
AcDbEntity
  8
0
  6
Continuous
 62
     7
370
    15
100
AcDbLine
 10
2133.531480771523
 20
1058.908824913385
 30
0.0
 11
2131.118766707402
 21
1058.912133669662
 31
0.0
  0
ARC
  5
A3F
330
983
100
AcDbEntity
  8
0
  6
Continuous
 62
     7
370
    15
100
AcDbCircle
 10
2130.680919754725
 20
1058.375623015868
 30
0.0
 40
2.900000000000003
100
AcDbArc
 50
10.59483386504108
 51
11.86196825574012
  0
LINE
  5
A40
330
983
100
AcDbEntity
  8
0
  6
Continuous
 62
     7
370
    15
100
AcDbLine
 10
2125.731479120474
 20
1058.908824913385
 30
0.0
 11
2123.318765056353
 21
1058.912133669662
 31
0.0
  0
ARC
  5
A41
330
983
100
AcDbEntity
  8
0
  6
Continuous
 62
     7
370
    15
100
AcDbCircle
 10
2122.880919754726
 20
1058.375623015868
 30
0.0
 40
2.900000000000003
100
AcDbArc
 50
10.59483386504108
 51
11.86196825574012
  0
LINE
  5
A42
330
983
100
AcDbEntity
  8
0
  6
Continuous
 62
     7
370
    15
100
AcDbLine
 10
2180.331479501944
 20
1058.908824913385
 30
0.0
 11
2177.918765437823
 21
1058.912133669662
 31
0.0
  0
ARC
  5
A43
330
983
100
AcDbEntity
  8
0
  6
Continuous
 62
     7
370
    15
100
AcDbCircle
 10
2177.480919754725
 20
1058.375623015868
 30
0.0
 40
2.900000000000003
100
AcDbArc
 50
10.59483386504108
 51
11.86196825574012
  0
LINE
  5
A44
330
983
100
AcDbEntity
  8
0
  6
Continuous
 62
     7
370
    15
100
AcDbLine
 10
2172.531481576186
 20
1058.908824913385
 30
0.0
 11
2170.118767512065
 21
1058.912133669662
 31
0.0
  0
ARC
  5
A45
330
983
100
AcDbEntity
  8
0
  6
Continuous
 62
     7
370
    15
100
AcDbCircle
 10
2169.680919754725
 20
1058.375623015868
 30
0.0
 40
2.900000000000003
100
AcDbArc
 50
10.59483386504108
 51
11.86196825574012
  0
LINE
  5
A46
330
983
100
AcDbEntity
  8
0
  6
Continuous
 62
     7
370
    15
100
AcDbLine
 10
2164.731483650427
 20
1058.908824913385
 30
0.0
 11
2162.318769586306
 21
1058.912133669662
 31
0.0
  0
ARC
  5
A47
330
983
100
AcDbEntity
  8
0
  6
Continuous
 62
     7
370
    15
100
AcDbCircle
 10
2161.880919754725
 20
1058.375623015868
 30
0.0
 40
2.899999999999975
100
AcDbArc
 50
10.59483386504108
 51
11.86196825574012
  0
LINE
  5
A48
330
983
100
AcDbEntity
  8
0
  6
Continuous
 62
     7
370
    15
100
AcDbLine
 10
2156.931478274088
 20
1058.908824913385
 30
0.0
 11
2154.518764209967
 21
1058.912133669662
 31
0.0
  0
ARC
  5
A49
330
983
100
AcDbEntity
  8
0
  6
Continuous
 62
     7
370
    15
100
AcDbCircle
 10
2154.080919754725
 20
1058.375623015868
 30
0.0
 40
2.900000000000003
100
AcDbArc
 50
10.59483386504108
 51
11.86196825574012
  0
LINE
  5
A4A
330
983
100
AcDbEntity
  8
0
  6
Continuous
 62
     7
370
    15
100
AcDbLine
 10
2117.931481194716
 20
1058.908824913385
 30
0.0
 11
2115.518767130595
 21
1058.912133669662
 31
0.0
  0
ARC
  5
A4B
330
983
100
AcDbEntity
  8
0
  6
Continuous
 62
     7
370
    15
100
AcDbCircle
 10
2115.080919754725
 20
1058.375623015868
 30
0.0
 40
2.900000000000003
100
AcDbArc
 50
10.59483386504108
 51
11.86196825574012
  0
LINE
  5
A4C
330
983
100
AcDbEntity
  8
0
  6
Continuous
 62
     7
370
    15
100
AcDbLine
 10
2110.131479543667
 20
1058.908824913385
 30
0.0
 11
2107.718765479546
 21
1058.912133669662
 31
0.0
  0
ARC
  5
A4D
330
983
100
AcDbEntity
  8
0
  6
Continuous
 62
     7
370
    15
100
AcDbCircle
 10
2107.280919754725
 20
1058.375623015868
 30
0.0
 40
2.900000000000003
100
AcDbArc
 50
10.59483386504108
 51
11.86196825574012
  0
LINE
  5
A4E
330
983
100
AcDbEntity
  8
0
  6
Continuous
 62
     7
370
    15
100
AcDbLine
 10
2102.331479755264
 20
1058.908824913385
 30
0.0
 11
2099.918765691143
 21
1058.912133669662
 31
0.0
  0
ARC
  5
A4F
330
983
100
AcDbEntity
  8
0
  6
Continuous
 62
     7
370
    15
100
AcDbCircle
 10
2099.480919754725
 20
1058.375623015868
 30
0.0
 40
2.900000000000003
100
AcDbArc
 50
10.59483386504108
 51
11.86196825574012
  0
LINE
  5
A50
330
983
100
AcDbEntity
  8
0
  6
Continuous
 62
     7
370
    15
100
AcDbLine
 10
2094.53147996686
 20
1058.908824913385
 30
0.0
 11
2092.118765902739
 21
1058.912133669662
 31
0.0
  0
ARC
  5
A51
330
983
100
AcDbEntity
  8
0
  6
Continuous
 62
     7
370
    15
100
AcDbCircle
 10
2091.680919754725
 20
1058.375623015868
 30
0.0
 40
2.900000000000003
100
AcDbArc
 50
10.59483386504108
 51
11.86196825574012
  0
LINE
  5
A52
330
983
100
AcDbEntity
  8
0
  6
Continuous
 62
     7
370
    15
100
AcDbLine
 10
2141.317348671179
 20
1057.771732669505
 30
0.0
 11
2138.980094087344
 21
1057.774937816145
 31
0.0
  0
LINE
  5
A53
330
983
100
AcDbEntity
  8
0
  6
Continuous
 62
     7
370
    15
100
AcDbLine
 10
2138.917293143492
 20
1057.837913382979
 30
0.0
 11
2138.980094087344
 21
1057.774937816145
 31
0.0
  0
LINE
  5
A54
330
983
100
AcDbEntity
  8
0
  6
Continuous
 62
     7
370
    15
100
AcDbLine
 10
2138.917293143492
 20
1057.837913382979
 30
0.0
 11
2141.330007207614
 21
1057.834604626702
 31
0.0
  0
ARC
  5
A55
330
983
100
AcDbEntity
  8
0
  6
Continuous
 62
     7
370
    15
100
AcDbCircle
 10
2138.480919754725
 20
1058.375623015868
 30
0.0
 40
2.899999999999984
100
AcDbArc
 50
347.9808803345231
 51
349.2480147252266
  0
LINE
  5
A56
330
983
100
AcDbEntity
  8
0
  6
Continuous
 62
     7
370
    15
100
AcDbLine
 10
2149.117346596938
 20
1057.771732669505
 30
0.0
 11
2146.780099463683
 21
1057.774937816145
 31
0.0
  0
LINE
  5
A57
330
983
100
AcDbEntity
  8
0
  6
Continuous
 62
     7
370
    15
100
AcDbLine
 10
2146.717291069251
 20
1057.837913382979
 30
0.0
 11
2146.780099463683
 21
1057.774937816145
 31
0.0
  0
LINE
  5
A58
330
983
100
AcDbEntity
  8
0
  6
Continuous
 62
     7
370
    15
100
AcDbLine
 10
2146.717291069251
 20
1057.837913382979
 30
0.0
 11
2149.130005133372
 21
1057.834604626702
 31
0.0
  0
ARC
  5
A59
330
983
100
AcDbEntity
  8
0
  6
Continuous
 62
     7
370
    15
100
AcDbCircle
 10
2146.280919754725
 20
1058.375623015868
 30
0.0
 40
2.899999999999984
100
AcDbArc
 50
347.9808803345231
 51
349.2480147252266
  0
LINE
  5
A5A
330
983
100
AcDbEntity
  8
0
  6
Continuous
 62
     7
370
    15
100
AcDbLine
 10
2145.780097437125
 20
1057.776309188636
 30
0.0
 11
2145.84306974433
 21
1057.839112227964
 31
0.0
  0
LINE
  5
A5B
330
983
100
AcDbEntity
  8
0
  6
Continuous
 62
     7
370
    15
100
AcDbLine
 10
2145.84306974433
 20
1057.839112227964
 30
0.0
 11
2145.841154945117
 21
1056.439113674866
 31
0.0
  0
LINE
  5
A5C
330
983
100
AcDbEntity
  8
0
  6
Continuous
 62
     7
370
    15
100
AcDbLine
 10
2145.841154945117
 20
1056.439113674866
 30
0.0
 11
2145.778175187331
 21
1056.376310402708
 31
0.0
  0
LINE
  5
A5D
330
983
100
AcDbEntity
  8
0
  6
Continuous
 62
     7
370
    15
100
AcDbLine
 10
2145.780097437125
 20
1057.776309188636
 30
0.0
 11
2145.778175187331
 21
1056.376310402708
 31
0.0
  0
LINE
  5
A5E
330
983
100
AcDbEntity
  8
0
  6
Continuous
 62
     7
370
    15
100
AcDbLine
 10
2130.180097860318
 20
1057.776309188636
 30
0.0
 11
2130.243073892813
 21
1057.839112227964
 31
0.0
  0
LINE
  5
A5F
330
983
100
AcDbEntity
  8
0
  6
Continuous
 62
     7
370
    15
100
AcDbLine
 10
2130.243073892813
 20
1057.839112227964
 30
0.0
 11
2130.241151643019
 21
1056.439113674866
 31
0.0
  0
LINE
  5
A60
330
983
100
AcDbEntity
  8
0
  6
Continuous
 62
     7
370
    15
100
AcDbLine
 10
2130.241151643019
 20
1056.439113674866
 30
0.0
 11
2130.178175610524
 21
1056.376310402708
 31
0.0
  0
LINE
  5
A61
330
983
100
AcDbEntity
  8
0
  6
Continuous
 62
     7
370
    15
100
AcDbLine
 10
2130.180097860318
 20
1057.776309188636
 30
0.0
 11
2130.178175610524
 21
1056.376310402708
 31
0.0
  0
LINE
  5
A62
330
983
100
AcDbEntity
  8
0
  6
Continuous
 62
     7
370
    15
100
AcDbLine
 10
2137.980099511366
 20
1057.776309188636
 30
0.0
 11
2138.043071818572
 21
1057.839112227964
 31
0.0
  0
LINE
  5
A63
330
983
100
AcDbEntity
  8
0
  6
Continuous
 62
     7
370
    15
100
AcDbLine
 10
2138.043071818572
 20
1057.839112227964
 30
0.0
 11
2138.041149568778
 21
1056.439113674866
 31
0.0
  0
LINE
  5
A64
330
983
100
AcDbEntity
  8
0
  6
Continuous
 62
     7
370
    15
100
AcDbLine
 10
2138.041149568778
 20
1056.439113674866
 30
0.0
 11
2137.978177261572
 21
1056.376310402708
 31
0.0
  0
LINE
  5
A65
330
983
100
AcDbEntity
  8
0
  6
Continuous
 62
     7
370
    15
100
AcDbLine
 10
2137.980099511366
 20
1057.776309188636
 30
0.0
 11
2137.978177261572
 21
1056.376310402708
 31
0.0
  0
LINE
  5
A66
330
983
100
AcDbEntity
  8
0
  6
Continuous
 62
     7
370
    15
100
AcDbLine
 10
2133.517347020131
 20
1057.771732669505
 30
0.0
 11
2131.180096161585
 21
1057.774937816145
 31
0.0
  0
LINE
  5
A67
330
983
100
AcDbEntity
  8
0
  6
Continuous
 62
     7
370
    15
100
AcDbLine
 10
2131.117295217734
 20
1057.837913382979
 30
0.0
 11
2131.180096161585
 21
1057.774937816145
 31
0.0
  0
LINE
  5
A68
330
983
100
AcDbEntity
  8
0
  6
Continuous
 62
     7
370
    15
100
AcDbLine
 10
2131.117295217734
 20
1057.837913382979
 30
0.0
 11
2133.530005556565
 21
1057.834604626702
 31
0.0
  0
ARC
  5
A69
330
983
100
AcDbEntity
  8
0
  6
Continuous
 62
     7
370
    15
100
AcDbCircle
 10
2130.680919754725
 20
1058.375623015868
 30
0.0
 40
2.899999999999984
100
AcDbArc
 50
347.9808803345231
 51
349.2480147252266
  0
LINE
  5
A6A
330
983
100
AcDbEntity
  8
0
  6
Continuous
 62
     7
370
    15
100
AcDbLine
 10
2180.317345750552
 20
1057.771732669505
 30
0.0
 11
2177.980098617297
 21
1057.774937816145
 31
0.0
  0
LINE
  5
A6B
330
983
100
AcDbEntity
  8
0
  6
Continuous
 62
     7
370
    15
100
AcDbLine
 10
2177.917290222865
 20
1057.837913382979
 30
0.0
 11
2177.980098617297
 21
1057.774937816145
 31
0.0
  0
LINE
  5
A6C
330
983
100
AcDbEntity
  8
0
  6
Continuous
 62
     7
370
    15
100
AcDbLine
 10
2177.917290222865
 20
1057.837913382979
 30
0.0
 11
2180.330004286986
 21
1057.834604626702
 31
0.0
  0
ARC
  5
A6D
330
983
100
AcDbEntity
  8
0
  6
Continuous
 62
     7
370
    15
100
AcDbCircle
 10
2177.480919754725
 20
1058.375623015868
 30
0.0
 40
2.899999999999984
100
AcDbArc
 50
347.9808803345231
 51
349.2480147252266
  0
LINE
  5
A6E
330
983
100
AcDbEntity
  8
0
  6
Continuous
 62
     7
370
    15
100
AcDbLine
 10
2125.717345369082
 20
1057.771732669505
 30
0.0
 11
2123.380098235827
 21
1057.774937816145
 31
0.0
  0
LINE
  5
A6F
330
983
100
AcDbEntity
  8
0
  6
Continuous
 62
     7
370
    15
100
AcDbLine
 10
2123.317293566685
 20
1057.837913382979
 30
0.0
 11
2123.380098235827
 21
1057.774937816145
 31
0.0
  0
LINE
  5
A70
330
983
100
AcDbEntity
  8
0
  6
Continuous
 62
     7
370
    15
100
AcDbLine
 10
2123.317293566685
 20
1057.837913382979
 30
0.0
 11
2125.730007630806
 21
1057.834604626702
 31
0.0
  0
ARC
  5
A71
330
983
100
AcDbEntity
  8
0
  6
Continuous
 62
     7
370
    15
100
AcDbCircle
 10
2122.880919754726
 20
1058.375623015868
 30
0.0
 40
2.900000000000012
100
AcDbArc
 50
347.9808803345359
 51
349.2480147252266
  0
LINE
  5
A72
330
983
100
AcDbEntity
  8
0
  6
Continuous
 62
     7
370
    15
100
AcDbLine
 10
2122.380096209269
 20
1057.776309188636
 30
0.0
 11
2122.443072241765
 21
1057.839112227964
 31
0.0
  0
LINE
  5
A73
330
983
100
AcDbEntity
  8
0
  6
Continuous
 62
     7
370
    15
100
AcDbLine
 10
2122.443072241765
 20
1057.839112227964
 30
0.0
 11
2122.441153717261
 21
1056.439113674866
 31
0.0
  0
LINE
  5
A74
330
983
100
AcDbEntity
  8
0
  6
Continuous
 62
     7
370
    15
100
AcDbLine
 10
2122.441153717261
 20
1056.439113674866
 30
0.0
 11
2122.378177684765
 21
1056.376310402708
 31
0.0
  0
LINE
  5
A75
330
983
100
AcDbEntity
  8
0
  6
Continuous
 62
     7
370
    15
100
AcDbLine
 10
2122.380096209269
 20
1057.776309188636
 30
0.0
 11
2122.378177684765
 21
1056.376310402708
 31
0.0
  0
LINE
  5
A76
330
983
100
AcDbEntity
  8
0
  6
Continuous
 62
     7
370
    15
100
AcDbLine
 10
2169.18009866498
 20
1057.776309188636
 30
0.0
 11
2169.243070972186
 21
1057.839112227964
 31
0.0
  0
LINE
  5
A77
330
983
100
AcDbEntity
  8
0
  6
Continuous
 62
     7
370
    15
100
AcDbLine
 10
2169.243070972186
 20
1057.839112227964
 30
0.0
 11
2169.241156172972
 21
1056.439113674866
 31
0.0
  0
LINE
  5
A78
330
983
100
AcDbEntity
  8
0
  6
Continuous
 62
     7
370
    15
100
AcDbLine
 10
2169.241156172972
 20
1056.439113674866
 30
0.0
 11
2169.178176415186
 21
1056.376310402708
 31
0.0
  0
LINE
  5
A79
330
983
100
AcDbEntity
  8
0
  6
Continuous
 62
     7
370
    15
100
AcDbLine
 10
2169.18009866498
 20
1057.776309188636
 30
0.0
 11
2169.178176415186
 21
1056.376310402708
 31
0.0
  0
LINE
  5
A7A
330
983
100
AcDbEntity
  8
0
  6
Continuous
 62
     7
370
    15
100
AcDbLine
 10
2176.980096590739
 20
1057.776309188636
 30
0.0
 11
2177.043076348525
 21
1057.839112227964
 31
0.0
  0
LINE
  5
A7B
330
983
100
AcDbEntity
  8
0
  6
Continuous
 62
     7
370
    15
100
AcDbLine
 10
2177.043076348525
 20
1057.839112227964
 30
0.0
 11
2177.041154098731
 21
1056.439113674866
 31
0.0
  0
LINE
  5
A7C
330
983
100
AcDbEntity
  8
0
  6
Continuous
 62
     7
370
    15
100
AcDbLine
 10
2177.041154098731
 20
1056.439113674866
 30
0.0
 11
2176.978174340945
 21
1056.376310402708
 31
0.0
  0
LINE
  5
A7D
330
983
100
AcDbEntity
  8
0
  6
Continuous
 62
     7
370
    15
100
AcDbLine
 10
2176.980096590739
 20
1057.776309188636
 30
0.0
 11
2176.978174340945
 21
1056.376310402708
 31
0.0
  0
LINE
  5
A7E
330
983
100
AcDbEntity
  8
0
  6
Continuous
 62
     7
370
    15
100
AcDbLine
 10
2172.517347824793
 20
1057.771732669505
 30
0.0
 11
2170.180093240958
 21
1057.774937816145
 31
0.0
  0
LINE
  5
A7F
330
983
100
AcDbEntity
  8
0
  6
Continuous
 62
     7
370
    15
100
AcDbLine
 10
2170.117292297106
 20
1057.837913382979
 30
0.0
 11
2170.180093240958
 21
1057.774937816145
 31
0.0
  0
LINE
  5
A80
330
983
100
AcDbEntity
  8
0
  6
Continuous
 62
     7
370
    15
100
AcDbLine
 10
2170.117292297106
 20
1057.837913382979
 30
0.0
 11
2172.530006361228
 21
1057.834604626702
 31
0.0
  0
ARC
  5
A81
330
983
100
AcDbEntity
  8
0
  6
Continuous
 62
     7
370
    15
100
AcDbCircle
 10
2169.680919754725
 20
1058.375623015868
 30
0.0
 40
2.900000000000012
100
AcDbArc
 50
347.9808803345359
 51
349.2480147252266
  0
LINE
  5
A82
330
983
100
AcDbEntity
  8
0
  6
Continuous
 62
     7
370
    15
100
AcDbLine
 10
2143.430355680209
 20
1057.842421217071
 30
0.0
 11
2145.84306974433
 21
1057.839112227964
 31
0.0
  0
LINE
  5
A83
330
983
100
AcDbEntity
  8
0
  6
Continuous
 62
     7
370
    15
100
AcDbLine
 10
2145.780097437125
 20
1057.776309188636
 30
0.0
 11
2143.44285030387
 21
1057.779514568107
 31
0.0
  0
ARC
  5
A84
330
983
100
AcDbEntity
  8
0
  6
Continuous
 62
     7
370
    15
100
AcDbCircle
 10
2146.280919754725
 20
1058.375623015868
 30
0.0
 40
2.900000000000014
100
AcDbArc
 50
190.5948338650435
 51
191.8619682557529
  0
LINE
  5
A85
330
983
100
AcDbEntity
  8
0
  6
Continuous
 62
     7
370
    15
100
AcDbLine
 10
2164.717349899035
 20
1057.771732669505
 30
0.0
 11
2162.380095315199
 21
1057.774937816145
 31
0.0
  0
LINE
  5
A86
330
983
100
AcDbEntity
  8
0
  6
Continuous
 62
     7
370
    15
100
AcDbLine
 10
2162.317294371348
 20
1057.837913382979
 30
0.0
 11
2162.380095315199
 21
1057.774937816145
 31
0.0
  0
LINE
  5
A87
330
983
100
AcDbEntity
  8
0
  6
Continuous
 62
     7
370
    15
100
AcDbLine
 10
2162.317294371348
 20
1057.837913382979
 30
0.0
 11
2164.730008435469
 21
1057.834604626702
 31
0.0
  0
ARC
  5
A88
330
983
100
AcDbEntity
  8
0
  6
Continuous
 62
     7
370
    15
100
AcDbCircle
 10
2161.880919754725
 20
1058.375623015868
 30
0.0
 40
2.899999999999984
100
AcDbArc
 50
347.9808803345231
 51
349.2480147252266
  0
LINE
  5
A89
330
983
100
AcDbEntity
  8
0
  6
Continuous
 62
     7
370
    15
100
AcDbLine
 10
2146.778177213889
 20
1056.374939030217
 30
0.0
 11
2146.780099463683
 21
1057.774937816145
 31
0.0
  0
LINE
  5
A8A
330
983
100
AcDbEntity
  8
0
  6
Continuous
 62
     7
370
    15
100
AcDbLine
 10
2146.715376270037
 20
1056.437914597051
 30
0.0
 11
2146.778177213889
 21
1056.374939030217
 31
0.0
  0
LINE
  5
A8B
330
983
100
AcDbEntity
  8
0
  6
Continuous
 62
     7
370
    15
100
AcDbLine
 10
2146.715376270037
 20
1056.437914597051
 30
0.0
 11
2146.717291069251
 21
1057.837913382979
 31
0.0
  0
LINE
  5
A8C
330
983
100
AcDbEntity
  8
0
  6
Continuous
 62
     7
370
    15
100
AcDbLine
 10
2138.97817928813
 20
1056.374939030217
 30
0.0
 11
2138.980094087344
 21
1057.774937816145
 31
0.0
  0
LINE
  5
A8D
330
983
100
AcDbEntity
  8
0
  6
Continuous
 62
     7
370
    15
100
AcDbLine
 10
2138.915370893698
 20
1056.437914597051
 30
0.0
 11
2138.97817928813
 21
1056.374939030217
 31
0.0
  0
LINE
  5
A8E
330
983
100
AcDbEntity
  8
0
  6
Continuous
 62
     7
370
    15
100
AcDbLine
 10
2138.915370893698
 20
1056.437914597051
 30
0.0
 11
2138.917293143492
 21
1057.837913382979
 31
0.0
  0
LINE
  5
A8F
330
983
100
AcDbEntity
  8
0
  6
Continuous
 62
     7
370
    15
100
AcDbLine
 10
2145.778175187331
 20
1056.376310402708
 30
0.0
 11
2146.778177213889
 21
1056.374939030217
 31
0.0
  0
ARC
  5
A90
330
983
100
AcDbEntity
  8
0
  6
Continuous
 62
     7
370
    15
100
AcDbCircle
 10
2146.280919754725
 20
1058.375623015868
 30
0.0
 40
2.900000000000012
100
AcDbArc
 50
191.8619682557529
 51
347.9808803345359
  0
LINE
  5
A91
330
983
100
AcDbEntity
  8
0
  6
Continuous
 62
     7
370
    15
100
AcDbLine
 10
2161.380100739222
 20
1057.776309188636
 30
0.0
 11
2161.443073046427
 21
1057.839112227964
 31
0.0
  0
LINE
  5
A92
330
983
100
AcDbEntity
  8
0
  6
Continuous
 62
     7
370
    15
100
AcDbLine
 10
2161.443073046427
 20
1057.839112227964
 30
0.0
 11
2161.441150796633
 21
1056.439113674866
 31
0.0
  0
LINE
  5
A93
330
983
100
AcDbEntity
  8
0
  6
Continuous
 62
     7
370
    15
100
AcDbLine
 10
2161.441150796633
 20
1056.439113674866
 30
0.0
 11
2161.378178489428
 21
1056.376310402708
 31
0.0
  0
LINE
  5
A94
330
983
100
AcDbEntity
  8
0
  6
Continuous
 62
     7
370
    15
100
AcDbLine
 10
2161.380100739222
 20
1057.776309188636
 30
0.0
 11
2161.378178489428
 21
1056.376310402708
 31
0.0
  0
LINE
  5
A95
330
983
100
AcDbEntity
  8
0
  6
Continuous
 62
     7
370
    15
100
AcDbLine
 10
2156.917344522696
 20
1057.771732669505
 30
0.0
 11
2154.580097389441
 21
1057.774937816145
 31
0.0
  0
LINE
  5
A96
330
983
100
AcDbEntity
  8
0
  6
Continuous
 62
     7
370
    15
100
AcDbLine
 10
2154.51729644559
 20
1057.837913382979
 30
0.0
 11
2154.580097389441
 21
1057.774937816145
 31
0.0
  0
LINE
  5
A97
330
983
100
AcDbEntity
  8
0
  6
Continuous
 62
     7
370
    15
100
AcDbLine
 10
2154.51729644559
 20
1057.837913382979
 30
0.0
 11
2156.930010509711
 21
1057.834604626702
 31
0.0
  0
ARC
  5
A98
330
983
100
AcDbEntity
  8
0
  6
Continuous
 62
     7
370
    15
100
AcDbCircle
 10
2154.080919754725
 20
1058.375623015868
 30
0.0
 40
2.899999999999984
100
AcDbArc
 50
347.9808803345231
 51
349.2480147252266
  0
LINE
  5
A99
330
983
100
AcDbEntity
  8
0
  6
Continuous
 62
     7
370
    15
100
AcDbLine
 10
2135.63035775445
 20
1057.842421217071
 30
0.0
 11
2138.043071818572
 21
1057.839112227964
 31
0.0
  0
LINE
  5
A9A
330
983
100
AcDbEntity
  8
0
  6
Continuous
 62
     7
370
    15
100
AcDbLine
 10
2137.980099511366
 20
1057.776309188636
 30
0.0
 11
2135.642848652821
 21
1057.779514568107
 31
0.0
  0
ARC
  5
A9B
330
983
100
AcDbEntity
  8
0
  6
Continuous
 62
     7
370
    15
100
AcDbCircle
 10
2138.480919754725
 20
1058.375623015868
 30
0.0
 40
2.900000000000042
100
AcDbArc
 50
190.5948338650435
 51
191.8619682557529
  0
LINE
  5
A9C
330
983
100
AcDbEntity
  8
0
  6
Continuous
 62
     7
370
    15
100
AcDbLine
 10
2137.978177261572
 20
1056.376310402708
 30
0.0
 11
2138.97817928813
 21
1056.374939030217
 31
0.0
  0
ARC
  5
A9D
330
983
100
AcDbEntity
  8
0
  6
Continuous
 62
     7
370
    15
100
AcDbCircle
 10
2138.480919754725
 20
1058.375623015868
 30
0.0
 40
2.900000000000012
100
AcDbArc
 50
191.8619682557529
 51
347.9808803345359
  0
LINE
  5
A9E
330
983
100
AcDbEntity
  8
0
  6
Continuous
 62
     7
370
    15
100
AcDbLine
 10
2130.180097860318
 20
1057.776309188636
 30
0.0
 11
2127.842847001772
 21
1057.779514568107
 31
0.0
  0
LINE
  5
A9F
330
983
100
AcDbEntity
  8
0
  6
Continuous
 62
     7
370
    15
100
AcDbLine
 10
2130.178175610524
 20
1056.376310402708
 30
0.0
 11
2131.178177637082
 21
1056.374939030217
 31
0.0
  0
LINE
  5
AA0
330
983
100
AcDbEntity
  8
0
  6
Continuous
 62
     7
370
    15
100
AcDbLine
 10
2131.178177637082
 20
1056.374939030217
 30
0.0
 11
2131.180096161585
 21
1057.774937816145
 31
0.0
  0
ARC
  5
AA1
330
983
100
AcDbEntity
  8
0
  6
Continuous
 62
     7
370
    15
100
AcDbCircle
 10
2130.680919754725
 20
1058.375623015868
 30
0.0
 40
2.899999999999985
100
AcDbArc
 50
191.8619682557529
 51
347.9808803345231
  0
LINE
  5
AA2
330
983
100
AcDbEntity
  8
0
  6
Continuous
 62
     7
370
    15
100
AcDbLine
 10
2131.11537296794
 20
1056.437914597051
 30
0.0
 11
2131.178177637082
 21
1056.374939030217
 31
0.0
  0
LINE
  5
AA3
330
983
100
AcDbEntity
  8
0
  6
Continuous
 62
     7
370
    15
100
AcDbLine
 10
2131.11537296794
 20
1056.437914597051
 30
0.0
 11
2131.117295217734
 21
1057.837913382979
 31
0.0
  0
LINE
  5
AA4
330
983
100
AcDbEntity
  8
0
  6
Continuous
 62
     7
370
    15
100
AcDbLine
 10
2127.830359828692
 20
1057.842421217071
 30
0.0
 11
2130.243073892813
 21
1057.839112227964
 31
0.0
  0
ARC
  5
AA5
330
983
100
AcDbEntity
  8
0
  6
Continuous
 62
     7
370
    15
100
AcDbCircle
 10
2130.680919754725
 20
1058.375623015868
 30
0.0
 40
2.900000000000014
100
AcDbArc
 50
190.5948338650435
 51
191.8619682557529
  0
LINE
  5
AA6
330
983
100
AcDbEntity
  8
0
  6
Continuous
 62
     7
370
    15
100
AcDbLine
 10
2120.030358177643
 20
1057.842421217071
 30
0.0
 11
2122.443072241765
 21
1057.839112227964
 31
0.0
  0
LINE
  5
AA7
330
983
100
AcDbEntity
  8
0
  6
Continuous
 62
     7
370
    15
100
AcDbLine
 10
2122.380096209269
 20
1057.776309188636
 30
0.0
 11
2120.042849076014
 21
1057.779514568107
 31
0.0
  0
ARC
  5
AA8
330
983
100
AcDbEntity
  8
0
  6
Continuous
 62
     7
370
    15
100
AcDbCircle
 10
2122.880919754726
 20
1058.375623015868
 30
0.0
 40
2.900000000000014
100
AcDbArc
 50
190.5948338650435
 51
191.8619682557529
  0
LINE
  5
AA9
330
983
100
AcDbEntity
  8
0
  6
Continuous
 62
     7
370
    15
100
AcDbLine
 10
2153.580095362883
 20
1057.776309188636
 30
0.0
 11
2153.643075120669
 21
1057.839112227964
 31
0.0
  0
LINE
  5
AAA
330
983
100
AcDbEntity
  8
0
  6
Continuous
 62
     7
370
    15
100
AcDbLine
 10
2153.643075120669
 20
1057.839112227964
 30
0.0
 11
2153.641152870875
 21
1056.439113674866
 31
0.0
  0
LINE
  5
AAB
330
983
100
AcDbEntity
  8
0
  6
Continuous
 62
     7
370
    15
100
AcDbLine
 10
2153.641152870875
 20
1056.439113674866
 30
0.0
 11
2153.57818056367
 21
1056.376310402708
 31
0.0
  0
LINE
  5
AAC
330
983
100
AcDbEntity
  8
0
  6
Continuous
 62
     7
370
    15
100
AcDbLine
 10
2153.580095362883
 20
1057.776309188636
 30
0.0
 11
2153.57818056367
 21
1056.376310402708
 31
0.0
  0
LINE
  5
AAD
330
983
100
AcDbEntity
  8
0
  6
Continuous
 62
     7
370
    15
100
AcDbLine
 10
2123.378175986033
 20
1056.374939030217
 30
0.0
 11
2123.380098235827
 21
1057.774937816145
 31
0.0
  0
LINE
  5
AAE
330
983
100
AcDbEntity
  8
0
  6
Continuous
 62
     7
370
    15
100
AcDbLine
 10
2123.315375042182
 20
1056.437914597051
 30
0.0
 11
2123.378175986033
 21
1056.374939030217
 31
0.0
  0
LINE
  5
AAF
330
983
100
AcDbEntity
  8
0
  6
Continuous
 62
     7
370
    15
100
AcDbLine
 10
2123.315375042182
 20
1056.437914597051
 30
0.0
 11
2123.317293566685
 21
1057.837913382979
 31
0.0
  0
LINE
  5
AB0
330
983
100
AcDbEntity
  8
0
  6
Continuous
 62
     7
370
    15
100
AcDbLine
 10
2177.978176367503
 20
1056.374939030217
 30
0.0
 11
2177.980098617297
 21
1057.774937816145
 31
0.0
  0
LINE
  5
AB1
330
983
100
AcDbEntity
  8
0
  6
Continuous
 62
     7
370
    15
100
AcDbLine
 10
2177.915375423651
 20
1056.437914597051
 30
0.0
 11
2177.978176367503
 21
1056.374939030217
 31
0.0
  0
LINE
  5
AB2
330
983
100
AcDbEntity
  8
0
  6
Continuous
 62
     7
370
    15
100
AcDbLine
 10
2177.915375423651
 20
1056.437914597051
 30
0.0
 11
2177.917290222865
 21
1057.837913382979
 31
0.0
  0
LINE
  5
AB3
330
983
100
AcDbEntity
  8
0
  6
Continuous
 62
     7
370
    15
100
AcDbLine
 10
2122.378177684765
 20
1056.376310402708
 30
0.0
 11
2123.378175986033
 21
1056.374939030217
 31
0.0
  0
ARC
  5
AB4
330
983
100
AcDbEntity
  8
0
  6
Continuous
 62
     7
370
    15
100
AcDbCircle
 10
2122.880919754726
 20
1058.375623015868
 30
0.0
 40
2.900000000000039
100
AcDbArc
 50
191.8619682557529
 51
347.9808803345359
  0
LINE
  5
AB5
330
983
100
AcDbEntity
  8
0
  6
Continuous
 62
     7
370
    15
100
AcDbLine
 10
2117.917347443324
 20
1057.771732669505
 30
0.0
 11
2115.580096584778
 21
1057.774937816145
 31
0.0
  0
LINE
  5
AB6
330
983
100
AcDbEntity
  8
0
  6
Continuous
 62
     7
370
    15
100
AcDbLine
 10
2115.517291915637
 20
1057.837913382979
 30
0.0
 11
2115.580096584778
 21
1057.774937816145
 31
0.0
  0
LINE
  5
AB7
330
983
100
AcDbEntity
  8
0
  6
Continuous
 62
     7
370
    15
100
AcDbLine
 10
2115.517291915637
 20
1057.837913382979
 30
0.0
 11
2117.930005979758
 21
1057.834604626702
 31
0.0
  0
ARC
  5
AB8
330
983
100
AcDbEntity
  8
0
  6
Continuous
 62
     7
370
    15
100
AcDbCircle
 10
2115.080919754725
 20
1058.375623015868
 30
0.0
 40
2.899999999999984
100
AcDbArc
 50
347.9808803345231
 51
349.2480147252266
  0
LINE
  5
AB9
330
983
100
AcDbEntity
  8
0
  6
Continuous
 62
     7
370
    15
100
AcDbLine
 10
2114.580098283511
 20
1057.776309188636
 30
0.0
 11
2114.643074316006
 21
1057.839112227964
 31
0.0
  0
LINE
  5
ABA
330
983
100
AcDbEntity
  8
0
  6
Continuous
 62
     7
370
    15
100
AcDbLine
 10
2114.643074316006
 20
1057.839112227964
 30
0.0
 11
2114.641152066212
 21
1056.439113674866
 31
0.0
  0
LINE
  5
ABB
330
983
100
AcDbEntity
  8
0
  6
Continuous
 62
     7
370
    15
100
AcDbLine
 10
2114.641152066212
 20
1056.439113674866
 30
0.0
 11
2114.578176033717
 21
1056.376310402708
 31
0.0
  0
LINE
  5
ABC
330
983
100
AcDbEntity
  8
0
  6
Continuous
 62
     7
370
    15
100
AcDbLine
 10
2114.580098283511
 20
1057.776309188636
 30
0.0
 11
2114.578176033717
 21
1056.376310402708
 31
0.0
  0
LINE
  5
ABD
330
983
100
AcDbEntity
  8
0
  6
Continuous
 62
     7
370
    15
100
AcDbLine
 10
2174.630362284403
 20
1057.842421217071
 30
0.0
 11
2177.043076348525
 21
1057.839112227964
 31
0.0
  0
LINE
  5
ABE
330
983
100
AcDbEntity
  8
0
  6
Continuous
 62
     7
370
    15
100
AcDbLine
 10
2176.980096590739
 20
1057.776309188636
 30
0.0
 11
2174.642849457484
 21
1057.779514568107
 31
0.0
  0
ARC
  5
ABF
330
983
100
AcDbEntity
  8
0
  6
Continuous
 62
     7
370
    15
100
AcDbCircle
 10
2177.480919754725
 20
1058.375623015868
 30
0.0
 40
2.900000000000042
100
AcDbArc
 50
190.5948338650435
 51
191.8619682557529
  0
LINE
  5
AC0
330
983
100
AcDbEntity
  8
0
  6
Continuous
 62
     7
370
    15
100
AcDbLine
 10
2176.978174340945
 20
1056.376310402708
 30
0.0
 11
2177.978176367503
 21
1056.374939030217
 31
0.0
  0
ARC
  5
AC1
330
983
100
AcDbEntity
  8
0
  6
Continuous
 62
     7
370
    15
100
AcDbCircle
 10
2177.480919754725
 20
1058.375623015868
 30
0.0
 40
2.900000000000012
100
AcDbArc
 50
191.8619682557529
 51
347.9808803345359
  0
LINE
  5
AC2
330
983
100
AcDbEntity
  8
0
  6
Continuous
 62
     7
370
    15
100
AcDbLine
 10
2169.18009866498
 20
1057.776309188636
 30
0.0
 11
2166.842844081145
 21
1057.779514568107
 31
0.0
  0
LINE
  5
AC3
330
983
100
AcDbEntity
  8
0
  6
Continuous
 62
     7
370
    15
100
AcDbLine
 10
2169.178176415186
 20
1056.376310402708
 30
0.0
 11
2170.178178441744
 21
1056.374939030217
 31
0.0
  0
LINE
  5
AC4
330
983
100
AcDbEntity
  8
0
  6
Continuous
 62
     7
370
    15
100
AcDbLine
 10
2170.178178441744
 20
1056.374939030217
 30
0.0
 11
2170.180093240958
 21
1057.774937816145
 31
0.0
  0
ARC
  5
AC5
330
983
100
AcDbEntity
  8
0
  6
Continuous
 62
     7
370
    15
100
AcDbCircle
 10
2169.680919754725
 20
1058.375623015868
 30
0.0
 40
2.900000000000012
100
AcDbArc
 50
191.8619682557529
 51
347.9808803345359
  0
LINE
  5
AC6
330
983
100
AcDbEntity
  8
0
  6
Continuous
 62
     7
370
    15
100
AcDbLine
 10
2170.115370047312
 20
1056.437914597051
 30
0.0
 11
2170.178178441744
 21
1056.374939030217
 31
0.0
  0
LINE
  5
AC7
330
983
100
AcDbEntity
  8
0
  6
Continuous
 62
     7
370
    15
100
AcDbLine
 10
2170.115370047312
 20
1056.437914597051
 30
0.0
 11
2170.117292297106
 21
1057.837913382979
 31
0.0
  0
LINE
  5
AC8
330
983
100
AcDbEntity
  8
0
  6
Continuous
 62
     7
370
    15
100
AcDbLine
 10
2166.830356908064
 20
1057.842421217071
 30
0.0
 11
2169.243070972186
 21
1057.839112227964
 31
0.0
  0
ARC
  5
AC9
330
983
100
AcDbEntity
  8
0
  6
Continuous
 62
     7
370
    15
100
AcDbCircle
 10
2169.680919754725
 20
1058.375623015868
 30
0.0
 40
2.900000000000014
100
AcDbArc
 50
190.5948338650435
 51
191.8619682557529
  0
LINE
  5
ACA
330
983
100
AcDbEntity
  8
0
  6
Continuous
 62
     7
370
    15
100
AcDbLine
 10
2159.030358982306
 20
1057.842421217071
 30
0.0
 11
2161.443073046427
 21
1057.839112227964
 31
0.0
  0
LINE
  5
ACB
330
983
100
AcDbEntity
  8
0
  6
Continuous
 62
     7
370
    15
100
AcDbLine
 10
2161.380100739222
 20
1057.776309188636
 30
0.0
 11
2159.042846155386
 21
1057.779514568107
 31
0.0
  0
ARC
  5
ACC
330
983
100
AcDbEntity
  8
0
  6
Continuous
 62
     7
370
    15
100
AcDbCircle
 10
2161.880919754725
 20
1058.375623015868
 30
0.0
 40
2.900000000000042
100
AcDbArc
 50
190.5948338650435
 51
191.8619682557529
  0
LINE
  5
ACD
330
983
100
AcDbEntity
  8
0
  6
Continuous
 62
     7
370
    15
100
AcDbLine
 10
2110.117345792275
 20
1057.771732669505
 30
0.0
 11
2107.78009493373
 21
1057.774937816145
 31
0.0
  0
LINE
  5
ACE
330
983
100
AcDbEntity
  8
0
  6
Continuous
 62
     7
370
    15
100
AcDbLine
 10
2107.717293989878
 20
1057.837913382979
 30
0.0
 11
2107.78009493373
 21
1057.774937816145
 31
0.0
  0
LINE
  5
ACF
330
983
100
AcDbEntity
  8
0
  6
Continuous
 62
     7
370
    15
100
AcDbLine
 10
2107.717293989878
 20
1057.837913382979
 30
0.0
 11
2110.130008053999
 21
1057.834604626702
 31
0.0
  0
ARC
  5
AD0
330
983
100
AcDbEntity
  8
0
  6
Continuous
 62
     7
370
    15
100
AcDbCircle
 10
2107.280919754725
 20
1058.375623015868
 30
0.0
 40
2.900000000000012
100
AcDbArc
 50
347.9808803345359
 51
349.2480147252266
  0
LINE
  5
AD1
330
983
100
AcDbEntity
  8
0
  6
Continuous
 62
     7
370
    15
100
AcDbLine
 10
2162.378173065405
 20
1056.374939030217
 30
0.0
 11
2162.380095315199
 21
1057.774937816145
 31
0.0
  0
LINE
  5
AD2
330
983
100
AcDbEntity
  8
0
  6
Continuous
 62
     7
370
    15
100
AcDbLine
 10
2162.315372121554
 20
1056.437914597051
 30
0.0
 11
2162.378173065405
 21
1056.374939030217
 31
0.0
  0
LINE
  5
AD3
330
983
100
AcDbEntity
  8
0
  6
Continuous
 62
     7
370
    15
100
AcDbLine
 10
2162.315372121554
 20
1056.437914597051
 30
0.0
 11
2162.317294371348
 21
1057.837913382979
 31
0.0
  0
LINE
  5
AD4
330
983
100
AcDbEntity
  8
0
  6
Continuous
 62
     7
370
    15
100
AcDbLine
 10
2154.578175139647
 20
1056.374939030217
 30
0.0
 11
2154.580097389441
 21
1057.774937816145
 31
0.0
  0
LINE
  5
AD5
330
983
100
AcDbEntity
  8
0
  6
Continuous
 62
     7
370
    15
100
AcDbLine
 10
2154.515374195796
 20
1056.437914597051
 30
0.0
 11
2154.578175139647
 21
1056.374939030217
 31
0.0
  0
LINE
  5
AD6
330
983
100
AcDbEntity
  8
0
  6
Continuous
 62
     7
370
    15
100
AcDbLine
 10
2154.515374195796
 20
1056.437914597051
 30
0.0
 11
2154.51729644559
 21
1057.837913382979
 31
0.0
  0
LINE
  5
AD7
330
983
100
AcDbEntity
  8
0
  6
Continuous
 62
     7
370
    15
100
AcDbLine
 10
2161.378178489428
 20
1056.376310402708
 30
0.0
 11
2162.378173065405
 21
1056.374939030217
 31
0.0
  0
ARC
  5
AD8
330
983
100
AcDbEntity
  8
0
  6
Continuous
 62
     7
370
    15
100
AcDbCircle
 10
2161.880919754725
 20
1058.375623015868
 30
0.0
 40
2.900000000000012
100
AcDbArc
 50
191.8619682557529
 51
347.9808803345359
  0
LINE
  5
AD9
330
983
100
AcDbEntity
  8
0
  6
Continuous
 62
     7
370
    15
100
AcDbLine
 10
2106.780096632462
 20
1057.776309188636
 30
0.0
 11
2106.843072664958
 21
1057.839112227964
 31
0.0
  0
LINE
  5
ADA
330
983
100
AcDbEntity
  8
0
  6
Continuous
 62
     7
370
    15
100
AcDbLine
 10
2106.843072664958
 20
1057.839112227964
 30
0.0
 11
2106.841154140454
 21
1056.439113674866
 31
0.0
  0
LINE
  5
ADB
330
983
100
AcDbEntity
  8
0
  6
Continuous
 62
     7
370
    15
100
AcDbLine
 10
2106.841154140454
 20
1056.439113674866
 30
0.0
 11
2106.778178107958
 21
1056.376310402708
 31
0.0
  0
LINE
  5
ADC
330
983
100
AcDbEntity
  8
0
  6
Continuous
 62
     7
370
    15
100
AcDbLine
 10
2106.780096632462
 20
1057.776309188636
 30
0.0
 11
2106.778178107958
 21
1056.376310402708
 31
0.0
  0
LINE
  5
ADD
330
983
100
AcDbEntity
  8
0
  6
Continuous
 62
     7
370
    15
100
AcDbLine
 10
2102.317346003871
 20
1057.771732669505
 30
0.0
 11
2099.980097007971
 21
1057.774937816145
 31
0.0
  0
LINE
  5
ADE
330
983
100
AcDbEntity
  8
0
  6
Continuous
 62
     7
370
    15
100
AcDbLine
 10
2099.917294201475
 20
1057.837913382979
 30
0.0
 11
2099.980097007971
 21
1057.774937816145
 31
0.0
  0
LINE
  5
ADF
330
983
100
AcDbEntity
  8
0
  6
Continuous
 62
     7
370
    15
100
AcDbLine
 10
2099.917294201475
 20
1057.837913382979
 30
0.0
 11
2102.330006402951
 21
1057.834604626702
 31
0.0
  0
ARC
  5
AE0
330
983
100
AcDbEntity
  8
0
  6
Continuous
 62
     7
370
    15
100
AcDbCircle
 10
2099.480919754725
 20
1058.375623015868
 30
0.0
 40
2.900000000000012
100
AcDbArc
 50
347.9808803345359
 51
349.2480147252266
  0
LINE
  5
AE1
330
983
100
AcDbEntity
  8
0
  6
Continuous
 62
     7
370
    15
100
AcDbLine
 10
2151.230361056548
 20
1057.842421217071
 30
0.0
 11
2153.643075120669
 21
1057.839112227964
 31
0.0
  0
LINE
  5
AE2
330
983
100
AcDbEntity
  8
0
  6
Continuous
 62
     7
370
    15
100
AcDbLine
 10
2153.580095362883
 20
1057.776309188636
 30
0.0
 11
2151.242848229628
 21
1057.779514568107
 31
0.0
  0
ARC
  5
AE3
330
983
100
AcDbEntity
  8
0
  6
Continuous
 62
     7
370
    15
100
AcDbCircle
 10
2154.080919754725
 20
1058.375623015868
 30
0.0
 40
2.900000000000042
100
AcDbArc
 50
190.5948338650435
 51
191.8619682557529
  0
LINE
  5
AE4
330
983
100
AcDbEntity
  8
0
  6
Continuous
 62
     7
370
    15
100
AcDbLine
 10
2153.57818056367
 20
1056.376310402708
 30
0.0
 11
2154.578175139647
 21
1056.374939030217
 31
0.0
  0
ARC
  5
AE5
330
983
100
AcDbEntity
  8
0
  6
Continuous
 62
     7
370
    15
100
AcDbCircle
 10
2154.080919754725
 20
1058.375623015868
 30
0.0
 40
2.900000000000012
100
AcDbArc
 50
191.8619682557529
 51
347.9808803345359
  0
LINE
  5
AE6
330
983
100
AcDbEntity
  8
0
  6
Continuous
 62
     7
370
    15
100
AcDbLine
 10
2114.580098283511
 20
1057.776309188636
 30
0.0
 11
2112.242847424965
 21
1057.779514568107
 31
0.0
  0
LINE
  5
AE7
330
983
100
AcDbEntity
  8
0
  6
Continuous
 62
     7
370
    15
100
AcDbLine
 10
2114.578176033717
 20
1056.376310402708
 30
0.0
 11
2115.578178060275
 21
1056.374939030217
 31
0.0
  0
LINE
  5
AE8
330
983
100
AcDbEntity
  8
0
  6
Continuous
 62
     7
370
    15
100
AcDbLine
 10
2115.578178060275
 20
1056.374939030217
 30
0.0
 11
2115.580096584778
 21
1057.774937816145
 31
0.0
  0
ARC
  5
AE9
330
983
100
AcDbEntity
  8
0
  6
Continuous
 62
     7
370
    15
100
AcDbCircle
 10
2115.080919754725
 20
1058.375623015868
 30
0.0
 40
2.900000000000012
100
AcDbArc
 50
191.8619682557529
 51
347.9808803345231
  0
LINE
  5
AEA
330
983
100
AcDbEntity
  8
0
  6
Continuous
 62
     7
370
    15
100
AcDbLine
 10
2115.515373391133
 20
1056.437914597051
 30
0.0
 11
2115.578178060275
 21
1056.374939030217
 31
0.0
  0
LINE
  5
AEB
330
983
100
AcDbEntity
  8
0
  6
Continuous
 62
     7
370
    15
100
AcDbLine
 10
2115.515373391133
 20
1056.437914597051
 30
0.0
 11
2115.517291915637
 21
1057.837913382979
 31
0.0
  0
LINE
  5
AEC
330
983
100
AcDbEntity
  8
0
  6
Continuous
 62
     7
370
    15
100
AcDbLine
 10
2112.230360251885
 20
1057.842421217071
 30
0.0
 11
2114.643074316006
 21
1057.839112227964
 31
0.0
  0
ARC
  5
AED
330
983
100
AcDbEntity
  8
0
  6
Continuous
 62
     7
370
    15
100
AcDbCircle
 10
2115.080919754725
 20
1058.375623015868
 30
0.0
 40
2.900000000000014
100
AcDbArc
 50
190.5948338650435
 51
191.8619682557529
  0
LINE
  5
AEE
330
983
100
AcDbEntity
  8
0
  6
Continuous
 62
     7
370
    15
100
AcDbLine
 10
2104.430358600836
 20
1057.842421217071
 30
0.0
 11
2106.843072664958
 21
1057.839112227964
 31
0.0
  0
LINE
  5
AEF
330
983
100
AcDbEntity
  8
0
  6
Continuous
 62
     7
370
    15
100
AcDbLine
 10
2106.780096632462
 20
1057.776309188636
 30
0.0
 11
2104.442847636562
 21
1057.779514568107
 31
0.0
  0
ARC
  5
AF0
330
983
100
AcDbEntity
  8
0
  6
Continuous
 62
     7
370
    15
100
AcDbCircle
 10
2107.280919754725
 20
1058.375623015868
 30
0.0
 40
2.900000000000042
100
AcDbArc
 50
190.5948338650435
 51
191.8619682557529
  0
LINE
  5
AF1
330
983
100
AcDbEntity
  8
0
  6
Continuous
 62
     7
370
    15
100
AcDbLine
 10
2098.980096844059
 20
1057.776309188636
 30
0.0
 11
2099.043072876554
 21
1057.839112227964
 31
0.0
  0
LINE
  5
AF2
330
983
100
AcDbEntity
  8
0
  6
Continuous
 62
     7
370
    15
100
AcDbLine
 10
2099.043072876554
 20
1057.839112227964
 30
0.0
 11
2099.041152489405
 21
1056.439113674866
 31
0.0
  0
LINE
  5
AF3
330
983
100
AcDbEntity
  8
0
  6
Continuous
 62
     7
370
    15
100
AcDbLine
 10
2099.041152489405
 20
1056.439113674866
 30
0.0
 11
2098.978178319555
 21
1056.376310402708
 31
0.0
  0
LINE
  5
AF4
330
983
100
AcDbEntity
  8
0
  6
Continuous
 62
     7
370
    15
100
AcDbLine
 10
2098.980096844059
 20
1057.776309188636
 30
0.0
 11
2098.978178319555
 21
1056.376310402708
 31
0.0
  0
LINE
  5
AF5
330
983
100
AcDbEntity
  8
0
  6
Continuous
 62
     7
370
    15
100
AcDbLine
 10
2107.778176409226
 20
1056.374939030217
 30
0.0
 11
2107.78009493373
 21
1057.774937816145
 31
0.0
  0
LINE
  5
AF6
330
983
100
AcDbEntity
  8
0
  6
Continuous
 62
     7
370
    15
100
AcDbLine
 10
2107.715371740084
 20
1056.437914597051
 30
0.0
 11
2107.778176409226
 21
1056.374939030217
 31
0.0
  0
LINE
  5
AF7
330
983
100
AcDbEntity
  8
0
  6
Continuous
 62
     7
370
    15
100
AcDbLine
 10
2107.715371740084
 20
1056.437914597051
 30
0.0
 11
2107.717293989878
 21
1057.837913382979
 31
0.0
  0
LINE
  5
AF8
330
983
100
AcDbEntity
  8
0
  6
Continuous
 62
     7
370
    15
100
AcDbLine
 10
2099.978176620822
 20
1056.374939030217
 30
0.0
 11
2099.980097007971
 21
1057.774937816145
 31
0.0
  0
LINE
  5
AF9
330
983
100
AcDbEntity
  8
0
  6
Continuous
 62
     7
370
    15
100
AcDbLine
 10
2099.915373814326
 20
1056.437914597051
 30
0.0
 11
2099.978176620822
 21
1056.374939030217
 31
0.0
  0
LINE
  5
AFA
330
983
100
AcDbEntity
  8
0
  6
Continuous
 62
     7
370
    15
100
AcDbLine
 10
2099.915373814326
 20
1056.437914597051
 30
0.0
 11
2099.917294201475
 21
1057.837913382979
 31
0.0
  0
LINE
  5
AFB
330
983
100
AcDbEntity
  8
0
  6
Continuous
 62
     7
370
    15
100
AcDbLine
 10
2106.778178107958
 20
1056.376310402708
 30
0.0
 11
2107.778176409226
 21
1056.374939030217
 31
0.0
  0
ARC
  5
AFC
330
983
100
AcDbEntity
  8
0
  6
Continuous
 62
     7
370
    15
100
AcDbCircle
 10
2107.280919754725
 20
1058.375623015868
 30
0.0
 40
2.900000000000039
100
AcDbArc
 50
191.8619682557529
 51
347.9808803345359
  0
LINE
  5
AFD
330
983
100
AcDbEntity
  8
0
  6
Continuous
 62
     7
370
    15
100
AcDbLine
 10
2094.517346215468
 20
1057.771732669505
 30
0.0
 11
2092.180097219568
 21
1057.774937816145
 31
0.0
  0
LINE
  5
AFE
330
983
100
AcDbEntity
  8
0
  6
Continuous
 62
     7
370
    15
100
AcDbLine
 10
2092.117292550426
 20
1057.837913382979
 30
0.0
 11
2092.180097219568
 21
1057.774937816145
 31
0.0
  0
LINE
  5
AFF
330
983
100
AcDbEntity
  8
0
  6
Continuous
 62
     7
370
    15
100
AcDbLine
 10
2092.117292550426
 20
1057.837913382979
 30
0.0
 11
2094.530006614547
 21
1057.834604626702
 31
0.0
  0
ARC
  5
B00
330
983
100
AcDbEntity
  8
0
  6
Continuous
 62
     7
370
    15
100
AcDbCircle
 10
2091.680919754725
 20
1058.375623015868
 30
0.0
 40
2.900000000000012
100
AcDbArc
 50
347.9808803345359
 51
349.2480147252266
  0
LINE
  5
B01
330
983
100
AcDbEntity
  8
0
  6
Continuous
 62
     7
370
    15
100
AcDbLine
 10
2091.180097055655
 20
1057.776309188636
 30
0.0
 11
2091.243073088151
 21
1057.839112227964
 31
0.0
  0
LINE
  5
B02
330
983
100
AcDbEntity
  8
0
  6
Continuous
 62
     7
370
    15
100
AcDbLine
 10
2091.243073088151
 20
1057.839112227964
 30
0.0
 11
2091.241152701002
 21
1056.439113674866
 31
0.0
  0
LINE
  5
B03
330
983
100
AcDbEntity
  8
0
  6
Continuous
 62
     7
370
    15
100
AcDbLine
 10
2091.241152701002
 20
1056.439113674866
 30
0.0
 11
2091.178176668506
 21
1056.376310402708
 31
0.0
  0
LINE
  5
B04
330
983
100
AcDbEntity
  8
0
  6
Continuous
 62
     7
370
    15
100
AcDbLine
 10
2091.180097055655
 20
1057.776309188636
 30
0.0
 11
2091.178176668506
 21
1056.376310402708
 31
0.0
  0
LINE
  5
B05
330
983
100
AcDbEntity
  8
0
  6
Continuous
 62
     7
370
    15
100
AcDbLine
 10
2096.630358812433
 20
1057.842421217071
 30
0.0
 11
2099.043072876554
 21
1057.839112227964
 31
0.0
  0
LINE
  5
B06
330
983
100
AcDbEntity
  8
0
  6
Continuous
 62
     7
370
    15
100
AcDbLine
 10
2098.980096844059
 20
1057.776309188636
 30
0.0
 11
2096.642847848158
 21
1057.779514568107
 31
0.0
  0
ARC
  5
B07
330
983
100
AcDbEntity
  8
0
  6
Continuous
 62
     7
370
    15
100
AcDbCircle
 10
2099.480919754725
 20
1058.375623015868
 30
0.0
 40
2.899999999999986
100
AcDbArc
 50
190.5948338650435
 51
191.8619682557529
  0
LINE
  5
B08
330
983
100
AcDbEntity
  8
0
  6
Continuous
 62
     7
370
    15
100
AcDbLine
 10
2098.978178319555
 20
1056.376310402708
 30
0.0
 11
2099.978176620822
 21
1056.374939030217
 31
0.0
  0
ARC
  5
B09
330
983
100
AcDbEntity
  8
0
  6
Continuous
 62
     7
370
    15
100
AcDbCircle
 10
2099.480919754725
 20
1058.375623015868
 30
0.0
 40
2.900000000000012
100
AcDbArc
 50
191.8619682557529
 51
347.9808803345359
  0
LINE
  5
B0A
330
983
100
AcDbEntity
  8
0
  6
Continuous
 62
     7
370
    15
100
AcDbLine
 10
2091.180097055655
 20
1057.776309188636
 30
0.0
 11
2088.842847128432
 21
1057.779514568107
 31
0.0
  0
LINE
  5
B0B
330
983
100
AcDbEntity
  8
0
  6
Continuous
 62
     7
370
    15
100
AcDbLine
 10
2091.178176668506
 20
1056.376310402708
 30
0.0
 11
2092.178176832419
 21
1056.374939030217
 31
0.0
  0
LINE
  5
B0C
330
983
100
AcDbEntity
  8
0
  6
Continuous
 62
     7
370
    15
100
AcDbLine
 10
2092.178176832419
 20
1056.374939030217
 30
0.0
 11
2092.180097219568
 21
1057.774937816145
 31
0.0
  0
ARC
  5
B0D
330
983
100
AcDbEntity
  8
0
  6
Continuous
 62
     7
370
    15
100
AcDbCircle
 10
2091.680919754725
 20
1058.375623015868
 30
0.0
 40
2.900000000000039
100
AcDbArc
 50
191.8619682557529
 51
347.9808803345359
  0
LINE
  5
B0E
330
983
100
AcDbEntity
  8
0
  6
Continuous
 62
     7
370
    15
100
AcDbLine
 10
2092.115374025922
 20
1056.437914597051
 30
0.0
 11
2092.178176832419
 21
1056.374939030217
 31
0.0
  0
LINE
  5
B0F
330
983
100
AcDbEntity
  8
0
  6
Continuous
 62
     7
370
    15
100
AcDbLine
 10
2092.115374025922
 20
1056.437914597051
 30
0.0
 11
2092.117292550426
 21
1057.837913382979
 31
0.0
  0
LINE
  5
B10
330
983
100
AcDbEntity
  8
0
  6
Continuous
 62
     7
370
    15
100
AcDbLine
 10
2088.830359024029
 20
1057.842421217071
 30
0.0
 11
2091.243073088151
 21
1057.839112227964
 31
0.0
  0
ARC
  5
B11
330
983
100
AcDbEntity
  8
0
  6
Continuous
 62
     7
370
    15
100
AcDbCircle
 10
2091.680919754725
 20
1058.375623015868
 30
0.0
 40
2.900000000000042
100
AcDbArc
 50
190.5948338650435
 51
191.8619682557529
  0
LINE
  5
B12
330
983
100
AcDbEntity
  8
0
  6
Continuous
 62
     7
370
    15
100
AcDbLine
 10
2145.841154945117
 20
1056.439113674866
 30
0.0
 11
2146.715376270037
 21
1056.437914597051
 31
0.0
  0
LINE
  5
B13
330
983
100
AcDbEntity
  8
0
  6
Continuous
 62
     7
370
    15
100
AcDbLine
 10
2138.041149568778
 20
1056.439113674866
 30
0.0
 11
2138.915370893698
 21
1056.437914597051
 31
0.0
  0
LINE
  5
B14
330
983
100
AcDbEntity
  8
0
  6
Continuous
 62
     7
370
    15
100
AcDbLine
 10
2130.241151643019
 20
1056.439113674866
 30
0.0
 11
2131.11537296794
 21
1056.437914597051
 31
0.0
  0
LINE
  5
B15
330
983
100
AcDbEntity
  8
0
  6
Continuous
 62
     7
370
    15
100
AcDbLine
 10
2122.441153717261
 20
1056.439113674866
 30
0.0
 11
2123.315375042182
 21
1056.437914597051
 31
0.0
  0
LINE
  5
B16
330
983
100
AcDbEntity
  8
0
  6
Continuous
 62
     7
370
    15
100
AcDbLine
 10
2177.041154098731
 20
1056.439113674866
 30
0.0
 11
2177.915375423651
 21
1056.437914597051
 31
0.0
  0
LINE
  5
B17
330
983
100
AcDbEntity
  8
0
  6
Continuous
 62
     7
370
    15
100
AcDbLine
 10
2169.241156172972
 20
1056.439113674866
 30
0.0
 11
2170.115370047312
 21
1056.437914597051
 31
0.0
  0
LINE
  5
B18
330
983
100
AcDbEntity
  8
0
  6
Continuous
 62
     7
370
    15
100
AcDbLine
 10
2161.441150796633
 20
1056.439113674866
 30
0.0
 11
2162.315372121554
 21
1056.437914597051
 31
0.0
  0
LINE
  5
B19
330
983
100
AcDbEntity
  8
0
  6
Continuous
 62
     7
370
    15
100
AcDbLine
 10
2153.641152870875
 20
1056.439113674866
 30
0.0
 11
2154.515374195796
 21
1056.437914597051
 31
0.0
  0
LINE
  5
B1A
330
983
100
AcDbEntity
  8
0
  6
Continuous
 62
     7
370
    15
100
AcDbLine
 10
2114.641152066212
 20
1056.439113674866
 30
0.0
 11
2115.515373391133
 21
1056.437914597051
 31
0.0
  0
LINE
  5
B1B
330
983
100
AcDbEntity
  8
0
  6
Continuous
 62
     7
370
    15
100
AcDbLine
 10
2106.841154140454
 20
1056.439113674866
 30
0.0
 11
2107.715371740084
 21
1056.437914597051
 31
0.0
  0
LINE
  5
B1C
330
983
100
AcDbEntity
  8
0
  6
Continuous
 62
     7
370
    15
100
AcDbLine
 10
2099.041152489405
 20
1056.439113674866
 30
0.0
 11
2099.915373814326
 21
1056.437914597051
 31
0.0
  0
LINE
  5
B1D
330
983
100
AcDbEntity
  8
0
  6
Continuous
 62
     7
370
    15
100
AcDbLine
 10
2091.241152701002
 20
1056.439113674866
 30
0.0
 11
2092.115374025922
 21
1056.437914597051
 31
0.0
  0
ARC
  5
B1E
330
983
100
AcDbEntity
  8
0
  6
Continuous
 62
     7
370
    15
100
AcDbCircle
 10
2138.480919754725
 20
1058.375623015868
 30
0.0
 40
2.900000000000042
100
AcDbArc
 50
169.2480147252266
 51
190.5948338650435
  0
ARC
  5
B1F
330
983
100
AcDbEntity
  8
0
  6
Continuous
 62
     7
370
    15
100
AcDbCircle
 10
2138.480919754725
 20
1058.375623015868
 30
0.0
 40
2.899999999999975
100
AcDbArc
 50
349.2480147252266
 51
10.59483386504108
  0
ARC
  5
B20
330
983
100
AcDbEntity
  8
0
  6
Continuous
 62
     7
370
    15
100
AcDbCircle
 10
2130.680919754725
 20
1058.375623015868
 30
0.0
 40
2.90000000000002
100
AcDbArc
 50
169.2480147252266
 51
190.5948338650435
  0
ARC
  5
B21
330
983
100
AcDbEntity
  8
0
  6
Continuous
 62
     7
370
    15
100
AcDbCircle
 10
2130.680919754725
 20
1058.375623015868
 30
0.0
 40
2.900000000000003
100
AcDbArc
 50
349.2480147252266
 51
10.59483386504108
  0
ARC
  5
B22
330
983
100
AcDbEntity
  8
0
  6
Continuous
 62
     7
370
    15
100
AcDbCircle
 10
2146.280919754725
 20
1058.375623015868
 30
0.0
 40
2.90000000000002
100
AcDbArc
 50
169.2480147252266
 51
190.5948338650435
  0
ARC
  5
B23
330
983
100
AcDbEntity
  8
0
  6
Continuous
 62
     7
370
    15
100
AcDbCircle
 10
2146.280919754725
 20
1058.375623015868
 30
0.0
 40
2.900000000000003
100
AcDbArc
 50
349.2480147252266
 51
10.59483386504108
  0
ARC
  5
B24
330
983
100
AcDbEntity
  8
0
  6
Continuous
 62
     7
370
    15
100
AcDbCircle
 10
2177.480919754725
 20
1058.375623015868
 30
0.0
 40
2.900000000000042
100
AcDbArc
 50
169.2480147252266
 51
190.5948338650435
  0
ARC
  5
B25
330
983
100
AcDbEntity
  8
0
  6
Continuous
 62
     7
370
    15
100
AcDbCircle
 10
2177.480919754725
 20
1058.375623015868
 30
0.0
 40
2.900000000000003
100
AcDbArc
 50
349.2480147252266
 51
10.59483386504108
  0
ARC
  5
B26
330
983
100
AcDbEntity
  8
0
  6
Continuous
 62
     7
370
    15
100
AcDbCircle
 10
2169.680919754725
 20
1058.375623015868
 30
0.0
 40
2.900000000000014
100
AcDbArc
 50
169.2480147252266
 51
190.5948338650435
  0
ARC
  5
B27
330
983
100
AcDbEntity
  8
0
  6
Continuous
 62
     7
370
    15
100
AcDbCircle
 10
2169.680919754725
 20
1058.375623015868
 30
0.0
 40
2.900000000000003
100
AcDbArc
 50
349.2480147252266
 51
10.59483386504108
  0
ARC
  5
B28
330
983
100
AcDbEntity
  8
0
  6
Continuous
 62
     7
370
    15
100
AcDbCircle
 10
2122.880919754726
 20
1058.375623015868
 30
0.0
 40
2.900000000000014
100
AcDbArc
 50
169.2480147252266
 51
190.5948338650435
  0
ARC
  5
B29
330
983
100
AcDbEntity
  8
0
  6
Continuous
 62
     7
370
    15
100
AcDbCircle
 10
2122.880919754726
 20
1058.375623015868
 30
0.0
 40
2.900000000000003
100
AcDbArc
 50
349.2480147252266
 51
10.59483386504108
  0
ARC
  5
B2A
330
983
100
AcDbEntity
  8
0
  6
Continuous
 62
     7
370
    15
100
AcDbCircle
 10
2154.080919754725
 20
1058.375623015868
 30
0.0
 40
2.900000000000042
100
AcDbArc
 50
169.2480147252266
 51
190.5948338650435
  0
ARC
  5
B2B
330
983
100
AcDbEntity
  8
0
  6
Continuous
 62
     7
370
    15
100
AcDbCircle
 10
2154.080919754725
 20
1058.375623015868
 30
0.0
 40
2.900000000000003
100
AcDbArc
 50
349.2480147252266
 51
10.59483386504108
  0
ARC
  5
B2C
330
983
100
AcDbEntity
  8
0
  6
Continuous
 62
     7
370
    15
100
AcDbCircle
 10
2115.080919754725
 20
1058.375623015868
 30
0.0
 40
2.90000000000002
100
AcDbArc
 50
169.2480147252266
 51
190.5948338650435
  0
ARC
  5
B2D
330
983
100
AcDbEntity
  8
0
  6
Continuous
 62
     7
370
    15
100
AcDbCircle
 10
2115.080919754725
 20
1058.375623015868
 30
0.0
 40
2.900000000000003
100
AcDbArc
 50
349.2480147252266
 51
10.59483386504108
  0
ARC
  5
B2E
330
983
100
AcDbEntity
  8
0
  6
Continuous
 62
     7
370
    15
100
AcDbCircle
 10
2161.880919754725
 20
1058.375623015868
 30
0.0
 40
2.900000000000042
100
AcDbArc
 50
169.2480147252266
 51
190.5948338650435
  0
ARC
  5
B2F
330
983
100
AcDbEntity
  8
0
  6
Continuous
 62
     7
370
    15
100
AcDbCircle
 10
2161.880919754725
 20
1058.375623015868
 30
0.0
 40
2.899999999999975
100
AcDbArc
 50
349.2480147252266
 51
10.59483386504108
  0
ARC
  5
B30
330
983
100
AcDbEntity
  8
0
  6
Continuous
 62
     7
370
    15
100
AcDbCircle
 10
2099.480919754725
 20
1058.375623015868
 30
0.0
 40
2.90000000000002
100
AcDbArc
 50
169.2480147252266
 51
190.5948338650435
  0
ARC
  5
B31
330
983
100
AcDbEntity
  8
0
  6
Continuous
 62
     7
370
    15
100
AcDbCircle
 10
2099.480919754725
 20
1058.375623015868
 30
0.0
 40
2.900000000000003
100
AcDbArc
 50
349.2480147252266
 51
10.59483386504108
  0
ARC
  5
B32
330
983
100
AcDbEntity
  8
0
  6
Continuous
 62
     7
370
    15
100
AcDbCircle
 10
2091.680919754725
 20
1058.375623015868
 30
0.0
 40
2.900000000000042
100
AcDbArc
 50
169.2480147252266
 51
190.5948338650435
  0
ARC
  5
B33
330
983
100
AcDbEntity
  8
0
  6
Continuous
 62
     7
370
    15
100
AcDbCircle
 10
2091.680919754725
 20
1058.375623015868
 30
0.0
 40
2.900000000000003
100
AcDbArc
 50
349.2480147252266
 51
10.59483386504108
  0
ARC
  5
B34
330
983
100
AcDbEntity
  8
0
  6
Continuous
 62
     7
370
    15
100
AcDbCircle
 10
2107.280919754725
 20
1058.375623015868
 30
0.0
 40
2.900000000000042
100
AcDbArc
 50
169.2480147252266
 51
190.5948338650435
  0
ARC
  5
B35
330
983
100
AcDbEntity
  8
0
  6
Continuous
 62
     7
370
    15
100
AcDbCircle
 10
2107.280919754725
 20
1058.375623015868
 30
0.0
 40
2.900000000000003
100
AcDbArc
 50
349.2480147252266
 51
10.59483386504108
  0
LINE
  5
B36
330
983
100
AcDbEntity
  8
0
  6
Continuous
 62
     7
370
    15
100
AcDbLine
 10
2188.580918801051
 20
1055.125622881757
 30
0.0
 11
2188.580918801051
 21
1061.625623015868
 31
0.0
  0
LINE
  5
B37
330
983
100
AcDbEntity
  8
0
  6
Continuous
 62
     7
370
    15
100
AcDbLine
 10
2188.580918801051
 20
1055.125622881757
 30
0.0
 11
2080.580919724923
 21
1055.125622881757
 31
0.0
  0
LINE
  5
B38
330
983
100
AcDbEntity
  8
0
  6
Continuous
 62
     7
370
    15
100
AcDbLine
 10
2080.580919724923
 20
1055.125622881757
 30
0.0
 11
2080.580919724923
 21
1061.625623015868
 31
0.0
  0
LINE
  5
B39
330
983
100
AcDbEntity
  8
0
  6
Continuous
 62
     7
370
    15
100
AcDbLine
 10
2188.580918801051
 20
1061.625623015868
 30
0.0
 11
2080.580919724923
 21
1061.625623015868
 31
0.0
  0
CIRCLE
  5
B3A
330
983
100
AcDbEntity
  8
0
  6
Continuous
 62
     7
370
    15
100
AcDbCircle
 10
2083.880919754725
 20
1058.375623015868
 30
0.0
 40
2.099999999999994
  0
CIRCLE
  5
B3B
330
983
100
AcDbEntity
  8
0
  6
Continuous
 62
     7
370
    15
100
AcDbCircle
 10
2185.280919754726
 20
1058.375623015868
 30
0.0
 40
2.099999999999994
  0
ENDBLK
  5
985
330
983
100
AcDbEntity
  8
0
100
AcDbBlockEnd
  0
BLOCK
  5
B3E
330
B3D
100
AcDbEntity
  8
0
100
AcDbBlockBegin
  2
4
 70
     0
 10
0.0
 20
0.0
 30
0.0
  3
4
  1

  0
LINE
  5
B40
330
B3D
100
AcDbEntity
  8
0
  6
Continuous
 62
     7
370
    15
100
AcDbLine
 10
2049.152414973993
 20
1096.068978162319
 30
0.0
 11
2049.152414973993
 21
1093.068978601903
 31
0.0
  0
LINE
  5
B41
330
B3D
100
AcDbEntity
  8
0
  6
Continuous
 62
     7
370
    15
100
AcDbLine
 10
2054.952414783817
 20
1093.068978601903
 30
0.0
 11
2054.952414783817
 21
1096.068978162319
 31
0.0
  0
LINE
  5
B42
330
B3D
100
AcDbEntity
  8
0
  6
Continuous
 62
     7
370
    15
100
AcDbLine
 10
2048.802414637227
 20
1081.068978497595
 30
0.0
 11
2055.302414771337
 21
1081.068978497595
 31
0.0
  0
LINE
  5
B43
330
B3D
100
AcDbEntity
  8
0
  6
Continuous
 62
     7
370
    15
100
AcDbLine
 10
2048.802414637227
 20
1081.068978497595
 30
0.0
 11
2048.802414637227
 21
1093.068978601903
 31
0.0
  0
LINE
  5
B44
330
B3D
100
AcDbEntity
  8
0
  6
Continuous
 62
     7
370
    15
100
AcDbLine
 10
2055.302414771337
 20
1081.068978497595
 30
0.0
 11
2055.302414771337
 21
1093.068978601903
 31
0.0
  0
LINE
  5
B45
330
B3D
100
AcDbEntity
  8
0
  6
Continuous
 62
     7
370
    15
100
AcDbLine
 10
2048.802414637227
 20
1093.068978601903
 30
0.0
 11
2055.302414771337
 21
1093.068978601903
 31
0.0
  0
ELLIPSE
  5
B46
330
B3D
100
AcDbEntity
  8
0
  6
Continuous
 62
     7
370
    15
100
AcDbEllipse
 10
2052.052414771337
 20
1084.620296484958
 30
0.0
 11
-2.899997287998473
 21
55.33529639723034
 31
0.0
210
0.0
220
0.0
230
1.0
 40
0.0000716753940366
 41
4.898671363443247
 42
4.920787030627534
  0
LINE
  5
B47
330
B3D
100
AcDbEntity
  8
0
  6
Continuous
 62
     7
370
    15
100
AcDbLine
 10
2051.448524424974
 20
1096.068978162319
 30
0.0
 11
2049.152414973993
 21
1096.068978162319
 31
0.0
  0
ELLIPSE
  5
B48
330
B3D
100
AcDbEntity
  8
0
  6
Continuous
 62
     7
370
    15
100
AcDbEllipse
 10
2052.052414771337
 20
1084.620296484958
 30
0.0
 11
-2.899997287998473
 21
55.33529639723034
 31
0.0
210
0.0
220
0.0
230
1.0
 40
0.0000716753940366
 41
1.36239076387212
 42
1.384506431054056
  0
LINE
  5
B49
330
B3D
100
AcDbEntity
  8
0
  6
Continuous
 62
     7
370
    15
100
AcDbLine
 10
2052.585616668854
 20
1094.868978338153
 30
0.0
 11
2051.511396382172
 21
1094.868978338153
 31
0.0
  0
ELLIPSE
  5
B4A
330
B3D
100
AcDbEntity
  8
0
  6
Continuous
 62
     7
370
    15
100
AcDbEllipse
 10
2052.052414771337
 20
1084.620296484958
 30
0.0
 11
2.899997287849657
 21
55.33529639439286
 31
0.0
210
0.0
220
0.0
230
1.0
 40
0.0000716753940413
 41
1.362398276548835
 42
1.384513943732894
  0
LINE
  5
B4B
330
B3D
100
AcDbEntity
  8
0
  6
Continuous
 62
     7
370
    15
100
AcDbLine
 10
2054.952414783817
 20
1096.068978162319
 30
0.0
 11
2052.648523084987
 21
1096.068978162319
 31
0.0
  0
LINE
  5
B4C
330
B3D
100
AcDbEntity
  8
0
  6
Continuous
 62
     7
370
    15
100
AcDbLine
 10
2051.448524424974
 20
1096.068978162319
 30
0.0
 11
2051.451729571614
 21
1096.068978162319
 31
0.0
  0
LINE
  5
B4D
330
B3D
100
AcDbEntity
  8
0
  6
Continuous
 62
     7
370
    15
100
AcDbLine
 10
2051.514705138449
 20
1094.868978338153
 30
0.0
 11
2051.451729571614
 21
1096.068978162319
 31
0.0
  0
LINE
  5
B4E
330
B3D
100
AcDbEntity
  8
0
  6
Continuous
 62
     7
370
    15
100
AcDbLine
 10
2051.453100944105
 20
1096.068978162319
 30
0.0
 11
2051.515903983433
 21
1094.868978338153
 31
0.0
  0
LINE
  5
B4F
330
B3D
100
AcDbEntity
  8
0
  6
Continuous
 62
     7
370
    15
100
AcDbLine
 10
2051.453100944105
 20
1096.068978162319
 30
0.0
 11
2051.456306323577
 21
1096.068978162319
 31
0.0
  0
ENDBLK
  5
B3F
330
B3D
100
AcDbEntity
  8
0
100
AcDbBlockEnd
  0
BLOCK
  5
B52
330
B51
100
AcDbEntity
  8
0
100
AcDbBlockBegin
  2
3
 70
     0
 10
0.0
 20
0.0
 30
0.0
  3
3
  1

  0
LINE
  5
B54
330
B51
100
AcDbEntity
  8
0
  6
Continuous
 62
     7
370
    15
100
AcDbLine
 10
2280.59083308508
 20
1067.661198191453
 30
0.0
 11
2280.59083308508
 21
1065.211575755796
 31
0.0
  0
LINE
  5
B55
330
B51
100
AcDbEntity
  8
0
  6
Continuous
 62
     7
370
    15
100
AcDbLine
 10
2286.39083308508
 20
1065.211575755796
 30
0.0
 11
2286.39083308508
 21
1067.661198191453
 31
0.0
  0
LINE
  5
B56
330
B51
100
AcDbEntity
  8
0
  6
Continuous
 62
     7
370
    15
100
AcDbLine
 10
2275.075400191825
 20
1070.845189827562
 30
0.0
 11
2275.075400191825
 21
1068.395567391905
 31
0.0
  0
LINE
  5
B57
330
B51
100
AcDbEntity
  8
0
  6
Continuous
 62
     7
370
    15
100
AcDbLine
 10
2280.875400191825
 20
1068.395567391905
 30
0.0
 11
2280.875400191825
 21
1070.845189827562
 31
0.0
  0
LINE
  5
B58
330
B51
100
AcDbEntity
  8
0
  6
Continuous
 62
     7
370
    15
100
AcDbLine
 10
2269.55996729857
 20
1074.029181463671
 30
0.0
 11
2269.55996729857
 21
1071.579559028013
 31
0.0
  0
LINE
  5
B59
330
B51
100
AcDbEntity
  8
0
  6
Continuous
 62
     7
370
    15
100
AcDbLine
 10
2275.35996729857
 20
1071.579559028013
 30
0.0
 11
2275.35996729857
 21
1074.029181463671
 31
0.0
  0
LINE
  5
B5A
330
B51
100
AcDbEntity
  8
0
  6
Continuous
 62
     7
370
    15
100
AcDbLine
 10
2264.044534405314
 20
1077.213173099779
 30
0.0
 11
2264.044534405314
 21
1074.763550664122
 31
0.0
  0
LINE
  5
B5B
330
B51
100
AcDbEntity
  8
0
  6
Continuous
 62
     7
370
    15
100
AcDbLine
 10
2269.844534405315
 20
1074.763550664122
 30
0.0
 11
2269.844534405315
 21
1077.213173099779
 31
0.0
  0
LINE
  5
B5C
330
B51
100
AcDbEntity
  8
0
  6
Continuous
 62
     7
370
    15
100
AcDbLine
 10
2258.52910151206
 20
1080.397164735888
 30
0.0
 11
2258.52910151206
 21
1077.94754230023
 31
0.0
  0
LINE
  5
B5D
330
B51
100
AcDbEntity
  8
0
  6
Continuous
 62
     7
370
    15
100
AcDbLine
 10
2264.32910151206
 20
1077.94754230023
 30
0.0
 11
2264.32910151206
 21
1080.397164735888
 31
0.0
  0
LINE
  5
B5E
330
B51
100
AcDbEntity
  8
0
  6
Continuous
 62
     7
370
    15
100
AcDbLine
 10
2253.013668618805
 20
1083.581156371996
 30
0.0
 11
2253.013668618805
 21
1081.131533936339
 31
0.0
  0
LINE
  5
B5F
330
B51
100
AcDbEntity
  8
0
  6
Continuous
 62
     7
370
    15
100
AcDbLine
 10
2258.813668618805
 20
1081.131533936339
 30
0.0
 11
2258.813668618805
 21
1083.581156371996
 31
0.0
  0
LINE
  5
B60
330
B51
100
AcDbEntity
  8
0
  6
Continuous
 62
     7
370
    15
100
AcDbLine
 10
2247.498235725549
 20
1086.765148008105
 30
0.0
 11
2247.498235725549
 21
1084.315525572447
 31
0.0
  0
LINE
  5
B61
330
B51
100
AcDbEntity
  8
0
  6
Continuous
 62
     7
370
    15
100
AcDbLine
 10
2253.29823572555
 20
1084.315525572447
 30
0.0
 11
2253.29823572555
 21
1086.765148008105
 31
0.0
  0
LINE
  5
B62
330
B51
100
AcDbEntity
  8
0
  6
Continuous
 62
     7
370
    15
100
AcDbLine
 10
2241.982802832295
 20
1089.949139644213
 30
0.0
 11
2241.982802832295
 21
1087.499517208556
 31
0.0
  0
LINE
  5
B63
330
B51
100
AcDbEntity
  8
0
  6
Continuous
 62
     7
370
    15
100
AcDbLine
 10
2247.782802832295
 20
1087.499517208556
 30
0.0
 11
2247.782802832295
 21
1089.949139644213
 31
0.0
  0
LINE
  5
B64
330
B51
100
AcDbEntity
  8
0
  6
Continuous
 62
     7
370
    15
100
AcDbLine
 10
2236.46736993904
 20
1093.133131280322
 30
0.0
 11
2236.46736993904
 21
1090.683508844665
 31
0.0
  0
LINE
  5
B65
330
B51
100
AcDbEntity
  8
0
  6
Continuous
 62
     7
370
    15
100
AcDbLine
 10
2242.267369939039
 20
1090.683508844665
 30
0.0
 11
2242.267369939039
 21
1093.133131280322
 31
0.0
  0
LINE
  5
B66
330
B51
100
AcDbEntity
  8
0
  6
Continuous
 62
     7
370
    15
100
AcDbLine
 10
2230.951937045784
 20
1096.31712291643
 30
0.0
 11
2230.951937045784
 21
1093.867500480773
 31
0.0
  0
LINE
  5
B67
330
B51
100
AcDbEntity
  8
0
  6
Continuous
 62
     7
370
    15
100
AcDbLine
 10
2236.751937045784
 20
1093.867500480773
 30
0.0
 11
2236.751937045784
 21
1096.31712291643
 31
0.0
  0
LINE
  5
B68
330
B51
100
AcDbEntity
  8
0
  6
Continuous
 62
     7
370
    15
100
AcDbLine
 10
2225.436504152529
 20
1099.501114552539
 30
0.0
 11
2225.436504152529
 21
1097.051492116882
 31
0.0
  0
LINE
  5
B69
330
B51
100
AcDbEntity
  8
0
  6
Continuous
 62
     7
370
    15
100
AcDbLine
 10
2231.23650415253
 20
1097.051492116882
 30
0.0
 11
2231.23650415253
 21
1099.501114552539
 31
0.0
  0
LINE
  5
B6A
330
B51
100
AcDbEntity
  8
0
  6
Continuous
 62
     7
370
    15
100
AcDbLine
 10
2219.921071259275
 20
1102.685106188648
 30
0.0
 11
2219.921071259275
 21
1100.23548375299
 31
0.0
  0
LINE
  5
B6B
330
B51
100
AcDbEntity
  8
0
  6
Continuous
 62
     7
370
    15
100
AcDbLine
 10
2225.721071259274
 20
1100.23548375299
 30
0.0
 11
2225.721071259274
 21
1102.685106188648
 31
0.0
  0
LWPOLYLINE
  5
B6C
330
B51
100
AcDbEntity
  8
0
  6
Continuous
 62
     7
370
    15
100
AcDbPolyline
 90
       19
 70
   128
 43
0.0
 10
2219.921071259275
 20
1100.23548375299
 10
2219.926362152027
 20
1100.134402035546
 10
2219.991935511818
 20
1099.867650934396
 10
2220.130782001391
 20
1099.610426510034
 10
2220.3393055696
 20
1099.369390739937
 10
2220.61210556556
 20
1099.15078632394
 10
2220.942116612671
 20
1098.960275001591
 10
2221.320791598159
 20
1098.802790916066
 10
2221.73832303881
 20
1098.682412822459
 10
2222.183897089629
 20
1098.602258450162
 10
2222.64597361675
 20
1098.564403755314
 10
2223.112585080837
 20
1098.569829154628
 10
2223.571646490071
 20
1098.618394133112
 10
2224.011268395088
 20
1098.708840883333
 10
2224.420064819467
 20
1098.838826881969
 10
2224.787448150551
 20
1099.004985559935
 10
2225.103903353041
 20
1099.203013494749
 10
2225.361234403418
 20
1099.427781866921
 10
2225.436569293551
 20
1099.51233554194
  0
LWPOLYLINE
  5
B6D
330
B51
100
AcDbEntity
  8
0
  6
Continuous
 62
     7
370
    15
100
AcDbPolyline
 90
       19
 70
   128
 43
0.0
 10
2225.436504152529
 20
1097.051492116882
 10
2225.441795045282
 20
1096.950410399437
 10
2225.507368405073
 20
1096.683659298287
 10
2225.646214894646
 20
1096.426434873925
 10
2225.854738462855
 20
1096.185399103828
 10
2226.127538458815
 20
1095.966794687831
 10
2226.457549505926
 20
1095.776283365482
 10
2226.836224491414
 20
1095.618799279957
 10
2227.253755932065
 20
1095.49842118635
 10
2227.699329982884
 20
1095.418266814053
 10
2228.161406510005
 20
1095.380412119206
 10
2228.628017974092
 20
1095.38583751852
 10
2229.087079383326
 20
1095.434402497004
 10
2229.526701288342
 20
1095.524849247224
 10
2229.935497712722
 20
1095.654835245861
 10
2230.302881043806
 20
1095.820993923826
 10
2230.619336246296
 20
1096.019021858641
 10
2230.876667296674
 20
1096.243790230812
 10
2230.952002186806
 20
1096.328343905831
  0
LWPOLYLINE
  5
B6E
330
B51
100
AcDbEntity
  8
0
  6
Continuous
 62
     7
370
    15
100
AcDbPolyline
 90
       19
 70
   128
 43
0.0
 10
2230.951937045784
 20
1093.867500480773
 10
2230.957227938537
 20
1093.766418763329
 10
2231.022801298328
 20
1093.499667662179
 10
2231.161647787902
 20
1093.242443237817
 10
2231.370171356111
 20
1093.00140746772
 10
2231.64297135207
 20
1092.782803051723
 10
2231.972982399181
 20
1092.592291729373
 10
2232.351657384669
 20
1092.434807643849
 10
2232.76918882532
 20
1092.314429550242
 10
2233.214762876139
 20
1092.234275177945
 10
2233.67683940326
 20
1092.196420483097
 10
2234.143450867347
 20
1092.201845882411
 10
2234.602512276582
 20
1092.250410860895
 10
2235.042134181597
 20
1092.340857611116
 10
2235.450930605977
 20
1092.470843609752
 10
2235.818313937061
 20
1092.637002287718
 10
2236.134769139551
 20
1092.835030222532
 10
2236.392100189929
 20
1093.059798594704
 10
2236.467435080061
 20
1093.144352269722
  0
LWPOLYLINE
  5
B6F
330
B51
100
AcDbEntity
  8
0
  6
Continuous
 62
     7
370
    15
100
AcDbPolyline
 90
       19
 70
   128
 43
0.0
 10
2236.46736993904
 20
1090.683508844665
 10
2236.472660831792
 20
1090.58242712722
 10
2236.538234191583
 20
1090.31567602607
 10
2236.677080681157
 20
1090.058451601708
 10
2236.885604249366
 20
1089.817415831611
 10
2237.158404245325
 20
1089.598811415614
 10
2237.488415292436
 20
1089.408300093265
 10
2237.867090277924
 20
1089.25081600774
 10
2238.284621718575
 20
1089.130437914133
 10
2238.730195769394
 20
1089.050283541836
 10
2239.192272296515
 20
1089.012428846989
 10
2239.658883760602
 20
1089.017854246303
 10
2240.117945169837
 20
1089.066419224787
 10
2240.557567074853
 20
1089.156865975007
 10
2240.966363499233
 20
1089.286851973643
 10
2241.333746830316
 20
1089.453010651609
 10
2241.650202032806
 20
1089.651038586423
 10
2241.907533083184
 20
1089.875806958595
 10
2241.982867973316
 20
1089.960360633614
  0
LWPOLYLINE
  5
B70
330
B51
100
AcDbEntity
  8
0
  6
Continuous
 62
     7
370
    15
100
AcDbPolyline
 90
       19
 70
   128
 43
0.0
 10
2241.982802832295
 20
1087.499517208556
 10
2241.988093725047
 20
1087.398435491111
 10
2242.053667084838
 20
1087.131684389961
 10
2242.192513574412
 20
1086.874459965599
 10
2242.40103714262
 20
1086.633424195502
 10
2242.67383713858
 20
1086.414819779506
 10
2243.003848185691
 20
1086.224308457156
 10
2243.382523171179
 20
1086.066824371632
 10
2243.80005461183
 20
1085.946446278025
 10
2244.24562866265
 20
1085.866291905728
 10
2244.70770518977
 20
1085.82843721088
 10
2245.174316653858
 20
1085.833862610194
 10
2245.633378063092
 20
1085.882427588678
 10
2246.072999968108
 20
1085.972874338899
 10
2246.481796392488
 20
1086.102860337535
 10
2246.849179723571
 20
1086.2690190155
 10
2247.16563492606
 20
1086.467046950315
 10
2247.422965976439
 20
1086.691815322486
 10
2247.49830086657
 20
1086.776368997505
  0
LWPOLYLINE
  5
B71
330
B51
100
AcDbEntity
  8
0
  6
Continuous
 62
     7
370
    15
100
AcDbPolyline
 90
       19
 70
   128
 43
0.0
 10
2247.498235725549
 20
1084.315525572447
 10
2247.503526618302
 20
1084.214443855003
 10
2247.569099978093
 20
1083.947692753853
 10
2247.707946467667
 20
1083.690468329491
 10
2247.916470035876
 20
1083.449432559394
 10
2248.189270031835
 20
1083.230828143397
 10
2248.519281078946
 20
1083.040316821048
 10
2248.897956064434
 20
1082.882832735523
 10
2249.315487505085
 20
1082.762454641916
 10
2249.761061555904
 20
1082.682300269619
 10
2250.223138083025
 20
1082.644445574771
 10
2250.689749547113
 20
1082.649870974086
 10
2251.148810956347
 20
1082.698435952569
 10
2251.588432861362
 20
1082.78888270279
 10
2251.997229285743
 20
1082.918868701426
 10
2252.364612616826
 20
1083.085027379392
 10
2252.681067819316
 20
1083.283055314206
 10
2252.938398869694
 20
1083.507823686378
 10
2253.013733759825
 20
1083.592377361395
  0
LWPOLYLINE
  5
B72
330
B51
100
AcDbEntity
  8
0
  6
Continuous
 62
     7
370
    15
100
AcDbPolyline
 90
       19
 70
   128
 43
0.0
 10
2253.013668618805
 20
1081.131533936339
 10
2253.018959511557
 20
1081.030452218894
 10
2253.084532871348
 20
1080.763701117744
 10
2253.223379360921
 20
1080.506476693382
 10
2253.431902929131
 20
1080.265440923285
 10
2253.70470292509
 20
1080.046836507289
 10
2254.034713972201
 20
1079.856325184939
 10
2254.41338895769
 20
1079.698841099415
 10
2254.83092039834
 20
1079.578463005807
 10
2255.276494449159
 20
1079.49830863351
 10
2255.73857097628
 20
1079.460453938663
 10
2256.205182440368
 20
1079.465879337977
 10
2256.664243849602
 20
1079.514444316461
 10
2257.103865754618
 20
1079.604891066682
 10
2257.512662178998
 20
1079.734877065318
 10
2257.880045510082
 20
1079.901035743283
 10
2258.196500712571
 20
1080.099063678098
 10
2258.453831762949
 20
1080.323832050269
 10
2258.529166653079
 20
1080.408385725285
  0
LWPOLYLINE
  5
B73
330
B51
100
AcDbEntity
  8
0
  6
Continuous
 62
     7
370
    15
100
AcDbPolyline
 90
       19
 70
   128
 43
0.0
 10
2258.52910151206
 20
1077.94754230023
 10
2258.534392404812
 20
1077.846460582786
 10
2258.599965764603
 20
1077.579709481636
 10
2258.738812254176
 20
1077.322485057274
 10
2258.947335822385
 20
1077.081449287176
 10
2259.220135818345
 20
1076.86284487118
 10
2259.550146865456
 20
1076.672333548831
 10
2259.928821850945
 20
1076.514849463306
 10
2260.346353291595
 20
1076.394471369699
 10
2260.791927342415
 20
1076.314316997402
 10
2261.254003869535
 20
1076.276462302554
 10
2261.720615333623
 20
1076.281887701869
 10
2262.179676742857
 20
1076.330452680352
 10
2262.619298647873
 20
1076.420899430573
 10
2263.028095072252
 20
1076.550885429209
 10
2263.395478403336
 20
1076.717044107175
 10
2263.711933605826
 20
1076.915072041989
 10
2263.969264656203
 20
1077.139840414161
 10
2264.044599546336
 20
1077.224394089179
  0
LWPOLYLINE
  5
B74
330
B51
100
AcDbEntity
  8
0
  6
Continuous
 62
     7
370
    15
100
AcDbPolyline
 90
       19
 70
   128
 43
0.0
 10
2264.044534405314
 20
1074.763550664122
 10
2264.049825298067
 20
1074.662468946677
 10
2264.115398657859
 20
1074.395717845527
 10
2264.254245147432
 20
1074.138493421165
 10
2264.462768715641
 20
1073.897457651068
 10
2264.7355687116
 20
1073.678853235072
 10
2265.065579758711
 20
1073.488341912722
 10
2265.444254744199
 20
1073.330857827198
 10
2265.86178618485
 20
1073.21047973359
 10
2266.30736023567
 20
1073.130325361293
 10
2266.76943676279
 20
1073.092470666446
 10
2267.236048226878
 20
1073.09789606576
 10
2267.695109636112
 20
1073.146461044244
 10
2268.134731541127
 20
1073.236907794464
 10
2268.543527965508
 20
1073.3668937931
 10
2268.910911296591
 20
1073.533052471066
 10
2269.227366499081
 20
1073.731080405881
 10
2269.484697549459
 20
1073.955848778052
 10
2269.560032439583
 20
1074.040402453061
  0
LWPOLYLINE
  5
B75
330
B51
100
AcDbEntity
  8
0
  6
Continuous
 62
     7
370
    15
100
AcDbPolyline
 90
       19
 70
   128
 43
0.0
 10
2269.55996729857
 20
1071.579559028013
 10
2269.565258191322
 20
1071.478477310569
 10
2269.630831551113
 20
1071.211726209419
 10
2269.769678040687
 20
1070.954501785057
 10
2269.978201608896
 20
1070.713466014959
 10
2270.251001604856
 20
1070.494861598963
 10
2270.581012651966
 20
1070.304350276613
 10
2270.959687637454
 20
1070.146866191089
 10
2271.377219078105
 20
1070.026488097482
 10
2271.822793128924
 20
1069.946333725185
 10
2272.284869656045
 20
1069.908479030337
 10
2272.751481120133
 20
1069.913904429651
 10
2273.210542529367
 20
1069.962469408135
 10
2273.650164434383
 20
1070.052916158356
 10
2274.058960858763
 20
1070.182902156992
 10
2274.426344189846
 20
1070.349060834957
 10
2274.742799392337
 20
1070.547088769772
 10
2275.000130442714
 20
1070.771857141943
 10
2275.075465332836
 20
1070.856410816951
  0
LWPOLYLINE
  5
B76
330
B51
100
AcDbEntity
  8
0
  6
Continuous
 62
     7
370
    15
100
AcDbPolyline
 90
       19
 70
   128
 43
0.0
 10
2275.075400191825
 20
1068.395567391905
 10
2275.080691084577
 20
1068.29448567446
 10
2275.146264444368
 20
1068.02773457331
 10
2275.285110933942
 20
1067.770510148948
 10
2275.493634502151
 20
1067.529474378851
 10
2275.766434498111
 20
1067.310869962854
 10
2276.096445545221
 20
1067.120358640505
 10
2276.47512053071
 20
1066.96287455498
 10
2276.892651971361
 20
1066.842496461373
 10
2277.33822602218
 20
1066.762342089076
 10
2277.8003025493
 20
1066.724487394228
 10
2278.266914013388
 20
1066.729912793543
 10
2278.725975422622
 20
1066.778477772027
 10
2279.165597327638
 20
1066.868924522247
 10
2279.574393752018
 20
1066.998910520883
 10
2279.941777083101
 20
1067.165069198849
 10
2280.258232285591
 20
1067.363097133664
 10
2280.515563335969
 20
1067.587865505835
 10
2280.590898226112
 20
1067.672419180867
  0
LWPOLYLINE
  5
B77
330
B51
100
AcDbEntity
  8
0
  6
Continuous
 62
     7
370
    15
100
AcDbPolyline
 90
       22
 70
   128
 43
0.0
 10
2280.59083308508
 20
1065.211575755796
 10
2280.596123977833
 20
1065.110494038352
 10
2280.661697337624
 20
1064.843742937201
 10
2280.800543827197
 20
1064.58651851284
 10
2281.009067395405
 20
1064.345482742742
 10
2281.281867391366
 20
1064.126878326746
 10
2281.611878438476
 20
1063.936367004396
 10
2281.990553423965
 20
1063.778882918872
 10
2282.408084864615
 20
1063.658504825265
 10
2282.853658915435
 20
1063.578350452967
 10
2283.315735442555
 20
1063.54049575812
 10
2283.782346906643
 20
1063.545921157434
 10
2284.241408315878
 20
1063.594486135918
 10
2284.681030220893
 20
1063.684932886139
 10
2285.089826645273
 20
1063.814918884775
 10
2285.457209976357
 20
1063.98107756274
 10
2285.773665178846
 20
1064.179105497555
 10
2286.030996229224
 20
1064.403873869726
 10
2286.222538388455
 20
1064.649561296481
 10
2286.343330815227
 20
1064.909804602519
 10
2286.390245049136
 20
1065.177863622914
 10
2286.39083308508
 20
1065.211575755796
  0
LINE
  5
B78
330
B51
100
AcDbEntity
  8
0
  6
Continuous
 62
     7
370
    15
100
AcDbLine
 10
2289.041621317394
 20
1059.353847553468
 30
0.0
 11
2293.637815395107
 21
1062.007173916892
 31
0.0
  0
LINE
  5
B79
330
B51
100
AcDbEntity
  8
0
  6
Continuous
 62
     7
370
    15
100
AcDbLine
 10
2289.041621317394
 20
1059.353847553468
 30
0.0
 11
2212.674088949248
 21
1103.439885591895
 31
0.0
  0
LINE
  5
B7A
330
B51
100
AcDbEntity
  8
0
  6
Continuous
 62
     7
370
    15
100
AcDbLine
 10
2212.674088949248
 20
1103.439885591895
 30
0.0
 11
2217.27028302696
 21
1106.093211955318
 31
0.0
  0
LINE
  5
B7B
330
B51
100
AcDbEntity
  8
0
  6
Continuous
 62
     7
370
    15
100
AcDbLine
 10
2293.637815395107
 20
1062.007173916892
 30
0.0
 11
2286.39083308508
 21
1066.190767754172
 31
0.0
  0
LINE
  5
B7C
330
B51
100
AcDbEntity
  8
0
  6
Continuous
 62
     7
370
    15
100
AcDbLine
 10
2281.897103247765
 20
1068.784942770686
 30
0.0
 11
2280.875400191825
 21
1069.37475939028
 31
0.0
  0
LINE
  5
B7D
330
B51
100
AcDbEntity
  8
0
  6
Continuous
 62
     7
370
    15
100
AcDbLine
 10
2276.38167035451
 20
1071.968934406794
 30
0.0
 11
2275.35996729857
 21
1072.558751026389
 31
0.0
  0
LINE
  5
B7E
330
B51
100
AcDbEntity
  8
0
  6
Continuous
 62
     7
370
    15
100
AcDbLine
 10
2270.866237461255
 20
1075.152926042903
 30
0.0
 11
2269.844534405315
 21
1075.742742662497
 31
0.0
  0
LINE
  5
B7F
330
B51
100
AcDbEntity
  8
0
  6
Continuous
 62
     7
370
    15
100
AcDbLine
 10
2265.350804567999
 20
1078.336917679012
 30
0.0
 11
2264.32910151206
 21
1078.926734298606
 31
0.0
  0
LINE
  5
B80
330
B51
100
AcDbEntity
  8
0
  6
Continuous
 62
     7
370
    15
100
AcDbLine
 10
2259.835371674745
 20
1081.52090931512
 30
0.0
 11
2258.813668618805
 21
1082.110725934715
 31
0.0
  0
LINE
  5
B81
330
B51
100
AcDbEntity
  8
0
  6
Continuous
 62
     7
370
    15
100
AcDbLine
 10
2254.31993878149
 20
1084.704900951229
 30
0.0
 11
2253.29823572555
 21
1085.294717570823
 31
0.0
  0
LINE
  5
B82
330
B51
100
AcDbEntity
  8
0
  6
Continuous
 62
     7
370
    15
100
AcDbLine
 10
2248.804505888235
 20
1087.888892587337
 30
0.0
 11
2247.782802832295
 21
1088.478709206932
 31
0.0
  0
LINE
  5
B83
330
B51
100
AcDbEntity
  8
0
  6
Continuous
 62
     7
370
    15
100
AcDbLine
 10
2243.28907299498
 20
1091.072884223446
 30
0.0
 11
2242.267369939039
 21
1091.66270084304
 31
0.0
  0
LINE
  5
B84
330
B51
100
AcDbEntity
  8
0
  6
Continuous
 62
     7
370
    15
100
AcDbLine
 10
2237.773640101725
 20
1094.256875859555
 30
0.0
 11
2236.751937045784
 21
1094.846692479149
 31
0.0
  0
LINE
  5
B85
330
B51
100
AcDbEntity
  8
0
  6
Continuous
 62
     7
370
    15
100
AcDbLine
 10
2232.258207208469
 20
1097.440867495663
 30
0.0
 11
2231.23650415253
 21
1098.030684115258
 31
0.0
  0
LINE
  5
B86
330
B51
100
AcDbEntity
  8
0
  6
Continuous
 62
     7
370
    15
100
AcDbLine
 10
2226.742774315214
 20
1100.624859131772
 30
0.0
 11
2225.721071259274
 21
1101.214675751366
 31
0.0
  0
LINE
  5
B87
330
B51
100
AcDbEntity
  8
0
  6
Continuous
 62
     7
370
    15
100
AcDbLine
 10
2221.227341421959
 20
1103.80885076788
 30
0.0
 11
2217.27028302696
 21
1106.093211955318
 31
0.0
  0
LWPOLYLINE
  5
B88
330
B51
100
AcDbEntity
  8
0
  6
Continuous
 62
     7
370
    15
100
AcDbPolyline
 90
       34
 70
   128
 43
0.0
 10
2215.820714125527
 20
1102.562246871685
 10
2216.128572401313
 20
1102.415506544117
 10
2216.478972907879
 20
1102.305052266421
 10
2216.859251257958
 20
1102.23487614398
 10
2217.255663201172
 20
1102.207514524701
 10
2217.653881377053
 20
1102.223956328794
 10
2218.039513143177
 20
1102.283607306622
 10
2218.398620762763
 20
1102.384311516425
 10
2218.718225150792
 20
1102.522429245681
 10
2218.986774971961
 20
1102.69296855979
 10
2219.194564136031
 20
1102.889765723605
 10
2219.334082601227
 20
1103.105707974877
 10
2219.400287806701
 20
1103.332990598012
 10
2219.390786923833
 20
1103.56339900683
 10
2219.305923339285
 20
1103.788605641114
 10
2219.148764244111
 20
1104.000470946331
 10
2218.924989777484
 20
1104.191337558341
 10
2218.642687731669
 20
1104.354307060486
 10
2218.312061238131
 20
1104.483489310348
 10
2217.945059999786
 20
1104.574215324834
 10
2217.5549483976
 20
1104.623206029398
 10
2217.155826081301
 20
1104.628690772331
 10
2216.762118371304
 20
1104.590471320735
 10
2216.388054890043
 20
1104.509929025169
 10
2216.047155266345
 20
1104.389974894046
 10
2215.751740500815
 20
1104.234944382203
 10
2215.512487652775
 20
1104.050440696265
 10
2215.338043943519
 20
1103.843132280162
 10
2215.234714223211
 20
1103.620511800189
 10
2215.206233097164
 20
1103.390625340523
 10
2215.25362994748
 20
1103.161781596782
 10
2215.375191728497
 20
1102.942251578109
 10
2215.566524880725
 20
1102.73996967136
 10
2215.820714125527
 20
1102.562246871685
  0
LWPOLYLINE
  5
B89
330
B51
100
AcDbEntity
  8
0
  6
Continuous
 62
     7
370
    15
100
AcDbPolyline
 90
       34
 70
   128
 43
0.0
 10
2290.491190218827
 20
1062.884812637101
 10
2290.18333194304
 20
1063.03155296467
 10
2289.832931436475
 20
1063.142007242365
 10
2289.452653086396
 20
1063.212183364806
 10
2289.056241143182
 20
1063.239544984086
 10
2288.658022967301
 20
1063.223103179992
 10
2288.272391201177
 20
1063.163452202164
 10
2287.913283581592
 20
1063.062747992361
 10
2287.593679193562
 20
1062.924630263106
 10
2287.325129372394
 20
1062.754090948996
 10
2287.117340208323
 20
1062.557293785181
 10
2286.977821743128
 20
1062.34135153391
 10
2286.911616537654
 20
1062.114068910775
 10
2286.921117420521
 20
1061.883660501957
 10
2287.00598100507
 20
1061.658453867672
 10
2287.163140100244
 20
1061.446588562455
 10
2287.386914566869
 20
1061.255721950446
 10
2287.669216612685
 20
1061.0927524483
 10
2287.999843106223
 20
1060.963570198439
 10
2288.366844344568
 20
1060.872844183952
 10
2288.756955946755
 20
1060.823853479389
 10
2289.156078263054
 20
1060.818368736455
 10
2289.549785973051
 20
1060.856588188052
 10
2289.923849454311
 20
1060.937130483618
 10
2290.264749078009
 20
1061.05708461474
 10
2290.560163843539
 20
1061.212115126584
 10
2290.79941669158
 20
1061.396618812522
 10
2290.973860400834
 20
1061.603927228625
 10
2291.077190121143
 20
1061.826547708598
 10
2291.105671247191
 20
1062.056434168263
 10
2291.058274396874
 20
1062.285277912005
 10
2290.936712615856
 20
1062.504807930677
 10
2290.745379463629
 20
1062.707089837426
 10
2290.491190218827
 20
1062.884812637101
  0
LINE
  5
B8A
330
B51
100
AcDbEntity
  8
0
  6
Continuous
 62
     7
370
    15
100
AcDbLine
 10
2289.041621317394
 20
1049.555357810839
 30
0.0
 11
2293.637815395107
 21
1052.208684174263
 31
0.0
  0
LINE
  5
B8B
330
B51
100
AcDbEntity
  8
0
  6
Continuous
 62
     7
370
    15
100
AcDbLine
 10
2289.041621317394
 20
1049.555357810839
 30
0.0
 11
2289.041621317394
 21
1059.353847553468
 31
0.0
  0
LINE
  5
B8C
330
B51
100
AcDbEntity
  8
0
  6
Continuous
 62
     7
370
    15
100
AcDbLine
 10
2293.637815395107
 20
1052.208684174263
 30
0.0
 11
2293.637815395107
 21
1062.007173916892
 31
0.0
  0
LINE
  5
B8D
330
B51
100
AcDbEntity
  8
0
  6
Continuous
 62
     7
370
    15
100
AcDbLine
 10
2212.674088949248
 20
1093.641395849266
 30
0.0
 11
2289.041621317394
 21
1049.555357810839
 31
0.0
  0
LINE
  5
B8E
330
B51
100
AcDbEntity
  8
0
  6
Continuous
 62
     7
370
    15
100
AcDbLine
 10
2212.674088949248
 20
1103.439885591895
 30
0.0
 11
2212.674088949248
 21
1093.641395849266
 31
0.0
  0
LWPOLYLINE
  5
B8F
330
B51
100
AcDbEntity
  8
0
  6
Continuous
 62
     7
370
    15
100
AcDbPolyline
 90
       40
 70
   128
 43
0.0
 10
2222.644294563978
 20
1092.78496353223
 10
2222.616824022668
 20
1093.193769010694
 10
2222.535123871328
 20
1093.623703453887
 10
2222.401310100964
 20
1094.063631785564
 10
2222.218848417937
 20
1094.502160093018
 10
2221.992464483997
 20
1094.927930723435
 10
2221.728021524118
 20
1095.329916441133
 10
2221.432368472055
 20
1095.697706027179
 10
2221.113162586557
 20
1096.021773924483
 10
2220.778671132389
 20
1096.293726944732
 10
2220.437557262512
 20
1096.50652164755
 10
2220.098655646976
 20
1096.654646761912
 10
2219.770743659609
 20
1096.73426592516
 10
2219.462314048638
 20
1096.743317042791
 10
2219.181354978977
 20
1096.68156569561
 10
2218.93514314295
 20
1096.550611211073
 10
2218.730055297779
 20
1096.353845241544
 10
2218.571403110928
 20
1096.096363922276
 10
2218.4632955907
 20
1095.784835884189
 10
2218.408532665081
 20
1095.427329539832
 10
2218.408532665081
 20
1095.033104115734
 10
2218.4632955907
 20
1094.612369843303
 10
2218.571403110928
 20
1094.176023519192
 10
2218.730055297779
 20
1093.735366283994
 10
2218.93514314295
 20
1093.301810928635
 10
2219.181354978977
 20
1092.886586309081
 10
2219.462314048638
 20
1092.500446524871
 10
2219.770743659609
 20
1092.153392393588
 10
2220.098655646976
 20
1091.854412434932
 10
2220.437557262512
 20
1091.611250072784
 10
2220.778671132389
 20
1091.430203084598
 10
2221.113162586557
 20
1091.315960492268
 10
2221.432368472055
 20
1091.271481118927
 10
2221.728021524118
 20
1091.297916956979
 10
2221.992464483997
 20
1091.394583332106
 10
2222.218848417937
 20
1091.558976635968
 10
2222.401310100964
 20
1091.786839168347
 10
2222.535123871328
 20
1092.072269409346
 10
2222.616824022668
 20
1092.407874865651
 10
2222.644294563978
 20
1092.78496353223
  0
LWPOLYLINE
  5
B90
330
B51
100
AcDbEntity
  8
0
  6
Continuous
 62
     7
370
    15
100
AcDbPolyline
 90
       45
 70
   128
 43
0.0
 10
2228.690057543123
 20
1089.294818854188
 10
2228.663067565115
 20
1089.746171862793
 10
2228.582647069212
 20
1090.219498591043
 10
2228.450433184796
 20
1090.705163471714
 10
2228.269117405281
 20
1091.193279768377
 10
2228.042390797066
 20
1091.673910840842
 10
2227.774868860069
 20
1092.137272426501
 10
2227.471997569457
 20
1092.573931819692
 10
2227.1399425113
 20
1092.974999894394
 10
2226.785463369012
 20
1093.332312061189
 10
2226.415776315697
 20
1093.638594474765
 10
2226.038407113673
 20
1093.887612108427
 10
2225.661037911649
 20
1094.074295681261
 10
2225.291350858335
 20
1094.194844854076
 10
2224.936871716047
 20
1094.246805593348
 10
2224.604816657889
 20
1094.229120128267
 10
2224.301945367277
 20
1094.142148483902
 10
2224.03442343028
 20
1093.987661152127
 10
2223.807696822065
 20
1093.768803049512
 10
2223.62638104255
 20
1093.490029495892
 10
2223.494167158134
 20
1093.157015516902
 10
2223.413746662231
 20
1092.776540316821
 10
2223.386756684224
 20
1092.356349273523
 10
2223.413746662231
 20
1091.904996264918
 10
2223.494167158134
 20
1091.431669536668
 10
2223.62638104255
 20
1090.946004655997
 10
2223.807696822065
 20
1090.457888359334
 10
2224.03442343028
 20
1089.977257286869
 10
2224.301945367277
 20
1089.51389570121
 10
2224.604816657889
 20
1089.077236308019
 10
2224.936871716047
 20
1088.676168233317
 10
2225.291350858335
 20
1088.318856066522
 10
2225.661037911649
 20
1088.012573652946
 10
2226.038407113673
 20
1087.763556019284
 10
2226.415776315697
 20
1087.576872446449
 10
2226.785463369012
 20
1087.456323273635
 10
2227.1399425113
 20
1087.404362534363
 10
2227.471997569457
 20
1087.422047999444
 10
2227.774868860069
 20
1087.509019643809
 10
2228.042390797066
 20
1087.663506975584
 10
2228.269117405281
 20
1087.882365078198
 10
2228.450433184796
 20
1088.161138631818
 10
2228.582647069212
 20
1088.494152610808
 10
2228.663067565115
 20
1088.87462781089
 10
2228.690057543123
 20
1089.294818854188
  0
LWPOLYLINE
  5
B91
330
B51
100
AcDbEntity
  8
0
  6
Continuous
 62
     7
370
    15
100
AcDbPolyline
 90
       40
 70
   128
 43
0.0
 10
2283.314056389783
 20
1057.761055535036
 10
2283.286585848474
 20
1058.1698610135
 10
2283.204885697134
 20
1058.599795456693
 10
2283.071071926769
 20
1059.03972378837
 10
2282.888610243743
 20
1059.478252095824
 10
2282.662226309803
 20
1059.904022726241
 10
2282.397783349924
 20
1060.306008443939
 10
2282.102130297861
 20
1060.673798029984
 10
2281.782924412363
 20
1060.997865927289
 10
2281.448432958195
 20
1061.269818947538
 10
2281.107319088317
 20
1061.482613650356
 10
2280.768417472782
 20
1061.630738764717
 10
2280.440505485415
 20
1061.710357927966
 10
2280.132075874444
 20
1061.719409045596
 10
2279.851116804783
 20
1061.657657698416
 10
2279.604904968755
 20
1061.526703213879
 10
2279.399817123585
 20
1061.32993724435
 10
2279.241164936734
 20
1061.072455925081
 10
2279.133057416505
 20
1060.760927886994
 10
2279.078294490887
 20
1060.403421542638
 10
2279.078294490887
 20
1060.00919611854
 10
2279.133057416505
 20
1059.588461846108
 10
2279.241164936734
 20
1059.152115521998
 10
2279.399817123585
 20
1058.7114582868
 10
2279.604904968755
 20
1058.277902931441
 10
2279.851116804783
 20
1057.862678311886
 10
2280.132075874444
 20
1057.476538527677
 10
2280.440505485415
 20
1057.129484396394
 10
2280.768417472782
 20
1056.830504437737
 10
2281.107319088317
 20
1056.58734207559
 10
2281.448432958195
 20
1056.406295087404
 10
2281.782924412363
 20
1056.292052495074
 10
2282.102130297861
 20
1056.247573121733
 10
2282.397783349924
 20
1056.274008959785
 10
2282.662226309803
 20
1056.370675334912
 10
2282.888610243743
 20
1056.535068638774
 10
2283.071071926769
 20
1056.762931171153
 10
2283.204885697134
 20
1057.048361412151
 10
2283.286585848474
 20
1057.383966868457
 10
2283.314056389783
 20
1057.761055535036
  0
LWPOLYLINE
  5
B92
330
B51
100
AcDbEntity
  8
0
  6
Continuous
 62
     7
370
    15
100
AcDbPolyline
 90
       40
 70
   128
 43
0.0
 10
2277.798623496528
 20
1060.945047171144
 10
2277.771152955219
 20
1061.353852649608
 10
2277.689452803879
 20
1061.783787092801
 10
2277.555639033514
 20
1062.223715424478
 10
2277.373177350488
 20
1062.662243731932
 10
2277.146793416548
 20
1063.088014362349
 10
2276.882350456669
 20
1063.490000080048
 10
2276.586697404606
 20
1063.857789666093
 10
2276.267491519108
 20
1064.181857563397
 10
2275.933000064939
 20
1064.453810583646
 10
2275.591886195062
 20
1064.666605286464
 10
2275.252984579527
 20
1064.814730400826
 10
2274.92507259216
 20
1064.894349564075
 10
2274.616642981189
 20
1064.903400681705
 10
2274.335683911528
 20
1064.841649334524
 10
2274.0894720755
 20
1064.710694849988
 10
2273.88438423033
 20
1064.513928880458
 10
2273.725732043478
 20
1064.25644756119
 10
2273.61762452325
 20
1063.944919523103
 10
2273.562861597632
 20
1063.587413178746
 10
2273.562861597632
 20
1063.193187754648
 10
2273.61762452325
 20
1062.772453482217
 10
2273.725732043478
 20
1062.336107158106
 10
2273.88438423033
 20
1061.895449922908
 10
2274.0894720755
 20
1061.461894567549
 10
2274.335683911528
 20
1061.046669947995
 10
2274.616642981189
 20
1060.660530163786
 10
2274.92507259216
 20
1060.313476032502
 10
2275.252984579527
 20
1060.014496073846
 10
2275.591886195062
 20
1059.771333711698
 10
2275.933000064939
 20
1059.590286723513
 10
2276.267491519108
 20
1059.476044131183
 10
2276.586697404606
 20
1059.431564757841
 10
2276.882350456669
 20
1059.458000595894
 10
2277.146793416548
 20
1059.55466697102
 10
2277.373177350488
 20
1059.719060274882
 10
2277.555639033514
 20
1059.946922807262
 10
2277.689452803879
 20
1060.23235304826
 10
2277.771152955219
 20
1060.567958504565
 10
2277.798623496528
 20
1060.945047171144
  0
LWPOLYLINE
  5
B93
330
B51
100
AcDbEntity
  8
0
  6
Continuous
 62
     7
370
    15
100
AcDbPolyline
 90
       45
 70
   128
 43
0.0
 10
2272.813520689163
 20
1063.822885765319
 10
2272.786530711156
 20
1064.274238773924
 10
2272.706110215253
 20
1064.747565502174
 10
2272.573896330836
 20
1065.233230382846
 10
2272.392580551322
 20
1065.721346679508
 10
2272.165853943107
 20
1066.201977751974
 10
2271.898332006109
 20
1066.665339337632
 10
2271.595460715498
 20
1067.101998730823
 10
2271.263405657339
 20
1067.503066805525
 10
2270.908926515052
 20
1067.86037897232
 10
2270.539239461738
 20
1068.166661385896
 10
2270.161870259713
 20
1068.415679019558
 10
2269.78450105769
 20
1068.602362592393
 10
2269.414814004375
 20
1068.722911765207
 10
2269.060334862087
 20
1068.774872504479
 10
2268.72827980393
 20
1068.757187039398
 10
2268.425408513318
 20
1068.670215395034
 10
2268.157886576321
 20
1068.515728063259
 10
2267.931159968106
 20
1068.296869960644
 10
2267.749844188591
 20
1068.018096407024
 10
2267.617630304175
 20
1067.685082428034
 10
2267.537209808272
 20
1067.304607227953
 10
2267.510219830264
 20
1066.884416184654
 10
2267.537209808272
 20
1066.43306317605
 10
2267.617630304175
 20
1065.959736447799
 10
2267.749844188591
 20
1065.474071567128
 10
2267.931159968106
 20
1064.985955270466
 10
2268.157886576321
 20
1064.505324198
 10
2268.425408513318
 20
1064.041962612342
 10
2268.72827980393
 20
1063.60530321915
 10
2269.060334862087
 20
1063.204235144449
 10
2269.414814004376
 20
1062.846922977653
 10
2269.78450105769
 20
1062.540640564077
 10
2270.161870259713
 20
1062.291622930415
 10
2270.539239461738
 20
1062.104939357581
 10
2270.908926515052
 20
1061.984390184766
 10
2271.263405657339
 20
1061.932429445495
 10
2271.595460715498
 20
1061.950114910576
 10
2271.898332006109
 20
1062.03708655494
 10
2272.165853943107
 20
1062.191573886715
 10
2272.392580551322
 20
1062.41043198933
 10
2272.573896330836
 20
1062.68920554295
 10
2272.706110215253
 20
1063.02221952194
 10
2272.786530711156
 20
1063.402694722021
 10
2272.813520689163
 20
1063.822885765319
  0
LWPOLYLINE
  5
B94
330
B51
100
AcDbEntity
  8
0
  6
Continuous
 62
     7
370
    15
100
AcDbPolyline
 90
       40
 70
   128
 43
0.0
 10
2266.767757710018
 20
1067.313030443362
 10
2266.740287168708
 20
1067.721835921825
 10
2266.658587017369
 20
1068.151770365018
 10
2266.524773247004
 20
1068.591698696695
 10
2266.342311563978
 20
1069.030227004149
 10
2266.115927630038
 20
1069.455997634566
 10
2265.851484670158
 20
1069.857983352265
 10
2265.555831618096
 20
1070.22577293831
 10
2265.236625732598
 20
1070.549840835615
 10
2264.902134278429
 20
1070.821793855863
 10
2264.561020408552
 20
1071.034588558682
 10
2264.222118793017
 20
1071.182713673043
 10
2263.89420680565
 20
1071.262332836292
 10
2263.585777194679
 20
1071.271383953922
 10
2263.304818125018
 20
1071.209632606741
 10
2263.05860628899
 20
1071.078678122205
 10
2262.85351844382
 20
1070.881912152675
 10
2262.694866256969
 20
1070.624430833407
 10
2262.58675873674
 20
1070.31290279532
 10
2262.531995811122
 20
1069.955396450963
 10
2262.531995811122
 20
1069.561171026866
 10
2262.58675873674
 20
1069.140436754434
 10
2262.694866256969
 20
1068.704090430323
 10
2262.85351844382
 20
1068.263433195126
 10
2263.05860628899
 20
1067.829877839766
 10
2263.304818125018
 20
1067.414653220212
 10
2263.585777194679
 20
1067.028513436003
 10
2263.89420680565
 20
1066.68145930472
 10
2264.222118793017
 20
1066.382479346063
 10
2264.561020408552
 20
1066.139316983916
 10
2264.902134278429
 20
1065.95826999573
 10
2265.236625732598
 20
1065.8440274034
 10
2265.555831618096
 20
1065.799548030058
 10
2265.851484670158
 20
1065.825983868111
 10
2266.115927630038
 20
1065.922650243237
 10
2266.342311563978
 20
1066.087043547099
 10
2266.524773247004
 20
1066.314906079479
 10
2266.658587017369
 20
1066.600336320477
 10
2266.740287168708
 20
1066.935941776782
 10
2266.767757710018
 20
1067.313030443362
  0
LWPOLYLINE
  5
B95
330
B51
100
AcDbEntity
  8
0
  6
Continuous
 62
     7
370
    15
100
AcDbPolyline
 90
       40
 70
   128
 43
0.0
 10
2261.252324816763
 20
1070.49702207947
 10
2261.224854275453
 20
1070.905827557934
 10
2261.143154124114
 20
1071.335762001127
 10
2261.009340353749
 20
1071.775690332804
 10
2260.826878670723
 20
1072.214218640258
 10
2260.600494736783
 20
1072.639989270675
 10
2260.336051776903
 20
1073.041974988373
 10
2260.040398724841
 20
1073.409764574418
 10
2259.721192839343
 20
1073.733832471723
 10
2259.386701385174
 20
1074.005785491972
 10
2259.045587515297
 20
1074.21858019479
 10
2258.706685899762
 20
1074.366705309151
 10
2258.378773912395
 20
1074.4463244724
 10
2258.070344301424
 20
1074.45537559003
 10
2257.789385231763
 20
1074.39362424285
 10
2257.543173395735
 20
1074.262669758313
 10
2257.338085550564
 20
1074.065903788784
 10
2257.179433363713
 20
1073.808422469515
 10
2257.071325843485
 20
1073.496894431429
 10
2257.016562917867
 20
1073.139388087072
 10
2257.016562917867
 20
1072.745162662974
 10
2257.071325843485
 20
1072.324428390543
 10
2257.179433363713
 20
1071.888082066432
 10
2257.338085550564
 20
1071.447424831234
 10
2257.543173395735
 20
1071.013869475875
 10
2257.789385231763
 20
1070.598644856321
 10
2258.070344301424
 20
1070.212505072112
 10
2258.378773912395
 20
1069.865450940828
 10
2258.706685899762
 20
1069.566470982171
 10
2259.045587515297
 20
1069.323308620024
 10
2259.386701385174
 20
1069.142261631839
 10
2259.721192839343
 20
1069.028019039508
 10
2260.040398724841
 20
1068.983539666167
 10
2260.336051776903
 20
1069.009975504219
 10
2260.600494736783
 20
1069.106641879346
 10
2260.826878670723
 20
1069.271035183208
 10
2261.009340353749
 20
1069.498897715587
 10
2261.143154124114
 20
1069.784327956586
 10
2261.224854275453
 20
1070.119933412891
 10
2261.252324816763
 20
1070.49702207947
  0
LWPOLYLINE
  5
B96
330
B51
100
AcDbEntity
  8
0
  6
Continuous
 62
     7
370
    15
100
AcDbPolyline
 90
       40
 70
   128
 43
0.0
 10
2255.736891923508
 20
1073.681013715579
 10
2255.709421382198
 20
1074.089819194043
 10
2255.627721230859
 20
1074.519753637235
 10
2255.493907460494
 20
1074.959681968912
 10
2255.311445777468
 20
1075.398210276366
 10
2255.085061843527
 20
1075.823980906783
 10
2254.820618883648
 20
1076.225966624482
 10
2254.524965831585
 20
1076.593756210527
 10
2254.205759946088
 20
1076.917824107832
 10
2253.871268491919
 20
1077.18977712808
 10
2253.530154622042
 20
1077.402571830899
 10
2253.191253006507
 20
1077.55069694526
 10
2252.863341019139
 20
1077.630316108509
 10
2252.554911408169
 20
1077.639367226139
 10
2252.273952338508
 20
1077.577615878958
 10
2252.02774050248
 20
1077.446661394422
 10
2251.82265265731
 20
1077.249895424893
 10
2251.664000470458
 20
1076.992414105624
 10
2251.555892950229
 20
1076.680886067537
 10
2251.501130024612
 20
1076.32337972318
 10
2251.501130024612
 20
1075.929154299083
 10
2251.55589295023
 20
1075.508420026651
 10
2251.664000470458
 20
1075.072073702541
 10
2251.82265265731
 20
1074.631416467343
 10
2252.02774050248
 20
1074.197861111983
 10
2252.273952338508
 20
1073.782636492429
 10
2252.554911408169
 20
1073.39649670822
 10
2252.86334101914
 20
1073.049442576937
 10
2253.191253006507
 20
1072.75046261828
 10
2253.530154622042
 20
1072.507300256133
 10
2253.871268491919
 20
1072.326253267947
 10
2254.205759946088
 20
1072.212010675617
 10
2254.524965831585
 20
1072.167531302275
 10
2254.820618883648
 20
1072.193967140328
 10
2255.085061843527
 20
1072.290633515454
 10
2255.311445777468
 20
1072.455026819317
 10
2255.493907460494
 20
1072.682889351696
 10
2255.627721230859
 20
1072.968319592694
 10
2255.709421382198
 20
1073.303925048999
 10
2255.736891923508
 20
1073.681013715579
  0
LWPOLYLINE
  5
B97
330
B51
100
AcDbEntity
  8
0
  6
Continuous
 62
     7
370
    15
100
AcDbPolyline
 90
       40
 70
   128
 43
0.0
 10
2250.221459030253
 20
1076.865005351687
 10
2250.193988488943
 20
1077.273810830151
 10
2250.112288337604
 20
1077.703745273344
 10
2249.978474567239
 20
1078.143673605021
 10
2249.796012884213
 20
1078.582201912475
 10
2249.569628950272
 20
1079.007972542892
 10
2249.305185990393
 20
1079.40995826059
 10
2249.00953293833
 20
1079.777747846636
 10
2248.690327052833
 20
1080.10181574394
 10
2248.355835598664
 20
1080.373768764189
 10
2248.014721728787
 20
1080.586563467007
 10
2247.675820113252
 20
1080.734688581369
 10
2247.347908125885
 20
1080.814307744617
 10
2247.039478514913
 20
1080.823358862248
 10
2246.758519445253
 20
1080.761607515067
 10
2246.512307609225
 20
1080.63065303053
 10
2246.307219764055
 20
1080.433887061001
 10
2246.148567577203
 20
1080.176405741733
 10
2246.040460056974
 20
1079.864877703646
 10
2245.985697131357
 20
1079.507371359289
 10
2245.985697131357
 20
1079.113145935191
 10
2246.040460056974
 20
1078.69241166276
 10
2246.148567577203
 20
1078.256065338649
 10
2246.307219764055
 20
1077.815408103451
 10
2246.512307609225
 20
1077.381852748092
 10
2246.758519445253
 20
1076.966628128538
 10
2247.039478514913
 20
1076.580488344329
 10
2247.347908125885
 20
1076.233434213045
 10
2247.675820113252
 20
1075.934454254388
 10
2248.014721728787
 20
1075.691291892241
 10
2248.355835598664
 20
1075.510244904056
 10
2248.690327052833
 20
1075.396002311725
 10
2249.00953293833
 20
1075.351522938384
 10
2249.305185990393
 20
1075.377958776436
 10
2249.569628950272
 20
1075.474625151563
 10
2249.796012884213
 20
1075.639018455425
 10
2249.978474567239
 20
1075.866880987804
 10
2250.112288337604
 20
1076.152311228803
 10
2250.193988488943
 20
1076.487916685108
 10
2250.221459030253
 20
1076.865005351687
  0
LWPOLYLINE
  5
B98
330
B51
100
AcDbEntity
  8
0
  6
Continuous
 62
     7
370
    15
100
AcDbPolyline
 90
       40
 70
   128
 43
0.0
 10
2244.706026136998
 20
1080.048996987795
 10
2244.678555595688
 20
1080.45780246626
 10
2244.596855444349
 20
1080.887736909453
 10
2244.463041673984
 20
1081.327665241129
 10
2244.280579990958
 20
1081.766193548584
 10
2244.054196057017
 20
1082.191964179
 10
2243.789753097138
 20
1082.593949896699
 10
2243.494100045075
 20
1082.961739482744
 10
2243.174894159578
 20
1083.285807380049
 10
2242.840402705409
 20
1083.557760400297
 10
2242.499288835531
 20
1083.770555103116
 10
2242.160387219997
 20
1083.918680217477
 10
2241.83247523263
 20
1083.998299380726
 10
2241.524045621658
 20
1084.007350498356
 10
2241.243086551998
 20
1083.945599151175
 10
2240.996874715969
 20
1083.814644666639
 10
2240.791786870799
 20
1083.61787869711
 10
2240.633134683948
 20
1083.360397377841
 10
2240.52502716372
 20
1083.048869339754
 10
2240.470264238101
 20
1082.691362995397
 10
2240.470264238101
 20
1082.2971375713
 10
2240.52502716372
 20
1081.876403298868
 10
2240.633134683948
 20
1081.440056974758
 10
2240.791786870799
 20
1080.99939973956
 10
2240.99687471597
 20
1080.5658443842
 10
2241.243086551998
 20
1080.150619764646
 10
2241.524045621658
 20
1079.764479980437
 10
2241.83247523263
 20
1079.417425849154
 10
2242.160387219997
 20
1079.118445890497
 10
2242.499288835532
 20
1078.87528352835
 10
2242.840402705409
 20
1078.694236540164
 10
2243.174894159578
 20
1078.579993947834
 10
2243.494100045075
 20
1078.535514574493
 10
2243.789753097138
 20
1078.561950412545
 10
2244.054196057017
 20
1078.658616787672
 10
2244.280579990958
 20
1078.823010091534
 10
2244.463041673984
 20
1079.050872623913
 10
2244.596855444349
 20
1079.336302864911
 10
2244.678555595688
 20
1079.671908321216
 10
2244.706026136998
 20
1080.048996987795
  0
LWPOLYLINE
  5
B99
330
B51
100
AcDbEntity
  8
0
  6
Continuous
 62
     7
370
    15
100
AcDbPolyline
 90
       40
 70
   128
 43
0.0
 10
2239.190593243743
 20
1083.232988623904
 10
2239.163122702433
 20
1083.641794102368
 10
2239.081422551094
 20
1084.071728545561
 10
2238.947608780729
 20
1084.511656877238
 10
2238.765147097703
 20
1084.950185184692
 10
2238.538763163762
 20
1085.375955815109
 10
2238.274320203883
 20
1085.777941532808
 10
2237.97866715182
 20
1086.145731118853
 10
2237.659461266323
 20
1086.469799016157
 10
2237.324969812154
 20
1086.741752036406
 10
2236.983855942276
 20
1086.954546739224
 10
2236.644954326742
 20
1087.102671853586
 10
2236.317042339374
 20
1087.182291016834
 10
2236.008612728404
 20
1087.191342134465
 10
2235.727653658742
 20
1087.129590787284
 10
2235.481441822715
 20
1086.998636302748
 10
2235.276353977544
 20
1086.801870333218
 10
2235.117701790693
 20
1086.54438901395
 10
2235.009594270465
 20
1086.232860975863
 10
2234.954831344846
 20
1085.875354631506
 10
2234.954831344846
 20
1085.481129207408
 10
2235.009594270465
 20
1085.060394934977
 10
2235.117701790693
 20
1084.624048610866
 10
2235.276353977544
 20
1084.183391375668
 10
2235.481441822715
 20
1083.749836020309
 10
2235.727653658742
 20
1083.334611400755
 10
2236.008612728404
 20
1082.948471616546
 10
2236.317042339374
 20
1082.601417485262
 10
2236.644954326742
 20
1082.302437526606
 10
2236.983855942276
 20
1082.059275164458
 10
2237.324969812154
 20
1081.878228176273
 10
2237.659461266323
 20
1081.763985583943
 10
2237.97866715182
 20
1081.719506210601
 10
2238.274320203883
 20
1081.745942048653
 10
2238.538763163762
 20
1081.84260842378
 10
2238.765147097703
 20
1082.007001727642
 10
2238.947608780729
 20
1082.234864260022
 10
2239.081422551094
 20
1082.52029450102
 10
2239.163122702433
 20
1082.855899957325
 10
2239.190593243743
 20
1083.232988623904
  0
LWPOLYLINE
  5
B9A
330
B51
100
AcDbEntity
  8
0
  6
Continuous
 62
     7
370
    15
100
AcDbPolyline
 90
       40
 70
   128
 43
0.0
 10
2233.675160350488
 20
1086.416980260013
 10
2233.647689809178
 20
1086.825785738477
 10
2233.565989657838
 20
1087.25572018167
 10
2233.432175887474
 20
1087.695648513347
 10
2233.249714204448
 20
1088.134176820801
 10
2233.023330270508
 20
1088.559947451217
 10
2232.758887310628
 20
1088.961933168916
 10
2232.463234258565
 20
1089.329722754961
 10
2232.144028373068
 20
1089.653790652266
 10
2231.809536918899
 20
1089.925743672514
 10
2231.468423049022
 20
1090.138538375333
 10
2231.129521433487
 20
1090.286663489694
 10
2230.801609446119
 20
1090.366282652943
 10
2230.493179835148
 20
1090.375333770573
 10
2230.212220765487
 20
1090.313582423393
 10
2229.96600892946
 20
1090.182627938856
 10
2229.760921084289
 20
1089.985861969327
 10
2229.602268897438
 20
1089.728380650059
 10
2229.494161377209
 20
1089.416852611972
 10
2229.439398451591
 20
1089.059346267615
 10
2229.439398451591
 20
1088.665120843517
 10
2229.494161377209
 20
1088.244386571085
 10
2229.602268897438
 20
1087.808040246975
 10
2229.760921084289
 20
1087.367383011777
 10
2229.96600892946
 20
1086.933827656418
 10
2230.212220765487
 20
1086.518603036863
 10
2230.493179835148
 20
1086.132463252654
 10
2230.801609446119
 20
1085.785409121371
 10
2231.129521433487
 20
1085.486429162714
 10
2231.468423049022
 20
1085.243266800567
 10
2231.809536918899
 20
1085.062219812381
 10
2232.144028373068
 20
1084.947977220051
 10
2232.463234258565
 20
1084.90349784671
 10
2232.758887310628
 20
1084.929933684762
 10
2233.023330270508
 20
1085.026600059889
 10
2233.249714204448
 20
1085.190993363751
 10
2233.432175887474
 20
1085.41885589613
 10
2233.565989657838
 20
1085.704286137128
 10
2233.647689809178
 20
1086.039891593434
 10
2233.675160350488
 20
1086.416980260013
  0
ELLIPSE
  5
B9B
330
B51
100
AcDbEntity
  8
0
  6
Continuous
 62
     7
370
    15
100
AcDbEllipse
 10
2283.49083308508
 20
1058.312882085833
 30
0.0
 11
2.004507383346677
 21
46.38075764019956
 31
0.0
210
0.0
220
0.0
230
1.0
 40
0.0451846437372547
 41
1.338786279212371
 42
1.359827043809334
  0
LWPOLYLINE
  5
B9C
330
B51
100
AcDbEntity
  8
0
  6
Continuous
 62
     7
370
    15
100
AcDbPolyline
 90
       17
 70
   128
 43
0.0
 10
2285.069474589318
 20
1066.256846782565
 10
2284.634355381473
 20
1066.122712168254
 10
2284.166151978528
 20
1066.033088773278
 10
2283.678410362732
 20
1065.990569566655
 10
2283.185241792632
 20
1065.996384706932
 10
2282.7009145385
 20
1066.050365951447
 10
2282.239441075143
 20
1066.150951523897
 10
2281.814172675328
 20
1066.295231299385
 10
2281.437413133003
 20
1066.47903099967
 10
2281.120062791995
 20
1066.69703296268
 10
2280.871303179091
 20
1066.942929992221
 10
2280.698331365648
 20
1067.209607836716
 10
2280.606151743135
 20
1067.48935101754
 10
2280.597431236913
 20
1067.774066051948
 10
2280.672422147207
 20
1068.055515612366
 10
2280.828954849587
 20
1068.325556847361
 10
2281.062500566189
 20
1068.576376969259
  0
ELLIPSE
  5
B9D
330
B51
100
AcDbEntity
  8
0
  6
Continuous
 62
     7
370
    15
100
AcDbEllipse
 10
2283.49083308508
 20
1058.312882085833
 30
0.0
 11
-2.112133331130998
 21
44.01722223807204
 31
0.0
210
0.0
220
0.0
230
1.0
 40
0.0451455594504187
 41
4.86957496566454
 42
4.891690632847522
  0
ARC
  5
B9E
330
B51
100
AcDbEntity
  8
0
  6
Continuous
 62
     7
370
    15
100
AcDbCircle
 10
2284.159827508142
 20
1067.849876044632
 30
0.0
 40
2.72802697168244
100
AcDbArc
 50
290.6723393354101
 51
309.1862876397464
  0
ELLIPSE
  5
B9F
330
B51
100
AcDbEntity
  8
0
  6
Continuous
 62
     7
370
    15
100
AcDbEllipse
 10
2283.49083308508
 20
1058.312882085833
 30
0.0
 11
2.004507383346677
 21
46.38075764019956
 31
0.0
210
0.0
220
0.0
230
1.0
 40
0.0451846437372547
 41
4.87506687880269
 42
4.897182545985672
  0
LWPOLYLINE
  5
BA0
330
B51
100
AcDbEntity
  8
0
  6
Continuous
 62
     7
370
    15
100
AcDbPolyline
 90
       17
 70
   128
 43
0.0
 10
2281.912191580842
 20
1069.065549600342
 10
2282.347310788687
 20
1069.199684214653
 10
2282.815514191632
 20
1069.289307609629
 10
2283.303255807428
 20
1069.331826816252
 10
2283.796424377528
 20
1069.326011675975
 10
2284.28075163166
 20
1069.27203043146
 10
2284.742225095017
 20
1069.17144485901
 10
2285.167493494832
 20
1069.027165083522
 10
2285.544253037157
 20
1068.843365383237
 10
2285.861603378165
 20
1068.625363420226
 10
2286.110362991069
 20
1068.379466390686
 10
2286.283334804512
 20
1068.112788546191
 10
2286.375514427025
 20
1067.833045365367
 10
2286.384234933246
 20
1067.548330330959
 10
2286.309244022953
 20
1067.266880770541
 10
2286.152711320573
 20
1066.996839535546
 10
2285.919165603971
 20
1066.746019413647
  0
LINE
  5
BA1
330
B51
100
AcDbEntity
  8
0
  6
Continuous
 62
     7
370
    15
100
AcDbLine
 10
2282.712919384285
 20
1067.62099361834
 30
0.0
 11
2281.062500566189
 21
1068.576376969259
 31
0.0
  0
LINE
  5
BA2
330
B51
100
AcDbEntity
  8
0
  6
Continuous
 62
     7
370
    15
100
AcDbLine
 10
2282.712919384285
 20
1067.62099361834
 30
0.0
 11
2281.721613200524
 21
1067.050292215411
 31
0.0
  0
LINE
  5
BA3
330
B51
100
AcDbEntity
  8
0
  6
Continuous
 62
     7
370
    15
100
AcDbLine
 10
2281.721613200524
 20
1067.050292215411
 30
0.0
 11
2282.427749587462
 21
1066.641528730554
 31
0.0
  0
LINE
  5
BA4
330
B51
100
AcDbEntity
  8
0
  6
Continuous
 62
     7
370
    15
100
AcDbLine
 10
2282.427749587462
 20
1066.641528730554
 30
0.0
 11
2283.419055771223
 21
1067.212230133483
 31
0.0
  0
LINE
  5
BA5
330
B51
100
AcDbEntity
  8
0
  6
Continuous
 62
     7
370
    15
100
AcDbLine
 10
2285.069474589318
 20
1066.256846782565
 30
0.0
 11
2283.419055771223
 21
1067.212230133483
 31
0.0
  0
LINE
  5
BA6
330
B51
100
AcDbEntity
  8
0
  6
Continuous
 62
     7
370
    15
100
AcDbLine
 10
2283.375553500659
 20
1067.187185594018
 30
0.0
 11
2282.717730833783
 21
1067.567981557382
 31
0.0
  0
LINE
  5
BA7
330
B51
100
AcDbEntity
  8
0
  6
Continuous
 62
     7
370
    15
100
AcDbLine
 10
2284.248074495808
 20
1067.473670308523
 30
0.0
 11
2283.605990698239
 21
1067.104018499553
 31
0.0
  0
LINE
  5
BA8
330
B51
100
AcDbEntity
  8
0
  6
Continuous
 62
     7
370
    15
100
AcDbLine
 10
2285.883514491892
 20
1065.735393994512
 30
0.0
 11
2285.072390155099
 21
1066.204932198028
 31
0.0
  0
LINE
  5
BA9
330
B51
100
AcDbEntity
  8
0
  6
Continuous
 62
     7
370
    15
100
AcDbLine
 10
2284.268746785875
 20
1067.701402764566
 30
0.0
 11
2284.18413961581
 21
1066.769343540601
 31
0.0
  0
LINE
  5
BAA
330
B51
100
AcDbEntity
  8
0
  6
Continuous
 62
     7
370
    15
100
AcDbLine
 10
2284.268746785875
 20
1067.701402764566
 30
0.0
 11
2285.919165603971
 21
1066.746019413647
 31
0.0
  0
LINE
  5
BAB
330
B51
100
AcDbEntity
  8
0
  6
Continuous
 62
     7
370
    15
100
AcDbLine
 10
2284.553916582698
 20
1068.680867652353
 30
0.0
 11
2283.562610398937
 21
1068.110166249423
 31
0.0
  0
LINE
  5
BAC
330
B51
100
AcDbEntity
  8
0
  6
Continuous
 62
     7
370
    15
100
AcDbLine
 10
2281.912191580842
 20
1069.065549600342
 30
0.0
 11
2283.562610398937
 21
1068.110166249423
 31
0.0
  0
LINE
  5
BAD
330
B51
100
AcDbEntity
  8
0
  6
Continuous
 62
     7
370
    15
100
AcDbLine
 10
2284.268746785875
 20
1067.701402764566
 30
0.0
 11
2285.260052969636
 21
1068.272104167496
 31
0.0
  0
LINE
  5
BAE
330
B51
100
AcDbEntity
  8
0
  6
Continuous
 62
     7
370
    15
100
AcDbLine
 10
2285.260052969636
 20
1068.272104167496
 30
0.0
 11
2284.553916582698
 21
1068.680867652353
 31
0.0
  0
LINE
  5
BAF
330
B51
100
AcDbEntity
  8
0
  6
Continuous
 62
     7
370
    15
100
AcDbLine
 10
2282.712919384285
 20
1067.62099361834
 30
0.0
 11
2282.783241842586
 21
1066.846187928744
 31
0.0
  0
LWPOLYLINE
  5
BB0
330
B51
100
AcDbEntity
  8
0
  6
Continuous
 62
     7
370
    15
100
AcDbPolyline
 90
       20
 70
   128
 43
0.0
 10
2282.858940305406
 20
1056.507674948777
 10
2282.751336740517
 20
1056.478110987741
 10
2282.455683688454
 20
1056.451675149688
 10
2282.136477802957
 20
1056.49615452303
 10
2281.801986348788
 20
1056.61039711536
 10
2281.460872478911
 20
1056.791444103546
 10
2281.121970863376
 20
1057.034606465693
 10
2280.794058876008
 20
1057.33358642435
 10
2280.485629265037
 20
1057.680640555633
 10
2280.204670195376
 20
1058.066780339842
 10
2279.958458359349
 20
1058.482004959396
 10
2279.753370514178
 20
1058.915560314756
 10
2279.594718327327
 20
1059.356217549954
 10
2279.486610807099
 20
1059.792563874064
 10
2279.43184788148
 20
1060.213298146496
 10
2279.43184788148
 20
1060.607523570593
 10
2279.486610807099
 20
1060.96502991495
 10
2279.594718327327
 20
1061.276557953037
 10
2279.753370514178
 20
1061.534039272305
 10
2279.880085177626
 20
1061.667762484713
  0
LINE
  5
BB1
330
B51
100
AcDbEntity
  8
0
  6
Continuous
 62
     7
370
    15
100
AcDbLine
 10
2283.562494368189
 20
1067.1291973627
 30
0.0
 11
2283.562610398937
 21
1068.110166249423
 31
0.0
  0
LINE
  5
BB2
330
B51
100
AcDbEntity
  8
0
  6
Continuous
 62
     7
370
    15
100
AcDbLine
 10
2284.553820142084
 20
1067.865521345678
 30
0.0
 11
2284.553916582698
 21
1068.680867652353
 31
0.0
  0
ELLIPSE
  5
BB3
330
B51
100
AcDbEntity
  8
0
  6
Continuous
 62
     7
370
    15
100
AcDbEllipse
 10
2277.975400191825
 20
1061.496873721941
 30
0.0
 11
2.004507383346677
 21
46.38075764019963
 31
0.0
210
0.0
220
0.0
230
1.0
 40
0.0451846437372544
 41
1.338786279212372
 42
1.359827043809333
  0
LWPOLYLINE
  5
BB4
330
B51
100
AcDbEntity
  8
0
  6
Continuous
 62
     7
370
    15
100
AcDbPolyline
 90
       17
 70
   128
 43
0.0
 10
2279.554041696064
 20
1069.440838418673
 10
2279.118922488218
 20
1069.306703804362
 10
2278.650719085273
 20
1069.217080409387
 10
2278.162977469477
 20
1069.174561202763
 10
2277.669808899377
 20
1069.180376343041
 10
2277.185481645245
 20
1069.234357587556
 10
2276.724008181888
 20
1069.334943160005
 10
2276.298739782073
 20
1069.479222935493
 10
2275.921980239749
 20
1069.663022635778
 10
2275.60462989874
 20
1069.881024598789
 10
2275.355870285835
 20
1070.12692162833
 10
2275.182898472393
 20
1070.393599472825
 10
2275.09071884988
 20
1070.673342653648
 10
2275.081998343658
 20
1070.958057688057
 10
2275.156989253952
 20
1071.239507248474
 10
2275.313521956332
 20
1071.50954848347
 10
2275.547067672934
 20
1071.760368605368
  0
ELLIPSE
  5
BB5
330
B51
100
AcDbEntity
  8
0
  6
Continuous
 62
     7
370
    15
100
AcDbEllipse
 10
2277.975400191825
 20
1061.496873721942
 30
0.0
 11
-2.112133331130998
 21
44.01722223807209
 31
0.0
210
0.0
220
0.0
230
1.0
 40
0.0451455594504186
 41
4.86957496566454
 42
4.89169063284752
  0
ARC
  5
BB6
330
B51
100
AcDbEntity
  8
0
  6
Continuous
 62
     7
370
    15
100
AcDbCircle
 10
2278.644394614888
 20
1071.033867680738
 30
0.0
 40
2.728026971679908
100
AcDbArc
 50
290.6723393354054
 51
309.1862876397464
  0
ELLIPSE
  5
BB7
330
B51
100
AcDbEntity
  8
0
  6
Continuous
 62
     7
370
    15
100
AcDbEllipse
 10
2277.975400191825
 20
1061.496873721941
 30
0.0
 11
2.004507383346677
 21
46.38075764019963
 31
0.0
210
0.0
220
0.0
230
1.0
 40
0.0451846437372544
 41
4.875066878802689
 42
4.897182545985671
  0
LWPOLYLINE
  5
BB8
330
B51
100
AcDbEntity
  8
0
  6
Continuous
 62
     7
370
    15
100
AcDbPolyline
 90
       17
 70
   128
 43
0.0
 10
2276.396758687587
 20
1072.24954123645
 10
2276.831877895432
 20
1072.383675850762
 10
2277.300081298378
 20
1072.473299245737
 10
2277.787822914172
 20
1072.51581845236
 10
2278.280991484273
 20
1072.510003312083
 10
2278.765318738405
 20
1072.456022067568
 10
2279.226792201762
 20
1072.355436495119
 10
2279.652060601577
 20
1072.211156719631
 10
2280.028820143902
 20
1072.027357019345
 10
2280.34617048491
 20
1071.809355056335
 10
2280.594930097814
 20
1071.563458026794
 10
2280.767901911257
 20
1071.296780182299
 10
2280.86008153377
 20
1071.017037001476
 10
2280.868802039991
 20
1070.732321967067
 10
2280.793811129698
 20
1070.45087240665
 10
2280.637278427318
 20
1070.180831171654
 10
2280.403732710716
 20
1069.930011049756
  0
LINE
  5
BB9
330
B51
100
AcDbEntity
  8
0
  6
Continuous
 62
     7
370
    15
100
AcDbLine
 10
2277.19748649103
 20
1070.804985254449
 30
0.0
 11
2275.547067672934
 21
1071.760368605368
 31
0.0
  0
LINE
  5
BBA
330
B51
100
AcDbEntity
  8
0
  6
Continuous
 62
     7
370
    15
100
AcDbLine
 10
2277.19748649103
 20
1070.804985254449
 30
0.0
 11
2276.206180307268
 21
1070.234283851519
 31
0.0
  0
LINE
  5
BBB
330
B51
100
AcDbEntity
  8
0
  6
Continuous
 62
     7
370
    15
100
AcDbLine
 10
2276.206180307268
 20
1070.234283851519
 30
0.0
 11
2276.912316694206
 21
1069.825520366662
 31
0.0
  0
LINE
  5
BBC
330
B51
100
AcDbEntity
  8
0
  6
Continuous
 62
     7
370
    15
100
AcDbLine
 10
2276.912316694206
 20
1069.825520366662
 30
0.0
 11
2277.903622877968
 21
1070.396221769592
 31
0.0
  0
LINE
  5
BBD
330
B51
100
AcDbEntity
  8
0
  6
Continuous
 62
     7
370
    15
100
AcDbLine
 10
2279.554041696064
 20
1069.440838418673
 30
0.0
 11
2277.903622877968
 21
1070.396221769592
 31
0.0
  0
LINE
  5
BBE
330
B51
100
AcDbEntity
  8
0
  6
Continuous
 62
     7
370
    15
100
AcDbLine
 10
2277.860120607404
 20
1070.371177230127
 30
0.0
 11
2277.202297940528
 21
1070.75197319349
 31
0.0
  0
LINE
  5
BBF
330
B51
100
AcDbEntity
  8
0
  6
Continuous
 62
     7
370
    15
100
AcDbLine
 10
2278.732641602553
 20
1070.657661944632
 30
0.0
 11
2278.090557804984
 21
1070.288010135661
 31
0.0
  0
LINE
  5
BC0
330
B51
100
AcDbEntity
  8
0
  6
Continuous
 62
     7
370
    15
100
AcDbLine
 10
2280.368081598637
 20
1068.919385630621
 30
0.0
 11
2279.556957261844
 21
1069.388923834136
 31
0.0
  0
LINE
  5
BC1
330
B51
100
AcDbEntity
  8
0
  6
Continuous
 62
     7
370
    15
100
AcDbLine
 10
2278.75331389262
 20
1070.885394400675
 30
0.0
 11
2278.668706722555
 21
1069.95333517671
 31
0.0
  0
LINE
  5
BC2
330
B51
100
AcDbEntity
  8
0
  6
Continuous
 62
     7
370
    15
100
AcDbLine
 10
2278.75331389262
 20
1070.885394400675
 30
0.0
 11
2280.403732710716
 21
1069.930011049756
 31
0.0
  0
LINE
  5
BC3
330
B51
100
AcDbEntity
  8
0
  6
Continuous
 62
     7
370
    15
100
AcDbLine
 10
2279.038483689443
 20
1071.864859288462
 30
0.0
 11
2278.047177505682
 21
1071.294157885532
 31
0.0
  0
LINE
  5
BC4
330
B51
100
AcDbEntity
  8
0
  6
Continuous
 62
     7
370
    15
100
AcDbLine
 10
2276.396758687587
 20
1072.24954123645
 30
0.0
 11
2278.047177505682
 21
1071.294157885532
 31
0.0
  0
LINE
  5
BC5
330
B51
100
AcDbEntity
  8
0
  6
Continuous
 62
     7
370
    15
100
AcDbLine
 10
2278.75331389262
 20
1070.885394400675
 30
0.0
 11
2279.744620076381
 21
1071.456095803605
 31
0.0
  0
LINE
  5
BC6
330
B51
100
AcDbEntity
  8
0
  6
Continuous
 62
     7
370
    15
100
AcDbLine
 10
2279.744620076381
 20
1071.456095803605
 30
0.0
 11
2279.038483689443
 21
1071.864859288462
 31
0.0
  0
LINE
  5
BC7
330
B51
100
AcDbEntity
  8
0
  6
Continuous
 62
     7
370
    15
100
AcDbLine
 10
2277.19748649103
 20
1070.804985254449
 30
0.0
 11
2277.26780894933
 21
1070.030179564853
 31
0.0
  0
LWPOLYLINE
  5
BC8
330
B51
100
AcDbEntity
  8
0
  6
Continuous
 62
     7
370
    15
100
AcDbPolyline
 90
       20
 70
   128
 43
0.0
 10
2277.343507412157
 20
1059.691666584887
 10
2277.235903847262
 20
1059.662102623849
 10
2276.940250795199
 20
1059.635666785797
 10
2276.621044909702
 20
1059.680146159138
 10
2276.286553455533
 20
1059.794388751468
 10
2275.945439585655
 20
1059.975435739654
 10
2275.606537970121
 20
1060.218598101801
 10
2275.278625982753
 20
1060.517578060458
 10
2274.970196371782
 20
1060.864632191742
 10
2274.689237302121
 20
1061.250771975951
 10
2274.443025466093
 20
1061.665996595505
 10
2274.237937620923
 20
1062.099551950864
 10
2274.079285434072
 20
1062.540209186062
 10
2273.971177913844
 20
1062.976555510173
 10
2273.916414988225
 20
1063.397289782604
 10
2273.916414988225
 20
1063.791515206702
 10
2273.971177913844
 20
1064.149021551059
 10
2274.079285434072
 20
1064.460549589146
 10
2274.237937620923
 20
1064.718030908414
 10
2274.364652284374
 20
1064.851754120825
  0
LINE
  5
BC9
330
B51
100
AcDbEntity
  8
0
  6
Continuous
 62
     7
370
    15
100
AcDbLine
 10
2278.047061474933
 20
1070.313188998808
 30
0.0
 11
2278.047177505682
 21
1071.294157885532
 31
0.0
  0
LINE
  5
BCA
330
B51
100
AcDbEntity
  8
0
  6
Continuous
 62
     7
370
    15
100
AcDbLine
 10
2279.038387248829
 20
1071.049512981787
 30
0.0
 11
2279.038483689443
 21
1071.864859288462
 31
0.0
  0
ELLIPSE
  5
BCB
330
B51
100
AcDbEntity
  8
0
  6
Continuous
 62
     7
370
    15
100
AcDbEllipse
 10
2272.45996729857
 20
1064.68086535805
 30
0.0
 11
2.004507383346677
 21
46.38075764019963
 31
0.0
210
0.0
220
0.0
230
1.0
 40
0.0451846437372545
 41
1.338786279212372
 42
1.359827043809334
  0
LWPOLYLINE
  5
BCC
330
B51
100
AcDbEntity
  8
0
  6
Continuous
 62
     7
370
    15
100
AcDbPolyline
 90
       17
 70
   128
 43
0.0
 10
2274.038608802809
 20
1072.624830054782
 10
2273.603489594963
 20
1072.490695440471
 10
2273.135286192017
 20
1072.401072045495
 10
2272.647544576222
 20
1072.358552838872
 10
2272.154376006121
 20
1072.364367979149
 10
2271.67004875199
 20
1072.418349223664
 10
2271.208575288633
 20
1072.518934796114
 10
2270.783306888818
 20
1072.663214571602
 10
2270.406547346493
 20
1072.847014271887
 10
2270.089197005484
 20
1073.065016234897
 10
2269.84043739258
 20
1073.310913264438
 10
2269.667465579138
 20
1073.577591108933
 10
2269.575285956625
 20
1073.857334289757
 10
2269.566565450404
 20
1074.142049324165
 10
2269.641556360697
 20
1074.423498884583
 10
2269.798089063077
 20
1074.693540119578
 10
2270.031634779679
 20
1074.944360241476
  0
ELLIPSE
  5
BCD
330
B51
100
AcDbEntity
  8
0
  6
Continuous
 62
     7
370
    15
100
AcDbEllipse
 10
2272.45996729857
 20
1064.68086535805
 30
0.0
 11
-2.112133331130998
 21
44.01722223807204
 31
0.0
210
0.0
220
0.0
230
1.0
 40
0.0451455594504188
 41
4.869574965664541
 42
4.891690632847522
  0
ARC
  5
BCE
330
B51
100
AcDbEntity
  8
0
  6
Continuous
 62
     7
370
    15
100
AcDbCircle
 10
2273.128961721631
 20
1074.217859316849
 30
0.0
 40
2.728026971682173
100
AcDbArc
 50
290.6723393354101
 51
309.1862876397464
  0
ELLIPSE
  5
BCF
330
B51
100
AcDbEntity
  8
0
  6
Continuous
 62
     7
370
    15
100
AcDbEllipse
 10
2272.45996729857
 20
1064.68086535805
 30
0.0
 11
2.004507383346677
 21
46.38075764019963
 31
0.0
210
0.0
220
0.0
230
1.0
 40
0.0451846437372545
 41
4.87506687880269
 42
4.897182545985672
  0
LWPOLYLINE
  5
BD0
330
B51
100
AcDbEntity
  8
0
  6
Continuous
 62
     7
370
    15
100
AcDbPolyline
 90
       17
 70
   128
 43
0.0
 10
2270.881325794331
 20
1075.433532872559
 10
2271.316445002177
 20
1075.56766748687
 10
2271.784648405123
 20
1075.657290881846
 10
2272.272390020917
 20
1075.699810088469
 10
2272.765558591018
 20
1075.693994948192
 10
2273.24988584515
 20
1075.640013703677
 10
2273.711359308507
 20
1075.539428131227
 10
2274.136627708322
 20
1075.395148355739
 10
2274.513387250647
 20
1075.211348655454
 10
2274.830737591655
 20
1074.993346692443
 10
2275.07949720456
 20
1074.747449662903
 10
2275.252469018002
 20
1074.480771818408
 10
2275.344648640515
 20
1074.201028637584
 10
2275.353369146736
 20
1073.916313603176
 10
2275.278378236443
 20
1073.634864042758
 10
2275.121845534063
 20
1073.364822807763
 10
2274.888299817461
 20
1073.114002685865
  0
LINE
  5
BD1
330
B51
100
AcDbEntity
  8
0
  6
Continuous
 62
     7
370
    15
100
AcDbLine
 10
2271.682053597775
 20
1073.988976890557
 30
0.0
 11
2270.031634779679
 21
1074.944360241476
 31
0.0
  0
LINE
  5
BD2
330
B51
100
AcDbEntity
  8
0
  6
Continuous
 62
     7
370
    15
100
AcDbLine
 10
2271.682053597775
 20
1073.988976890557
 30
0.0
 11
2270.690747414013
 21
1073.418275487628
 31
0.0
  0
LINE
  5
BD3
330
B51
100
AcDbEntity
  8
0
  6
Continuous
 62
     7
370
    15
100
AcDbLine
 10
2270.690747414013
 20
1073.418275487628
 30
0.0
 11
2271.396883800951
 21
1073.009512002771
 31
0.0
  0
LINE
  5
BD4
330
B51
100
AcDbEntity
  8
0
  6
Continuous
 62
     7
370
    15
100
AcDbLine
 10
2271.396883800951
 20
1073.009512002771
 30
0.0
 11
2272.388189984713
 21
1073.580213405701
 31
0.0
  0
LINE
  5
BD5
330
B51
100
AcDbEntity
  8
0
  6
Continuous
 62
     7
370
    15
100
AcDbLine
 10
2274.038608802809
 20
1072.624830054782
 30
0.0
 11
2272.388189984713
 21
1073.580213405701
 31
0.0
  0
LINE
  5
BD6
330
B51
100
AcDbEntity
  8
0
  6
Continuous
 62
     7
370
    15
100
AcDbLine
 10
2272.344687714149
 20
1073.555168866235
 30
0.0
 11
2271.686865047273
 21
1073.935964829599
 31
0.0
  0
LINE
  5
BD7
330
B51
100
AcDbEntity
  8
0
  6
Continuous
 62
     7
370
    15
100
AcDbLine
 10
2273.217208709298
 20
1073.84165358074
 30
0.0
 11
2272.575124911729
 21
1073.47200177177
 31
0.0
  0
LINE
  5
BD8
330
B51
100
AcDbEntity
  8
0
  6
Continuous
 62
     7
370
    15
100
AcDbLine
 10
2274.852648705381
 20
1072.10337726673
 30
0.0
 11
2274.041524368589
 21
1072.572915470245
 31
0.0
  0
LINE
  5
BD9
330
B51
100
AcDbEntity
  8
0
  6
Continuous
 62
     7
370
    15
100
AcDbLine
 10
2273.237880999365
 20
1074.069386036784
 30
0.0
 11
2273.1532738293
 21
1073.137326812818
 31
0.0
  0
LINE
  5
BDA
330
B51
100
AcDbEntity
  8
0
  6
Continuous
 62
     7
370
    15
100
AcDbLine
 10
2273.237880999365
 20
1074.069386036784
 30
0.0
 11
2274.888299817461
 21
1073.114002685865
 31
0.0
  0
LINE
  5
BDB
330
B51
100
AcDbEntity
  8
0
  6
Continuous
 62
     7
370
    15
100
AcDbLine
 10
2273.523050796188
 20
1075.04885092457
 30
0.0
 11
2272.531744612427
 21
1074.478149521641
 31
0.0
  0
LINE
  5
BDC
330
B51
100
AcDbEntity
  8
0
  6
Continuous
 62
     7
370
    15
100
AcDbLine
 10
2270.881325794331
 20
1075.433532872559
 30
0.0
 11
2272.531744612427
 21
1074.478149521641
 31
0.0
  0
LINE
  5
BDD
330
B51
100
AcDbEntity
  8
0
  6
Continuous
 62
     7
370
    15
100
AcDbLine
 10
2273.237880999365
 20
1074.069386036784
 30
0.0
 11
2274.229187183126
 21
1074.640087439713
 31
0.0
  0
LINE
  5
BDE
330
B51
100
AcDbEntity
  8
0
  6
Continuous
 62
     7
370
    15
100
AcDbLine
 10
2274.229187183126
 20
1074.640087439713
 30
0.0
 11
2273.523050796188
 21
1075.04885092457
 31
0.0
  0
LWPOLYLINE
  5
BDF
330
B51
100
AcDbEntity
  8
0
  6
Continuous
 62
     7
370
    15
100
AcDbPolyline
 90
       22
 70
   128
 43
0.0
 10
2272.205144682963
 20
1062.222482765919
 10
2271.949014106091
 20
1062.154216938531
 10
2271.616959047933
 20
1062.13653147345
 10
2271.262479905646
 20
1062.188492212722
 10
2270.892792852331
 20
1062.309041385537
 10
2270.515423650307
 20
1062.495724958371
 10
2270.138054448282
 20
1062.744742592033
 10
2269.768367394968
 20
1063.051025005609
 10
2269.41388825268
 20
1063.408337172404
 10
2269.081833194523
 20
1063.809405247106
 10
2268.778961903911
 20
1064.246064640298
 10
2268.511439966914
 20
1064.709426225956
 10
2268.284713358699
 20
1065.190057298421
 10
2268.103397579184
 20
1065.678173595084
 10
2267.971183694768
 20
1066.163838475755
 10
2267.890763198865
 20
1066.637165204006
 10
2267.863773220857
 20
1067.08851821261
 10
2267.890763198865
 20
1067.508709255908
 10
2267.971183694768
 20
1067.889184455989
 10
2268.103397579184
 20
1068.22219843498
 10
2268.284713358699
 20
1068.5009719886
 10
2268.472149227071
 20
1068.688921212017
  0
LINE
  5
BE0
330
B51
100
AcDbEntity
  8
0
  6
Continuous
 62
     7
370
    15
100
AcDbLine
 10
2271.682053597775
 20
1073.988976890557
 30
0.0
 11
2271.752376056075
 21
1073.214171200961
 31
0.0
  0
LINE
  5
BE1
330
B51
100
AcDbEntity
  8
0
  6
Continuous
 62
     7
370
    15
100
AcDbLine
 10
2272.531628581679
 20
1073.497180634917
 30
0.0
 11
2272.531744612427
 21
1074.478149521641
 31
0.0
  0
LINE
  5
BE2
330
B51
100
AcDbEntity
  8
0
  6
Continuous
 62
     7
370
    15
100
AcDbLine
 10
2273.522954355574
 20
1074.233504617895
 30
0.0
 11
2273.523050796188
 21
1075.04885092457
 31
0.0
  0
ELLIPSE
  5
BE3
330
B51
100
AcDbEntity
  8
0
  6
Continuous
 62
     7
370
    15
100
AcDbEllipse
 10
2266.944534405315
 20
1067.864856994159
 30
0.0
 11
2.004507383346677
 21
46.38075764019958
 31
0.0
210
0.0
220
0.0
230
1.0
 40
0.0451846437372545
 41
1.338786279212373
 42
1.359827043809334
  0
LWPOLYLINE
  5
BE4
330
B51
100
AcDbEntity
  8
0
  6
Continuous
 62
     7
370
    15
100
AcDbPolyline
 90
       17
 70
   128
 43
0.0
 10
2268.523175909553
 20
1075.80882169089
 10
2268.088056701708
 20
1075.674687076579
 10
2267.619853298763
 20
1075.585063681604
 10
2267.132111682967
 20
1075.542544474981
 10
2266.638943112866
 20
1075.548359615258
 10
2266.154615858735
 20
1075.602340859773
 10
2265.693142395378
 20
1075.702926432222
 10
2265.267873995563
 20
1075.84720620771
 10
2264.891114453238
 20
1076.031005907996
 10
2264.573764112229
 20
1076.249007871006
 10
2264.325004499325
 20
1076.494904900547
 10
2264.152032685883
 20
1076.761582745042
 10
2264.059853063369
 20
1077.041325925865
 10
2264.051132557149
 20
1077.326040960274
 10
2264.126123467442
 20
1077.607490520691
 10
2264.282656169822
 20
1077.877531755687
 10
2264.516201886424
 20
1078.128351877585
  0
ELLIPSE
  5
BE5
330
B51
100
AcDbEntity
  8
0
  6
Continuous
 62
     7
370
    15
100
AcDbEllipse
 10
2266.944534405315
 20
1067.864856994159
 30
0.0
 11
-2.112133331130998
 21
44.01722223807209
 31
0.0
210
0.0
220
0.0
230
1.0
 40
0.0451455594504188
 41
4.869574965664542
 42
4.891690632847522
  0
ARC
  5
BE6
330
B51
100
AcDbEntity
  8
0
  6
Continuous
 62
     7
370
    15
100
AcDbCircle
 10
2267.613528828376
 20
1077.401850952958
 30
0.0
 40
2.728026971682338
100
AcDbArc
 50
290.6723393354054
 51
309.1862876397464
  0
ELLIPSE
  5
BE7
330
B51
100
AcDbEntity
  8
0
  6
Continuous
 62
     7
370
    15
100
AcDbEllipse
 10
2266.944534405315
 20
1067.864856994159
 30
0.0
 11
2.004507383346677
 21
46.38075764019958
 31
0.0
210
0.0
220
0.0
230
1.0
 40
0.0451846437372545
 41
4.875066878802689
 42
4.897182545985671
  0
LWPOLYLINE
  5
BE8
330
B51
100
AcDbEntity
  8
0
  6
Continuous
 62
     7
370
    15
100
AcDbPolyline
 90
       17
 70
   128
 43
0.0
 10
2265.365892901076
 20
1078.617524508668
 10
2265.801012108922
 20
1078.751659122979
 10
2266.269215511867
 20
1078.841282517954
 10
2266.756957127662
 20
1078.883801724577
 10
2267.250125697763
 20
1078.8779865843
 10
2267.734452951895
 20
1078.824005339785
 10
2268.195926415252
 20
1078.723419767336
 10
2268.621194815067
 20
1078.579139991848
 10
2268.997954357391
 20
1078.395340291562
 10
2269.3153046984
 20
1078.177338328552
 10
2269.564064311305
 20
1077.931441299011
 10
2269.737036124747
 20
1077.664763454516
 10
2269.82921574726
 20
1077.385020273693
 10
2269.837936253481
 20
1077.100305239284
 10
2269.762945343188
 20
1076.818855678867
 10
2269.606412640808
 20
1076.548814443871
 10
2269.372866924205
 20
1076.297994321973
  0
LINE
  5
BE9
330
B51
100
AcDbEntity
  8
0
  6
Continuous
 62
     7
370
    15
100
AcDbLine
 10
2266.16662070452
 20
1077.172968526666
 30
0.0
 11
2264.516201886424
 21
1078.128351877585
 31
0.0
  0
LINE
  5
BEA
330
B51
100
AcDbEntity
  8
0
  6
Continuous
 62
     7
370
    15
100
AcDbLine
 10
2266.16662070452
 20
1077.172968526666
 30
0.0
 11
2265.175314520758
 21
1076.602267123736
 31
0.0
  0
LINE
  5
BEB
330
B51
100
AcDbEntity
  8
0
  6
Continuous
 62
     7
370
    15
100
AcDbLine
 10
2265.175314520758
 20
1076.602267123736
 30
0.0
 11
2265.881450907697
 21
1076.193503638879
 31
0.0
  0
LINE
  5
BEC
330
B51
100
AcDbEntity
  8
0
  6
Continuous
 62
     7
370
    15
100
AcDbLine
 10
2265.881450907697
 20
1076.193503638879
 30
0.0
 11
2266.872757091458
 21
1076.764205041809
 31
0.0
  0
LINE
  5
BED
330
B51
100
AcDbEntity
  8
0
  6
Continuous
 62
     7
370
    15
100
AcDbLine
 10
2268.523175909553
 20
1075.80882169089
 30
0.0
 11
2266.872757091458
 21
1076.764205041809
 31
0.0
  0
LINE
  5
BEE
330
B51
100
AcDbEntity
  8
0
  6
Continuous
 62
     7
370
    15
100
AcDbLine
 10
2266.829254820894
 20
1076.739160502344
 30
0.0
 11
2266.171432154018
 21
1077.119956465708
 31
0.0
  0
LINE
  5
BEF
330
B51
100
AcDbEntity
  8
0
  6
Continuous
 62
     7
370
    15
100
AcDbLine
 10
2267.701775816043
 20
1077.025645216849
 30
0.0
 11
2267.059692018474
 21
1076.655993407878
 31
0.0
  0
LINE
  5
BF0
330
B51
100
AcDbEntity
  8
0
  6
Continuous
 62
     7
370
    15
100
AcDbLine
 10
2269.337215812126
 20
1075.287368902838
 30
0.0
 11
2268.526091475334
 21
1075.756907106353
 31
0.0
  0
LINE
  5
BF1
330
B51
100
AcDbEntity
  8
0
  6
Continuous
 62
     7
370
    15
100
AcDbLine
 10
2267.72244810611
 20
1077.253377672892
 30
0.0
 11
2267.637840936045
 21
1076.321318448927
 31
0.0
  0
LINE
  5
BF2
330
B51
100
AcDbEntity
  8
0
  6
Continuous
 62
     7
370
    15
100
AcDbLine
 10
2267.72244810611
 20
1077.253377672892
 30
0.0
 11
2269.372866924205
 21
1076.297994321973
 31
0.0
  0
LINE
  5
BF3
330
B51
100
AcDbEntity
  8
0
  6
Continuous
 62
     7
370
    15
100
AcDbLine
 10
2268.007617902934
 20
1078.232842560679
 30
0.0
 11
2267.016311719172
 21
1077.662141157749
 31
0.0
  0
LINE
  5
BF4
330
B51
100
AcDbEntity
  8
0
  6
Continuous
 62
     7
370
    15
100
AcDbLine
 10
2265.365892901076
 20
1078.617524508668
 30
0.0
 11
2267.016311719172
 21
1077.662141157749
 31
0.0
  0
LINE
  5
BF5
330
B51
100
AcDbEntity
  8
0
  6
Continuous
 62
     7
370
    15
100
AcDbLine
 10
2267.72244810611
 20
1077.253377672892
 30
0.0
 11
2268.713754289871
 21
1077.824079075822
 31
0.0
  0
LINE
  5
BF6
330
B51
100
AcDbEntity
  8
0
  6
Continuous
 62
     7
370
    15
100
AcDbLine
 10
2268.713754289871
 20
1077.824079075822
 30
0.0
 11
2268.007617902934
 21
1078.232842560679
 31
0.0
  0
LINE
  5
BF7
330
B51
100
AcDbEntity
  8
0
  6
Continuous
 62
     7
370
    15
100
AcDbLine
 10
2266.16662070452
 20
1077.172968526666
 30
0.0
 11
2266.23694316282
 21
1076.39816283707
 31
0.0
  0
LWPOLYLINE
  5
BF8
330
B51
100
AcDbEntity
  8
0
  6
Continuous
 62
     7
370
    15
100
AcDbPolyline
 90
       20
 70
   128
 43
0.0
 10
2266.312641625647
 20
1066.059649857105
 10
2266.205038060752
 20
1066.030085896066
 10
2265.909385008689
 20
1066.003650058014
 10
2265.590179123191
 20
1066.048129431355
 10
2265.255687669022
 20
1066.162372023685
 10
2264.914573799146
 20
1066.343419011871
 10
2264.57567218361
 20
1066.586581374019
 10
2264.247760196243
 20
1066.885561332675
 10
2263.939330585272
 20
1067.232615463959
 10
2263.658371515612
 20
1067.618755248168
 10
2263.412159679583
 20
1068.033979867722
 10
2263.207071834413
 20
1068.467535223081
 10
2263.048419647562
 20
1068.908192458279
 10
2262.940312127333
 20
1069.34453878239
 10
2262.885549201715
 20
1069.765273054821
 10
2262.885549201715
 20
1070.159498478919
 10
2262.940312127333
 20
1070.517004823276
 10
2263.048419647562
 20
1070.828532861363
 10
2263.207071834413
 20
1071.086014180631
 10
2263.333786497864
 20
1071.219737393042
  0
LINE
  5
BF9
330
B51
100
AcDbEntity
  8
0
  6
Continuous
 62
     7
370
    15
100
AcDbLine
 10
2267.016195688424
 20
1076.681172271025
 30
0.0
 11
2267.016311719172
 21
1077.662141157749
 31
0.0
  0
LINE
  5
BFA
330
B51
100
AcDbEntity
  8
0
  6
Continuous
 62
     7
370
    15
100
AcDbLine
 10
2268.007521462318
 20
1077.417496254004
 30
0.0
 11
2268.007617902934
 21
1078.232842560679
 31
0.0
  0
ELLIPSE
  5
BFB
330
B51
100
AcDbEntity
  8
0
  6
Continuous
 62
     7
370
    15
100
AcDbEllipse
 10
2261.42910151206
 20
1071.048848630267
 30
0.0
 11
2.004507383346677
 21
46.38075764019956
 31
0.0
210
0.0
220
0.0
230
1.0
 40
0.0451846437372546
 41
1.338786279212373
 42
1.359827043809334
  0
LWPOLYLINE
  5
BFC
330
B51
100
AcDbEntity
  8
0
  6
Continuous
 62
     7
370
    15
100
AcDbPolyline
 90
       17
 70
   128
 43
0.0
 10
2263.007743016299
 20
1078.992813326999
 10
2262.572623808452
 20
1078.858678712688
 10
2262.104420405508
 20
1078.769055317712
 10
2261.616678789712
 20
1078.726536111089
 10
2261.123510219611
 20
1078.732351251366
 10
2260.639182965479
 20
1078.786332495881
 10
2260.177709502123
 20
1078.886918068331
 10
2259.752441102308
 20
1079.031197843819
 10
2259.375681559983
 20
1079.214997544104
 10
2259.058331218975
 20
1079.432999507115
 10
2258.80957160607
 20
1079.678896536655
 10
2258.636599792628
 20
1079.945574381151
 10
2258.544420170114
 20
1080.225317561974
 10
2258.535699663894
 20
1080.510032596382
 10
2258.610690574187
 20
1080.7914821568
 10
2258.767223276567
 20
1081.061523391795
 10
2259.000768993169
 20
1081.312343513694
  0
ELLIPSE
  5
BFD
330
B51
100
AcDbEntity
  8
0
  6
Continuous
 62
     7
370
    15
100
AcDbEllipse
 10
2261.42910151206
 20
1071.048848630267
 30
0.0
 11
-2.112133331130998
 21
44.01722223807204
 31
0.0
210
0.0
220
0.0
230
1.0
 40
0.045145559450419
 41
4.869574965664543
 42
4.891690632847524
  0
ARC
  5
BFE
330
B51
100
AcDbEntity
  8
0
  6
Continuous
 62
     7
370
    15
100
AcDbCircle
 10
2262.098095935122
 20
1080.585842589066
 30
0.0
 40
2.728026971682154
100
AcDbArc
 50
290.6723393354054
 51
309.1862876397464
  0
ELLIPSE
  5
BFF
330
B51
100
AcDbEntity
  8
0
  6
Continuous
 62
     7
370
    15
100
AcDbEllipse
 10
2261.42910151206
 20
1071.048848630267
 30
0.0
 11
2.004507383346677
 21
46.38075764019956
 31
0.0
210
0.0
220
0.0
230
1.0
 40
0.0451846437372546
 41
4.875066878802691
 42
4.897182545985673
  0
LWPOLYLINE
  5
C00
330
B51
100
AcDbEntity
  8
0
  6
Continuous
 62
     7
370
    15
100
AcDbPolyline
 90
       17
 70
   128
 43
0.0
 10
2259.850460007822
 20
1081.801516144776
 10
2260.285579215667
 20
1081.935650759088
 10
2260.753782618612
 20
1082.025274154063
 10
2261.241524234407
 20
1082.067793360686
 10
2261.734692804508
 20
1082.061978220409
 10
2262.21902005864
 20
1082.007996975894
 10
2262.680493521997
 20
1081.907411403445
 10
2263.105761921812
 20
1081.763131627956
 10
2263.482521464136
 20
1081.579331927671
 10
2263.799871805145
 20
1081.361329964661
 10
2264.048631418049
 20
1081.11543293512
 10
2264.221603231492
 20
1080.848755090625
 10
2264.313782854005
 20
1080.569011909801
 10
2264.322503360226
 20
1080.284296875393
 10
2264.247512449933
 20
1080.002847314975
 10
2264.090979747553
 20
1079.73280607998
 10
2263.857434030951
 20
1079.481985958082
  0
LINE
  5
C01
330
B51
100
AcDbEntity
  8
0
  6
Continuous
 62
     7
370
    15
100
AcDbLine
 10
2260.651187811265
 20
1080.356960162775
 30
0.0
 11
2259.000768993169
 21
1081.312343513694
 31
0.0
  0
LINE
  5
C02
330
B51
100
AcDbEntity
  8
0
  6
Continuous
 62
     7
370
    15
100
AcDbLine
 10
2260.651187811265
 20
1080.356960162775
 30
0.0
 11
2259.659881627504
 21
1079.786258759845
 31
0.0
  0
LINE
  5
C03
330
B51
100
AcDbEntity
  8
0
  6
Continuous
 62
     7
370
    15
100
AcDbLine
 10
2259.659881627504
 20
1079.786258759845
 30
0.0
 11
2260.366018014441
 21
1079.377495274988
 31
0.0
  0
LINE
  5
C04
330
B51
100
AcDbEntity
  8
0
  6
Continuous
 62
     7
370
    15
100
AcDbLine
 10
2260.366018014441
 20
1079.377495274988
 30
0.0
 11
2261.357324198202
 21
1079.948196677918
 31
0.0
  0
LINE
  5
C05
330
B51
100
AcDbEntity
  8
0
  6
Continuous
 62
     7
370
    15
100
AcDbLine
 10
2263.007743016299
 20
1078.992813326999
 30
0.0
 11
2261.357324198202
 21
1079.948196677918
 31
0.0
  0
LINE
  5
C06
330
B51
100
AcDbEntity
  8
0
  6
Continuous
 62
     7
370
    15
100
AcDbLine
 10
2261.313821927638
 20
1079.923152138452
 30
0.0
 11
2260.655999260762
 21
1080.303948101816
 31
0.0
  0
LINE
  5
C07
330
B51
100
AcDbEntity
  8
0
  6
Continuous
 62
     7
370
    15
100
AcDbLine
 10
2262.186342922788
 20
1080.209636852958
 30
0.0
 11
2261.544259125219
 21
1079.839985043987
 31
0.0
  0
LINE
  5
C08
330
B51
100
AcDbEntity
  8
0
  6
Continuous
 62
     7
370
    15
100
AcDbLine
 10
2263.821782918872
 20
1078.471360538947
 30
0.0
 11
2263.010658582079
 21
1078.940898742462
 31
0.0
  0
LINE
  5
C09
330
B51
100
AcDbEntity
  8
0
  6
Continuous
 62
     7
370
    15
100
AcDbLine
 10
2262.207015212855
 20
1080.437369309001
 30
0.0
 11
2262.12240804279
 21
1079.505310085035
 31
0.0
  0
LINE
  5
C0A
330
B51
100
AcDbEntity
  8
0
  6
Continuous
 62
     7
370
    15
100
AcDbLine
 10
2262.207015212855
 20
1080.437369309001
 30
0.0
 11
2263.857434030951
 21
1079.481985958082
 31
0.0
  0
LINE
  5
C0B
330
B51
100
AcDbEntity
  8
0
  6
Continuous
 62
     7
370
    15
100
AcDbLine
 10
2262.492185009678
 20
1081.416834196788
 30
0.0
 11
2261.500878825917
 21
1080.846132793858
 31
0.0
  0
LINE
  5
C0C
330
B51
100
AcDbEntity
  8
0
  6
Continuous
 62
     7
370
    15
100
AcDbLine
 10
2259.850460007822
 20
1081.801516144776
 30
0.0
 11
2261.500878825917
 21
1080.846132793858
 31
0.0
  0
LINE
  5
C0D
330
B51
100
AcDbEntity
  8
0
  6
Continuous
 62
     7
370
    15
100
AcDbLine
 10
2262.207015212855
 20
1080.437369309001
 30
0.0
 11
2263.198321396616
 21
1081.008070711931
 31
0.0
  0
LINE
  5
C0E
330
B51
100
AcDbEntity
  8
0
  6
Continuous
 62
     7
370
    15
100
AcDbLine
 10
2263.198321396616
 20
1081.008070711931
 30
0.0
 11
2262.492185009678
 21
1081.416834196788
 31
0.0
  0
LINE
  5
C0F
330
B51
100
AcDbEntity
  8
0
  6
Continuous
 62
     7
370
    15
100
AcDbLine
 10
2260.651187811265
 20
1080.356960162775
 30
0.0
 11
2260.721510269565
 21
1079.582154473178
 31
0.0
  0
LWPOLYLINE
  5
C10
330
B51
100
AcDbEntity
  8
0
  6
Continuous
 62
     7
370
    15
100
AcDbPolyline
 90
       20
 70
   128
 43
0.0
 10
2260.797208732389
 20
1069.243641493212
 10
2260.689605167497
 20
1069.214077532175
 10
2260.393952115434
 20
1069.187641694123
 10
2260.074746229936
 20
1069.232121067464
 10
2259.740254775767
 20
1069.346363659794
 10
2259.39914090589
 20
1069.52741064798
 10
2259.060239290355
 20
1069.770573010127
 10
2258.732327302988
 20
1070.069552968784
 10
2258.423897692017
 20
1070.416607100067
 10
2258.142938622356
 20
1070.802746884276
 10
2257.896726786328
 20
1071.21797150383
 10
2257.691638941158
 20
1071.65152685919
 10
2257.532986754307
 20
1072.092184094388
 10
2257.424879234078
 20
1072.528530418498
 10
2257.37011630846
 20
1072.94926469093
 10
2257.37011630846
 20
1073.343490115028
 10
2257.424879234078
 20
1073.700996459384
 10
2257.532986754307
 20
1074.012524497471
 10
2257.691638941158
 20
1074.27000581674
 10
2257.818353604607
 20
1074.403729029149
  0
LINE
  5
C11
330
B51
100
AcDbEntity
  8
0
  6
Continuous
 62
     7
370
    15
100
AcDbLine
 10
2261.500762795168
 20
1079.865163907134
 30
0.0
 11
2261.500878825917
 21
1080.846132793858
 31
0.0
  0
LINE
  5
C12
330
B51
100
AcDbEntity
  8
0
  6
Continuous
 62
     7
370
    15
100
AcDbLine
 10
2262.492088569064
 20
1080.601487890112
 30
0.0
 11
2262.492185009678
 21
1081.416834196788
 31
0.0
  0
ELLIPSE
  5
C13
330
B51
100
AcDbEntity
  8
0
  6
Continuous
 62
     7
370
    15
100
AcDbEllipse
 10
2255.913668618805
 20
1074.232840266376
 30
0.0
 11
2.00450738334667
 21
46.38075764019958
 31
0.0
210
0.0
220
0.0
230
1.0
 40
0.0451846437372546
 41
1.338786279212371
 42
1.359827043809333
  0
LWPOLYLINE
  5
C14
330
B51
100
AcDbEntity
  8
0
  6
Continuous
 62
     7
370
    15
100
AcDbPolyline
 90
       17
 70
   128
 43
0.0
 10
2257.492310123044
 20
1082.176804963108
 10
2257.057190915197
 20
1082.042670348797
 10
2256.588987512252
 20
1081.953046953821
 10
2256.101245896457
 20
1081.910527747198
 10
2255.608077326356
 20
1081.916342887475
 10
2255.123750072224
 20
1081.97032413199
 10
2254.662276608868
 20
1082.070909704439
 10
2254.237008209053
 20
1082.215189479928
 10
2253.860248666728
 20
1082.398989180213
 10
2253.542898325719
 20
1082.616991143223
 10
2253.294138712815
 20
1082.862888172764
 10
2253.121166899372
 20
1083.129566017259
 10
2253.028987276859
 20
1083.409309198082
 10
2253.020266770638
 20
1083.694024232491
 10
2253.095257680931
 20
1083.975473792909
 10
2253.251790383312
 20
1084.245515027904
 10
2253.485336099914
 20
1084.496335149802
  0
ELLIPSE
  5
C15
330
B51
100
AcDbEntity
  8
0
  6
Continuous
 62
     7
370
    15
100
AcDbEllipse
 10
2255.913668618805
 20
1074.232840266376
 30
0.0
 11
-2.112133331130991
 21
44.01722223807209
 31
0.0
210
0.0
220
0.0
230
1.0
 40
0.0451455594504188
 41
4.869574965664542
 42
4.891690632847523
  0
ARC
  5
C16
330
B51
100
AcDbEntity
  8
0
  6
Continuous
 62
     7
370
    15
100
AcDbCircle
 10
2256.582663041867
 20
1083.769834225174
 30
0.0
 40
2.728026971681406
100
AcDbArc
 50
290.6723393354054
 51
309.1862876397464
  0
ELLIPSE
  5
C17
330
B51
100
AcDbEntity
  8
0
  6
Continuous
 62
     7
370
    15
100
AcDbEllipse
 10
2255.913668618805
 20
1074.232840266376
 30
0.0
 11
2.00450738334667
 21
46.38075764019958
 31
0.0
210
0.0
220
0.0
230
1.0
 40
0.0451846437372546
 41
4.87506687880269
 42
4.897182545985671
  0
LWPOLYLINE
  5
C18
330
B51
100
AcDbEntity
  8
0
  6
Continuous
 62
     7
370
    15
100
AcDbPolyline
 90
       17
 70
   128
 43
0.0
 10
2254.335027114566
 20
1084.985507780885
 10
2254.770146322412
 20
1085.119642395196
 10
2255.238349725357
 20
1085.209265790171
 10
2255.726091341152
 20
1085.251784996795
 10
2256.219259911253
 20
1085.245969856518
 10
2256.703587165385
 20
1085.191988612002
 10
2257.165060628742
 20
1085.091403039553
 10
2257.590329028556
 20
1084.947123264065
 10
2257.967088570881
 20
1084.76332356378
 10
2258.28443891189
 20
1084.545321600769
 10
2258.533198524794
 20
1084.299424571228
 10
2258.706170338236
 20
1084.032746726733
 10
2258.79834996075
 20
1083.75300354591
 10
2258.807070466971
 20
1083.468288511501
 10
2258.732079556678
 20
1083.186838951084
 10
2258.575546854297
 20
1082.916797716088
 10
2258.342001137696
 20
1082.66597759419
  0
LINE
  5
C19
330
B51
100
AcDbEntity
  8
0
  6
Continuous
 62
     7
370
    15
100
AcDbLine
 10
2255.135754918009
 20
1083.540951798883
 30
0.0
 11
2253.485336099914
 21
1084.496335149802
 31
0.0
  0
LINE
  5
C1A
330
B51
100
AcDbEntity
  8
0
  6
Continuous
 62
     7
370
    15
100
AcDbLine
 10
2255.135754918009
 20
1083.540951798883
 30
0.0
 11
2254.144448734249
 21
1082.970250395953
 31
0.0
  0
LINE
  5
C1B
330
B51
100
AcDbEntity
  8
0
  6
Continuous
 62
     7
370
    15
100
AcDbLine
 10
2254.144448734249
 20
1082.970250395953
 30
0.0
 11
2254.850585121186
 21
1082.561486911096
 31
0.0
  0
LINE
  5
C1C
330
B51
100
AcDbEntity
  8
0
  6
Continuous
 62
     7
370
    15
100
AcDbLine
 10
2254.850585121186
 20
1082.561486911096
 30
0.0
 11
2255.841891304947
 21
1083.132188314026
 31
0.0
  0
LINE
  5
C1D
330
B51
100
AcDbEntity
  8
0
  6
Continuous
 62
     7
370
    15
100
AcDbLine
 10
2257.492310123044
 20
1082.176804963108
 30
0.0
 11
2255.841891304947
 21
1083.132188314026
 31
0.0
  0
LINE
  5
C1E
330
B51
100
AcDbEntity
  8
0
  6
Continuous
 62
     7
370
    15
100
AcDbLine
 10
2255.798389034383
 20
1083.107143774561
 30
0.0
 11
2255.140566367507
 21
1083.487939737925
 31
0.0
  0
LINE
  5
C1F
330
B51
100
AcDbEntity
  8
0
  6
Continuous
 62
     7
370
    15
100
AcDbLine
 10
2256.670910029532
 20
1083.393628489066
 30
0.0
 11
2256.028826231964
 21
1083.023976680095
 31
0.0
  0
LINE
  5
C20
330
B51
100
AcDbEntity
  8
0
  6
Continuous
 62
     7
370
    15
100
AcDbLine
 10
2258.306350025616
 20
1081.655352175055
 30
0.0
 11
2257.495225688824
 21
1082.124890378571
 31
0.0
  0
LINE
  5
C21
330
B51
100
AcDbEntity
  8
0
  6
Continuous
 62
     7
370
    15
100
AcDbLine
 10
2256.6915823196
 20
1083.621360945109
 30
0.0
 11
2256.606975149535
 21
1082.689301721144
 31
0.0
  0
LINE
  5
C22
330
B51
100
AcDbEntity
  8
0
  6
Continuous
 62
     7
370
    15
100
AcDbLine
 10
2256.6915823196
 20
1083.621360945109
 30
0.0
 11
2258.342001137696
 21
1082.66597759419
 31
0.0
  0
LINE
  5
C23
330
B51
100
AcDbEntity
  8
0
  6
Continuous
 62
     7
370
    15
100
AcDbLine
 10
2256.976752116423
 20
1084.600825832896
 30
0.0
 11
2255.985445932662
 21
1084.030124429966
 31
0.0
  0
LINE
  5
C24
330
B51
100
AcDbEntity
  8
0
  6
Continuous
 62
     7
370
    15
100
AcDbLine
 10
2254.335027114566
 20
1084.985507780885
 30
0.0
 11
2255.985445932662
 21
1084.030124429966
 31
0.0
  0
LINE
  5
C25
330
B51
100
AcDbEntity
  8
0
  6
Continuous
 62
     7
370
    15
100
AcDbLine
 10
2256.6915823196
 20
1083.621360945109
 30
0.0
 11
2257.682888503361
 21
1084.192062348039
 31
0.0
  0
LINE
  5
C26
330
B51
100
AcDbEntity
  8
0
  6
Continuous
 62
     7
370
    15
100
AcDbLine
 10
2257.682888503361
 20
1084.192062348039
 30
0.0
 11
2256.976752116423
 21
1084.600825832896
 31
0.0
  0
LINE
  5
C27
330
B51
100
AcDbEntity
  8
0
  6
Continuous
 62
     7
370
    15
100
AcDbLine
 10
2255.135754918009
 20
1083.540951798883
 30
0.0
 11
2255.20607737631
 21
1082.766146109287
 31
0.0
  0
LWPOLYLINE
  5
C28
330
B51
100
AcDbEntity
  8
0
  6
Continuous
 62
     7
370
    15
100
AcDbPolyline
 90
       20
 70
   128
 43
0.0
 10
2255.281775839137
 20
1072.427633129322
 10
2255.174172274241
 20
1072.398069168283
 10
2254.878519222179
 20
1072.371633330231
 10
2254.559313336681
 20
1072.416112703573
 10
2254.224821882512
 20
1072.530355295903
 10
2253.883708012635
 20
1072.711402284089
 10
2253.5448063971
 20
1072.954564646236
 10
2253.216894409733
 20
1073.253544604892
 10
2252.908464798762
 20
1073.600598736176
 10
2252.627505729101
 20
1073.986738520385
 10
2252.381293893073
 20
1074.401963139939
 10
2252.176206047903
 20
1074.835518495299
 10
2252.017553861052
 20
1075.276175730496
 10
2251.909446340823
 20
1075.712522054607
 10
2251.854683415205
 20
1076.133256327038
 10
2251.854683415205
 20
1076.527481751136
 10
2251.909446340823
 20
1076.884988095493
 10
2252.017553861052
 20
1077.19651613358
 10
2252.176206047903
 20
1077.453997452848
 10
2252.302920711354
 20
1077.587720665259
  0
LINE
  5
C29
330
B51
100
AcDbEntity
  8
0
  6
Continuous
 62
     7
370
    15
100
AcDbLine
 10
2255.985329901913
 20
1083.049155543243
 30
0.0
 11
2255.985445932662
 21
1084.030124429966
 31
0.0
  0
LINE
  5
C2A
330
B51
100
AcDbEntity
  8
0
  6
Continuous
 62
     7
370
    15
100
AcDbLine
 10
2256.976655675809
 20
1083.785479526221
 30
0.0
 11
2256.976752116423
 21
1084.600825832896
 31
0.0
  0
ELLIPSE
  5
C2B
330
B51
100
AcDbEntity
  8
0
  6
Continuous
 62
     7
370
    15
100
AcDbEllipse
 10
2250.398235725549
 20
1077.416831902485
 30
0.0
 11
2.004507383346677
 21
46.38075764019958
 31
0.0
210
0.0
220
0.0
230
1.0
 40
0.0451846437372545
 41
1.338786279212371
 42
1.359827043809334
  0
LWPOLYLINE
  5
C2C
330
B51
100
AcDbEntity
  8
0
  6
Continuous
 62
     7
370
    15
100
AcDbPolyline
 90
       17
 70
   128
 43
0.0
 10
2251.976877229788
 20
1085.360796599216
 10
2251.541758021943
 20
1085.226661984905
 10
2251.073554618997
 20
1085.137038589929
 10
2250.585813003202
 20
1085.094519383306
 10
2250.092644433101
 20
1085.100334523584
 10
2249.60831717897
 20
1085.154315768098
 10
2249.146843715613
 20
1085.254901340548
 10
2248.721575315798
 20
1085.399181116036
 10
2248.344815773473
 20
1085.582980816321
 10
2248.027465432465
 20
1085.800982779332
 10
2247.77870581956
 20
1086.046879808873
 10
2247.605734006118
 20
1086.313557653368
 10
2247.513554383604
 20
1086.593300834191
 10
2247.504833877383
 20
1086.8780158686
 10
2247.579824787676
 20
1087.159465429017
 10
2247.736357490057
 20
1087.429506664013
 10
2247.969903206659
 20
1087.680326785911
  0
ELLIPSE
  5
C2D
330
B51
100
AcDbEntity
  8
0
  6
Continuous
 62
     7
370
    15
100
AcDbEllipse
 10
2250.398235725549
 20
1077.416831902485
 30
0.0
 11
-2.112133331131005
 21
44.01722223807209
 31
0.0
210
0.0
220
0.0
230
1.0
 40
0.0451455594504188
 41
4.869574965664542
 42
4.891690632847521
  0
ARC
  5
C2E
330
B51
100
AcDbEntity
  8
0
  6
Continuous
 62
     7
370
    15
100
AcDbCircle
 10
2251.067230148612
 20
1086.953825861282
 30
0.0
 40
2.728026971681132
100
AcDbArc
 50
290.6723393354054
 51
309.1862876397464
  0
ELLIPSE
  5
C2F
330
B51
100
AcDbEntity
  8
0
  6
Continuous
 62
     7
370
    15
100
AcDbEllipse
 10
2250.398235725549
 20
1077.416831902485
 30
0.0
 11
2.004507383346677
 21
46.38075764019958
 31
0.0
210
0.0
220
0.0
230
1.0
 40
0.0451846437372545
 41
4.875066878802689
 42
4.897182545985673
  0
LWPOLYLINE
  5
C30
330
B51
100
AcDbEntity
  8
0
  6
Continuous
 62
     7
370
    15
100
AcDbPolyline
 90
       17
 70
   128
 43
0.0
 10
2248.819594221311
 20
1088.169499416993
 10
2249.254713429157
 20
1088.303634031305
 10
2249.722916832102
 20
1088.39325742628
 10
2250.210658447897
 20
1088.435776632903
 10
2250.703827017998
 20
1088.429961492626
 10
2251.18815427213
 20
1088.375980248111
 10
2251.649627735487
 20
1088.275394675662
 10
2252.074896135301
 20
1088.131114900173
 10
2252.451655677626
 20
1087.947315199888
 10
2252.769006018635
 20
1087.729313236878
 10
2253.017765631539
 20
1087.483416207337
 10
2253.190737444981
 20
1087.216738362842
 10
2253.282917067495
 20
1086.936995182019
 10
2253.291637573716
 20
1086.65228014761
 10
2253.216646663423
 20
1086.370830587192
 10
2253.060113961042
 20
1086.100789352197
 10
2252.826568244441
 20
1085.849969230299
  0
LINE
  5
C31
330
B51
100
AcDbEntity
  8
0
  6
Continuous
 62
     7
370
    15
100
AcDbLine
 10
2249.620322024755
 20
1086.724943434992
 30
0.0
 11
2247.969903206659
 21
1087.680326785911
 31
0.0
  0
LINE
  5
C32
330
B51
100
AcDbEntity
  8
0
  6
Continuous
 62
     7
370
    15
100
AcDbLine
 10
2249.620322024755
 20
1086.724943434992
 30
0.0
 11
2248.629015840993
 21
1086.154242032062
 31
0.0
  0
LINE
  5
C33
330
B51
100
AcDbEntity
  8
0
  6
Continuous
 62
     7
370
    15
100
AcDbLine
 10
2248.629015840993
 20
1086.154242032062
 30
0.0
 11
2249.335152227931
 21
1085.745478547205
 31
0.0
  0
LINE
  5
C34
330
B51
100
AcDbEntity
  8
0
  6
Continuous
 62
     7
370
    15
100
AcDbLine
 10
2249.335152227931
 20
1085.745478547205
 30
0.0
 11
2250.326458411692
 21
1086.316179950135
 31
0.0
  0
LINE
  5
C35
330
B51
100
AcDbEntity
  8
0
  6
Continuous
 62
     7
370
    15
100
AcDbLine
 10
2251.976877229788
 20
1085.360796599216
 30
0.0
 11
2250.326458411692
 21
1086.316179950135
 31
0.0
  0
LINE
  5
C36
330
B51
100
AcDbEntity
  8
0
  6
Continuous
 62
     7
370
    15
100
AcDbLine
 10
2250.282956141129
 20
1086.29113541067
 30
0.0
 11
2249.625133474252
 21
1086.671931374033
 31
0.0
  0
LINE
  5
C37
330
B51
100
AcDbEntity
  8
0
  6
Continuous
 62
     7
370
    15
100
AcDbLine
 10
2251.155477136277
 20
1086.577620125175
 30
0.0
 11
2250.513393338708
 21
1086.207968316204
 31
0.0
  0
LINE
  5
C38
330
B51
100
AcDbEntity
  8
0
  6
Continuous
 62
     7
370
    15
100
AcDbLine
 10
2252.790917132362
 20
1084.839343811164
 30
0.0
 11
2251.979792795569
 21
1085.308882014679
 31
0.0
  0
LINE
  5
C39
330
B51
100
AcDbEntity
  8
0
  6
Continuous
 62
     7
370
    15
100
AcDbLine
 10
2251.176149426345
 20
1086.805352581218
 30
0.0
 11
2251.091542256279
 21
1085.873293357252
 31
0.0
  0
LINE
  5
C3A
330
B51
100
AcDbEntity
  8
0
  6
Continuous
 62
     7
370
    15
100
AcDbLine
 10
2251.176149426345
 20
1086.805352581218
 30
0.0
 11
2252.826568244441
 21
1085.849969230299
 31
0.0
  0
LINE
  5
C3B
330
B51
100
AcDbEntity
  8
0
  6
Continuous
 62
     7
370
    15
100
AcDbLine
 10
2251.461319223168
 20
1087.784817469005
 30
0.0
 11
2250.470013039407
 21
1087.214116066075
 31
0.0
  0
LINE
  5
C3C
330
B51
100
AcDbEntity
  8
0
  6
Continuous
 62
     7
370
    15
100
AcDbLine
 10
2248.819594221311
 20
1088.169499416993
 30
0.0
 11
2250.470013039407
 21
1087.214116066075
 31
0.0
  0
LINE
  5
C3D
330
B51
100
AcDbEntity
  8
0
  6
Continuous
 62
     7
370
    15
100
AcDbLine
 10
2251.176149426345
 20
1086.805352581218
 30
0.0
 11
2252.167455610106
 21
1087.376053984148
 31
0.0
  0
LINE
  5
C3E
330
B51
100
AcDbEntity
  8
0
  6
Continuous
 62
     7
370
    15
100
AcDbLine
 10
2252.167455610106
 20
1087.376053984148
 30
0.0
 11
2251.461319223168
 21
1087.784817469005
 31
0.0
  0
LINE
  5
C3F
330
B51
100
AcDbEntity
  8
0
  6
Continuous
 62
     7
370
    15
100
AcDbLine
 10
2249.620322024755
 20
1086.724943434992
 30
0.0
 11
2249.690644483056
 21
1085.950137745395
 31
0.0
  0
LWPOLYLINE
  5
C40
330
B51
100
AcDbEntity
  8
0
  6
Continuous
 62
     7
370
    15
100
AcDbPolyline
 90
       20
 70
   128
 43
0.0
 10
2249.766342945881
 20
1075.61162476543
 10
2249.658739380986
 20
1075.582060804392
 10
2249.363086328924
 20
1075.55562496634
 10
2249.043880443426
 20
1075.600104339681
 10
2248.709388989257
 20
1075.714346932011
 10
2248.36827511938
 20
1075.895393920197
 10
2248.029373503845
 20
1076.138556282344
 10
2247.701461516478
 20
1076.437536241001
 10
2247.393031905507
 20
1076.784590372284
 10
2247.112072835846
 20
1077.170730156494
 10
2246.865860999818
 20
1077.585954776047
 10
2246.660773154648
 20
1078.019510131407
 10
2246.502120967797
 20
1078.460167366605
 10
2246.394013447568
 20
1078.896513690716
 10
2246.33925052195
 20
1079.317247963147
 10
2246.33925052195
 20
1079.711473387245
 10
2246.394013447568
 20
1080.068979731602
 10
2246.502120967797
 20
1080.380507769688
 10
2246.660773154648
 20
1080.637989088957
 10
2246.787487818099
 20
1080.771712301368
  0
LINE
  5
C41
330
B51
100
AcDbEntity
  8
0
  6
Continuous
 62
     7
370
    15
100
AcDbLine
 10
2250.469897008658
 20
1086.233147179351
 30
0.0
 11
2250.470013039407
 21
1087.214116066075
 31
0.0
  0
LINE
  5
C42
330
B51
100
AcDbEntity
  8
0
  6
Continuous
 62
     7
370
    15
100
AcDbLine
 10
2251.461222782554
 20
1086.969471162329
 30
0.0
 11
2251.461319223168
 21
1087.784817469005
 31
0.0
  0
ELLIPSE
  5
C43
330
B51
100
AcDbEntity
  8
0
  6
Continuous
 62
     7
370
    15
100
AcDbEllipse
 10
2244.882802832295
 20
1080.600823538593
 30
0.0
 11
2.004507383346677
 21
46.38075764019956
 31
0.0
210
0.0
220
0.0
230
1.0
 40
0.0451846437372545
 41
1.338786279212373
 42
1.359827043809335
  0
LWPOLYLINE
  5
C44
330
B51
100
AcDbEntity
  8
0
  6
Continuous
 62
     7
370
    15
100
AcDbPolyline
 90
       17
 70
   128
 43
0.0
 10
2246.461444336533
 20
1088.544788235325
 10
2246.026325128688
 20
1088.410653621014
 10
2245.558121725742
 20
1088.321030226038
 10
2245.070380109947
 20
1088.278511019415
 10
2244.577211539846
 20
1088.284326159692
 10
2244.092884285715
 20
1088.338307404207
 10
2243.631410822358
 20
1088.438892976657
 10
2243.206142422543
 20
1088.583172752145
 10
2242.829382880218
 20
1088.76697245243
 10
2242.512032539209
 20
1088.98497441544
 10
2242.263272926305
 20
1089.230871444981
 10
2242.090301112863
 20
1089.497549289476
 10
2241.998121490349
 20
1089.777292470299
 10
2241.989400984128
 20
1090.062007504708
 10
2242.064391894421
 20
1090.343457065126
 10
2242.220924596802
 20
1090.613498300121
 10
2242.454470313404
 20
1090.864318422019
  0
ELLIPSE
  5
C45
330
B51
100
AcDbEntity
  8
0
  6
Continuous
 62
     7
370
    15
100
AcDbEllipse
 10
2244.882802832295
 20
1080.600823538593
 30
0.0
 11
-2.112133331131005
 21
44.01722223807209
 31
0.0
210
0.0
220
0.0
230
1.0
 40
0.0451455594504191
 41
4.869574965664543
 42
4.891690632847524
  0
ARC
  5
C46
330
B51
100
AcDbEntity
  8
0
  6
Continuous
 62
     7
370
    15
100
AcDbCircle
 10
2245.551797255356
 20
1090.137817497393
 30
0.0
 40
2.728026971683526
100
AcDbArc
 50
290.6723393354101
 51
309.1862876397464
  0
ELLIPSE
  5
C47
330
B51
100
AcDbEntity
  8
0
  6
Continuous
 62
     7
370
    15
100
AcDbEllipse
 10
2244.882802832295
 20
1080.600823538593
 30
0.0
 11
2.004507383346677
 21
46.38075764019956
 31
0.0
210
0.0
220
0.0
230
1.0
 40
0.0451846437372545
 41
4.87506687880269
 42
4.897182545985673
  0
LWPOLYLINE
  5
C48
330
B51
100
AcDbEntity
  8
0
  6
Continuous
 62
     7
370
    15
100
AcDbPolyline
 90
       17
 70
   128
 43
0.0
 10
2243.304161328056
 20
1091.353491053102
 10
2243.739280535902
 20
1091.487625667413
 10
2244.207483938847
 20
1091.577249062389
 10
2244.695225554642
 20
1091.619768269012
 10
2245.188394124743
 20
1091.613953128735
 10
2245.672721378875
 20
1091.55997188422
 10
2246.134194842232
 20
1091.45938631177
 10
2246.559463242046
 20
1091.315106536282
 10
2246.936222784372
 20
1091.131306835997
 10
2247.25357312538
 20
1090.913304872986
 10
2247.502332738284
 20
1090.667407843445
 10
2247.675304551727
 20
1090.40072999895
 10
2247.767484174239
 20
1090.120986818127
 10
2247.776204680461
 20
1089.836271783719
 10
2247.701213770168
 20
1089.554822223301
 10
2247.544681067787
 20
1089.284780988306
 10
2247.311135351186
 20
1089.033960866407
  0
LINE
  5
C49
330
B51
100
AcDbEntity
  8
0
  6
Continuous
 62
     7
370
    15
100
AcDbLine
 10
2244.1048891315
 20
1089.9089350711
 30
0.0
 11
2242.454470313404
 21
1090.864318422019
 31
0.0
  0
LINE
  5
C4A
330
B51
100
AcDbEntity
  8
0
  6
Continuous
 62
     7
370
    15
100
AcDbLine
 10
2244.1048891315
 20
1089.9089350711
 30
0.0
 11
2243.113582947739
 21
1089.33823366817
 31
0.0
  0
LINE
  5
C4B
330
B51
100
AcDbEntity
  8
0
  6
Continuous
 62
     7
370
    15
100
AcDbLine
 10
2243.113582947739
 20
1089.33823366817
 30
0.0
 11
2243.819719334676
 21
1088.929470183313
 31
0.0
  0
LINE
  5
C4C
330
B51
100
AcDbEntity
  8
0
  6
Continuous
 62
     7
370
    15
100
AcDbLine
 10
2243.819719334676
 20
1088.929470183313
 30
0.0
 11
2244.811025518437
 21
1089.500171586244
 31
0.0
  0
LINE
  5
C4D
330
B51
100
AcDbEntity
  8
0
  6
Continuous
 62
     7
370
    15
100
AcDbLine
 10
2246.461444336533
 20
1088.544788235325
 30
0.0
 11
2244.811025518437
 21
1089.500171586244
 31
0.0
  0
LINE
  5
C4E
330
B51
100
AcDbEntity
  8
0
  6
Continuous
 62
     7
370
    15
100
AcDbLine
 10
2244.767523247873
 20
1089.475127046778
 30
0.0
 11
2244.109700580998
 21
1089.855923010142
 31
0.0
  0
LINE
  5
C4F
330
B51
100
AcDbEntity
  8
0
  6
Continuous
 62
     7
370
    15
100
AcDbLine
 10
2245.640044243022
 20
1089.761611761283
 30
0.0
 11
2244.997960445453
 21
1089.391959952313
 31
0.0
  0
LINE
  5
C50
330
B51
100
AcDbEntity
  8
0
  6
Continuous
 62
     7
370
    15
100
AcDbLine
 10
2247.275484239107
 20
1088.023335447272
 30
0.0
 11
2246.464359902313
 21
1088.492873650788
 31
0.0
  0
LINE
  5
C51
330
B51
100
AcDbEntity
  8
0
  6
Continuous
 62
     7
370
    15
100
AcDbLine
 10
2245.66071653309
 20
1089.989344217326
 30
0.0
 11
2245.576109363025
 21
1089.057284993361
 31
0.0
  0
LINE
  5
C52
330
B51
100
AcDbEntity
  8
0
  6
Continuous
 62
     7
370
    15
100
AcDbLine
 10
2245.66071653309
 20
1089.989344217326
 30
0.0
 11
2247.311135351186
 21
1089.033960866407
 31
0.0
  0
LINE
  5
C53
330
B51
100
AcDbEntity
  8
0
  6
Continuous
 62
     7
370
    15
100
AcDbLine
 10
2245.945886329913
 20
1090.968809105113
 30
0.0
 11
2244.954580146152
 21
1090.398107702183
 31
0.0
  0
LINE
  5
C54
330
B51
100
AcDbEntity
  8
0
  6
Continuous
 62
     7
370
    15
100
AcDbLine
 10
2243.304161328056
 20
1091.353491053102
 30
0.0
 11
2244.954580146152
 21
1090.398107702183
 31
0.0
  0
LINE
  5
C55
330
B51
100
AcDbEntity
  8
0
  6
Continuous
 62
     7
370
    15
100
AcDbLine
 10
2245.66071653309
 20
1089.989344217326
 30
0.0
 11
2246.652022716851
 21
1090.560045620256
 31
0.0
  0
LINE
  5
C56
330
B51
100
AcDbEntity
  8
0
  6
Continuous
 62
     7
370
    15
100
AcDbLine
 10
2246.652022716851
 20
1090.560045620256
 30
0.0
 11
2245.945886329913
 21
1090.968809105113
 31
0.0
  0
LINE
  5
C57
330
B51
100
AcDbEntity
  8
0
  6
Continuous
 62
     7
370
    15
100
AcDbLine
 10
2244.1048891315
 20
1089.9089350711
 30
0.0
 11
2244.1752115898
 21
1089.134129381504
 31
0.0
  0
LWPOLYLINE
  5
C58
330
B51
100
AcDbEntity
  8
0
  6
Continuous
 62
     7
370
    15
100
AcDbPolyline
 90
       20
 70
   128
 43
0.0
 10
2244.250910052627
 20
1078.795616401539
 10
2244.143306487732
 20
1078.7660524405
 10
2243.847653435669
 20
1078.739616602448
 10
2243.528447550172
 20
1078.78409597579
 10
2243.193956096002
 20
1078.89833856812
 10
2242.852842226125
 20
1079.079385556306
 10
2242.51394061059
 20
1079.322547918453
 10
2242.186028623223
 20
1079.621527877109
 10
2241.877599012252
 20
1079.968582008393
 10
2241.596639942591
 20
1080.354721792602
 10
2241.350428106563
 20
1080.769946412156
 10
2241.145340261393
 20
1081.203501767516
 10
2240.986688074541
 20
1081.644159002713
 10
2240.878580554313
 20
1082.080505326824
 10
2240.823817628695
 20
1082.501239599255
 10
2240.823817628695
 20
1082.895465023353
 10
2240.878580554313
 20
1083.25297136771
 10
2240.986688074541
 20
1083.564499405797
 10
2241.145340261393
 20
1083.821980725065
 10
2241.272054924844
 20
1083.955703937476
  0
LINE
  5
C59
330
B51
100
AcDbEntity
  8
0
  6
Continuous
 62
     7
370
    15
100
AcDbLine
 10
2244.954464115403
 20
1089.41713881546
 30
0.0
 11
2244.954580146152
 21
1090.398107702183
 31
0.0
  0
LINE
  5
C5A
330
B51
100
AcDbEntity
  8
0
  6
Continuous
 62
     7
370
    15
100
AcDbLine
 10
2245.945789889299
 20
1090.153462798438
 30
0.0
 11
2245.945886329913
 21
1090.968809105113
 31
0.0
  0
ELLIPSE
  5
C5B
330
B51
100
AcDbEntity
  8
0
  6
Continuous
 62
     7
370
    15
100
AcDbEllipse
 10
2239.367369939039
 20
1083.784815174702
 30
0.0
 11
2.004507383346663
 21
46.38075764019956
 31
0.0
210
0.0
220
0.0
230
1.0
 40
0.0451846437372542
 41
1.338786279212373
 42
1.359827043809335
  0
LWPOLYLINE
  5
C5C
330
B51
100
AcDbEntity
  8
0
  6
Continuous
 62
     7
370
    15
100
AcDbPolyline
 90
       17
 70
   128
 43
0.0
 10
2240.946011443278
 20
1091.728779871433
 10
2240.510892235433
 20
1091.594645257122
 10
2240.042688832487
 20
1091.505021862147
 10
2239.554947216692
 20
1091.462502655524
 10
2239.061778646591
 20
1091.468317795801
 10
2238.57745139246
 20
1091.522299040316
 10
2238.115977929103
 20
1091.622884612765
 10
2237.690709529288
 20
1091.767164388254
 10
2237.313949986963
 20
1091.950964088538
 10
2236.996599645954
 20
1092.168966051549
 10
2236.74784003305
 20
1092.41486308109
 10
2236.574868219607
 20
1092.681540925585
 10
2236.482688597094
 20
1092.961284106408
 10
2236.473968090873
 20
1093.245999140817
 10
2236.548959001166
 20
1093.527448701234
 10
2236.705491703547
 20
1093.79748993623
 10
2236.939037420148
 20
1094.048310058128
  0
ELLIPSE
  5
C5D
330
B51
100
AcDbEntity
  8
0
  6
Continuous
 62
     7
370
    15
100
AcDbEllipse
 10
2239.367369939039
 20
1083.784815174702
 30
0.0
 11
-2.112133331131005
 21
44.01722223807204
 31
0.0
210
0.0
220
0.0
230
1.0
 40
0.0451455594504192
 41
4.869574965664543
 42
4.891690632847525
  0
ARC
  5
C5E
330
B51
100
AcDbEntity
  8
0
  6
Continuous
 62
     7
370
    15
100
AcDbCircle
 10
2240.0363643621
 20
1093.321809133502
 30
0.0
 40
2.728026971684066
100
AcDbArc
 50
290.6723393354101
 51
309.1862876397464
  0
ELLIPSE
  5
C5F
330
B51
100
AcDbEntity
  8
0
  6
Continuous
 62
     7
370
    15
100
AcDbEllipse
 10
2239.367369939039
 20
1083.784815174702
 30
0.0
 11
2.004507383346663
 21
46.38075764019956
 31
0.0
210
0.0
220
0.0
230
1.0
 40
0.0451846437372542
 41
4.875066878802689
 42
4.897182545985671
  0
LWPOLYLINE
  5
C60
330
B51
100
AcDbEntity
  8
0
  6
Continuous
 62
     7
370
    15
100
AcDbPolyline
 90
       17
 70
   128
 43
0.0
 10
2237.788728434801
 20
1094.537482689211
 10
2238.223847642647
 20
1094.671617303522
 10
2238.692051045592
 20
1094.761240698497
 10
2239.179792661387
 20
1094.80375990512
 10
2239.672961231487
 20
1094.797944764843
 10
2240.15728848562
 20
1094.743963520328
 10
2240.618761948977
 20
1094.643377947879
 10
2241.044030348791
 20
1094.49909817239
 10
2241.420789891117
 20
1094.315298472105
 10
2241.738140232125
 20
1094.097296509095
 10
2241.986899845029
 20
1093.851399479554
 10
2242.159871658472
 20
1093.584721635059
 10
2242.252051280985
 20
1093.304978454236
 10
2242.260771787206
 20
1093.020263419827
 10
2242.185780876913
 20
1092.738813859409
 10
2242.029248174532
 20
1092.468772624414
 10
2241.795702457931
 20
1092.217952502516
  0
LINE
  5
C61
330
B51
100
AcDbEntity
  8
0
  6
Continuous
 62
     7
370
    15
100
AcDbLine
 10
2238.589456238245
 20
1093.092926707209
 30
0.0
 11
2236.939037420148
 21
1094.048310058128
 31
0.0
  0
LINE
  5
C62
330
B51
100
AcDbEntity
  8
0
  6
Continuous
 62
     7
370
    15
100
AcDbLine
 10
2238.589456238245
 20
1093.092926707209
 30
0.0
 11
2237.598150054483
 21
1092.522225304279
 31
0.0
  0
LINE
  5
C63
330
B51
100
AcDbEntity
  8
0
  6
Continuous
 62
     7
370
    15
100
AcDbLine
 10
2237.598150054483
 20
1092.522225304279
 30
0.0
 11
2238.304286441421
 21
1092.113461819422
 31
0.0
  0
LINE
  5
C64
330
B51
100
AcDbEntity
  8
0
  6
Continuous
 62
     7
370
    15
100
AcDbLine
 10
2238.304286441421
 20
1092.113461819422
 30
0.0
 11
2239.295592625182
 21
1092.684163222352
 31
0.0
  0
LINE
  5
C65
330
B51
100
AcDbEntity
  8
0
  6
Continuous
 62
     7
370
    15
100
AcDbLine
 10
2240.946011443278
 20
1091.728779871433
 30
0.0
 11
2239.295592625182
 21
1092.684163222352
 31
0.0
  0
LINE
  5
C66
330
B51
100
AcDbEntity
  8
0
  6
Continuous
 62
     7
370
    15
100
AcDbLine
 10
2239.252090354618
 20
1092.659118682887
 30
0.0
 11
2238.594267687742
 21
1093.039914646251
 31
0.0
  0
LINE
  5
C67
330
B51
100
AcDbEntity
  8
0
  6
Continuous
 62
     7
370
    15
100
AcDbLine
 10
2240.124611349767
 20
1092.945603397392
 30
0.0
 11
2239.482527552199
 21
1092.575951588421
 31
0.0
  0
LINE
  5
C68
330
B51
100
AcDbEntity
  8
0
  6
Continuous
 62
     7
370
    15
100
AcDbLine
 10
2241.760051345851
 20
1091.207327083381
 30
0.0
 11
2240.948927009059
 21
1091.676865286896
 31
0.0
  0
LINE
  5
C69
330
B51
100
AcDbEntity
  8
0
  6
Continuous
 62
     7
370
    15
100
AcDbLine
 10
2240.145283639835
 20
1093.173335853435
 30
0.0
 11
2240.06067646977
 21
1092.24127662947
 31
0.0
  0
LINE
  5
C6A
330
B51
100
AcDbEntity
  8
0
  6
Continuous
 62
     7
370
    15
100
AcDbLine
 10
2240.145283639835
 20
1093.173335853435
 30
0.0
 11
2241.795702457931
 21
1092.217952502516
 31
0.0
  0
LINE
  5
C6B
330
B51
100
AcDbEntity
  8
0
  6
Continuous
 62
     7
370
    15
100
AcDbLine
 10
2240.430453436658
 20
1094.152800741222
 30
0.0
 11
2239.439147252897
 21
1093.582099338292
 31
0.0
  0
LINE
  5
C6C
330
B51
100
AcDbEntity
  8
0
  6
Continuous
 62
     7
370
    15
100
AcDbLine
 10
2237.788728434801
 20
1094.537482689211
 30
0.0
 11
2239.439147252897
 21
1093.582099338292
 31
0.0
  0
LINE
  5
C6D
330
B51
100
AcDbEntity
  8
0
  6
Continuous
 62
     7
370
    15
100
AcDbLine
 10
2240.145283639835
 20
1093.173335853435
 30
0.0
 11
2241.136589823596
 21
1093.744037256365
 31
0.0
  0
LINE
  5
C6E
330
B51
100
AcDbEntity
  8
0
  6
Continuous
 62
     7
370
    15
100
AcDbLine
 10
2241.136589823596
 20
1093.744037256365
 30
0.0
 11
2240.430453436658
 21
1094.152800741222
 31
0.0
  0
LINE
  5
C6F
330
B51
100
AcDbEntity
  8
0
  6
Continuous
 62
     7
370
    15
100
AcDbLine
 10
2238.589456238245
 20
1093.092926707209
 30
0.0
 11
2238.659778696545
 21
1092.318121017613
 31
0.0
  0
LWPOLYLINE
  5
C70
330
B51
100
AcDbEntity
  8
0
  6
Continuous
 62
     7
370
    15
100
AcDbPolyline
 90
       20
 70
   128
 43
0.0
 10
2238.735477159371
 20
1081.979608037647
 10
2238.627873594476
 20
1081.950044076609
 10
2238.332220542413
 20
1081.923608238557
 10
2238.013014656916
 20
1081.968087611898
 10
2237.678523202747
 20
1082.082330204228
 10
2237.33740933287
 20
1082.263377192414
 10
2236.998507717335
 20
1082.506539554561
 10
2236.670595729967
 20
1082.805519513218
 10
2236.362166118997
 20
1083.152573644501
 10
2236.081207049336
 20
1083.538713428711
 10
2235.834995213308
 20
1083.953938048265
 10
2235.629907368138
 20
1084.387493403624
 10
2235.471255181286
 20
1084.828150638822
 10
2235.363147661058
 20
1085.264496962933
 10
2235.30838473544
 20
1085.685231235364
 10
2235.30838473544
 20
1086.079456659462
 10
2235.363147661058
 20
1086.436963003819
 10
2235.471255181286
 20
1086.748491041905
 10
2235.629907368138
 20
1087.005972361174
 10
2235.756622031589
 20
1087.139695573585
  0
LINE
  5
C71
330
B51
100
AcDbEntity
  8
0
  6
Continuous
 62
     7
370
    15
100
AcDbLine
 10
2239.439031222148
 20
1092.601130451568
 30
0.0
 11
2239.439147252897
 21
1093.582099338292
 31
0.0
  0
LINE
  5
C72
330
B51
100
AcDbEntity
  8
0
  6
Continuous
 62
     7
370
    15
100
AcDbLine
 10
2240.430356996043
 20
1093.337454434547
 30
0.0
 11
2240.430453436658
 21
1094.152800741222
 31
0.0
  0
ELLIPSE
  5
C73
330
B51
100
AcDbEntity
  8
0
  6
Continuous
 62
     7
370
    15
100
AcDbEllipse
 10
2233.851937045784
 20
1086.96880681081
 30
0.0
 11
2.004507383346677
 21
46.38075764019958
 31
0.0
210
0.0
220
0.0
230
1.0
 40
0.0451846437372548
 41
1.338786279212369
 42
1.359827043809331
  0
LWPOLYLINE
  5
C74
330
B51
100
AcDbEntity
  8
0
  6
Continuous
 62
     7
370
    15
100
AcDbPolyline
 90
       17
 70
   128
 43
0.0
 10
2235.430578550023
 20
1094.912771507542
 10
2234.995459342177
 20
1094.778636893231
 10
2234.527255939232
 20
1094.689013498255
 10
2234.039514323437
 20
1094.646494291632
 10
2233.546345753336
 20
1094.652309431909
 10
2233.062018499205
 20
1094.706290676424
 10
2232.600545035848
 20
1094.806876248874
 10
2232.175276636033
 20
1094.951156024362
 10
2231.798517093708
 20
1095.134955724647
 10
2231.481166752699
 20
1095.352957687657
 10
2231.232407139795
 20
1095.598854717198
 10
2231.059435326352
 20
1095.865532561693
 10
2230.967255703839
 20
1096.145275742517
 10
2230.958535197618
 20
1096.429990776925
 10
2231.033526107911
 20
1096.711440337343
 10
2231.190058810292
 20
1096.981481572338
 10
2231.423604526893
 20
1097.232301694236
  0
ELLIPSE
  5
C75
330
B51
100
AcDbEntity
  8
0
  6
Continuous
 62
     7
370
    15
100
AcDbEllipse
 10
2233.851937045784
 20
1086.96880681081
 30
0.0
 11
-2.112133331130991
 21
44.01722223807204
 31
0.0
210
0.0
220
0.0
230
1.0
 40
0.0451455594504185
 41
4.869574965664539
 42
4.891690632847522
  0
ARC
  5
C76
330
B51
100
AcDbEntity
  8
0
  6
Continuous
 62
     7
370
    15
100
AcDbCircle
 10
2234.520931468847
 20
1096.505800769608
 30
0.0
 40
2.728026971680843
100
AcDbArc
 50
290.6723393354054
 51
309.1862876397464
  0
ELLIPSE
  5
C77
330
B51
100
AcDbEntity
  8
0
  6
Continuous
 62
     7
370
    15
100
AcDbEllipse
 10
2233.851937045784
 20
1086.96880681081
 30
0.0
 11
2.004507383346677
 21
46.38075764019958
 31
0.0
210
0.0
220
0.0
230
1.0
 40
0.0451846437372548
 41
4.87506687880269
 42
4.897182545985671
  0
LWPOLYLINE
  5
C78
330
B51
100
AcDbEntity
  8
0
  6
Continuous
 62
     7
370
    15
100
AcDbPolyline
 90
       17
 70
   128
 43
0.0
 10
2232.273295541546
 20
1097.721474325319
 10
2232.708414749392
 20
1097.85560893963
 10
2233.176618152337
 20
1097.945232334606
 10
2233.664359768132
 20
1097.987751541229
 10
2234.157528338233
 20
1097.981936400952
 10
2234.641855592364
 20
1097.927955156437
 10
2235.103329055721
 20
1097.827369583987
 10
2235.528597455537
 20
1097.683089808499
 10
2235.905356997861
 20
1097.499290108214
 10
2236.222707338869
 20
1097.281288145204
 10
2236.471466951774
 20
1097.035391115663
 10
2236.644438765216
 20
1096.768713271168
 10
2236.73661838773
 20
1096.488970090344
 10
2236.745338893951
 20
1096.204255055936
 10
2236.670347983658
 20
1095.922805495518
 10
2236.513815281278
 20
1095.652764260523
 10
2236.280269564675
 20
1095.401944138625
  0
LINE
  5
C79
330
B51
100
AcDbEntity
  8
0
  6
Continuous
 62
     7
370
    15
100
AcDbLine
 10
2233.074023344989
 20
1096.276918343318
 30
0.0
 11
2231.423604526893
 21
1097.232301694236
 31
0.0
  0
LINE
  5
C7A
330
B51
100
AcDbEntity
  8
0
  6
Continuous
 62
     7
370
    15
100
AcDbLine
 10
2233.074023344989
 20
1096.276918343318
 30
0.0
 11
2232.082717161228
 21
1095.706216940388
 31
0.0
  0
LINE
  5
C7B
330
B51
100
AcDbEntity
  8
0
  6
Continuous
 62
     7
370
    15
100
AcDbLine
 10
2232.082717161228
 20
1095.706216940388
 30
0.0
 11
2232.788853548166
 21
1095.297453455531
 31
0.0
  0
LINE
  5
C7C
330
B51
100
AcDbEntity
  8
0
  6
Continuous
 62
     7
370
    15
100
AcDbLine
 10
2232.788853548166
 20
1095.297453455531
 30
0.0
 11
2233.780159731927
 21
1095.868154858461
 31
0.0
  0
LINE
  5
C7D
330
B51
100
AcDbEntity
  8
0
  6
Continuous
 62
     7
370
    15
100
AcDbLine
 10
2235.430578550023
 20
1094.912771507542
 30
0.0
 11
2233.780159731927
 21
1095.868154858461
 31
0.0
  0
LINE
  5
C7E
330
B51
100
AcDbEntity
  8
0
  6
Continuous
 62
     7
370
    15
100
AcDbLine
 10
2233.736657461363
 20
1095.843110318995
 30
0.0
 11
2233.078834794487
 21
1096.223906282359
 31
0.0
  0
LINE
  5
C7F
330
B51
100
AcDbEntity
  8
0
  6
Continuous
 62
     7
370
    15
100
AcDbLine
 10
2234.609178456512
 20
1096.129595033501
 30
0.0
 11
2233.967094658943
 21
1095.75994322453
 31
0.0
  0
LINE
  5
C80
330
B51
100
AcDbEntity
  8
0
  6
Continuous
 62
     7
370
    15
100
AcDbLine
 10
2236.244618452596
 20
1094.39131871949
 30
0.0
 11
2235.433494115804
 21
1094.860856923005
 31
0.0
  0
LINE
  5
C81
330
B51
100
AcDbEntity
  8
0
  6
Continuous
 62
     7
370
    15
100
AcDbLine
 10
2234.62985074658
 20
1096.357327489543
 30
0.0
 11
2234.545243576515
 21
1095.425268265578
 31
0.0
  0
LINE
  5
C82
330
B51
100
AcDbEntity
  8
0
  6
Continuous
 62
     7
370
    15
100
AcDbLine
 10
2234.62985074658
 20
1096.357327489543
 30
0.0
 11
2236.280269564675
 21
1095.401944138625
 31
0.0
  0
LINE
  5
C83
330
B51
100
AcDbEntity
  8
0
  6
Continuous
 62
     7
370
    15
100
AcDbLine
 10
2234.915020543403
 20
1097.33679237733
 30
0.0
 11
2233.923714359642
 21
1096.766090974401
 31
0.0
  0
LINE
  5
C84
330
B51
100
AcDbEntity
  8
0
  6
Continuous
 62
     7
370
    15
100
AcDbLine
 10
2232.273295541546
 20
1097.721474325319
 30
0.0
 11
2233.923714359642
 21
1096.766090974401
 31
0.0
  0
LINE
  5
C85
330
B51
100
AcDbEntity
  8
0
  6
Continuous
 62
     7
370
    15
100
AcDbLine
 10
2234.62985074658
 20
1096.357327489543
 30
0.0
 11
2235.62115693034
 21
1096.928028892473
 31
0.0
  0
LINE
  5
C86
330
B51
100
AcDbEntity
  8
0
  6
Continuous
 62
     7
370
    15
100
AcDbLine
 10
2235.62115693034
 20
1096.928028892473
 30
0.0
 11
2234.915020543403
 21
1097.33679237733
 31
0.0
  0
LINE
  5
C87
330
B51
100
AcDbEntity
  8
0
  6
Continuous
 62
     7
370
    15
100
AcDbLine
 10
2233.074023344989
 20
1096.276918343318
 30
0.0
 11
2233.14434580329
 21
1095.502112653721
 31
0.0
  0
LWPOLYLINE
  5
C88
330
B51
100
AcDbEntity
  8
0
  6
Continuous
 62
     7
370
    15
100
AcDbPolyline
 90
       20
 70
   128
 43
0.0
 10
2233.220044266117
 20
1085.163599673756
 10
2233.112440701221
 20
1085.134035712718
 10
2232.816787649158
 20
1085.107599874665
 10
2232.497581763661
 20
1085.152079248007
 10
2232.163090309492
 20
1085.266321840337
 10
2231.821976439615
 20
1085.447368828523
 10
2231.48307482408
 20
1085.69053119067
 10
2231.155162836712
 20
1085.989511149326
 10
2230.846733225742
 20
1086.33656528061
 10
2230.565774156081
 20
1086.722705064819
 10
2230.319562320053
 20
1087.137929684373
 10
2230.114474474882
 20
1087.571485039733
 10
2229.955822288031
 20
1088.012142274931
 10
2229.847714767803
 20
1088.448488599041
 10
2229.792951842185
 20
1088.869222871473
 10
2229.792951842185
 20
1089.26344829557
 10
2229.847714767803
 20
1089.620954639927
 10
2229.955822288031
 20
1089.932482678014
 10
2230.114474474882
 20
1090.189963997282
 10
2230.241189138334
 20
1090.323687209693
  0
LINE
  5
C89
330
B51
100
AcDbEntity
  8
0
  6
Continuous
 62
     7
370
    15
100
AcDbLine
 10
2233.923598328893
 20
1095.785122087677
 30
0.0
 11
2233.923714359642
 21
1096.766090974401
 31
0.0
  0
LINE
  5
C8A
330
B51
100
AcDbEntity
  8
0
  6
Continuous
 62
     7
370
    15
100
AcDbLine
 10
2234.914924102788
 20
1096.521446070655
 30
0.0
 11
2234.915020543403
 21
1097.33679237733
 31
0.0
  0
ELLIPSE
  5
C8B
330
B51
100
AcDbEntity
  8
0
  6
Continuous
 62
     7
370
    15
100
AcDbEllipse
 10
2228.33650415253
 20
1090.152798446919
 30
0.0
 11
2.004507383346677
 21
46.38075764019958
 31
0.0
210
0.0
220
0.0
230
1.0
 40
0.0451846437372548
 41
1.338786279212369
 42
1.359827043809331
  0
LWPOLYLINE
  5
C8C
330
B51
100
AcDbEntity
  8
0
  6
Continuous
 62
     7
370
    15
100
AcDbPolyline
 90
       17
 70
   128
 43
0.0
 10
2229.915145656768
 20
1098.09676314365
 10
2229.480026448922
 20
1097.962628529339
 10
2229.011823045977
 20
1097.873005134364
 10
2228.524081430182
 20
1097.830485927741
 10
2228.030912860081
 20
1097.836301068018
 10
2227.546585605949
 20
1097.890282312533
 10
2227.085112142592
 20
1097.990867884982
 10
2226.659843742778
 20
1098.135147660471
 10
2226.283084200453
 20
1098.318947360755
 10
2225.965733859444
 20
1098.536949323766
 10
2225.71697424654
 20
1098.782846353307
 10
2225.544002433097
 20
1099.049524197802
 10
2225.451822810584
 20
1099.329267378625
 10
2225.443102304363
 20
1099.613982413034
 10
2225.518093214656
 20
1099.895431973451
 10
2225.674625917037
 20
1100.165473208447
 10
2225.908171633639
 20
1100.416293330345
  0
ELLIPSE
  5
C8D
330
B51
100
AcDbEntity
  8
0
  6
Continuous
 62
     7
370
    15
100
AcDbEllipse
 10
2228.33650415253
 20
1090.152798446919
 30
0.0
 11
-2.112133331130977
 21
44.01722223807209
 31
0.0
210
0.0
220
0.0
230
1.0
 40
0.0451455594504185
 41
4.869574965664538
 42
4.89169063284752
  0
ARC
  5
C8E
330
B51
100
AcDbEntity
  8
0
  6
Continuous
 62
     7
370
    15
100
AcDbCircle
 10
2229.005498575591
 20
1099.689792405717
 30
0.0
 40
2.728026971682031
100
AcDbArc
 50
290.6723393354101
 51
309.1862876397464
  0
ELLIPSE
  5
C8F
330
B51
100
AcDbEntity
  8
0
  6
Continuous
 62
     7
370
    15
100
AcDbEllipse
 10
2228.33650415253
 20
1090.152798446919
 30
0.0
 11
2.004507383346677
 21
46.38075764019958
 31
0.0
210
0.0
220
0.0
230
1.0
 40
0.0451846437372548
 41
4.875066878802691
 42
4.897182545985671
  0
LWPOLYLINE
  5
C90
330
B51
100
AcDbEntity
  8
0
  6
Continuous
 62
     7
370
    15
100
AcDbPolyline
 90
       17
 70
   128
 43
0.0
 10
2226.757862648291
 20
1100.905465961428
 10
2227.192981856137
 20
1101.039600575739
 10
2227.661185259082
 20
1101.129223970714
 10
2228.148926874877
 20
1101.171743177338
 10
2228.642095444978
 20
1101.16592803706
 10
2229.126422699109
 20
1101.111946792545
 10
2229.587896162466
 20
1101.011361220096
 10
2230.013164562281
 20
1100.867081444608
 10
2230.389924104606
 20
1100.683281744323
 10
2230.707274445615
 20
1100.465279781312
 10
2230.956034058519
 20
1100.219382751771
 10
2231.129005871961
 20
1099.952704907276
 10
2231.221185494475
 20
1099.672961726453
 10
2231.229906000696
 20
1099.388246692044
 10
2231.154915090403
 20
1099.106797131627
 10
2230.998382388022
 20
1098.836755896631
 10
2230.76483667142
 20
1098.585935774733
  0
LINE
  5
C91
330
B51
100
AcDbEntity
  8
0
  6
Continuous
 62
     7
370
    15
100
AcDbLine
 10
2227.558590451734
 20
1099.460909979426
 30
0.0
 11
2225.908171633639
 21
1100.416293330345
 31
0.0
  0
LINE
  5
C92
330
B51
100
AcDbEntity
  8
0
  6
Continuous
 62
     7
370
    15
100
AcDbLine
 10
2227.558590451734
 20
1099.460909979426
 30
0.0
 11
2226.567284267973
 21
1098.890208576496
 31
0.0
  0
LINE
  5
C93
330
B51
100
AcDbEntity
  8
0
  6
Continuous
 62
     7
370
    15
100
AcDbLine
 10
2226.567284267973
 20
1098.890208576496
 30
0.0
 11
2227.273420654911
 21
1098.481445091639
 31
0.0
  0
LINE
  5
C94
330
B51
100
AcDbEntity
  8
0
  6
Continuous
 62
     7
370
    15
100
AcDbLine
 10
2227.273420654911
 20
1098.481445091639
 30
0.0
 11
2228.264726838672
 21
1099.052146494569
 31
0.0
  0
LINE
  5
C95
330
B51
100
AcDbEntity
  8
0
  6
Continuous
 62
     7
370
    15
100
AcDbLine
 10
2229.915145656768
 20
1098.09676314365
 30
0.0
 11
2228.264726838672
 21
1099.052146494569
 31
0.0
  0
LINE
  5
C96
330
B51
100
AcDbEntity
  8
0
  6
Continuous
 62
     7
370
    15
100
AcDbLine
 10
2228.221224568108
 20
1099.027101955104
 30
0.0
 11
2227.563401901232
 21
1099.407897918468
 31
0.0
  0
LINE
  5
C97
330
B51
100
AcDbEntity
  8
0
  6
Continuous
 62
     7
370
    15
100
AcDbLine
 10
2229.093745563257
 20
1099.313586669609
 30
0.0
 11
2228.451661765689
 21
1098.943934860638
 31
0.0
  0
LINE
  5
C98
330
B51
100
AcDbEntity
  8
0
  6
Continuous
 62
     7
370
    15
100
AcDbLine
 10
2230.729185559341
 20
1097.575310355598
 30
0.0
 11
2229.918061222548
 21
1098.044848559114
 31
0.0
  0
LINE
  5
C99
330
B51
100
AcDbEntity
  8
0
  6
Continuous
 62
     7
370
    15
100
AcDbLine
 10
2229.114417853324
 20
1099.541319125652
 30
0.0
 11
2229.029810683259
 21
1098.609259901687
 31
0.0
  0
LINE
  5
C9A
330
B51
100
AcDbEntity
  8
0
  6
Continuous
 62
     7
370
    15
100
AcDbLine
 10
2229.114417853324
 20
1099.541319125652
 30
0.0
 11
2230.76483667142
 21
1098.585935774733
 31
0.0
  0
LINE
  5
C9B
330
B51
100
AcDbEntity
  8
0
  6
Continuous
 62
     7
370
    15
100
AcDbLine
 10
2229.399587650148
 20
1100.520784013439
 30
0.0
 11
2228.408281466387
 21
1099.950082610509
 31
0.0
  0
LINE
  5
C9C
330
B51
100
AcDbEntity
  8
0
  6
Continuous
 62
     7
370
    15
100
AcDbLine
 10
2226.757862648291
 20
1100.905465961428
 30
0.0
 11
2228.408281466387
 21
1099.950082610509
 31
0.0
  0
LINE
  5
C9D
330
B51
100
AcDbEntity
  8
0
  6
Continuous
 62
     7
370
    15
100
AcDbLine
 10
2229.114417853324
 20
1099.541319125652
 30
0.0
 11
2230.105724037086
 21
1100.112020528582
 31
0.0
  0
LINE
  5
C9E
330
B51
100
AcDbEntity
  8
0
  6
Continuous
 62
     7
370
    15
100
AcDbLine
 10
2230.105724037086
 20
1100.112020528582
 30
0.0
 11
2229.399587650148
 21
1100.520784013439
 31
0.0
  0
LWPOLYLINE
  5
C9F
330
B51
100
AcDbEntity
  8
0
  6
Continuous
 62
     7
370
    15
100
AcDbPolyline
 90
       22
 70
   128
 43
0.0
 10
2228.081681536914
 20
1087.694415854784
 10
2227.825550960051
 20
1087.6261500274
 10
2227.493495901892
 20
1087.608464562319
 10
2227.139016759605
 20
1087.66042530159
 10
2226.769329706291
 20
1087.780974474405
 10
2226.391960504267
 20
1087.967658047239
 10
2226.014591302242
 20
1088.216675680901
 10
2225.644904248928
 20
1088.522958094478
 10
2225.29042510664
 20
1088.880270261273
 10
2224.958370048482
 20
1089.281338335974
 10
2224.655498757871
 20
1089.717997729166
 10
2224.387976820874
 20
1090.181359314825
 10
2224.161250212659
 20
1090.66199038729
 10
2223.979934433144
 20
1091.150106683953
 10
2223.847720548727
 20
1091.635771564623
 10
2223.767300052824
 20
1092.109098292874
 10
2223.740310074817
 20
1092.560451301479
 10
2223.767300052824
 20
1092.980642344777
 10
2223.847720548727
 20
1093.361117544858
 10
2223.979934433144
 20
1093.694131523848
 10
2224.161250212659
 20
1093.972905077468
 10
2224.348686081025
 20
1094.160854300882
  0
LINE
  5
CA0
330
B51
100
AcDbEntity
  8
0
  6
Continuous
 62
     7
370
    15
100
AcDbLine
 10
2227.558590451734
 20
1099.460909979426
 30
0.0
 11
2227.628912910034
 21
1098.68610428983
 31
0.0
  0
LINE
  5
CA1
330
B51
100
AcDbEntity
  8
0
  6
Continuous
 62
     7
370
    15
100
AcDbLine
 10
2228.408165435638
 20
1098.969113723785
 30
0.0
 11
2228.408281466387
 21
1099.950082610509
 31
0.0
  0
LINE
  5
CA2
330
B51
100
AcDbEntity
  8
0
  6
Continuous
 62
     7
370
    15
100
AcDbLine
 10
2229.399491209533
 20
1099.705437706764
 30
0.0
 11
2229.399587650148
 21
1100.520784013439
 31
0.0
  0
ELLIPSE
  5
CA3
330
B51
100
AcDbEntity
  8
0
  6
Continuous
 62
     7
370
    15
100
AcDbEllipse
 10
2222.821071259275
 20
1093.336790083027
 30
0.0
 11
2.004507383346677
 21
46.38075764019965
 31
0.0
210
0.0
220
0.0
230
1.0
 40
0.0451846437372544
 41
1.338786279212373
 42
1.359827043809332
  0
LWPOLYLINE
  5
CA4
330
B51
100
AcDbEntity
  8
0
  6
Continuous
 62
     7
370
    15
100
AcDbPolyline
 90
       17
 70
   128
 43
0.0
 10
2224.399712763513
 20
1101.280754779759
 10
2223.964593555667
 20
1101.146620165448
 10
2223.496390152722
 20
1101.056996770472
 10
2223.008648536927
 20
1101.014477563849
 10
2222.515479966826
 20
1101.020292704126
 10
2222.031152712694
 20
1101.074273948641
 10
2221.569679249337
 20
1101.174859521091
 10
2221.144410849523
 20
1101.319139296579
 10
2220.767651307197
 20
1101.502938996864
 10
2220.450300966189
 20
1101.720940959874
 10
2220.201541353285
 20
1101.966837989415
 10
2220.028569539842
 20
1102.23351583391
 10
2219.936389917329
 20
1102.513259014734
 10
2219.927669411108
 20
1102.797974049143
 10
2220.002660321401
 20
1103.07942360956
 10
2220.159193023782
 20
1103.349464844555
 10
2220.392738740383
 20
1103.600284966454
  0
ELLIPSE
  5
CA5
330
B51
100
AcDbEntity
  8
0
  6
Continuous
 62
     7
370
    15
100
AcDbEllipse
 10
2222.821071259275
 20
1093.336790083027
 30
0.0
 11
-2.112133331130991
 21
44.01722223807212
 31
0.0
210
0.0
220
0.0
230
1.0
 40
0.0451455594504184
 41
4.86957496566454
 42
4.89169063284752
  0
ARC
  5
CA6
330
B51
100
AcDbEntity
  8
0
  6
Continuous
 62
     7
370
    15
100
AcDbCircle
 10
2223.490065682335
 20
1102.873784041826
 30
0.0
 40
2.728026971682449
100
AcDbArc
 50
290.6723393354101
 51
309.1862876397464
  0
ELLIPSE
  5
CA7
330
B51
100
AcDbEntity
  8
0
  6
Continuous
 62
     7
370
    15
100
AcDbEllipse
 10
2222.821071259275
 20
1093.336790083027
 30
0.0
 11
2.004507383346677
 21
46.38075764019965
 31
0.0
210
0.0
220
0.0
230
1.0
 40
0.0451846437372544
 41
4.875066878802689
 42
4.897182545985671
  0
LWPOLYLINE
  5
CA8
330
B51
100
AcDbEntity
  8
0
  6
Continuous
 62
     7
370
    15
100
AcDbPolyline
 90
       17
 70
   128
 43
0.0
 10
2221.242429755036
 20
1104.089457597536
 10
2221.677548962881
 20
1104.223592211847
 10
2222.145752365827
 20
1104.313215606823
 10
2222.633493981621
 20
1104.355734813446
 10
2223.126662551723
 20
1104.349919673169
 10
2223.610989805854
 20
1104.295938428654
 10
2224.072463269211
 20
1104.195352856204
 10
2224.497731669026
 20
1104.051073080716
 10
2224.874491211351
 20
1103.867273380431
 10
2225.19184155236
 20
1103.649271417421
 10
2225.440601165264
 20
1103.40337438788
 10
2225.613572978706
 20
1103.136696543385
 10
2225.70575260122
 20
1102.856953362561
 10
2225.714473107441
 20
1102.572238328153
 10
2225.639482197148
 20
1102.290788767736
 10
2225.482949494767
 20
1102.02074753274
 10
2225.249403778165
 20
1101.769927410842
  0
LINE
  5
CA9
330
B51
100
AcDbEntity
  8
0
  6
Continuous
 62
     7
370
    15
100
AcDbLine
 10
2222.043157558479
 20
1102.644901615535
 30
0.0
 11
2220.392738740383
 21
1103.600284966454
 31
0.0
  0
LINE
  5
CAA
330
B51
100
AcDbEntity
  8
0
  6
Continuous
 62
     7
370
    15
100
AcDbLine
 10
2222.043157558479
 20
1102.644901615535
 30
0.0
 11
2221.051851374718
 21
1102.074200212605
 31
0.0
  0
LINE
  5
CAB
330
B51
100
AcDbEntity
  8
0
  6
Continuous
 62
     7
370
    15
100
AcDbLine
 10
2221.051851374718
 20
1102.074200212605
 30
0.0
 11
2221.757987761656
 21
1101.665436727748
 31
0.0
  0
LINE
  5
CAC
330
B51
100
AcDbEntity
  8
0
  6
Continuous
 62
     7
370
    15
100
AcDbLine
 10
2221.757987761656
 20
1101.665436727748
 30
0.0
 11
2222.749293945417
 21
1102.236138130678
 31
0.0
  0
LINE
  5
CAD
330
B51
100
AcDbEntity
  8
0
  6
Continuous
 62
     7
370
    15
100
AcDbLine
 10
2224.399712763513
 20
1101.280754779759
 30
0.0
 11
2222.749293945417
 21
1102.236138130678
 31
0.0
  0
LINE
  5
CAE
330
B51
100
AcDbEntity
  8
0
  6
Continuous
 62
     7
370
    15
100
AcDbLine
 10
2222.705791674853
 20
1102.211093591212
 30
0.0
 11
2222.047969007977
 21
1102.591889554576
 31
0.0
  0
LINE
  5
CAF
330
B51
100
AcDbEntity
  8
0
  6
Continuous
 62
     7
370
    15
100
AcDbLine
 10
2223.578312670002
 20
1102.497578305718
 30
0.0
 11
2222.936228872433
 21
1102.127926496747
 31
0.0
  0
LINE
  5
CB0
330
B51
100
AcDbEntity
  8
0
  6
Continuous
 62
     7
370
    15
100
AcDbLine
 10
2225.213752666086
 20
1100.759301991707
 30
0.0
 11
2224.402628329293
 21
1101.228840195222
 31
0.0
  0
LINE
  5
CB1
330
B51
100
AcDbEntity
  8
0
  6
Continuous
 62
     7
370
    15
100
AcDbLine
 10
2223.598984960069
 20
1102.72531076176
 30
0.0
 11
2223.514377790005
 21
1101.793251537795
 31
0.0
  0
LINE
  5
CB2
330
B51
100
AcDbEntity
  8
0
  6
Continuous
 62
     7
370
    15
100
AcDbLine
 10
2223.598984960069
 20
1102.72531076176
 30
0.0
 11
2225.249403778165
 21
1101.769927410842
 31
0.0
  0
LINE
  5
CB3
330
B51
100
AcDbEntity
  8
0
  6
Continuous
 62
     7
370
    15
100
AcDbLine
 10
2223.884154756893
 20
1103.704775649547
 30
0.0
 11
2222.892848573132
 21
1103.134074246618
 31
0.0
  0
LINE
  5
CB4
330
B51
100
AcDbEntity
  8
0
  6
Continuous
 62
     7
370
    15
100
AcDbLine
 10
2221.242429755036
 20
1104.089457597536
 30
0.0
 11
2222.892848573132
 21
1103.134074246618
 31
0.0
  0
LINE
  5
CB5
330
B51
100
AcDbEntity
  8
0
  6
Continuous
 62
     7
370
    15
100
AcDbLine
 10
2223.598984960069
 20
1102.72531076176
 30
0.0
 11
2224.590291143831
 21
1103.29601216469
 31
0.0
  0
LINE
  5
CB6
330
B51
100
AcDbEntity
  8
0
  6
Continuous
 62
     7
370
    15
100
AcDbLine
 10
2224.590291143831
 20
1103.29601216469
 30
0.0
 11
2223.884154756893
 21
1103.704775649547
 31
0.0
  0
LINE
  5
CB7
330
B51
100
AcDbEntity
  8
0
  6
Continuous
 62
     7
370
    15
100
AcDbLine
 10
2222.043157558479
 20
1102.644901615535
 30
0.0
 11
2222.11348001678
 21
1101.870095925938
 31
0.0
  0
LWPOLYLINE
  5
CB8
330
B51
100
AcDbEntity
  8
0
  6
Continuous
 62
     7
370
    15
100
AcDbPolyline
 90
       20
 70
   128
 43
0.0
 10
2222.189178479606
 20
1091.531582945973
 10
2222.081574914711
 20
1091.502018984935
 10
2221.785921862649
 20
1091.475583146883
 10
2221.466715977151
 20
1091.520062520224
 10
2221.132224522982
 20
1091.634305112554
 10
2220.791110653105
 20
1091.81535210074
 10
2220.452209037569
 20
1092.058514462888
 10
2220.124297050202
 20
1092.357494421544
 10
2219.815867439232
 20
1092.704548552827
 10
2219.534908369571
 20
1093.090688337037
 10
2219.288696533543
 20
1093.50591295659
 10
2219.083608688372
 20
1093.93946831195
 10
2218.924956501521
 20
1094.380125547148
 10
2218.816848981292
 20
1094.816471871259
 10
2218.762086055674
 20
1095.23720614369
 10
2218.762086055674
 20
1095.631431567787
 10
2218.816848981292
 20
1095.988937912144
 10
2218.924956501521
 20
1096.300465950231
 10
2219.083608688372
 20
1096.5579472695
 10
2219.210323351823
 20
1096.691670481911
  0
LINE
  5
CB9
330
B51
100
AcDbEntity
  8
0
  6
Continuous
 62
     7
370
    15
100
AcDbLine
 10
2222.892732542383
 20
1102.153105359894
 30
0.0
 11
2222.892848573132
 21
1103.134074246618
 31
0.0
  0
LINE
  5
CBA
330
B51
100
AcDbEntity
  8
0
  6
Continuous
 62
     7
370
    15
100
AcDbLine
 10
2223.884058316278
 20
1102.889429342872
 30
0.0
 11
2223.884154756893
 21
1103.704775649547
 31
0.0
  0
ENDBLK
  5
B53
330
B51
100
AcDbEntity
  8
0
100
AcDbBlockEnd
  0
ENDSEC
  0
SECTION
  2
ENTITIES
  0
INSERT
  5
982
330
1F
100
AcDbEntity
  8
0
100
AcDbBlockReference
  2
11
 10
0.0
 20
0.0
 30
0.0
  0
INSERT
  5
B3C
330
1F
100
AcDbEntity
  8
0
100
AcDbBlockReference
  2
2
 10
0.0
 20
0.0
 30
0.0
  0
INSERT
  5
B50
330
1F
100
AcDbEntity
  8
0
100
AcDbBlockReference
  2
4
 10
0.0
 20
0.0
 30
0.0
  0
INSERT
  5
CBB
330
1F
100
AcDbEntity
  8
0
100
AcDbBlockReference
  2
3
 10
0.0
 20
0.0
 30
0.0
  0
ENDSEC
  0
SECTION
  2
OBJECTS
  0
DICTIONARY
  5
C
330
0
100
AcDbDictionary
281
     1
  3
ACAD_COLOR
350
6B
  3
ACAD_GROUP
350
D
  3
ACAD_LAYOUT
350
1A
  3
ACAD_MATERIAL
350
6A
  3
ACAD_MLEADERSTYLE
350
12D
  3
ACAD_MLINESTYLE
350
17
  3
ACAD_PLOTSETTINGS
350
19
  3
ACAD_PLOTSTYLENAME
350
E
  3
ACAD_SCALELIST
350
10C
  3
ACAD_TABLESTYLE
350
7E
  3
ACAD_VISUALSTYLE
350
EF
  3
ACDB_RECOMPOSE_DATA
350
15D
  3
AcDbVariableDictionary
350
5E
  3
DWGPROPS
350
CC9
  0
DICTIONARY
  5
13C
330
10
100
AcDbDictionary
280
     1
281
     1
  3
ADSK_XREC_LAYER_RECONCILED
360
CBC
  0
DICTIONARY
  5
6B
102
{ACAD_REACTORS
330
C
102
}
330
C
100
AcDbDictionary
281
     1
  0
DICTIONARY
  5
D
102
{ACAD_REACTORS
330
C
102
}
330
C
100
AcDbDictionary
281
     1
  0
DICTIONARY
  5
1A
102
{ACAD_REACTORS
330
C
102
}
330
C
100
AcDbDictionary
281
     1
  3
Layout1
350
D3
  3
Layout2
350
D7
  3
Model
350
22
  0
DICTIONARY
  5
6A
102
{ACAD_REACTORS
330
C
102
}
330
C
100
AcDbDictionary
281
     1
  3
ByBlock
350
ED
  3
ByLayer
350
EC
  3
Global
350
EE
  0
DICTIONARY
  5
12D
102
{ACAD_REACTORS
330
C
102
}
330
C
100
AcDbDictionary
281
     1
  3
Annotative
350
13B
  3
Standard
350
12E
  0
DICTIONARY
  5
17
102
{ACAD_REACTORS
330
C
102
}
330
C
100
AcDbDictionary
281
     1
  3
Standard
350
18
  0
DICTIONARY
  5
19
102
{ACAD_REACTORS
330
C
102
}
330
C
100
AcDbDictionary
281
     1
  0
ACDBDICTIONARYWDFLT
  5
E
102
{ACAD_REACTORS
330
C
102
}
330
C
100
AcDbDictionary
281
     1
  3
Normal
350
F
100
AcDbDictionaryWithDefault
340
F
  0
DICTIONARY
  5
10C
102
{ACAD_REACTORS
330
C
102
}
330
C
100
AcDbDictionary
281
     1
  3
A0
350
10D
  3
A1
350
188
  3
A2
350
189
  3
A3
350
18A
  3
A4
350
18B
  3
A5
350
18C
  3
A6
350
18D
  3
A7
350
18E
  3
A8
350
18F
  3
A9
350
190
  3
B0
350
191
  3
B1
350
192
  3
B2
350
193
  3
B3
350
194
  3
B4
350
195
  3
B5
350
196
  3
B6
350
197
  3
B7
350
198
  3
B8
350
199
  3
B9
350
19A
  3
C0
350
19B
  3
C1
350
19C
  3
C2
350
19D
  3
C3
350
19E
  3
C4
350
19F
  3
C5
350
1A0
  3
C6
350
1A1
  3
C7
350
1A2
  3
C8
350
1A3
  3
C9
350
1A4
  3
D0
350
1A5
  3
D1
350
1A6
  3
D2
350
1A7
  0
DICTIONARY
  5
7E
102
{ACAD_REACTORS
330
C
102
}
330
C
100
AcDbDictionary
281
     1
  3
Standard
350
7F
  0
DICTIONARY
  5
EF
102
{ACAD_REACTORS
330
C
102
}
330
C
100
AcDbDictionary
281
     1
  3
2dWireframe
350
F5
  3
3D Hidden
350
F7
  3
3dWireframe
350
F6
  3
Basic
350
F4
  3
Brighten
350
FB
  3
ColorChange
350
FF
  3
Conceptual
350
F8
  3
Dim
350
FA
  3
Facepattern
350
FE
  3
Flat
350
F0
  3
FlatWithEdges
350
F1
  3
Gouraud
350
F2
  3
GouraudWithEdges
350
F3
  3
Linepattern
350
FD
  3
Realistic
350
F9
  3
Thicken
350
FC
  0
XRECORD
  5
15D
102
{ACAD_REACTORS
330
C
102
}
330
C
100
AcDbXrecord
280
     1
 90
        1
330
7F
  0
DICTIONARY
  5
5E
102
{ACAD_REACTORS
330
C
102
}
330
C
100
AcDbDictionary
281
     1
  3
CANNOSCALE
350
146
  3
CMLEADERSTYLE
350
145
  3
CTABLESTYLE
350
84
  3
DIMASSOC
350
5F
  3
HIDETEXT
350
63
  3
INDEXCTL
350
CC5
  3
LIGHTINGUNITS
350
CC3
  3
MSLTSCALE
350
CC2
  3
PSOLHEIGHT
350
CC7
  3
PSOLWIDTH
350
CC6
  3
SORTENTS
350
CC4
  0
XRECORD
  5
CC9
102
{ACAD_REACTORS
330
C
102
}
330
C
100
AcDbXrecord
280
     1
  1
DWGPROPS COOKIE
  2

  3

  4

  6

  7

  8
orhan kara
  9

300
=
301
=
302
=
303
=
304
=
305
=
306
=
307
=
308
=
309
=
 40
0.0004068171296296
 41
2458453.642440058
 42
2458983.558578831
  1

 90
        0
  0
XRECORD
  5
CBC
102
{ACAD_REACTORS
330
13C
102
}
330
13C
100
AcDbXrecord
280
     1
290
     1
  0
LAYOUT
  5
D3
102
{ACAD_XDICTIONARY
360
CCD
102
}
102
{ACAD_REACTORS
330
1A
102
}
330
1A
100
AcDbPlotSettings
  1

  2
C:\Documents and Settings\basas\Application Data\Autodesk\AutoCAD 2005\R16.1\enu\plotters\Default Windows System Printer.pc3
  4

  6

 40
0.0
 41
0.0
 42
0.0
 43
0.0
 44
0.0
 45
0.0
 46
0.0
 47
0.0
 48
0.0
 49
0.0
140
0.0
141
0.0
142
1.0
143
1.0
 70
   688
 72
     0
 73
     0
 74
     5
  7

 75
    16
147
1.0
148
0.0
149
0.0
100
AcDbLayout
  1
Layout1
 70
     1
 71
     1
 10
0.0
 20
0.0
 11
12.0
 21
9.0
 12
0.0
 22
0.0
 32
0.0
 14
0.0
 24
0.0
 34
0.0
 15
0.0
 25
0.0
 35
0.0
146
0.0
 13
0.0
 23
0.0
 33
0.0
 16
1.0
 26
0.0
 36
0.0
 17
0.0
 27
1.0
 37
0.0
 76
     0
330
D2
  0
LAYOUT
  5
D7
102
{ACAD_XDICTIONARY
360
CCF
102
}
102
{ACAD_REACTORS
330
1A
102
}
330
1A
100
AcDbPlotSettings
  1

  2
C:\Documents and Settings\basas\Application Data\Autodesk\AutoCAD 2005\R16.1\enu\plotters\Default Windows System Printer.pc3
  4

  6

 40
0.0
 41
0.0
 42
0.0
 43
0.0
 44
0.0
 45
0.0
 46
0.0
 47
0.0
 48
0.0
 49
0.0
140
0.0
141
0.0
142
1.0
143
1.0
 70
   688
 72
     0
 73
     0
 74
     5
  7

 75
    16
147
1.0
148
0.0
149
0.0
100
AcDbLayout
  1
Layout2
 70
     1
 71
     2
 10
0.0
 20
0.0
 11
12.0
 21
9.0
 12
0.0
 22
0.0
 32
0.0
 14
0.0
 24
0.0
 34
0.0
 15
0.0
 25
0.0
 35
0.0
146
0.0
 13
0.0
 23
0.0
 33
0.0
 16
1.0
 26
0.0
 36
0.0
 17
0.0
 27
1.0
 37
0.0
 76
     0
330
D6
  0
LAYOUT
  5
22
102
{ACAD_XDICTIONARY
360
CCA
102
}
102
{ACAD_REACTORS
330
1A
102
}
330
1A
100
AcDbPlotSettings
  1

  2
none_device
  4
ISO_A4_(210.00_x_297.00_MM)
  6

 40
7.5
 41
20.0
 42
7.5
 43
20.0
 44
210.0
 45
297.0
 46
11.54999923706054
 47
-13.65000009536743
 48
0.0
 49
0.0
140
0.0
141
0.0
142
1.0
143
8.704084754739808
 70
 11952
 72
     1
 73
     0
 74
     0
  7

 75
     0
147
0.1148885871608098
148
0.0
149
0.0
100
AcDbLayout
  1
Model
 70
     1
 71
     0
 10
0.0
 20
0.0
 11
12.0
 21
9.0
 12
0.0
 22
0.0
 32
0.0
 14
0.0
 24
0.0
 34
0.0
 15
0.0
 25
0.0
 35
0.0
146
0.0
 13
0.0
 23
0.0
 33
0.0
 16
1.0
 26
0.0
 36
0.0
 17
0.0
 27
1.0
 37
0.0
 76
     0
330
1F
331
EA
1001
ACAD_PSEXT
1000
None
1000
None
1000
Not applicable
1000
The layout will not be plotted unless a new plotter configuration name is selected.
1070
     0
  0
MATERIAL
  5
ED
102
{ACAD_XDICTIONARY
360
CD3
102
}
102
{ACAD_REACTORS
330
6A
102
}
330
6A
100
AcDbMaterial
  1
ByBlock
  0
MATERIAL
  5
EC
102
{ACAD_XDICTIONARY
360
CD1
102
}
102
{ACAD_REACTORS
330
6A
102
}
330
6A
100
AcDbMaterial
  1
ByLayer
  0
MATERIAL
  5
EE
102
{ACAD_XDICTIONARY
360
173
102
}
102
{ACAD_REACTORS
330
6A
102
}
330
6A
100
AcDbMaterial
  1
Global
 43
0.0007999999797903
 43
0.0
 43
0.0
 43
0.0
 43
0.0
 43
0.0007999999797903
 43
0.0
 43
0.0
 43
0.0
 43
0.0
 43
1.0
 43
0.0
 43
0.0
 43
0.0
 43
0.0
 43
1.0
 49
0.0007999999797903
 49
0.0
 49
0.0
 49
0.0
 49
0.0
 49
0.0007999999797903
 49
0.0
 49
0.0
 49
0.0
 49
0.0
 49
1.0
 49
0.0
 49
0.0
 49
0.0
 49
0.0
 49
1.0
142
0.0007999999797903
142
0.0
142
0.0
142
0.0
142
0.0
142
0.0007999999797903
142
0.0
142
0.0
142
0.0
142
0.0
142
1.0
142
0.0
142
0.0
142
0.0
142
0.0
142
1.0
144
0.0007999999797903
144
0.0
144
0.0
144
0.0
144
0.0
144
0.0007999999797903
144
0.0
144
0.0
144
0.0
144
0.0
144
1.0
144
0.0
144
0.0
144
0.0
144
0.0
144
1.0
1001
ACAD
1070
    -1
1070
     3
1070
     0
1000

1071
        0
1070
     0
  0
MLEADERSTYLE
  5
13B
102
{ACAD_REACTORS
330
12D
102
}
330
12D
100
AcDbMLeaderStyle
170
     2
171
     1
172
     0
 90
        2
 40
0.0
 41
0.0
173
     1
 91
-1056964608
340
14
 92
       -2
290
     1
 42
2.0
291
     1
 43
8.0
  3
Standard
 44
4.0
300

342
11
174
     1
178
     1
175
     1
176
     0
 93
-1056964608
 45
4.0
292
     0
297
     0
 46
4.0
 94
-1056964608
 47
1.0
 49
1.0
140
1.0
293
     1
141
0.0
294
     1
177
     0
142
1.0
295
     0
296
     1
143
3.75
1001
ACAD_MLEADERVER
1070
     2
  0
MLEADERSTYLE
  5
12E
102
{ACAD_REACTORS
330
12D
102
}
330
12D
100
AcDbMLeaderStyle
170
     2
171
     1
172
     0
 90
        2
 40
0.0
 41
0.0
173
     1
 91
-1056964608
340
14
 92
       -2
290
     1
 42
2.0
291
     1
 43
8.0
  3
Standard
 44
4.0
300

342
11
174
     1
178
     1
175
     1
176
     0
 93
-1056964608
 45
4.0
292
     0
297
     0
 46
4.0
 94
-1056964608
 47
1.0
 49
1.0
140
1.0
293
     1
141
0.0
294
     1
177
     0
142
1.0
295
     0
296
     0
143
3.75
1001
ACAD_MLEADERVER
1070
     2
  0
MLINESTYLE
  5
18
102
{ACAD_REACTORS
330
17
102
}
330
17
100
AcDbMlineStyle
  2
STANDARD
 70
     0
  3

 62
   256
 51
90.0
 52
90.0
 71
     2
 49
0.5
 62
   256
  6
BYLAYER
 49
-0.5
 62
   256
  6
BYLAYER
  0
ACDBPLACEHOLDER
  5
F
102
{ACAD_REACTORS
330
E
102
}
330
E
  0
SCALE
  5
10D
102
{ACAD_REACTORS
330
10C
102
}
330
10C
100
AcDbScale
 70
     0
300
1:1
140
1.0
141
1.0
290
     1
  0
SCALE
  5
188
102
{ACAD_REACTORS
330
10C
102
}
330
10C
100
AcDbScale
 70
     0
300
1:2
140
1.0
141
2.0
290
     0
  0
SCALE
  5
189
102
{ACAD_REACTORS
330
10C
102
}
330
10C
100
AcDbScale
 70
     0
300
1:4
140
1.0
141
4.0
290
     0
  0
SCALE
  5
18A
102
{ACAD_REACTORS
330
10C
102
}
330
10C
100
AcDbScale
 70
     0
300
1:5
140
1.0
141
5.0
290
     0
  0
SCALE
  5
18B
102
{ACAD_REACTORS
330
10C
102
}
330
10C
100
AcDbScale
 70
     0
300
1:8
140
1.0
141
8.0
290
     0
  0
SCALE
  5
18C
102
{ACAD_REACTORS
330
10C
102
}
330
10C
100
AcDbScale
 70
     0
300
1:10
140
1.0
141
10.0
290
     0
  0
SCALE
  5
18D
102
{ACAD_REACTORS
330
10C
102
}
330
10C
100
AcDbScale
 70
     0
300
1:16
140
1.0
141
16.0
290
     0
  0
SCALE
  5
18E
102
{ACAD_REACTORS
330
10C
102
}
330
10C
100
AcDbScale
 70
     0
300
1:20
140
1.0
141
20.0
290
     0
  0
SCALE
  5
18F
102
{ACAD_REACTORS
330
10C
102
}
330
10C
100
AcDbScale
 70
     0
300
1:30
140
1.0
141
30.0
290
     0
  0
SCALE
  5
190
102
{ACAD_REACTORS
330
10C
102
}
330
10C
100
AcDbScale
 70
     0
300
1:40
140
1.0
141
40.0
290
     0
  0
SCALE
  5
191
102
{ACAD_REACTORS
330
10C
102
}
330
10C
100
AcDbScale
 70
     0
300
1:50
140
1.0
141
50.0
290
     0
  0
SCALE
  5
192
102
{ACAD_REACTORS
330
10C
102
}
330
10C
100
AcDbScale
 70
     0
300
1:100
140
1.0
141
100.0
290
     0
  0
SCALE
  5
193
102
{ACAD_REACTORS
330
10C
102
}
330
10C
100
AcDbScale
 70
     0
300
2:1
140
2.0
141
1.0
290
     0
  0
SCALE
  5
194
102
{ACAD_REACTORS
330
10C
102
}
330
10C
100
AcDbScale
 70
     0
300
4:1
140
4.0
141
1.0
290
     0
  0
SCALE
  5
195
102
{ACAD_REACTORS
330
10C
102
}
330
10C
100
AcDbScale
 70
     0
300
8:1
140
8.0
141
1.0
290
     0
  0
SCALE
  5
196
102
{ACAD_REACTORS
330
10C
102
}
330
10C
100
AcDbScale
 70
     0
300
10:1
140
10.0
141
1.0
290
     0
  0
SCALE
  5
197
102
{ACAD_REACTORS
330
10C
102
}
330
10C
100
AcDbScale
 70
     0
300
100:1
140
100.0
141
1.0
290
     0
  0
SCALE
  5
198
102
{ACAD_REACTORS
330
10C
102
}
330
10C
100
AcDbScale
 70
     0
300
1/128" = 1'-0"
140
0.0078125
141
12.0
290
     0
  0
SCALE
  5
199
102
{ACAD_REACTORS
330
10C
102
}
330
10C
100
AcDbScale
 70
     0
300
1/64" = 1'-0"
140
0.015625
141
12.0
290
     0
  0
SCALE
  5
19A
102
{ACAD_REACTORS
330
10C
102
}
330
10C
100
AcDbScale
 70
     0
300
1/32" = 1'-0"
140
0.03125
141
12.0
290
     0
  0
SCALE
  5
19B
102
{ACAD_REACTORS
330
10C
102
}
330
10C
100
AcDbScale
 70
     0
300
1/16" = 1'-0"
140
0.0625
141
12.0
290
     0
  0
SCALE
  5
19C
102
{ACAD_REACTORS
330
10C
102
}
330
10C
100
AcDbScale
 70
     0
300
3/32" = 1'-0"
140
0.09375
141
12.0
290
     0
  0
SCALE
  5
19D
102
{ACAD_REACTORS
330
10C
102
}
330
10C
100
AcDbScale
 70
     0
300
1/8" = 1'-0"
140
0.125
141
12.0
290
     0
  0
SCALE
  5
19E
102
{ACAD_REACTORS
330
10C
102
}
330
10C
100
AcDbScale
 70
     0
300
3/16" = 1'-0"
140
0.1875
141
12.0
290
     0
  0
SCALE
  5
19F
102
{ACAD_REACTORS
330
10C
102
}
330
10C
100
AcDbScale
 70
     0
300
1/4" = 1'-0"
140
0.25
141
12.0
290
     0
  0
SCALE
  5
1A0
102
{ACAD_REACTORS
330
10C
102
}
330
10C
100
AcDbScale
 70
     0
300
3/8" = 1'-0"
140
0.375
141
12.0
290
     0
  0
SCALE
  5
1A1
102
{ACAD_REACTORS
330
10C
102
}
330
10C
100
AcDbScale
 70
     0
300
1/2" = 1'-0"
140
0.5
141
12.0
290
     0
  0
SCALE
  5
1A2
102
{ACAD_REACTORS
330
10C
102
}
330
10C
100
AcDbScale
 70
     0
300
3/4" = 1'-0"
140
0.75
141
12.0
290
     0
  0
SCALE
  5
1A3
102
{ACAD_REACTORS
330
10C
102
}
330
10C
100
AcDbScale
 70
     0
300
1" = 1'-0"
140
1.0
141
12.0
290
     0
  0
SCALE
  5
1A4
102
{ACAD_REACTORS
330
10C
102
}
330
10C
100
AcDbScale
 70
     0
300
1-1/2" = 1'-0"
140
1.5
141
12.0
290
     0
  0
SCALE
  5
1A5
102
{ACAD_REACTORS
330
10C
102
}
330
10C
100
AcDbScale
 70
     0
300
3" = 1'-0"
140
3.0
141
12.0
290
     0
  0
SCALE
  5
1A6
102
{ACAD_REACTORS
330
10C
102
}
330
10C
100
AcDbScale
 70
     0
300
6" = 1'-0"
140
6.0
141
12.0
290
     0
  0
SCALE
  5
1A7
102
{ACAD_REACTORS
330
10C
102
}
330
10C
100
AcDbScale
 70
     0
300
1'-0" = 1'-0"
140
12.0
141
12.0
290
     0
  0
TABLESTYLE
  5
7F
102
{ACAD_XDICTIONARY
360
162
102
}
102
{ACAD_REACTORS
330
7E
102
}
330
7E
100
AcDbTableStyle
  3
Standard
 70
     0
 71
     0
 40
1.5
 41
1.5
280
     0
281
     0
  7
Standard
140
4.5
170
     2
 62
     0
 63
     7
283
     0
274
    -2
284
     1
 64
     0
275
    -2
285
     1
 65
     0
276
    -2
286
     1
 66
     0
277
    -2
287
     1
 67
     0
278
    -2
288
     1
 68
     0
279
    -2
289
     1
 69
     0
  7
Standard
140
6.0
170
     5
 62
     0
 63
     7
283
     0
274
    -2
284
     1
 64
     0
275
    -2
285
     1
 65
     0
276
    -2
286
     1
 66
     0
277
    -2
287
     1
 67
     0
278
    -2
288
     1
 68
     0
279
    -2
289
     1
 69
     0
  7
Standard
140
4.5
170
     5
 62
     0
 63
     7
283
     0
274
    -2
284
     1
 64
     0
275
    -2
285
     1
 65
     0
276
    -2
286
     1
 66
     0
277
    -2
287
     1
 67
     0
278
    -2
288
     1
 68
     0
279
    -2
289
     1
 69
     0
  0
VISUALSTYLE
  5
F5
102
{ACAD_REACTORS
330
EF
102
}
330
EF
100
AcDbVisualStyle
  2
2dWireframe
 70
     4
 71
     0
 72
     2
 73
     1
 90
        0
 40
-0.6
 41
-30.0
 62
     5
 63
     7
 74
     1
 91
        4
 64
     7
 65
   257
 75
     1
175
     1
 42
1.0
 92
        0
 66
   257
 43
1.0
 76
     1
 77
     6
 78
     2
 67
     7
 79
     5
170
     0
171
     0
290
     0
174
     0
 93
        1
 44
0.0
173
     0
291
     0
 45
0.0
1001
ACAD
1000
AcDbSavedByObjectVersion
1070
     0
  0
VISUALSTYLE
  5
F7
102
{ACAD_REACTORS
330
EF
102
}
330
EF
100
AcDbVisualStyle
  2
3D Hidden
 70
     6
 71
     1
 72
     2
 73
     2
 90
        0
 40
-0.6
 41
-30.0
 62
     5
 63
     7
 74
     2
 91
        2
 64
     7
 65
   257
 75
     2
175
     1
 42
40.0
 92
        0
 66
   257
 43
1.0
 76
     1
 77
     6
 78
     2
 67
     7
 79
     3
170
     0
171
     0
290
     0
174
     0
 93
        1
 44
0.0
173
     0
291
     0
 45
0.0
1001
ACAD
1000
AcDbSavedByObjectVersion
1070
     0
  0
VISUALSTYLE
  5
F6
102
{ACAD_REACTORS
330
EF
102
}
330
EF
100
AcDbVisualStyle
  2
3dWireframe
 70
     5
 71
     0
 72
     2
 73
     1
 90
        0
 40
-0.6
 41
-30.0
 62
     5
 63
     7
 74
     1
 91
        4
 64
     7
 65
   257
 75
     1
175
     1
 42
1.0
 92
        0
 66
   257
 43
1.0
 76
     1
 77
     6
 78
     2
 67
     7
 79
     5
170
     0
171
     0
290
     0
174
     0
 93
        1
 44
0.0
173
     0
291
     0
 45
0.0
1001
ACAD
1000
AcDbSavedByObjectVersion
1070
     0
  0
VISUALSTYLE
  5
F4
102
{ACAD_REACTORS
330
EF
102
}
330
EF
100
AcDbVisualStyle
  2
Basic
 70
     7
 71
     1
 72
     0
 73
     1
 90
        0
 40
-0.6
 41
-30.0
 62
     5
 63
     7
 74
     0
 91
        4
 64
     7
 65
   257
 75
     1
175
     1
 42
1.0
 92
        8
 66
     7
 43
1.0
 76
     1
 77
     6
 78
     2
 67
     7
 79
     5
170
     0
171
     0
290
     0
174
     0
 93
        1
 44
0.0
173
     0
291
     1
 45
0.0
1001
ACAD
1000
AcDbSavedByObjectVersion
1070
     0
  0
VISUALSTYLE
  5
FB
102
{ACAD_REACTORS
330
EF
102
}
330
EF
100
AcDbVisualStyle
  2
Brighten
 70
    12
 71
     2
 72
     2
 73
     1
 90
        0
 40
-0.6
 41
-30.0
 62
     5
 63
     7
 74
     1
 91
        4
 64
     7
 65
   257
 75
     1
175
     1
 42
1.0
 92
        8
 66
     7
 43
1.0
 76
     1
 77
     6
 78
     2
 67
     7
 79
     5
170
     0
171
     0
290
     0
174
     0
 93
        1
 44
50.0
173
     0
291
     1
 45
0.0
1001
ACAD
1000
AcDbSavedByObjectVersion
1070
     0
  0
VISUALSTYLE
  5
FF
102
{ACAD_REACTORS
330
EF
102
}
330
EF
100
AcDbVisualStyle
  2
ColorChange
 70
    16
 71
     2
 72
     2
 73
     3
 90
        0
 40
-0.6
 41
-30.0
 62
     5
 63
     8
 74
     1
 91
        4
 64
     7
 65
   257
 75
     1
175
     1
 42
1.0
 92
        8
 66
     8
 43
1.0
 76
     1
 77
     6
 78
     2
 67
     7
 79
     5
170
     0
171
     0
290
     0
174
     0
 93
        1
 44
0.0
173
     0
291
     1
 45
0.0
1001
ACAD
1000
AcDbSavedByObjectVersion
1070
     0
  0
VISUALSTYLE
  5
F8
102
{ACAD_REACTORS
330
EF
102
}
330
EF
100
AcDbVisualStyle
  2
Conceptual
 70
     9
 71
     3
 72
     2
 73
     1
 90
        0
 40
-0.6
 41
-30.0
 62
     5
 63
     7
 74
     2
 91
        2
 64
     7
 65
   257
 75
     1
175
     1
 42
40.0
 92
        8
 66
     7
 43
1.0
 76
     1
 77
     6
 78
     2
 67
     7
 79
     3
170
     0
171
     0
290
     0
174
     0
 93
        1
 44
0.0
173
     0
291
     0
 45
0.0
1001
ACAD
1000
AcDbSavedByObjectVersion
1070
     0
  0
VISUALSTYLE
  5
FA
102
{ACAD_REACTORS
330
EF
102
}
330
EF
100
AcDbVisualStyle
  2
Dim
 70
    11
 71
     2
 72
     2
 73
     1
 90
        0
 40
-0.6
 41
-30.0
 62
     5
 63
     7
 74
     1
 91
        4
 64
     7
 65
   257
 75
     1
175
     1
 42
1.0
 92
        8
 66
     7
 43
1.0
 76
     1
 77
     6
 78
     2
 67
     7
 79
     5
170
     0
171
     0
290
     0
174
     0
 93
        1
 44
-50.0
173
     0
291
     1
 45
0.0
1001
ACAD
1000
AcDbSavedByObjectVersion
1070
     0
  0
VISUALSTYLE
  5
FE
102
{ACAD_REACTORS
330
EF
102
}
330
EF
100
AcDbVisualStyle
  2
Facepattern
 70
    15
 71
     2
 72
     2
 73
     1
 90
        0
 40
-0.6
 41
-30.0
 62
     5
 63
     7
 74
     1
 91
        4
 64
     7
 65
   257
 75
     1
175
     1
 42
1.0
 92
        8
 66
     7
 43
1.0
 76
     1
 77
     6
 78
     2
 67
     7
 79
     5
170
     0
171
     0
290
     0
174
     0
 93
        1
 44
0.0
173
     0
291
     1
 45
0.0
1001
ACAD
1000
AcDbSavedByObjectVersion
1070
     0
  0
VISUALSTYLE
  5
F0
102
{ACAD_REACTORS
330
EF
102
}
330
EF
100
AcDbVisualStyle
  2
Flat
 70
     0
 71
     2
 72
     1
 73
     1
 90
        2
 40
-0.6
 41
30.0
 62
     5
 63
     7
 74
     0
 91
        4
 64
     7
 65
   257
 75
     1
175
     1
 42
1.0
 92
        8
 66
     7
 43
1.0
 76
     1
 77
     6
 78
     2
 67
     7
 79
     5
170
     0
171
     0
290
     0
174
     0
 93
        1
 44
0.0
173
     0
291
     1
 45
0.0
1001
ACAD
1000
AcDbSavedByObjectVersion
1070
     0
  0
VISUALSTYLE
  5
F1
102
{ACAD_REACTORS
330
EF
102
}
330
EF
100
AcDbVisualStyle
  2
FlatWithEdges
 70
     1
 71
     2
 72
     1
 73
     1
 90
        2
 40
-0.6
 41
30.0
 62
     5
 63
     7
 74
     1
 91
        4
 64
     7
 65
   257
 75
     1
175
     1
 42
1.0
 92
        0
 66
   257
 43
1.0
 76
     1
 77
     6
 78
     2
 67
     7
 79
     5
170
     0
171
     0
290
     0
174
     0
 93
        1
 44
0.0
173
     0
291
     1
 45
0.0
1001
ACAD
1000
AcDbSavedByObjectVersion
1070
     0
  0
VISUALSTYLE
  5
F2
102
{ACAD_REACTORS
330
EF
102
}
330
EF
100
AcDbVisualStyle
  2
Gouraud
 70
     2
 71
     2
 72
     2
 73
     1
 90
        2
 40
-0.6
 41
30.0
 62
     5
 63
     7
 74
     0
 91
        4
 64
     7
 65
   257
 75
     1
175
     1
 42
1.0
 92
        0
 66
     7
 43
1.0
 76
     1
 77
     6
 78
     2
 67
     7
 79
     5
170
     0
171
     0
290
     0
174
     0
 93
        1
 44
0.0
173
     0
291
     1
 45
0.0
1001
ACAD
1000
AcDbSavedByObjectVersion
1070
     0
  0
VISUALSTYLE
  5
F3
102
{ACAD_REACTORS
330
EF
102
}
330
EF
100
AcDbVisualStyle
  2
GouraudWithEdges
 70
     3
 71
     2
 72
     2
 73
     1
 90
        2
 40
-0.6
 41
30.0
 62
     5
 63
     7
 74
     1
 91
        4
 64
     7
 65
   257
 75
     1
175
     1
 42
1.0
 92
        0
 66
   257
 43
1.0
 76
     1
 77
     6
 78
     2
 67
     7
 79
     5
170
     0
171
     0
290
     0
174
     0
 93
        1
 44
0.0
173
     0
291
     1
 45
0.0
1001
ACAD
1000
AcDbSavedByObjectVersion
1070
     0
  0
VISUALSTYLE
  5
FD
102
{ACAD_REACTORS
330
EF
102
}
330
EF
100
AcDbVisualStyle
  2
Linepattern
 70
    14
 71
     2
 72
     2
 73
     1
 90
        0
 40
-0.6
 41
-30.0
 62
     5
 63
     7
 74
     1
 91
        4
 64
     7
 65
   257
 75
     7
175
     7
 42
1.0
 92
        8
 66
     7
 43
1.0
 76
     1
 77
     6
 78
     2
 67
     7
 79
     5
170
     0
171
     0
290
     0
174
     0
 93
        1
 44
0.0
173
     0
291
     1
 45
0.0
1001
ACAD
1000
AcDbSavedByObjectVersion
1070
     0
  0
VISUALSTYLE
  5
F9
102
{ACAD_REACTORS
330
EF
102
}
330
EF
100
AcDbVisualStyle
  2
Realistic
 70
     8
 71
     2
 72
     2
 73
     1
 90
        0
 40
-0.6
 41
-30.0
 62
     5
 63
     7
 74
     1
 91
        0
 64
     7
 65
   257
 75
     1
175
     1
 42
1.0
 92
        8
 66
     8
 43
1.0
 76
     1
 77
     6
 78
     2
 67
     7
 79
     5
170
     0
171
     0
290
     0
174
     0
 93
       13
 44
0.0
173
     0
291
     0
 45
0.0
1001
ACAD
1000
AcDbSavedByObjectVersion
1070
     0
  0
VISUALSTYLE
  5
FC
102
{ACAD_REACTORS
330
EF
102
}
330
EF
100
AcDbVisualStyle
  2
Thicken
 70
    13
 71
     2
 72
     2
 73
     1
 90
        0
 40
-0.6
 41
-30.0
 62
     5
 63
     7
 74
     1
 91
        4
 64
     7
 65
   257
 75
     1
175
     1
 42
1.0
 92
       12
 66
     7
 43
1.0
 76
     1
 77
     6
 78
     2
 67
     7
 79
     5
170
     0
171
     0
290
     0
174
     0
 93
        1
 44
0.0
173
     0
291
     1
 45
0.0
1001
ACAD
1000
AcDbSavedByObjectVersion
1070
     0
  0
DICTIONARYVAR
  5
146
102
{ACAD_REACTORS
330
5E
102
}
330
5E
100
DictionaryVariables
280
     0
  1
1:1
  0
DICTIONARYVAR
  5
145
102
{ACAD_REACTORS
330
5E
102
}
330
5E
100
DictionaryVariables
280
     0
  1
STANDARD
  0
DICTIONARYVAR
  5
84
102
{ACAD_REACTORS
330
5E
102
}
330
5E
100
DictionaryVariables
280
     0
  1
STANDARD
  0
DICTIONARYVAR
  5
5F
102
{ACAD_REACTORS
330
5E
102
}
330
5E
100
DictionaryVariables
280
     0
  1
2
  0
DICTIONARYVAR
  5
63
102
{ACAD_REACTORS
330
5E
102
}
330
5E
100
DictionaryVariables
280
     0
  1
1
  0
DICTIONARYVAR
  5
CC5
102
{ACAD_REACTORS
330
5E
102
}
330
5E
100
DictionaryVariables
280
     0
  1
0
  0
DICTIONARYVAR
  5
CC3
102
{ACAD_REACTORS
330
5E
102
}
330
5E
100
DictionaryVariables
280
     0
  1
2
  0
DICTIONARYVAR
  5
CC2
102
{ACAD_REACTORS
330
5E
102
}
330
5E
100
DictionaryVariables
280
     0
  1
1
  0
DICTIONARYVAR
  5
CC7
102
{ACAD_REACTORS
330
5E
102
}
330
5E
100
DictionaryVariables
280
     0
  1
80.000000
  0
DICTIONARYVAR
  5
CC6
102
{ACAD_REACTORS
330
5E
102
}
330
5E
100
DictionaryVariables
280
     0
  1
5.000000
  0
DICTIONARYVAR
  5
CC4
102
{ACAD_REACTORS
330
5E
102
}
330
5E
100
DictionaryVariables
280
     0
  1
127
  0
DICTIONARY
  5
CCD
330
D3
100
AcDbDictionary
280
     1
281
     1
  3
ACAD_XREC_ROUNDTRIP
360
CCE
  0
DICTIONARY
  5
CCF
330
D7
100
AcDbDictionary
280
     1
281
     1
  3
ACAD_XREC_ROUNDTRIP
360
CD0
  0
DICTIONARY
  5
CCA
330
22
100
AcDbDictionary
280
     1
281
     1
  3
ACAD_XREC_ROUNDTRIP
360
CCB
  0
DICTIONARY
  5
CD3
330
ED
100
AcDbDictionary
280
     1
281
     1
  3
ACAD_XREC_ROUNDTRIP
360
CD4
  0
DICTIONARY
  5
CD1
330
EC
100
AcDbDictionary
280
     1
281
     1
  3
ACAD_XREC_ROUNDTRIP
360
CD2
  0
DICTIONARY
  5
173
330
EE
100
AcDbDictionary
280
     1
281
     1
  3
ACAD_XREC_ROUNDTRIP
360
CD5
  3
BUMPTILE
360
175
  3
DIFFUSETILE
360
174
  3
OPACITYTILE
360
176
  3
REFLECTIONTILE
360
177
  0
DICTIONARY
  5
162
330
7F
100
AcDbDictionary
280
     1
281
     1
  3
ACAD_ROUNDTRIP_2008_TABLESTYLE_CELLSTYLEMAP
360
CC8
  3
ACAD_XREC_ROUNDTRIP
360
CCC
  0
XRECORD
  5
CCE
102
{ACAD_REACTORS
330
CCD
102
}
330
CCD
100
AcDbXrecord
280
     1
102
SHADEPLOT
 70
     0
102
SHADEPLOTRESLEVEL
 70
     2
102
SHADEPLOTCUSTOMDPI
 70
   300
  0
XRECORD
  5
CD0
102
{ACAD_REACTORS
330
CCF
102
}
330
CCF
100
AcDbXrecord
280
     1
102
SHADEPLOT
 70
     0
102
SHADEPLOTRESLEVEL
 70
     2
102
SHADEPLOTCUSTOMDPI
 70
   300
  0
XRECORD
  5
CCB
102
{ACAD_REACTORS
330
CCA
102
}
330
CCA
100
AcDbXrecord
280
     1
102
SHADEPLOT
 70
     0
102
SHADEPLOTRESLEVEL
 70
     2
102
SHADEPLOTCUSTOMDPI
 70
   300
  0
XRECORD
  5
CD4
102
{ACAD_REACTORS
330
CD3
102
}
330
CD3
100
AcDbXrecord
280
     1
102
MATERIAL
148
0.0
149
0.0
149
0.0
 93
        0
 94
       63
282
     0
 72
     1
 77
     1
171
     1
175
     1
179
     1
273
     0
  0
XRECORD
  5
CD2
102
{ACAD_REACTORS
330
CD1
102
}
330
CD1
100
AcDbXrecord
280
     1
102
MATERIAL
148
0.0
149
0.0
149
0.0
 93
        0
 94
       63
282
     0
 72
     1
 77
     1
171
     1
175
     1
179
     1
273
     0
  0
XRECORD
  5
CD5
102
{ACAD_REACTORS
330
173
102
}
330
173
100
AcDbXrecord
280
     1
102
MATERIAL
148
0.0
149
0.0
149
0.0
 93
        0
 94
       63
282
     0
 72
     1
 77
     1
171
     1
175
     1
179
     1
273
     0
  0
XRECORD
  5
175
102
{ACAD_REACTORS
330
173
102
}
330
173
100
AcDbXrecord
280
     1
270
     1
271
     1
  0
XRECORD
  5
174
102
{ACAD_REACTORS
330
173
102
}
330
173
100
AcDbXrecord
280
     1
270
     1
271
     1
  0
XRECORD
  5
176
102
{ACAD_REACTORS
330
173
102
}
330
173
100
AcDbXrecord
280
     1
270
     1
271
     1
  0
XRECORD
  5
177
102
{ACAD_REACTORS
330
173
102
}
330
173
100
AcDbXrecord
280
     1
270
     1
271
     1
  0
CELLSTYLEMAP
  5
CC8
102
{ACAD_REACTORS
330
162
102
}
330
162
100
AcDbCellStyleMap
 90
        3
300
CELLSTYLE
  1
TABLEFORMAT_BEGIN
 90
        5
170
     1
 91
        0
 92
    32768
 62
   257
 93
        1
300
CONTENTFORMAT
  1
CONTENTFORMAT_BEGIN
 90
        0
 91
        0
 92
      512
 93
        0
300

 40
0.0
140
1.0
 94
        5
 62
     0
340
11
144
6.0
309
CONTENTFORMAT_END
171
     1
301
MARGIN
  1
CELLMARGIN_BEGIN
 40
1.5
 40
1.5
 40
1.5
 40
1.5
 40
4.5
 40
4.5
309
CELLMARGIN_END
 94
        6
 95
        1
302
GRIDFORMAT
  1
GRIDFORMAT_BEGIN
 90
        0
 91
        1
 62
     0
 92
       -2
340
14
 93
        0
 40
1.125
309
GRIDFORMAT_END
 95
        2
302
GRIDFORMAT
  1
GRIDFORMAT_BEGIN
 90
        0
 91
        1
 62
     0
 92
       -2
340
14
 93
        0
 40
1.125
309
GRIDFORMAT_END
 95
        4
302
GRIDFORMAT
  1
GRIDFORMAT_BEGIN
 90
        0
 91
        1
 62
     0
 92
       -2
340
14
 93
        0
 40
1.125
309
GRIDFORMAT_END
 95
        8
302
GRIDFORMAT
  1
GRIDFORMAT_BEGIN
 90
        0
 91
        1
 62
     0
 92
       -2
340
14
 93
        0
 40
1.125
309
GRIDFORMAT_END
 95
       16
302
GRIDFORMAT
  1
GRIDFORMAT_BEGIN
 90
        0
 91
        1
 62
     0
 92
       -2
340
14
 93
        0
 40
1.125
309
GRIDFORMAT_END
 95
       32
302
GRIDFORMAT
  1
GRIDFORMAT_BEGIN
 90
        0
 91
        1
 62
     0
 92
       -2
340
14
 93
        0
 40
1.125
309
GRIDFORMAT_END
309
TABLEFORMAT_END
  1
CELLSTYLE_BEGIN
 90
        1
 91
        1
300
_TITLE
309
CELLSTYLE_END
300
CELLSTYLE
  1
TABLEFORMAT_BEGIN
 90
        5
170
     1
 91
        0
 92
        0
 62
   257
 93
        1
300
CONTENTFORMAT
  1
CONTENTFORMAT_BEGIN
 90
        0
 91
        0
 92
      512
 93
        0
300

 40
0.0
140
1.0
 94
        5
 62
     0
340
11
144
4.5
309
CONTENTFORMAT_END
171
     1
301
MARGIN
  1
CELLMARGIN_BEGIN
 40
1.5
 40
1.5
 40
1.5
 40
1.5
 40
4.5
 40
4.5
309
CELLMARGIN_END
 94
        6
 95
        1
302
GRIDFORMAT
  1
GRIDFORMAT_BEGIN
 90
        0
 91
        1
 62
     0
 92
       -2
340
14
 93
        0
 40
1.125
309
GRIDFORMAT_END
 95
        2
302
GRIDFORMAT
  1
GRIDFORMAT_BEGIN
 90
        0
 91
        1
 62
     0
 92
       -2
340
14
 93
        0
 40
1.125
309
GRIDFORMAT_END
 95
        4
302
GRIDFORMAT
  1
GRIDFORMAT_BEGIN
 90
        0
 91
        1
 62
     0
 92
       -2
340
14
 93
        0
 40
1.125
309
GRIDFORMAT_END
 95
        8
302
GRIDFORMAT
  1
GRIDFORMAT_BEGIN
 90
        0
 91
        1
 62
     0
 92
       -2
340
14
 93
        0
 40
1.125
309
GRIDFORMAT_END
 95
       16
302
GRIDFORMAT
  1
GRIDFORMAT_BEGIN
 90
        0
 91
        1
 62
     0
 92
       -2
340
14
 93
        0
 40
1.125
309
GRIDFORMAT_END
 95
       32
302
GRIDFORMAT
  1
GRIDFORMAT_BEGIN
 90
        0
 91
        1
 62
     0
 92
       -2
340
14
 93
        0
 40
1.125
309
GRIDFORMAT_END
309
TABLEFORMAT_END
  1
CELLSTYLE_BEGIN
 90
        2
 91
        1
300
_HEADER
309
CELLSTYLE_END
300
CELLSTYLE
  1
TABLEFORMAT_BEGIN
 90
        5
170
     1
 91
        0
 92
        0
 62
   257
 93
        1
300
CONTENTFORMAT
  1
CONTENTFORMAT_BEGIN
 90
        0
 91
        0
 92
      512
 93
        0
300

 40
0.0
140
1.0
 94
        2
 62
     0
340
11
144
4.5
309
CONTENTFORMAT_END
171
     1
301
MARGIN
  1
CELLMARGIN_BEGIN
 40
1.5
 40
1.5
 40
1.5
 40
1.5
 40
4.5
 40
4.5
309
CELLMARGIN_END
 94
        6
 95
        1
302
GRIDFORMAT
  1
GRIDFORMAT_BEGIN
 90
        0
 91
        1
 62
     0
 92
       -2
340
14
 93
        0
 40
1.125
309
GRIDFORMAT_END
 95
        2
302
GRIDFORMAT
  1
GRIDFORMAT_BEGIN
 90
        0
 91
        1
 62
     0
 92
       -2
340
14
 93
        0
 40
1.125
309
GRIDFORMAT_END
 95
        4
302
GRIDFORMAT
  1
GRIDFORMAT_BEGIN
 90
        0
 91
        1
 62
     0
 92
       -2
340
14
 93
        0
 40
1.125
309
GRIDFORMAT_END
 95
        8
302
GRIDFORMAT
  1
GRIDFORMAT_BEGIN
 90
        0
 91
        1
 62
     0
 92
       -2
340
14
 93
        0
 40
1.125
309
GRIDFORMAT_END
 95
       16
302
GRIDFORMAT
  1
GRIDFORMAT_BEGIN
 90
        0
 91
        1
 62
     0
 92
       -2
340
14
 93
        0
 40
1.125
309
GRIDFORMAT_END
 95
       32
302
GRIDFORMAT
  1
GRIDFORMAT_BEGIN
 90
        0
 91
        1
 62
     0
 92
       -2
340
14
 93
        0
 40
1.125
309
GRIDFORMAT_END
309
TABLEFORMAT_END
  1
CELLSTYLE_BEGIN
 90
        3
 91
        2
300
_DATA
309
CELLSTYLE_END
  0
XRECORD
  5
CCC
102
{ACAD_REACTORS
330
162
102
}
330
162
100
AcDbXrecord
280
     1
102
ACAD_ROUNDTRIP_PRE2007_TABLESTYLE
 90
      512
 91
        0
  1

 92
      512
 93
        0
  2

 94
      512
 95
        0
  3

  0
ENDSEC
  0
EOF
