  0
SECTION
  2
HEADER
  9
$ACADVER
  1
AC1015
  9
$ACADMAINTVER
 70
    20
  9
$DWGCODEPAGE
  3
ANSI_1254
  9
$INSBASE
 10
0.0
 20
0.0
 30
0.0
  9
$EXTMIN
 10
1649.388204615055
 20
1097.644950903158
 30
0.0
  9
$EXTMAX
 10
1871.798147303447
 20
1150.213272280174
 30
0.0
  9
$LIMMIN
 10
0.0
 20
0.0
  9
$LIMMAX
 10
420.0
 20
297.0
  9
$ORTHOMODE
 70
     0
  9
$REGENMODE
 70
     1
  9
$FILLMODE
 70
     1
  9
$QTEXTMODE
 70
     0
  9
$MIRRTEXT
 70
     0
  9
$LTSCALE
 40
1.0
  9
$ATTMODE
 70
     1
  9
$TEXTSIZE
 40
2.5
  9
$TRACEWID
 40
1.0
  9
$TEXTSTYLE
  7
Standard
  9
$CLAYER
  8
0
  9
$CELTYPE
  6
ByLayer
  9
$CECOLOR
 62
   256
  9
$CELTSCALE
 40
1.0
  9
$DISPSILH
 70
     0
  9
$DIMSCALE
 40
1.0
  9
$DIMASZ
 40
2.5
  9
$DIMEXO
 40
0.625
  9
$DIMDLI
 40
3.75
  9
$DIMRND
 40
0.0
  9
$DIMDLE
 40
0.0
  9
$DIMEXE
 40
1.25
  9
$DIMTP
 40
0.0
  9
$DIMTM
 40
0.0
  9
$DIMTXT
 40
2.5
  9
$DIMCEN
 40
2.5
  9
$DIMTSZ
 40
0.0
  9
$DIMTOL
 70
     0
  9
$DIMLIM
 70
     0
  9
$DIMTIH
 70
     0
  9
$DIMTOH
 70
     0
  9
$DIMSE1
 70
     0
  9
$DIMSE2
 70
     0
  9
$DIMTAD
 70
     1
  9
$DIMZIN
 70
     8
  9
$DIMBLK
  1

  9
$DIMASO
 70
     1
  9
$DIMSHO
 70
     1
  9
$DIMPOST
  1

  9
$DIMAPOST
  1

  9
$DIMALT
 70
     0
  9
$DIMALTD
 70
     3
  9
$DIMALTF
 40
0.03937007874016
  9
$DIMLFAC
 40
1.0
  9
$DIMTOFL
 70
     1
  9
$DIMTVP
 40
0.0
  9
$DIMTIX
 70
     0
  9
$DIMSOXD
 70
     0
  9
$DIMSAH
 70
     0
  9
$DIMBLK1
  1

  9
$DIMBLK2
  1

  9
$DIMSTYLE
  2
ISO-25
  9
$DIMCLRD
 70
     0
  9
$DIMCLRE
 70
     0
  9
$DIMCLRT
 70
     0
  9
$DIMTFAC
 40
1.0
  9
$DIMGAP
 40
0.625
  9
$DIMJUST
 70
     0
  9
$DIMSD1
 70
     0
  9
$DIMSD2
 70
     0
  9
$DIMTOLJ
 70
     0
  9
$DIMTZIN
 70
     8
  9
$DIMALTZ
 70
     0
  9
$DIMALTTZ
 70
     0
  9
$DIMUPT
 70
     0
  9
$DIMDEC
 70
     2
  9
$DIMTDEC
 70
     2
  9
$DIMALTU
 70
     2
  9
$DIMALTTD
 70
     3
  9
$DIMTXSTY
  7
Standard
  9
$DIMAUNIT
 70
     0
  9
$DIMADEC
 70
     0
  9
$DIMALTRND
 40
0.0
  9
$DIMAZIN
 70
     0
  9
$DIMDSEP
 70
    44
  9
$DIMATFIT
 70
     3
  9
$DIMFRAC
 70
     0
  9
$DIMLDRBLK
  1

  9
$DIMLUNIT
 70
     2
  9
$DIMLWD
 70
    -2
  9
$DIMLWE
 70
    -2
  9
$DIMTMOVE
 70
     0
  9
$LUNITS
 70
     2
  9
$LUPREC
 70
     4
  9
$SKETCHINC
 40
1.0
  9
$FILLETRAD
 40
0.0
  9
$AUNITS
 70
     0
  9
$AUPREC
 70
     0
  9
$MENU
  1
.
  9
$ELEVATION
 40
0.0
  9
$PELEVATION
 40
0.0
  9
$THICKNESS
 40
0.0
  9
$LIMCHECK
 70
     0
  9
$CHAMFERA
 40
0.0
  9
$CHAMFERB
 40
0.0
  9
$CHAMFERC
 40
0.0
  9
$CHAMFERD
 40
0.0
  9
$SKPOLY
 70
     0
  9
$TDCREATE
 40
2458453.428447628
  9
$TDUCREATE
 40
2458453.303447628
  9
$TDUPDATE
 40
2458983.558278449
  9
$TDUUPDATE
 40
2458983.433278449
  9
$TDINDWG
 40
0.0003710764
  9
$TDUSRTIMER
 40
0.0003710764
  9
$USRTIMER
 70
     1
  9
$ANGBASE
 50
0.0
  9
$ANGDIR
 70
     0
  9
$PDMODE
 70
     0
  9
$PDSIZE
 40
0.0
  9
$PLINEWID
 40
0.0
  9
$SPLFRAME
 70
     0
  9
$SPLINETYPE
 70
     6
  9
$SPLINESEGS
 70
     8
  9
$HANDSEED
  5
B16
  9
$SURFTAB1
 70
     6
  9
$SURFTAB2
 70
     6
  9
$SURFTYPE
 70
     6
  9
$SURFU
 70
     6
  9
$SURFV
 70
     6
  9
$UCSBASE
  2

  9
$UCSNAME
  2

  9
$UCSORG
 10
0.0
 20
0.0
 30
0.0
  9
$UCSXDIR
 10
1.0
 20
0.0
 30
0.0
  9
$UCSYDIR
 10
0.0
 20
1.0
 30
0.0
  9
$UCSORTHOREF
  2

  9
$UCSORTHOVIEW
 70
     0
  9
$UCSORGTOP
 10
0.0
 20
0.0
 30
0.0
  9
$UCSORGBOTTOM
 10
0.0
 20
0.0
 30
0.0
  9
$UCSORGLEFT
 10
0.0
 20
0.0
 30
0.0
  9
$UCSORGRIGHT
 10
0.0
 20
0.0
 30
0.0
  9
$UCSORGFRONT
 10
0.0
 20
0.0
 30
0.0
  9
$UCSORGBACK
 10
0.0
 20
0.0
 30
0.0
  9
$PUCSBASE
  2

  9
$PUCSNAME
  2

  9
$PUCSORG
 10
0.0
 20
0.0
 30
0.0
  9
$PUCSXDIR
 10
1.0
 20
0.0
 30
0.0
  9
$PUCSYDIR
 10
0.0
 20
1.0
 30
0.0
  9
$PUCSORTHOREF
  2

  9
$PUCSORTHOVIEW
 70
     0
  9
$PUCSORGTOP
 10
0.0
 20
0.0
 30
0.0
  9
$PUCSORGBOTTOM
 10
0.0
 20
0.0
 30
0.0
  9
$PUCSORGLEFT
 10
0.0
 20
0.0
 30
0.0
  9
$PUCSORGRIGHT
 10
0.0
 20
0.0
 30
0.0
  9
$PUCSORGFRONT
 10
0.0
 20
0.0
 30
0.0
  9
$PUCSORGBACK
 10
0.0
 20
0.0
 30
0.0
  9
$USERI1
 70
     0
  9
$USERI2
 70
     0
  9
$USERI3
 70
     0
  9
$USERI4
 70
     0
  9
$USERI5
 70
     0
  9
$USERR1
 40
0.0
  9
$USERR2
 40
0.0
  9
$USERR3
 40
0.0
  9
$USERR4
 40
0.0
  9
$USERR5
 40
0.0
  9
$WORLDVIEW
 70
     1
  9
$SHADEDGE
 70
     3
  9
$SHADEDIF
 70
    70
  9
$TILEMODE
 70
     1
  9
$MAXACTVP
 70
    64
  9
$PINSBASE
 10
0.0
 20
0.0
 30
0.0
  9
$PLIMCHECK
 70
     0
  9
$PEXTMIN
 10
0.0
 20
0.0
 30
0.0
  9
$PEXTMAX
 10
0.0
 20
0.0
 30
0.0
  9
$PLIMMIN
 10
0.0
 20
0.0
  9
$PLIMMAX
 10
12.0
 20
9.0
  9
$UNITMODE
 70
     0
  9
$VISRETAIN
 70
     1
  9
$PLINEGEN
 70
     0
  9
$PSLTSCALE
 70
     1
  9
$TREEDEPTH
 70
  3020
  9
$CMLSTYLE
  2
Standard
  9
$CMLJUST
 70
     0
  9
$CMLSCALE
 40
20.0
  9
$PROXYGRAPHICS
 70
     1
  9
$MEASUREMENT
 70
     1
  9
$CELWEIGHT
370
    -1
  9
$ENDCAPS
280
     0
  9
$JOINSTYLE
280
     0
  9
$LWDISPLAY
290
     0
  9
$INSUNITS
 70
     4
  9
$HYPERLINKBASE
  1

  9
$STYLESHEET
  1

  9
$XEDIT
290
     1
  9
$CEPSNTYPE
380
     0
  9
$PSTYLEMODE
290
     1
  9
$FINGERPRINTGUID
  2
{F4A3CBF9-AB29-4411-B64D-602A6AACFE95}
  9
$VERSIONGUID
  2
{ADBCC465-FF9A-4CE2-9D38-7C9D90E1F89E}
  9
$EXTNAMES
290
     1
  9
$PSVPSCALE
 40
0.0
  9
$OLESTARTUP
290
     0
  0
ENDSEC
  0
SECTION
  2
CLASSES
  0
CLASS
  1
ACDBDICTIONARYWDFLT
  2
AcDbDictionaryWithDefault
  3
ObjectDBX Classes
 90
        0
280
     0
281
     0
  0
CLASS
  1
ACDBPLACEHOLDER
  2
AcDbPlaceHolder
  3
ObjectDBX Classes
 90
        0
280
     0
281
     0
  0
CLASS
  1
LAYOUT
  2
AcDbLayout
  3
ObjectDBX Classes
 90
        0
280
     0
281
     0
  0
CLASS
  1
DICTIONARYVAR
  2
AcDbDictionaryVar
  3
ObjectDBX Classes
 90
        0
280
     0
281
     0
  0
CLASS
  1
TABLESTYLE
  2
AcDbTableStyle
  3
ObjectDBX Classes
 90
     4095
280
     0
281
     0
  0
CLASS
  1
MATERIAL
  2
AcDbMaterial
  3
ObjectDBX Classes
 90
     1153
280
     0
281
     0
  0
CLASS
  1
VISUALSTYLE
  2
AcDbVisualStyle
  3
ObjectDBX Classes
 90
     4095
280
     0
281
     0
  0
CLASS
  1
SCALE
  2
AcDbScale
  3
ObjectDBX Classes
 90
     1153
280
     0
281
     0
  0
CLASS
  1
MLEADERSTYLE
  2
AcDbMLeaderStyle
  3
ACDB_MLEADERSTYLE_CLASS
 90
     4095
280
     0
281
     0
  0
CLASS
  1
CELLSTYLEMAP
  2
AcDbCellStyleMap
  3
ObjectDBX Classes
 90
     1152
280
     0
281
     0
  0
ENDSEC
  0
SECTION
  2
TABLES
  0
TABLE
  2
VPORT
  5
8
330
0
100
AcDbSymbolTable
 70
     1
  0
VPORT
  5
EA
330
8
100
AcDbSymbolTableRecord
100
AcDbViewportTableRecord
  2
*Active
 70
     0
 10
0.0
 20
0.0
 11
1.0
 21
1.0
 12
1773.674401438002
 22
1133.243922086429
 13
0.0
 23
0.0
 14
10.0
 24
10.0
 15
10.0
 25
10.0
 16
0.0
 26
0.0
 36
1.0
 17
0.0
 27
0.0
 37
0.0
 40
164.8351642754375
 41
1.903110047846889
 42
50.0
 43
0.0
 44
0.0
 50
0.0
 51
0.0
 71
     0
 72
  1000
 73
     1
 74
     3
 75
     0
 76
     0
 77
     0
 78
     0
281
     0
 65
     1
110
0.0
120
0.0
130
0.0
111
1.0
121
0.0
131
0.0
112
0.0
122
1.0
132
0.0
 79
     0
146
0.0
  0
ENDTAB
  0
TABLE
  2
LTYPE
  5
5
330
0
100
AcDbSymbolTable
 70
     1
  0
LTYPE
  5
14
330
5
100
AcDbSymbolTableRecord
100
AcDbLinetypeTableRecord
  2
ByBlock
 70
     0
  3

 72
    65
 73
     0
 40
0.0
  0
LTYPE
  5
15
330
5
100
AcDbSymbolTableRecord
100
AcDbLinetypeTableRecord
  2
ByLayer
 70
     0
  3

 72
    65
 73
     0
 40
0.0
  0
LTYPE
  5
16
330
5
100
AcDbSymbolTableRecord
100
AcDbLinetypeTableRecord
  2
Continuous
 70
     0
  3
Solid line
 72
    65
 73
     0
 40
0.0
  0
ENDTAB
  0
TABLE
  2
LAYER
  5
2
330
0
100
AcDbSymbolTable
 70
     1
  0
LAYER
  5
10
102
{ACAD_XDICTIONARY
360
13C
102
}
330
2
100
AcDbSymbolTableRecord
100
AcDbLayerTableRecord
  2
0
 70
     0
 62
     7
  6
Continuous
370
    -3
390
F
  0
ENDTAB
  0
TABLE
  2
STYLE
  5
3
330
0
100
AcDbSymbolTable
 70
     2
  0
STYLE
  5
11
330
3
100
AcDbSymbolTableRecord
100
AcDbTextStyleTableRecord
  2
Standard
 70
     0
 40
0.0
 41
1.0
 50
0.0
 71
     0
 42
2.5
  3
txt
  4

  0
STYLE
  5
132
330
3
100
AcDbSymbolTableRecord
100
AcDbTextStyleTableRecord
  2
Annotative
 70
     0
 40
0.0
 41
1.0
 50
0.0
 71
     0
 42
2.5
  3
txt.shx
  4

1001
AcadAnnotative
1000
AnnotativeData
1002
{
1070
     1
1070
     1
1002
}
  0
ENDTAB
  0
TABLE
  2
VIEW
  5
6
330
0
100
AcDbSymbolTable
 70
     0
  0
ENDTAB
  0
TABLE
  2
UCS
  5
7
330
0
100
AcDbSymbolTable
 70
     0
  0
ENDTAB
  0
TABLE
  2
APPID
  5
9
330
0
100
AcDbSymbolTable
 70
     7
  0
APPID
  5
12
330
9
100
AcDbSymbolTableRecord
100
AcDbRegAppTableRecord
  2
ACAD
 70
     0
  0
APPID
  5
9E
330
9
100
AcDbSymbolTableRecord
100
AcDbRegAppTableRecord
  2
ACAD_PSEXT
 70
     0
  0
APPID
  5
133
330
9
100
AcDbSymbolTableRecord
100
AcDbRegAppTableRecord
  2
AcadAnnoPO
 70
     0
  0
APPID
  5
134
330
9
100
AcDbSymbolTableRecord
100
AcDbRegAppTableRecord
  2
AcadAnnotative
 70
     0
  0
APPID
  5
135
330
9
100
AcDbSymbolTableRecord
100
AcDbRegAppTableRecord
  2
ACAD_DSTYLE_DIMJAG
 70
     0
  0
APPID
  5
136
330
9
100
AcDbSymbolTableRecord
100
AcDbRegAppTableRecord
  2
ACAD_DSTYLE_DIMTALN
 70
     0
  0
APPID
  5
165
330
9
100
AcDbSymbolTableRecord
100
AcDbRegAppTableRecord
  2
ACAD_MLEADERVER
 70
     0
  0
ENDTAB
  0
TABLE
  2
DIMSTYLE
  5
A
330
0
100
AcDbSymbolTable
 70
     2
100
AcDbDimStyleTable
 71
     2
340
27
340
137
  0
DIMSTYLE
105
27
330
A
100
AcDbSymbolTableRecord
100
AcDbDimStyleTableRecord
  2
ISO-25
 70
     0
 41
2.5
 42
0.625
 43
3.75
 44
1.25
 73
     0
 74
     0
 77
     1
 78
     8
140
2.5
141
2.5
143
0.03937007874016
147
0.625
171
     3
172
     1
271
     2
272
     2
274
     3
278
    44
283
     0
284
     8
340
11
  0
DIMSTYLE
105
137
330
A
100
AcDbSymbolTableRecord
100
AcDbDimStyleTableRecord
  2
Annotative
 70
     0
 40
0.0
 41
2.5
 42
0.625
 43
3.75
 44
1.25
 73
     0
 74
     0
 77
     1
 78
     8
140
2.5
141
2.5
143
0.03937007874016
147
0.625
171
     3
172
     1
271
     2
272
     2
274
     3
278
    44
283
     0
284
     8
340
11
1001
AcadAnnotative
1000
AnnotativeData
1002
{
1070
     1
1070
     1
1002
}
1001
ACAD_DSTYLE_DIMJAG
1070
   388
1040
1.5
1001
ACAD_DSTYLE_DIMTALN
1070
   392
1070
     0
  0
ENDTAB
  0
TABLE
  2
BLOCK_RECORD
  5
1
330
0
100
AcDbSymbolTable
 70
     5
  0
BLOCK_RECORD
  5
1F
330
1
100
AcDbSymbolTableRecord
100
AcDbBlockTableRecord
  2
*Model_Space
340
22
  0
BLOCK_RECORD
  5
D2
330
1
100
AcDbSymbolTableRecord
100
AcDbBlockTableRecord
  2
*Paper_Space
340
D3
  0
BLOCK_RECORD
  5
D6
330
1
100
AcDbSymbolTableRecord
100
AcDbBlockTableRecord
  2
*Paper_Space0
340
D7
  0
BLOCK_RECORD
  5
7D7
330
1
100
AcDbSymbolTableRecord
100
AcDbBlockTableRecord
  2
1
340
0
310
2800000020000000200000000100080000000000000400000000000000000000000000000000000000000000000080000080000000808000800000008000800080800000C0C0C000C0DCC000F0CAA6000020400000206000002080000020A0000020C0000020E00000400000004020000040400000406000004080000040A0
310
000040C0000040E00000600000006020000060400000606000006080000060A0000060C0000060E00000800000008020000080400000806000008080000080A0000080C0000080E00000A0000000A0200000A0400000A0600000A0800000A0A00000A0C00000A0E00000C0000000C0200000C0400000C0600000C0800000C0
310
A00000C0C00000C0E00000E0000000E0200000E0400000E0600000E0800000E0A00000E0C00000E0E00040000000400020004000400040006000400080004000A0004000C0004000E00040200000402020004020400040206000402080004020A0004020C0004020E000404000004040200040404000404060004040800040
310
40A0004040C0004040E00040600000406020004060400040606000406080004060A0004060C0004060E00040800000408020004080400040806000408080004080A0004080C0004080E00040A0000040A0200040A0400040A0600040A0800040A0A00040A0C00040A0E00040C0000040C0200040C0400040C0600040C08000
310
40C0A00040C0C00040C0E00040E0000040E0200040E0400040E0600040E0800040E0A00040E0C00040E0E00080000000800020008000400080006000800080008000A0008000C0008000E00080200000802020008020400080206000802080008020A0008020C0008020E00080400000804020008040400080406000804080
310
008040A0008040C0008040E00080600000806020008060400080606000806080008060A0008060C0008060E00080800000808020008080400080806000808080008080A0008080C0008080E00080A0000080A0200080A0400080A0600080A0800080A0A00080A0C00080A0E00080C0000080C0200080C0400080C0600080C0
310
800080C0A00080C0C00080C0E00080E0000080E0200080E0400080E0600080E0800080E0A00080E0C00080E0E000C0000000C0002000C0004000C0006000C0008000C000A000C000C000C000E000C0200000C0202000C0204000C0206000C0208000C020A000C020C000C020E000C0400000C0402000C0404000C0406000C0
310
408000C040A000C040C000C040E000C0600000C0602000C0604000C0606000C0608000C060A000C060C000C060E000C0800000C0802000C0804000C0806000C0808000C080A000C080C000C080E000C0A00000C0A02000C0A04000C0A06000C0A08000C0A0A000C0A0C000C0A0E000C0C00000C0C02000C0C04000C0C06000
310
C0C08000C0C0A000F0FBFF00A4A0A000808080000000FF0000FF000000FFFF00FF000000FF00FF00FFFF0000FFFFFF0000000000000000000000000000000000000000000000000000000000000000000000000000000000000000000000000000000000000000000000000000000000000000000000000000000000000000
310
00000000000000000000000000000000000000000000000000000000000000000000000000000000000000000000000000000000000000000000000000000000000000000000000000000000000000000000000000000000000000000000000000000000000000000000000000000000000000000000000000000000000000
310
00000000000000000000000000000000000000000000000000000000000000000000000000000000000000000000000000000000000000000000000000000000000000000000000000000000000000000000000000000000000000000000000000000000000000000000000000000000000000000000000000000000000000
310
000000000000000000000000000000000000000000000000000000000000000000000000000000000000000000000000000000000000000000000000000000000000000000000000000000000000000000000000FFFFFFFFFFFFFFFFFFFFFFFFFFFFFFFFFFFFFFFFFFFFFFFFFFFFFFFFFFFF0000FF0000FF0000FF00FF0000
310
FF00FF00FF0000FF00FF00FF0000FF000000FF0000FF0000FFFFFFFFFFFFFF00FFFFFFFFFFFFFFFFFFFFFFFFFFFFFFFF0000FF0000FF0000FFFF00FF00FF0000FF00FF00FFFF00FF00FFFFFFFF00FF000000FF0000FFFFFFFFFFFFFFFFFFFFFFFFFFFFFFFFFFFFFFFFFFFFFFFFFFFFFFFFFFFF0000000000FFFFFFFFFFFFFF
310
FFFFFFFFFFFFFFFFFFFFFFFFFFFFFFFFFF0000000000000000000000000000000000000000000000000000000000000000000000000000000000000000000000000000000000000000000000000000000000000000000000000000000000000000000000000000000000000000000000000000000000000000000000000000
310
00000000000000000000000000000000000000000000000000000000000000000000000000000000000000000000000000000000000000000000000000000000000000000000000000000000000000000000000000000000000000000000000000000000000000000000000000000000000000000000000000000000000000
310
00000000000000000000000000000000000000000000000000000000000000000000000000000000000000000000000000000000000000000000000000000000000000000000000000000000000000000000000000000000000000000000000000000000000000000000000000000000000000000000000000000000000000
310
0000000000000000000000000000000000000000000000000000000000000000000000000000000000000000000000000000000000000000
102
{BLKREFS
331
842
102
}
1001
ACAD
1000
DesignCenter Data
1002
{
1070
     1
1070
     4
1002
}
  0
BLOCK_RECORD
  5
843
330
1
100
AcDbSymbolTableRecord
100
AcDbBlockTableRecord
  2
2
340
0
310
2800000020000000200000000100080000000000000400000000000000000000000000000000000000000000000080000080000000808000800000008000800080800000C0C0C000C0DCC000F0CAA6000020400000206000002080000020A0000020C0000020E00000400000004020000040400000406000004080000040A0
310
000040C0000040E00000600000006020000060400000606000006080000060A0000060C0000060E00000800000008020000080400000806000008080000080A0000080C0000080E00000A0000000A0200000A0400000A0600000A0800000A0A00000A0C00000A0E00000C0000000C0200000C0400000C0600000C0800000C0
310
A00000C0C00000C0E00000E0000000E0200000E0400000E0600000E0800000E0A00000E0C00000E0E00040000000400020004000400040006000400080004000A0004000C0004000E00040200000402020004020400040206000402080004020A0004020C0004020E000404000004040200040404000404060004040800040
310
40A0004040C0004040E00040600000406020004060400040606000406080004060A0004060C0004060E00040800000408020004080400040806000408080004080A0004080C0004080E00040A0000040A0200040A0400040A0600040A0800040A0A00040A0C00040A0E00040C0000040C0200040C0400040C0600040C08000
310
40C0A00040C0C00040C0E00040E0000040E0200040E0400040E0600040E0800040E0A00040E0C00040E0E00080000000800020008000400080006000800080008000A0008000C0008000E00080200000802020008020400080206000802080008020A0008020C0008020E00080400000804020008040400080406000804080
310
008040A0008040C0008040E00080600000806020008060400080606000806080008060A0008060C0008060E00080800000808020008080400080806000808080008080A0008080C0008080E00080A0000080A0200080A0400080A0600080A0800080A0A00080A0C00080A0E00080C0000080C0200080C0400080C0600080C0
310
800080C0A00080C0C00080C0E00080E0000080E0200080E0400080E0600080E0800080E0A00080E0C00080E0E000C0000000C0002000C0004000C0006000C0008000C000A000C000C000C000E000C0200000C0202000C0204000C0206000C0208000C020A000C020C000C020E000C0400000C0402000C0404000C0406000C0
310
408000C040A000C040C000C040E000C0600000C0602000C0604000C0606000C0608000C060A000C060C000C060E000C0800000C0802000C0804000C0806000C0808000C080A000C080C000C080E000C0A00000C0A02000C0A04000C0A06000C0A08000C0A0A000C0A0C000C0A0E000C0C00000C0C02000C0C04000C0C06000
310
C0C08000C0C0A000F0FBFF00A4A0A000808080000000FF0000FF000000FFFF00FF000000FF00FF00FFFF0000FFFFFF0000000000000000000000000000000000000000000000000000000000000000000000000000000000000000000000000000000000000000000000000000000000000000000000000000000000000000
310
00000000000000000000000000000000000000000000000000000000000000000000000000000000000000000000000000000000000000000000000000000000000000000000000000000000000000000000000000000000000000000000000000000000000000000000000000000000000000000000000000000000000000
310
00000000000000000000000000000000000000000000000000000000000000000000000000000000000000000000000000000000000000000000000000000000000000000000000000000000000000000000000000000000000000000000000000000000000000000000000000000000000000000000000000000000000000
310
00000000000000000000000000000000000000000000000000000000000000000000000000000000000000000000000000000000000000000000000000000000000000000000000000000000000000000000000000000000000000000000000000000000000000000000000000000000000000000000000000000000000000
310
000000000000000000000000000000000000000000FFFFFFFFFFFFFFFFFFFFFFFFFFFFFFFFFFFFFFFFFFFFFFFFFFFFFFFFFFFF0000FFFFFFFFFFFFFFFFFFFFFFFFFFFFFFFFFFFFFFFFFFFFFFFFFFFFFFFFFFFF0000000000000000000000000000000000000000000000000000000000000000000000000000000000000000
310
00000000000000000000000000000000000000000000000000000000000000000000000000000000000000000000000000000000000000000000000000000000000000000000000000000000000000000000000000000000000000000000000000000000000000000000000000000000000000000000000000000000000000
310
00000000000000000000000000000000000000000000000000000000000000000000000000000000000000000000000000000000000000000000000000000000000000000000000000000000000000000000000000000000000000000000000000000000000000000000000000000000000000000000000000000000000000
310
00000000000000000000000000000000000000000000000000000000000000000000000000000000000000000000000000000000000000000000000000000000000000000000000000000000000000000000000000000000000000000000000000000000000000000000000000000000000000000000000000000000000000
310
0000000000000000000000000000000000000000000000000000000000000000000000000000000000000000000000000000000000000000
102
{BLKREFS
331
9B4
102
}
1001
ACAD
1000
DesignCenter Data
1002
{
1070
     1
1070
     4
1002
}
  0
BLOCK_RECORD
  5
9B5
330
1
100
AcDbSymbolTableRecord
100
AcDbBlockTableRecord
  2
3
340
0
310
2800000020000000200000000100080000000000000400000000000000000000000000000000000000000000000080000080000000808000800000008000800080800000C0C0C000C0DCC000F0CAA6000020400000206000002080000020A0000020C0000020E00000400000004020000040400000406000004080000040A0
310
000040C0000040E00000600000006020000060400000606000006080000060A0000060C0000060E00000800000008020000080400000806000008080000080A0000080C0000080E00000A0000000A0200000A0400000A0600000A0800000A0A00000A0C00000A0E00000C0000000C0200000C0400000C0600000C0800000C0
310
A00000C0C00000C0E00000E0000000E0200000E0400000E0600000E0800000E0A00000E0C00000E0E00040000000400020004000400040006000400080004000A0004000C0004000E00040200000402020004020400040206000402080004020A0004020C0004020E000404000004040200040404000404060004040800040
310
40A0004040C0004040E00040600000406020004060400040606000406080004060A0004060C0004060E00040800000408020004080400040806000408080004080A0004080C0004080E00040A0000040A0200040A0400040A0600040A0800040A0A00040A0C00040A0E00040C0000040C0200040C0400040C0600040C08000
310
40C0A00040C0C00040C0E00040E0000040E0200040E0400040E0600040E0800040E0A00040E0C00040E0E00080000000800020008000400080006000800080008000A0008000C0008000E00080200000802020008020400080206000802080008020A0008020C0008020E00080400000804020008040400080406000804080
310
008040A0008040C0008040E00080600000806020008060400080606000806080008060A0008060C0008060E00080800000808020008080400080806000808080008080A0008080C0008080E00080A0000080A0200080A0400080A0600080A0800080A0A00080A0C00080A0E00080C0000080C0200080C0400080C0600080C0
310
800080C0A00080C0C00080C0E00080E0000080E0200080E0400080E0600080E0800080E0A00080E0C00080E0E000C0000000C0002000C0004000C0006000C0008000C000A000C000C000C000E000C0200000C0202000C0204000C0206000C0208000C020A000C020C000C020E000C0400000C0402000C0404000C0406000C0
310
408000C040A000C040C000C040E000C0600000C0602000C0604000C0606000C0608000C060A000C060C000C060E000C0800000C0802000C0804000C0806000C0808000C080A000C080C000C080E000C0A00000C0A02000C0A04000C0A06000C0A08000C0A0A000C0A0C000C0A0E000C0C00000C0C02000C0C04000C0C06000
310
C0C08000C0C0A000F0FBFF00A4A0A000808080000000FF0000FF000000FFFF00FF000000FF00FF00FFFF0000FFFFFF000000000000000000000000000000000000000000000000000000000000000000000000000000000000FFFFFFFFFFFFFFFFFFFFFFFFFFFF000000000000000000000000000000000000FF0000000000
310
00000000000000FF000000000000000000000000000000000000FF000000000000000000000000FF000000000000000000000000000000000000FF000000000000000000000000FF000000000000000000000000000000000000FF000000000000000000000000FF000000000000000000000000000000000000FF00000000
310
0000000000000000FF000000000000000000000000000000000000FF000000000000000000000000FF000000000000000000000000000000000000FF000000000000000000000000FF000000000000000000000000000000000000FF000000000000000000000000FF000000000000000000000000000000000000FF000000
310
000000000000000000FF000000000000000000000000000000000000FF000000000000000000000000FF000000000000000000000000000000000000FF000000000000000000000000FF000000000000000000000000000000000000FF000000000000000000000000FF000000000000000000000000000000000000FF0000
310
00000000000000000000FF000000000000000000000000000000000000FF000000000000000000000000FF000000000000000000000000000000000000FF000000000000000000000000FF000000000000000000000000000000000000FF000000000000000000000000FF000000000000000000000000000000000000FF00
310
0000000000000000000000FF000000000000000000000000000000000000FF000000000000000000000000FF000000000000000000000000000000000000FF000000000000000000000000FF000000000000000000000000000000000000FF000000000000000000000000FF000000000000000000000000000000000000FF
310
000000000000000000000000FF000000000000000000000000000000000000FF000000000000000000000000FF000000000000000000000000000000000000FFFFFFFFFFFFFFFFFFFFFFFFFFFF00000000000000000000000000000000000000FF00000000000000000000FF00000000000000000000000000000000000000
310
00FF00000000000000000000FF0000000000000000000000000000000000000000FF000000FFFFFFFF000000FF0000000000000000000000000000000000000000FF000000FF0000FF000000FF0000000000000000000000000000000000000000FF000000FF0000FF000000FF000000000000000000000000000000000000
310
0000FFFFFFFFFF0000FFFFFFFFFF000000000000000000000000000000000000000000000000000000000000000000000000000000000000
102
{BLKREFS
331
9C8
102
}
1001
ACAD
1000
DesignCenter Data
1002
{
1070
     1
1070
     4
1002
}
  0
BLOCK_RECORD
  5
9C9
330
1
100
AcDbSymbolTableRecord
100
AcDbBlockTableRecord
  2
4
340
0
310
2800000020000000200000000100080000000000000400000000000000000000000000000000000000000000000080000080000000808000800000008000800080800000C0C0C000C0DCC000F0CAA6000020400000206000002080000020A0000020C0000020E00000400000004020000040400000406000004080000040A0
310
000040C0000040E00000600000006020000060400000606000006080000060A0000060C0000060E00000800000008020000080400000806000008080000080A0000080C0000080E00000A0000000A0200000A0400000A0600000A0800000A0A00000A0C00000A0E00000C0000000C0200000C0400000C0600000C0800000C0
310
A00000C0C00000C0E00000E0000000E0200000E0400000E0600000E0800000E0A00000E0C00000E0E00040000000400020004000400040006000400080004000A0004000C0004000E00040200000402020004020400040206000402080004020A0004020C0004020E000404000004040200040404000404060004040800040
310
40A0004040C0004040E00040600000406020004060400040606000406080004060A0004060C0004060E00040800000408020004080400040806000408080004080A0004080C0004080E00040A0000040A0200040A0400040A0600040A0800040A0A00040A0C00040A0E00040C0000040C0200040C0400040C0600040C08000
310
40C0A00040C0C00040C0E00040E0000040E0200040E0400040E0600040E0800040E0A00040E0C00040E0E00080000000800020008000400080006000800080008000A0008000C0008000E00080200000802020008020400080206000802080008020A0008020C0008020E00080400000804020008040400080406000804080
310
008040A0008040C0008040E00080600000806020008060400080606000806080008060A0008060C0008060E00080800000808020008080400080806000808080008080A0008080C0008080E00080A0000080A0200080A0400080A0600080A0800080A0A00080A0C00080A0E00080C0000080C0200080C0400080C0600080C0
310
800080C0A00080C0C00080C0E00080E0000080E0200080E0400080E0600080E0800080E0A00080E0C00080E0E000C0000000C0002000C0004000C0006000C0008000C000A000C000C000C000E000C0200000C0202000C0204000C0206000C0208000C020A000C020C000C020E000C0400000C0402000C0404000C0406000C0
310
408000C040A000C040C000C040E000C0600000C0602000C0604000C0606000C0608000C060A000C060C000C060E000C0800000C0802000C0804000C0806000C0808000C080A000C080C000C080E000C0A00000C0A02000C0A04000C0A06000C0A08000C0A0A000C0A0C000C0A0E000C0C00000C0C02000C0C04000C0C06000
310
C0C08000C0C0A000F0FBFF00A4A0A000808080000000FF0000FF000000FFFF00FF000000FF00FF00FFFF0000FFFFFF0000000000000000000000000000000000000000000000000000000000000000000000000000000000000000000000000000000000000000000000000000000000000000000000000000000000000000
310
00000000000000000000000000000000000000000000000000000000000000000000000000000000000000000000000000000000000000000000000000000000000000000000000000000000000000000000000000000000000000000000000000000000000000000000000000FF0000000000000000000000000000000000
310
000000000000000000000000FFFFFFFFFF00000000000000000000000000000000000000000000000000FFFF0000FF00FF000000000000000000000000000000000000000000000000FFFFFF0000FF00FF00000000000000000000000000000000000000000000FFFFFFFFFF0000FF00FF0000000000000000000000000000
310
000000000000FFFFFFFFFFFFFFFFFFFFFFFF00000000000000000000000000000000000000FFFFFFFFFFFFFFFFFFFFFFFF000000000000000000000000000000000000FFFFFFFF00FFFFFFFFFFFFFF000000000000000000000000000000000000FFFFFFFFFFFFFFFFFFFFFFFFFFFF00000000000000000000000000000000
310
FFFF00FFFFFFFFFFFFFFFFFFFF000000000000000000000000000000000000FF00FFFFFFFF00FFFFFFFFFFFFFF00000000000000000000000000000000FFFFFFFFFFFF00FFFFFFFFFFFFFF00000000000000000000000000000000FFFFFFFFFFFFFFFFFFFFFFFFFFFF0000000000000000000000000000000000FFFFFFFFFF
310
FFFFFFFFFFFFFFFF0000000000000000000000000000000000FFFFFFFFFFFFFFFFFFFFFFFFFF0000000000000000000000000000000000FFFFFFFFFFFFFFFFFFFFFFFFFFFF0000000000000000000000000000000000FF0000FFFFFFFFFFFFFFFFFFFF00000000000000000000000000000000000000FF0000FFFFFFFFFFFF
310
FFFF000000000000000000000000000000000000000000FF0000FFFFFFFFFFFF0000000000000000000000000000000000000000000000FFFFFFFFFFFFFFFF000000000000000000000000000000000000000000000000FF00FFFFFFFF000000000000000000000000000000000000000000000000000000FFFFFF00000000
310
00000000000000000000000000000000000000000000000000000000000000000000000000000000000000000000000000000000000000000000000000000000000000000000000000000000000000000000000000000000000000000000000000000000000000000000000000000000000000000000000000000000000000
310
0000000000000000000000000000000000000000000000000000000000000000000000000000000000000000000000000000000000000000
102
{BLKREFS
331
AF9
102
}
1001
ACAD
1000
DesignCenter Data
1002
{
1070
     1
1070
     4
1002
}
  0
ENDTAB
  0
ENDSEC
  0
SECTION
  2
BLOCKS
  0
BLOCK
  5
20
330
1F
100
AcDbEntity
  8
0
100
AcDbBlockBegin
  2
*Model_Space
 70
     0
 10
0.0
 20
0.0
 30
0.0
  3
*Model_Space
  1

  0
ENDBLK
  5
21
330
1F
100
AcDbEntity
  8
0
100
AcDbBlockEnd
  0
BLOCK
  5
D4
330
D2
100
AcDbEntity
 67
     1
  8
0
100
AcDbBlockBegin
  2
*Paper_Space
 70
     0
 10
0.0
 20
0.0
 30
0.0
  3
*Paper_Space
  1

  0
ENDBLK
  5
D5
330
D2
100
AcDbEntity
 67
     1
  8
0
100
AcDbBlockEnd
  0
BLOCK
  5
D8
330
D6
100
AcDbEntity
 67
     1
  8
0
100
AcDbBlockBegin
  2
*Paper_Space0
 70
     0
 10
0.0
 20
0.0
 30
0.0
  3
*Paper_Space0
  1

  0
ENDBLK
  5
D9
330
D6
100
AcDbEntity
 67
     1
  8
0
100
AcDbBlockEnd
  0
BLOCK
  5
7D8
330
7D7
100
AcDbEntity
  8
0
100
AcDbBlockBegin
  2
1
 70
     0
 10
0.0
 20
0.0
 30
0.0
  3
1
  1

  0
LINE
  5
7DA
330
7D7
100
AcDbEntity
  8
0
  6
Continuous
 62
     7
370
    15
100
AcDbLine
 10
1760.321593319374
 20
1149.013272279695
 30
0.0
 11
1760.321593319374
 21
1147.213272279695
 31
0.0
  0
LINE
  5
7DB
330
7D7
100
AcDbEntity
  8
0
  6
Continuous
 62
     7
370
    15
100
AcDbLine
 10
1766.121593319374
 20
1147.213272279695
 30
0.0
 11
1766.121593319374
 21
1149.013272279695
 31
0.0
  0
LINE
  5
7DC
330
7D7
100
AcDbEntity
  8
0
  6
Continuous
 62
     7
370
    15
100
AcDbLine
 10
1705.721593319374
 20
1149.013272279695
 30
0.0
 11
1705.721593319374
 21
1147.213272279695
 31
0.0
  0
LINE
  5
7DD
330
7D7
100
AcDbEntity
  8
0
  6
Continuous
 62
     7
370
    15
100
AcDbLine
 10
1711.521593319374
 20
1147.213272279695
 30
0.0
 11
1711.521593319374
 21
1149.013272279695
 31
0.0
  0
LINE
  5
7DE
330
7D7
100
AcDbEntity
  8
0
  6
Continuous
 62
     7
370
    15
100
AcDbLine
 10
1729.121593319374
 20
1149.013272279695
 30
0.0
 11
1729.121593319374
 21
1147.213272279695
 31
0.0
  0
LINE
  5
7DF
330
7D7
100
AcDbEntity
  8
0
  6
Continuous
 62
     7
370
    15
100
AcDbLine
 10
1734.921593319374
 20
1147.213272279695
 30
0.0
 11
1734.921593319374
 21
1149.013272279695
 31
0.0
  0
LINE
  5
7E0
330
7D7
100
AcDbEntity
  8
0
  6
Continuous
 62
     7
370
    15
100
AcDbLine
 10
1721.321593319373
 20
1149.013272279695
 30
0.0
 11
1721.321593319373
 21
1147.213272279695
 31
0.0
  0
LINE
  5
7E1
330
7D7
100
AcDbEntity
  8
0
  6
Continuous
 62
     7
370
    15
100
AcDbLine
 10
1727.121593319374
 20
1147.213272279695
 30
0.0
 11
1727.121593319374
 21
1149.013272279695
 31
0.0
  0
LINE
  5
7E2
330
7D7
100
AcDbEntity
  8
0
  6
Continuous
 62
     7
370
    15
100
AcDbLine
 10
1690.121593319374
 20
1149.013272279695
 30
0.0
 11
1690.121593319374
 21
1147.213272279695
 31
0.0
  0
LINE
  5
7E3
330
7D7
100
AcDbEntity
  8
0
  6
Continuous
 62
     7
370
    15
100
AcDbLine
 10
1695.921593319374
 20
1147.213272279695
 30
0.0
 11
1695.921593319374
 21
1149.013272279695
 31
0.0
  0
LINE
  5
7E4
330
7D7
100
AcDbEntity
  8
0
  6
Continuous
 62
     7
370
    15
100
AcDbLine
 10
1744.721593319374
 20
1149.013272279695
 30
0.0
 11
1744.721593319374
 21
1147.213272279695
 31
0.0
  0
LINE
  5
7E5
330
7D7
100
AcDbEntity
  8
0
  6
Continuous
 62
     7
370
    15
100
AcDbLine
 10
1750.521593319374
 20
1147.213272279695
 30
0.0
 11
1750.521593319374
 21
1149.013272279695
 31
0.0
  0
LINE
  5
7E6
330
7D7
100
AcDbEntity
  8
0
  6
Continuous
 62
     7
370
    15
100
AcDbLine
 10
1752.521593319374
 20
1149.013272279695
 30
0.0
 11
1752.521593319374
 21
1147.213272279695
 31
0.0
  0
LINE
  5
7E7
330
7D7
100
AcDbEntity
  8
0
  6
Continuous
 62
     7
370
    15
100
AcDbLine
 10
1758.321593319374
 20
1147.213272279695
 30
0.0
 11
1758.321593319374
 21
1149.013272279695
 31
0.0
  0
LINE
  5
7E8
330
7D7
100
AcDbEntity
  8
0
  6
Continuous
 62
     7
370
    15
100
AcDbLine
 10
1713.521593319374
 20
1149.013272279695
 30
0.0
 11
1713.521593319374
 21
1147.213272279695
 31
0.0
  0
LINE
  5
7E9
330
7D7
100
AcDbEntity
  8
0
  6
Continuous
 62
     7
370
    15
100
AcDbLine
 10
1719.321593319374
 20
1147.213272279695
 30
0.0
 11
1719.321593319374
 21
1149.013272279695
 31
0.0
  0
LINE
  5
7EA
330
7D7
100
AcDbEntity
  8
0
  6
Continuous
 62
     7
370
    15
100
AcDbLine
 10
1697.921593319374
 20
1149.013272279695
 30
0.0
 11
1697.921593319374
 21
1147.213272279695
 31
0.0
  0
LINE
  5
7EB
330
7D7
100
AcDbEntity
  8
0
  6
Continuous
 62
     7
370
    15
100
AcDbLine
 10
1703.721593319374
 20
1147.213272279695
 30
0.0
 11
1703.721593319374
 21
1149.013272279695
 31
0.0
  0
LINE
  5
7EC
330
7D7
100
AcDbEntity
  8
0
  6
Continuous
 62
     7
370
    15
100
AcDbLine
 10
1736.921593319374
 20
1149.013272279695
 30
0.0
 11
1736.921593319374
 21
1147.213272279695
 31
0.0
  0
LINE
  5
7ED
330
7D7
100
AcDbEntity
  8
0
  6
Continuous
 62
     7
370
    15
100
AcDbLine
 10
1742.721593319374
 20
1147.213272279695
 30
0.0
 11
1742.721593319374
 21
1149.013272279695
 31
0.0
  0
CIRCLE
  5
7EE
330
7D7
100
AcDbEntity
  8
0
  6
Continuous
 62
     7
370
    15
100
AcDbCircle
 10
1747.621593319374
 20
1141.213272279695
 30
0.0
 40
3.75
  0
CIRCLE
  5
7EF
330
7D7
100
AcDbEntity
  8
0
  6
Continuous
 62
     7
370
    15
100
AcDbCircle
 10
1739.821593319373
 20
1141.213272279695
 30
0.0
 40
3.0
  0
LINE
  5
7F0
330
7D7
100
AcDbEntity
  8
0
  6
Continuous
 62
     7
370
    15
100
AcDbLine
 10
1774.621593319374
 20
1135.213272279695
 30
0.0
 11
1774.621593319374
 21
1147.213272279695
 31
0.0
  0
LINE
  5
7F1
330
7D7
100
AcDbEntity
  8
0
  6
Continuous
 62
     7
370
    15
100
AcDbLine
 10
1681.621593319374
 20
1135.213272279695
 30
0.0
 11
1774.621593319374
 21
1135.213272279695
 31
0.0
  0
CIRCLE
  5
7F2
330
7D7
100
AcDbEntity
  8
0
  6
Continuous
 62
     7
370
    15
100
AcDbCircle
 10
1763.221593319373
 20
1141.213272279695
 30
0.0
 40
3.0
  0
CIRCLE
  5
7F3
330
7D7
100
AcDbEntity
  8
0
  6
Continuous
 62
     7
370
    15
100
AcDbCircle
 10
1700.821593319374
 20
1141.213272279695
 30
0.0
 40
3.75
  0
CIRCLE
  5
7F4
330
7D7
100
AcDbEntity
  8
0
  6
Continuous
 62
     7
370
    15
100
AcDbCircle
 10
1693.021593319374
 20
1141.213272279695
 30
0.0
 40
3.0
  0
LINE
  5
7F5
330
7D7
100
AcDbEntity
  8
0
  6
Continuous
 62
     7
370
    15
100
AcDbLine
 10
1681.621593319374
 20
1147.213272279695
 30
0.0
 11
1681.621593319374
 21
1135.213272279695
 31
0.0
  0
CIRCLE
  5
7F6
330
7D7
100
AcDbEntity
  8
0
  6
Continuous
 62
     7
370
    15
100
AcDbCircle
 10
1755.421593319374
 20
1141.213272279695
 30
0.0
 40
3.0
  0
CIRCLE
  5
7F7
330
7D7
100
AcDbEntity
  8
0
  6
Continuous
 62
     7
370
    15
100
AcDbCircle
 10
1708.621593319374
 20
1141.213272279695
 30
0.0
 40
3.0
  0
CIRCLE
  5
7F8
330
7D7
100
AcDbEntity
  8
0
  6
Continuous
 62
     7
370
    15
100
AcDbCircle
 10
1716.421593319374
 20
1141.213272279695
 30
0.0
 40
3.0
  0
CIRCLE
  5
7F9
330
7D7
100
AcDbEntity
  8
0
  6
Continuous
 62
     7
370
    15
100
AcDbCircle
 10
1724.221593319374
 20
1141.213272279695
 30
0.0
 40
3.0
  0
CIRCLE
  5
7FA
330
7D7
100
AcDbEntity
  8
0
  6
Continuous
 62
     7
370
    15
100
AcDbCircle
 10
1732.021593319373
 20
1141.213272279695
 30
0.0
 40
3.0
  0
LINE
  5
7FB
330
7D7
100
AcDbEntity
  8
0
  6
Continuous
 62
     7
370
    15
100
AcDbLine
 10
1774.621593319374
 20
1147.213272279695
 30
0.0
 11
1681.621593319374
 21
1147.213272279695
 31
0.0
  0
LINE
  5
7FC
330
7D7
100
AcDbEntity
  8
0
  6
Continuous
 62
     7
370
    15
100
AcDbLine
 10
1760.371032718536
 20
1149.013272279695
 30
0.0
 11
1760.321593319374
 21
1149.013272279695
 31
0.0
  0
ELLIPSE
  5
7FD
330
7D7
100
AcDbEntity
  8
0
  6
Continuous
 62
     7
370
    15
100
AcDbEllipse
 10
1763.221593319373
 20
1138.764590267058
 30
0.0
 11
-0.0039880259559197
 21
55.33529639401703
 31
0.0
210
0.0
220
0.0
230
1.0
 40
0.0524077297285928
 41
1.362390743167513
 42
1.384506410350492
  0
ELLIPSE
  5
7FE
330
7D7
100
AcDbEntity
  8
0
  6
Continuous
 62
     7
370
    15
100
AcDbEllipse
 10
1763.221593319373
 20
1138.764590267058
 30
0.0
 11
-0.0039880259559197
 21
55.33529639401703
 31
0.0
210
0.0
220
0.0
230
1.0
 40
0.0524077297285928
 41
4.898671342757833
 42
4.920787009940814
  0
LINE
  5
7FF
330
7D7
100
AcDbEntity
  8
0
  6
Continuous
 62
     7
370
    15
100
AcDbLine
 10
1766.121593319374
 20
1149.013272279695
 30
0.0
 11
1766.070680728426
 21
1149.013272279695
 31
0.0
  0
ELLIPSE
  5
800
330
7D7
100
AcDbEntity
  8
0
  6
Continuous
 62
     7
370
    15
100
AcDbEllipse
 10
1763.221593319373
 20
1138.764590267058
 30
0.0
 11
0.0039880259559197
 21
55.33529639401703
 31
0.0
210
0.0
220
0.0
230
1.0
 40
0.0524077297285928
 41
4.898678896829103
 42
4.920794564012087
  0
LINE
  5
801
330
7D7
100
AcDbEntity
  8
0
  6
Continuous
 62
     7
370
    15
100
AcDbLine
 10
1766.058020000514
 20
1150.213272279695
 30
0.0
 11
1760.383520953034
 21
1150.213272279695
 31
0.0
  0
LINE
  5
802
330
7D7
100
AcDbEntity
  8
0
  6
Continuous
 62
     7
370
    15
100
AcDbLine
 10
1705.771032718536
 20
1149.013272279695
 30
0.0
 11
1705.721593319374
 21
1149.013272279695
 31
0.0
  0
ELLIPSE
  5
803
330
7D7
100
AcDbEntity
  8
0
  6
Continuous
 62
     7
370
    15
100
AcDbEllipse
 10
1708.621593319374
 20
1138.764590267058
 30
0.0
 11
-0.0039880259559482
 21
55.33529639401703
 31
0.0
210
0.0
220
0.0
230
1.0
 40
0.0524077297285933
 41
1.36239074316751
 42
1.38450641035049
  0
LINE
  5
804
330
7D7
100
AcDbEntity
  8
0
  6
Continuous
 62
     7
370
    15
100
AcDbLine
 10
1711.458020000514
 20
1150.213272279695
 30
0.0
 11
1705.783520953034
 21
1150.213272279695
 31
0.0
  0
ELLIPSE
  5
805
330
7D7
100
AcDbEntity
  8
0
  6
Continuous
 62
     7
370
    15
100
AcDbEllipse
 10
1708.621593319374
 20
1138.764590267058
 30
0.0
 11
-0.0039880259559482
 21
55.33529639401703
 31
0.0
210
0.0
220
0.0
230
1.0
 40
0.0524077297285933
 41
4.898671342757834
 42
4.920787009940815
  0
LINE
  5
806
330
7D7
100
AcDbEntity
  8
0
  6
Continuous
 62
     7
370
    15
100
AcDbLine
 10
1711.521593319374
 20
1149.013272279695
 30
0.0
 11
1711.470680728426
 21
1149.013272279695
 31
0.0
  0
ELLIPSE
  5
807
330
7D7
100
AcDbEntity
  8
0
  6
Continuous
 62
     7
370
    15
100
AcDbEllipse
 10
1708.621593319374
 20
1138.764590267058
 30
0.0
 11
0.0039880259559197
 21
55.33529639401703
 31
0.0
210
0.0
220
0.0
230
1.0
 40
0.0524077297285928
 41
4.898678896829103
 42
4.920794564012085
  0
LINE
  5
808
330
7D7
100
AcDbEntity
  8
0
  6
Continuous
 62
     7
370
    15
100
AcDbLine
 10
1729.171032718536
 20
1149.013272279695
 30
0.0
 11
1729.121593319374
 21
1149.013272279695
 31
0.0
  0
ELLIPSE
  5
809
330
7D7
100
AcDbEntity
  8
0
  6
Continuous
 62
     7
370
    15
100
AcDbEllipse
 10
1732.021593319373
 20
1138.764590267058
 30
0.0
 11
-0.0039880259559197
 21
55.33529639401703
 31
0.0
210
0.0
220
0.0
230
1.0
 40
0.0524077297285928
 41
1.362390743167511
 42
1.384506410350492
  0
ELLIPSE
  5
80A
330
7D7
100
AcDbEntity
  8
0
  6
Continuous
 62
     7
370
    15
100
AcDbEllipse
 10
1732.021593319373
 20
1138.764590267058
 30
0.0
 11
-0.0039880259559197
 21
55.33529639401703
 31
0.0
210
0.0
220
0.0
230
1.0
 40
0.0524077297285928
 41
4.89867134275783
 42
4.920787009940811
  0
LINE
  5
80B
330
7D7
100
AcDbEntity
  8
0
  6
Continuous
 62
     7
370
    15
100
AcDbLine
 10
1734.921593319374
 20
1149.013272279695
 30
0.0
 11
1734.870680728426
 21
1149.013272279695
 31
0.0
  0
ELLIPSE
  5
80C
330
7D7
100
AcDbEntity
  8
0
  6
Continuous
 62
     7
370
    15
100
AcDbEllipse
 10
1732.021593319373
 20
1138.764590267058
 30
0.0
 11
0.0039880259559482
 21
55.33529639401703
 31
0.0
210
0.0
220
0.0
230
1.0
 40
0.0524077297285928
 41
4.898678896829104
 42
4.920794564012085
  0
LINE
  5
80D
330
7D7
100
AcDbEntity
  8
0
  6
Continuous
 62
     7
370
    15
100
AcDbLine
 10
1734.858020000515
 20
1150.213272279695
 30
0.0
 11
1729.183520953034
 21
1150.213272279695
 31
0.0
  0
LINE
  5
80E
330
7D7
100
AcDbEntity
  8
0
  6
Continuous
 62
     7
370
    15
100
AcDbLine
 10
1721.371032718536
 20
1149.013272279695
 30
0.0
 11
1721.321593319373
 21
1149.013272279695
 31
0.0
  0
ELLIPSE
  5
80F
330
7D7
100
AcDbEntity
  8
0
  6
Continuous
 62
     7
370
    15
100
AcDbEllipse
 10
1724.221593319374
 20
1138.764590267058
 30
0.0
 11
-0.0039880259559197
 21
55.33529639401703
 31
0.0
210
0.0
220
0.0
230
1.0
 40
0.0524077297285928
 41
1.362390743167513
 42
1.384506410350492
  0
ELLIPSE
  5
810
330
7D7
100
AcDbEntity
  8
0
  6
Continuous
 62
     7
370
    15
100
AcDbEllipse
 10
1724.221593319374
 20
1138.764590267058
 30
0.0
 11
-0.0039880259559197
 21
55.33529639401703
 31
0.0
210
0.0
220
0.0
230
1.0
 40
0.0524077297285928
 41
4.89867134275783
 42
4.920787009940811
  0
LINE
  5
811
330
7D7
100
AcDbEntity
  8
0
  6
Continuous
 62
     7
370
    15
100
AcDbLine
 10
1727.121593319374
 20
1149.013272279695
 30
0.0
 11
1727.070680728426
 21
1149.013272279695
 31
0.0
  0
ELLIPSE
  5
812
330
7D7
100
AcDbEntity
  8
0
  6
Continuous
 62
     7
370
    15
100
AcDbEllipse
 10
1724.221593319374
 20
1138.764590267058
 30
0.0
 11
0.0039880259559197
 21
55.33529639401703
 31
0.0
210
0.0
220
0.0
230
1.0
 40
0.0524077297285922
 41
4.898678896829103
 42
4.920794564012085
  0
LINE
  5
813
330
7D7
100
AcDbEntity
  8
0
  6
Continuous
 62
     7
370
    15
100
AcDbLine
 10
1727.058020000515
 20
1150.213272279695
 30
0.0
 11
1721.383520953034
 21
1150.213272279695
 31
0.0
  0
LINE
  5
814
330
7D7
100
AcDbEntity
  8
0
  6
Continuous
 62
     7
370
    15
100
AcDbLine
 10
1690.171032718536
 20
1149.013272279695
 30
0.0
 11
1690.121593319374
 21
1149.013272279695
 31
0.0
  0
ELLIPSE
  5
815
330
7D7
100
AcDbEntity
  8
0
  6
Continuous
 62
     7
370
    15
100
AcDbEllipse
 10
1693.021593319374
 20
1138.764590267058
 30
0.0
 11
-0.0039880259559482
 21
55.33529639401703
 31
0.0
210
0.0
220
0.0
230
1.0
 40
0.0524077297285928
 41
1.362390743167512
 42
1.384506410350492
  0
LINE
  5
816
330
7D7
100
AcDbEntity
  8
0
  6
Continuous
 62
     7
370
    15
100
AcDbLine
 10
1695.858020000515
 20
1150.213272279695
 30
0.0
 11
1690.183520953034
 21
1150.213272279695
 31
0.0
  0
ELLIPSE
  5
817
330
7D7
100
AcDbEntity
  8
0
  6
Continuous
 62
     7
370
    15
100
AcDbEllipse
 10
1693.021593319374
 20
1138.764590267058
 30
0.0
 11
-0.0039880259559482
 21
55.33529639401703
 31
0.0
210
0.0
220
0.0
230
1.0
 40
0.0524077297285928
 41
4.898671342757833
 42
4.920787009940813
  0
LINE
  5
818
330
7D7
100
AcDbEntity
  8
0
  6
Continuous
 62
     7
370
    15
100
AcDbLine
 10
1695.921593319374
 20
1149.013272279695
 30
0.0
 11
1695.870680728426
 21
1149.013272279695
 31
0.0
  0
ELLIPSE
  5
819
330
7D7
100
AcDbEntity
  8
0
  6
Continuous
 62
     7
370
    15
100
AcDbEllipse
 10
1693.021593319374
 20
1138.764590267058
 30
0.0
 11
0.0039880259559197
 21
55.33529639401703
 31
0.0
210
0.0
220
0.0
230
1.0
 40
0.0524077297285928
 41
4.898678896829103
 42
4.920794564012087
  0
LINE
  5
81A
330
7D7
100
AcDbEntity
  8
0
  6
Continuous
 62
     7
370
    15
100
AcDbLine
 10
1744.771032718536
 20
1149.013272279695
 30
0.0
 11
1744.721593319374
 21
1149.013272279695
 31
0.0
  0
ELLIPSE
  5
81B
330
7D7
100
AcDbEntity
  8
0
  6
Continuous
 62
     7
370
    15
100
AcDbEllipse
 10
1747.621593319374
 20
1138.764590267058
 30
0.0
 11
-0.0039880259559197
 21
55.33529639401703
 31
0.0
210
0.0
220
0.0
230
1.0
 40
0.0524077297285928
 41
1.362390743167513
 42
1.384506410350492
  0
ELLIPSE
  5
81C
330
7D7
100
AcDbEntity
  8
0
  6
Continuous
 62
     7
370
    15
100
AcDbEllipse
 10
1747.621593319374
 20
1138.764590267058
 30
0.0
 11
-0.0039880259559197
 21
55.33529639401703
 31
0.0
210
0.0
220
0.0
230
1.0
 40
0.0524077297285928
 41
4.898671342757833
 42
4.920787009940814
  0
LINE
  5
81D
330
7D7
100
AcDbEntity
  8
0
  6
Continuous
 62
     7
370
    15
100
AcDbLine
 10
1750.521593319374
 20
1149.013272279695
 30
0.0
 11
1750.470680728426
 21
1149.013272279695
 31
0.0
  0
ELLIPSE
  5
81E
330
7D7
100
AcDbEntity
  8
0
  6
Continuous
 62
     7
370
    15
100
AcDbEllipse
 10
1747.621593319374
 20
1138.764590267058
 30
0.0
 11
0.0039880259558913
 21
55.33529639401703
 31
0.0
210
0.0
220
0.0
230
1.0
 40
0.0524077297285922
 41
4.898678896829103
 42
4.920794564012084
  0
LINE
  5
81F
330
7D7
100
AcDbEntity
  8
0
  6
Continuous
 62
     7
370
    15
100
AcDbLine
 10
1750.458020000515
 20
1150.213272279695
 30
0.0
 11
1744.783520953034
 21
1150.213272279695
 31
0.0
  0
LINE
  5
820
330
7D7
100
AcDbEntity
  8
0
  6
Continuous
 62
     7
370
    15
100
AcDbLine
 10
1752.571032718536
 20
1149.013272279695
 30
0.0
 11
1752.521593319374
 21
1149.013272279695
 31
0.0
  0
ELLIPSE
  5
821
330
7D7
100
AcDbEntity
  8
0
  6
Continuous
 62
     7
370
    15
100
AcDbEllipse
 10
1755.421593319374
 20
1138.764590267058
 30
0.0
 11
-0.0039880259559197
 21
55.33529639401703
 31
0.0
210
0.0
220
0.0
230
1.0
 40
0.0524077297285928
 41
1.362390743167513
 42
1.384506410350492
  0
ELLIPSE
  5
822
330
7D7
100
AcDbEntity
  8
0
  6
Continuous
 62
     7
370
    15
100
AcDbEllipse
 10
1755.421593319374
 20
1138.764590267058
 30
0.0
 11
-0.0039880259559197
 21
55.33529639401703
 31
0.0
210
0.0
220
0.0
230
1.0
 40
0.0524077297285928
 41
4.89867134275783
 42
4.920787009940811
  0
LINE
  5
823
330
7D7
100
AcDbEntity
  8
0
  6
Continuous
 62
     7
370
    15
100
AcDbLine
 10
1758.321593319374
 20
1149.013272279695
 30
0.0
 11
1758.270680728426
 21
1149.013272279695
 31
0.0
  0
ELLIPSE
  5
824
330
7D7
100
AcDbEntity
  8
0
  6
Continuous
 62
     7
370
    15
100
AcDbEllipse
 10
1755.421593319374
 20
1138.764590267058
 30
0.0
 11
0.0039880259559197
 21
55.33529639401703
 31
0.0
210
0.0
220
0.0
230
1.0
 40
0.0524077297285928
 41
4.898678896829103
 42
4.920794564012085
  0
LINE
  5
825
330
7D7
100
AcDbEntity
  8
0
  6
Continuous
 62
     7
370
    15
100
AcDbLine
 10
1758.258020000514
 20
1150.213272279695
 30
0.0
 11
1752.583520953034
 21
1150.213272279695
 31
0.0
  0
LINE
  5
826
330
7D7
100
AcDbEntity
  8
0
  6
Continuous
 62
     7
370
    15
100
AcDbLine
 10
1713.571032718536
 20
1149.013272279695
 30
0.0
 11
1713.521593319374
 21
1149.013272279695
 31
0.0
  0
ELLIPSE
  5
827
330
7D7
100
AcDbEntity
  8
0
  6
Continuous
 62
     7
370
    15
100
AcDbEllipse
 10
1716.421593319374
 20
1138.764590267058
 30
0.0
 11
-0.0039880259559197
 21
55.33529639401703
 31
0.0
210
0.0
220
0.0
230
1.0
 40
0.0524077297285928
 41
1.362390743167511
 42
1.384506410350492
  0
LINE
  5
828
330
7D7
100
AcDbEntity
  8
0
  6
Continuous
 62
     7
370
    15
100
AcDbLine
 10
1719.258020000515
 20
1150.213272279695
 30
0.0
 11
1713.583520953034
 21
1150.213272279695
 31
0.0
  0
ELLIPSE
  5
829
330
7D7
100
AcDbEntity
  8
0
  6
Continuous
 62
     7
370
    15
100
AcDbEllipse
 10
1716.421593319374
 20
1138.764590267058
 30
0.0
 11
-0.0039880259559197
 21
55.33529639401703
 31
0.0
210
0.0
220
0.0
230
1.0
 40
0.0524077297285928
 41
4.89867134275783
 42
4.920787009940811
  0
LINE
  5
82A
330
7D7
100
AcDbEntity
  8
0
  6
Continuous
 62
     7
370
    15
100
AcDbLine
 10
1719.321593319374
 20
1149.013272279695
 30
0.0
 11
1719.270680728426
 21
1149.013272279695
 31
0.0
  0
ELLIPSE
  5
82B
330
7D7
100
AcDbEntity
  8
0
  6
Continuous
 62
     7
370
    15
100
AcDbEllipse
 10
1716.421593319374
 20
1138.764590267058
 30
0.0
 11
0.0039880259559482
 21
55.33529639401703
 31
0.0
210
0.0
220
0.0
230
1.0
 40
0.0524077297285933
 41
4.898678896829106
 42
4.92079456401209
  0
LINE
  5
82C
330
7D7
100
AcDbEntity
  8
0
  6
Continuous
 62
     7
370
    15
100
AcDbLine
 10
1697.971032718536
 20
1149.013272279695
 30
0.0
 11
1697.921593319374
 21
1149.013272279695
 31
0.0
  0
ELLIPSE
  5
82D
330
7D7
100
AcDbEntity
  8
0
  6
Continuous
 62
     7
370
    15
100
AcDbEllipse
 10
1700.821593319374
 20
1138.764590267058
 30
0.0
 11
-0.0039880259559197
 21
55.33529639401703
 31
0.0
210
0.0
220
0.0
230
1.0
 40
0.0524077297285928
 41
1.362390743167513
 42
1.384506410350492
  0
LINE
  5
82E
330
7D7
100
AcDbEntity
  8
0
  6
Continuous
 62
     7
370
    15
100
AcDbLine
 10
1703.658020000515
 20
1150.213272279695
 30
0.0
 11
1697.983520953034
 21
1150.213272279695
 31
0.0
  0
ELLIPSE
  5
82F
330
7D7
100
AcDbEntity
  8
0
  6
Continuous
 62
     7
370
    15
100
AcDbEllipse
 10
1700.821593319374
 20
1138.764590267058
 30
0.0
 11
-0.0039880259559197
 21
55.33529639401703
 31
0.0
210
0.0
220
0.0
230
1.0
 40
0.0524077297285928
 41
4.89867134275783
 42
4.920787009940811
  0
LINE
  5
830
330
7D7
100
AcDbEntity
  8
0
  6
Continuous
 62
     7
370
    15
100
AcDbLine
 10
1703.721593319374
 20
1149.013272279695
 30
0.0
 11
1703.670680728426
 21
1149.013272279695
 31
0.0
  0
ELLIPSE
  5
831
330
7D7
100
AcDbEntity
  8
0
  6
Continuous
 62
     7
370
    15
100
AcDbEllipse
 10
1700.821593319374
 20
1138.764590267058
 30
0.0
 11
0.0039880259559197
 21
55.33529639401703
 31
0.0
210
0.0
220
0.0
230
1.0
 40
0.0524077297285933
 41
4.898678896829107
 42
4.920794564012089
  0
LINE
  5
832
330
7D7
100
AcDbEntity
  8
0
  6
Continuous
 62
     7
370
    15
100
AcDbLine
 10
1736.971032718536
 20
1149.013272279695
 30
0.0
 11
1736.921593319374
 21
1149.013272279695
 31
0.0
  0
ELLIPSE
  5
833
330
7D7
100
AcDbEntity
  8
0
  6
Continuous
 62
     7
370
    15
100
AcDbEllipse
 10
1739.821593319373
 20
1138.764590267058
 30
0.0
 11
-0.0039880259559197
 21
55.33529639401703
 31
0.0
210
0.0
220
0.0
230
1.0
 40
0.0524077297285928
 41
1.362390743167513
 42
1.384506410350492
  0
ELLIPSE
  5
834
330
7D7
100
AcDbEntity
  8
0
  6
Continuous
 62
     7
370
    15
100
AcDbEllipse
 10
1739.821593319373
 20
1138.764590267058
 30
0.0
 11
-0.0039880259559197
 21
55.33529639401703
 31
0.0
210
0.0
220
0.0
230
1.0
 40
0.0524077297285928
 41
4.89867134275783
 42
4.920787009940811
  0
LINE
  5
835
330
7D7
100
AcDbEntity
  8
0
  6
Continuous
 62
     7
370
    15
100
AcDbLine
 10
1742.721593319374
 20
1149.013272279695
 30
0.0
 11
1742.670680728426
 21
1149.013272279695
 31
0.0
  0
ELLIPSE
  5
836
330
7D7
100
AcDbEntity
  8
0
  6
Continuous
 62
     7
370
    15
100
AcDbEllipse
 10
1739.821593319373
 20
1138.764590267058
 30
0.0
 11
0.0039880259559482
 21
55.33529639401703
 31
0.0
210
0.0
220
0.0
230
1.0
 40
0.0524077297285928
 41
4.898678896829104
 42
4.920794564012088
  0
LINE
  5
837
330
7D7
100
AcDbEntity
  8
0
  6
Continuous
 62
     7
370
    15
100
AcDbLine
 10
1742.658020000515
 20
1150.213272279695
 30
0.0
 11
1736.983520953035
 21
1150.213272279695
 31
0.0
  0
LINE
  5
838
330
7D7
100
AcDbEntity
  8
0
  6
Continuous
 62
     7
370
    15
100
AcDbLine
 10
1750.458020000515
 20
1150.213272279695
 30
0.0
 11
1750.459665685713
 21
1150.213272279695
 31
0.0
  0
LINE
  5
839
330
7D7
100
AcDbEntity
  8
0
  6
Continuous
 62
     7
370
    15
100
AcDbLine
 10
1711.458020000514
 20
1150.213272279695
 30
0.0
 11
1711.459665685713
 21
1150.213272279695
 31
0.0
  0
LINE
  5
83A
330
7D7
100
AcDbEntity
  8
0
  6
Continuous
 62
     7
370
    15
100
AcDbLine
 10
1719.258020000515
 20
1150.213272279695
 30
0.0
 11
1719.259665685713
 21
1150.213272279695
 31
0.0
  0
LINE
  5
83B
330
7D7
100
AcDbEntity
  8
0
  6
Continuous
 62
     7
370
    15
100
AcDbLine
 10
1703.658020000515
 20
1150.213272279695
 30
0.0
 11
1703.659665685713
 21
1150.213272279695
 31
0.0
  0
LINE
  5
83C
330
7D7
100
AcDbEntity
  8
0
  6
Continuous
 62
     7
370
    15
100
AcDbLine
 10
1695.858020000515
 20
1150.213272279695
 30
0.0
 11
1695.859665685713
 21
1150.213272279695
 31
0.0
  0
LINE
  5
83D
330
7D7
100
AcDbEntity
  8
0
  6
Continuous
 62
     7
370
    15
100
AcDbLine
 10
1766.058020000514
 20
1150.213272279695
 30
0.0
 11
1766.059665685713
 21
1150.213272279695
 31
0.0
  0
LINE
  5
83E
330
7D7
100
AcDbEntity
  8
0
  6
Continuous
 62
     7
370
    15
100
AcDbLine
 10
1727.058020000515
 20
1150.213272279695
 30
0.0
 11
1727.059665685713
 21
1150.213272279695
 31
0.0
  0
LINE
  5
83F
330
7D7
100
AcDbEntity
  8
0
  6
Continuous
 62
     7
370
    15
100
AcDbLine
 10
1734.858020000515
 20
1150.213272279695
 30
0.0
 11
1734.859665685713
 21
1150.213272279695
 31
0.0
  0
LINE
  5
840
330
7D7
100
AcDbEntity
  8
0
  6
Continuous
 62
     7
370
    15
100
AcDbLine
 10
1742.658020000515
 20
1150.213272279695
 30
0.0
 11
1742.659665685713
 21
1150.213272279695
 31
0.0
  0
LINE
  5
841
330
7D7
100
AcDbEntity
  8
0
  6
Continuous
 62
     7
370
    15
100
AcDbLine
 10
1758.258020000514
 20
1150.213272279695
 30
0.0
 11
1758.259665685713
 21
1150.213272279695
 31
0.0
  0
ENDBLK
  5
7D9
330
7D7
100
AcDbEntity
  8
0
100
AcDbBlockEnd
  0
BLOCK
  5
844
330
843
100
AcDbEntity
  8
0
100
AcDbBlockBegin
  2
2
 70
     0
 10
0.0
 20
0.0
 30
0.0
  3
2
  1

  0
LINE
  5
846
330
843
100
AcDbEntity
  8
0
  6
Continuous
 62
     7
370
    15
100
AcDbLine
 10
1731.524336598225
 20
1110.83030161606
 30
0.0
 11
1731.52241663216
 21
1109.430302932586
 31
0.0
  0
LINE
  5
847
330
843
100
AcDbEntity
  8
0
  6
Continuous
 62
     7
370
    15
100
AcDbLine
 10
1729.185166638233
 20
1109.433508250367
 30
0.0
 11
1731.52241663216
 21
1109.430302932586
 31
0.0
  0
ARC
  5
848
330
843
100
AcDbEntity
  8
0
  6
Continuous
 62
     7
370
    15
100
AcDbCircle
 10
1732.021593319373
 20
1108.829617794645
 30
0.0
 40
2.900000000000001
100
AcDbArc
 50
11.86196825574012
 51
167.9808803345231
  0
LINE
  5
849
330
843
100
AcDbEntity
  8
0
  6
Continuous
 62
     7
370
    15
100
AcDbLine
 10
1732.522415691785
 20
1109.428931528254
 30
0.0
 11
1734.859665685713
 21
1109.425726210473
 31
0.0
  0
LINE
  5
84A
330
843
100
AcDbEntity
  8
0
  6
Continuous
 62
     7
370
    15
100
AcDbLine
 10
1732.522415691785
 20
1109.428931528254
 30
0.0
 11
1732.52433565785
 21
1110.828930211728
 31
0.0
  0
LINE
  5
84B
330
843
100
AcDbEntity
  8
0
  6
Continuous
 62
     7
370
    15
100
AcDbLine
 10
1732.52433565785
 20
1110.828930211728
 30
0.0
 11
1731.524336598225
 21
1110.83030161606
 31
0.0
  0
LINE
  5
84C
330
843
100
AcDbEntity
  8
0
  6
Continuous
 62
     7
370
    15
100
AcDbLine
 10
1762.724336598225
 20
1110.83030161606
 30
0.0
 11
1762.722416632161
 21
1109.430302932586
 31
0.0
  0
LINE
  5
84D
330
843
100
AcDbEntity
  8
0
  6
Continuous
 62
     7
370
    15
100
AcDbLine
 10
1760.385166638233
 20
1109.433508250367
 30
0.0
 11
1762.722416632161
 21
1109.430302932586
 31
0.0
  0
ARC
  5
84E
330
843
100
AcDbEntity
  8
0
  6
Continuous
 62
     7
370
    15
100
AcDbCircle
 10
1763.221593319373
 20
1108.829617794645
 30
0.0
 40
2.900000000000001
100
AcDbArc
 50
11.86196825574012
 51
167.9808803345231
  0
LINE
  5
84F
330
843
100
AcDbEntity
  8
0
  6
Continuous
 62
     7
370
    15
100
AcDbLine
 10
1763.722415691785
 20
1109.428931528254
 30
0.0
 11
1766.059665685713
 21
1109.425726210473
 31
0.0
  0
LINE
  5
850
330
843
100
AcDbEntity
  8
0
  6
Continuous
 62
     7
370
    15
100
AcDbLine
 10
1763.722415691785
 20
1109.428931528254
 30
0.0
 11
1763.72433565785
 21
1110.828930211728
 31
0.0
  0
LINE
  5
851
330
843
100
AcDbEntity
  8
0
  6
Continuous
 62
     7
370
    15
100
AcDbLine
 10
1763.72433565785
 20
1110.828930211728
 30
0.0
 11
1762.724336598225
 21
1110.83030161606
 31
0.0
  0
LINE
  5
852
330
843
100
AcDbEntity
  8
0
  6
Continuous
 62
     7
370
    15
100
AcDbLine
 10
1754.924336598225
 20
1110.83030161606
 30
0.0
 11
1754.922416632161
 21
1109.430302932586
 31
0.0
  0
LINE
  5
853
330
843
100
AcDbEntity
  8
0
  6
Continuous
 62
     7
370
    15
100
AcDbLine
 10
1752.585166638233
 20
1109.433508250367
 30
0.0
 11
1754.922416632161
 21
1109.430302932586
 31
0.0
  0
ARC
  5
854
330
843
100
AcDbEntity
  8
0
  6
Continuous
 62
     7
370
    15
100
AcDbCircle
 10
1755.421593319374
 20
1108.829617794645
 30
0.0
 40
2.900000000000001
100
AcDbArc
 50
11.86196825574012
 51
167.9808803345231
  0
LINE
  5
855
330
843
100
AcDbEntity
  8
0
  6
Continuous
 62
     7
370
    15
100
AcDbLine
 10
1755.922415691785
 20
1109.428931528254
 30
0.0
 11
1758.259665685713
 21
1109.425726210473
 31
0.0
  0
LINE
  5
856
330
843
100
AcDbEntity
  8
0
  6
Continuous
 62
     7
370
    15
100
AcDbLine
 10
1755.922415691785
 20
1109.428931528254
 30
0.0
 11
1755.92433565785
 21
1110.828930211728
 31
0.0
  0
LINE
  5
857
330
843
100
AcDbEntity
  8
0
  6
Continuous
 62
     7
370
    15
100
AcDbLine
 10
1755.92433565785
 20
1110.828930211728
 30
0.0
 11
1754.924336598225
 21
1110.83030161606
 31
0.0
  0
LINE
  5
858
330
843
100
AcDbEntity
  8
0
  6
Continuous
 62
     7
370
    15
100
AcDbLine
 10
1708.124336598225
 20
1110.83030161606
 30
0.0
 11
1708.122416632161
 21
1109.430302932586
 31
0.0
  0
LINE
  5
859
330
843
100
AcDbEntity
  8
0
  6
Continuous
 62
     7
370
    15
100
AcDbLine
 10
1705.785166638232
 20
1109.433508250367
 30
0.0
 11
1708.122416632161
 21
1109.430302932586
 31
0.0
  0
ARC
  5
85A
330
843
100
AcDbEntity
  8
0
  6
Continuous
 62
     7
370
    15
100
AcDbCircle
 10
1708.621593319374
 20
1108.829617794645
 30
0.0
 40
2.900000000000001
100
AcDbArc
 50
11.86196825574012
 51
167.9808803345231
  0
LINE
  5
85B
330
843
100
AcDbEntity
  8
0
  6
Continuous
 62
     7
370
    15
100
AcDbLine
 10
1709.122415691785
 20
1109.428931528254
 30
0.0
 11
1711.459665685713
 21
1109.425726210473
 31
0.0
  0
LINE
  5
85C
330
843
100
AcDbEntity
  8
0
  6
Continuous
 62
     7
370
    15
100
AcDbLine
 10
1709.122415691785
 20
1109.428931528254
 30
0.0
 11
1709.12433565785
 21
1110.828930211728
 31
0.0
  0
LINE
  5
85D
330
843
100
AcDbEntity
  8
0
  6
Continuous
 62
     7
370
    15
100
AcDbLine
 10
1709.12433565785
 20
1110.828930211728
 30
0.0
 11
1708.124336598225
 21
1110.83030161606
 31
0.0
  0
LINE
  5
85E
330
843
100
AcDbEntity
  8
0
  6
Continuous
 62
     7
370
    15
100
AcDbLine
 10
1700.324336598225
 20
1110.83030161606
 30
0.0
 11
1700.322416632161
 21
1109.430302932586
 31
0.0
  0
LINE
  5
85F
330
843
100
AcDbEntity
  8
0
  6
Continuous
 62
     7
370
    15
100
AcDbLine
 10
1697.985166638233
 20
1109.433508250367
 30
0.0
 11
1700.322416632161
 21
1109.430302932586
 31
0.0
  0
ARC
  5
860
330
843
100
AcDbEntity
  8
0
  6
Continuous
 62
     7
370
    15
100
AcDbCircle
 10
1700.821593319374
 20
1108.829617794645
 30
0.0
 40
2.900000000000001
100
AcDbArc
 50
11.86196825574012
 51
167.9808803345231
  0
LINE
  5
861
330
843
100
AcDbEntity
  8
0
  6
Continuous
 62
     7
370
    15
100
AcDbLine
 10
1701.322415691785
 20
1109.428931528254
 30
0.0
 11
1703.659665685713
 21
1109.425726210473
 31
0.0
  0
LINE
  5
862
330
843
100
AcDbEntity
  8
0
  6
Continuous
 62
     7
370
    15
100
AcDbLine
 10
1701.322415691785
 20
1109.428931528254
 30
0.0
 11
1701.32433565785
 21
1110.828930211728
 31
0.0
  0
LINE
  5
863
330
843
100
AcDbEntity
  8
0
  6
Continuous
 62
     7
370
    15
100
AcDbLine
 10
1701.32433565785
 20
1110.828930211728
 30
0.0
 11
1700.324336598225
 21
1110.83030161606
 31
0.0
  0
LINE
  5
864
330
843
100
AcDbEntity
  8
0
  6
Continuous
 62
     7
370
    15
100
AcDbLine
 10
1739.324336598225
 20
1110.83030161606
 30
0.0
 11
1739.32241663216
 21
1109.430302932586
 31
0.0
  0
LINE
  5
865
330
843
100
AcDbEntity
  8
0
  6
Continuous
 62
     7
370
    15
100
AcDbLine
 10
1736.985166638232
 20
1109.433508250367
 30
0.0
 11
1739.32241663216
 21
1109.430302932586
 31
0.0
  0
LINE
  5
866
330
843
100
AcDbEntity
  8
0
  6
Continuous
 62
     7
370
    15
100
AcDbLine
 10
1740.322415691785
 20
1109.428931528254
 30
0.0
 11
1742.659665685713
 21
1109.425726210473
 31
0.0
  0
LINE
  5
867
330
843
100
AcDbEntity
  8
0
  6
Continuous
 62
     7
370
    15
100
AcDbLine
 10
1740.322415691785
 20
1109.428931528254
 30
0.0
 11
1740.32433565785
 21
1110.828930211728
 31
0.0
  0
LINE
  5
868
330
843
100
AcDbEntity
  8
0
  6
Continuous
 62
     7
370
    15
100
AcDbLine
 10
1740.32433565785
 20
1110.828930211728
 30
0.0
 11
1739.324336598225
 21
1110.83030161606
 31
0.0
  0
ARC
  5
869
330
843
100
AcDbEntity
  8
0
  6
Continuous
 62
     7
370
    15
100
AcDbCircle
 10
1739.821593319373
 20
1108.829617794645
 30
0.0
 40
2.9
100
AcDbArc
 50
11.86196825574012
 51
167.9808803345231
  0
LINE
  5
86A
330
843
100
AcDbEntity
  8
0
  6
Continuous
 62
     7
370
    15
100
AcDbLine
 10
1692.524336598225
 20
1110.83030161606
 30
0.0
 11
1692.52241663216
 21
1109.430302932586
 31
0.0
  0
LINE
  5
86B
330
843
100
AcDbEntity
  8
0
  6
Continuous
 62
     7
370
    15
100
AcDbLine
 10
1690.185166638233
 20
1109.433508250367
 30
0.0
 11
1692.52241663216
 21
1109.430302932586
 31
0.0
  0
ARC
  5
86C
330
843
100
AcDbEntity
  8
0
  6
Continuous
 62
     7
370
    15
100
AcDbCircle
 10
1693.021593319374
 20
1108.829617794645
 30
0.0
 40
2.899999999999973
100
AcDbArc
 50
11.86196825574012
 51
167.9808803345231
  0
LINE
  5
86D
330
843
100
AcDbEntity
  8
0
  6
Continuous
 62
     7
370
    15
100
AcDbLine
 10
1693.522415691785
 20
1109.428931528254
 30
0.0
 11
1695.859665685713
 21
1109.425726210473
 31
0.0
  0
LINE
  5
86E
330
843
100
AcDbEntity
  8
0
  6
Continuous
 62
     7
370
    15
100
AcDbLine
 10
1693.522415691785
 20
1109.428931528254
 30
0.0
 11
1693.52433565785
 21
1110.828930211728
 31
0.0
  0
LINE
  5
86F
330
843
100
AcDbEntity
  8
0
  6
Continuous
 62
     7
370
    15
100
AcDbLine
 10
1693.52433565785
 20
1110.828930211728
 30
0.0
 11
1692.524336598225
 21
1110.83030161606
 31
0.0
  0
LINE
  5
870
330
843
100
AcDbEntity
  8
0
  6
Continuous
 62
     7
370
    15
100
AcDbLine
 10
1723.724336598225
 20
1110.83030161606
 30
0.0
 11
1723.722416632161
 21
1109.430302932586
 31
0.0
  0
LINE
  5
871
330
843
100
AcDbEntity
  8
0
  6
Continuous
 62
     7
370
    15
100
AcDbLine
 10
1721.385166638233
 20
1109.433508250367
 30
0.0
 11
1723.722416632161
 21
1109.430302932586
 31
0.0
  0
LINE
  5
872
330
843
100
AcDbEntity
  8
0
  6
Continuous
 62
     7
370
    15
100
AcDbLine
 10
1724.722415691785
 20
1109.428931528254
 30
0.0
 11
1727.059665685713
 21
1109.425726210473
 31
0.0
  0
LINE
  5
873
330
843
100
AcDbEntity
  8
0
  6
Continuous
 62
     7
370
    15
100
AcDbLine
 10
1724.722415691785
 20
1109.428931528254
 30
0.0
 11
1724.72433565785
 21
1110.828930211728
 31
0.0
  0
LINE
  5
874
330
843
100
AcDbEntity
  8
0
  6
Continuous
 62
     7
370
    15
100
AcDbLine
 10
1724.72433565785
 20
1110.828930211728
 30
0.0
 11
1723.724336598225
 21
1110.83030161606
 31
0.0
  0
ARC
  5
875
330
843
100
AcDbEntity
  8
0
  6
Continuous
 62
     7
370
    15
100
AcDbCircle
 10
1724.221593319374
 20
1108.829617794645
 30
0.0
 40
2.9
100
AcDbArc
 50
11.86196825574012
 51
167.9808803345231
  0
LINE
  5
876
330
843
100
AcDbEntity
  8
0
  6
Continuous
 62
     7
370
    15
100
AcDbLine
 10
1747.124336598226
 20
1110.83030161606
 30
0.0
 11
1747.122416632161
 21
1109.430302932586
 31
0.0
  0
LINE
  5
877
330
843
100
AcDbEntity
  8
0
  6
Continuous
 62
     7
370
    15
100
AcDbLine
 10
1744.785166638233
 20
1109.433508250367
 30
0.0
 11
1747.122416632161
 21
1109.430302932586
 31
0.0
  0
LINE
  5
878
330
843
100
AcDbEntity
  8
0
  6
Continuous
 62
     7
370
    15
100
AcDbLine
 10
1748.122415691785
 20
1109.428931528254
 30
0.0
 11
1750.459665685713
 21
1109.425726210473
 31
0.0
  0
LINE
  5
879
330
843
100
AcDbEntity
  8
0
  6
Continuous
 62
     7
370
    15
100
AcDbLine
 10
1748.122415691785
 20
1109.428931528254
 30
0.0
 11
1748.12433565785
 21
1110.828930211728
 31
0.0
  0
LINE
  5
87A
330
843
100
AcDbEntity
  8
0
  6
Continuous
 62
     7
370
    15
100
AcDbLine
 10
1748.12433565785
 20
1110.828930211728
 30
0.0
 11
1747.124336598226
 21
1110.83030161606
 31
0.0
  0
ARC
  5
87B
330
843
100
AcDbEntity
  8
0
  6
Continuous
 62
     7
370
    15
100
AcDbCircle
 10
1747.621593319374
 20
1108.829617794645
 30
0.0
 40
2.900000000000001
100
AcDbArc
 50
11.86196825574012
 51
167.9808803345231
  0
LINE
  5
87C
330
843
100
AcDbEntity
  8
0
  6
Continuous
 62
     7
370
    15
100
AcDbLine
 10
1715.924336598225
 20
1110.83030161606
 30
0.0
 11
1715.92241663216
 21
1109.430302932586
 31
0.0
  0
LINE
  5
87D
330
843
100
AcDbEntity
  8
0
  6
Continuous
 62
     7
370
    15
100
AcDbLine
 10
1713.585166638233
 20
1109.433508250367
 30
0.0
 11
1715.92241663216
 21
1109.430302932586
 31
0.0
  0
LINE
  5
87E
330
843
100
AcDbEntity
  8
0
  6
Continuous
 62
     7
370
    15
100
AcDbLine
 10
1716.922415691785
 20
1109.428931528254
 30
0.0
 11
1719.259665685713
 21
1109.425726210473
 31
0.0
  0
LINE
  5
87F
330
843
100
AcDbEntity
  8
0
  6
Continuous
 62
     7
370
    15
100
AcDbLine
 10
1716.922415691785
 20
1109.428931528254
 30
0.0
 11
1716.92433565785
 21
1110.828930211728
 31
0.0
  0
LINE
  5
880
330
843
100
AcDbEntity
  8
0
  6
Continuous
 62
     7
370
    15
100
AcDbLine
 10
1716.92433565785
 20
1110.828930211728
 30
0.0
 11
1715.924336598225
 21
1110.83030161606
 31
0.0
  0
ARC
  5
881
330
843
100
AcDbEntity
  8
0
  6
Continuous
 62
     7
370
    15
100
AcDbCircle
 10
1716.421593319374
 20
1108.829617794645
 30
0.0
 40
2.900000000000001
100
AcDbArc
 50
11.86196825574012
 51
167.9808803345231
  0
LINE
  5
882
330
843
100
AcDbEntity
  8
0
  6
Continuous
 62
     7
370
    15
100
AcDbLine
 10
1716.861360135143
 20
1110.766127182435
 30
0.0
 11
1716.92433565785
 21
1110.828930211728
 31
0.0
  0
LINE
  5
883
330
843
100
AcDbEntity
  8
0
  6
Continuous
 62
     7
370
    15
100
AcDbLine
 10
1716.861360135143
 20
1110.766127182435
 30
0.0
 11
1715.987139627519
 21
1110.767326093354
 31
0.0
  0
LINE
  5
884
330
843
100
AcDbEntity
  8
0
  6
Continuous
 62
     7
370
    15
100
AcDbLine
 10
1715.987139627519
 20
1110.767326093354
 30
0.0
 11
1715.924336598225
 21
1110.83030161606
 31
0.0
  0
LINE
  5
885
330
843
100
AcDbEntity
  8
0
  6
Continuous
 62
     7
370
    15
100
AcDbLine
 10
1701.261360135143
 20
1110.766127182435
 30
0.0
 11
1701.32433565785
 21
1110.828930211728
 31
0.0
  0
LINE
  5
886
330
843
100
AcDbEntity
  8
0
  6
Continuous
 62
     7
370
    15
100
AcDbLine
 10
1701.261360135143
 20
1110.766127182435
 30
0.0
 11
1700.387139627519
 21
1110.767326093354
 31
0.0
  0
LINE
  5
887
330
843
100
AcDbEntity
  8
0
  6
Continuous
 62
     7
370
    15
100
AcDbLine
 10
1700.387139627519
 20
1110.767326093354
 30
0.0
 11
1700.324336598225
 21
1110.83030161606
 31
0.0
  0
LINE
  5
888
330
843
100
AcDbEntity
  8
0
  6
Continuous
 62
     7
370
    15
100
AcDbLine
 10
1755.861360135143
 20
1110.766127182435
 30
0.0
 11
1755.92433565785
 21
1110.828930211728
 31
0.0
  0
LINE
  5
889
330
843
100
AcDbEntity
  8
0
  6
Continuous
 62
     7
370
    15
100
AcDbLine
 10
1755.861360135143
 20
1110.766127182435
 30
0.0
 11
1754.987139627519
 21
1110.767326093354
 31
0.0
  0
LINE
  5
88A
330
843
100
AcDbEntity
  8
0
  6
Continuous
 62
     7
370
    15
100
AcDbLine
 10
1754.987139627519
 20
1110.767326093354
 30
0.0
 11
1754.924336598225
 21
1110.83030161606
 31
0.0
  0
LINE
  5
88B
330
843
100
AcDbEntity
  8
0
  6
Continuous
 62
     7
370
    15
100
AcDbLine
 10
1693.461360135143
 20
1110.766127182435
 30
0.0
 11
1693.52433565785
 21
1110.828930211728
 31
0.0
  0
LINE
  5
88C
330
843
100
AcDbEntity
  8
0
  6
Continuous
 62
     7
370
    15
100
AcDbLine
 10
1693.461360135143
 20
1110.766127182435
 30
0.0
 11
1692.587139627519
 21
1110.767326093354
 31
0.0
  0
LINE
  5
88D
330
843
100
AcDbEntity
  8
0
  6
Continuous
 62
     7
370
    15
100
AcDbLine
 10
1692.587139627519
 20
1110.767326093354
 30
0.0
 11
1692.524336598225
 21
1110.83030161606
 31
0.0
  0
LINE
  5
88E
330
843
100
AcDbEntity
  8
0
  6
Continuous
 62
     7
370
    15
100
AcDbLine
 10
1693.522415691785
 20
1109.428931528254
 30
0.0
 11
1693.459440169078
 21
1109.366128498961
 31
0.0
  0
LINE
  5
88F
330
843
100
AcDbEntity
  8
0
  6
Continuous
 62
     7
370
    15
100
AcDbLine
 10
1693.459440169078
 20
1109.366128498961
 30
0.0
 11
1693.461360135143
 21
1110.766127182435
 31
0.0
  0
LINE
  5
890
330
843
100
AcDbEntity
  8
0
  6
Continuous
 62
     7
370
    15
100
AcDbLine
 10
1763.661360135143
 20
1110.766127182435
 30
0.0
 11
1763.72433565785
 21
1110.828930211728
 31
0.0
  0
LINE
  5
891
330
843
100
AcDbEntity
  8
0
  6
Continuous
 62
     7
370
    15
100
AcDbLine
 10
1763.661360135143
 20
1110.766127182435
 30
0.0
 11
1762.787139627519
 21
1110.767326093354
 31
0.0
  0
LINE
  5
892
330
843
100
AcDbEntity
  8
0
  6
Continuous
 62
     7
370
    15
100
AcDbLine
 10
1762.787139627519
 20
1110.767326093354
 30
0.0
 11
1762.724336598225
 21
1110.83030161606
 31
0.0
  0
LINE
  5
893
330
843
100
AcDbEntity
  8
0
  6
Continuous
 62
     7
370
    15
100
AcDbLine
 10
1724.661360135143
 20
1110.766127182435
 30
0.0
 11
1724.72433565785
 21
1110.828930211728
 31
0.0
  0
LINE
  5
894
330
843
100
AcDbEntity
  8
0
  6
Continuous
 62
     7
370
    15
100
AcDbLine
 10
1724.661360135143
 20
1110.766127182435
 30
0.0
 11
1723.787139627519
 21
1110.767326093354
 31
0.0
  0
LINE
  5
895
330
843
100
AcDbEntity
  8
0
  6
Continuous
 62
     7
370
    15
100
AcDbLine
 10
1723.787139627519
 20
1110.767326093354
 30
0.0
 11
1723.724336598225
 21
1110.83030161606
 31
0.0
  0
LINE
  5
896
330
843
100
AcDbEntity
  8
0
  6
Continuous
 62
     7
370
    15
100
AcDbLine
 10
1709.122415691785
 20
1109.428931528254
 30
0.0
 11
1709.059440169079
 21
1109.366128498961
 31
0.0
  0
LINE
  5
897
330
843
100
AcDbEntity
  8
0
  6
Continuous
 62
     7
370
    15
100
AcDbLine
 10
1709.059440169079
 20
1109.366128498961
 30
0.0
 11
1709.061360135143
 21
1110.766127182435
 31
0.0
  0
LINE
  5
898
330
843
100
AcDbEntity
  8
0
  6
Continuous
 62
     7
370
    15
100
AcDbLine
 10
1709.061360135143
 20
1110.766127182435
 30
0.0
 11
1709.12433565785
 21
1110.828930211728
 31
0.0
  0
LINE
  5
899
330
843
100
AcDbEntity
  8
0
  6
Continuous
 62
     7
370
    15
100
AcDbLine
 10
1715.985219661454
 20
1109.367327409879
 30
0.0
 11
1715.92241663216
 21
1109.430302932586
 31
0.0
  0
LINE
  5
89A
330
843
100
AcDbEntity
  8
0
  6
Continuous
 62
     7
370
    15
100
AcDbLine
 10
1715.987139627519
 20
1110.767326093354
 30
0.0
 11
1715.985219661454
 21
1109.367327409879
 31
0.0
  0
LINE
  5
89B
330
843
100
AcDbEntity
  8
0
  6
Continuous
 62
     7
370
    15
100
AcDbLine
 10
1716.922415691785
 20
1109.428931528254
 30
0.0
 11
1716.859440169078
 21
1109.366128498961
 31
0.0
  0
LINE
  5
89C
330
843
100
AcDbEntity
  8
0
  6
Continuous
 62
     7
370
    15
100
AcDbLine
 10
1716.859440169078
 20
1109.366128498961
 30
0.0
 11
1716.861360135143
 21
1110.766127182435
 31
0.0
  0
LINE
  5
89D
330
843
100
AcDbEntity
  8
0
  6
Continuous
 62
     7
370
    15
100
AcDbLine
 10
1748.061360135143
 20
1110.766127182435
 30
0.0
 11
1748.12433565785
 21
1110.828930211728
 31
0.0
  0
LINE
  5
89E
330
843
100
AcDbEntity
  8
0
  6
Continuous
 62
     7
370
    15
100
AcDbLine
 10
1748.061360135143
 20
1110.766127182435
 30
0.0
 11
1747.187139627519
 21
1110.767326093354
 31
0.0
  0
LINE
  5
89F
330
843
100
AcDbEntity
  8
0
  6
Continuous
 62
     7
370
    15
100
AcDbLine
 10
1747.187139627519
 20
1110.767326093354
 30
0.0
 11
1747.124336598226
 21
1110.83030161606
 31
0.0
  0
LINE
  5
8A0
330
843
100
AcDbEntity
  8
0
  6
Continuous
 62
     7
370
    15
100
AcDbLine
 10
1709.061360135143
 20
1110.766127182435
 30
0.0
 11
1708.187139627519
 21
1110.767326093354
 31
0.0
  0
LINE
  5
8A1
330
843
100
AcDbEntity
  8
0
  6
Continuous
 62
     7
370
    15
100
AcDbLine
 10
1708.187139627519
 20
1110.767326093354
 30
0.0
 11
1708.124336598225
 21
1110.83030161606
 31
0.0
  0
LINE
  5
8A2
330
843
100
AcDbEntity
  8
0
  6
Continuous
 62
     7
370
    15
100
AcDbLine
 10
1740.261360135144
 20
1110.766127182435
 30
0.0
 11
1740.32433565785
 21
1110.828930211728
 31
0.0
  0
LINE
  5
8A3
330
843
100
AcDbEntity
  8
0
  6
Continuous
 62
     7
370
    15
100
AcDbLine
 10
1740.261360135144
 20
1110.766127182435
 30
0.0
 11
1739.387139627519
 21
1110.767326093354
 31
0.0
  0
LINE
  5
8A4
330
843
100
AcDbEntity
  8
0
  6
Continuous
 62
     7
370
    15
100
AcDbLine
 10
1739.387139627519
 20
1110.767326093354
 30
0.0
 11
1739.324336598225
 21
1110.83030161606
 31
0.0
  0
LINE
  5
8A5
330
843
100
AcDbEntity
  8
0
  6
Continuous
 62
     7
370
    15
100
AcDbLine
 10
1739.385219661454
 20
1109.367327409879
 30
0.0
 11
1739.32241663216
 21
1109.430302932586
 31
0.0
  0
LINE
  5
8A6
330
843
100
AcDbEntity
  8
0
  6
Continuous
 62
     7
370
    15
100
AcDbLine
 10
1739.387139627519
 20
1110.767326093354
 30
0.0
 11
1739.385219661454
 21
1109.367327409879
 31
0.0
  0
LINE
  5
8A7
330
843
100
AcDbEntity
  8
0
  6
Continuous
 62
     7
370
    15
100
AcDbLine
 10
1732.461360135143
 20
1110.766127182435
 30
0.0
 11
1732.52433565785
 21
1110.828930211728
 31
0.0
  0
LINE
  5
8A8
330
843
100
AcDbEntity
  8
0
  6
Continuous
 62
     7
370
    15
100
AcDbLine
 10
1732.461360135143
 20
1110.766127182435
 30
0.0
 11
1731.587139627519
 21
1110.767326093354
 31
0.0
  0
LINE
  5
8A9
330
843
100
AcDbEntity
  8
0
  6
Continuous
 62
     7
370
    15
100
AcDbLine
 10
1731.587139627519
 20
1110.767326093354
 30
0.0
 11
1731.524336598225
 21
1110.83030161606
 31
0.0
  0
LINE
  5
8AA
330
843
100
AcDbEntity
  8
0
  6
Continuous
 62
     7
370
    15
100
AcDbLine
 10
1731.585219661454
 20
1109.367327409879
 30
0.0
 11
1731.52241663216
 21
1109.430302932586
 31
0.0
  0
LINE
  5
8AB
330
843
100
AcDbEntity
  8
0
  6
Continuous
 62
     7
370
    15
100
AcDbLine
 10
1731.587139627519
 20
1110.767326093354
 30
0.0
 11
1731.585219661454
 21
1109.367327409879
 31
0.0
  0
LINE
  5
8AC
330
843
100
AcDbEntity
  8
0
  6
Continuous
 62
     7
370
    15
100
AcDbLine
 10
1692.585219661454
 20
1109.367327409879
 30
0.0
 11
1692.52241663216
 21
1109.430302932586
 31
0.0
  0
LINE
  5
8AD
330
843
100
AcDbEntity
  8
0
  6
Continuous
 62
     7
370
    15
100
AcDbLine
 10
1692.587139627519
 20
1110.767326093354
 30
0.0
 11
1692.585219661454
 21
1109.367327409879
 31
0.0
  0
LINE
  5
8AE
330
843
100
AcDbEntity
  8
0
  6
Continuous
 62
     7
370
    15
100
AcDbLine
 10
1763.722415691785
 20
1109.428931528254
 30
0.0
 11
1763.659440169078
 21
1109.366128498961
 31
0.0
  0
LINE
  5
8AF
330
843
100
AcDbEntity
  8
0
  6
Continuous
 62
     7
370
    15
100
AcDbLine
 10
1763.659440169078
 20
1109.366128498961
 30
0.0
 11
1763.661360135143
 21
1110.766127182435
 31
0.0
  0
LINE
  5
8B0
330
843
100
AcDbEntity
  8
0
  6
Continuous
 62
     7
370
    15
100
AcDbLine
 10
1762.785219661454
 20
1109.367327409879
 30
0.0
 11
1762.722416632161
 21
1109.430302932586
 31
0.0
  0
LINE
  5
8B1
330
843
100
AcDbEntity
  8
0
  6
Continuous
 62
     7
370
    15
100
AcDbLine
 10
1762.787139627519
 20
1110.767326093354
 30
0.0
 11
1762.785219661454
 21
1109.367327409879
 31
0.0
  0
LINE
  5
8B2
330
843
100
AcDbEntity
  8
0
  6
Continuous
 62
     7
370
    15
100
AcDbLine
 10
1723.785219661454
 20
1109.367327409879
 30
0.0
 11
1723.722416632161
 21
1109.430302932586
 31
0.0
  0
LINE
  5
8B3
330
843
100
AcDbEntity
  8
0
  6
Continuous
 62
     7
370
    15
100
AcDbLine
 10
1723.787139627519
 20
1110.767326093354
 30
0.0
 11
1723.785219661454
 21
1109.367327409879
 31
0.0
  0
LINE
  5
8B4
330
843
100
AcDbEntity
  8
0
  6
Continuous
 62
     7
370
    15
100
AcDbLine
 10
1754.985219661454
 20
1109.367327409879
 30
0.0
 11
1754.922416632161
 21
1109.430302932586
 31
0.0
  0
LINE
  5
8B5
330
843
100
AcDbEntity
  8
0
  6
Continuous
 62
     7
370
    15
100
AcDbLine
 10
1754.987139627519
 20
1110.767326093354
 30
0.0
 11
1754.985219661454
 21
1109.367327409879
 31
0.0
  0
LINE
  5
8B6
330
843
100
AcDbEntity
  8
0
  6
Continuous
 62
     7
370
    15
100
AcDbLine
 10
1701.322415691785
 20
1109.428931528254
 30
0.0
 11
1701.259440169078
 21
1109.366128498961
 31
0.0
  0
LINE
  5
8B7
330
843
100
AcDbEntity
  8
0
  6
Continuous
 62
     7
370
    15
100
AcDbLine
 10
1701.259440169078
 20
1109.366128498961
 30
0.0
 11
1701.261360135143
 21
1110.766127182435
 31
0.0
  0
LINE
  5
8B8
330
843
100
AcDbEntity
  8
0
  6
Continuous
 62
     7
370
    15
100
AcDbLine
 10
1708.185219661454
 20
1109.367327409879
 30
0.0
 11
1708.122416632161
 21
1109.430302932586
 31
0.0
  0
LINE
  5
8B9
330
843
100
AcDbEntity
  8
0
  6
Continuous
 62
     7
370
    15
100
AcDbLine
 10
1708.187139627519
 20
1110.767326093354
 30
0.0
 11
1708.185219661454
 21
1109.367327409879
 31
0.0
  0
LINE
  5
8BA
330
843
100
AcDbEntity
  8
0
  6
Continuous
 62
     7
370
    15
100
AcDbLine
 10
1740.322415691785
 20
1109.428931528254
 30
0.0
 11
1740.259440169078
 21
1109.366128498961
 31
0.0
  0
LINE
  5
8BB
330
843
100
AcDbEntity
  8
0
  6
Continuous
 62
     7
370
    15
100
AcDbLine
 10
1740.259440169078
 20
1109.366128498961
 30
0.0
 11
1740.261360135144
 21
1110.766127182435
 31
0.0
  0
LINE
  5
8BC
330
843
100
AcDbEntity
  8
0
  6
Continuous
 62
     7
370
    15
100
AcDbLine
 10
1724.722415691785
 20
1109.428931528254
 30
0.0
 11
1724.659440169078
 21
1109.366128498961
 31
0.0
  0
LINE
  5
8BD
330
843
100
AcDbEntity
  8
0
  6
Continuous
 62
     7
370
    15
100
AcDbLine
 10
1724.659440169078
 20
1109.366128498961
 30
0.0
 11
1724.661360135143
 21
1110.766127182435
 31
0.0
  0
LINE
  5
8BE
330
843
100
AcDbEntity
  8
0
  6
Continuous
 62
     7
370
    15
100
AcDbLine
 10
1700.385219661454
 20
1109.367327409879
 30
0.0
 11
1700.322416632161
 21
1109.430302932586
 31
0.0
  0
LINE
  5
8BF
330
843
100
AcDbEntity
  8
0
  6
Continuous
 62
     7
370
    15
100
AcDbLine
 10
1700.387139627519
 20
1110.767326093354
 30
0.0
 11
1700.385219661454
 21
1109.367327409879
 31
0.0
  0
LINE
  5
8C0
330
843
100
AcDbEntity
  8
0
  6
Continuous
 62
     7
370
    15
100
AcDbLine
 10
1732.522415691785
 20
1109.428931528254
 30
0.0
 11
1732.459440169078
 21
1109.366128498961
 31
0.0
  0
LINE
  5
8C1
330
843
100
AcDbEntity
  8
0
  6
Continuous
 62
     7
370
    15
100
AcDbLine
 10
1732.459440169078
 20
1109.366128498961
 30
0.0
 11
1732.461360135143
 21
1110.766127182435
 31
0.0
  0
LINE
  5
8C2
330
843
100
AcDbEntity
  8
0
  6
Continuous
 62
     7
370
    15
100
AcDbLine
 10
1747.185219661454
 20
1109.367327409879
 30
0.0
 11
1747.122416632161
 21
1109.430302932586
 31
0.0
  0
LINE
  5
8C3
330
843
100
AcDbEntity
  8
0
  6
Continuous
 62
     7
370
    15
100
AcDbLine
 10
1747.187139627519
 20
1110.767326093354
 30
0.0
 11
1747.185219661454
 21
1109.367327409879
 31
0.0
  0
LINE
  5
8C4
330
843
100
AcDbEntity
  8
0
  6
Continuous
 62
     7
370
    15
100
AcDbLine
 10
1748.122415691785
 20
1109.428931528254
 30
0.0
 11
1748.059440169078
 21
1109.366128498961
 31
0.0
  0
LINE
  5
8C5
330
843
100
AcDbEntity
  8
0
  6
Continuous
 62
     7
370
    15
100
AcDbLine
 10
1748.059440169078
 20
1109.366128498961
 30
0.0
 11
1748.061360135143
 21
1110.766127182435
 31
0.0
  0
LINE
  5
8C6
330
843
100
AcDbEntity
  8
0
  6
Continuous
 62
     7
370
    15
100
AcDbLine
 10
1755.922415691785
 20
1109.428931528254
 30
0.0
 11
1755.859440169079
 21
1109.366128498961
 31
0.0
  0
LINE
  5
8C7
330
843
100
AcDbEntity
  8
0
  6
Continuous
 62
     7
370
    15
100
AcDbLine
 10
1755.859440169079
 20
1109.366128498961
 30
0.0
 11
1755.861360135143
 21
1110.766127182435
 31
0.0
  0
LINE
  5
8C8
330
843
100
AcDbEntity
  8
0
  6
Continuous
 62
     7
370
    15
100
AcDbLine
 10
1754.985219661454
 20
1109.367327409879
 30
0.0
 11
1752.572505910321
 21
1109.370636219081
 31
0.0
  0
ARC
  5
8C9
330
843
100
AcDbEntity
  8
0
  6
Continuous
 62
     7
370
    15
100
AcDbCircle
 10
1755.421593319374
 20
1108.829617794645
 30
0.0
 40
2.9
100
AcDbArc
 50
167.9808803345231
 51
169.2480147252266
  0
LINE
  5
8CA
330
843
100
AcDbEntity
  8
0
  6
Continuous
 62
     7
370
    15
100
AcDbLine
 10
1700.385219661454
 20
1109.367327409879
 30
0.0
 11
1697.972505910321
 21
1109.370636219081
 31
0.0
  0
ARC
  5
8CB
330
843
100
AcDbEntity
  8
0
  6
Continuous
 62
     7
370
    15
100
AcDbCircle
 10
1700.821593319374
 20
1108.829617794645
 30
0.0
 40
2.900000000000027
100
AcDbArc
 50
167.9808803345231
 51
169.2480147252266
  0
LINE
  5
8CC
330
843
100
AcDbEntity
  8
0
  6
Continuous
 62
     7
370
    15
100
AcDbLine
 10
1731.585219661454
 20
1109.367327409879
 30
0.0
 11
1729.172505910321
 21
1109.370636219081
 31
0.0
  0
ARC
  5
8CD
330
843
100
AcDbEntity
  8
0
  6
Continuous
 62
     7
370
    15
100
AcDbCircle
 10
1732.021593319373
 20
1108.829617794645
 30
0.0
 40
2.9
100
AcDbArc
 50
167.9808803345231
 51
169.2480147252266
  0
LINE
  5
8CE
330
843
100
AcDbEntity
  8
0
  6
Continuous
 62
     7
370
    15
100
AcDbLine
 10
1715.985219661454
 20
1109.367327409879
 30
0.0
 11
1713.572505910321
 21
1109.370636219081
 31
0.0
  0
ARC
  5
8CF
330
843
100
AcDbEntity
  8
0
  6
Continuous
 62
     7
370
    15
100
AcDbCircle
 10
1716.421593319374
 20
1108.829617794645
 30
0.0
 40
2.900000000000027
100
AcDbArc
 50
167.9808803345231
 51
169.2480147252266
  0
LINE
  5
8D0
330
843
100
AcDbEntity
  8
0
  6
Continuous
 62
     7
370
    15
100
AcDbLine
 10
1708.185219661454
 20
1109.367327409879
 30
0.0
 11
1705.772505910321
 21
1109.370636219081
 31
0.0
  0
ARC
  5
8D1
330
843
100
AcDbEntity
  8
0
  6
Continuous
 62
     7
370
    15
100
AcDbCircle
 10
1708.621593319374
 20
1108.829617794645
 30
0.0
 40
2.899999999999972
100
AcDbArc
 50
167.9808803345231
 51
169.2480147252266
  0
LINE
  5
8D2
330
843
100
AcDbEntity
  8
0
  6
Continuous
 62
     7
370
    15
100
AcDbLine
 10
1692.585219661454
 20
1109.367327409879
 30
0.0
 11
1690.172505910321
 21
1109.370636219081
 31
0.0
  0
ARC
  5
8D3
330
843
100
AcDbEntity
  8
0
  6
Continuous
 62
     7
370
    15
100
AcDbCircle
 10
1693.021593319374
 20
1108.829617794645
 30
0.0
 40
2.899999999999972
100
AcDbArc
 50
167.9808803345231
 51
169.2480147252266
  0
LINE
  5
8D4
330
843
100
AcDbEntity
  8
0
  6
Continuous
 62
     7
370
    15
100
AcDbLine
 10
1723.785219661454
 20
1109.367327409879
 30
0.0
 11
1721.372505910321
 21
1109.370636219081
 31
0.0
  0
ARC
  5
8D5
330
843
100
AcDbEntity
  8
0
  6
Continuous
 62
     7
370
    15
100
AcDbCircle
 10
1724.221593319374
 20
1108.829617794645
 30
0.0
 40
2.9
100
AcDbArc
 50
167.9808803345231
 51
169.2480147252266
  0
LINE
  5
8D6
330
843
100
AcDbEntity
  8
0
  6
Continuous
 62
     7
370
    15
100
AcDbLine
 10
1762.785219661454
 20
1109.367327409879
 30
0.0
 11
1760.372505910321
 21
1109.370636219081
 31
0.0
  0
ARC
  5
8D7
330
843
100
AcDbEntity
  8
0
  6
Continuous
 62
     7
370
    15
100
AcDbCircle
 10
1763.221593319373
 20
1108.829617794645
 30
0.0
 40
2.9
100
AcDbArc
 50
167.9808803345231
 51
169.2480147252266
  0
LINE
  5
8D8
330
843
100
AcDbEntity
  8
0
  6
Continuous
 62
     7
370
    15
100
AcDbLine
 10
1747.185219661454
 20
1109.367327409879
 30
0.0
 11
1744.772505910321
 21
1109.370636219081
 31
0.0
  0
ARC
  5
8D9
330
843
100
AcDbEntity
  8
0
  6
Continuous
 62
     7
370
    15
100
AcDbCircle
 10
1747.621593319374
 20
1108.829617794645
 30
0.0
 40
2.900000000000027
100
AcDbArc
 50
167.9808803345231
 51
169.2480147252266
  0
LINE
  5
8DA
330
843
100
AcDbEntity
  8
0
  6
Continuous
 62
     7
370
    15
100
AcDbLine
 10
1739.385219661454
 20
1109.367327409879
 30
0.0
 11
1736.972505910321
 21
1109.370636219081
 31
0.0
  0
ARC
  5
8DB
330
843
100
AcDbEntity
  8
0
  6
Continuous
 62
     7
370
    15
100
AcDbCircle
 10
1739.821593319373
 20
1108.829617794645
 30
0.0
 40
2.9
100
AcDbArc
 50
167.9808803345231
 51
169.2480147252266
  0
LINE
  5
8DC
330
843
100
AcDbEntity
  8
0
  6
Continuous
 62
     7
370
    15
100
AcDbLine
 10
1695.872153920211
 20
1109.362819689759
 30
0.0
 11
1693.459440169078
 21
1109.366128498961
 31
0.0
  0
ARC
  5
8DD
330
843
100
AcDbEntity
  8
0
  6
Continuous
 62
     7
370
    15
100
AcDbCircle
 10
1693.021593319374
 20
1108.829617794645
 30
0.0
 40
2.900000000000003
100
AcDbArc
 50
10.59483386504347
 51
11.86196825574012
  0
LINE
  5
8DE
330
843
100
AcDbEntity
  8
0
  6
Continuous
 62
     7
370
    15
100
AcDbLine
 10
1758.272153920211
 20
1109.362819689759
 30
0.0
 11
1755.859440169079
 21
1109.366128498961
 31
0.0
  0
ARC
  5
8DF
330
843
100
AcDbEntity
  8
0
  6
Continuous
 62
     7
370
    15
100
AcDbCircle
 10
1755.421593319374
 20
1108.829617794645
 30
0.0
 40
2.900000000000003
100
AcDbArc
 50
10.59483386504347
 51
11.86196825574012
  0
LINE
  5
8E0
330
843
100
AcDbEntity
  8
0
  6
Continuous
 62
     7
370
    15
100
AcDbLine
 10
1742.672153920211
 20
1109.362819689759
 30
0.0
 11
1740.259440169078
 21
1109.366128498961
 31
0.0
  0
ARC
  5
8E1
330
843
100
AcDbEntity
  8
0
  6
Continuous
 62
     7
370
    15
100
AcDbCircle
 10
1739.821593319373
 20
1108.829617794645
 30
0.0
 40
2.900000000000003
100
AcDbArc
 50
10.59483386504347
 51
11.86196825574012
  0
LINE
  5
8E2
330
843
100
AcDbEntity
  8
0
  6
Continuous
 62
     7
370
    15
100
AcDbLine
 10
1750.472153920211
 20
1109.362819689759
 30
0.0
 11
1748.059440169078
 21
1109.366128498961
 31
0.0
  0
ARC
  5
8E3
330
843
100
AcDbEntity
  8
0
  6
Continuous
 62
     7
370
    15
100
AcDbCircle
 10
1747.621593319374
 20
1108.829617794645
 30
0.0
 40
2.899999999999975
100
AcDbArc
 50
10.59483386504347
 51
11.86196825574012
  0
LINE
  5
8E4
330
843
100
AcDbEntity
  8
0
  6
Continuous
 62
     7
370
    15
100
AcDbLine
 10
1727.072153920211
 20
1109.362819689759
 30
0.0
 11
1724.659440169078
 21
1109.366128498961
 31
0.0
  0
ARC
  5
8E5
330
843
100
AcDbEntity
  8
0
  6
Continuous
 62
     7
370
    15
100
AcDbCircle
 10
1724.221593319374
 20
1108.829617794645
 30
0.0
 40
2.899999999999975
100
AcDbArc
 50
10.59483386504347
 51
11.86196825574012
  0
LINE
  5
8E6
330
843
100
AcDbEntity
  8
0
  6
Continuous
 62
     7
370
    15
100
AcDbLine
 10
1711.472153920211
 20
1109.362819689759
 30
0.0
 11
1709.059440169079
 21
1109.366128498961
 31
0.0
  0
ARC
  5
8E7
330
843
100
AcDbEntity
  8
0
  6
Continuous
 62
     7
370
    15
100
AcDbCircle
 10
1708.621593319374
 20
1108.829617794645
 30
0.0
 40
2.900000000000003
100
AcDbArc
 50
10.59483386504347
 51
11.86196825574012
  0
LINE
  5
8E8
330
843
100
AcDbEntity
  8
0
  6
Continuous
 62
     7
370
    15
100
AcDbLine
 10
1734.872153920211
 20
1109.362819689759
 30
0.0
 11
1732.459440169078
 21
1109.366128498961
 31
0.0
  0
ARC
  5
8E9
330
843
100
AcDbEntity
  8
0
  6
Continuous
 62
     7
370
    15
100
AcDbCircle
 10
1732.021593319373
 20
1108.829617794645
 30
0.0
 40
2.900000000000003
100
AcDbArc
 50
10.59483386504347
 51
11.86196825574012
  0
LINE
  5
8EA
330
843
100
AcDbEntity
  8
0
  6
Continuous
 62
     7
370
    15
100
AcDbLine
 10
1703.672153920211
 20
1109.362819689759
 30
0.0
 11
1701.259440169078
 21
1109.366128498961
 31
0.0
  0
ARC
  5
8EB
330
843
100
AcDbEntity
  8
0
  6
Continuous
 62
     7
370
    15
100
AcDbCircle
 10
1700.821593319374
 20
1108.829617794645
 30
0.0
 40
2.899999999999975
100
AcDbArc
 50
10.59483386504347
 51
11.86196825574012
  0
LINE
  5
8EC
330
843
100
AcDbEntity
  8
0
  6
Continuous
 62
     7
370
    15
100
AcDbLine
 10
1766.072153920211
 20
1109.362819689759
 30
0.0
 11
1763.659440169078
 21
1109.366128498961
 31
0.0
  0
ARC
  5
8ED
330
843
100
AcDbEntity
  8
0
  6
Continuous
 62
     7
370
    15
100
AcDbCircle
 10
1763.221593319373
 20
1108.829617794645
 30
0.0
 40
2.900000000000003
100
AcDbArc
 50
10.59483386504347
 51
11.86196825574012
  0
LINE
  5
8EE
330
843
100
AcDbEntity
  8
0
  6
Continuous
 62
     7
370
    15
100
AcDbLine
 10
1719.272153920211
 20
1109.362819689759
 30
0.0
 11
1716.859440169078
 21
1109.366128498961
 31
0.0
  0
ARC
  5
8EF
330
843
100
AcDbEntity
  8
0
  6
Continuous
 62
     7
370
    15
100
AcDbCircle
 10
1716.421593319374
 20
1108.829617794645
 30
0.0
 40
2.900000000000003
100
AcDbArc
 50
10.59483386504347
 51
11.86196825574012
  0
LINE
  5
8F0
330
843
100
AcDbEntity
  8
0
  6
Continuous
 62
     7
370
    15
100
AcDbLine
 10
1755.857966977293
 20
1108.291908179411
 30
0.0
 11
1755.920770006587
 21
1108.228932656705
 31
0.0
  0
LINE
  5
8F1
330
843
100
AcDbEntity
  8
0
  6
Continuous
 62
     7
370
    15
100
AcDbLine
 10
1755.918850040522
 20
1106.82893397323
 30
0.0
 11
1755.920770006587
 21
1108.228932656705
 31
0.0
  0
LINE
  5
8F2
330
843
100
AcDbEntity
  8
0
  6
Continuous
 62
     7
370
    15
100
AcDbLine
 10
1755.856047011229
 20
1106.891909495937
 30
0.0
 11
1755.918850040522
 21
1106.82893397323
 31
0.0
  0
LINE
  5
8F3
330
843
100
AcDbEntity
  8
0
  6
Continuous
 62
     7
370
    15
100
AcDbLine
 10
1755.856047011229
 20
1106.891909495937
 30
0.0
 11
1755.857966977293
 21
1108.291908179411
 31
0.0
  0
LINE
  5
8F4
330
843
100
AcDbEntity
  8
0
  6
Continuous
 62
     7
370
    15
100
AcDbLine
 10
1762.720770946962
 20
1108.230304061036
 30
0.0
 11
1760.383520953034
 21
1108.233509378817
 31
0.0
  0
LINE
  5
8F5
330
843
100
AcDbEntity
  8
0
  6
Continuous
 62
     7
370
    15
100
AcDbLine
 10
1762.720770946962
 20
1108.230304061036
 30
0.0
 11
1762.718850980897
 21
1106.830305377562
 31
0.0
  0
LINE
  5
8F6
330
843
100
AcDbEntity
  8
0
  6
Continuous
 62
     7
370
    15
100
AcDbLine
 10
1762.718850980897
 20
1106.830305377562
 30
0.0
 11
1763.718850040522
 21
1106.82893397323
 31
0.0
  0
LINE
  5
8F7
330
843
100
AcDbEntity
  8
0
  6
Continuous
 62
     7
370
    15
100
AcDbLine
 10
1763.718850040522
 20
1106.82893397323
 30
0.0
 11
1763.720770006587
 21
1108.228932656705
 31
0.0
  0
LINE
  5
8F8
330
843
100
AcDbEntity
  8
0
  6
Continuous
 62
     7
370
    15
100
AcDbLine
 10
1766.058020000514
 20
1108.225727338923
 30
0.0
 11
1763.720770006587
 21
1108.228932656705
 31
0.0
  0
ARC
  5
8F9
330
843
100
AcDbEntity
  8
0
  6
Continuous
 62
     7
370
    15
100
AcDbCircle
 10
1763.221593319373
 20
1108.829617794645
 30
0.0
 40
2.900000000000039
100
AcDbArc
 50
191.8619682557529
 51
347.9808803345231
  0
LINE
  5
8FA
330
843
100
AcDbEntity
  8
0
  6
Continuous
 62
     7
370
    15
100
AcDbLine
 10
1695.858020000515
 20
1108.225727338923
 30
0.0
 11
1693.520770006587
 21
1108.228932656705
 31
0.0
  0
LINE
  5
8FB
330
843
100
AcDbEntity
  8
0
  6
Continuous
 62
     7
370
    15
100
AcDbLine
 10
1693.457966977294
 20
1108.291908179411
 30
0.0
 11
1693.520770006587
 21
1108.228932656705
 31
0.0
  0
LINE
  5
8FC
330
843
100
AcDbEntity
  8
0
  6
Continuous
 62
     7
370
    15
100
AcDbLine
 10
1693.457966977294
 20
1108.291908179411
 30
0.0
 11
1695.870680728426
 21
1108.288599370209
 31
0.0
  0
ARC
  5
8FD
330
843
100
AcDbEntity
  8
0
  6
Continuous
 62
     7
370
    15
100
AcDbCircle
 10
1693.021593319374
 20
1108.829617794645
 30
0.0
 40
2.900000000000012
100
AcDbArc
 50
347.9808803345231
 51
349.2480147252266
  0
LINE
  5
8FE
330
843
100
AcDbEntity
  8
0
  6
Continuous
 62
     7
370
    15
100
AcDbLine
 10
1711.458020000514
 20
1108.225727338923
 30
0.0
 11
1709.120770006587
 21
1108.228932656705
 31
0.0
  0
LINE
  5
8FF
330
843
100
AcDbEntity
  8
0
  6
Continuous
 62
     7
370
    15
100
AcDbLine
 10
1709.057966977293
 20
1108.291908179411
 30
0.0
 11
1709.120770006587
 21
1108.228932656705
 31
0.0
  0
LINE
  5
900
330
843
100
AcDbEntity
  8
0
  6
Continuous
 62
     7
370
    15
100
AcDbLine
 10
1709.057966977293
 20
1108.291908179411
 30
0.0
 11
1711.470680728426
 21
1108.288599370209
 31
0.0
  0
ARC
  5
901
330
843
100
AcDbEntity
  8
0
  6
Continuous
 62
     7
370
    15
100
AcDbCircle
 10
1708.621593319374
 20
1108.829617794645
 30
0.0
 40
2.900000000000012
100
AcDbArc
 50
347.9808803345231
 51
349.2480147252266
  0
LINE
  5
902
330
843
100
AcDbEntity
  8
0
  6
Continuous
 62
     7
370
    15
100
AcDbLine
 10
1740.257966977293
 20
1108.291908179411
 30
0.0
 11
1740.320770006587
 21
1108.228932656705
 31
0.0
  0
LINE
  5
903
330
843
100
AcDbEntity
  8
0
  6
Continuous
 62
     7
370
    15
100
AcDbLine
 10
1740.318850040522
 20
1106.82893397323
 30
0.0
 11
1740.320770006587
 21
1108.228932656705
 31
0.0
  0
LINE
  5
904
330
843
100
AcDbEntity
  8
0
  6
Continuous
 62
     7
370
    15
100
AcDbLine
 10
1740.256047011229
 20
1106.891909495937
 30
0.0
 11
1740.318850040522
 21
1106.82893397323
 31
0.0
  0
LINE
  5
905
330
843
100
AcDbEntity
  8
0
  6
Continuous
 62
     7
370
    15
100
AcDbLine
 10
1740.256047011229
 20
1106.891909495937
 30
0.0
 11
1740.257966977293
 21
1108.291908179411
 31
0.0
  0
LINE
  5
906
330
843
100
AcDbEntity
  8
0
  6
Continuous
 62
     7
370
    15
100
AcDbLine
 10
1723.720770946962
 20
1108.230304061036
 30
0.0
 11
1721.383520953034
 21
1108.233509378817
 31
0.0
  0
LINE
  5
907
330
843
100
AcDbEntity
  8
0
  6
Continuous
 62
     7
370
    15
100
AcDbLine
 10
1723.720770946962
 20
1108.230304061036
 30
0.0
 11
1723.718850980898
 21
1106.830305377562
 31
0.0
  0
LINE
  5
908
330
843
100
AcDbEntity
  8
0
  6
Continuous
 62
     7
370
    15
100
AcDbLine
 10
1723.718850980898
 20
1106.830305377562
 30
0.0
 11
1724.718850040522
 21
1106.82893397323
 31
0.0
  0
LINE
  5
909
330
843
100
AcDbEntity
  8
0
  6
Continuous
 62
     7
370
    15
100
AcDbLine
 10
1724.718850040522
 20
1106.82893397323
 30
0.0
 11
1724.720770006587
 21
1108.228932656705
 31
0.0
  0
LINE
  5
90A
330
843
100
AcDbEntity
  8
0
  6
Continuous
 62
     7
370
    15
100
AcDbLine
 10
1727.058020000515
 20
1108.225727338923
 30
0.0
 11
1724.720770006587
 21
1108.228932656705
 31
0.0
  0
ARC
  5
90B
330
843
100
AcDbEntity
  8
0
  6
Continuous
 62
     7
370
    15
100
AcDbCircle
 10
1724.221593319374
 20
1108.829617794645
 30
0.0
 40
2.900000000000012
100
AcDbArc
 50
191.8619682557529
 51
347.9808803345231
  0
LINE
  5
90C
330
843
100
AcDbEntity
  8
0
  6
Continuous
 62
     7
370
    15
100
AcDbLine
 10
1703.658020000515
 20
1108.225727338923
 30
0.0
 11
1701.320770006587
 21
1108.228932656705
 31
0.0
  0
LINE
  5
90D
330
843
100
AcDbEntity
  8
0
  6
Continuous
 62
     7
370
    15
100
AcDbLine
 10
1701.257966977293
 20
1108.291908179411
 30
0.0
 11
1701.320770006587
 21
1108.228932656705
 31
0.0
  0
LINE
  5
90E
330
843
100
AcDbEntity
  8
0
  6
Continuous
 62
     7
370
    15
100
AcDbLine
 10
1701.257966977293
 20
1108.291908179411
 30
0.0
 11
1703.670680728426
 21
1108.288599370209
 31
0.0
  0
ARC
  5
90F
330
843
100
AcDbEntity
  8
0
  6
Continuous
 62
     7
370
    15
100
AcDbCircle
 10
1700.821593319374
 20
1108.829617794645
 30
0.0
 40
2.899999999999984
100
AcDbArc
 50
347.9808803345231
 51
349.2480147252266
  0
LINE
  5
910
330
843
100
AcDbEntity
  8
0
  6
Continuous
 62
     7
370
    15
100
AcDbLine
 10
1731.520770946962
 20
1108.230304061036
 30
0.0
 11
1729.183520953034
 21
1108.233509378817
 31
0.0
  0
LINE
  5
911
330
843
100
AcDbEntity
  8
0
  6
Continuous
 62
     7
370
    15
100
AcDbLine
 10
1731.520770946962
 20
1108.230304061036
 30
0.0
 11
1731.518850980897
 21
1106.830305377562
 31
0.0
  0
LINE
  5
912
330
843
100
AcDbEntity
  8
0
  6
Continuous
 62
     7
370
    15
100
AcDbLine
 10
1731.518850980897
 20
1106.830305377562
 30
0.0
 11
1732.518850040522
 21
1106.82893397323
 31
0.0
  0
LINE
  5
913
330
843
100
AcDbEntity
  8
0
  6
Continuous
 62
     7
370
    15
100
AcDbLine
 10
1732.518850040522
 20
1106.82893397323
 30
0.0
 11
1732.520770006587
 21
1108.228932656705
 31
0.0
  0
LINE
  5
914
330
843
100
AcDbEntity
  8
0
  6
Continuous
 62
     7
370
    15
100
AcDbLine
 10
1734.858020000515
 20
1108.225727338923
 30
0.0
 11
1732.520770006587
 21
1108.228932656705
 31
0.0
  0
ARC
  5
915
330
843
100
AcDbEntity
  8
0
  6
Continuous
 62
     7
370
    15
100
AcDbCircle
 10
1732.021593319373
 20
1108.829617794645
 30
0.0
 40
2.900000000000012
100
AcDbArc
 50
191.8619682557529
 51
347.9808803345231
  0
LINE
  5
916
330
843
100
AcDbEntity
  8
0
  6
Continuous
 62
     7
370
    15
100
AcDbLine
 10
1754.920770946962
 20
1108.230304061036
 30
0.0
 11
1752.583520953034
 21
1108.233509378817
 31
0.0
  0
LINE
  5
917
330
843
100
AcDbEntity
  8
0
  6
Continuous
 62
     7
370
    15
100
AcDbLine
 10
1754.920770946962
 20
1108.230304061036
 30
0.0
 11
1754.918850980897
 21
1106.830305377562
 31
0.0
  0
LINE
  5
918
330
843
100
AcDbEntity
  8
0
  6
Continuous
 62
     7
370
    15
100
AcDbLine
 10
1754.918850980897
 20
1106.830305377562
 30
0.0
 11
1755.918850040522
 21
1106.82893397323
 31
0.0
  0
LINE
  5
919
330
843
100
AcDbEntity
  8
0
  6
Continuous
 62
     7
370
    15
100
AcDbLine
 10
1758.258020000514
 20
1108.225727338923
 30
0.0
 11
1755.920770006587
 21
1108.228932656705
 31
0.0
  0
ARC
  5
91A
330
843
100
AcDbEntity
  8
0
  6
Continuous
 62
     7
370
    15
100
AcDbCircle
 10
1755.421593319374
 20
1108.829617794645
 30
0.0
 40
2.899999999999985
100
AcDbArc
 50
191.8619682557529
 51
347.9808803345231
  0
LINE
  5
91B
330
843
100
AcDbEntity
  8
0
  6
Continuous
 62
     7
370
    15
100
AcDbLine
 10
1763.657966977293
 20
1108.291908179411
 30
0.0
 11
1763.720770006587
 21
1108.228932656705
 31
0.0
  0
LINE
  5
91C
330
843
100
AcDbEntity
  8
0
  6
Continuous
 62
     7
370
    15
100
AcDbLine
 10
1763.656047011228
 20
1106.891909495937
 30
0.0
 11
1763.718850040522
 21
1106.82893397323
 31
0.0
  0
LINE
  5
91D
330
843
100
AcDbEntity
  8
0
  6
Continuous
 62
     7
370
    15
100
AcDbLine
 10
1763.656047011228
 20
1106.891909495937
 30
0.0
 11
1763.657966977293
 21
1108.291908179411
 31
0.0
  0
LINE
  5
91E
330
843
100
AcDbEntity
  8
0
  6
Continuous
 62
     7
370
    15
100
AcDbLine
 10
1732.457966977293
 20
1108.291908179411
 30
0.0
 11
1732.520770006587
 21
1108.228932656705
 31
0.0
  0
LINE
  5
91F
330
843
100
AcDbEntity
  8
0
  6
Continuous
 62
     7
370
    15
100
AcDbLine
 10
1732.457966977293
 20
1108.291908179411
 30
0.0
 11
1734.870680728426
 21
1108.288599370209
 31
0.0
  0
ARC
  5
920
330
843
100
AcDbEntity
  8
0
  6
Continuous
 62
     7
370
    15
100
AcDbCircle
 10
1732.021593319373
 20
1108.829617794645
 30
0.0
 40
2.900000000000012
100
AcDbArc
 50
347.9808803345231
 51
349.2480147252266
  0
LINE
  5
921
330
843
100
AcDbEntity
  8
0
  6
Continuous
 62
     7
370
    15
100
AcDbLine
 10
1716.857966977293
 20
1108.291908179411
 30
0.0
 11
1716.920770006587
 21
1108.228932656705
 31
0.0
  0
LINE
  5
922
330
843
100
AcDbEntity
  8
0
  6
Continuous
 62
     7
370
    15
100
AcDbLine
 10
1716.918850040522
 20
1106.82893397323
 30
0.0
 11
1716.920770006587
 21
1108.228932656705
 31
0.0
  0
LINE
  5
923
330
843
100
AcDbEntity
  8
0
  6
Continuous
 62
     7
370
    15
100
AcDbLine
 10
1716.856047011228
 20
1106.891909495937
 30
0.0
 11
1716.918850040522
 21
1106.82893397323
 31
0.0
  0
LINE
  5
924
330
843
100
AcDbEntity
  8
0
  6
Continuous
 62
     7
370
    15
100
AcDbLine
 10
1716.856047011228
 20
1106.891909495937
 30
0.0
 11
1716.857966977293
 21
1108.291908179411
 31
0.0
  0
LINE
  5
925
330
843
100
AcDbEntity
  8
0
  6
Continuous
 62
     7
370
    15
100
AcDbLine
 10
1700.320770946962
 20
1108.230304061036
 30
0.0
 11
1697.983520953034
 21
1108.233509378817
 31
0.0
  0
LINE
  5
926
330
843
100
AcDbEntity
  8
0
  6
Continuous
 62
     7
370
    15
100
AcDbLine
 10
1700.320770946962
 20
1108.230304061036
 30
0.0
 11
1700.318850980897
 21
1106.830305377562
 31
0.0
  0
LINE
  5
927
330
843
100
AcDbEntity
  8
0
  6
Continuous
 62
     7
370
    15
100
AcDbLine
 10
1700.318850980897
 20
1106.830305377562
 30
0.0
 11
1701.318850040522
 21
1106.82893397323
 31
0.0
  0
LINE
  5
928
330
843
100
AcDbEntity
  8
0
  6
Continuous
 62
     7
370
    15
100
AcDbLine
 10
1701.318850040522
 20
1106.82893397323
 30
0.0
 11
1701.320770006587
 21
1108.228932656705
 31
0.0
  0
ARC
  5
929
330
843
100
AcDbEntity
  8
0
  6
Continuous
 62
     7
370
    15
100
AcDbCircle
 10
1700.821593319374
 20
1108.829617794645
 30
0.0
 40
2.900000000000012
100
AcDbArc
 50
191.8619682557529
 51
347.9808803345231
  0
LINE
  5
92A
330
843
100
AcDbEntity
  8
0
  6
Continuous
 62
     7
370
    15
100
AcDbLine
 10
1724.657966977293
 20
1108.291908179411
 30
0.0
 11
1724.720770006587
 21
1108.228932656705
 31
0.0
  0
LINE
  5
92B
330
843
100
AcDbEntity
  8
0
  6
Continuous
 62
     7
370
    15
100
AcDbLine
 10
1724.657966977293
 20
1108.291908179411
 30
0.0
 11
1727.070680728426
 21
1108.288599370209
 31
0.0
  0
ARC
  5
92C
330
843
100
AcDbEntity
  8
0
  6
Continuous
 62
     7
370
    15
100
AcDbCircle
 10
1724.221593319374
 20
1108.829617794645
 30
0.0
 40
2.900000000000012
100
AcDbArc
 50
347.9808803345231
 51
349.2480147252266
  0
LINE
  5
92D
330
843
100
AcDbEntity
  8
0
  6
Continuous
 62
     7
370
    15
100
AcDbLine
 10
1748.057966977293
 20
1108.291908179411
 30
0.0
 11
1748.120770006587
 21
1108.228932656705
 31
0.0
  0
LINE
  5
92E
330
843
100
AcDbEntity
  8
0
  6
Continuous
 62
     7
370
    15
100
AcDbLine
 10
1748.118850040522
 20
1106.82893397323
 30
0.0
 11
1748.120770006587
 21
1108.228932656705
 31
0.0
  0
LINE
  5
92F
330
843
100
AcDbEntity
  8
0
  6
Continuous
 62
     7
370
    15
100
AcDbLine
 10
1748.056047011228
 20
1106.891909495937
 30
0.0
 11
1748.118850040522
 21
1106.82893397323
 31
0.0
  0
LINE
  5
930
330
843
100
AcDbEntity
  8
0
  6
Continuous
 62
     7
370
    15
100
AcDbLine
 10
1748.056047011228
 20
1106.891909495937
 30
0.0
 11
1748.057966977293
 21
1108.291908179411
 31
0.0
  0
LINE
  5
931
330
843
100
AcDbEntity
  8
0
  6
Continuous
 62
     7
370
    15
100
AcDbLine
 10
1709.118850040522
 20
1106.82893397323
 30
0.0
 11
1709.120770006587
 21
1108.228932656705
 31
0.0
  0
LINE
  5
932
330
843
100
AcDbEntity
  8
0
  6
Continuous
 62
     7
370
    15
100
AcDbLine
 10
1709.056047011229
 20
1106.891909495937
 30
0.0
 11
1709.118850040522
 21
1106.82893397323
 31
0.0
  0
LINE
  5
933
330
843
100
AcDbEntity
  8
0
  6
Continuous
 62
     7
370
    15
100
AcDbLine
 10
1709.056047011229
 20
1106.891909495937
 30
0.0
 11
1709.057966977293
 21
1108.291908179411
 31
0.0
  0
LINE
  5
934
330
843
100
AcDbEntity
  8
0
  6
Continuous
 62
     7
370
    15
100
AcDbLine
 10
1719.258020000515
 20
1108.225727338923
 30
0.0
 11
1716.920770006587
 21
1108.228932656705
 31
0.0
  0
LINE
  5
935
330
843
100
AcDbEntity
  8
0
  6
Continuous
 62
     7
370
    15
100
AcDbLine
 10
1716.857966977293
 20
1108.291908179411
 30
0.0
 11
1719.270680728426
 21
1108.288599370209
 31
0.0
  0
ARC
  5
936
330
843
100
AcDbEntity
  8
0
  6
Continuous
 62
     7
370
    15
100
AcDbCircle
 10
1716.421593319374
 20
1108.829617794645
 30
0.0
 40
2.899999999999984
100
AcDbArc
 50
347.9808803345231
 51
349.2480147252266
  0
LINE
  5
937
330
843
100
AcDbEntity
  8
0
  6
Continuous
 62
     7
370
    15
100
AcDbLine
 10
1701.256047011229
 20
1106.891909495937
 30
0.0
 11
1701.318850040522
 21
1106.82893397323
 31
0.0
  0
LINE
  5
938
330
843
100
AcDbEntity
  8
0
  6
Continuous
 62
     7
370
    15
100
AcDbLine
 10
1701.256047011229
 20
1106.891909495937
 30
0.0
 11
1701.257966977293
 21
1108.291908179411
 31
0.0
  0
LINE
  5
939
330
843
100
AcDbEntity
  8
0
  6
Continuous
 62
     7
370
    15
100
AcDbLine
 10
1732.456047011229
 20
1106.891909495937
 30
0.0
 11
1732.518850040522
 21
1106.82893397323
 31
0.0
  0
LINE
  5
93A
330
843
100
AcDbEntity
  8
0
  6
Continuous
 62
     7
370
    15
100
AcDbLine
 10
1732.456047011229
 20
1106.891909495937
 30
0.0
 11
1732.457966977293
 21
1108.291908179411
 31
0.0
  0
LINE
  5
93B
330
843
100
AcDbEntity
  8
0
  6
Continuous
 62
     7
370
    15
100
AcDbLine
 10
1715.920770946962
 20
1108.230304061036
 30
0.0
 11
1713.583520953034
 21
1108.233509378817
 31
0.0
  0
LINE
  5
93C
330
843
100
AcDbEntity
  8
0
  6
Continuous
 62
     7
370
    15
100
AcDbLine
 10
1715.920770946962
 20
1108.230304061036
 30
0.0
 11
1715.918850980897
 21
1106.830305377562
 31
0.0
  0
LINE
  5
93D
330
843
100
AcDbEntity
  8
0
  6
Continuous
 62
     7
370
    15
100
AcDbLine
 10
1715.918850980897
 20
1106.830305377562
 30
0.0
 11
1716.918850040522
 21
1106.82893397323
 31
0.0
  0
ARC
  5
93E
330
843
100
AcDbEntity
  8
0
  6
Continuous
 62
     7
370
    15
100
AcDbCircle
 10
1716.421593319374
 20
1108.829617794645
 30
0.0
 40
2.900000000000012
100
AcDbArc
 50
191.8619682557529
 51
347.9808803345231
  0
LINE
  5
93F
330
843
100
AcDbEntity
  8
0
  6
Continuous
 62
     7
370
    15
100
AcDbLine
 10
1762.720770946962
 20
1108.230304061036
 30
0.0
 11
1762.783746469669
 21
1108.29310709033
 31
0.0
  0
LINE
  5
940
330
843
100
AcDbEntity
  8
0
  6
Continuous
 62
     7
370
    15
100
AcDbLine
 10
1762.783746469669
 20
1108.29310709033
 30
0.0
 11
1762.781826503604
 21
1106.893108406855
 31
0.0
  0
LINE
  5
941
330
843
100
AcDbEntity
  8
0
  6
Continuous
 62
     7
370
    15
100
AcDbLine
 10
1762.781826503604
 20
1106.893108406855
 30
0.0
 11
1762.718850980897
 21
1106.830305377562
 31
0.0
  0
LINE
  5
942
330
843
100
AcDbEntity
  8
0
  6
Continuous
 62
     7
370
    15
100
AcDbLine
 10
1724.656047011228
 20
1106.891909495937
 30
0.0
 11
1724.718850040522
 21
1106.82893397323
 31
0.0
  0
LINE
  5
943
330
843
100
AcDbEntity
  8
0
  6
Continuous
 62
     7
370
    15
100
AcDbLine
 10
1724.656047011228
 20
1106.891909495937
 30
0.0
 11
1724.657966977293
 21
1108.291908179411
 31
0.0
  0
LINE
  5
944
330
843
100
AcDbEntity
  8
0
  6
Continuous
 62
     7
370
    15
100
AcDbLine
 10
1747.120770946962
 20
1108.230304061036
 30
0.0
 11
1744.783520953034
 21
1108.233509378817
 31
0.0
  0
LINE
  5
945
330
843
100
AcDbEntity
  8
0
  6
Continuous
 62
     7
370
    15
100
AcDbLine
 10
1747.120770946962
 20
1108.230304061036
 30
0.0
 11
1747.118850980897
 21
1106.830305377562
 31
0.0
  0
LINE
  5
946
330
843
100
AcDbEntity
  8
0
  6
Continuous
 62
     7
370
    15
100
AcDbLine
 10
1747.118850980897
 20
1106.830305377562
 30
0.0
 11
1748.118850040522
 21
1106.82893397323
 31
0.0
  0
LINE
  5
947
330
843
100
AcDbEntity
  8
0
  6
Continuous
 62
     7
370
    15
100
AcDbLine
 10
1750.458020000515
 20
1108.225727338923
 30
0.0
 11
1748.120770006587
 21
1108.228932656705
 31
0.0
  0
ARC
  5
948
330
843
100
AcDbEntity
  8
0
  6
Continuous
 62
     7
370
    15
100
AcDbCircle
 10
1747.621593319374
 20
1108.829617794645
 30
0.0
 40
2.900000000000039
100
AcDbArc
 50
191.8619682557529
 51
347.9808803345231
  0
LINE
  5
949
330
843
100
AcDbEntity
  8
0
  6
Continuous
 62
     7
370
    15
100
AcDbLine
 10
1754.920770946962
 20
1108.230304061036
 30
0.0
 11
1754.983746469669
 21
1108.29310709033
 31
0.0
  0
LINE
  5
94A
330
843
100
AcDbEntity
  8
0
  6
Continuous
 62
     7
370
    15
100
AcDbLine
 10
1754.983746469669
 20
1108.29310709033
 30
0.0
 11
1754.981826503604
 21
1106.893108406855
 31
0.0
  0
LINE
  5
94B
330
843
100
AcDbEntity
  8
0
  6
Continuous
 62
     7
370
    15
100
AcDbLine
 10
1754.981826503604
 20
1106.893108406855
 30
0.0
 11
1754.918850980897
 21
1106.830305377562
 31
0.0
  0
LINE
  5
94C
330
843
100
AcDbEntity
  8
0
  6
Continuous
 62
     7
370
    15
100
AcDbLine
 10
1715.920770946962
 20
1108.230304061036
 30
0.0
 11
1715.983746469669
 21
1108.29310709033
 31
0.0
  0
LINE
  5
94D
330
843
100
AcDbEntity
  8
0
  6
Continuous
 62
     7
370
    15
100
AcDbLine
 10
1715.983746469669
 20
1108.29310709033
 30
0.0
 11
1715.981826503604
 21
1106.893108406855
 31
0.0
  0
LINE
  5
94E
330
843
100
AcDbEntity
  8
0
  6
Continuous
 62
     7
370
    15
100
AcDbLine
 10
1715.981826503604
 20
1106.893108406855
 30
0.0
 11
1715.918850980897
 21
1106.830305377562
 31
0.0
  0
LINE
  5
94F
330
843
100
AcDbEntity
  8
0
  6
Continuous
 62
     7
370
    15
100
AcDbLine
 10
1747.120770946962
 20
1108.230304061036
 30
0.0
 11
1747.183746469669
 21
1108.29310709033
 31
0.0
  0
LINE
  5
950
330
843
100
AcDbEntity
  8
0
  6
Continuous
 62
     7
370
    15
100
AcDbLine
 10
1747.183746469669
 20
1108.29310709033
 30
0.0
 11
1747.181826503604
 21
1106.893108406855
 31
0.0
  0
LINE
  5
951
330
843
100
AcDbEntity
  8
0
  6
Continuous
 62
     7
370
    15
100
AcDbLine
 10
1747.181826503604
 20
1106.893108406855
 30
0.0
 11
1747.118850980897
 21
1106.830305377562
 31
0.0
  0
LINE
  5
952
330
843
100
AcDbEntity
  8
0
  6
Continuous
 62
     7
370
    15
100
AcDbLine
 10
1763.657966977293
 20
1108.291908179411
 30
0.0
 11
1766.070680728426
 21
1108.288599370209
 31
0.0
  0
ARC
  5
953
330
843
100
AcDbEntity
  8
0
  6
Continuous
 62
     7
370
    15
100
AcDbCircle
 10
1763.221593319373
 20
1108.829617794645
 30
0.0
 40
2.900000000000012
100
AcDbArc
 50
347.9808803345231
 51
349.2480147252266
  0
LINE
  5
954
330
843
100
AcDbEntity
  8
0
  6
Continuous
 62
     7
370
    15
100
AcDbLine
 10
1736.971032718536
 20
1108.296415899532
 30
0.0
 11
1739.383746469669
 21
1108.29310709033
 31
0.0
  0
LINE
  5
955
330
843
100
AcDbEntity
  8
0
  6
Continuous
 62
     7
370
    15
100
AcDbLine
 10
1739.320770946962
 20
1108.230304061036
 30
0.0
 11
1739.383746469669
 21
1108.29310709033
 31
0.0
  0
LINE
  5
956
330
843
100
AcDbEntity
  8
0
  6
Continuous
 62
     7
370
    15
100
AcDbLine
 10
1739.320770946962
 20
1108.230304061036
 30
0.0
 11
1736.983520953035
 21
1108.233509378817
 31
0.0
  0
ARC
  5
957
330
843
100
AcDbEntity
  8
0
  6
Continuous
 62
     7
370
    15
100
AcDbCircle
 10
1739.821593319373
 20
1108.829617794645
 30
0.0
 40
2.900000000000014
100
AcDbArc
 50
190.5948338650435
 51
191.8619682557529
  0
LINE
  5
958
330
843
100
AcDbEntity
  8
0
  6
Continuous
 62
     7
370
    15
100
AcDbLine
 10
1739.383746469669
 20
1108.29310709033
 30
0.0
 11
1739.381826503604
 21
1106.893108406855
 31
0.0
  0
LINE
  5
959
330
843
100
AcDbEntity
  8
0
  6
Continuous
 62
     7
370
    15
100
AcDbLine
 10
1739.381826503604
 20
1106.893108406855
 30
0.0
 11
1739.318850980897
 21
1106.830305377562
 31
0.0
  0
LINE
  5
95A
330
843
100
AcDbEntity
  8
0
  6
Continuous
 62
     7
370
    15
100
AcDbLine
 10
1739.320770946962
 20
1108.230304061036
 30
0.0
 11
1739.318850980897
 21
1106.830305377562
 31
0.0
  0
LINE
  5
95B
330
843
100
AcDbEntity
  8
0
  6
Continuous
 62
     7
370
    15
100
AcDbLine
 10
1755.857966977293
 20
1108.291908179411
 30
0.0
 11
1758.270680728426
 21
1108.288599370209
 31
0.0
  0
ARC
  5
95C
330
843
100
AcDbEntity
  8
0
  6
Continuous
 62
     7
370
    15
100
AcDbCircle
 10
1755.421593319374
 20
1108.829617794645
 30
0.0
 40
2.899999999999984
100
AcDbArc
 50
347.9808803345231
 51
349.2480147252266
  0
LINE
  5
95D
330
843
100
AcDbEntity
  8
0
  6
Continuous
 62
     7
370
    15
100
AcDbLine
 10
1729.171032718536
 20
1108.296415899532
 30
0.0
 11
1731.583746469669
 21
1108.29310709033
 31
0.0
  0
LINE
  5
95E
330
843
100
AcDbEntity
  8
0
  6
Continuous
 62
     7
370
    15
100
AcDbLine
 10
1731.520770946962
 20
1108.230304061036
 30
0.0
 11
1731.583746469669
 21
1108.29310709033
 31
0.0
  0
ARC
  5
95F
330
843
100
AcDbEntity
  8
0
  6
Continuous
 62
     7
370
    15
100
AcDbCircle
 10
1732.021593319373
 20
1108.829617794645
 30
0.0
 40
2.900000000000014
100
AcDbArc
 50
190.5948338650435
 51
191.8619682557529
  0
LINE
  5
960
330
843
100
AcDbEntity
  8
0
  6
Continuous
 62
     7
370
    15
100
AcDbLine
 10
1693.518850040522
 20
1106.82893397323
 30
0.0
 11
1693.520770006587
 21
1108.228932656705
 31
0.0
  0
LINE
  5
961
330
843
100
AcDbEntity
  8
0
  6
Continuous
 62
     7
370
    15
100
AcDbLine
 10
1693.456047011229
 20
1106.891909495937
 30
0.0
 11
1693.518850040522
 21
1106.82893397323
 31
0.0
  0
LINE
  5
962
330
843
100
AcDbEntity
  8
0
  6
Continuous
 62
     7
370
    15
100
AcDbLine
 10
1693.456047011229
 20
1106.891909495937
 30
0.0
 11
1693.457966977294
 21
1108.291908179411
 31
0.0
  0
LINE
  5
963
330
843
100
AcDbEntity
  8
0
  6
Continuous
 62
     7
370
    15
100
AcDbLine
 10
1760.371032718536
 20
1108.296415899532
 30
0.0
 11
1762.783746469669
 21
1108.29310709033
 31
0.0
  0
ARC
  5
964
330
843
100
AcDbEntity
  8
0
  6
Continuous
 62
     7
370
    15
100
AcDbCircle
 10
1763.221593319373
 20
1108.829617794645
 30
0.0
 40
2.90000000000004
100
AcDbArc
 50
190.5948338650435
 51
191.8619682557529
  0
LINE
  5
965
330
843
100
AcDbEntity
  8
0
  6
Continuous
 62
     7
370
    15
100
AcDbLine
 10
1708.120770946962
 20
1108.230304061036
 30
0.0
 11
1705.783520953034
 21
1108.233509378817
 31
0.0
  0
LINE
  5
966
330
843
100
AcDbEntity
  8
0
  6
Continuous
 62
     7
370
    15
100
AcDbLine
 10
1708.120770946962
 20
1108.230304061036
 30
0.0
 11
1708.118850980897
 21
1106.830305377562
 31
0.0
  0
LINE
  5
967
330
843
100
AcDbEntity
  8
0
  6
Continuous
 62
     7
370
    15
100
AcDbLine
 10
1708.118850980897
 20
1106.830305377562
 30
0.0
 11
1709.118850040522
 21
1106.82893397323
 31
0.0
  0
ARC
  5
968
330
843
100
AcDbEntity
  8
0
  6
Continuous
 62
     7
370
    15
100
AcDbCircle
 10
1708.621593319374
 20
1108.829617794645
 30
0.0
 40
2.900000000000012
100
AcDbArc
 50
191.8619682557529
 51
347.9808803345231
  0
LINE
  5
969
330
843
100
AcDbEntity
  8
0
  6
Continuous
 62
     7
370
    15
100
AcDbLine
 10
1739.318850980897
 20
1106.830305377562
 30
0.0
 11
1740.318850040522
 21
1106.82893397323
 31
0.0
  0
LINE
  5
96A
330
843
100
AcDbEntity
  8
0
  6
Continuous
 62
     7
370
    15
100
AcDbLine
 10
1742.658020000515
 20
1108.225727338923
 30
0.0
 11
1740.320770006587
 21
1108.228932656705
 31
0.0
  0
ARC
  5
96B
330
843
100
AcDbEntity
  8
0
  6
Continuous
 62
     7
370
    15
100
AcDbCircle
 10
1739.821593319373
 20
1108.829617794645
 30
0.0
 40
2.900000000000012
100
AcDbArc
 50
191.8619682557529
 51
347.9808803345231
  0
LINE
  5
96C
330
843
100
AcDbEntity
  8
0
  6
Continuous
 62
     7
370
    15
100
AcDbLine
 10
1752.571032718536
 20
1108.296415899532
 30
0.0
 11
1754.983746469669
 21
1108.29310709033
 31
0.0
  0
ARC
  5
96D
330
843
100
AcDbEntity
  8
0
  6
Continuous
 62
     7
370
    15
100
AcDbCircle
 10
1755.421593319374
 20
1108.829617794645
 30
0.0
 40
2.900000000000014
100
AcDbArc
 50
190.5948338650435
 51
191.8619682557529
  0
LINE
  5
96E
330
843
100
AcDbEntity
  8
0
  6
Continuous
 62
     7
370
    15
100
AcDbLine
 10
1713.571032718536
 20
1108.296415899532
 30
0.0
 11
1715.983746469669
 21
1108.29310709033
 31
0.0
  0
ARC
  5
96F
330
843
100
AcDbEntity
  8
0
  6
Continuous
 62
     7
370
    15
100
AcDbCircle
 10
1716.421593319374
 20
1108.829617794645
 30
0.0
 40
2.900000000000014
100
AcDbArc
 50
190.5948338650435
 51
191.8619682557529
  0
LINE
  5
970
330
843
100
AcDbEntity
  8
0
  6
Continuous
 62
     7
370
    15
100
AcDbLine
 10
1708.120770946962
 20
1108.230304061036
 30
0.0
 11
1708.183746469669
 21
1108.29310709033
 31
0.0
  0
LINE
  5
971
330
843
100
AcDbEntity
  8
0
  6
Continuous
 62
     7
370
    15
100
AcDbLine
 10
1708.183746469669
 20
1108.29310709033
 30
0.0
 11
1708.181826503604
 21
1106.893108406855
 31
0.0
  0
LINE
  5
972
330
843
100
AcDbEntity
  8
0
  6
Continuous
 62
     7
370
    15
100
AcDbLine
 10
1708.181826503604
 20
1106.893108406855
 30
0.0
 11
1708.118850980897
 21
1106.830305377562
 31
0.0
  0
LINE
  5
973
330
843
100
AcDbEntity
  8
0
  6
Continuous
 62
     7
370
    15
100
AcDbLine
 10
1692.520770946962
 20
1108.230304061036
 30
0.0
 11
1690.183520953034
 21
1108.233509378817
 31
0.0
  0
LINE
  5
974
330
843
100
AcDbEntity
  8
0
  6
Continuous
 62
     7
370
    15
100
AcDbLine
 10
1692.520770946962
 20
1108.230304061036
 30
0.0
 11
1692.518850980897
 21
1106.830305377562
 31
0.0
  0
LINE
  5
975
330
843
100
AcDbEntity
  8
0
  6
Continuous
 62
     7
370
    15
100
AcDbLine
 10
1692.518850980897
 20
1106.830305377562
 30
0.0
 11
1693.518850040522
 21
1106.82893397323
 31
0.0
  0
ARC
  5
976
330
843
100
AcDbEntity
  8
0
  6
Continuous
 62
     7
370
    15
100
AcDbCircle
 10
1693.021593319374
 20
1108.829617794645
 30
0.0
 40
2.900000000000012
100
AcDbArc
 50
191.8619682557529
 51
347.9808803345231
  0
LINE
  5
977
330
843
100
AcDbEntity
  8
0
  6
Continuous
 62
     7
370
    15
100
AcDbLine
 10
1697.971032718536
 20
1108.296415899532
 30
0.0
 11
1700.383746469669
 21
1108.29310709033
 31
0.0
  0
LINE
  5
978
330
843
100
AcDbEntity
  8
0
  6
Continuous
 62
     7
370
    15
100
AcDbLine
 10
1700.320770946962
 20
1108.230304061036
 30
0.0
 11
1700.383746469669
 21
1108.29310709033
 31
0.0
  0
ARC
  5
979
330
843
100
AcDbEntity
  8
0
  6
Continuous
 62
     7
370
    15
100
AcDbCircle
 10
1700.821593319374
 20
1108.829617794645
 30
0.0
 40
2.90000000000004
100
AcDbArc
 50
190.5948338650435
 51
191.8619682557529
  0
LINE
  5
97A
330
843
100
AcDbEntity
  8
0
  6
Continuous
 62
     7
370
    15
100
AcDbLine
 10
1700.383746469669
 20
1108.29310709033
 30
0.0
 11
1700.381826503604
 21
1106.893108406855
 31
0.0
  0
LINE
  5
97B
330
843
100
AcDbEntity
  8
0
  6
Continuous
 62
     7
370
    15
100
AcDbLine
 10
1700.381826503604
 20
1106.893108406855
 30
0.0
 11
1700.318850980897
 21
1106.830305377562
 31
0.0
  0
LINE
  5
97C
330
843
100
AcDbEntity
  8
0
  6
Continuous
 62
     7
370
    15
100
AcDbLine
 10
1740.257966977293
 20
1108.291908179411
 30
0.0
 11
1742.670680728426
 21
1108.288599370209
 31
0.0
  0
ARC
  5
97D
330
843
100
AcDbEntity
  8
0
  6
Continuous
 62
     7
370
    15
100
AcDbCircle
 10
1739.821593319373
 20
1108.829617794645
 30
0.0
 40
2.900000000000012
100
AcDbArc
 50
347.9808803345231
 51
349.2480147252266
  0
LINE
  5
97E
330
843
100
AcDbEntity
  8
0
  6
Continuous
 62
     7
370
    15
100
AcDbLine
 10
1731.583746469669
 20
1108.29310709033
 30
0.0
 11
1731.581826503604
 21
1106.893108406855
 31
0.0
  0
LINE
  5
97F
330
843
100
AcDbEntity
  8
0
  6
Continuous
 62
     7
370
    15
100
AcDbLine
 10
1731.581826503604
 20
1106.893108406855
 30
0.0
 11
1731.518850980897
 21
1106.830305377562
 31
0.0
  0
LINE
  5
980
330
843
100
AcDbEntity
  8
0
  6
Continuous
 62
     7
370
    15
100
AcDbLine
 10
1748.057966977293
 20
1108.291908179411
 30
0.0
 11
1750.470680728426
 21
1108.288599370209
 31
0.0
  0
ARC
  5
981
330
843
100
AcDbEntity
  8
0
  6
Continuous
 62
     7
370
    15
100
AcDbCircle
 10
1747.621593319374
 20
1108.829617794645
 30
0.0
 40
2.900000000000012
100
AcDbArc
 50
347.9808803345231
 51
349.2480147252266
  0
LINE
  5
982
330
843
100
AcDbEntity
  8
0
  6
Continuous
 62
     7
370
    15
100
AcDbLine
 10
1721.371032718536
 20
1108.296415899532
 30
0.0
 11
1723.783746469669
 21
1108.29310709033
 31
0.0
  0
LINE
  5
983
330
843
100
AcDbEntity
  8
0
  6
Continuous
 62
     7
370
    15
100
AcDbLine
 10
1723.720770946962
 20
1108.230304061036
 30
0.0
 11
1723.783746469669
 21
1108.29310709033
 31
0.0
  0
ARC
  5
984
330
843
100
AcDbEntity
  8
0
  6
Continuous
 62
     7
370
    15
100
AcDbCircle
 10
1724.221593319374
 20
1108.829617794645
 30
0.0
 40
2.900000000000014
100
AcDbArc
 50
190.5948338650435
 51
191.8619682557529
  0
LINE
  5
985
330
843
100
AcDbEntity
  8
0
  6
Continuous
 62
     7
370
    15
100
AcDbLine
 10
1723.783746469669
 20
1108.29310709033
 30
0.0
 11
1723.781826503604
 21
1106.893108406855
 31
0.0
  0
LINE
  5
986
330
843
100
AcDbEntity
  8
0
  6
Continuous
 62
     7
370
    15
100
AcDbLine
 10
1723.781826503604
 20
1106.893108406855
 30
0.0
 11
1723.718850980898
 21
1106.830305377562
 31
0.0
  0
LINE
  5
987
330
843
100
AcDbEntity
  8
0
  6
Continuous
 62
     7
370
    15
100
AcDbLine
 10
1705.771032718536
 20
1108.296415899532
 30
0.0
 11
1708.183746469669
 21
1108.29310709033
 31
0.0
  0
ARC
  5
988
330
843
100
AcDbEntity
  8
0
  6
Continuous
 62
     7
370
    15
100
AcDbCircle
 10
1708.621593319374
 20
1108.829617794645
 30
0.0
 40
2.899999999999986
100
AcDbArc
 50
190.5948338650435
 51
191.8619682557529
  0
LINE
  5
989
330
843
100
AcDbEntity
  8
0
  6
Continuous
 62
     7
370
    15
100
AcDbLine
 10
1744.771032718536
 20
1108.296415899532
 30
0.0
 11
1747.183746469669
 21
1108.29310709033
 31
0.0
  0
ARC
  5
98A
330
843
100
AcDbEntity
  8
0
  6
Continuous
 62
     7
370
    15
100
AcDbCircle
 10
1747.621593319374
 20
1108.829617794645
 30
0.0
 40
2.90000000000004
100
AcDbArc
 50
190.5948338650435
 51
191.8619682557529
  0
LINE
  5
98B
330
843
100
AcDbEntity
  8
0
  6
Continuous
 62
     7
370
    15
100
AcDbLine
 10
1692.520770946962
 20
1108.230304061036
 30
0.0
 11
1692.583746469669
 21
1108.29310709033
 31
0.0
  0
LINE
  5
98C
330
843
100
AcDbEntity
  8
0
  6
Continuous
 62
     7
370
    15
100
AcDbLine
 10
1692.583746469669
 20
1108.29310709033
 30
0.0
 11
1692.581826503604
 21
1106.893108406855
 31
0.0
  0
LINE
  5
98D
330
843
100
AcDbEntity
  8
0
  6
Continuous
 62
     7
370
    15
100
AcDbLine
 10
1692.581826503604
 20
1106.893108406855
 30
0.0
 11
1692.518850980897
 21
1106.830305377562
 31
0.0
  0
LINE
  5
98E
330
843
100
AcDbEntity
  8
0
  6
Continuous
 62
     7
370
    15
100
AcDbLine
 10
1690.171032718536
 20
1108.296415899532
 30
0.0
 11
1692.583746469669
 21
1108.29310709033
 31
0.0
  0
ARC
  5
98F
330
843
100
AcDbEntity
  8
0
  6
Continuous
 62
     7
370
    15
100
AcDbCircle
 10
1693.021593319374
 20
1108.829617794645
 30
0.0
 40
2.900000000000014
100
AcDbArc
 50
190.5948338650435
 51
191.8619682557529
  0
LINE
  5
990
330
843
100
AcDbEntity
  8
0
  6
Continuous
 62
     7
370
    15
100
AcDbLine
 10
1700.381826503604
 20
1106.893108406855
 30
0.0
 11
1701.256047011229
 21
1106.891909495937
 31
0.0
  0
LINE
  5
991
330
843
100
AcDbEntity
  8
0
  6
Continuous
 62
     7
370
    15
100
AcDbLine
 10
1715.981826503604
 20
1106.893108406855
 30
0.0
 11
1716.856047011228
 21
1106.891909495937
 31
0.0
  0
LINE
  5
992
330
843
100
AcDbEntity
  8
0
  6
Continuous
 62
     7
370
    15
100
AcDbLine
 10
1708.181826503604
 20
1106.893108406855
 30
0.0
 11
1709.056047011229
 21
1106.891909495937
 31
0.0
  0
LINE
  5
993
330
843
100
AcDbEntity
  8
0
  6
Continuous
 62
     7
370
    15
100
AcDbLine
 10
1739.381826503604
 20
1106.893108406855
 30
0.0
 11
1740.256047011229
 21
1106.891909495937
 31
0.0
  0
LINE
  5
994
330
843
100
AcDbEntity
  8
0
  6
Continuous
 62
     7
370
    15
100
AcDbLine
 10
1747.181826503604
 20
1106.893108406855
 30
0.0
 11
1748.056047011228
 21
1106.891909495937
 31
0.0
  0
LINE
  5
995
330
843
100
AcDbEntity
  8
0
  6
Continuous
 62
     7
370
    15
100
AcDbLine
 10
1692.581826503604
 20
1106.893108406855
 30
0.0
 11
1693.456047011229
 21
1106.891909495937
 31
0.0
  0
LINE
  5
996
330
843
100
AcDbEntity
  8
0
  6
Continuous
 62
     7
370
    15
100
AcDbLine
 10
1723.781826503604
 20
1106.893108406855
 30
0.0
 11
1724.656047011228
 21
1106.891909495937
 31
0.0
  0
LINE
  5
997
330
843
100
AcDbEntity
  8
0
  6
Continuous
 62
     7
370
    15
100
AcDbLine
 10
1762.781826503604
 20
1106.893108406855
 30
0.0
 11
1763.656047011228
 21
1106.891909495937
 31
0.0
  0
LINE
  5
998
330
843
100
AcDbEntity
  8
0
  6
Continuous
 62
     7
370
    15
100
AcDbLine
 10
1754.981826503604
 20
1106.893108406855
 30
0.0
 11
1755.856047011229
 21
1106.891909495937
 31
0.0
  0
LINE
  5
999
330
843
100
AcDbEntity
  8
0
  6
Continuous
 62
     7
370
    15
100
AcDbLine
 10
1731.581826503604
 20
1106.893108406855
 30
0.0
 11
1732.456047011229
 21
1106.891909495937
 31
0.0
  0
ARC
  5
99A
330
843
100
AcDbEntity
  8
0
  6
Continuous
 62
     7
370
    15
100
AcDbCircle
 10
1739.821593319373
 20
1108.829617794645
 30
0.0
 40
2.900000000000014
100
AcDbArc
 50
169.2480147252266
 51
190.5948338650435
  0
ARC
  5
99B
330
843
100
AcDbEntity
  8
0
  6
Continuous
 62
     7
370
    15
100
AcDbCircle
 10
1739.821593319373
 20
1108.829617794645
 30
0.0
 40
2.900000000000003
100
AcDbArc
 50
349.2480147252266
 51
10.59483386504347
  0
ARC
  5
99C
330
843
100
AcDbEntity
  8
0
  6
Continuous
 62
     7
370
    15
100
AcDbCircle
 10
1700.821593319374
 20
1108.829617794645
 30
0.0
 40
2.899999999999992
100
AcDbArc
 50
169.2480147252266
 51
190.5948338650435
  0
ARC
  5
99D
330
843
100
AcDbEntity
  8
0
  6
Continuous
 62
     7
370
    15
100
AcDbCircle
 10
1700.821593319374
 20
1108.829617794645
 30
0.0
 40
2.900000000000003
100
AcDbArc
 50
349.2480147252266
 51
10.59483386504347
  0
ARC
  5
99E
330
843
100
AcDbEntity
  8
0
  6
Continuous
 62
     7
370
    15
100
AcDbCircle
 10
1693.021593319374
 20
1108.829617794645
 30
0.0
 40
2.900000000000014
100
AcDbArc
 50
169.2480147252266
 51
190.5948338650435
  0
ARC
  5
99F
330
843
100
AcDbEntity
  8
0
  6
Continuous
 62
     7
370
    15
100
AcDbCircle
 10
1693.021593319374
 20
1108.829617794645
 30
0.0
 40
2.900000000000003
100
AcDbArc
 50
349.2480147252266
 51
10.59483386504347
  0
ARC
  5
9A0
330
843
100
AcDbEntity
  8
0
  6
Continuous
 62
     7
370
    15
100
AcDbCircle
 10
1732.021593319373
 20
1108.829617794645
 30
0.0
 40
2.900000000000014
100
AcDbArc
 50
169.2480147252266
 51
190.5948338650435
  0
ARC
  5
9A1
330
843
100
AcDbEntity
  8
0
  6
Continuous
 62
     7
370
    15
100
AcDbCircle
 10
1732.021593319373
 20
1108.829617794645
 30
0.0
 40
2.900000000000003
100
AcDbArc
 50
349.2480147252266
 51
10.59483386504347
  0
ARC
  5
9A2
330
843
100
AcDbEntity
  8
0
  6
Continuous
 62
     7
370
    15
100
AcDbCircle
 10
1724.221593319374
 20
1108.829617794645
 30
0.0
 40
2.900000000000014
100
AcDbArc
 50
169.2480147252266
 51
190.5948338650435
  0
ARC
  5
9A3
330
843
100
AcDbEntity
  8
0
  6
Continuous
 62
     7
370
    15
100
AcDbCircle
 10
1724.221593319374
 20
1108.829617794645
 30
0.0
 40
2.900000000000003
100
AcDbArc
 50
349.2480147252266
 51
10.59483386504347
  0
ARC
  5
9A4
330
843
100
AcDbEntity
  8
0
  6
Continuous
 62
     7
370
    15
100
AcDbCircle
 10
1763.221593319373
 20
1108.829617794645
 30
0.0
 40
2.899999999999986
100
AcDbArc
 50
169.2480147252266
 51
190.5948338650435
  0
ARC
  5
9A5
330
843
100
AcDbEntity
  8
0
  6
Continuous
 62
     7
370
    15
100
AcDbCircle
 10
1763.221593319373
 20
1108.829617794645
 30
0.0
 40
2.900000000000031
100
AcDbArc
 50
349.2480147252266
 51
10.59483386504347
  0
ARC
  5
9A6
330
843
100
AcDbEntity
  8
0
  6
Continuous
 62
     7
370
    15
100
AcDbCircle
 10
1755.421593319374
 20
1108.829617794645
 30
0.0
 40
2.900000000000014
100
AcDbArc
 50
169.2480147252266
 51
190.5948338650435
  0
ARC
  5
9A7
330
843
100
AcDbEntity
  8
0
  6
Continuous
 62
     7
370
    15
100
AcDbCircle
 10
1755.421593319374
 20
1108.829617794645
 30
0.0
 40
2.900000000000003
100
AcDbArc
 50
349.2480147252266
 51
10.59483386504347
  0
ARC
  5
9A8
330
843
100
AcDbEntity
  8
0
  6
Continuous
 62
     7
370
    15
100
AcDbCircle
 10
1716.421593319374
 20
1108.829617794645
 30
0.0
 40
2.899999999999992
100
AcDbArc
 50
169.2480147252266
 51
190.5948338650435
  0
ARC
  5
9A9
330
843
100
AcDbEntity
  8
0
  6
Continuous
 62
     7
370
    15
100
AcDbCircle
 10
1716.421593319374
 20
1108.829617794645
 30
0.0
 40
2.900000000000031
100
AcDbArc
 50
349.2480147252266
 51
10.59483386504347
  0
ARC
  5
9AA
330
843
100
AcDbEntity
  8
0
  6
Continuous
 62
     7
370
    15
100
AcDbCircle
 10
1708.621593319374
 20
1108.829617794645
 30
0.0
 40
2.899999999999986
100
AcDbArc
 50
169.2480147252266
 51
190.5948338650435
  0
ARC
  5
9AB
330
843
100
AcDbEntity
  8
0
  6
Continuous
 62
     7
370
    15
100
AcDbCircle
 10
1708.621593319374
 20
1108.829617794645
 30
0.0
 40
2.900000000000003
100
AcDbArc
 50
349.2480147252266
 51
10.59483386504347
  0
ARC
  5
9AC
330
843
100
AcDbEntity
  8
0
  6
Continuous
 62
     7
370
    15
100
AcDbCircle
 10
1747.621593319374
 20
1108.829617794645
 30
0.0
 40
2.899999999999992
100
AcDbArc
 50
169.2480147252266
 51
190.5948338650435
  0
ARC
  5
9AD
330
843
100
AcDbEntity
  8
0
  6
Continuous
 62
     7
370
    15
100
AcDbCircle
 10
1747.621593319374
 20
1108.829617794645
 30
0.0
 40
2.900000000000031
100
AcDbArc
 50
349.2480147252266
 51
10.59483386504347
  0
LINE
  5
9AE
330
843
100
AcDbEntity
  8
0
  6
Continuous
 62
     7
370
    15
100
AcDbLine
 10
1774.621593319374
 20
1105.579617794645
 30
0.0
 11
1774.621593319374
 21
1112.079617794645
 31
0.0
  0
LINE
  5
9AF
330
843
100
AcDbEntity
  8
0
  6
Continuous
 62
     7
370
    15
100
AcDbLine
 10
1774.621593319374
 20
1105.579617794645
 30
0.0
 11
1681.621593319374
 21
1105.579617794645
 31
0.0
  0
LINE
  5
9B0
330
843
100
AcDbEntity
  8
0
  6
Continuous
 62
     7
370
    15
100
AcDbLine
 10
1681.621593319374
 20
1105.579617794645
 30
0.0
 11
1681.621593319374
 21
1112.079617794645
 31
0.0
  0
LINE
  5
9B1
330
843
100
AcDbEntity
  8
0
  6
Continuous
 62
     7
370
    15
100
AcDbLine
 10
1774.621593319374
 20
1112.079617794645
 30
0.0
 11
1681.621593319374
 21
1112.079617794645
 31
0.0
  0
CIRCLE
  5
9B2
330
843
100
AcDbEntity
  8
0
  6
Continuous
 62
     7
370
    15
100
AcDbCircle
 10
1685.221593319374
 20
1108.829617794645
 30
0.0
 40
2.099999999999994
  0
CIRCLE
  5
9B3
330
843
100
AcDbEntity
  8
0
  6
Continuous
 62
     7
370
    15
100
AcDbCircle
 10
1771.021593319374
 20
1108.829617794645
 30
0.0
 40
2.099999999999965
  0
ENDBLK
  5
845
330
843
100
AcDbEntity
  8
0
100
AcDbBlockEnd
  0
BLOCK
  5
9B6
330
9B5
100
AcDbEntity
  8
0
100
AcDbBlockBegin
  2
3
 70
     0
 10
0.0
 20
0.0
 30
0.0
  3
3
  1

  0
LINE
  5
9B8
330
9B5
100
AcDbEntity
  8
0
  6
Continuous
 62
     7
370
    15
100
AcDbLine
 10
1649.738204615055
 20
1150.213272279695
 30
0.0
 11
1649.738204615055
 21
1147.213272279695
 31
0.0
  0
LINE
  5
9B9
330
9B5
100
AcDbEntity
  8
0
  6
Continuous
 62
     7
370
    15
100
AcDbLine
 10
1655.538204615055
 20
1147.213272279695
 30
0.0
 11
1655.538204615055
 21
1150.213272279695
 31
0.0
  0
LINE
  5
9BA
330
9B5
100
AcDbEntity
  8
0
  6
Continuous
 62
     7
370
    15
100
AcDbLine
 10
1649.388204615055
 20
1135.213272279695
 30
0.0
 11
1649.388204615055
 21
1147.213272279695
 31
0.0
  0
LINE
  5
9BB
330
9B5
100
AcDbEntity
  8
0
  6
Continuous
 62
     7
370
    15
100
AcDbLine
 10
1655.888204615055
 20
1135.213272279695
 30
0.0
 11
1655.888204615055
 21
1147.213272279695
 31
0.0
  0
LINE
  5
9BC
330
9B5
100
AcDbEntity
  8
0
  6
Continuous
 62
     7
370
    15
100
AcDbLine
 10
1649.388204615055
 20
1135.213272279695
 30
0.0
 11
1655.888204615055
 21
1135.213272279695
 31
0.0
  0
LINE
  5
9BD
330
9B5
100
AcDbEntity
  8
0
  6
Continuous
 62
     7
370
    15
100
AcDbLine
 10
1649.388204615055
 20
1147.213272279695
 30
0.0
 11
1655.888204615055
 21
1147.213272279695
 31
0.0
  0
ELLIPSE
  5
9BE
330
9B5
100
AcDbEntity
  8
0
  6
Continuous
 62
     7
370
    15
100
AcDbEllipse
 10
1652.638204615055
 20
1138.764590267058
 30
0.0
 11
-2.899997287998417
 21
55.33529639723034
 31
0.0
210
0.0
220
0.0
230
1.0
 40
0.0000716753940376
 41
4.898671363444998
 42
4.920787030628305
  0
LINE
  5
9BF
330
9B5
100
AcDbEntity
  8
0
  6
Continuous
 62
     7
370
    15
100
AcDbLine
 10
1652.034314159333
 20
1150.213272279695
 30
0.0
 11
1649.738204615055
 21
1150.213272279695
 31
0.0
  0
ELLIPSE
  5
9C0
330
9B5
100
AcDbEntity
  8
0
  6
Continuous
 62
     7
370
    15
100
AcDbEllipse
 10
1652.638204615055
 20
1138.764590267058
 30
0.0
 11
-2.899997287998417
 21
55.33529639723034
 31
0.0
210
0.0
220
0.0
230
1.0
 40
0.0000716753940376
 41
1.362390763866873
 42
1.3845064310493
  0
LINE
  5
9C1
330
9B5
100
AcDbEntity
  8
0
  6
Continuous
 62
     7
370
    15
100
AcDbLine
 10
1653.171406510169
 20
1149.013272279695
 30
0.0
 11
1652.097186190619
 21
1149.013272279695
 31
0.0
  0
ELLIPSE
  5
9C2
330
9B5
100
AcDbEntity
  8
0
  6
Continuous
 62
     7
370
    15
100
AcDbEllipse
 10
1652.638204615055
 20
1138.764590267058
 30
0.0
 11
2.899997287849743
 21
55.33529639439286
 31
0.0
210
0.0
220
0.0
230
1.0
 40
0.0000716753940403
 41
1.362398276549687
 42
1.38451394373226
  0
LINE
  5
9C3
330
9B5
100
AcDbEntity
  8
0
  6
Continuous
 62
     7
370
    15
100
AcDbLine
 10
1655.538204615055
 20
1150.213272279695
 30
0.0
 11
1653.234313030883
 21
1150.213272279695
 31
0.0
  0
LINE
  5
9C4
330
9B5
100
AcDbEntity
  8
0
  6
Continuous
 62
     7
370
    15
100
AcDbLine
 10
1652.034314159333
 20
1150.213272279695
 30
0.0
 11
1652.037519477114
 21
1150.213272279695
 31
0.0
  0
LINE
  5
9C5
330
9B5
100
AcDbEntity
  8
0
  6
Continuous
 62
     7
370
    15
100
AcDbLine
 10
1652.100494999821
 20
1149.013272279695
 30
0.0
 11
1652.037519477114
 21
1150.213272279695
 31
0.0
  0
LINE
  5
9C6
330
9B5
100
AcDbEntity
  8
0
  6
Continuous
 62
     7
370
    15
100
AcDbLine
 10
1652.038890881446
 20
1150.213272279695
 30
0.0
 11
1652.10169391074
 21
1149.013272279695
 31
0.0
  0
LINE
  5
9C7
330
9B5
100
AcDbEntity
  8
0
  6
Continuous
 62
     7
370
    15
100
AcDbLine
 10
1652.038890881446
 20
1150.213272279695
 30
0.0
 11
1652.042096199227
 21
1150.213272279695
 31
0.0
  0
ENDBLK
  5
9B7
330
9B5
100
AcDbEntity
  8
0
100
AcDbBlockEnd
  0
BLOCK
  5
9CA
330
9C9
100
AcDbEntity
  8
0
100
AcDbBlockBegin
  2
4
 70
     0
 10
0.0
 20
0.0
 30
0.0
  3
4
  1

  0
LINE
  5
9CC
330
9C9
100
AcDbEntity
  8
0
  6
Continuous
 62
     7
370
    15
100
AcDbLine
 10
1858.539032959064
 20
1115.873252500546
 30
0.0
 11
1858.539032959064
 21
1113.423630064889
 31
0.0
  0
LINE
  5
9CD
330
9C9
100
AcDbEntity
  8
0
  6
Continuous
 62
     7
370
    15
100
AcDbLine
 10
1864.339032959065
 20
1113.423630064889
 30
0.0
 11
1864.339032959065
 21
1115.873252500546
 31
0.0
  0
LINE
  5
9CE
330
9C9
100
AcDbEntity
  8
0
  6
Continuous
 62
     7
370
    15
100
AcDbLine
 10
1853.023600065809
 20
1119.057244136655
 30
0.0
 11
1853.023600065809
 21
1116.607621700997
 31
0.0
  0
LINE
  5
9CF
330
9C9
100
AcDbEntity
  8
0
  6
Continuous
 62
     7
370
    15
100
AcDbLine
 10
1858.823600065809
 20
1116.607621700997
 30
0.0
 11
1858.823600065809
 21
1119.057244136655
 31
0.0
  0
LINE
  5
9D0
330
9C9
100
AcDbEntity
  8
0
  6
Continuous
 62
     7
370
    15
100
AcDbLine
 10
1847.508167172554
 20
1122.241235772763
 30
0.0
 11
1847.508167172554
 21
1119.791613337106
 31
0.0
  0
LINE
  5
9D1
330
9C9
100
AcDbEntity
  8
0
  6
Continuous
 62
     7
370
    15
100
AcDbLine
 10
1853.308167172554
 20
1119.791613337106
 30
0.0
 11
1853.308167172554
 21
1122.241235772763
 31
0.0
  0
LINE
  5
9D2
330
9C9
100
AcDbEntity
  8
0
  6
Continuous
 62
     7
370
    15
100
AcDbLine
 10
1841.992734279299
 20
1125.425227408872
 30
0.0
 11
1841.992734279299
 21
1122.975604973214
 31
0.0
  0
LINE
  5
9D3
330
9C9
100
AcDbEntity
  8
0
  6
Continuous
 62
     7
370
    15
100
AcDbLine
 10
1847.792734279299
 20
1122.975604973214
 30
0.0
 11
1847.792734279299
 21
1125.425227408872
 31
0.0
  0
LINE
  5
9D4
330
9C9
100
AcDbEntity
  8
0
  6
Continuous
 62
     7
370
    15
100
AcDbLine
 10
1836.477301386045
 20
1128.60921904498
 30
0.0
 11
1836.477301386045
 21
1126.159596609323
 31
0.0
  0
LINE
  5
9D5
330
9C9
100
AcDbEntity
  8
0
  6
Continuous
 62
     7
370
    15
100
AcDbLine
 10
1842.277301386044
 20
1126.159596609323
 30
0.0
 11
1842.277301386044
 21
1128.60921904498
 31
0.0
  0
LINE
  5
9D6
330
9C9
100
AcDbEntity
  8
0
  6
Continuous
 62
     7
370
    15
100
AcDbLine
 10
1830.961868492789
 20
1131.793210681089
 30
0.0
 11
1830.961868492789
 21
1129.343588245431
 31
0.0
  0
LINE
  5
9D7
330
9C9
100
AcDbEntity
  8
0
  6
Continuous
 62
     7
370
    15
100
AcDbLine
 10
1836.761868492789
 20
1129.343588245431
 30
0.0
 11
1836.761868492789
 21
1131.793210681089
 31
0.0
  0
LINE
  5
9D8
330
9C9
100
AcDbEntity
  8
0
  6
Continuous
 62
     7
370
    15
100
AcDbLine
 10
1825.446435599534
 20
1134.977202317198
 30
0.0
 11
1825.446435599534
 21
1132.52757988154
 31
0.0
  0
LINE
  5
9D9
330
9C9
100
AcDbEntity
  8
0
  6
Continuous
 62
     7
370
    15
100
AcDbLine
 10
1831.246435599534
 20
1132.52757988154
 30
0.0
 11
1831.246435599534
 21
1134.977202317198
 31
0.0
  0
LINE
  5
9DA
330
9C9
100
AcDbEntity
  8
0
  6
Continuous
 62
     7
370
    15
100
AcDbLine
 10
1819.931002706279
 20
1138.161193953306
 30
0.0
 11
1819.931002706279
 21
1135.711571517649
 31
0.0
  0
LINE
  5
9DB
330
9C9
100
AcDbEntity
  8
0
  6
Continuous
 62
     7
370
    15
100
AcDbLine
 10
1825.731002706279
 20
1135.711571517649
 30
0.0
 11
1825.731002706279
 21
1138.161193953306
 31
0.0
  0
LINE
  5
9DC
330
9C9
100
AcDbEntity
  8
0
  6
Continuous
 62
     7
370
    15
100
AcDbLine
 10
1814.415569813024
 20
1141.345185589415
 30
0.0
 11
1814.415569813024
 21
1138.895563153757
 31
0.0
  0
LINE
  5
9DD
330
9C9
100
AcDbEntity
  8
0
  6
Continuous
 62
     7
370
    15
100
AcDbLine
 10
1820.215569813024
 20
1138.895563153757
 30
0.0
 11
1820.215569813024
 21
1141.345185589415
 31
0.0
  0
LINE
  5
9DE
330
9C9
100
AcDbEntity
  8
0
  6
Continuous
 62
     7
370
    15
100
AcDbLine
 10
1808.900136919769
 20
1144.529177225523
 30
0.0
 11
1808.900136919769
 21
1142.079554789866
 31
0.0
  0
LINE
  5
9DF
330
9C9
100
AcDbEntity
  8
0
  6
Continuous
 62
     7
370
    15
100
AcDbLine
 10
1814.700136919769
 20
1142.079554789866
 30
0.0
 11
1814.700136919769
 21
1144.529177225523
 31
0.0
  0
LWPOLYLINE
  5
9E0
330
9C9
100
AcDbEntity
  8
0
  6
Continuous
 62
     7
370
    15
100
AcDbPolyline
 90
       20
 70
   128
 43
0.0
 10
1808.900136919769
 20
1142.079554789866
 10
1808.902164875883
 20
1142.016956906578
 10
1808.950694147392
 20
1141.768313779453
 10
1809.062875261875
 20
1141.526623262191
 10
1809.236202278606
 20
1141.297284321565
 10
1809.466803358446
 20
1141.085420010538
 10
1809.749527254328
 20
1140.895763027723
 10
1810.078058381606
 20
1140.732549996717
 10
1810.445057897777
 20
1140.599426826932
 10
1810.842327640099
 20
1140.499367270001
 10
1811.260993258997
 20
1140.434606491082
 10
1811.691702456367
 20
1140.406591138963
 10
1812.124833900469
 20
1140.415947030316
 10
1812.550712150566
 20
1140.462465169988
 10
1812.959823790296
 20
1140.545106419608
 10
1813.343029941664
 20
1140.66202471022
 10
1813.691770412476
 20
1140.810608280413
 10
1813.998254916891
 20
1140.987538018757
 10
1814.255637097531
 20
1141.188861607264
 10
1814.415634954045
 20
1141.356406578815
  0
LWPOLYLINE
  5
9E1
330
9C9
100
AcDbEntity
  8
0
  6
Continuous
 62
     7
370
    15
100
AcDbPolyline
 90
       20
 70
   128
 43
0.0
 10
1814.415569813024
 20
1138.895563153757
 10
1814.417597769138
 20
1138.832965270469
 10
1814.466127040647
 20
1138.584322143344
 10
1814.57830815513
 20
1138.342631626082
 10
1814.751635171861
 20
1138.113292685456
 10
1814.982236251701
 20
1137.901428374429
 10
1815.264960147583
 20
1137.711771391614
 10
1815.593491274861
 20
1137.548558360609
 10
1815.960490791032
 20
1137.415435190823
 10
1816.357760533354
 20
1137.315375633892
 10
1816.776426152252
 20
1137.250614854973
 10
1817.207135349623
 20
1137.222599502854
 10
1817.640266793724
 20
1137.231955394207
 10
1818.066145043821
 20
1137.278473533879
 10
1818.475256683551
 20
1137.361114783499
 10
1818.858462834919
 20
1137.478033074111
 10
1819.207203305731
 20
1137.626616644305
 10
1819.513687810146
 20
1137.803546382649
 10
1819.771069990786
 20
1138.004869971155
 10
1819.9310678473
 20
1138.172414942706
  0
LWPOLYLINE
  5
9E2
330
9C9
100
AcDbEntity
  8
0
  6
Continuous
 62
     7
370
    15
100
AcDbPolyline
 90
       20
 70
   128
 43
0.0
 10
1819.931002706279
 20
1135.711571517649
 10
1819.933030662393
 20
1135.64897363436
 10
1819.981559933902
 20
1135.400330507236
 10
1820.093741048385
 20
1135.158639989974
 10
1820.267068065116
 20
1134.929301049348
 10
1820.497669144956
 20
1134.717436738321
 10
1820.780393040838
 20
1134.527779755506
 10
1821.108924168116
 20
1134.3645667245
 10
1821.475923684287
 20
1134.231443554715
 10
1821.873193426609
 20
1134.131383997783
 10
1822.291859045506
 20
1134.066623218865
 10
1822.722568242878
 20
1134.038607866746
 10
1823.155699686979
 20
1134.047963758099
 10
1823.581577937076
 20
1134.094481897771
 10
1823.990689576806
 20
1134.177123147391
 10
1824.373895728174
 20
1134.294041438003
 10
1824.722636198986
 20
1134.442625008196
 10
1825.029120703401
 20
1134.61955474654
 10
1825.286502884041
 20
1134.820878335046
 10
1825.446500740555
 20
1134.988423306598
  0
LWPOLYLINE
  5
9E3
330
9C9
100
AcDbEntity
  8
0
  6
Continuous
 62
     7
370
    15
100
AcDbPolyline
 90
       20
 70
   128
 43
0.0
 10
1825.446435599534
 20
1132.52757988154
 10
1825.448463555648
 20
1132.464981998252
 10
1825.496992827158
 20
1132.216338871127
 10
1825.60917394164
 20
1131.974648353865
 10
1825.782500958371
 20
1131.745309413239
 10
1826.013102038211
 20
1131.533445102212
 10
1826.295825934093
 20
1131.343788119397
 10
1826.624357061371
 20
1131.180575088391
 10
1826.991356577542
 20
1131.047451918606
 10
1827.388626319864
 20
1130.947392361675
 10
1827.807291938762
 20
1130.882631582756
 10
1828.238001136133
 20
1130.854616230637
 10
1828.671132580234
 20
1130.86397212199
 10
1829.097010830331
 20
1130.910490261662
 10
1829.506122470062
 20
1130.993131511282
 10
1829.889328621429
 20
1131.110049801894
 10
1830.238069092241
 20
1131.258633372087
 10
1830.544553596656
 20
1131.435563110431
 10
1830.801935777296
 20
1131.636886698938
 10
1830.96193363381
 20
1131.804431670489
  0
LWPOLYLINE
  5
9E4
330
9C9
100
AcDbEntity
  8
0
  6
Continuous
 62
     7
370
    15
100
AcDbPolyline
 90
       20
 70
   128
 43
0.0
 10
1830.961868492789
 20
1129.343588245431
 10
1830.963896448903
 20
1129.280990362143
 10
1831.012425720413
 20
1129.032347235019
 10
1831.124606834895
 20
1128.790656717757
 10
1831.297933851626
 20
1128.561317777131
 10
1831.528534931466
 20
1128.349453466104
 10
1831.811258827348
 20
1128.159796483289
 10
1832.139789954626
 20
1127.996583452283
 10
1832.506789470797
 20
1127.863460282497
 10
1832.904059213119
 20
1127.763400725566
 10
1833.322724832017
 20
1127.698639946648
 10
1833.753434029388
 20
1127.670624594529
 10
1834.186565473489
 20
1127.679980485881
 10
1834.612443723587
 20
1127.726498625554
 10
1835.021555363316
 20
1127.809139875173
 10
1835.404761514683
 20
1127.926058165786
 10
1835.753501985496
 20
1128.074641735979
 10
1836.059986489911
 20
1128.251571474323
 10
1836.317368670551
 20
1128.452895062829
 10
1836.477366527065
 20
1128.620440034381
  0
LWPOLYLINE
  5
9E5
330
9C9
100
AcDbEntity
  8
0
  6
Continuous
 62
     7
370
    15
100
AcDbPolyline
 90
       20
 70
   128
 43
0.0
 10
1836.477301386045
 20
1126.159596609323
 10
1836.479329342158
 20
1126.096998726035
 10
1836.527858613668
 20
1125.84835559891
 10
1836.64003972815
 20
1125.606665081648
 10
1836.813366744881
 20
1125.377326141022
 10
1837.043967824721
 20
1125.165461829995
 10
1837.326691720603
 20
1124.97580484718
 10
1837.655222847881
 20
1124.812591816174
 10
1838.022222364052
 20
1124.679468646389
 10
1838.419492106374
 20
1124.579409089458
 10
1838.838157725272
 20
1124.514648310539
 10
1839.268866922643
 20
1124.48663295842
 10
1839.701998366744
 20
1124.495988849773
 10
1840.127876616842
 20
1124.542506989445
 10
1840.536988256572
 20
1124.625148239065
 10
1840.920194407939
 20
1124.742066529677
 10
1841.268934878751
 20
1124.89065009987
 10
1841.575419383166
 20
1125.067579838214
 10
1841.832801563806
 20
1125.268903426721
 10
1841.99279942032
 20
1125.436448398271
  0
LWPOLYLINE
  5
9E6
330
9C9
100
AcDbEntity
  8
0
  6
Continuous
 62
     7
370
    15
100
AcDbPolyline
 90
       20
 70
   128
 43
0.0
 10
1841.992734279299
 20
1122.975604973214
 10
1841.994762235413
 20
1122.913007089926
 10
1842.043291506923
 20
1122.664363962802
 10
1842.155472621405
 20
1122.42267344554
 10
1842.328799638136
 20
1122.193334504913
 10
1842.559400717976
 20
1121.981470193887
 10
1842.842124613858
 20
1121.791813211072
 10
1843.170655741136
 20
1121.628600180066
 10
1843.537655257307
 20
1121.49547701028
 10
1843.934924999629
 20
1121.395417453349
 10
1844.353590618527
 20
1121.33065667443
 10
1844.784299815898
 20
1121.302641322311
 10
1845.217431259999
 20
1121.311997213664
 10
1845.643309510097
 20
1121.358515353336
 10
1846.052421149827
 20
1121.441156602956
 10
1846.435627301194
 20
1121.558074893568
 10
1846.784367772006
 20
1121.706658463762
 10
1847.090852276421
 20
1121.883588202105
 10
1847.348234457061
 20
1122.084911790612
 10
1847.508232313575
 20
1122.252456762164
  0
LWPOLYLINE
  5
9E7
330
9C9
100
AcDbEntity
  8
0
  6
Continuous
 62
     7
370
    15
100
AcDbPolyline
 90
       20
 70
   128
 43
0.0
 10
1847.508167172554
 20
1119.791613337106
 10
1847.510195128668
 20
1119.729015453818
 10
1847.558724400178
 20
1119.480372326693
 10
1847.67090551466
 20
1119.238681809431
 10
1847.844232531391
 20
1119.009342868805
 10
1848.074833611231
 20
1118.797478557778
 10
1848.357557507113
 20
1118.607821574963
 10
1848.686088634391
 20
1118.444608543957
 10
1849.053088150563
 20
1118.311485374172
 10
1849.450357892884
 20
1118.211425817241
 10
1849.869023511782
 20
1118.146665038322
 10
1850.299732709153
 20
1118.118649686203
 10
1850.732864153254
 20
1118.128005577556
 10
1851.158742403352
 20
1118.174523717228
 10
1851.567854043082
 20
1118.257164966848
 10
1851.951060194449
 20
1118.37408325746
 10
1852.299800665261
 20
1118.522666827653
 10
1852.606285169676
 20
1118.699596565997
 10
1852.863667350316
 20
1118.900920154504
 10
1853.023665206831
 20
1119.068465126055
  0
LWPOLYLINE
  5
9E8
330
9C9
100
AcDbEntity
  8
0
  6
Continuous
 62
     7
370
    15
100
AcDbPolyline
 90
       20
 70
   128
 43
0.0
 10
1853.023600065809
 20
1116.607621700997
 10
1853.025628021923
 20
1116.545023817709
 10
1853.074157293433
 20
1116.296380690585
 10
1853.186338407915
 20
1116.054690173322
 10
1853.359665424646
 20
1115.825351232696
 10
1853.590266504486
 20
1115.613486921669
 10
1853.872990400368
 20
1115.423829938854
 10
1854.201521527646
 20
1115.260616907849
 10
1854.568521043818
 20
1115.127493738063
 10
1854.96579078614
 20
1115.027434181132
 10
1855.384456405037
 20
1114.962673402213
 10
1855.815165602408
 20
1114.934658050094
 10
1856.248297046509
 20
1114.944013941447
 10
1856.674175296607
 20
1114.990532081119
 10
1857.083286936337
 20
1115.073173330739
 10
1857.466493087704
 20
1115.190091621351
 10
1857.815233558516
 20
1115.338675191545
 10
1858.121718062932
 20
1115.515604929888
 10
1858.379100243572
 20
1115.716928518395
 10
1858.539098100088
 20
1115.88447348995
  0
LWPOLYLINE
  5
9E9
330
9C9
100
AcDbEntity
  8
0
  6
Continuous
 62
     7
370
    15
100
AcDbPolyline
 90
       23
 70
   128
 43
0.0
 10
1858.539032959064
 20
1113.423630064889
 10
1858.541060915178
 20
1113.3610321816
 10
1858.589590186688
 20
1113.112389054476
 10
1858.70177130117
 20
1112.870698537214
 10
1858.875098317901
 20
1112.641359596588
 10
1859.105699397741
 20
1112.429495285561
 10
1859.388423293624
 20
1112.239838302746
 10
1859.716954420901
 20
1112.07662527174
 10
1860.083953937072
 20
1111.943502101955
 10
1860.481223679395
 20
1111.843442545024
 10
1860.899889298292
 20
1111.778681766105
 10
1861.330598495663
 20
1111.750666413986
 10
1861.763729939764
 20
1111.760022305338
 10
1862.189608189862
 20
1111.806540445011
 10
1862.598719829592
 20
1111.889181694631
 10
1862.981925980959
 20
1112.006099985243
 10
1863.330666451771
 20
1112.154683555436
 10
1863.637150956186
 20
1112.33161329378
 10
1863.894533136827
 20
1112.532936882287
 10
1864.097063501088
 20
1112.754157084666
 10
1864.240217855303
 20
1112.990332207154
 10
1864.320798367755
 20
1113.23618648778
 10
1864.339032959065
 20
1113.423630064889
  0
LINE
  5
9EA
330
9C9
100
AcDbEntity
  8
0
  6
Continuous
 62
     7
370
    15
100
AcDbLine
 10
1867.201953225735
 20
1107.443440645788
 30
0.0
 11
1871.798147303447
 21
1110.096767009211
 31
0.0
  0
LINE
  5
9EB
330
9C9
100
AcDbEntity
  8
0
  6
Continuous
 62
     7
370
    15
100
AcDbLine
 10
1867.201953225735
 20
1107.443440645788
 30
0.0
 11
1801.441022575386
 21
1145.406417845543
 31
0.0
  0
LINE
  5
9EC
330
9C9
100
AcDbEntity
  8
0
  6
Continuous
 62
     7
370
    15
100
AcDbLine
 10
1801.441022575386
 20
1145.406417845543
 30
0.0
 11
1806.037216653099
 21
1148.059744208967
 31
0.0
  0
LINE
  5
9ED
330
9C9
100
AcDbEntity
  8
0
  6
Continuous
 62
     7
370
    15
100
AcDbLine
 10
1871.798147303447
 20
1110.096767009211
 30
0.0
 11
1864.339032959065
 21
1114.402822063264
 31
0.0
  0
LINE
  5
9EE
330
9C9
100
AcDbEntity
  8
0
  6
Continuous
 62
     7
370
    15
100
AcDbLine
 10
1859.845303121749
 20
1116.996997079779
 30
0.0
 11
1858.823600065809
 21
1117.586813699373
 31
0.0
  0
LINE
  5
9EF
330
9C9
100
AcDbEntity
  8
0
  6
Continuous
 62
     7
370
    15
100
AcDbLine
 10
1854.329870228495
 20
1120.180988715887
 30
0.0
 11
1853.308167172554
 21
1120.770805335482
 31
0.0
  0
LINE
  5
9F0
330
9C9
100
AcDbEntity
  8
0
  6
Continuous
 62
     7
370
    15
100
AcDbLine
 10
1848.814437335239
 20
1123.364980351996
 30
0.0
 11
1847.792734279299
 21
1123.95479697159
 31
0.0
  0
LINE
  5
9F1
330
9C9
100
AcDbEntity
  8
0
  6
Continuous
 62
     7
370
    15
100
AcDbLine
 10
1843.299004441984
 20
1126.548971988104
 30
0.0
 11
1842.277301386044
 21
1127.138788607699
 31
0.0
  0
LINE
  5
9F2
330
9C9
100
AcDbEntity
  8
0
  6
Continuous
 62
     7
370
    15
100
AcDbLine
 10
1837.783571548729
 20
1129.732963624213
 30
0.0
 11
1836.761868492789
 21
1130.322780243807
 31
0.0
  0
LINE
  5
9F3
330
9C9
100
AcDbEntity
  8
0
  6
Continuous
 62
     7
370
    15
100
AcDbLine
 10
1832.268138655474
 20
1132.916955260321
 30
0.0
 11
1831.246435599534
 21
1133.506771879916
 31
0.0
  0
LINE
  5
9F4
330
9C9
100
AcDbEntity
  8
0
  6
Continuous
 62
     7
370
    15
100
AcDbLine
 10
1826.752705762219
 20
1136.10094689643
 30
0.0
 11
1825.731002706279
 21
1136.690763516024
 31
0.0
  0
LINE
  5
9F5
330
9C9
100
AcDbEntity
  8
0
  6
Continuous
 62
     7
370
    15
100
AcDbLine
 10
1821.237272868964
 20
1139.284938532538
 30
0.0
 11
1820.215569813024
 21
1139.874755152133
 31
0.0
  0
LINE
  5
9F6
330
9C9
100
AcDbEntity
  8
0
  6
Continuous
 62
     7
370
    15
100
AcDbLine
 10
1815.721839975709
 20
1142.468930168647
 30
0.0
 11
1814.700136919769
 21
1143.058746788241
 31
0.0
  0
LINE
  5
9F7
330
9C9
100
AcDbEntity
  8
0
  6
Continuous
 62
     7
370
    15
100
AcDbLine
 10
1810.206407082454
 20
1145.652921804756
 30
0.0
 11
1806.037216653099
 21
1148.059744208967
 31
0.0
  0
LWPOLYLINE
  5
9F8
330
9C9
100
AcDbEntity
  8
0
  6
Continuous
 62
     7
370
    15
100
AcDbPolyline
 90
       36
 70
   128
 43
0.0
 10
1804.799779786022
 20
1144.406317908561
 10
1805.08878659086
 20
1144.267029861298
 10
1805.416231166084
 20
1144.159770676361
 10
1805.771589173625
 20
1144.087987752206
 10
1806.143439114729
 20
1144.053988251079
 10
1806.519829426331
 20
1144.058864944921
 10
1806.888662614121
 20
1144.102461092779
 10
1807.238084075967
 20
1144.18337547859
 10
1807.55686311858
 20
1144.299007447418
 10
1807.834753921238
 20
1144.445640492642
 10
1808.062824844893
 20
1144.618561707538
 10
1808.233745502404
 20
1144.81221326198
 10
1808.342022363203
 20
1145.020371035672
 10
1808.384175319893
 20
1145.236344666493
 10
1808.358849541764
 20
1145.453192584245
 10
1808.266859020162
 20
1145.663945118429
 10
1808.111160406141
 20
1145.861828509188
 10
1807.896757981266
 20
1146.040482621525
 10
1807.630542815882
 20
1146.194165365271
 10
1807.321071284449
 20
1146.317937250593
 10
1806.97829005662
 20
1146.407820147256
 10
1806.613216403098
 20
1146.460925145005
 10
1806.237584091492
 20
1146.475545405518
 10
1805.863466253369
 20
1146.451211021593
 10
1805.50288734387
 20
1146.388704120351
 10
1805.167436665832
 20
1146.290033725028
 10
1804.867895880057
 20
1146.158371183318
 10
1804.613892473862
 20
1145.997948237642
 10
1804.413590325718
 20
1145.813921013471
 10
1804.273427311476
 20
1145.612204297209
 10
1804.197908385738
 20
1145.399281430088
 10
1804.189460788916
 20
1145.181995928252
 10
1804.248356033723
 20
1144.967331526513
 10
1804.372701178531
 20
1144.762187715369
 10
1804.558499668073
 20
1144.573157985703
 10
1804.799779786022
 20
1144.406317908561
  0
LWPOLYLINE
  5
9F9
330
9C9
100
AcDbEntity
  8
0
  6
Continuous
 62
     7
370
    15
100
AcDbPolyline
 90
       36
 70
   128
 43
0.0
 10
1868.439390092811
 20
1111.096866946194
 10
1868.150383287973
 20
1111.236154993457
 10
1867.822938712749
 20
1111.343414178393
 10
1867.467580705209
 20
1111.415197102548
 10
1867.095730764105
 20
1111.449196603675
 10
1866.719340452503
 20
1111.444319909834
 10
1866.350507264712
 20
1111.400723761976
 10
1866.001085802867
 20
1111.319809376164
 10
1865.682306760254
 20
1111.204177407337
 10
1865.404415957596
 20
1111.057544362113
 10
1865.17634503394
 20
1110.884623147216
 10
1865.00542437643
 20
1110.690971592774
 10
1864.897147515631
 20
1110.482813819083
 10
1864.85499455894
 20
1110.266840188262
 10
1864.88032033707
 20
1110.04999227051
 10
1864.972310858672
 20
1109.839239736326
 10
1865.128009472693
 20
1109.641356345567
 10
1865.342411897568
 20
1109.462702233229
 10
1865.608627062951
 20
1109.309019489483
 10
1865.918098594385
 20
1109.185247604161
 10
1866.260879822213
 20
1109.095364707498
 10
1866.625953475735
 20
1109.042259709749
 10
1867.001585787341
 20
1109.027639449236
 10
1867.375703625464
 20
1109.051973833161
 10
1867.736282534963
 20
1109.114480734404
 10
1868.071733213002
 20
1109.213151129726
 10
1868.371273998777
 20
1109.344813671437
 10
1868.625277404971
 20
1109.505236617112
 10
1868.825579553115
 20
1109.689263841283
 10
1868.965742567358
 20
1109.890980557546
 10
1869.041261493095
 20
1110.103903424667
 10
1869.049709089917
 20
1110.321188926502
 10
1868.990813845111
 20
1110.535853328242
 10
1868.866468700303
 20
1110.740997139386
 10
1868.68067021076
 20
1110.930026869052
 10
1868.439390092811
 20
1111.096866946194
  0
LINE
  5
9FA
330
9C9
100
AcDbEntity
  8
0
  6
Continuous
 62
     7
370
    15
100
AcDbLine
 10
1867.201953225735
 20
1097.644950903158
 30
0.0
 11
1867.201953225735
 21
1107.443440645788
 31
0.0
  0
LINE
  5
9FB
330
9C9
100
AcDbEntity
  8
0
  6
Continuous
 62
     7
370
    15
100
AcDbLine
 10
1801.441022575386
 20
1135.607928102914
 30
0.0
 11
1867.201953225735
 21
1097.644950903158
 31
0.0
  0
LINE
  5
9FC
330
9C9
100
AcDbEntity
  8
0
  6
Continuous
 62
     7
370
    15
100
AcDbLine
 10
1801.441022575386
 20
1145.406417845543
 30
0.0
 11
1801.441022575386
 21
1135.607928102914
 31
0.0
  0
LWPOLYLINE
  5
9FD
330
9C9
100
AcDbEntity
  8
0
  6
Continuous
 62
     7
370
    15
100
AcDbPolyline
 90
       43
 70
   128
 43
0.0
 10
1811.623360224472
 20
1134.629034569105
 10
1811.599666828923
 20
1135.0078097543
 10
1811.529115913579
 20
1135.405479539981
 10
1811.413283469308
 20
1135.813160640266
 10
1811.254757001507
 20
1136.221746133047
 10
1811.05707772951
 20
1136.622108893583
 10
1810.824661481598
 20
1137.005305479382
 10
1810.562700052692
 20
1137.362775911932
 10
1810.277045228238
 20
1137.686534892471
 10
1809.974078064982
 20
1137.96935018037
 10
1809.660566348714
 20
1138.204904149435
 10
1809.343513413112
 20
1138.387934913239
 10
1809.030001696843
 20
1138.514353866967
 10
1808.727034533587
 20
1138.581337020094
 10
1808.441379709133
 20
1138.587388079666
 10
1808.179418280228
 20
1138.532371875011
 10
1807.947002032316
 20
1138.417517377229
 10
1807.749322760318
 20
1138.245390246009
 10
1807.590796292517
 20
1138.019835517031
 10
1807.474963848246
 20
1137.745891710224
 10
1807.404412932903
 20
1137.429678277552
 10
1807.380719537353
 20
1137.078258904574
 10
1807.404412932903
 20
1136.699483719379
 10
1807.474963848246
 20
1136.301813933698
 10
1807.590796292517
 20
1135.894132833413
 10
1807.749322760318
 20
1135.485547340632
 10
1807.947002032316
 20
1135.085184580097
 10
1808.179418280228
 20
1134.701987994297
 10
1808.441379709133
 20
1134.344517561747
 10
1808.727034533587
 20
1134.020758581208
 10
1809.030001696843
 20
1133.737943293309
 10
1809.343513413112
 20
1133.502389324243
 10
1809.660566348714
 20
1133.31935856044
 10
1809.974078064982
 20
1133.192939606712
 10
1810.277045228238
 20
1133.125956453585
 10
1810.562700052692
 20
1133.119905394013
 10
1810.824661481598
 20
1133.174921598668
 10
1811.05707772951
 20
1133.28977609645
 10
1811.254757001507
 20
1133.46190322767
 10
1811.413283469308
 20
1133.687457956647
 10
1811.529115913579
 20
1133.961401763455
 10
1811.599666828923
 20
1134.277615196127
 10
1811.623360224472
 20
1134.629034569105
  0
LWPOLYLINE
  5
9FE
330
9C9
100
AcDbEntity
  8
0
  6
Continuous
 62
     7
370
    15
100
AcDbPolyline
 90
       48
 70
   128
 43
0.0
 10
1817.669123203617
 20
1131.138889891063
 10
1817.645463821251
 20
1131.560676557109
 10
1817.574907876392
 20
1132.002252971537
 10
1817.458714441546
 20
1132.455739192772
 10
1817.298956991312
 20
1132.913042748453
 10
1817.098486401174
 20
1133.366003045794
 10
1816.860880073561
 20
1133.806536997559
 10
1816.59037809902
 20
1134.226783264941
 10
1816.291807591694
 20
1134.619242543344
 10
1815.97049654936
 20
1134.976911387647
 10
1815.63217877518
 20
1135.29340718885
 10
1815.282891557849
 20
1135.563082071882
 10
1814.928867936035
 20
1135.781123682068
 10
1814.576425469657
 20
1135.943641061708
 10
1814.231853502877
 20
1136.047734084312
 10
1813.901300930604
 20
1136.091545207426
 10
1813.590666471323
 20
1136.07429262052
 10
1813.305493404318
 20
1135.996284196416
 10
1813.050870649724
 20
1135.85891199729
 10
1812.831341956632
 20
1135.66462743329
 10
1812.650824819768
 20
1135.416897517063
 10
1812.512540571718
 20
1135.120142994834
 10
1812.418956898163
 20
1134.779659458081
 10
1812.371743801976
 20
1134.401522843584
 10
1812.371743801976
 20
1133.992481008187
 10
1812.418956898163
 20
1133.559833313134
 10
1812.512540571718
 20
1133.111300366791
 10
1812.650824819768
 20
1132.654886250213
 10
1812.831341956632
 20
1132.198735684122
 10
1813.050870649724
 20
1131.750988686177
 10
1813.305493404318
 20
1131.319635312163
 10
1813.590666471323
 20
1130.912373073259
 10
1813.901300930604
 20
1130.536469573765
 10
1814.231853502877
 20
1130.198632820537
 10
1814.576425469658
 20
1129.904891518438
 10
1814.928867936035
 20
1129.660487487964
 10
1815.282891557849
 20
1129.469782124828
 10
1815.63217877518
 20
1129.336178570753
 10
1815.97049654936
 20
1129.262060984327
 10
1816.291807591694
 20
1129.248751995636
 10
1816.59037809902
 20
1129.296489103898
 10
1816.860880073561
 20
1129.404420439286
 10
1817.098486401174
 20
1129.570619964561
 10
1817.298956991312
 20
1129.79212184526
 10
1817.458714441546
 20
1130.064973375072
 10
1817.574907876392
 20
1130.384305511984
 10
1817.645463821251
 20
1130.744419766449
 10
1817.669123203617
 20
1131.138889891063
  0
LWPOLYLINE
  5
9FF
330
9C9
100
AcDbEntity
  8
0
  6
Continuous
 62
     7
370
    15
100
AcDbPolyline
 90
       43
 70
   128
 43
0.0
 10
1861.262256263768
 20
1105.973109844128
 10
1861.238562868219
 20
1106.351885029323
 10
1861.168011952875
 20
1106.749554815004
 10
1861.052179508604
 20
1107.157235915289
 10
1860.893653040802
 20
1107.56582140807
 10
1860.695973768805
 20
1107.966184168605
 10
1860.463557520893
 20
1108.349380754405
 10
1860.201596091988
 20
1108.706851186955
 10
1859.915941267534
 20
1109.030610167494
 10
1859.612974104278
 20
1109.313425455393
 10
1859.299462388009
 20
1109.548979424458
 10
1858.982409452407
 20
1109.732010188262
 10
1858.668897736139
 20
1109.85842914199
 10
1858.365930572883
 20
1109.925412295117
 10
1858.080275748428
 20
1109.931463354689
 10
1857.818314319523
 20
1109.876447150033
 10
1857.585898071611
 20
1109.761592652251
 10
1857.388218799614
 20
1109.589465521032
 10
1857.229692331813
 20
1109.363910792054
 10
1857.113859887542
 20
1109.089966985247
 10
1857.043308972198
 20
1108.773753552574
 10
1857.019615576649
 20
1108.422334179596
 10
1857.043308972198
 20
1108.043558994402
 10
1857.113859887542
 20
1107.645889208721
 10
1857.229692331813
 20
1107.238208108436
 10
1857.388218799614
 20
1106.829622615655
 10
1857.585898071611
 20
1106.429259855119
 10
1857.818314319523
 20
1106.04606326932
 10
1858.080275748429
 20
1105.68859283677
 10
1858.365930572883
 20
1105.36483385623
 10
1858.668897736139
 20
1105.082018568332
 10
1858.982409452407
 20
1104.846464599266
 10
1859.299462388009
 20
1104.663433835463
 10
1859.612974104278
 20
1104.537014881735
 10
1859.915941267534
 20
1104.470031728608
 10
1860.201596091988
 20
1104.463980669036
 10
1860.463557520893
 20
1104.518996873691
 10
1860.695973768805
 20
1104.633851371473
 10
1860.893653040802
 20
1104.805978502693
 10
1861.052179508604
 20
1105.03153323167
 10
1861.168011952875
 20
1105.305477038478
 10
1861.238562868219
 20
1105.62169047115
 10
1861.262256263768
 20
1105.973109844128
  0
LWPOLYLINE
  5
A00
330
9C9
100
AcDbEntity
  8
0
  6
Continuous
 62
     7
370
    15
100
AcDbPolyline
 90
       43
 70
   128
 43
0.0
 10
1855.746823370513
 20
1109.157101480237
 10
1855.723129974963
 20
1109.535876665431
 10
1855.65257905962
 20
1109.933546451112
 10
1855.536746615349
 20
1110.341227551397
 10
1855.378220147548
 20
1110.749813044178
 10
1855.18054087555
 20
1111.150175804714
 10
1854.948124627638
 20
1111.533372390513
 10
1854.686163198733
 20
1111.890842823063
 10
1854.400508374278
 20
1112.214601803603
 10
1854.097541211023
 20
1112.497417091501
 10
1853.784029494754
 20
1112.732971060567
 10
1853.466976559152
 20
1112.91600182437
 10
1853.153464842884
 20
1113.042420778098
 10
1852.850497679628
 20
1113.109403931225
 10
1852.564842855174
 20
1113.115454990797
 10
1852.302881426268
 20
1113.060438786142
 10
1852.070465178356
 20
1112.94558428836
 10
1851.872785906359
 20
1112.77345715714
 10
1851.714259438558
 20
1112.547902428163
 10
1851.598426994287
 20
1112.273958621355
 10
1851.527876078943
 20
1111.957745188683
 10
1851.504182683394
 20
1111.606325815705
 10
1851.527876078943
 20
1111.22755063051
 10
1851.598426994287
 20
1110.829880844829
 10
1851.714259438558
 20
1110.422199744545
 10
1851.872785906359
 20
1110.013614251763
 10
1852.070465178356
 20
1109.613251491228
 10
1852.302881426268
 20
1109.230054905428
 10
1852.564842855174
 20
1108.872584472878
 10
1852.850497679628
 20
1108.548825492339
 10
1853.153464842884
 20
1108.26601020444
 10
1853.466976559152
 20
1108.030456235375
 10
1853.784029494754
 20
1107.847425471571
 10
1854.097541211023
 20
1107.721006517843
 10
1854.400508374278
 20
1107.654023364716
 10
1854.686163198733
 20
1107.647972305144
 10
1854.948124627638
 20
1107.7029885098
 10
1855.18054087555
 20
1107.817843007582
 10
1855.378220147548
 20
1107.989970138802
 10
1855.536746615349
 20
1108.215524867779
 10
1855.65257905962
 20
1108.489468674586
 10
1855.723129974963
 20
1108.805682107259
 10
1855.746823370513
 20
1109.157101480237
  0
LWPOLYLINE
  5
A01
330
9C9
100
AcDbEntity
  8
0
  6
Continuous
 62
     7
370
    15
100
AcDbPolyline
 90
       48
 70
   128
 43
0.0
 10
1850.761720563147
 20
1112.034940074412
 10
1850.738061180782
 20
1112.456726740457
 10
1850.667505235922
 20
1112.898303154886
 10
1850.551311801076
 20
1113.351789376121
 10
1850.391554350842
 20
1113.809092931802
 10
1850.191083760704
 20
1114.262053229143
 10
1849.953477433092
 20
1114.702587180907
 10
1849.68297545855
 20
1115.12283344829
 10
1849.384404951225
 20
1115.515292726692
 10
1849.06309390889
 20
1115.872961570995
 10
1848.72477613471
 20
1116.189457372198
 10
1848.375488917379
 20
1116.459132255231
 10
1848.021465295566
 20
1116.677173865417
 10
1847.669022829188
 20
1116.839691245057
 10
1847.324450862407
 20
1116.943784267661
 10
1846.993898290135
 20
1116.987595390775
 10
1846.683263830853
 20
1116.970342803869
 10
1846.398090763847
 20
1116.892334379765
 10
1846.143468009255
 20
1116.754962180639
 10
1845.923939316162
 20
1116.560677616639
 10
1845.743422179299
 20
1116.312947700412
 10
1845.605137931248
 20
1116.016193178182
 10
1845.511554257694
 20
1115.675709641429
 10
1845.464341161506
 20
1115.297573026933
 10
1845.464341161506
 20
1114.888531191536
 10
1845.511554257694
 20
1114.455883496482
 10
1845.605137931248
 20
1114.007350550139
 10
1845.743422179299
 20
1113.550936433561
 10
1845.923939316162
 20
1113.094785867471
 10
1846.143468009255
 20
1112.647038869525
 10
1846.398090763848
 20
1112.215685495511
 10
1846.683263830853
 20
1111.808423256607
 10
1846.993898290135
 20
1111.432519757114
 10
1847.324450862407
 20
1111.094683003885
 10
1847.669022829188
 20
1110.800941701787
 10
1848.021465295566
 20
1110.556537671312
 10
1848.375488917379
 20
1110.365832308176
 10
1848.72477613471
 20
1110.232228754101
 10
1849.06309390889
 20
1110.158111167676
 10
1849.384404951225
 20
1110.144802178985
 10
1849.68297545855
 20
1110.192539287247
 10
1849.953477433092
 20
1110.300470622634
 10
1850.191083760704
 20
1110.46667014791
 10
1850.391554350842
 20
1110.688172028608
 10
1850.551311801076
 20
1110.96102355842
 10
1850.667505235922
 20
1111.280355695333
 10
1850.738061180782
 20
1111.640469949797
 10
1850.761720563147
 20
1112.034940074412
  0
LWPOLYLINE
  5
A02
330
9C9
100
AcDbEntity
  8
0
  6
Continuous
 62
     7
370
    15
100
AcDbPolyline
 90
       43
 70
   128
 43
0.0
 10
1844.715957584003
 20
1115.525084752454
 10
1844.692264188453
 20
1115.903859937648
 10
1844.621713273109
 20
1116.30152972333
 10
1844.505880828839
 20
1116.709210823614
 10
1844.347354361038
 20
1117.117796316395
 10
1844.14967508904
 20
1117.518159076931
 10
1843.917258841128
 20
1117.901355662731
 10
1843.655297412223
 20
1118.258826095281
 10
1843.369642587768
 20
1118.58258507582
 10
1843.066675424513
 20
1118.865400363719
 10
1842.753163708244
 20
1119.100954332784
 10
1842.436110772642
 20
1119.283985096587
 10
1842.122599056374
 20
1119.410404050316
 10
1841.819631893118
 20
1119.477387203443
 10
1841.533977068663
 20
1119.483438263014
 10
1841.272015639758
 20
1119.428422058359
 10
1841.039599391846
 20
1119.313567560577
 10
1840.841920119849
 20
1119.141440429357
 10
1840.683393652048
 20
1118.91588570038
 10
1840.567561207777
 20
1118.641941893573
 10
1840.497010292433
 20
1118.3257284609
 10
1840.473316896883
 20
1117.974309087922
 10
1840.497010292433
 20
1117.595533902727
 10
1840.567561207777
 20
1117.197864117047
 10
1840.683393652048
 20
1116.790183016762
 10
1840.841920119849
 20
1116.381597523981
 10
1841.039599391846
 20
1115.981234763445
 10
1841.272015639758
 20
1115.598038177645
 10
1841.533977068663
 20
1115.240567745095
 10
1841.819631893118
 20
1114.916808764556
 10
1842.122599056374
 20
1114.633993476657
 10
1842.436110772642
 20
1114.398439507592
 10
1842.753163708244
 20
1114.215408743788
 10
1843.066675424513
 20
1114.08898979006
 10
1843.369642587768
 20
1114.022006636933
 10
1843.655297412223
 20
1114.015955577361
 10
1843.917258841128
 20
1114.070971782017
 10
1844.14967508904
 20
1114.185826279799
 10
1844.347354361038
 20
1114.357953411019
 10
1844.505880828839
 20
1114.583508139996
 10
1844.621713273109
 20
1114.857451946803
 10
1844.692264188453
 20
1115.173665379476
 10
1844.715957584003
 20
1115.525084752454
  0
LWPOLYLINE
  5
A03
330
9C9
100
AcDbEntity
  8
0
  6
Continuous
 62
     7
370
    15
100
AcDbPolyline
 90
       43
 70
   128
 43
0.0
 10
1839.200524690748
 20
1118.709076388562
 10
1839.176831295198
 20
1119.087851573757
 10
1839.106280379854
 20
1119.485521359438
 10
1838.990447935583
 20
1119.893202459723
 10
1838.831921467782
 20
1120.301787952504
 10
1838.634242195785
 20
1120.70215071304
 10
1838.401825947873
 20
1121.085347298839
 10
1838.139864518968
 20
1121.442817731389
 10
1837.854209694513
 20
1121.766576711928
 10
1837.551242531257
 20
1122.049391999827
 10
1837.237730814989
 20
1122.284945968892
 10
1836.920677879387
 20
1122.467976732696
 10
1836.607166163119
 20
1122.594395686424
 10
1836.304198999863
 20
1122.661378839551
 10
1836.018544175408
 20
1122.667429899123
 10
1835.756582746503
 20
1122.612413694468
 10
1835.524166498591
 20
1122.497559196686
 10
1835.326487226594
 20
1122.325432065466
 10
1835.167960758793
 20
1122.099877336489
 10
1835.052128314521
 20
1121.825933529681
 10
1834.981577399178
 20
1121.509720097009
 10
1834.957884003628
 20
1121.158300724031
 10
1834.981577399178
 20
1120.779525538836
 10
1835.052128314521
 20
1120.381855753155
 10
1835.167960758793
 20
1119.97417465287
 10
1835.326487226594
 20
1119.565589160089
 10
1835.524166498591
 20
1119.165226399553
 10
1835.756582746503
 20
1118.782029813754
 10
1836.018544175408
 20
1118.424559381204
 10
1836.304198999863
 20
1118.100800400665
 10
1836.607166163119
 20
1117.817985112766
 10
1836.920677879387
 20
1117.582431143701
 10
1837.237730814989
 20
1117.399400379897
 10
1837.551242531258
 20
1117.272981426169
 10
1837.854209694513
 20
1117.205998273042
 10
1838.139864518968
 20
1117.19994721347
 10
1838.401825947873
 20
1117.254963418125
 10
1838.634242195785
 20
1117.369817915907
 10
1838.831921467782
 20
1117.541945047127
 10
1838.990447935583
 20
1117.767499776104
 10
1839.106280379854
 20
1118.041443582912
 10
1839.176831295198
 20
1118.357657015584
 10
1839.200524690748
 20
1118.709076388562
  0
LWPOLYLINE
  5
A04
330
9C9
100
AcDbEntity
  8
0
  6
Continuous
 62
     7
370
    15
100
AcDbPolyline
 90
       43
 70
   128
 43
0.0
 10
1833.685091797493
 20
1121.893068024671
 10
1833.661398401943
 20
1122.271843209866
 10
1833.590847486599
 20
1122.669512995547
 10
1833.475015042328
 20
1123.077194095831
 10
1833.316488574527
 20
1123.485779588612
 10
1833.11880930253
 20
1123.886142349148
 10
1832.886393054618
 20
1124.269338934948
 10
1832.624431625713
 20
1124.626809367498
 10
1832.338776801259
 20
1124.950568348037
 10
1832.035809638002
 20
1125.233383635936
 10
1831.722297921734
 20
1125.468937605001
 10
1831.405244986132
 20
1125.651968368805
 10
1831.091733269864
 20
1125.778387322533
 10
1830.788766106607
 20
1125.84537047566
 10
1830.503111282153
 20
1125.851421535232
 10
1830.241149853248
 20
1125.796405330576
 10
1830.008733605336
 20
1125.681550832794
 10
1829.811054333339
 20
1125.509423701575
 10
1829.652527865538
 20
1125.283868972597
 10
1829.536695421267
 20
1125.00992516579
 10
1829.466144505923
 20
1124.693711733117
 10
1829.442451110373
 20
1124.342292360139
 10
1829.466144505923
 20
1123.963517174944
 10
1829.536695421267
 20
1123.565847389263
 10
1829.652527865538
 20
1123.158166288979
 10
1829.811054333339
 20
1122.749580796198
 10
1830.008733605336
 20
1122.349218035662
 10
1830.241149853248
 20
1121.966021449862
 10
1830.503111282153
 20
1121.608551017313
 10
1830.788766106607
 20
1121.284792036773
 10
1831.091733269864
 20
1121.001976748874
 10
1831.405244986132
 20
1120.766422779809
 10
1831.722297921734
 20
1120.583392016006
 10
1832.035809638002
 20
1120.456973062277
 10
1832.338776801259
 20
1120.38998990915
 10
1832.624431625713
 20
1120.383938849578
 10
1832.886393054618
 20
1120.438955054234
 10
1833.11880930253
 20
1120.553809552016
 10
1833.316488574527
 20
1120.725936683236
 10
1833.475015042328
 20
1120.951491412213
 10
1833.590847486599
 20
1121.22543521902
 10
1833.661398401943
 20
1121.541648651693
 10
1833.685091797493
 20
1121.893068024671
  0
LWPOLYLINE
  5
A05
330
9C9
100
AcDbEntity
  8
0
  6
Continuous
 62
     7
370
    15
100
AcDbPolyline
 90
       43
 70
   128
 43
0.0
 10
1828.169658904237
 20
1125.077059660779
 10
1828.145965508688
 20
1125.455834845974
 10
1828.075414593344
 20
1125.853504631655
 10
1827.959582149073
 20
1126.26118573194
 10
1827.801055681272
 20
1126.669771224721
 10
1827.603376409275
 20
1127.070133985256
 10
1827.370960161363
 20
1127.453330571056
 10
1827.108998732458
 20
1127.810801003606
 10
1826.823343908003
 20
1128.134559984145
 10
1826.520376744747
 20
1128.417375272044
 10
1826.206865028479
 20
1128.652929241109
 10
1825.889812092877
 20
1128.835960004913
 10
1825.576300376608
 20
1128.962378958641
 10
1825.273333213353
 20
1129.029362111768
 10
1824.987678388898
 20
1129.03541317134
 10
1824.725716959993
 20
1128.980396966685
 10
1824.493300712081
 20
1128.865542468902
 10
1824.295621440084
 20
1128.693415337683
 10
1824.137094972283
 20
1128.467860608706
 10
1824.021262528011
 20
1128.193916801898
 10
1823.950711612668
 20
1127.877703369226
 10
1823.927018217118
 20
1127.526283996248
 10
1823.950711612668
 20
1127.147508811053
 10
1824.021262528011
 20
1126.749839025372
 10
1824.137094972283
 20
1126.342157925087
 10
1824.295621440084
 20
1125.933572432306
 10
1824.493300712081
 20
1125.53320967177
 10
1824.725716959993
 20
1125.150013085971
 10
1824.987678388898
 20
1124.792542653421
 10
1825.273333213353
 20
1124.468783672882
 10
1825.576300376608
 20
1124.185968384983
 10
1825.889812092877
 20
1123.950414415918
 10
1826.206865028479
 20
1123.767383652114
 10
1826.520376744747
 20
1123.640964698386
 10
1826.823343908003
 20
1123.573981545259
 10
1827.108998732458
 20
1123.567930485687
 10
1827.370960161363
 20
1123.622946690342
 10
1827.603376409275
 20
1123.737801188124
 10
1827.801055681272
 20
1123.909928319344
 10
1827.959582149073
 20
1124.135483048322
 10
1828.075414593344
 20
1124.409426855129
 10
1828.145965508688
 20
1124.725640287801
 10
1828.169658904237
 20
1125.077059660779
  0
LWPOLYLINE
  5
A06
330
9C9
100
AcDbEntity
  8
0
  6
Continuous
 62
     7
370
    15
100
AcDbPolyline
 90
       43
 70
   128
 43
0.0
 10
1822.654226010983
 20
1128.261051296888
 10
1822.630532615433
 20
1128.639826482083
 10
1822.559981700089
 20
1129.037496267764
 10
1822.444149255818
 20
1129.445177368048
 10
1822.285622788017
 20
1129.85376286083
 10
1822.08794351602
 20
1130.254125621365
 10
1821.855527268108
 20
1130.637322207165
 10
1821.593565839203
 20
1130.994792639715
 10
1821.307911014748
 20
1131.318551620254
 10
1821.004943851492
 20
1131.601366908153
 10
1820.691432135224
 20
1131.836920877218
 10
1820.374379199622
 20
1132.019951641021
 10
1820.060867483353
 20
1132.14637059475
 10
1819.757900320098
 20
1132.213353747877
 10
1819.472245495643
 20
1132.219404807449
 10
1819.210284066738
 20
1132.164388602793
 10
1818.977867818826
 20
1132.049534105011
 10
1818.780188546828
 20
1131.877406973792
 10
1818.621662079027
 20
1131.651852244814
 10
1818.505829634757
 20
1131.377908438007
 10
1818.435278719413
 20
1131.061695005334
 10
1818.411585323863
 20
1130.710275632356
 10
1818.435278719413
 20
1130.331500447161
 10
1818.505829634757
 20
1129.933830661481
 10
1818.621662079027
 20
1129.526149561196
 10
1818.780188546828
 20
1129.117564068415
 10
1818.977867818826
 20
1128.717201307879
 10
1819.210284066738
 20
1128.33400472208
 10
1819.472245495643
 20
1127.97653428953
 10
1819.757900320098
 20
1127.65277530899
 10
1820.060867483353
 20
1127.369960021091
 10
1820.374379199622
 20
1127.134406052026
 10
1820.691432135224
 20
1126.951375288223
 10
1821.004943851492
 20
1126.824956334495
 10
1821.307911014748
 20
1126.757973181367
 10
1821.593565839203
 20
1126.751922121796
 10
1821.855527268108
 20
1126.806938326451
 10
1822.08794351602
 20
1126.921792824233
 10
1822.285622788017
 20
1127.093919955453
 10
1822.444149255818
 20
1127.31947468443
 10
1822.559981700089
 20
1127.593418491238
 10
1822.630532615433
 20
1127.90963192391
 10
1822.654226010983
 20
1128.261051296888
  0
LINE
  5
A07
330
9C9
100
AcDbEntity
  8
0
  6
Continuous
 62
     7
370
    15
100
AcDbLine
 10
1867.201953225735
 20
1097.644950903158
 30
0.0
 11
1871.798147303447
 21
1100.298277266582
 31
0.0
  0
LINE
  5
A08
330
9C9
100
AcDbEntity
  8
0
  6
Continuous
 62
     7
370
    15
100
AcDbLine
 10
1871.798147303447
 20
1100.298277266582
 30
0.0
 11
1871.798147303447
 21
1110.096767009211
 31
0.0
  0
ELLIPSE
  5
A09
330
9C9
100
AcDbEntity
  8
0
  6
Continuous
 62
     7
370
    15
100
AcDbEllipse
 10
1861.439032959065
 20
1106.524936394926
 30
0.0
 11
2.00450738334668
 21
46.38075764019958
 31
0.0
210
0.0
220
0.0
230
1.0
 40
0.0451846437372546
 41
1.338786279212371
 42
1.359827043809333
  0
LWPOLYLINE
  5
A0A
330
9C9
100
AcDbEntity
  8
0
  6
Continuous
 62
     7
370
    15
100
AcDbPolyline
 90
       19
 70
   128
 43
0.0
 10
1863.017674463303
 20
1114.468901091657
 10
1862.632775521782
 20
1114.347532440816
 10
1862.220574109252
 20
1114.261059025347
 10
1861.79049781711
 20
1114.211458606612
 10
1861.352383058889
 20
1114.199865611781
 10
1860.916250098471
 20
1114.226545187974
 10
1860.4920738734
 20
1114.290887138005
 10
1860.089555854873
 20
1114.39141987639
 10
1859.717902162261
 20
1114.525844086458
 10
1859.385613006988
 20
1114.691085308763
 10
1859.100288281451
 20
1114.883364258036
 10
1858.868453739438
 20
1115.098283260439
 10
1858.695411743499
 20
1115.33092683418
 10
1858.585119992913
 20
1115.575974113079
 10
1858.540101005864
 20
1115.827820541819
 10
1858.561384426119
 20
1116.080706059535
 10
1858.648483473712
 20
1116.328846840021
 10
1858.799406078246
 20
1116.566567575487
 10
1859.010700440174
 20
1116.788431278352
  0
ELLIPSE
  5
A0B
330
9C9
100
AcDbEntity
  8
0
  6
Continuous
 62
     7
370
    15
100
AcDbEllipse
 10
1861.439032959065
 20
1106.524936394926
 30
0.0
 11
-2.112133331130998
 21
44.01722223807209
 31
0.0
210
0.0
220
0.0
230
1.0
 40
0.0451455594504186
 41
4.869574965664541
 42
4.891690632847522
  0
ARC
  5
A0C
330
9C9
100
AcDbEntity
  8
0
  6
Continuous
 62
     7
370
    15
100
AcDbCircle
 10
1862.108027382126
 20
1116.061930353725
 30
0.0
 40
2.72802697168316
100
AcDbArc
 50
290.6723393354101
 51
309.1862876397363
  0
ELLIPSE
  5
A0D
330
9C9
100
AcDbEntity
  8
0
  6
Continuous
 62
     7
370
    15
100
AcDbEllipse
 10
1861.439032959065
 20
1106.524936394926
 30
0.0
 11
2.00450738334668
 21
46.38075764019958
 31
0.0
210
0.0
220
0.0
230
1.0
 40
0.0451846437372546
 41
4.875066878802689
 42
4.897182545985671
  0
LWPOLYLINE
  5
A0E
330
9C9
100
AcDbEntity
  8
0
  6
Continuous
 62
     7
370
    15
100
AcDbPolyline
 90
       19
 70
   128
 43
0.0
 10
1859.860391454826
 20
1117.277603909435
 10
1860.245290396347
 20
1117.398972560275
 10
1860.657491808878
 20
1117.485445975745
 10
1861.087568101019
 20
1117.53504639448
 10
1861.52568285924
 20
1117.546639389311
 10
1861.961815819658
 20
1117.519959813118
 10
1862.385992044729
 20
1117.455617863087
 10
1862.788510063256
 20
1117.355085124702
 10
1863.160163755868
 20
1117.220660914634
 10
1863.492452911141
 20
1117.055419692329
 10
1863.777777636677
 20
1116.863140743056
 10
1864.009612178691
 20
1116.648221740653
 10
1864.18265417463
 20
1116.415578166912
 10
1864.292945925216
 20
1116.170530888012
 10
1864.337964912265
 20
1115.918684459272
 10
1864.31668149201
 20
1115.665798941557
 10
1864.229582444417
 20
1115.417658161071
 10
1864.078659839884
 20
1115.179937425605
 10
1863.867365477955
 20
1114.95807372274
  0
LINE
  5
A0F
330
9C9
100
AcDbEntity
  8
0
  6
Continuous
 62
     7
370
    15
100
AcDbLine
 10
1860.66111925827
 20
1115.833047927433
 30
0.0
 11
1859.010700440174
 21
1116.788431278352
 31
0.0
  0
LINE
  5
A10
330
9C9
100
AcDbEntity
  8
0
  6
Continuous
 62
     7
370
    15
100
AcDbLine
 10
1860.66111925827
 20
1115.833047927433
 30
0.0
 11
1859.669813074508
 21
1115.262346524503
 31
0.0
  0
LINE
  5
A11
330
9C9
100
AcDbEntity
  8
0
  6
Continuous
 62
     7
370
    15
100
AcDbLine
 10
1859.669813074508
 20
1115.262346524503
 30
0.0
 11
1860.375949461446
 21
1114.853583039646
 31
0.0
  0
LINE
  5
A12
330
9C9
100
AcDbEntity
  8
0
  6
Continuous
 62
     7
370
    15
100
AcDbLine
 10
1860.375949461446
 20
1114.853583039646
 30
0.0
 11
1861.367255645207
 21
1115.424284442576
 31
0.0
  0
LINE
  5
A13
330
9C9
100
AcDbEntity
  8
0
  6
Continuous
 62
     7
370
    15
100
AcDbLine
 10
1863.017674463303
 20
1114.468901091657
 30
0.0
 11
1861.367255645207
 21
1115.424284442576
 31
0.0
  0
LINE
  5
A14
330
9C9
100
AcDbEntity
  8
0
  6
Continuous
 62
     7
370
    15
100
AcDbLine
 10
1861.323753374643
 20
1115.399239903111
 30
0.0
 11
1860.665930707767
 21
1115.780035866475
 31
0.0
  0
LINE
  5
A15
330
9C9
100
AcDbEntity
  8
0
  6
Continuous
 62
     7
370
    15
100
AcDbLine
 10
1862.196274369792
 20
1115.685724617616
 30
0.0
 11
1861.554190572223
 21
1115.316072808645
 31
0.0
  0
LINE
  5
A16
330
9C9
100
AcDbEntity
  8
0
  6
Continuous
 62
     7
370
    15
100
AcDbLine
 10
1863.831714365876
 20
1113.947448303605
 30
0.0
 11
1863.020590029083
 21
1114.41698650712
 31
0.0
  0
LINE
  5
A17
330
9C9
100
AcDbEntity
  8
0
  6
Continuous
 62
     7
370
    15
100
AcDbLine
 10
1862.21694665986
 20
1115.913457073659
 30
0.0
 11
1862.132339489795
 21
1114.981397849693
 31
0.0
  0
LINE
  5
A18
330
9C9
100
AcDbEntity
  8
0
  6
Continuous
 62
     7
370
    15
100
AcDbLine
 10
1862.21694665986
 20
1115.913457073659
 30
0.0
 11
1863.867365477955
 21
1114.95807372274
 31
0.0
  0
LINE
  5
A19
330
9C9
100
AcDbEntity
  8
0
  6
Continuous
 62
     7
370
    15
100
AcDbLine
 10
1862.502116456683
 20
1116.892921961446
 30
0.0
 11
1861.510810272922
 21
1116.322220558516
 31
0.0
  0
LINE
  5
A1A
330
9C9
100
AcDbEntity
  8
0
  6
Continuous
 62
     7
370
    15
100
AcDbLine
 10
1859.860391454826
 20
1117.277603909435
 30
0.0
 11
1861.510810272922
 21
1116.322220558516
 31
0.0
  0
LINE
  5
A1B
330
9C9
100
AcDbEntity
  8
0
  6
Continuous
 62
     7
370
    15
100
AcDbLine
 10
1862.21694665986
 20
1115.913457073659
 30
0.0
 11
1863.208252843621
 21
1116.484158476589
 31
0.0
  0
LINE
  5
A1C
330
9C9
100
AcDbEntity
  8
0
  6
Continuous
 62
     7
370
    15
100
AcDbLine
 10
1863.208252843621
 20
1116.484158476589
 30
0.0
 11
1862.502116456683
 21
1116.892921961446
 31
0.0
  0
LINE
  5
A1D
330
9C9
100
AcDbEntity
  8
0
  6
Continuous
 62
     7
370
    15
100
AcDbLine
 10
1860.66111925827
 20
1115.833047927433
 30
0.0
 11
1860.73144171657
 21
1115.058242237837
 31
0.0
  0
LWPOLYLINE
  5
A1E
330
9C9
100
AcDbEntity
  8
0
  6
Continuous
 62
     7
370
    15
100
AcDbPolyline
 90
       21
 70
   128
 43
0.0
 10
1860.807140179398
 20
1104.719729257872
 10
1860.555149482581
 20
1104.668082696991
 10
1860.269494658127
 20
1104.674133756563
 10
1859.966527494871
 20
1104.74111690969
 10
1859.653015778603
 20
1104.867535863419
 10
1859.335962843001
 20
1105.050566627222
 10
1859.022451126732
 20
1105.286120596288
 10
1858.719483963476
 20
1105.568935884186
 10
1858.433829139022
 20
1105.892694864725
 10
1858.171867710117
 20
1106.250165297275
 10
1857.939451462204
 20
1106.633361883075
 10
1857.741772190207
 20
1107.033724643611
 10
1857.583245722406
 20
1107.442310136391
 10
1857.467413278135
 20
1107.849991236677
 10
1857.396862362791
 20
1108.247661022357
 10
1857.373168967242
 20
1108.626436207552
 10
1857.396862362791
 20
1108.97785558053
 10
1857.467413278135
 20
1109.294069013202
 10
1857.583245722406
 20
1109.56801282001
 10
1857.741772190207
 20
1109.793567548987
 10
1857.828285051613
 20
1109.879816793808
  0
LINE
  5
A1F
330
9C9
100
AcDbEntity
  8
0
  6
Continuous
 62
     7
370
    15
100
AcDbLine
 10
1861.510694242173
 20
1115.341251671792
 30
0.0
 11
1861.510810272922
 21
1116.322220558516
 31
0.0
  0
LINE
  5
A20
330
9C9
100
AcDbEntity
  8
0
  6
Continuous
 62
     7
370
    15
100
AcDbLine
 10
1862.502020016068
 20
1116.077575654771
 30
0.0
 11
1862.502116456683
 21
1116.892921961446
 31
0.0
  0
ELLIPSE
  5
A21
330
9C9
100
AcDbEntity
  8
0
  6
Continuous
 62
     7
370
    15
100
AcDbEllipse
 10
1855.923600065809
 20
1109.708928031034
 30
0.0
 11
2.004507383346677
 21
46.38075764019956
 31
0.0
210
0.0
220
0.0
230
1.0
 40
0.0451846437372547
 41
1.338786279212371
 42
1.359827043809333
  0
LWPOLYLINE
  5
A22
330
9C9
100
AcDbEntity
  8
0
  6
Continuous
 62
     7
370
    15
100
AcDbPolyline
 90
       19
 70
   128
 43
0.0
 10
1857.502241570048
 20
1117.652892727766
 10
1857.117342628527
 20
1117.531524076925
 10
1856.705141215996
 20
1117.445050661455
 10
1856.275064923855
 20
1117.395450242721
 10
1855.836950165634
 20
1117.383857247889
 10
1855.400817205216
 20
1117.410536824083
 10
1854.976640980146
 20
1117.474878774113
 10
1854.574122961618
 20
1117.575411512498
 10
1854.202469269006
 20
1117.709835722566
 10
1853.870180113733
 20
1117.875076944871
 10
1853.584855388197
 20
1118.067355894145
 10
1853.353020846183
 20
1118.282274896548
 10
1853.179978850244
 20
1118.514918470288
 10
1853.069687099658
 20
1118.759965749188
 10
1853.024668112609
 20
1119.011812177928
 10
1853.045951532864
 20
1119.264697695643
 10
1853.133050580457
 20
1119.512838476129
 10
1853.283973184991
 20
1119.750559211595
 10
1853.495267546919
 20
1119.97242291446
  0
ELLIPSE
  5
A23
330
9C9
100
AcDbEntity
  8
0
  6
Continuous
 62
     7
370
    15
100
AcDbEllipse
 10
1855.923600065809
 20
1109.708928031034
 30
0.0
 11
-2.112133331130991
 21
44.01722223807204
 31
0.0
210
0.0
220
0.0
230
1.0
 40
0.0451455594504188
 41
4.869574965664542
 42
4.891690632847522
  0
ARC
  5
A24
330
9C9
100
AcDbEntity
  8
0
  6
Continuous
 62
     7
370
    15
100
AcDbCircle
 10
1856.592594488871
 20
1119.245921989832
 30
0.0
 40
2.728026971681836
100
AcDbArc
 50
290.6723393354054
 51
309.1862876397464
  0
ELLIPSE
  5
A25
330
9C9
100
AcDbEntity
  8
0
  6
Continuous
 62
     7
370
    15
100
AcDbEllipse
 10
1855.923600065809
 20
1109.708928031034
 30
0.0
 11
2.004507383346677
 21
46.38075764019956
 31
0.0
210
0.0
220
0.0
230
1.0
 40
0.0451846437372547
 41
4.875066878802689
 42
4.897182545985671
  0
LWPOLYLINE
  5
A26
330
9C9
100
AcDbEntity
  8
0
  6
Continuous
 62
     7
370
    15
100
AcDbPolyline
 90
       19
 70
   128
 43
0.0
 10
1854.344958561571
 20
1120.461595545543
 10
1854.729857503092
 20
1120.582964196384
 10
1855.142058915622
 20
1120.669437611854
 10
1855.572135207764
 20
1120.719038030588
 10
1856.010249965985
 20
1120.73063102542
 10
1856.446382926403
 20
1120.703951449226
 10
1856.870559151474
 20
1120.639609499195
 10
1857.273077170001
 20
1120.539076760811
 10
1857.644730862613
 20
1120.404652550743
 10
1857.977020017886
 20
1120.239411328438
 10
1858.262344743423
 20
1120.047132379164
 10
1858.494179285436
 20
1119.832213376761
 10
1858.667221281375
 20
1119.59956980302
 10
1858.777513031961
 20
1119.354522524121
 10
1858.82253201901
 20
1119.102676095381
 10
1858.801248598755
 20
1118.849790577665
 10
1858.714149551162
 20
1118.60164979718
 10
1858.563226946628
 20
1118.363929061714
 10
1858.351932584701
 20
1118.142065358849
  0
LINE
  5
A27
330
9C9
100
AcDbEntity
  8
0
  6
Continuous
 62
     7
370
    15
100
AcDbLine
 10
1855.145686365014
 20
1119.017039563542
 30
0.0
 11
1853.495267546919
 21
1119.97242291446
 31
0.0
  0
LINE
  5
A28
330
9C9
100
AcDbEntity
  8
0
  6
Continuous
 62
     7
370
    15
100
AcDbLine
 10
1855.145686365014
 20
1119.017039563542
 30
0.0
 11
1854.154380181253
 21
1118.446338160612
 31
0.0
  0
LINE
  5
A29
330
9C9
100
AcDbEntity
  8
0
  6
Continuous
 62
     7
370
    15
100
AcDbLine
 10
1854.154380181253
 20
1118.446338160612
 30
0.0
 11
1854.860516568191
 21
1118.037574675755
 31
0.0
  0
LINE
  5
A2A
330
9C9
100
AcDbEntity
  8
0
  6
Continuous
 62
     7
370
    15
100
AcDbLine
 10
1854.860516568191
 20
1118.037574675755
 30
0.0
 11
1855.851822751952
 21
1118.608276078685
 31
0.0
  0
LINE
  5
A2B
330
9C9
100
AcDbEntity
  8
0
  6
Continuous
 62
     7
370
    15
100
AcDbLine
 10
1857.502241570048
 20
1117.652892727766
 30
0.0
 11
1855.851822751952
 21
1118.608276078685
 31
0.0
  0
LINE
  5
A2C
330
9C9
100
AcDbEntity
  8
0
  6
Continuous
 62
     7
370
    15
100
AcDbLine
 10
1855.808320481388
 20
1118.583231539219
 30
0.0
 11
1855.150497814512
 21
1118.964027502583
 31
0.0
  0
LINE
  5
A2D
330
9C9
100
AcDbEntity
  8
0
  6
Continuous
 62
     7
370
    15
100
AcDbLine
 10
1856.680841476537
 20
1118.869716253724
 30
0.0
 11
1856.038757678969
 21
1118.500064444754
 31
0.0
  0
LINE
  5
A2E
330
9C9
100
AcDbEntity
  8
0
  6
Continuous
 62
     7
370
    15
100
AcDbLine
 10
1858.316281472621
 20
1117.131439939714
 30
0.0
 11
1857.505157135829
 21
1117.600978143229
 31
0.0
  0
LINE
  5
A2F
330
9C9
100
AcDbEntity
  8
0
  6
Continuous
 62
     7
370
    15
100
AcDbLine
 10
1856.701513766605
 20
1119.097448709768
 30
0.0
 11
1856.61690659654
 21
1118.165389485802
 31
0.0
  0
LINE
  5
A30
330
9C9
100
AcDbEntity
  8
0
  6
Continuous
 62
     7
370
    15
100
AcDbLine
 10
1856.701513766605
 20
1119.097448709768
 30
0.0
 11
1858.351932584701
 21
1118.142065358849
 31
0.0
  0
LINE
  5
A31
330
9C9
100
AcDbEntity
  8
0
  6
Continuous
 62
     7
370
    15
100
AcDbLine
 10
1856.986683563428
 20
1120.076913597554
 30
0.0
 11
1855.995377379667
 21
1119.506212194624
 31
0.0
  0
LINE
  5
A32
330
9C9
100
AcDbEntity
  8
0
  6
Continuous
 62
     7
370
    15
100
AcDbLine
 10
1854.344958561571
 20
1120.461595545543
 30
0.0
 11
1855.995377379667
 21
1119.506212194624
 31
0.0
  0
LINE
  5
A33
330
9C9
100
AcDbEntity
  8
0
  6
Continuous
 62
     7
370
    15
100
AcDbLine
 10
1856.701513766605
 20
1119.097448709768
 30
0.0
 11
1857.692819950366
 21
1119.668150112697
 31
0.0
  0
LINE
  5
A34
330
9C9
100
AcDbEntity
  8
0
  6
Continuous
 62
     7
370
    15
100
AcDbLine
 10
1857.692819950366
 20
1119.668150112697
 30
0.0
 11
1856.986683563428
 21
1120.076913597554
 31
0.0
  0
LINE
  5
A35
330
9C9
100
AcDbEntity
  8
0
  6
Continuous
 62
     7
370
    15
100
AcDbLine
 10
1855.145686365014
 20
1119.017039563542
 30
0.0
 11
1855.216008823315
 21
1118.242233873945
 31
0.0
  0
LWPOLYLINE
  5
A36
330
9C9
100
AcDbEntity
  8
0
  6
Continuous
 62
     7
370
    15
100
AcDbPolyline
 90
       21
 70
   128
 43
0.0
 10
1855.291707286142
 20
1107.90372089398
 10
1855.039716589326
 20
1107.8520743331
 10
1854.754061764872
 20
1107.858125392672
 10
1854.451094601616
 20
1107.925108545799
 10
1854.137582885348
 20
1108.051527499527
 10
1853.820529949745
 20
1108.234558263331
 10
1853.507018233477
 20
1108.470112232396
 10
1853.204051070221
 20
1108.752927520295
 10
1852.918396245767
 20
1109.076686500834
 10
1852.656434816861
 20
1109.434156933384
 10
1852.42401856895
 20
1109.817353519183
 10
1852.226339296952
 20
1110.217716279719
 10
1852.067812829151
 20
1110.6263017725
 10
1851.95198038488
 20
1111.033982872785
 10
1851.881429469536
 20
1111.431652658466
 10
1851.857736073987
 20
1111.810427843661
 10
1851.881429469536
 20
1112.161847216639
 10
1851.95198038488
 20
1112.478060649311
 10
1852.067812829151
 20
1112.752004456119
 10
1852.226339296952
 20
1112.977559185096
 10
1852.312852158359
 20
1113.063808429918
  0
LINE
  5
A37
330
9C9
100
AcDbEntity
  8
0
  6
Continuous
 62
     7
370
    15
100
AcDbLine
 10
1855.995261348918
 20
1118.525243307901
 30
0.0
 11
1855.995377379667
 21
1119.506212194624
 31
0.0
  0
LINE
  5
A38
330
9C9
100
AcDbEntity
  8
0
  6
Continuous
 62
     7
370
    15
100
AcDbLine
 10
1856.986587122813
 20
1119.261567290879
 30
0.0
 11
1856.986683563428
 21
1120.076913597554
 31
0.0
  0
ELLIPSE
  5
A39
330
9C9
100
AcDbEntity
  8
0
  6
Continuous
 62
     7
370
    15
100
AcDbEllipse
 10
1850.408167172554
 20
1112.892919667143
 30
0.0
 11
2.004507383346677
 21
46.38075764019958
 31
0.0
210
0.0
220
0.0
230
1.0
 40
0.0451846437372545
 41
1.338786279212374
 42
1.359827043809334
  0
LWPOLYLINE
  5
A3A
330
9C9
100
AcDbEntity
  8
0
  6
Continuous
 62
     7
370
    15
100
AcDbPolyline
 90
       19
 70
   128
 43
0.0
 10
1851.986808676793
 20
1120.836884363874
 10
1851.601909735272
 20
1120.715515713033
 10
1851.189708322742
 20
1120.629042297564
 10
1850.7596320306
 20
1120.579441878829
 10
1850.321517272379
 20
1120.567848883998
 10
1849.885384311961
 20
1120.594528460191
 10
1849.46120808689
 20
1120.658870410222
 10
1849.058690068363
 20
1120.759403148607
 10
1848.687036375751
 20
1120.893827358675
 10
1848.354747220477
 20
1121.05906858098
 10
1848.069422494942
 20
1121.251347530253
 10
1847.837587952928
 20
1121.466266532657
 10
1847.664545956989
 20
1121.698910106397
 10
1847.554254206403
 20
1121.943957385296
 10
1847.509235219354
 20
1122.195803814037
 10
1847.530518639609
 20
1122.448689331752
 10
1847.617617687202
 20
1122.696830112238
 10
1847.768540291735
 20
1122.934550847704
 10
1847.979834653663
 20
1123.156414550569
  0
ELLIPSE
  5
A3B
330
9C9
100
AcDbEntity
  8
0
  6
Continuous
 62
     7
370
    15
100
AcDbEllipse
 10
1850.408167172554
 20
1112.892919667143
 30
0.0
 11
-2.112133331130998
 21
44.01722223807204
 31
0.0
210
0.0
220
0.0
230
1.0
 40
0.0451455594504187
 41
4.869574965664541
 42
4.891690632847521
  0
ARC
  5
A3C
330
9C9
100
AcDbEntity
  8
0
  6
Continuous
 62
     7
370
    15
100
AcDbCircle
 10
1851.077161595616
 20
1122.429913625942
 30
0.0
 40
2.72802697168274
100
AcDbArc
 50
290.6723393354101
 51
309.1862876397363
  0
ELLIPSE
  5
A3D
330
9C9
100
AcDbEntity
  8
0
  6
Continuous
 62
     7
370
    15
100
AcDbEllipse
 10
1850.408167172554
 20
1112.892919667143
 30
0.0
 11
2.004507383346677
 21
46.38075764019958
 31
0.0
210
0.0
220
0.0
230
1.0
 40
0.0451846437372545
 41
4.87506687880269
 42
4.897182545985672
  0
LWPOLYLINE
  5
A3E
330
9C9
100
AcDbEntity
  8
0
  6
Continuous
 62
     7
370
    15
100
AcDbPolyline
 90
       19
 70
   128
 43
0.0
 10
1848.829525668316
 20
1123.645587181652
 10
1849.214424609837
 20
1123.766955832492
 10
1849.626626022368
 20
1123.853429247962
 10
1850.056702314509
 20
1123.903029666697
 10
1850.49481707273
 20
1123.914622661529
 10
1850.930950033148
 20
1123.887943085335
 10
1851.355126258219
 20
1123.823601135304
 10
1851.757644276746
 20
1123.723068396919
 10
1852.129297969358
 20
1123.588644186852
 10
1852.461587124631
 20
1123.423402964546
 10
1852.746911850167
 20
1123.231124015273
 10
1852.978746392181
 20
1123.01620501287
 10
1853.15178838812
 20
1122.783561439129
 10
1853.262080138706
 20
1122.53851416023
 10
1853.307099125755
 20
1122.286667731489
 10
1853.2858157055
 20
1122.033782213774
 10
1853.198716657907
 20
1121.785641433288
 10
1853.047794053373
 20
1121.547920697823
 10
1852.836499691446
 20
1121.326056994957
  0
LINE
  5
A3F
330
9C9
100
AcDbEntity
  8
0
  6
Continuous
 62
     7
370
    15
100
AcDbLine
 10
1849.630253471759
 20
1122.20103119965
 30
0.0
 11
1847.979834653663
 21
1123.156414550569
 31
0.0
  0
LINE
  5
A40
330
9C9
100
AcDbEntity
  8
0
  6
Continuous
 62
     7
370
    15
100
AcDbLine
 10
1849.630253471759
 20
1122.20103119965
 30
0.0
 11
1848.638947287998
 21
1121.63032979672
 31
0.0
  0
LINE
  5
A41
330
9C9
100
AcDbEntity
  8
0
  6
Continuous
 62
     7
370
    15
100
AcDbLine
 10
1848.638947287998
 20
1121.63032979672
 30
0.0
 11
1849.345083674936
 21
1121.221566311863
 31
0.0
  0
LINE
  5
A42
330
9C9
100
AcDbEntity
  8
0
  6
Continuous
 62
     7
370
    15
100
AcDbLine
 10
1849.345083674936
 20
1121.221566311863
 30
0.0
 11
1850.336389858697
 21
1121.792267714793
 31
0.0
  0
LINE
  5
A43
330
9C9
100
AcDbEntity
  8
0
  6
Continuous
 62
     7
370
    15
100
AcDbLine
 10
1851.986808676793
 20
1120.836884363874
 30
0.0
 11
1850.336389858697
 21
1121.792267714793
 31
0.0
  0
LINE
  5
A44
330
9C9
100
AcDbEntity
  8
0
  6
Continuous
 62
     7
370
    15
100
AcDbLine
 10
1850.292887588133
 20
1121.767223175328
 30
0.0
 11
1849.635064921257
 21
1122.148019138692
 31
0.0
  0
LINE
  5
A45
330
9C9
100
AcDbEntity
  8
0
  6
Continuous
 62
     7
370
    15
100
AcDbLine
 10
1851.165408583282
 20
1122.053707889833
 30
0.0
 11
1850.523324785713
 21
1121.684056080862
 31
0.0
  0
LINE
  5
A46
330
9C9
100
AcDbEntity
  8
0
  6
Continuous
 62
     7
370
    15
100
AcDbLine
 10
1852.800848579366
 20
1120.315431575822
 30
0.0
 11
1851.989724242574
 21
1120.784969779338
 31
0.0
  0
LINE
  5
A47
330
9C9
100
AcDbEntity
  8
0
  6
Continuous
 62
     7
370
    15
100
AcDbLine
 10
1851.18608087335
 20
1122.281440345876
 30
0.0
 11
1851.101473703284
 21
1121.349381121911
 31
0.0
  0
LINE
  5
A48
330
9C9
100
AcDbEntity
  8
0
  6
Continuous
 62
     7
370
    15
100
AcDbLine
 10
1851.18608087335
 20
1122.281440345876
 30
0.0
 11
1852.836499691446
 21
1121.326056994957
 31
0.0
  0
LINE
  5
A49
330
9C9
100
AcDbEntity
  8
0
  6
Continuous
 62
     7
370
    15
100
AcDbLine
 10
1851.471250670173
 20
1123.260905233663
 30
0.0
 11
1850.479944486412
 21
1122.690203830733
 31
0.0
  0
LINE
  5
A4A
330
9C9
100
AcDbEntity
  8
0
  6
Continuous
 62
     7
370
    15
100
AcDbLine
 10
1848.829525668316
 20
1123.645587181652
 30
0.0
 11
1850.479944486412
 21
1122.690203830733
 31
0.0
  0
LINE
  5
A4B
330
9C9
100
AcDbEntity
  8
0
  6
Continuous
 62
     7
370
    15
100
AcDbLine
 10
1851.18608087335
 20
1122.281440345876
 30
0.0
 11
1852.17738705711
 21
1122.852141748806
 31
0.0
  0
LINE
  5
A4C
330
9C9
100
AcDbEntity
  8
0
  6
Continuous
 62
     7
370
    15
100
AcDbLine
 10
1852.17738705711
 20
1122.852141748806
 30
0.0
 11
1851.471250670173
 21
1123.260905233663
 31
0.0
  0
LWPOLYLINE
  5
A4D
330
9C9
100
AcDbEntity
  8
0
  6
Continuous
 62
     7
370
    15
100
AcDbPolyline
 90
       24
 70
   128
 43
0.0
 10
1850.153344556938
 20
1110.434537075008
 10
1850.036528849144
 20
1110.396641315203
 10
1849.737958341818
 20
1110.34890420694
 10
1849.416647299484
 20
1110.362213195632
 10
1849.078329525303
 20
1110.436330782057
 10
1848.729042307972
 20
1110.569934336132
 10
1848.375018686159
 20
1110.760639699268
 10
1848.022576219781
 20
1111.005043729742
 10
1847.678004253001
 20
1111.298785031841
 10
1847.347451680728
 20
1111.636621785069
 10
1847.036817221447
 20
1112.012525284563
 10
1846.751644154441
 20
1112.419787523467
 10
1846.497021399848
 20
1112.851140897481
 10
1846.277492706755
 20
1113.298887895426
 10
1846.096975569892
 20
1113.755038461517
 10
1845.958691321842
 20
1114.211452578095
 10
1845.865107648287
 20
1114.659985524438
 10
1845.8178945521
 20
1115.092633219491
 10
1845.8178945521
 20
1115.501675054888
 10
1845.865107648287
 20
1115.879811669385
 10
1845.958691321842
 20
1116.220295206138
 10
1846.096975569892
 20
1116.517049728368
 10
1846.277492706755
 20
1116.764779644594
 10
1846.42034910105
 20
1116.900975521105
  0
LINE
  5
A4E
330
9C9
100
AcDbEntity
  8
0
  6
Continuous
 62
     7
370
    15
100
AcDbLine
 10
1849.630253471759
 20
1122.20103119965
 30
0.0
 11
1849.70057593006
 21
1121.426225510054
 31
0.0
  0
LINE
  5
A4F
330
9C9
100
AcDbEntity
  8
0
  6
Continuous
 62
     7
370
    15
100
AcDbLine
 10
1850.479828455663
 20
1121.709234944009
 30
0.0
 11
1850.479944486412
 21
1122.690203830733
 31
0.0
  0
LINE
  5
A50
330
9C9
100
AcDbEntity
  8
0
  6
Continuous
 62
     7
370
    15
100
AcDbLine
 10
1851.471154229558
 20
1122.445558926988
 30
0.0
 11
1851.471250670173
 21
1123.260905233663
 31
0.0
  0
ELLIPSE
  5
A51
330
9C9
100
AcDbEntity
  8
0
  6
Continuous
 62
     7
370
    15
100
AcDbEllipse
 10
1844.892734279299
 20
1116.076911303251
 30
0.0
 11
2.004507383346677
 21
46.38075764019958
 31
0.0
210
0.0
220
0.0
230
1.0
 40
0.0451846437372546
 41
1.338786279212373
 42
1.359827043809333
  0
LWPOLYLINE
  5
A52
330
9C9
100
AcDbEntity
  8
0
  6
Continuous
 62
     7
370
    15
100
AcDbPolyline
 90
       19
 70
   128
 43
0.0
 10
1846.471375783538
 20
1124.020875999983
 10
1846.086476842017
 20
1123.899507349142
 10
1845.674275429486
 20
1123.813033933672
 10
1845.244199137345
 20
1123.763433514938
 10
1844.806084379124
 20
1123.751840520106
 10
1844.369951418706
 20
1123.7785200963
 10
1843.945775193635
 20
1123.84286204633
 10
1843.543257175108
 20
1123.943394784715
 10
1843.171603482496
 20
1124.077818994783
 10
1842.839314327223
 20
1124.243060217088
 10
1842.553989601687
 20
1124.435339166362
 10
1842.322155059673
 20
1124.650258168765
 10
1842.149113063734
 20
1124.882901742506
 10
1842.038821313147
 20
1125.127949021405
 10
1841.993802326099
 20
1125.379795450145
 10
1842.015085746354
 20
1125.632680967861
 10
1842.102184793947
 20
1125.880821748346
 10
1842.25310739848
 20
1126.118542483812
 10
1842.464401760408
 20
1126.340406186677
  0
ELLIPSE
  5
A53
330
9C9
100
AcDbEntity
  8
0
  6
Continuous
 62
     7
370
    15
100
AcDbEllipse
 10
1844.892734279299
 20
1116.076911303251
 30
0.0
 11
-2.112133331130991
 21
44.01722223807209
 31
0.0
210
0.0
220
0.0
230
1.0
 40
0.0451455594504189
 41
4.869574965664542
 42
4.891690632847523
  0
ARC
  5
A54
330
9C9
100
AcDbEntity
  8
0
  6
Continuous
 62
     7
370
    15
100
AcDbCircle
 10
1845.561728702361
 20
1125.61390526205
 30
0.0
 40
2.728026971682124
100
AcDbArc
 50
290.6723393354054
 51
309.1862876397464
  0
ELLIPSE
  5
A55
330
9C9
100
AcDbEntity
  8
0
  6
Continuous
 62
     7
370
    15
100
AcDbEllipse
 10
1844.892734279299
 20
1116.076911303251
 30
0.0
 11
2.004507383346677
 21
46.38075764019958
 31
0.0
210
0.0
220
0.0
230
1.0
 40
0.0451846437372546
 41
4.87506687880269
 42
4.897182545985672
  0
LWPOLYLINE
  5
A56
330
9C9
100
AcDbEntity
  8
0
  6
Continuous
 62
     7
370
    15
100
AcDbPolyline
 90
       19
 70
   128
 43
0.0
 10
1843.314092775061
 20
1126.82957881776
 10
1843.698991716582
 20
1126.950947468601
 10
1844.111193129112
 20
1127.037420884071
 10
1844.541269421254
 20
1127.087021302805
 10
1844.979384179475
 20
1127.098614297637
 10
1845.415517139893
 20
1127.071934721443
 10
1845.839693364964
 20
1127.007592771413
 10
1846.242211383491
 20
1126.907060033028
 10
1846.613865076102
 20
1126.77263582296
 10
1846.946154231376
 20
1126.607394600655
 10
1847.231478956912
 20
1126.415115651381
 10
1847.463313498926
 20
1126.200196648978
 10
1847.636355494865
 20
1125.967553075238
 10
1847.746647245451
 20
1125.722505796338
 10
1847.7916662325
 20
1125.470659367598
 10
1847.770382812245
 20
1125.217773849882
 10
1847.683283764651
 20
1124.969633069397
 10
1847.532361160119
 20
1124.731912333931
 10
1847.32106679819
 20
1124.510048631066
  0
LINE
  5
A57
330
9C9
100
AcDbEntity
  8
0
  6
Continuous
 62
     7
370
    15
100
AcDbLine
 10
1844.114820578504
 20
1125.385022835759
 30
0.0
 11
1842.464401760408
 21
1126.340406186677
 31
0.0
  0
LINE
  5
A58
330
9C9
100
AcDbEntity
  8
0
  6
Continuous
 62
     7
370
    15
100
AcDbLine
 10
1844.114820578504
 20
1125.385022835759
 30
0.0
 11
1843.123514394743
 21
1124.814321432829
 31
0.0
  0
LINE
  5
A59
330
9C9
100
AcDbEntity
  8
0
  6
Continuous
 62
     7
370
    15
100
AcDbLine
 10
1843.123514394743
 20
1124.814321432829
 30
0.0
 11
1843.829650781681
 21
1124.405557947972
 31
0.0
  0
LINE
  5
A5A
330
9C9
100
AcDbEntity
  8
0
  6
Continuous
 62
     7
370
    15
100
AcDbLine
 10
1843.829650781681
 20
1124.405557947972
 30
0.0
 11
1844.820956965442
 21
1124.976259350902
 31
0.0
  0
LINE
  5
A5B
330
9C9
100
AcDbEntity
  8
0
  6
Continuous
 62
     7
370
    15
100
AcDbLine
 10
1846.471375783538
 20
1124.020875999983
 30
0.0
 11
1844.820956965442
 21
1124.976259350902
 31
0.0
  0
LINE
  5
A5C
330
9C9
100
AcDbEntity
  8
0
  6
Continuous
 62
     7
370
    15
100
AcDbLine
 10
1844.777454694878
 20
1124.951214811436
 30
0.0
 11
1844.119632028002
 21
1125.3320107748
 31
0.0
  0
LINE
  5
A5D
330
9C9
100
AcDbEntity
  8
0
  6
Continuous
 62
     7
370
    15
100
AcDbLine
 10
1845.649975690027
 20
1125.237699525942
 30
0.0
 11
1845.007891892458
 21
1124.868047716971
 31
0.0
  0
LINE
  5
A5E
330
9C9
100
AcDbEntity
  8
0
  6
Continuous
 62
     7
370
    15
100
AcDbLine
 10
1847.285415686111
 20
1123.499423211931
 30
0.0
 11
1846.474291349318
 21
1123.968961415446
 31
0.0
  0
LINE
  5
A5F
330
9C9
100
AcDbEntity
  8
0
  6
Continuous
 62
     7
370
    15
100
AcDbLine
 10
1845.670647980094
 20
1125.465431981985
 30
0.0
 11
1845.586040810029
 21
1124.533372758019
 31
0.0
  0
LINE
  5
A60
330
9C9
100
AcDbEntity
  8
0
  6
Continuous
 62
     7
370
    15
100
AcDbLine
 10
1845.670647980094
 20
1125.465431981985
 30
0.0
 11
1847.32106679819
 21
1124.510048631066
 31
0.0
  0
LINE
  5
A61
330
9C9
100
AcDbEntity
  8
0
  6
Continuous
 62
     7
370
    15
100
AcDbLine
 10
1845.955817776918
 20
1126.444896869771
 30
0.0
 11
1844.964511593157
 21
1125.874195466842
 31
0.0
  0
LINE
  5
A62
330
9C9
100
AcDbEntity
  8
0
  6
Continuous
 62
     7
370
    15
100
AcDbLine
 10
1843.314092775061
 20
1126.82957881776
 30
0.0
 11
1844.964511593157
 21
1125.874195466842
 31
0.0
  0
LINE
  5
A63
330
9C9
100
AcDbEntity
  8
0
  6
Continuous
 62
     7
370
    15
100
AcDbLine
 10
1845.670647980094
 20
1125.465431981985
 30
0.0
 11
1846.661954163856
 21
1126.036133384915
 31
0.0
  0
LINE
  5
A64
330
9C9
100
AcDbEntity
  8
0
  6
Continuous
 62
     7
370
    15
100
AcDbLine
 10
1846.661954163856
 20
1126.036133384915
 30
0.0
 11
1845.955817776918
 21
1126.444896869771
 31
0.0
  0
LINE
  5
A65
330
9C9
100
AcDbEntity
  8
0
  6
Continuous
 62
     7
370
    15
100
AcDbLine
 10
1844.114820578504
 20
1125.385022835759
 30
0.0
 11
1844.185143036805
 21
1124.610217146162
 31
0.0
  0
LWPOLYLINE
  5
A66
330
9C9
100
AcDbEntity
  8
0
  6
Continuous
 62
     7
370
    15
100
AcDbPolyline
 90
       21
 70
   128
 43
0.0
 10
1844.260841499633
 20
1114.271704166198
 10
1844.008850802816
 20
1114.220057605317
 10
1843.723195978362
 20
1114.226108664889
 10
1843.420228815106
 20
1114.293091818016
 10
1843.106717098837
 20
1114.419510771744
 10
1842.789664163235
 20
1114.602541535548
 10
1842.476152446967
 20
1114.838095504613
 10
1842.173185283711
 20
1115.120910792512
 10
1841.887530459256
 20
1115.444669773051
 10
1841.625569030351
 20
1115.802140205601
 10
1841.393152782439
 20
1116.185336791401
 10
1841.195473510442
 20
1116.585699551936
 10
1841.036947042641
 20
1116.994285044717
 10
1840.92111459837
 20
1117.401966145002
 10
1840.850563683026
 20
1117.799635930683
 10
1840.826870287477
 20
1118.178411115878
 10
1840.850563683026
 20
1118.529830488856
 10
1840.92111459837
 20
1118.846043921528
 10
1841.036947042641
 20
1119.119987728336
 10
1841.195473510442
 20
1119.345542457313
 10
1841.28198637185
 20
1119.431791702136
  0
LINE
  5
A67
330
9C9
100
AcDbEntity
  8
0
  6
Continuous
 62
     7
370
    15
100
AcDbLine
 10
1844.964395562408
 20
1124.893226580118
 30
0.0
 11
1844.964511593157
 21
1125.874195466842
 31
0.0
  0
LINE
  5
A68
330
9C9
100
AcDbEntity
  8
0
  6
Continuous
 62
     7
370
    15
100
AcDbLine
 10
1845.955721336303
 20
1125.629550563096
 30
0.0
 11
1845.955817776918
 21
1126.444896869771
 31
0.0
  0
ELLIPSE
  5
A69
330
9C9
100
AcDbEntity
  8
0
  6
Continuous
 62
     7
370
    15
100
AcDbEllipse
 10
1839.377301386044
 20
1119.26090293936
 30
0.0
 11
2.004507383346677
 21
46.38075764019958
 31
0.0
210
0.0
220
0.0
230
1.0
 40
0.0451846437372546
 41
1.338786279212373
 42
1.359827043809333
  0
LWPOLYLINE
  5
A6A
330
9C9
100
AcDbEntity
  8
0
  6
Continuous
 62
     7
370
    15
100
AcDbPolyline
 90
       19
 70
   128
 43
0.0
 10
1840.955942890283
 20
1127.204867636091
 10
1840.571043948761
 20
1127.083498985251
 10
1840.158842536231
 20
1126.997025569781
 10
1839.72876624409
 20
1126.947425151046
 10
1839.290651485869
 20
1126.935832156215
 10
1838.854518525451
 20
1126.962511732409
 10
1838.43034230038
 20
1127.026853682439
 10
1838.027824281853
 20
1127.127386420824
 10
1837.656170589241
 20
1127.261810630892
 10
1837.323881433968
 20
1127.427051853197
 10
1837.038556708431
 20
1127.61933080247
 10
1836.806722166418
 20
1127.834249804874
 10
1836.633680170479
 20
1128.066893378614
 10
1836.523388419892
 20
1128.311940657513
 10
1836.478369432844
 20
1128.563787086254
 10
1836.499652853099
 20
1128.816672603969
 10
1836.586751900692
 20
1129.064813384455
 10
1836.737674505225
 20
1129.302534119921
 10
1836.948968867153
 20
1129.524397822786
  0
ELLIPSE
  5
A6B
330
9C9
100
AcDbEntity
  8
0
  6
Continuous
 62
     7
370
    15
100
AcDbEllipse
 10
1839.377301386044
 20
1119.26090293936
 30
0.0
 11
-2.112133331130998
 21
44.01722223807209
 31
0.0
210
0.0
220
0.0
230
1.0
 40
0.0451455594504189
 41
4.869574965664542
 42
4.891690632847522
  0
ARC
  5
A6C
330
9C9
100
AcDbEntity
  8
0
  6
Continuous
 62
     7
370
    15
100
AcDbCircle
 10
1840.046295809106
 20
1128.797896898158
 30
0.0
 40
2.728026971681668
100
AcDbArc
 50
290.6723393354054
 51
309.1862876397464
  0
ELLIPSE
  5
A6D
330
9C9
100
AcDbEntity
  8
0
  6
Continuous
 62
     7
370
    15
100
AcDbEllipse
 10
1839.377301386044
 20
1119.26090293936
 30
0.0
 11
2.004507383346677
 21
46.38075764019958
 31
0.0
210
0.0
220
0.0
230
1.0
 40
0.0451846437372546
 41
4.875066878802689
 42
4.897182545985672
  0
LWPOLYLINE
  5
A6E
330
9C9
100
AcDbEntity
  8
0
  6
Continuous
 62
     7
370
    15
100
AcDbPolyline
 90
       19
 70
   128
 43
0.0
 10
1837.798659881806
 20
1130.013570453869
 10
1838.183558823327
 20
1130.13493910471
 10
1838.595760235857
 20
1130.221412520179
 10
1839.025836527999
 20
1130.271012938914
 10
1839.46395128622
 20
1130.282605933746
 10
1839.900084246638
 20
1130.255926357552
 10
1840.324260471708
 20
1130.191584407521
 10
1840.726778490236
 20
1130.091051669136
 10
1841.098432182848
 20
1129.956627459069
 10
1841.430721338121
 20
1129.791386236764
 10
1841.716046063657
 20
1129.59910728749
 10
1841.947880605671
 20
1129.384188285087
 10
1842.120922601609
 20
1129.151544711346
 10
1842.231214352196
 20
1128.906497432447
 10
1842.276233339245
 20
1128.654651003707
 10
1842.25494991899
 20
1128.401765485991
 10
1842.167850871397
 20
1128.153624705506
 10
1842.016928266863
 20
1127.91590397004
 10
1841.805633904935
 20
1127.694040267174
  0
LINE
  5
A6F
330
9C9
100
AcDbEntity
  8
0
  6
Continuous
 62
     7
370
    15
100
AcDbLine
 10
1838.599387685249
 20
1128.569014471867
 30
0.0
 11
1836.948968867153
 21
1129.524397822786
 31
0.0
  0
LINE
  5
A70
330
9C9
100
AcDbEntity
  8
0
  6
Continuous
 62
     7
370
    15
100
AcDbLine
 10
1838.599387685249
 20
1128.569014471867
 30
0.0
 11
1837.608081501488
 21
1127.998313068937
 31
0.0
  0
LINE
  5
A71
330
9C9
100
AcDbEntity
  8
0
  6
Continuous
 62
     7
370
    15
100
AcDbLine
 10
1837.608081501488
 20
1127.998313068937
 30
0.0
 11
1838.314217888426
 21
1127.58954958408
 31
0.0
  0
LINE
  5
A72
330
9C9
100
AcDbEntity
  8
0
  6
Continuous
 62
     7
370
    15
100
AcDbLine
 10
1838.314217888426
 20
1127.58954958408
 30
0.0
 11
1839.305524072187
 21
1128.160250987011
 31
0.0
  0
LINE
  5
A73
330
9C9
100
AcDbEntity
  8
0
  6
Continuous
 62
     7
370
    15
100
AcDbLine
 10
1840.955942890283
 20
1127.204867636091
 30
0.0
 11
1839.305524072187
 21
1128.160250987011
 31
0.0
  0
LINE
  5
A74
330
9C9
100
AcDbEntity
  8
0
  6
Continuous
 62
     7
370
    15
100
AcDbLine
 10
1839.262021801623
 20
1128.135206447545
 30
0.0
 11
1838.604199134747
 21
1128.516002410909
 31
0.0
  0
LINE
  5
A75
330
9C9
100
AcDbEntity
  8
0
  6
Continuous
 62
     7
370
    15
100
AcDbLine
 10
1840.134542796772
 20
1128.42169116205
 30
0.0
 11
1839.492458999203
 21
1128.052039353079
 31
0.0
  0
LINE
  5
A76
330
9C9
100
AcDbEntity
  8
0
  6
Continuous
 62
     7
370
    15
100
AcDbLine
 10
1841.769982792856
 20
1126.683414848039
 30
0.0
 11
1840.958858456063
 21
1127.152953051555
 31
0.0
  0
LINE
  5
A77
330
9C9
100
AcDbEntity
  8
0
  6
Continuous
 62
     7
370
    15
100
AcDbLine
 10
1840.155215086839
 20
1128.649423618093
 30
0.0
 11
1840.070607916774
 21
1127.717364394128
 31
0.0
  0
LINE
  5
A78
330
9C9
100
AcDbEntity
  8
0
  6
Continuous
 62
     7
370
    15
100
AcDbLine
 10
1840.155215086839
 20
1128.649423618093
 30
0.0
 11
1841.805633904935
 21
1127.694040267174
 31
0.0
  0
LINE
  5
A79
330
9C9
100
AcDbEntity
  8
0
  6
Continuous
 62
     7
370
    15
100
AcDbLine
 10
1840.440384883663
 20
1129.62888850588
 30
0.0
 11
1839.449078699901
 21
1129.05818710295
 31
0.0
  0
LINE
  5
A7A
330
9C9
100
AcDbEntity
  8
0
  6
Continuous
 62
     7
370
    15
100
AcDbLine
 10
1837.798659881806
 20
1130.013570453869
 30
0.0
 11
1839.449078699901
 21
1129.05818710295
 31
0.0
  0
LINE
  5
A7B
330
9C9
100
AcDbEntity
  8
0
  6
Continuous
 62
     7
370
    15
100
AcDbLine
 10
1840.155215086839
 20
1128.649423618093
 30
0.0
 11
1841.146521270601
 21
1129.220125021023
 31
0.0
  0
LINE
  5
A7C
330
9C9
100
AcDbEntity
  8
0
  6
Continuous
 62
     7
370
    15
100
AcDbLine
 10
1841.146521270601
 20
1129.220125021023
 30
0.0
 11
1840.440384883663
 21
1129.62888850588
 31
0.0
  0
LINE
  5
A7D
330
9C9
100
AcDbEntity
  8
0
  6
Continuous
 62
     7
370
    15
100
AcDbLine
 10
1838.599387685249
 20
1128.569014471867
 30
0.0
 11
1838.66971014355
 21
1127.794208782271
 31
0.0
  0
LWPOLYLINE
  5
A7E
330
9C9
100
AcDbEntity
  8
0
  6
Continuous
 62
     7
370
    15
100
AcDbPolyline
 90
       21
 70
   128
 43
0.0
 10
1838.745408606376
 20
1117.455695802306
 10
1838.493417909561
 20
1117.404049241426
 10
1838.207763085106
 20
1117.410100300998
 10
1837.904795921851
 20
1117.477083454124
 10
1837.591284205582
 20
1117.603502407853
 10
1837.27423126998
 20
1117.786533171656
 10
1836.960719553712
 20
1118.022087140722
 10
1836.657752390456
 20
1118.30490242862
 10
1836.372097566001
 20
1118.62866140916
 10
1836.110136137097
 20
1118.98613184171
 10
1835.877719889184
 20
1119.369328427509
 10
1835.680040617187
 20
1119.769691188045
 10
1835.521514149386
 20
1120.178276680826
 10
1835.405681705115
 20
1120.585957781111
 10
1835.335130789771
 20
1120.983627566792
 10
1835.311437394221
 20
1121.362402751986
 10
1835.335130789771
 20
1121.713822124964
 10
1835.405681705115
 20
1122.030035557637
 10
1835.521514149386
 20
1122.303979364444
 10
1835.680040617187
 20
1122.529534093422
 10
1835.766553478593
 20
1122.615783338243
  0
LINE
  5
A7F
330
9C9
100
AcDbEntity
  8
0
  6
Continuous
 62
     7
370
    15
100
AcDbLine
 10
1839.448962669153
 20
1128.077218216226
 30
0.0
 11
1839.449078699901
 21
1129.05818710295
 31
0.0
  0
LINE
  5
A80
330
9C9
100
AcDbEntity
  8
0
  6
Continuous
 62
     7
370
    15
100
AcDbLine
 10
1840.440288443048
 20
1128.813542199205
 30
0.0
 11
1840.440384883663
 21
1129.62888850588
 31
0.0
  0
ELLIPSE
  5
A81
330
9C9
100
AcDbEntity
  8
0
  6
Continuous
 62
     7
370
    15
100
AcDbEllipse
 10
1833.861868492789
 20
1122.444894575468
 30
0.0
 11
2.004507383346677
 21
46.38075764019958
 31
0.0
210
0.0
220
0.0
230
1.0
 40
0.0451846437372546
 41
1.338786279212372
 42
1.359827043809333
  0
LWPOLYLINE
  5
A82
330
9C9
100
AcDbEntity
  8
0
  6
Continuous
 62
     7
370
    15
100
AcDbPolyline
 90
       19
 70
   128
 43
0.0
 10
1835.440509997028
 20
1130.3888592722
 10
1835.055611055507
 20
1130.267490621359
 10
1834.643409642976
 20
1130.181017205889
 10
1834.213333350835
 20
1130.131416787155
 10
1833.775218592614
 20
1130.119823792323
 10
1833.339085632196
 20
1130.146503368517
 10
1832.914909407125
 20
1130.210845318548
 10
1832.512391388598
 20
1130.311378056932
 10
1832.140737695986
 20
1130.445802267
 10
1831.808448540712
 20
1130.611043489305
 10
1831.523123815176
 20
1130.803322438579
 10
1831.291289273163
 20
1131.018241440982
 10
1831.118247277224
 20
1131.250885014723
 10
1831.007955526638
 20
1131.495932293622
 10
1830.962936539589
 20
1131.747778722362
 10
1830.984219959844
 20
1132.000664240078
 10
1831.071319007437
 20
1132.248805020563
 10
1831.22224161197
 20
1132.486525756029
 10
1831.433535973898
 20
1132.708389458895
  0
ELLIPSE
  5
A83
330
9C9
100
AcDbEntity
  8
0
  6
Continuous
 62
     7
370
    15
100
AcDbEllipse
 10
1833.861868492789
 20
1122.444894575468
 30
0.0
 11
-2.112133331130991
 21
44.01722223807209
 31
0.0
210
0.0
220
0.0
230
1.0
 40
0.0451455594504188
 41
4.869574965664541
 42
4.891690632847522
  0
ARC
  5
A84
330
9C9
100
AcDbEntity
  8
0
  6
Continuous
 62
     7
370
    15
100
AcDbCircle
 10
1834.530862915851
 20
1131.981888534267
 30
0.0
 40
2.72802697168238
100
AcDbArc
 50
290.6723393354054
 51
309.1862876397363
  0
ELLIPSE
  5
A85
330
9C9
100
AcDbEntity
  8
0
  6
Continuous
 62
     7
370
    15
100
AcDbEllipse
 10
1833.861868492789
 20
1122.444894575468
 30
0.0
 11
2.004507383346677
 21
46.38075764019958
 31
0.0
210
0.0
220
0.0
230
1.0
 40
0.0451846437372546
 41
4.875066878802689
 42
4.897182545985672
  0
LWPOLYLINE
  5
A86
330
9C9
100
AcDbEntity
  8
0
  6
Continuous
 62
     7
370
    15
100
AcDbPolyline
 90
       19
 70
   128
 43
0.0
 10
1832.28322698855
 20
1133.197562089978
 10
1832.668125930072
 20
1133.318930740818
 10
1833.080327342602
 20
1133.405404156288
 10
1833.510403634744
 20
1133.455004575023
 10
1833.948518392964
 20
1133.466597569854
 10
1834.384651353383
 20
1133.43991799366
 10
1834.808827578453
 20
1133.37557604363
 10
1835.211345596981
 20
1133.275043305245
 10
1835.582999289593
 20
1133.140619095177
 10
1835.915288444866
 20
1132.975377872872
 10
1836.200613170402
 20
1132.783098923599
 10
1836.432447712416
 20
1132.568179921195
 10
1836.605489708355
 20
1132.335536347455
 10
1836.715781458941
 20
1132.090489068555
 10
1836.76080044599
 20
1131.838642639815
 10
1836.739517025734
 20
1131.5857571221
 10
1836.652417978141
 20
1131.337616341614
 10
1836.501495373608
 20
1131.099895606148
 10
1836.29020101168
 20
1130.878031903283
  0
LINE
  5
A87
330
9C9
100
AcDbEntity
  8
0
  6
Continuous
 62
     7
370
    15
100
AcDbLine
 10
1833.083954791994
 20
1131.753006107976
 30
0.0
 11
1831.433535973898
 21
1132.708389458895
 31
0.0
  0
LINE
  5
A88
330
9C9
100
AcDbEntity
  8
0
  6
Continuous
 62
     7
370
    15
100
AcDbLine
 10
1833.083954791994
 20
1131.753006107976
 30
0.0
 11
1832.092648608233
 21
1131.182304705046
 31
0.0
  0
LINE
  5
A89
330
9C9
100
AcDbEntity
  8
0
  6
Continuous
 62
     7
370
    15
100
AcDbLine
 10
1832.092648608233
 20
1131.182304705046
 30
0.0
 11
1832.798784995171
 21
1130.773541220189
 31
0.0
  0
LINE
  5
A8A
330
9C9
100
AcDbEntity
  8
0
  6
Continuous
 62
     7
370
    15
100
AcDbLine
 10
1832.798784995171
 20
1130.773541220189
 30
0.0
 11
1833.790091178932
 21
1131.344242623119
 31
0.0
  0
LINE
  5
A8B
330
9C9
100
AcDbEntity
  8
0
  6
Continuous
 62
     7
370
    15
100
AcDbLine
 10
1835.440509997028
 20
1130.3888592722
 30
0.0
 11
1833.790091178932
 21
1131.344242623119
 31
0.0
  0
LINE
  5
A8C
330
9C9
100
AcDbEntity
  8
0
  6
Continuous
 62
     7
370
    15
100
AcDbLine
 10
1833.746588908368
 20
1131.319198083654
 30
0.0
 11
1833.088766241492
 21
1131.699994047017
 31
0.0
  0
LINE
  5
A8D
330
9C9
100
AcDbEntity
  8
0
  6
Continuous
 62
     7
370
    15
100
AcDbLine
 10
1834.619109903517
 20
1131.605682798159
 30
0.0
 11
1833.977026105948
 21
1131.236030989188
 31
0.0
  0
LINE
  5
A8E
330
9C9
100
AcDbEntity
  8
0
  6
Continuous
 62
     7
370
    15
100
AcDbLine
 10
1836.254549899601
 20
1129.867406484148
 30
0.0
 11
1835.443425562808
 21
1130.336944687663
 31
0.0
  0
LINE
  5
A8F
330
9C9
100
AcDbEntity
  8
0
  6
Continuous
 62
     7
370
    15
100
AcDbLine
 10
1834.639782193584
 20
1131.833415254202
 30
0.0
 11
1834.555175023519
 21
1130.901356030236
 31
0.0
  0
LINE
  5
A90
330
9C9
100
AcDbEntity
  8
0
  6
Continuous
 62
     7
370
    15
100
AcDbLine
 10
1834.639782193584
 20
1131.833415254202
 30
0.0
 11
1836.29020101168
 21
1130.878031903283
 31
0.0
  0
LINE
  5
A91
330
9C9
100
AcDbEntity
  8
0
  6
Continuous
 62
     7
370
    15
100
AcDbLine
 10
1834.924951990408
 20
1132.812880141989
 30
0.0
 11
1833.933645806646
 21
1132.242178739059
 31
0.0
  0
LINE
  5
A92
330
9C9
100
AcDbEntity
  8
0
  6
Continuous
 62
     7
370
    15
100
AcDbLine
 10
1832.28322698855
 20
1133.197562089978
 30
0.0
 11
1833.933645806646
 21
1132.242178739059
 31
0.0
  0
LINE
  5
A93
330
9C9
100
AcDbEntity
  8
0
  6
Continuous
 62
     7
370
    15
100
AcDbLine
 10
1834.639782193584
 20
1131.833415254202
 30
0.0
 11
1835.631088377345
 21
1132.404116657132
 31
0.0
  0
LINE
  5
A94
330
9C9
100
AcDbEntity
  8
0
  6
Continuous
 62
     7
370
    15
100
AcDbLine
 10
1835.631088377345
 20
1132.404116657132
 30
0.0
 11
1834.924951990408
 21
1132.812880141989
 31
0.0
  0
LINE
  5
A95
330
9C9
100
AcDbEntity
  8
0
  6
Continuous
 62
     7
370
    15
100
AcDbLine
 10
1833.083954791994
 20
1131.753006107976
 30
0.0
 11
1833.154277250295
 21
1130.97820041838
 31
0.0
  0
LWPOLYLINE
  5
A96
330
9C9
100
AcDbEntity
  8
0
  6
Continuous
 62
     7
370
    15
100
AcDbPolyline
 90
       21
 70
   128
 43
0.0
 10
1833.229975713121
 20
1120.639687438414
 10
1832.977985016306
 20
1120.588040877534
 10
1832.692330191851
 20
1120.594091937106
 10
1832.389363028596
 20
1120.661075090233
 10
1832.075851312327
 20
1120.787494043961
 10
1831.758798376725
 20
1120.970524807765
 10
1831.445286660457
 20
1121.20607877683
 10
1831.142319497201
 20
1121.488894064729
 10
1830.856664672747
 20
1121.812653045268
 10
1830.594703243841
 20
1122.170123477818
 10
1830.362286995929
 20
1122.553320063618
 10
1830.164607723932
 20
1122.953682824153
 10
1830.006081256131
 20
1123.362268316935
 10
1829.89024881186
 20
1123.769949417219
 10
1829.819697896516
 20
1124.1676192029
 10
1829.796004500966
 20
1124.546394388095
 10
1829.819697896516
 20
1124.897813761073
 10
1829.89024881186
 20
1125.214027193745
 10
1830.006081256131
 20
1125.487971000553
 10
1830.164607723932
 20
1125.71352572953
 10
1830.251120585338
 20
1125.799774974352
  0
LINE
  5
A97
330
9C9
100
AcDbEntity
  8
0
  6
Continuous
 62
     7
370
    15
100
AcDbLine
 10
1833.933529775898
 20
1131.261209852335
 30
0.0
 11
1833.933645806646
 21
1132.242178739059
 31
0.0
  0
LINE
  5
A98
330
9C9
100
AcDbEntity
  8
0
  6
Continuous
 62
     7
370
    15
100
AcDbLine
 10
1834.924855549793
 20
1131.997533835314
 30
0.0
 11
1834.924951990408
 21
1132.812880141989
 31
0.0
  0
ELLIPSE
  5
A99
330
9C9
100
AcDbEntity
  8
0
  6
Continuous
 62
     7
370
    15
100
AcDbEllipse
 10
1828.346435599534
 20
1125.628886211577
 30
0.0
 11
2.00450738334667
 21
46.38075764019956
 31
0.0
210
0.0
220
0.0
230
1.0
 40
0.0451846437372544
 41
1.338786279212373
 42
1.359827043809334
  0
LWPOLYLINE
  5
A9A
330
9C9
100
AcDbEntity
  8
0
  6
Continuous
 62
     7
370
    15
100
AcDbPolyline
 90
       19
 70
   128
 43
0.0
 10
1829.925077103773
 20
1133.572850908309
 10
1829.540178162251
 20
1133.451482257468
 10
1829.127976749721
 20
1133.365008841998
 10
1828.69790045758
 20
1133.315408423263
 10
1828.259785699359
 20
1133.303815428432
 10
1827.823652738941
 20
1133.330495004626
 10
1827.39947651387
 20
1133.394836954656
 10
1826.996958495343
 20
1133.495369693041
 10
1826.625304802731
 20
1133.629793903109
 10
1826.293015647458
 20
1133.795035125414
 10
1826.007690921921
 20
1133.987314074687
 10
1825.775856379907
 20
1134.202233077091
 10
1825.602814383969
 20
1134.434876650831
 10
1825.492522633382
 20
1134.679923929731
 10
1825.447503646334
 20
1134.931770358471
 10
1825.468787066589
 20
1135.184655876186
 10
1825.555886114182
 20
1135.432796656672
 10
1825.706808718715
 20
1135.670517392138
 10
1825.918103080643
 20
1135.892381095003
  0
ELLIPSE
  5
A9B
330
9C9
100
AcDbEntity
  8
0
  6
Continuous
 62
     7
370
    15
100
AcDbEllipse
 10
1828.346435599534
 20
1125.628886211577
 30
0.0
 11
-2.112133331131005
 21
44.01722223807204
 31
0.0
210
0.0
220
0.0
230
1.0
 40
0.0451455594504188
 41
4.869574965664542
 42
4.89169063284752
  0
ARC
  5
A9C
330
9C9
100
AcDbEntity
  8
0
  6
Continuous
 62
     7
370
    15
100
AcDbCircle
 10
1829.015430022595
 20
1135.165880170378
 30
0.0
 40
2.72802697168428
100
AcDbArc
 50
290.6723393354223
 51
309.1862876397363
  0
ELLIPSE
  5
A9D
330
9C9
100
AcDbEntity
  8
0
  6
Continuous
 62
     7
370
    15
100
AcDbEllipse
 10
1828.346435599534
 20
1125.628886211577
 30
0.0
 11
2.00450738334667
 21
46.38075764019956
 31
0.0
210
0.0
220
0.0
230
1.0
 40
0.0451846437372544
 41
4.875066878802688
 42
4.897182545985672
  0
LWPOLYLINE
  5
A9E
330
9C9
100
AcDbEntity
  8
0
  6
Continuous
 62
     7
370
    15
100
AcDbPolyline
 90
       19
 70
   128
 43
0.0
 10
1826.767794095296
 20
1136.381553726086
 10
1827.152693036817
 20
1136.502922376927
 10
1827.564894449347
 20
1136.589395792396
 10
1827.994970741489
 20
1136.638996211131
 10
1828.433085499709
 20
1136.650589205963
 10
1828.869218460128
 20
1136.623909629769
 10
1829.293394685198
 20
1136.559567679738
 10
1829.695912703726
 20
1136.459034941354
 10
1830.067566396337
 20
1136.324610731286
 10
1830.399855551611
 20
1136.159369508981
 10
1830.685180277147
 20
1135.967090559707
 10
1830.917014819161
 20
1135.752171557304
 10
1831.090056815099
 20
1135.519527983563
 10
1831.200348565686
 20
1135.274480704664
 10
1831.245367552735
 20
1135.022634275924
 10
1831.22408413248
 20
1134.769748758208
 10
1831.136985084886
 20
1134.521607977723
 10
1830.986062480353
 20
1134.283887242257
 10
1830.774768118425
 20
1134.062023539391
  0
LINE
  5
A9F
330
9C9
100
AcDbEntity
  8
0
  6
Continuous
 62
     7
370
    15
100
AcDbLine
 10
1827.568521898739
 20
1134.936997744085
 30
0.0
 11
1825.918103080643
 21
1135.892381095003
 31
0.0
  0
LINE
  5
AA0
330
9C9
100
AcDbEntity
  8
0
  6
Continuous
 62
     7
370
    15
100
AcDbLine
 10
1827.568521898739
 20
1134.936997744085
 30
0.0
 11
1826.577215714978
 21
1134.366296341154
 31
0.0
  0
LINE
  5
AA1
330
9C9
100
AcDbEntity
  8
0
  6
Continuous
 62
     7
370
    15
100
AcDbLine
 10
1826.577215714978
 20
1134.366296341154
 30
0.0
 11
1827.283352101916
 21
1133.957532856298
 31
0.0
  0
LINE
  5
AA2
330
9C9
100
AcDbEntity
  8
0
  6
Continuous
 62
     7
370
    15
100
AcDbLine
 10
1827.283352101916
 20
1133.957532856298
 30
0.0
 11
1828.274658285677
 21
1134.528234259227
 31
0.0
  0
LINE
  5
AA3
330
9C9
100
AcDbEntity
  8
0
  6
Continuous
 62
     7
370
    15
100
AcDbLine
 10
1829.925077103773
 20
1133.572850908309
 30
0.0
 11
1828.274658285677
 21
1134.528234259227
 31
0.0
  0
LINE
  5
AA4
330
9C9
100
AcDbEntity
  8
0
  6
Continuous
 62
     7
370
    15
100
AcDbLine
 10
1828.231156015113
 20
1134.503189719762
 30
0.0
 11
1827.573333348237
 21
1134.883985683126
 31
0.0
  0
LINE
  5
AA5
330
9C9
100
AcDbEntity
  8
0
  6
Continuous
 62
     7
370
    15
100
AcDbLine
 10
1829.103677010262
 20
1134.789674434267
 30
0.0
 11
1828.461593212693
 21
1134.420022625296
 31
0.0
  0
LINE
  5
AA6
330
9C9
100
AcDbEntity
  8
0
  6
Continuous
 62
     7
370
    15
100
AcDbLine
 10
1830.739117006346
 20
1133.051398120256
 30
0.0
 11
1829.927992669553
 21
1133.520936323772
 31
0.0
  0
LINE
  5
AA7
330
9C9
100
AcDbEntity
  8
0
  6
Continuous
 62
     7
370
    15
100
AcDbLine
 10
1829.124349300329
 20
1135.01740689031
 30
0.0
 11
1829.039742130264
 21
1134.085347666345
 31
0.0
  0
LINE
  5
AA8
330
9C9
100
AcDbEntity
  8
0
  6
Continuous
 62
     7
370
    15
100
AcDbLine
 10
1829.124349300329
 20
1135.01740689031
 30
0.0
 11
1830.774768118425
 21
1134.062023539391
 31
0.0
  0
LINE
  5
AA9
330
9C9
100
AcDbEntity
  8
0
  6
Continuous
 62
     7
370
    15
100
AcDbLine
 10
1829.409519097153
 20
1135.996871778097
 30
0.0
 11
1828.418212913392
 21
1135.426170375167
 31
0.0
  0
LINE
  5
AAA
330
9C9
100
AcDbEntity
  8
0
  6
Continuous
 62
     7
370
    15
100
AcDbLine
 10
1826.767794095296
 20
1136.381553726086
 30
0.0
 11
1828.418212913392
 21
1135.426170375167
 31
0.0
  0
LINE
  5
AAB
330
9C9
100
AcDbEntity
  8
0
  6
Continuous
 62
     7
370
    15
100
AcDbLine
 10
1829.124349300329
 20
1135.01740689031
 30
0.0
 11
1830.115655484091
 21
1135.58810829324
 31
0.0
  0
LINE
  5
AAC
330
9C9
100
AcDbEntity
  8
0
  6
Continuous
 62
     7
370
    15
100
AcDbLine
 10
1830.115655484091
 20
1135.58810829324
 30
0.0
 11
1829.409519097153
 21
1135.996871778097
 31
0.0
  0
LINE
  5
AAD
330
9C9
100
AcDbEntity
  8
0
  6
Continuous
 62
     7
370
    15
100
AcDbLine
 10
1827.568521898739
 20
1134.936997744085
 30
0.0
 11
1827.638844357039
 21
1134.162192054488
 31
0.0
  0
LWPOLYLINE
  5
AAE
330
9C9
100
AcDbEntity
  8
0
  6
Continuous
 62
     7
370
    15
100
AcDbPolyline
 90
       21
 70
   128
 43
0.0
 10
1827.714542819866
 20
1123.823679074523
 10
1827.462552123051
 20
1123.772032513643
 10
1827.176897298597
 20
1123.778083573214
 10
1826.87393013534
 20
1123.845066726342
 10
1826.560418419072
 20
1123.97148568007
 10
1826.24336548347
 20
1124.154516443873
 10
1825.929853767202
 20
1124.390070412939
 10
1825.626886603946
 20
1124.672885700837
 10
1825.341231779491
 20
1124.996644681377
 10
1825.079270350586
 20
1125.354115113927
 10
1824.846854102674
 20
1125.737311699726
 10
1824.649174830677
 20
1126.137674460262
 10
1824.490648362876
 20
1126.546259953043
 10
1824.374815918605
 20
1126.953941053328
 10
1824.304265003261
 20
1127.351610839009
 10
1824.280571607712
 20
1127.730386024203
 10
1824.304265003261
 20
1128.081805397181
 10
1824.374815918605
 20
1128.398018829854
 10
1824.490648362876
 20
1128.671962636661
 10
1824.649174830677
 20
1128.897517365639
 10
1824.735687692083
 20
1128.98376661046
  0
LINE
  5
AAF
330
9C9
100
AcDbEntity
  8
0
  6
Continuous
 62
     7
370
    15
100
AcDbLine
 10
1828.418096882643
 20
1134.445201488444
 30
0.0
 11
1828.418212913392
 21
1135.426170375167
 31
0.0
  0
LINE
  5
AB0
330
9C9
100
AcDbEntity
  8
0
  6
Continuous
 62
     7
370
    15
100
AcDbLine
 10
1829.409422656538
 20
1135.181525471422
 30
0.0
 11
1829.409519097153
 21
1135.996871778097
 31
0.0
  0
ELLIPSE
  5
AB1
330
9C9
100
AcDbEntity
  8
0
  6
Continuous
 62
     7
370
    15
100
AcDbEllipse
 10
1822.831002706279
 20
1128.812877847686
 30
0.0
 11
2.004507383346677
 21
46.38075764019958
 31
0.0
210
0.0
220
0.0
230
1.0
 40
0.0451846437372545
 41
1.338786279212374
 42
1.359827043809335
  0
LWPOLYLINE
  5
AB2
330
9C9
100
AcDbEntity
  8
0
  6
Continuous
 62
     7
370
    15
100
AcDbPolyline
 90
       19
 70
   128
 43
0.0
 10
1824.409644210518
 20
1136.756842544417
 10
1824.024745268996
 20
1136.635473893576
 10
1823.612543856466
 20
1136.549000478106
 10
1823.182467564325
 20
1136.499400059372
 10
1822.744352806104
 20
1136.487807064541
 10
1822.308219845686
 20
1136.514486640734
 10
1821.884043620615
 20
1136.578828590765
 10
1821.481525602088
 20
1136.679361329149
 10
1821.109871909476
 20
1136.813785539218
 10
1820.777582754202
 20
1136.979026761522
 10
1820.492258028666
 20
1137.171305710796
 10
1820.260423486653
 20
1137.3862247132
 10
1820.087381490713
 20
1137.61886828694
 10
1819.977089740127
 20
1137.863915565839
 10
1819.932070753078
 20
1138.11576199458
 10
1819.953354173334
 20
1138.368647512295
 10
1820.040453220927
 20
1138.616788292781
 10
1820.19137582546
 20
1138.854509028246
 10
1820.402670187388
 20
1139.076372731112
  0
ELLIPSE
  5
AB3
330
9C9
100
AcDbEntity
  8
0
  6
Continuous
 62
     7
370
    15
100
AcDbEllipse
 10
1822.831002706279
 20
1128.812877847686
 30
0.0
 11
-2.112133331131005
 21
44.01722223807209
 31
0.0
210
0.0
220
0.0
230
1.0
 40
0.0451455594504191
 41
4.869574965664544
 42
4.891690632847524
  0
ARC
  5
AB4
330
9C9
100
AcDbEntity
  8
0
  6
Continuous
 62
     7
370
    15
100
AcDbCircle
 10
1823.499997129342
 20
1138.349871806483
 30
0.0
 40
2.728026971680582
100
AcDbArc
 50
290.6723393354054
 51
309.1862876397464
  0
ELLIPSE
  5
AB5
330
9C9
100
AcDbEntity
  8
0
  6
Continuous
 62
     7
370
    15
100
AcDbEllipse
 10
1822.831002706279
 20
1128.812877847686
 30
0.0
 11
2.004507383346677
 21
46.38075764019958
 31
0.0
210
0.0
220
0.0
230
1.0
 40
0.0451846437372545
 41
4.87506687880269
 42
4.897182545985673
  0
LWPOLYLINE
  5
AB6
330
9C9
100
AcDbEntity
  8
0
  6
Continuous
 62
     7
370
    15
100
AcDbPolyline
 90
       19
 70
   128
 43
0.0
 10
1821.252361202041
 20
1139.565545362195
 10
1821.637260143562
 20
1139.686914013036
 10
1822.049461556092
 20
1139.773387428505
 10
1822.479537848234
 20
1139.82298784724
 10
1822.917652606454
 20
1139.834580842071
 10
1823.353785566872
 20
1139.807901265878
 10
1823.777961791943
 20
1139.743559315847
 10
1824.18047981047
 20
1139.643026577462
 10
1824.552133503082
 20
1139.508602367394
 10
1824.884422658356
 20
1139.34336114509
 10
1825.169747383892
 20
1139.151082195816
 10
1825.401581925906
 20
1138.936163193412
 10
1825.574623921844
 20
1138.703519619672
 10
1825.684915672431
 20
1138.458472340773
 10
1825.72993465948
 20
1138.206625912032
 10
1825.708651239224
 20
1137.953740394317
 10
1825.621552191631
 20
1137.705599613831
 10
1825.470629587098
 20
1137.467878878365
 10
1825.25933522517
 20
1137.2460151755
  0
LINE
  5
AB7
330
9C9
100
AcDbEntity
  8
0
  6
Continuous
 62
     7
370
    15
100
AcDbLine
 10
1822.053089005484
 20
1138.120989380193
 30
0.0
 11
1820.402670187388
 21
1139.076372731112
 31
0.0
  0
LINE
  5
AB8
330
9C9
100
AcDbEntity
  8
0
  6
Continuous
 62
     7
370
    15
100
AcDbLine
 10
1822.053089005484
 20
1138.120989380193
 30
0.0
 11
1821.061782821723
 21
1137.550287977263
 31
0.0
  0
LINE
  5
AB9
330
9C9
100
AcDbEntity
  8
0
  6
Continuous
 62
     7
370
    15
100
AcDbLine
 10
1821.061782821723
 20
1137.550287977263
 30
0.0
 11
1821.76791920866
 21
1137.141524492406
 31
0.0
  0
LINE
  5
ABA
330
9C9
100
AcDbEntity
  8
0
  6
Continuous
 62
     7
370
    15
100
AcDbLine
 10
1821.76791920866
 20
1137.141524492406
 30
0.0
 11
1822.759225392422
 21
1137.712225895336
 31
0.0
  0
LINE
  5
ABB
330
9C9
100
AcDbEntity
  8
0
  6
Continuous
 62
     7
370
    15
100
AcDbLine
 10
1824.409644210518
 20
1136.756842544417
 30
0.0
 11
1822.759225392422
 21
1137.712225895336
 31
0.0
  0
LINE
  5
ABC
330
9C9
100
AcDbEntity
  8
0
  6
Continuous
 62
     7
370
    15
100
AcDbLine
 10
1822.715723121858
 20
1137.687181355871
 30
0.0
 11
1822.057900454982
 21
1138.067977319234
 31
0.0
  0
LINE
  5
ABD
330
9C9
100
AcDbEntity
  8
0
  6
Continuous
 62
     7
370
    15
100
AcDbLine
 10
1823.588244117007
 20
1137.973666070376
 30
0.0
 11
1822.946160319438
 21
1137.604014261405
 31
0.0
  0
LINE
  5
ABE
330
9C9
100
AcDbEntity
  8
0
  6
Continuous
 62
     7
370
    15
100
AcDbLine
 10
1825.223684113091
 20
1136.235389756365
 30
0.0
 11
1824.412559776298
 21
1136.704927959881
 31
0.0
  0
LINE
  5
ABF
330
9C9
100
AcDbEntity
  8
0
  6
Continuous
 62
     7
370
    15
100
AcDbLine
 10
1823.608916407074
 20
1138.201398526419
 30
0.0
 11
1823.524309237009
 21
1137.269339302453
 31
0.0
  0
LINE
  5
AC0
330
9C9
100
AcDbEntity
  8
0
  6
Continuous
 62
     7
370
    15
100
AcDbLine
 10
1823.608916407074
 20
1138.201398526419
 30
0.0
 11
1825.25933522517
 21
1137.2460151755
 31
0.0
  0
LINE
  5
AC1
330
9C9
100
AcDbEntity
  8
0
  6
Continuous
 62
     7
370
    15
100
AcDbLine
 10
1823.894086203898
 20
1139.180863414206
 30
0.0
 11
1822.902780020136
 21
1138.610162011276
 31
0.0
  0
LINE
  5
AC2
330
9C9
100
AcDbEntity
  8
0
  6
Continuous
 62
     7
370
    15
100
AcDbLine
 10
1821.252361202041
 20
1139.565545362195
 30
0.0
 11
1822.902780020136
 21
1138.610162011276
 31
0.0
  0
LINE
  5
AC3
330
9C9
100
AcDbEntity
  8
0
  6
Continuous
 62
     7
370
    15
100
AcDbLine
 10
1823.608916407074
 20
1138.201398526419
 30
0.0
 11
1824.600222590835
 21
1138.772099929349
 31
0.0
  0
LINE
  5
AC4
330
9C9
100
AcDbEntity
  8
0
  6
Continuous
 62
     7
370
    15
100
AcDbLine
 10
1824.600222590835
 20
1138.772099929349
 30
0.0
 11
1823.894086203898
 21
1139.180863414206
 31
0.0
  0
LINE
  5
AC5
330
9C9
100
AcDbEntity
  8
0
  6
Continuous
 62
     7
370
    15
100
AcDbLine
 10
1822.053089005484
 20
1138.120989380193
 30
0.0
 11
1822.123411463785
 21
1137.346183690597
 31
0.0
  0
LWPOLYLINE
  5
AC6
330
9C9
100
AcDbEntity
  8
0
  6
Continuous
 62
     7
370
    15
100
AcDbPolyline
 90
       21
 70
   128
 43
0.0
 10
1822.199109926611
 20
1127.007670710631
 10
1821.947119229796
 20
1126.956024149751
 10
1821.661464405341
 20
1126.962075209323
 10
1821.358497242085
 20
1127.02905836245
 10
1821.044985525817
 20
1127.155477316178
 10
1820.727932590215
 20
1127.338508079982
 10
1820.414420873946
 20
1127.574062049047
 10
1820.111453710691
 20
1127.856877336946
 10
1819.825798886236
 20
1128.180636317485
 10
1819.563837457331
 20
1128.538106750035
 10
1819.331421209419
 20
1128.921303335835
 10
1819.133741937422
 20
1129.32166609637
 10
1818.97521546962
 20
1129.730251589152
 10
1818.859383025349
 20
1130.137932689436
 10
1818.788832110006
 20
1130.535602475117
 10
1818.765138714456
 20
1130.914377660312
 10
1818.788832110006
 20
1131.26579703329
 10
1818.85938302535
 20
1131.582010465962
 10
1818.97521546962
 20
1131.85595427277
 10
1819.133741937422
 20
1132.081509001747
 10
1819.220254798828
 20
1132.167758246569
  0
LINE
  5
AC7
330
9C9
100
AcDbEntity
  8
0
  6
Continuous
 62
     7
370
    15
100
AcDbLine
 10
1822.902663989388
 20
1137.629193124552
 30
0.0
 11
1822.902780020136
 21
1138.610162011276
 31
0.0
  0
LINE
  5
AC8
330
9C9
100
AcDbEntity
  8
0
  6
Continuous
 62
     7
370
    15
100
AcDbLine
 10
1823.893989763283
 20
1138.365517107531
 30
0.0
 11
1823.894086203898
 21
1139.180863414206
 31
0.0
  0
ELLIPSE
  5
AC9
330
9C9
100
AcDbEntity
  8
0
  6
Continuous
 62
     7
370
    15
100
AcDbEllipse
 10
1817.315569813024
 20
1131.996869483794
 30
0.0
 11
2.004507383346677
 21
46.38075764019963
 31
0.0
210
0.0
220
0.0
230
1.0
 40
0.0451846437372544
 41
1.338786279212374
 42
1.359827043809334
  0
LWPOLYLINE
  5
ACA
330
9C9
100
AcDbEntity
  8
0
  6
Continuous
 62
     7
370
    15
100
AcDbPolyline
 90
       19
 70
   128
 43
0.0
 10
1818.894211317262
 20
1139.940834180526
 10
1818.509312375741
 20
1139.819465529685
 10
1818.097110963211
 20
1139.732992114215
 10
1817.667034671069
 20
1139.683391695481
 10
1817.228919912849
 20
1139.671798700649
 10
1816.792786952431
 20
1139.698478276843
 10
1816.36861072736
 20
1139.762820226874
 10
1815.966092708833
 20
1139.863352965258
 10
1815.594439016221
 20
1139.997777175326
 10
1815.262149860947
 20
1140.163018397631
 10
1814.976825135411
 20
1140.355297346904
 10
1814.744990593397
 20
1140.570216349308
 10
1814.571948597459
 20
1140.802859923049
 10
1814.461656846872
 20
1141.047907201948
 10
1814.416637859823
 20
1141.299753630688
 10
1814.437921280079
 20
1141.552639148403
 10
1814.525020327672
 20
1141.800779928889
 10
1814.675942932205
 20
1142.038500664355
 10
1814.887237294133
 20
1142.26036436722
  0
ELLIPSE
  5
ACB
330
9C9
100
AcDbEntity
  8
0
  6
Continuous
 62
     7
370
    15
100
AcDbEllipse
 10
1817.315569813024
 20
1131.996869483794
 30
0.0
 11
-2.112133331131005
 21
44.01722223807209
 31
0.0
210
0.0
220
0.0
230
1.0
 40
0.0451455594504191
 41
4.869574965664543
 42
4.891690632847524
  0
ARC
  5
ACC
330
9C9
100
AcDbEntity
  8
0
  6
Continuous
 62
     7
370
    15
100
AcDbCircle
 10
1817.984564236087
 20
1141.533863442592
 30
0.0
 40
2.728026971681049
100
AcDbArc
 50
290.6723393354054
 51
309.1862876397464
  0
ELLIPSE
  5
ACD
330
9C9
100
AcDbEntity
  8
0
  6
Continuous
 62
     7
370
    15
100
AcDbEllipse
 10
1817.315569813024
 20
1131.996869483794
 30
0.0
 11
2.004507383346677
 21
46.38075764019963
 31
0.0
210
0.0
220
0.0
230
1.0
 40
0.0451846437372544
 41
4.875066878802691
 42
4.897182545985673
  0
LWPOLYLINE
  5
ACE
330
9C9
100
AcDbEntity
  8
0
  6
Continuous
 62
     7
370
    15
100
AcDbPolyline
 90
       19
 70
   128
 43
0.0
 10
1815.736928308785
 20
1142.749536998303
 10
1816.121827250307
 20
1142.870905649144
 10
1816.534028662837
 20
1142.957379064614
 10
1816.964104954979
 20
1143.006979483348
 10
1817.402219713199
 20
1143.01857247818
 10
1817.838352673618
 20
1142.991892901986
 10
1818.262528898688
 20
1142.927550951956
 10
1818.665046917215
 20
1142.827018213571
 10
1819.036700609827
 20
1142.692594003503
 10
1819.368989765101
 20
1142.527352781198
 10
1819.654314490637
 20
1142.335073831924
 10
1819.886149032651
 20
1142.120154829521
 10
1820.05919102859
 20
1141.887511255781
 10
1820.169482779176
 20
1141.642463976881
 10
1820.214501766225
 20
1141.390617548141
 10
1820.193218345969
 20
1141.137732030426
 10
1820.106119298376
 20
1140.88959124994
 10
1819.955196693843
 20
1140.651870514474
 10
1819.743902331915
 20
1140.430006811609
  0
LINE
  5
ACF
330
9C9
100
AcDbEntity
  8
0
  6
Continuous
 62
     7
370
    15
100
AcDbLine
 10
1816.537656112229
 20
1141.304981016302
 30
0.0
 11
1814.887237294133
 21
1142.26036436722
 31
0.0
  0
LINE
  5
AD0
330
9C9
100
AcDbEntity
  8
0
  6
Continuous
 62
     7
370
    15
100
AcDbLine
 10
1816.537656112229
 20
1141.304981016302
 30
0.0
 11
1815.546349928468
 21
1140.734279613372
 31
0.0
  0
LINE
  5
AD1
330
9C9
100
AcDbEntity
  8
0
  6
Continuous
 62
     7
370
    15
100
AcDbLine
 10
1815.546349928468
 20
1140.734279613372
 30
0.0
 11
1816.252486315406
 21
1140.325516128515
 31
0.0
  0
LINE
  5
AD2
330
9C9
100
AcDbEntity
  8
0
  6
Continuous
 62
     7
370
    15
100
AcDbLine
 10
1816.252486315406
 20
1140.325516128515
 30
0.0
 11
1817.243792499167
 21
1140.896217531444
 31
0.0
  0
LINE
  5
AD3
330
9C9
100
AcDbEntity
  8
0
  6
Continuous
 62
     7
370
    15
100
AcDbLine
 10
1818.894211317262
 20
1139.940834180526
 30
0.0
 11
1817.243792499167
 21
1140.896217531444
 31
0.0
  0
LINE
  5
AD4
330
9C9
100
AcDbEntity
  8
0
  6
Continuous
 62
     7
370
    15
100
AcDbLine
 10
1817.200290228603
 20
1140.871172991979
 30
0.0
 11
1816.542467561727
 21
1141.251968955343
 31
0.0
  0
LINE
  5
AD5
330
9C9
100
AcDbEntity
  8
0
  6
Continuous
 62
     7
370
    15
100
AcDbLine
 10
1818.072811223752
 20
1141.157657706484
 30
0.0
 11
1817.430727426183
 21
1140.788005897514
 31
0.0
  0
LINE
  5
AD6
330
9C9
100
AcDbEntity
  8
0
  6
Continuous
 62
     7
370
    15
100
AcDbLine
 10
1819.708251219836
 20
1139.419381392474
 30
0.0
 11
1818.897126883043
 21
1139.888919595989
 31
0.0
  0
LINE
  5
AD7
330
9C9
100
AcDbEntity
  8
0
  6
Continuous
 62
     7
370
    15
100
AcDbLine
 10
1818.093483513819
 20
1141.385390162527
 30
0.0
 11
1818.008876343754
 21
1140.453330938562
 31
0.0
  0
LINE
  5
AD8
330
9C9
100
AcDbEntity
  8
0
  6
Continuous
 62
     7
370
    15
100
AcDbLine
 10
1818.093483513819
 20
1141.385390162527
 30
0.0
 11
1819.743902331915
 21
1140.430006811609
 31
0.0
  0
LINE
  5
AD9
330
9C9
100
AcDbEntity
  8
0
  6
Continuous
 62
     7
370
    15
100
AcDbLine
 10
1818.378653310643
 20
1142.364855050314
 30
0.0
 11
1817.387347126881
 21
1141.794153647384
 31
0.0
  0
LINE
  5
ADA
330
9C9
100
AcDbEntity
  8
0
  6
Continuous
 62
     7
370
    15
100
AcDbLine
 10
1815.736928308785
 20
1142.749536998303
 30
0.0
 11
1817.387347126881
 21
1141.794153647384
 31
0.0
  0
LINE
  5
ADB
330
9C9
100
AcDbEntity
  8
0
  6
Continuous
 62
     7
370
    15
100
AcDbLine
 10
1818.093483513819
 20
1141.385390162527
 30
0.0
 11
1819.08478969758
 21
1141.956091565457
 31
0.0
  0
LINE
  5
ADC
330
9C9
100
AcDbEntity
  8
0
  6
Continuous
 62
     7
370
    15
100
AcDbLine
 10
1819.08478969758
 20
1141.956091565457
 30
0.0
 11
1818.378653310643
 21
1142.364855050314
 31
0.0
  0
LWPOLYLINE
  5
ADD
330
9C9
100
AcDbEntity
  8
0
  6
Continuous
 62
     7
370
    15
100
AcDbPolyline
 90
       24
 70
   128
 43
0.0
 10
1817.060747197409
 20
1129.53848689166
 10
1816.943931489613
 20
1129.500591131854
 10
1816.645360982287
 20
1129.452854023592
 10
1816.324049939953
 20
1129.466163012283
 10
1815.985732165773
 20
1129.540280598709
 10
1815.636444948442
 20
1129.673884152783
 10
1815.282421326629
 20
1129.864589515919
 10
1814.929978860251
 20
1130.108993546394
 10
1814.585406893471
 20
1130.402734848492
 10
1814.254854321198
 20
1130.740571601721
 10
1813.944219861916
 20
1131.116475101214
 10
1813.65904679491
 20
1131.523737340119
 10
1813.404424040317
 20
1131.955090714132
 10
1813.184895347225
 20
1132.402837712078
 10
1813.004378210361
 20
1132.858988278169
 10
1812.866093962311
 20
1133.315402394747
 10
1812.772510288757
 20
1133.763935341089
 10
1812.725297192569
 20
1134.196583036143
 10
1812.725297192569
 20
1134.60562487154
 10
1812.772510288757
 20
1134.983761486037
 10
1812.866093962311
 20
1135.32424502279
 10
1813.004378210361
 20
1135.620999545019
 10
1813.184895347225
 20
1135.868729461246
 10
1813.32775174152
 20
1136.004925337757
  0
LINE
  5
ADE
330
9C9
100
AcDbEntity
  8
0
  6
Continuous
 62
     7
370
    15
100
AcDbLine
 10
1816.537656112229
 20
1141.304981016302
 30
0.0
 11
1816.607978570529
 21
1140.530175326705
 31
0.0
  0
LINE
  5
ADF
330
9C9
100
AcDbEntity
  8
0
  6
Continuous
 62
     7
370
    15
100
AcDbLine
 10
1817.387231096133
 20
1140.813184760661
 30
0.0
 11
1817.387347126881
 21
1141.794153647384
 31
0.0
  0
LINE
  5
AE0
330
9C9
100
AcDbEntity
  8
0
  6
Continuous
 62
     7
370
    15
100
AcDbLine
 10
1818.378556870028
 20
1141.549508743639
 30
0.0
 11
1818.378653310643
 21
1142.364855050314
 31
0.0
  0
ELLIPSE
  5
AE1
330
9C9
100
AcDbEntity
  8
0
  6
Continuous
 62
     7
370
    15
100
AcDbEllipse
 10
1811.800136919769
 20
1135.180861119903
 30
0.0
 11
2.004507383346677
 21
46.38075764019958
 31
0.0
210
0.0
220
0.0
230
1.0
 40
0.0451846437372545
 41
1.338786279212372
 42
1.359827043809334
  0
LWPOLYLINE
  5
AE2
330
9C9
100
AcDbEntity
  8
0
  6
Continuous
 62
     7
370
    15
100
AcDbPolyline
 90
       19
 70
   128
 43
0.0
 10
1813.378778424008
 20
1143.124825816634
 10
1812.993879482486
 20
1143.003457165793
 10
1812.581678069956
 20
1142.916983750324
 10
1812.151601777814
 20
1142.867383331589
 10
1811.713487019594
 20
1142.855790336758
 10
1811.277354059176
 20
1142.882469912952
 10
1810.853177834105
 20
1142.946811862982
 10
1810.450659815578
 20
1143.047344601367
 10
1810.079006122966
 20
1143.181768811435
 10
1809.746716967692
 20
1143.347010033739
 10
1809.461392242156
 20
1143.539288983013
 10
1809.229557700142
 20
1143.754207985417
 10
1809.056515704204
 20
1143.986851559157
 10
1808.946223953617
 20
1144.231898838056
 10
1808.901204966568
 20
1144.483745266797
 10
1808.922488386824
 20
1144.736630784512
 10
1809.009587434417
 20
1144.984771564998
 10
1809.16051003895
 20
1145.222492300463
 10
1809.371804400878
 20
1145.444356003329
  0
ELLIPSE
  5
AE3
330
9C9
100
AcDbEntity
  8
0
  6
Continuous
 62
     7
370
    15
100
AcDbEllipse
 10
1811.800136919769
 20
1135.180861119903
 30
0.0
 11
-2.112133331131005
 21
44.01722223807204
 31
0.0
210
0.0
220
0.0
230
1.0
 40
0.0451455594504188
 41
4.869574965664541
 42
4.891690632847523
  0
ARC
  5
AE4
330
9C9
100
AcDbEntity
  8
0
  6
Continuous
 62
     7
370
    15
100
AcDbCircle
 10
1812.46913134283
 20
1144.717855078703
 30
0.0
 40
2.728026971684268
100
AcDbArc
 50
290.6723393354223
 51
309.1862876397363
  0
ELLIPSE
  5
AE5
330
9C9
100
AcDbEntity
  8
0
  6
Continuous
 62
     7
370
    15
100
AcDbEllipse
 10
1811.800136919769
 20
1135.180861119903
 30
0.0
 11
2.004507383346677
 21
46.38075764019958
 31
0.0
210
0.0
220
0.0
230
1.0
 40
0.0451846437372545
 41
4.875066878802689
 42
4.897182545985671
  0
LWPOLYLINE
  5
AE6
330
9C9
100
AcDbEntity
  8
0
  6
Continuous
 62
     7
370
    15
100
AcDbPolyline
 90
       19
 70
   128
 43
0.0
 10
1810.221495415531
 20
1145.933528634412
 10
1810.606394357052
 20
1146.054897285253
 10
1811.018595769582
 20
1146.141370700722
 10
1811.448672061723
 20
1146.190971119457
 10
1811.886786819944
 20
1146.202564114289
 10
1812.322919780362
 20
1146.175884538095
 10
1812.747096005433
 20
1146.111542588064
 10
1813.14961402396
 20
1146.011009849679
 10
1813.521267716572
 20
1145.876585639611
 10
1813.853556871845
 20
1145.711344417307
 10
1814.138881597382
 20
1145.519065468033
 10
1814.370716139396
 20
1145.30414646563
 10
1814.543758135334
 20
1145.071502891889
 10
1814.654049885921
 20
1144.82645561299
 10
1814.69906887297
 20
1144.57460918425
 10
1814.677785452714
 20
1144.321723666534
 10
1814.590686405121
 20
1144.073582886049
 10
1814.439763800588
 20
1143.835862150583
 10
1814.22846943866
 20
1143.613998447717
  0
LINE
  5
AE7
330
9C9
100
AcDbEntity
  8
0
  6
Continuous
 62
     7
370
    15
100
AcDbLine
 10
1811.022223218974
 20
1144.48897265241
 30
0.0
 11
1809.371804400878
 21
1145.444356003329
 31
0.0
  0
LINE
  5
AE8
330
9C9
100
AcDbEntity
  8
0
  6
Continuous
 62
     7
370
    15
100
AcDbLine
 10
1811.022223218974
 20
1144.48897265241
 30
0.0
 11
1810.030917035213
 21
1143.91827124948
 31
0.0
  0
LINE
  5
AE9
330
9C9
100
AcDbEntity
  8
0
  6
Continuous
 62
     7
370
    15
100
AcDbLine
 10
1810.030917035213
 20
1143.91827124948
 30
0.0
 11
1810.73705342215
 21
1143.509507764623
 31
0.0
  0
LINE
  5
AEA
330
9C9
100
AcDbEntity
  8
0
  6
Continuous
 62
     7
370
    15
100
AcDbLine
 10
1810.73705342215
 20
1143.509507764623
 30
0.0
 11
1811.728359605912
 21
1144.080209167553
 31
0.0
  0
LINE
  5
AEB
330
9C9
100
AcDbEntity
  8
0
  6
Continuous
 62
     7
370
    15
100
AcDbLine
 10
1813.378778424008
 20
1143.124825816634
 30
0.0
 11
1811.728359605912
 21
1144.080209167553
 31
0.0
  0
LINE
  5
AEC
330
9C9
100
AcDbEntity
  8
0
  6
Continuous
 62
     7
370
    15
100
AcDbLine
 10
1811.684857335348
 20
1144.055164628088
 30
0.0
 11
1811.027034668472
 21
1144.435960591452
 31
0.0
  0
LINE
  5
AED
330
9C9
100
AcDbEntity
  8
0
  6
Continuous
 62
     7
370
    15
100
AcDbLine
 10
1812.557378330497
 20
1144.341649342593
 30
0.0
 11
1811.915294532928
 21
1143.971997533622
 31
0.0
  0
LINE
  5
AEE
330
9C9
100
AcDbEntity
  8
0
  6
Continuous
 62
     7
370
    15
100
AcDbLine
 10
1814.192818326581
 20
1142.603373028582
 30
0.0
 11
1813.381693989788
 21
1143.072911232098
 31
0.0
  0
LINE
  5
AEF
330
9C9
100
AcDbEntity
  8
0
  6
Continuous
 62
     7
370
    15
100
AcDbLine
 10
1812.578050620564
 20
1144.569381798636
 30
0.0
 11
1812.493443450499
 21
1143.63732257467
 31
0.0
  0
LINE
  5
AF0
330
9C9
100
AcDbEntity
  8
0
  6
Continuous
 62
     7
370
    15
100
AcDbLine
 10
1812.578050620564
 20
1144.569381798636
 30
0.0
 11
1814.22846943866
 21
1143.613998447717
 31
0.0
  0
LINE
  5
AF1
330
9C9
100
AcDbEntity
  8
0
  6
Continuous
 62
     7
370
    15
100
AcDbLine
 10
1812.863220417387
 20
1145.548846686423
 30
0.0
 11
1811.871914233626
 21
1144.978145283493
 31
0.0
  0
LINE
  5
AF2
330
9C9
100
AcDbEntity
  8
0
  6
Continuous
 62
     7
370
    15
100
AcDbLine
 10
1810.221495415531
 20
1145.933528634412
 30
0.0
 11
1811.871914233626
 21
1144.978145283493
 31
0.0
  0
LINE
  5
AF3
330
9C9
100
AcDbEntity
  8
0
  6
Continuous
 62
     7
370
    15
100
AcDbLine
 10
1812.578050620564
 20
1144.569381798636
 30
0.0
 11
1813.569356804325
 21
1145.140083201566
 31
0.0
  0
LINE
  5
AF4
330
9C9
100
AcDbEntity
  8
0
  6
Continuous
 62
     7
370
    15
100
AcDbLine
 10
1813.569356804325
 20
1145.140083201566
 30
0.0
 11
1812.863220417387
 21
1145.548846686423
 31
0.0
  0
LINE
  5
AF5
330
9C9
100
AcDbEntity
  8
0
  6
Continuous
 62
     7
370
    15
100
AcDbLine
 10
1811.022223218974
 20
1144.48897265241
 30
0.0
 11
1811.092545677274
 21
1143.714166962814
 31
0.0
  0
LWPOLYLINE
  5
AF6
330
9C9
100
AcDbEntity
  8
0
  6
Continuous
 62
     7
370
    15
100
AcDbPolyline
 90
       21
 70
   128
 43
0.0
 10
1811.168244140101
 20
1133.375653982849
 10
1810.916253443286
 20
1133.324007421969
 10
1810.630598618831
 20
1133.33005848154
 10
1810.327631455576
 20
1133.397041634668
 10
1810.014119739307
 20
1133.523460588396
 10
1809.697066803705
 20
1133.706491352199
 10
1809.383555087437
 20
1133.942045321264
 10
1809.08058792418
 20
1134.224860609164
 10
1808.794933099726
 20
1134.548619589703
 10
1808.532971670821
 20
1134.906090022252
 10
1808.300555422909
 20
1135.289286608052
 10
1808.102876150912
 20
1135.689649368588
 10
1807.944349683111
 20
1136.098234861369
 10
1807.82851723884
 20
1136.505915961653
 10
1807.757966323496
 20
1136.903585747335
 10
1807.734272927946
 20
1137.282360932529
 10
1807.757966323496
 20
1137.633780305507
 10
1807.82851723884
 20
1137.94999373818
 10
1807.944349683111
 20
1138.223937544987
 10
1808.102876150912
 20
1138.449492273965
 10
1808.189389012318
 20
1138.535741518786
  0
LINE
  5
AF7
330
9C9
100
AcDbEntity
  8
0
  6
Continuous
 62
     7
370
    15
100
AcDbLine
 10
1811.871798202878
 20
1143.997176396769
 30
0.0
 11
1811.871914233626
 21
1144.978145283493
 31
0.0
  0
LINE
  5
AF8
330
9C9
100
AcDbEntity
  8
0
  6
Continuous
 62
     7
370
    15
100
AcDbLine
 10
1812.863123976773
 20
1144.733500379748
 30
0.0
 11
1812.863220417387
 21
1145.548846686423
 31
0.0
  0
ENDBLK
  5
9CB
330
9C9
100
AcDbEntity
  8
0
100
AcDbBlockEnd
  0
ENDSEC
  0
SECTION
  2
ENTITIES
  0
INSERT
  5
842
330
1F
100
AcDbEntity
  8
0
100
AcDbBlockReference
  2
1
 10
0.0
 20
0.0
 30
0.0
  0
INSERT
  5
9B4
330
1F
100
AcDbEntity
  8
0
100
AcDbBlockReference
  2
2
 10
0.0
 20
0.0
 30
0.0
  0
INSERT
  5
9C8
330
1F
100
AcDbEntity
  8
0
100
AcDbBlockReference
  2
3
 10
0.0
 20
0.0
 30
0.0
  0
INSERT
  5
AF9
330
1F
100
AcDbEntity
  8
0
100
AcDbBlockReference
  2
4
 10
0.0
 20
0.0
 30
0.0
  0
ENDSEC
  0
SECTION
  2
OBJECTS
  0
DICTIONARY
  5
C
330
0
100
AcDbDictionary
281
     1
  3
ACAD_COLOR
350
6B
  3
ACAD_GROUP
350
D
  3
ACAD_LAYOUT
350
1A
  3
ACAD_MATERIAL
350
6A
  3
ACAD_MLEADERSTYLE
350
12D
  3
ACAD_MLINESTYLE
350
17
  3
ACAD_PLOTSETTINGS
350
19
  3
ACAD_PLOTSTYLENAME
350
E
  3
ACAD_SCALELIST
350
10C
  3
ACAD_TABLESTYLE
350
7E
  3
ACAD_VISUALSTYLE
350
EF
  3
ACDB_RECOMPOSE_DATA
350
15D
  3
AcDbVariableDictionary
350
5E
  3
DWGPROPS
350
B09
  0
DICTIONARY
  5
13C
330
10
100
AcDbDictionary
280
     1
281
     1
  3
ADSK_XREC_LAYER_RECONCILED
360
AFA
  0
DICTIONARY
  5
6B
102
{ACAD_REACTORS
330
C
102
}
330
C
100
AcDbDictionary
281
     1
  0
DICTIONARY
  5
D
102
{ACAD_REACTORS
330
C
102
}
330
C
100
AcDbDictionary
281
     1
  0
DICTIONARY
  5
1A
102
{ACAD_REACTORS
330
C
102
}
330
C
100
AcDbDictionary
281
     1
  3
Layout1
350
D3
  3
Layout2
350
D7
  3
Model
350
22
  0
DICTIONARY
  5
6A
102
{ACAD_REACTORS
330
C
102
}
330
C
100
AcDbDictionary
281
     1
  3
ByBlock
350
ED
  3
ByLayer
350
EC
  3
Global
350
EE
  0
DICTIONARY
  5
12D
102
{ACAD_REACTORS
330
C
102
}
330
C
100
AcDbDictionary
281
     1
  3
Annotative
350
13B
  3
Standard
350
12E
  0
DICTIONARY
  5
17
102
{ACAD_REACTORS
330
C
102
}
330
C
100
AcDbDictionary
281
     1
  3
Standard
350
18
  0
DICTIONARY
  5
19
102
{ACAD_REACTORS
330
C
102
}
330
C
100
AcDbDictionary
281
     1
  0
ACDBDICTIONARYWDFLT
  5
E
102
{ACAD_REACTORS
330
C
102
}
330
C
100
AcDbDictionary
281
     1
  3
Normal
350
F
100
AcDbDictionaryWithDefault
340
F
  0
DICTIONARY
  5
10C
102
{ACAD_REACTORS
330
C
102
}
330
C
100
AcDbDictionary
281
     1
  3
A0
350
10D
  3
A1
350
188
  3
A2
350
189
  3
A3
350
18A
  3
A4
350
18B
  3
A5
350
18C
  3
A6
350
18D
  3
A7
350
18E
  3
A8
350
18F
  3
A9
350
190
  3
B0
350
191
  3
B1
350
192
  3
B2
350
193
  3
B3
350
194
  3
B4
350
195
  3
B5
350
196
  3
B6
350
197
  3
B7
350
198
  3
B8
350
199
  3
B9
350
19A
  3
C0
350
19B
  3
C1
350
19C
  3
C2
350
19D
  3
C3
350
19E
  3
C4
350
19F
  3
C5
350
1A0
  3
C6
350
1A1
  3
C7
350
1A2
  3
C8
350
1A3
  3
C9
350
1A4
  3
D0
350
1A5
  3
D1
350
1A6
  3
D2
350
1A7
  0
DICTIONARY
  5
7E
102
{ACAD_REACTORS
330
C
102
}
330
C
100
AcDbDictionary
281
     1
  3
Standard
350
7F
  0
DICTIONARY
  5
EF
102
{ACAD_REACTORS
330
C
102
}
330
C
100
AcDbDictionary
281
     1
  3
2dWireframe
350
F5
  3
3D Hidden
350
F7
  3
3dWireframe
350
F6
  3
Basic
350
F4
  3
Brighten
350
FB
  3
ColorChange
350
FF
  3
Conceptual
350
F8
  3
Dim
350
FA
  3
Facepattern
350
FE
  3
Flat
350
F0
  3
FlatWithEdges
350
F1
  3
Gouraud
350
F2
  3
GouraudWithEdges
350
F3
  3
Linepattern
350
FD
  3
Realistic
350
F9
  3
Thicken
350
FC
  0
XRECORD
  5
15D
102
{ACAD_REACTORS
330
C
102
}
330
C
100
AcDbXrecord
280
     1
 90
        1
330
7F
  0
DICTIONARY
  5
5E
102
{ACAD_REACTORS
330
C
102
}
330
C
100
AcDbDictionary
281
     1
  3
CANNOSCALE
350
146
  3
CMLEADERSTYLE
350
145
  3
CTABLESTYLE
350
84
  3
DIMASSOC
350
5F
  3
HIDETEXT
350
63
  3
INDEXCTL
350
B05
  3
LIGHTINGUNITS
350
B03
  3
MSLTSCALE
350
B02
  3
PSOLHEIGHT
350
B07
  3
PSOLWIDTH
350
B06
  3
SORTENTS
350
B04
  0
XRECORD
  5
B09
102
{ACAD_REACTORS
330
C
102
}
330
C
100
AcDbXrecord
280
     1
  1
DWGPROPS COOKIE
  2

  3

  4

  6

  7

  8
orhan kara
  9

300
=
301
=
302
=
303
=
304
=
305
=
306
=
307
=
308
=
309
=
 40
0.0003710648148148
 41
2458453.428447628
 42
2458983.558278449
  1

 90
        0
  0
XRECORD
  5
AFA
102
{ACAD_REACTORS
330
13C
102
}
330
13C
100
AcDbXrecord
280
     1
290
     1
  0
LAYOUT
  5
D3
102
{ACAD_XDICTIONARY
360
B0D
102
}
102
{ACAD_REACTORS
330
1A
102
}
330
1A
100
AcDbPlotSettings
  1

  2
C:\Documents and Settings\basas\Application Data\Autodesk\AutoCAD 2005\R16.1\enu\plotters\Default Windows System Printer.pc3
  4

  6

 40
0.0
 41
0.0
 42
0.0
 43
0.0
 44
0.0
 45
0.0
 46
0.0
 47
0.0
 48
0.0
 49
0.0
140
0.0
141
0.0
142
1.0
143
1.0
 70
   688
 72
     0
 73
     0
 74
     5
  7

 75
    16
147
1.0
148
0.0
149
0.0
100
AcDbLayout
  1
Layout1
 70
     1
 71
     1
 10
0.0
 20
0.0
 11
12.0
 21
9.0
 12
0.0
 22
0.0
 32
0.0
 14
0.0
 24
0.0
 34
0.0
 15
0.0
 25
0.0
 35
0.0
146
0.0
 13
0.0
 23
0.0
 33
0.0
 16
1.0
 26
0.0
 36
0.0
 17
0.0
 27
1.0
 37
0.0
 76
     0
330
D2
  0
LAYOUT
  5
D7
102
{ACAD_XDICTIONARY
360
B0F
102
}
102
{ACAD_REACTORS
330
1A
102
}
330
1A
100
AcDbPlotSettings
  1

  2
C:\Documents and Settings\basas\Application Data\Autodesk\AutoCAD 2005\R16.1\enu\plotters\Default Windows System Printer.pc3
  4

  6

 40
0.0
 41
0.0
 42
0.0
 43
0.0
 44
0.0
 45
0.0
 46
0.0
 47
0.0
 48
0.0
 49
0.0
140
0.0
141
0.0
142
1.0
143
1.0
 70
   688
 72
     0
 73
     0
 74
     5
  7

 75
    16
147
1.0
148
0.0
149
0.0
100
AcDbLayout
  1
Layout2
 70
     1
 71
     2
 10
0.0
 20
0.0
 11
12.0
 21
9.0
 12
0.0
 22
0.0
 32
0.0
 14
0.0
 24
0.0
 34
0.0
 15
0.0
 25
0.0
 35
0.0
146
0.0
 13
0.0
 23
0.0
 33
0.0
 16
1.0
 26
0.0
 36
0.0
 17
0.0
 27
1.0
 37
0.0
 76
     0
330
D6
  0
LAYOUT
  5
22
102
{ACAD_XDICTIONARY
360
B0A
102
}
102
{ACAD_REACTORS
330
1A
102
}
330
1A
100
AcDbPlotSettings
  1

  2
none_device
  4
ISO_A4_(210.00_x_297.00_MM)
  6

 40
7.5
 41
20.0
 42
7.5
 43
20.0
 44
210.0
 45
297.0
 46
11.54999923706054
 47
-13.65000009536743
 48
0.0
 49
0.0
140
0.0
141
0.0
142
1.0
143
8.704084754739808
 70
 11952
 72
     1
 73
     0
 74
     0
  7

 75
     0
147
0.1148885871608098
148
0.0
149
0.0
100
AcDbLayout
  1
Model
 70
     1
 71
     0
 10
0.0
 20
0.0
 11
12.0
 21
9.0
 12
0.0
 22
0.0
 32
0.0
 14
0.0
 24
0.0
 34
0.0
 15
0.0
 25
0.0
 35
0.0
146
0.0
 13
0.0
 23
0.0
 33
0.0
 16
1.0
 26
0.0
 36
0.0
 17
0.0
 27
1.0
 37
0.0
 76
     0
330
1F
331
EA
1001
ACAD_PSEXT
1000
None
1000
None
1000
Not applicable
1000
The layout will not be plotted unless a new plotter configuration name is selected.
1070
     0
  0
MATERIAL
  5
ED
102
{ACAD_XDICTIONARY
360
B13
102
}
102
{ACAD_REACTORS
330
6A
102
}
330
6A
100
AcDbMaterial
  1
ByBlock
  0
MATERIAL
  5
EC
102
{ACAD_XDICTIONARY
360
B11
102
}
102
{ACAD_REACTORS
330
6A
102
}
330
6A
100
AcDbMaterial
  1
ByLayer
  0
MATERIAL
  5
EE
102
{ACAD_XDICTIONARY
360
173
102
}
102
{ACAD_REACTORS
330
6A
102
}
330
6A
100
AcDbMaterial
  1
Global
 43
0.0007999999797903
 43
0.0
 43
0.0
 43
0.0
 43
0.0
 43
0.0007999999797903
 43
0.0
 43
0.0
 43
0.0
 43
0.0
 43
1.0
 43
0.0
 43
0.0
 43
0.0
 43
0.0
 43
1.0
 49
0.0007999999797903
 49
0.0
 49
0.0
 49
0.0
 49
0.0
 49
0.0007999999797903
 49
0.0
 49
0.0
 49
0.0
 49
0.0
 49
1.0
 49
0.0
 49
0.0
 49
0.0
 49
0.0
 49
1.0
142
0.0007999999797903
142
0.0
142
0.0
142
0.0
142
0.0
142
0.0007999999797903
142
0.0
142
0.0
142
0.0
142
0.0
142
1.0
142
0.0
142
0.0
142
0.0
142
0.0
142
1.0
144
0.0007999999797903
144
0.0
144
0.0
144
0.0
144
0.0
144
0.0007999999797903
144
0.0
144
0.0
144
0.0
144
0.0
144
1.0
144
0.0
144
0.0
144
0.0
144
0.0
144
1.0
1001
ACAD
1070
    -1
1070
     3
1070
     0
1000

1071
        0
1070
     0
  0
MLEADERSTYLE
  5
13B
102
{ACAD_REACTORS
330
12D
102
}
330
12D
100
AcDbMLeaderStyle
170
     2
171
     1
172
     0
 90
        2
 40
0.0
 41
0.0
173
     1
 91
-1056964608
340
14
 92
       -2
290
     1
 42
2.0
291
     1
 43
8.0
  3
Standard
 44
4.0
300

342
11
174
     1
178
     1
175
     1
176
     0
 93
-1056964608
 45
4.0
292
     0
297
     0
 46
4.0
 94
-1056964608
 47
1.0
 49
1.0
140
1.0
293
     1
141
0.0
294
     1
177
     0
142
1.0
295
     0
296
     1
143
3.75
1001
ACAD_MLEADERVER
1070
     2
  0
MLEADERSTYLE
  5
12E
102
{ACAD_REACTORS
330
12D
102
}
330
12D
100
AcDbMLeaderStyle
170
     2
171
     1
172
     0
 90
        2
 40
0.0
 41
0.0
173
     1
 91
-1056964608
340
14
 92
       -2
290
     1
 42
2.0
291
     1
 43
8.0
  3
Standard
 44
4.0
300

342
11
174
     1
178
     1
175
     1
176
     0
 93
-1056964608
 45
4.0
292
     0
297
     0
 46
4.0
 94
-1056964608
 47
1.0
 49
1.0
140
1.0
293
     1
141
0.0
294
     1
177
     0
142
1.0
295
     0
296
     0
143
3.75
1001
ACAD_MLEADERVER
1070
     2
  0
MLINESTYLE
  5
18
102
{ACAD_REACTORS
330
17
102
}
330
17
100
AcDbMlineStyle
  2
STANDARD
 70
     0
  3

 62
   256
 51
90.0
 52
90.0
 71
     2
 49
0.5
 62
   256
  6
BYLAYER
 49
-0.5
 62
   256
  6
BYLAYER
  0
ACDBPLACEHOLDER
  5
F
102
{ACAD_REACTORS
330
E
102
}
330
E
  0
SCALE
  5
10D
102
{ACAD_REACTORS
330
10C
102
}
330
10C
100
AcDbScale
 70
     0
300
1:1
140
1.0
141
1.0
290
     1
  0
SCALE
  5
188
102
{ACAD_REACTORS
330
10C
102
}
330
10C
100
AcDbScale
 70
     0
300
1:2
140
1.0
141
2.0
290
     0
  0
SCALE
  5
189
102
{ACAD_REACTORS
330
10C
102
}
330
10C
100
AcDbScale
 70
     0
300
1:4
140
1.0
141
4.0
290
     0
  0
SCALE
  5
18A
102
{ACAD_REACTORS
330
10C
102
}
330
10C
100
AcDbScale
 70
     0
300
1:5
140
1.0
141
5.0
290
     0
  0
SCALE
  5
18B
102
{ACAD_REACTORS
330
10C
102
}
330
10C
100
AcDbScale
 70
     0
300
1:8
140
1.0
141
8.0
290
     0
  0
SCALE
  5
18C
102
{ACAD_REACTORS
330
10C
102
}
330
10C
100
AcDbScale
 70
     0
300
1:10
140
1.0
141
10.0
290
     0
  0
SCALE
  5
18D
102
{ACAD_REACTORS
330
10C
102
}
330
10C
100
AcDbScale
 70
     0
300
1:16
140
1.0
141
16.0
290
     0
  0
SCALE
  5
18E
102
{ACAD_REACTORS
330
10C
102
}
330
10C
100
AcDbScale
 70
     0
300
1:20
140
1.0
141
20.0
290
     0
  0
SCALE
  5
18F
102
{ACAD_REACTORS
330
10C
102
}
330
10C
100
AcDbScale
 70
     0
300
1:30
140
1.0
141
30.0
290
     0
  0
SCALE
  5
190
102
{ACAD_REACTORS
330
10C
102
}
330
10C
100
AcDbScale
 70
     0
300
1:40
140
1.0
141
40.0
290
     0
  0
SCALE
  5
191
102
{ACAD_REACTORS
330
10C
102
}
330
10C
100
AcDbScale
 70
     0
300
1:50
140
1.0
141
50.0
290
     0
  0
SCALE
  5
192
102
{ACAD_REACTORS
330
10C
102
}
330
10C
100
AcDbScale
 70
     0
300
1:100
140
1.0
141
100.0
290
     0
  0
SCALE
  5
193
102
{ACAD_REACTORS
330
10C
102
}
330
10C
100
AcDbScale
 70
     0
300
2:1
140
2.0
141
1.0
290
     0
  0
SCALE
  5
194
102
{ACAD_REACTORS
330
10C
102
}
330
10C
100
AcDbScale
 70
     0
300
4:1
140
4.0
141
1.0
290
     0
  0
SCALE
  5
195
102
{ACAD_REACTORS
330
10C
102
}
330
10C
100
AcDbScale
 70
     0
300
8:1
140
8.0
141
1.0
290
     0
  0
SCALE
  5
196
102
{ACAD_REACTORS
330
10C
102
}
330
10C
100
AcDbScale
 70
     0
300
10:1
140
10.0
141
1.0
290
     0
  0
SCALE
  5
197
102
{ACAD_REACTORS
330
10C
102
}
330
10C
100
AcDbScale
 70
     0
300
100:1
140
100.0
141
1.0
290
     0
  0
SCALE
  5
198
102
{ACAD_REACTORS
330
10C
102
}
330
10C
100
AcDbScale
 70
     0
300
1/128" = 1'-0"
140
0.0078125
141
12.0
290
     0
  0
SCALE
  5
199
102
{ACAD_REACTORS
330
10C
102
}
330
10C
100
AcDbScale
 70
     0
300
1/64" = 1'-0"
140
0.015625
141
12.0
290
     0
  0
SCALE
  5
19A
102
{ACAD_REACTORS
330
10C
102
}
330
10C
100
AcDbScale
 70
     0
300
1/32" = 1'-0"
140
0.03125
141
12.0
290
     0
  0
SCALE
  5
19B
102
{ACAD_REACTORS
330
10C
102
}
330
10C
100
AcDbScale
 70
     0
300
1/16" = 1'-0"
140
0.0625
141
12.0
290
     0
  0
SCALE
  5
19C
102
{ACAD_REACTORS
330
10C
102
}
330
10C
100
AcDbScale
 70
     0
300
3/32" = 1'-0"
140
0.09375
141
12.0
290
     0
  0
SCALE
  5
19D
102
{ACAD_REACTORS
330
10C
102
}
330
10C
100
AcDbScale
 70
     0
300
1/8" = 1'-0"
140
0.125
141
12.0
290
     0
  0
SCALE
  5
19E
102
{ACAD_REACTORS
330
10C
102
}
330
10C
100
AcDbScale
 70
     0
300
3/16" = 1'-0"
140
0.1875
141
12.0
290
     0
  0
SCALE
  5
19F
102
{ACAD_REACTORS
330
10C
102
}
330
10C
100
AcDbScale
 70
     0
300
1/4" = 1'-0"
140
0.25
141
12.0
290
     0
  0
SCALE
  5
1A0
102
{ACAD_REACTORS
330
10C
102
}
330
10C
100
AcDbScale
 70
     0
300
3/8" = 1'-0"
140
0.375
141
12.0
290
     0
  0
SCALE
  5
1A1
102
{ACAD_REACTORS
330
10C
102
}
330
10C
100
AcDbScale
 70
     0
300
1/2" = 1'-0"
140
0.5
141
12.0
290
     0
  0
SCALE
  5
1A2
102
{ACAD_REACTORS
330
10C
102
}
330
10C
100
AcDbScale
 70
     0
300
3/4" = 1'-0"
140
0.75
141
12.0
290
     0
  0
SCALE
  5
1A3
102
{ACAD_REACTORS
330
10C
102
}
330
10C
100
AcDbScale
 70
     0
300
1" = 1'-0"
140
1.0
141
12.0
290
     0
  0
SCALE
  5
1A4
102
{ACAD_REACTORS
330
10C
102
}
330
10C
100
AcDbScale
 70
     0
300
1-1/2" = 1'-0"
140
1.5
141
12.0
290
     0
  0
SCALE
  5
1A5
102
{ACAD_REACTORS
330
10C
102
}
330
10C
100
AcDbScale
 70
     0
300
3" = 1'-0"
140
3.0
141
12.0
290
     0
  0
SCALE
  5
1A6
102
{ACAD_REACTORS
330
10C
102
}
330
10C
100
AcDbScale
 70
     0
300
6" = 1'-0"
140
6.0
141
12.0
290
     0
  0
SCALE
  5
1A7
102
{ACAD_REACTORS
330
10C
102
}
330
10C
100
AcDbScale
 70
     0
300
1'-0" = 1'-0"
140
12.0
141
12.0
290
     0
  0
TABLESTYLE
  5
7F
102
{ACAD_XDICTIONARY
360
162
102
}
102
{ACAD_REACTORS
330
7E
102
}
330
7E
100
AcDbTableStyle
  3
Standard
 70
     0
 71
     0
 40
1.5
 41
1.5
280
     0
281
     0
  7
Standard
140
4.5
170
     2
 62
     0
 63
     7
283
     0
274
    -2
284
     1
 64
     0
275
    -2
285
     1
 65
     0
276
    -2
286
     1
 66
     0
277
    -2
287
     1
 67
     0
278
    -2
288
     1
 68
     0
279
    -2
289
     1
 69
     0
  7
Standard
140
6.0
170
     5
 62
     0
 63
     7
283
     0
274
    -2
284
     1
 64
     0
275
    -2
285
     1
 65
     0
276
    -2
286
     1
 66
     0
277
    -2
287
     1
 67
     0
278
    -2
288
     1
 68
     0
279
    -2
289
     1
 69
     0
  7
Standard
140
4.5
170
     5
 62
     0
 63
     7
283
     0
274
    -2
284
     1
 64
     0
275
    -2
285
     1
 65
     0
276
    -2
286
     1
 66
     0
277
    -2
287
     1
 67
     0
278
    -2
288
     1
 68
     0
279
    -2
289
     1
 69
     0
  0
VISUALSTYLE
  5
F5
102
{ACAD_REACTORS
330
EF
102
}
330
EF
100
AcDbVisualStyle
  2
2dWireframe
 70
     4
 71
     0
 72
     2
 73
     1
 90
        0
 40
-0.6
 41
-30.0
 62
     5
 63
     7
 74
     1
 91
        4
 64
     7
 65
   257
 75
     1
175
     1
 42
1.0
 92
        0
 66
   257
 43
1.0
 76
     1
 77
     6
 78
     2
 67
     7
 79
     5
170
     0
171
     0
290
     0
174
     0
 93
        1
 44
0.0
173
     0
291
     0
 45
0.0
1001
ACAD
1000
AcDbSavedByObjectVersion
1070
     0
  0
VISUALSTYLE
  5
F7
102
{ACAD_REACTORS
330
EF
102
}
330
EF
100
AcDbVisualStyle
  2
3D Hidden
 70
     6
 71
     1
 72
     2
 73
     2
 90
        0
 40
-0.6
 41
-30.0
 62
     5
 63
     7
 74
     2
 91
        2
 64
     7
 65
   257
 75
     2
175
     1
 42
40.0
 92
        0
 66
   257
 43
1.0
 76
     1
 77
     6
 78
     2
 67
     7
 79
     3
170
     0
171
     0
290
     0
174
     0
 93
        1
 44
0.0
173
     0
291
     0
 45
0.0
1001
ACAD
1000
AcDbSavedByObjectVersion
1070
     0
  0
VISUALSTYLE
  5
F6
102
{ACAD_REACTORS
330
EF
102
}
330
EF
100
AcDbVisualStyle
  2
3dWireframe
 70
     5
 71
     0
 72
     2
 73
     1
 90
        0
 40
-0.6
 41
-30.0
 62
     5
 63
     7
 74
     1
 91
        4
 64
     7
 65
   257
 75
     1
175
     1
 42
1.0
 92
        0
 66
   257
 43
1.0
 76
     1
 77
     6
 78
     2
 67
     7
 79
     5
170
     0
171
     0
290
     0
174
     0
 93
        1
 44
0.0
173
     0
291
     0
 45
0.0
1001
ACAD
1000
AcDbSavedByObjectVersion
1070
     0
  0
VISUALSTYLE
  5
F4
102
{ACAD_REACTORS
330
EF
102
}
330
EF
100
AcDbVisualStyle
  2
Basic
 70
     7
 71
     1
 72
     0
 73
     1
 90
        0
 40
-0.6
 41
-30.0
 62
     5
 63
     7
 74
     0
 91
        4
 64
     7
 65
   257
 75
     1
175
     1
 42
1.0
 92
        8
 66
     7
 43
1.0
 76
     1
 77
     6
 78
     2
 67
     7
 79
     5
170
     0
171
     0
290
     0
174
     0
 93
        1
 44
0.0
173
     0
291
     1
 45
0.0
1001
ACAD
1000
AcDbSavedByObjectVersion
1070
     0
  0
VISUALSTYLE
  5
FB
102
{ACAD_REACTORS
330
EF
102
}
330
EF
100
AcDbVisualStyle
  2
Brighten
 70
    12
 71
     2
 72
     2
 73
     1
 90
        0
 40
-0.6
 41
-30.0
 62
     5
 63
     7
 74
     1
 91
        4
 64
     7
 65
   257
 75
     1
175
     1
 42
1.0
 92
        8
 66
     7
 43
1.0
 76
     1
 77
     6
 78
     2
 67
     7
 79
     5
170
     0
171
     0
290
     0
174
     0
 93
        1
 44
50.0
173
     0
291
     1
 45
0.0
1001
ACAD
1000
AcDbSavedByObjectVersion
1070
     0
  0
VISUALSTYLE
  5
FF
102
{ACAD_REACTORS
330
EF
102
}
330
EF
100
AcDbVisualStyle
  2
ColorChange
 70
    16
 71
     2
 72
     2
 73
     3
 90
        0
 40
-0.6
 41
-30.0
 62
     5
 63
     8
 74
     1
 91
        4
 64
     7
 65
   257
 75
     1
175
     1
 42
1.0
 92
        8
 66
     8
 43
1.0
 76
     1
 77
     6
 78
     2
 67
     7
 79
     5
170
     0
171
     0
290
     0
174
     0
 93
        1
 44
0.0
173
     0
291
     1
 45
0.0
1001
ACAD
1000
AcDbSavedByObjectVersion
1070
     0
  0
VISUALSTYLE
  5
F8
102
{ACAD_REACTORS
330
EF
102
}
330
EF
100
AcDbVisualStyle
  2
Conceptual
 70
     9
 71
     3
 72
     2
 73
     1
 90
        0
 40
-0.6
 41
-30.0
 62
     5
 63
     7
 74
     2
 91
        2
 64
     7
 65
   257
 75
     1
175
     1
 42
40.0
 92
        8
 66
     7
 43
1.0
 76
     1
 77
     6
 78
     2
 67
     7
 79
     3
170
     0
171
     0
290
     0
174
     0
 93
        1
 44
0.0
173
     0
291
     0
 45
0.0
1001
ACAD
1000
AcDbSavedByObjectVersion
1070
     0
  0
VISUALSTYLE
  5
FA
102
{ACAD_REACTORS
330
EF
102
}
330
EF
100
AcDbVisualStyle
  2
Dim
 70
    11
 71
     2
 72
     2
 73
     1
 90
        0
 40
-0.6
 41
-30.0
 62
     5
 63
     7
 74
     1
 91
        4
 64
     7
 65
   257
 75
     1
175
     1
 42
1.0
 92
        8
 66
     7
 43
1.0
 76
     1
 77
     6
 78
     2
 67
     7
 79
     5
170
     0
171
     0
290
     0
174
     0
 93
        1
 44
-50.0
173
     0
291
     1
 45
0.0
1001
ACAD
1000
AcDbSavedByObjectVersion
1070
     0
  0
VISUALSTYLE
  5
FE
102
{ACAD_REACTORS
330
EF
102
}
330
EF
100
AcDbVisualStyle
  2
Facepattern
 70
    15
 71
     2
 72
     2
 73
     1
 90
        0
 40
-0.6
 41
-30.0
 62
     5
 63
     7
 74
     1
 91
        4
 64
     7
 65
   257
 75
     1
175
     1
 42
1.0
 92
        8
 66
     7
 43
1.0
 76
     1
 77
     6
 78
     2
 67
     7
 79
     5
170
     0
171
     0
290
     0
174
     0
 93
        1
 44
0.0
173
     0
291
     1
 45
0.0
1001
ACAD
1000
AcDbSavedByObjectVersion
1070
     0
  0
VISUALSTYLE
  5
F0
102
{ACAD_REACTORS
330
EF
102
}
330
EF
100
AcDbVisualStyle
  2
Flat
 70
     0
 71
     2
 72
     1
 73
     1
 90
        2
 40
-0.6
 41
30.0
 62
     5
 63
     7
 74
     0
 91
        4
 64
     7
 65
   257
 75
     1
175
     1
 42
1.0
 92
        8
 66
     7
 43
1.0
 76
     1
 77
     6
 78
     2
 67
     7
 79
     5
170
     0
171
     0
290
     0
174
     0
 93
        1
 44
0.0
173
     0
291
     1
 45
0.0
1001
ACAD
1000
AcDbSavedByObjectVersion
1070
     0
  0
VISUALSTYLE
  5
F1
102
{ACAD_REACTORS
330
EF
102
}
330
EF
100
AcDbVisualStyle
  2
FlatWithEdges
 70
     1
 71
     2
 72
     1
 73
     1
 90
        2
 40
-0.6
 41
30.0
 62
     5
 63
     7
 74
     1
 91
        4
 64
     7
 65
   257
 75
     1
175
     1
 42
1.0
 92
        0
 66
   257
 43
1.0
 76
     1
 77
     6
 78
     2
 67
     7
 79
     5
170
     0
171
     0
290
     0
174
     0
 93
        1
 44
0.0
173
     0
291
     1
 45
0.0
1001
ACAD
1000
AcDbSavedByObjectVersion
1070
     0
  0
VISUALSTYLE
  5
F2
102
{ACAD_REACTORS
330
EF
102
}
330
EF
100
AcDbVisualStyle
  2
Gouraud
 70
     2
 71
     2
 72
     2
 73
     1
 90
        2
 40
-0.6
 41
30.0
 62
     5
 63
     7
 74
     0
 91
        4
 64
     7
 65
   257
 75
     1
175
     1
 42
1.0
 92
        0
 66
     7
 43
1.0
 76
     1
 77
     6
 78
     2
 67
     7
 79
     5
170
     0
171
     0
290
     0
174
     0
 93
        1
 44
0.0
173
     0
291
     1
 45
0.0
1001
ACAD
1000
AcDbSavedByObjectVersion
1070
     0
  0
VISUALSTYLE
  5
F3
102
{ACAD_REACTORS
330
EF
102
}
330
EF
100
AcDbVisualStyle
  2
GouraudWithEdges
 70
     3
 71
     2
 72
     2
 73
     1
 90
        2
 40
-0.6
 41
30.0
 62
     5
 63
     7
 74
     1
 91
        4
 64
     7
 65
   257
 75
     1
175
     1
 42
1.0
 92
        0
 66
   257
 43
1.0
 76
     1
 77
     6
 78
     2
 67
     7
 79
     5
170
     0
171
     0
290
     0
174
     0
 93
        1
 44
0.0
173
     0
291
     1
 45
0.0
1001
ACAD
1000
AcDbSavedByObjectVersion
1070
     0
  0
VISUALSTYLE
  5
FD
102
{ACAD_REACTORS
330
EF
102
}
330
EF
100
AcDbVisualStyle
  2
Linepattern
 70
    14
 71
     2
 72
     2
 73
     1
 90
        0
 40
-0.6
 41
-30.0
 62
     5
 63
     7
 74
     1
 91
        4
 64
     7
 65
   257
 75
     7
175
     7
 42
1.0
 92
        8
 66
     7
 43
1.0
 76
     1
 77
     6
 78
     2
 67
     7
 79
     5
170
     0
171
     0
290
     0
174
     0
 93
        1
 44
0.0
173
     0
291
     1
 45
0.0
1001
ACAD
1000
AcDbSavedByObjectVersion
1070
     0
  0
VISUALSTYLE
  5
F9
102
{ACAD_REACTORS
330
EF
102
}
330
EF
100
AcDbVisualStyle
  2
Realistic
 70
     8
 71
     2
 72
     2
 73
     1
 90
        0
 40
-0.6
 41
-30.0
 62
     5
 63
     7
 74
     1
 91
        0
 64
     7
 65
   257
 75
     1
175
     1
 42
1.0
 92
        8
 66
     8
 43
1.0
 76
     1
 77
     6
 78
     2
 67
     7
 79
     5
170
     0
171
     0
290
     0
174
     0
 93
       13
 44
0.0
173
     0
291
     0
 45
0.0
1001
ACAD
1000
AcDbSavedByObjectVersion
1070
     0
  0
VISUALSTYLE
  5
FC
102
{ACAD_REACTORS
330
EF
102
}
330
EF
100
AcDbVisualStyle
  2
Thicken
 70
    13
 71
     2
 72
     2
 73
     1
 90
        0
 40
-0.6
 41
-30.0
 62
     5
 63
     7
 74
     1
 91
        4
 64
     7
 65
   257
 75
     1
175
     1
 42
1.0
 92
       12
 66
     7
 43
1.0
 76
     1
 77
     6
 78
     2
 67
     7
 79
     5
170
     0
171
     0
290
     0
174
     0
 93
        1
 44
0.0
173
     0
291
     1
 45
0.0
1001
ACAD
1000
AcDbSavedByObjectVersion
1070
     0
  0
DICTIONARYVAR
  5
146
102
{ACAD_REACTORS
330
5E
102
}
330
5E
100
DictionaryVariables
280
     0
  1
1:1
  0
DICTIONARYVAR
  5
145
102
{ACAD_REACTORS
330
5E
102
}
330
5E
100
DictionaryVariables
280
     0
  1
STANDARD
  0
DICTIONARYVAR
  5
84
102
{ACAD_REACTORS
330
5E
102
}
330
5E
100
DictionaryVariables
280
     0
  1
STANDARD
  0
DICTIONARYVAR
  5
5F
102
{ACAD_REACTORS
330
5E
102
}
330
5E
100
DictionaryVariables
280
     0
  1
2
  0
DICTIONARYVAR
  5
63
102
{ACAD_REACTORS
330
5E
102
}
330
5E
100
DictionaryVariables
280
     0
  1
1
  0
DICTIONARYVAR
  5
B05
102
{ACAD_REACTORS
330
5E
102
}
330
5E
100
DictionaryVariables
280
     0
  1
0
  0
DICTIONARYVAR
  5
B03
102
{ACAD_REACTORS
330
5E
102
}
330
5E
100
DictionaryVariables
280
     0
  1
2
  0
DICTIONARYVAR
  5
B02
102
{ACAD_REACTORS
330
5E
102
}
330
5E
100
DictionaryVariables
280
     0
  1
1
  0
DICTIONARYVAR
  5
B07
102
{ACAD_REACTORS
330
5E
102
}
330
5E
100
DictionaryVariables
280
     0
  1
80.000000
  0
DICTIONARYVAR
  5
B06
102
{ACAD_REACTORS
330
5E
102
}
330
5E
100
DictionaryVariables
280
     0
  1
5.000000
  0
DICTIONARYVAR
  5
B04
102
{ACAD_REACTORS
330
5E
102
}
330
5E
100
DictionaryVariables
280
     0
  1
127
  0
DICTIONARY
  5
B0D
330
D3
100
AcDbDictionary
280
     1
281
     1
  3
ACAD_XREC_ROUNDTRIP
360
B0E
  0
DICTIONARY
  5
B0F
330
D7
100
AcDbDictionary
280
     1
281
     1
  3
ACAD_XREC_ROUNDTRIP
360
B10
  0
DICTIONARY
  5
B0A
330
22
100
AcDbDictionary
280
     1
281
     1
  3
ACAD_XREC_ROUNDTRIP
360
B0B
  0
DICTIONARY
  5
B13
330
ED
100
AcDbDictionary
280
     1
281
     1
  3
ACAD_XREC_ROUNDTRIP
360
B14
  0
DICTIONARY
  5
B11
330
EC
100
AcDbDictionary
280
     1
281
     1
  3
ACAD_XREC_ROUNDTRIP
360
B12
  0
DICTIONARY
  5
173
330
EE
100
AcDbDictionary
280
     1
281
     1
  3
ACAD_XREC_ROUNDTRIP
360
B15
  3
BUMPTILE
360
175
  3
DIFFUSETILE
360
174
  3
OPACITYTILE
360
176
  3
REFLECTIONTILE
360
177
  0
DICTIONARY
  5
162
330
7F
100
AcDbDictionary
280
     1
281
     1
  3
ACAD_ROUNDTRIP_2008_TABLESTYLE_CELLSTYLEMAP
360
B08
  3
ACAD_XREC_ROUNDTRIP
360
B0C
  0
XRECORD
  5
B0E
102
{ACAD_REACTORS
330
B0D
102
}
330
B0D
100
AcDbXrecord
280
     1
102
SHADEPLOT
 70
     0
102
SHADEPLOTRESLEVEL
 70
     2
102
SHADEPLOTCUSTOMDPI
 70
   300
  0
XRECORD
  5
B10
102
{ACAD_REACTORS
330
B0F
102
}
330
B0F
100
AcDbXrecord
280
     1
102
SHADEPLOT
 70
     0
102
SHADEPLOTRESLEVEL
 70
     2
102
SHADEPLOTCUSTOMDPI
 70
   300
  0
XRECORD
  5
B0B
102
{ACAD_REACTORS
330
B0A
102
}
330
B0A
100
AcDbXrecord
280
     1
102
SHADEPLOT
 70
     0
102
SHADEPLOTRESLEVEL
 70
     2
102
SHADEPLOTCUSTOMDPI
 70
   300
  0
XRECORD
  5
B14
102
{ACAD_REACTORS
330
B13
102
}
330
B13
100
AcDbXrecord
280
     1
102
MATERIAL
148
0.0
149
0.0
149
0.0
 93
        0
 94
       63
282
     0
 72
     1
 77
     1
171
     1
175
     1
179
     1
273
     0
  0
XRECORD
  5
B12
102
{ACAD_REACTORS
330
B11
102
}
330
B11
100
AcDbXrecord
280
     1
102
MATERIAL
148
0.0
149
0.0
149
0.0
 93
        0
 94
       63
282
     0
 72
     1
 77
     1
171
     1
175
     1
179
     1
273
     0
  0
XRECORD
  5
B15
102
{ACAD_REACTORS
330
173
102
}
330
173
100
AcDbXrecord
280
     1
102
MATERIAL
148
0.0
149
0.0
149
0.0
 93
        0
 94
       63
282
     0
 72
     1
 77
     1
171
     1
175
     1
179
     1
273
     0
  0
XRECORD
  5
175
102
{ACAD_REACTORS
330
173
102
}
330
173
100
AcDbXrecord
280
     1
270
     1
271
     1
  0
XRECORD
  5
174
102
{ACAD_REACTORS
330
173
102
}
330
173
100
AcDbXrecord
280
     1
270
     1
271
     1
  0
XRECORD
  5
176
102
{ACAD_REACTORS
330
173
102
}
330
173
100
AcDbXrecord
280
     1
270
     1
271
     1
  0
XRECORD
  5
177
102
{ACAD_REACTORS
330
173
102
}
330
173
100
AcDbXrecord
280
     1
270
     1
271
     1
  0
CELLSTYLEMAP
  5
B08
102
{ACAD_REACTORS
330
162
102
}
330
162
100
AcDbCellStyleMap
 90
        3
300
CELLSTYLE
  1
TABLEFORMAT_BEGIN
 90
        5
170
     1
 91
        0
 92
    32768
 62
   257
 93
        1
300
CONTENTFORMAT
  1
CONTENTFORMAT_BEGIN
 90
        0
 91
        0
 92
      512
 93
        0
300

 40
0.0
140
1.0
 94
        5
 62
     0
340
11
144
6.0
309
CONTENTFORMAT_END
171
     1
301
MARGIN
  1
CELLMARGIN_BEGIN
 40
1.5
 40
1.5
 40
1.5
 40
1.5
 40
4.5
 40
4.5
309
CELLMARGIN_END
 94
        6
 95
        1
302
GRIDFORMAT
  1
GRIDFORMAT_BEGIN
 90
        0
 91
        1
 62
     0
 92
       -2
340
14
 93
        0
 40
1.125
309
GRIDFORMAT_END
 95
        2
302
GRIDFORMAT
  1
GRIDFORMAT_BEGIN
 90
        0
 91
        1
 62
     0
 92
       -2
340
14
 93
        0
 40
1.125
309
GRIDFORMAT_END
 95
        4
302
GRIDFORMAT
  1
GRIDFORMAT_BEGIN
 90
        0
 91
        1
 62
     0
 92
       -2
340
14
 93
        0
 40
1.125
309
GRIDFORMAT_END
 95
        8
302
GRIDFORMAT
  1
GRIDFORMAT_BEGIN
 90
        0
 91
        1
 62
     0
 92
       -2
340
14
 93
        0
 40
1.125
309
GRIDFORMAT_END
 95
       16
302
GRIDFORMAT
  1
GRIDFORMAT_BEGIN
 90
        0
 91
        1
 62
     0
 92
       -2
340
14
 93
        0
 40
1.125
309
GRIDFORMAT_END
 95
       32
302
GRIDFORMAT
  1
GRIDFORMAT_BEGIN
 90
        0
 91
        1
 62
     0
 92
       -2
340
14
 93
        0
 40
1.125
309
GRIDFORMAT_END
309
TABLEFORMAT_END
  1
CELLSTYLE_BEGIN
 90
        1
 91
        1
300
_TITLE
309
CELLSTYLE_END
300
CELLSTYLE
  1
TABLEFORMAT_BEGIN
 90
        5
170
     1
 91
        0
 92
        0
 62
   257
 93
        1
300
CONTENTFORMAT
  1
CONTENTFORMAT_BEGIN
 90
        0
 91
        0
 92
      512
 93
        0
300

 40
0.0
140
1.0
 94
        5
 62
     0
340
11
144
4.5
309
CONTENTFORMAT_END
171
     1
301
MARGIN
  1
CELLMARGIN_BEGIN
 40
1.5
 40
1.5
 40
1.5
 40
1.5
 40
4.5
 40
4.5
309
CELLMARGIN_END
 94
        6
 95
        1
302
GRIDFORMAT
  1
GRIDFORMAT_BEGIN
 90
        0
 91
        1
 62
     0
 92
       -2
340
14
 93
        0
 40
1.125
309
GRIDFORMAT_END
 95
        2
302
GRIDFORMAT
  1
GRIDFORMAT_BEGIN
 90
        0
 91
        1
 62
     0
 92
       -2
340
14
 93
        0
 40
1.125
309
GRIDFORMAT_END
 95
        4
302
GRIDFORMAT
  1
GRIDFORMAT_BEGIN
 90
        0
 91
        1
 62
     0
 92
       -2
340
14
 93
        0
 40
1.125
309
GRIDFORMAT_END
 95
        8
302
GRIDFORMAT
  1
GRIDFORMAT_BEGIN
 90
        0
 91
        1
 62
     0
 92
       -2
340
14
 93
        0
 40
1.125
309
GRIDFORMAT_END
 95
       16
302
GRIDFORMAT
  1
GRIDFORMAT_BEGIN
 90
        0
 91
        1
 62
     0
 92
       -2
340
14
 93
        0
 40
1.125
309
GRIDFORMAT_END
 95
       32
302
GRIDFORMAT
  1
GRIDFORMAT_BEGIN
 90
        0
 91
        1
 62
     0
 92
       -2
340
14
 93
        0
 40
1.125
309
GRIDFORMAT_END
309
TABLEFORMAT_END
  1
CELLSTYLE_BEGIN
 90
        2
 91
        1
300
_HEADER
309
CELLSTYLE_END
300
CELLSTYLE
  1
TABLEFORMAT_BEGIN
 90
        5
170
     1
 91
        0
 92
        0
 62
   257
 93
        1
300
CONTENTFORMAT
  1
CONTENTFORMAT_BEGIN
 90
        0
 91
        0
 92
      512
 93
        0
300

 40
0.0
140
1.0
 94
        2
 62
     0
340
11
144
4.5
309
CONTENTFORMAT_END
171
     1
301
MARGIN
  1
CELLMARGIN_BEGIN
 40
1.5
 40
1.5
 40
1.5
 40
1.5
 40
4.5
 40
4.5
309
CELLMARGIN_END
 94
        6
 95
        1
302
GRIDFORMAT
  1
GRIDFORMAT_BEGIN
 90
        0
 91
        1
 62
     0
 92
       -2
340
14
 93
        0
 40
1.125
309
GRIDFORMAT_END
 95
        2
302
GRIDFORMAT
  1
GRIDFORMAT_BEGIN
 90
        0
 91
        1
 62
     0
 92
       -2
340
14
 93
        0
 40
1.125
309
GRIDFORMAT_END
 95
        4
302
GRIDFORMAT
  1
GRIDFORMAT_BEGIN
 90
        0
 91
        1
 62
     0
 92
       -2
340
14
 93
        0
 40
1.125
309
GRIDFORMAT_END
 95
        8
302
GRIDFORMAT
  1
GRIDFORMAT_BEGIN
 90
        0
 91
        1
 62
     0
 92
       -2
340
14
 93
        0
 40
1.125
309
GRIDFORMAT_END
 95
       16
302
GRIDFORMAT
  1
GRIDFORMAT_BEGIN
 90
        0
 91
        1
 62
     0
 92
       -2
340
14
 93
        0
 40
1.125
309
GRIDFORMAT_END
 95
       32
302
GRIDFORMAT
  1
GRIDFORMAT_BEGIN
 90
        0
 91
        1
 62
     0
 92
       -2
340
14
 93
        0
 40
1.125
309
GRIDFORMAT_END
309
TABLEFORMAT_END
  1
CELLSTYLE_BEGIN
 90
        3
 91
        2
300
_DATA
309
CELLSTYLE_END
  0
XRECORD
  5
B0C
102
{ACAD_REACTORS
330
162
102
}
330
162
100
AcDbXrecord
280
     1
102
ACAD_ROUNDTRIP_PRE2007_TABLESTYLE
 90
      512
 91
        0
  1

 92
      512
 93
        0
  2

 94
      512
 95
        0
  3

  0
ENDSEC
  0
EOF
