  0
SECTION
  2
HEADER
  9
$ACADVER
  1
AC1015
  9
$ACADMAINTVER
 70
    20
  9
$DWGCODEPAGE
  3
ANSI_1254
  9
$INSBASE
 10
0.0
 20
0.0
 30
0.0
  9
$EXTMIN
 10
1751.551205741535
 20
986.1001542982371
 30
0.0
  9
$EXTMAX
 10
1936.818325288728
 20
1026.438213035867
 30
0.0
  9
$LIMMIN
 10
0.0
 20
0.0
  9
$LIMMAX
 10
420.0
 20
297.0
  9
$ORTHOMODE
 70
     1
  9
$REGENMODE
 70
     1
  9
$FILLMODE
 70
     1
  9
$QTEXTMODE
 70
     0
  9
$MIRRTEXT
 70
     0
  9
$LTSCALE
 40
1.0
  9
$ATTMODE
 70
     1
  9
$TEXTSIZE
 40
2.5
  9
$TRACEWID
 40
1.0
  9
$TEXTSTYLE
  7
Standard
  9
$CLAYER
  8
0
  9
$CELTYPE
  6
ByLayer
  9
$CECOLOR
 62
   256
  9
$CELTSCALE
 40
1.0
  9
$DISPSILH
 70
     0
  9
$DIMSCALE
 40
1.0
  9
$DIMASZ
 40
2.5
  9
$DIMEXO
 40
0.625
  9
$DIMDLI
 40
3.75
  9
$DIMRND
 40
0.0
  9
$DIMDLE
 40
0.0
  9
$DIMEXE
 40
1.25
  9
$DIMTP
 40
0.0
  9
$DIMTM
 40
0.0
  9
$DIMTXT
 40
2.5
  9
$DIMCEN
 40
2.5
  9
$DIMTSZ
 40
0.0
  9
$DIMTOL
 70
     0
  9
$DIMLIM
 70
     0
  9
$DIMTIH
 70
     0
  9
$DIMTOH
 70
     0
  9
$DIMSE1
 70
     0
  9
$DIMSE2
 70
     0
  9
$DIMTAD
 70
     1
  9
$DIMZIN
 70
     8
  9
$DIMBLK
  1

  9
$DIMASO
 70
     1
  9
$DIMSHO
 70
     1
  9
$DIMPOST
  1

  9
$DIMAPOST
  1

  9
$DIMALT
 70
     0
  9
$DIMALTD
 70
     3
  9
$DIMALTF
 40
0.03937007874016
  9
$DIMLFAC
 40
1.0
  9
$DIMTOFL
 70
     1
  9
$DIMTVP
 40
0.0
  9
$DIMTIX
 70
     0
  9
$DIMSOXD
 70
     0
  9
$DIMSAH
 70
     0
  9
$DIMBLK1
  1

  9
$DIMBLK2
  1

  9
$DIMSTYLE
  2
ISO-25
  9
$DIMCLRD
 70
     0
  9
$DIMCLRE
 70
     0
  9
$DIMCLRT
 70
     0
  9
$DIMTFAC
 40
1.0
  9
$DIMGAP
 40
0.625
  9
$DIMJUST
 70
     0
  9
$DIMSD1
 70
     0
  9
$DIMSD2
 70
     0
  9
$DIMTOLJ
 70
     0
  9
$DIMTZIN
 70
     8
  9
$DIMALTZ
 70
     0
  9
$DIMALTTZ
 70
     0
  9
$DIMUPT
 70
     0
  9
$DIMDEC
 70
     2
  9
$DIMTDEC
 70
     2
  9
$DIMALTU
 70
     2
  9
$DIMALTTD
 70
     3
  9
$DIMTXSTY
  7
Standard
  9
$DIMAUNIT
 70
     0
  9
$DIMADEC
 70
     0
  9
$DIMALTRND
 40
0.0
  9
$DIMAZIN
 70
     0
  9
$DIMDSEP
 70
    44
  9
$DIMATFIT
 70
     3
  9
$DIMFRAC
 70
     0
  9
$DIMLDRBLK
  1

  9
$DIMLUNIT
 70
     2
  9
$DIMLWD
 70
    -2
  9
$DIMLWE
 70
    -2
  9
$DIMTMOVE
 70
     0
  9
$LUNITS
 70
     2
  9
$LUPREC
 70
     4
  9
$SKETCHINC
 40
1.0
  9
$FILLETRAD
 40
0.0
  9
$AUNITS
 70
     0
  9
$AUPREC
 70
     0
  9
$MENU
  1
.
  9
$ELEVATION
 40
0.0
  9
$PELEVATION
 40
0.0
  9
$THICKNESS
 40
0.0
  9
$LIMCHECK
 70
     0
  9
$CHAMFERA
 40
0.0
  9
$CHAMFERB
 40
0.0
  9
$CHAMFERC
 40
0.0
  9
$CHAMFERD
 40
0.0
  9
$SKPOLY
 70
     0
  9
$TDCREATE
 40
2458453.449573438
  9
$TDUCREATE
 40
2458453.324573438
  9
$TDUPDATE
 40
2458983.556176805
  9
$TDUUPDATE
 40
2458983.431176806
  9
$TDINDWG
 40
0.0005579051
  9
$TDUSRTIMER
 40
0.0005579051
  9
$USRTIMER
 70
     1
  9
$ANGBASE
 50
0.0
  9
$ANGDIR
 70
     0
  9
$PDMODE
 70
     0
  9
$PDSIZE
 40
0.0
  9
$PLINEWID
 40
0.0
  9
$SPLFRAME
 70
     0
  9
$SPLINETYPE
 70
     6
  9
$SPLINESEGS
 70
     8
  9
$HANDSEED
  5
D2D
  9
$SURFTAB1
 70
     6
  9
$SURFTAB2
 70
     6
  9
$SURFTYPE
 70
     6
  9
$SURFU
 70
     6
  9
$SURFV
 70
     6
  9
$UCSBASE
  2

  9
$UCSNAME
  2

  9
$UCSORG
 10
0.0
 20
0.0
 30
0.0
  9
$UCSXDIR
 10
1.0
 20
0.0
 30
0.0
  9
$UCSYDIR
 10
0.0
 20
1.0
 30
0.0
  9
$UCSORTHOREF
  2

  9
$UCSORTHOVIEW
 70
     0
  9
$UCSORGTOP
 10
0.0
 20
0.0
 30
0.0
  9
$UCSORGBOTTOM
 10
0.0
 20
0.0
 30
0.0
  9
$UCSORGLEFT
 10
0.0
 20
0.0
 30
0.0
  9
$UCSORGRIGHT
 10
0.0
 20
0.0
 30
0.0
  9
$UCSORGFRONT
 10
0.0
 20
0.0
 30
0.0
  9
$UCSORGBACK
 10
0.0
 20
0.0
 30
0.0
  9
$PUCSBASE
  2

  9
$PUCSNAME
  2

  9
$PUCSORG
 10
0.0
 20
0.0
 30
0.0
  9
$PUCSXDIR
 10
1.0
 20
0.0
 30
0.0
  9
$PUCSYDIR
 10
0.0
 20
1.0
 30
0.0
  9
$PUCSORTHOREF
  2

  9
$PUCSORTHOVIEW
 70
     0
  9
$PUCSORGTOP
 10
0.0
 20
0.0
 30
0.0
  9
$PUCSORGBOTTOM
 10
0.0
 20
0.0
 30
0.0
  9
$PUCSORGLEFT
 10
0.0
 20
0.0
 30
0.0
  9
$PUCSORGRIGHT
 10
0.0
 20
0.0
 30
0.0
  9
$PUCSORGFRONT
 10
0.0
 20
0.0
 30
0.0
  9
$PUCSORGBACK
 10
0.0
 20
0.0
 30
0.0
  9
$USERI1
 70
     0
  9
$USERI2
 70
     0
  9
$USERI3
 70
     0
  9
$USERI4
 70
     0
  9
$USERI5
 70
     0
  9
$USERR1
 40
0.0
  9
$USERR2
 40
0.0
  9
$USERR3
 40
0.0
  9
$USERR4
 40
0.0
  9
$USERR5
 40
0.0
  9
$WORLDVIEW
 70
     1
  9
$SHADEDGE
 70
     3
  9
$SHADEDIF
 70
    70
  9
$TILEMODE
 70
     1
  9
$MAXACTVP
 70
    64
  9
$PINSBASE
 10
0.0
 20
0.0
 30
0.0
  9
$PLIMCHECK
 70
     0
  9
$PEXTMIN
 10
0.0
 20
0.0
 30
0.0
  9
$PEXTMAX
 10
0.0
 20
0.0
 30
0.0
  9
$PLIMMIN
 10
0.0
 20
0.0
  9
$PLIMMAX
 10
12.0
 20
9.0
  9
$UNITMODE
 70
     0
  9
$VISRETAIN
 70
     1
  9
$PLINEGEN
 70
     0
  9
$PSLTSCALE
 70
     1
  9
$TREEDEPTH
 70
  3020
  9
$CMLSTYLE
  2
Standard
  9
$CMLJUST
 70
     0
  9
$CMLSCALE
 40
20.0
  9
$PROXYGRAPHICS
 70
     1
  9
$MEASUREMENT
 70
     1
  9
$CELWEIGHT
370
    -1
  9
$ENDCAPS
280
     0
  9
$JOINSTYLE
280
     0
  9
$LWDISPLAY
290
     0
  9
$INSUNITS
 70
     4
  9
$HYPERLINKBASE
  1

  9
$STYLESHEET
  1

  9
$XEDIT
290
     1
  9
$CEPSNTYPE
380
     0
  9
$PSTYLEMODE
290
     1
  9
$FINGERPRINTGUID
  2
{6515B2D2-3EB5-4526-98C3-C5F2129E3834}
  9
$VERSIONGUID
  2
{592CC974-13AF-4F3A-8523-E63A9511F6BB}
  9
$EXTNAMES
290
     1
  9
$PSVPSCALE
 40
0.0
  9
$OLESTARTUP
290
     0
  0
ENDSEC
  0
SECTION
  2
CLASSES
  0
CLASS
  1
ACDBDICTIONARYWDFLT
  2
AcDbDictionaryWithDefault
  3
ObjectDBX Classes
 90
        0
280
     0
281
     0
  0
CLASS
  1
ACDBPLACEHOLDER
  2
AcDbPlaceHolder
  3
ObjectDBX Classes
 90
        0
280
     0
281
     0
  0
CLASS
  1
LAYOUT
  2
AcDbLayout
  3
ObjectDBX Classes
 90
        0
280
     0
281
     0
  0
CLASS
  1
DICTIONARYVAR
  2
AcDbDictionaryVar
  3
ObjectDBX Classes
 90
        0
280
     0
281
     0
  0
CLASS
  1
TABLESTYLE
  2
AcDbTableStyle
  3
ObjectDBX Classes
 90
     4095
280
     0
281
     0
  0
CLASS
  1
MATERIAL
  2
AcDbMaterial
  3
ObjectDBX Classes
 90
     1153
280
     0
281
     0
  0
CLASS
  1
VISUALSTYLE
  2
AcDbVisualStyle
  3
ObjectDBX Classes
 90
     4095
280
     0
281
     0
  0
CLASS
  1
SCALE
  2
AcDbScale
  3
ObjectDBX Classes
 90
     1153
280
     0
281
     0
  0
CLASS
  1
MLEADERSTYLE
  2
AcDbMLeaderStyle
  3
ACDB_MLEADERSTYLE_CLASS
 90
     4095
280
     0
281
     0
  0
CLASS
  1
CELLSTYLEMAP
  2
AcDbCellStyleMap
  3
ObjectDBX Classes
 90
     1152
280
     0
281
     0
  0
ENDSEC
  0
SECTION
  2
TABLES
  0
TABLE
  2
VPORT
  5
8
330
0
100
AcDbSymbolTable
 70
     1
  0
VPORT
  5
EA
330
8
100
AcDbSymbolTableRecord
100
AcDbViewportTableRecord
  2
*Active
 70
     0
 10
0.0
 20
0.0
 11
1.0
 21
1.0
 12
1897.808315117359
 22
1018.695168045337
 13
0.0
 23
0.0
 14
10.0
 24
10.0
 15
10.0
 25
10.0
 16
0.0
 26
0.0
 36
1.0
 17
0.0
 27
0.0
 37
0.0
 40
219.6371654079514
 41
1.903110047846889
 42
50.0
 43
0.0
 44
0.0
 50
0.0
 51
0.0
 71
     0
 72
  1000
 73
     1
 74
     3
 75
     0
 76
     0
 77
     0
 78
     0
281
     0
 65
     1
110
0.0
120
0.0
130
0.0
111
1.0
121
0.0
131
0.0
112
0.0
122
1.0
132
0.0
 79
     0
146
0.0
  0
ENDTAB
  0
TABLE
  2
LTYPE
  5
5
330
0
100
AcDbSymbolTable
 70
     1
  0
LTYPE
  5
14
330
5
100
AcDbSymbolTableRecord
100
AcDbLinetypeTableRecord
  2
ByBlock
 70
     0
  3

 72
    65
 73
     0
 40
0.0
  0
LTYPE
  5
15
330
5
100
AcDbSymbolTableRecord
100
AcDbLinetypeTableRecord
  2
ByLayer
 70
     0
  3

 72
    65
 73
     0
 40
0.0
  0
LTYPE
  5
16
330
5
100
AcDbSymbolTableRecord
100
AcDbLinetypeTableRecord
  2
Continuous
 70
     0
  3
Solid line
 72
    65
 73
     0
 40
0.0
  0
ENDTAB
  0
TABLE
  2
LAYER
  5
2
330
0
100
AcDbSymbolTable
 70
     1
  0
LAYER
  5
10
102
{ACAD_XDICTIONARY
360
13C
102
}
330
2
100
AcDbSymbolTableRecord
100
AcDbLayerTableRecord
  2
0
 70
     0
 62
     7
  6
Continuous
370
    -3
390
F
  0
ENDTAB
  0
TABLE
  2
STYLE
  5
3
330
0
100
AcDbSymbolTable
 70
     2
  0
STYLE
  5
11
330
3
100
AcDbSymbolTableRecord
100
AcDbTextStyleTableRecord
  2
Standard
 70
     0
 40
0.0
 41
1.0
 50
0.0
 71
     0
 42
2.5
  3
txt
  4

  0
STYLE
  5
132
330
3
100
AcDbSymbolTableRecord
100
AcDbTextStyleTableRecord
  2
Annotative
 70
     0
 40
0.0
 41
1.0
 50
0.0
 71
     0
 42
2.5
  3
txt.shx
  4

1001
AcadAnnotative
1000
AnnotativeData
1002
{
1070
     1
1070
     1
1002
}
  0
ENDTAB
  0
TABLE
  2
VIEW
  5
6
330
0
100
AcDbSymbolTable
 70
     0
  0
ENDTAB
  0
TABLE
  2
UCS
  5
7
330
0
100
AcDbSymbolTable
 70
     0
  0
ENDTAB
  0
TABLE
  2
APPID
  5
9
330
0
100
AcDbSymbolTable
 70
     7
  0
APPID
  5
12
330
9
100
AcDbSymbolTableRecord
100
AcDbRegAppTableRecord
  2
ACAD
 70
     0
  0
APPID
  5
9E
330
9
100
AcDbSymbolTableRecord
100
AcDbRegAppTableRecord
  2
ACAD_PSEXT
 70
     0
  0
APPID
  5
133
330
9
100
AcDbSymbolTableRecord
100
AcDbRegAppTableRecord
  2
AcadAnnoPO
 70
     0
  0
APPID
  5
134
330
9
100
AcDbSymbolTableRecord
100
AcDbRegAppTableRecord
  2
AcadAnnotative
 70
     0
  0
APPID
  5
135
330
9
100
AcDbSymbolTableRecord
100
AcDbRegAppTableRecord
  2
ACAD_DSTYLE_DIMJAG
 70
     0
  0
APPID
  5
136
330
9
100
AcDbSymbolTableRecord
100
AcDbRegAppTableRecord
  2
ACAD_DSTYLE_DIMTALN
 70
     0
  0
APPID
  5
165
330
9
100
AcDbSymbolTableRecord
100
AcDbRegAppTableRecord
  2
ACAD_MLEADERVER
 70
     0
  0
ENDTAB
  0
TABLE
  2
DIMSTYLE
  5
A
330
0
100
AcDbSymbolTable
 70
     2
100
AcDbDimStyleTable
 71
     2
340
27
340
137
  0
DIMSTYLE
105
27
330
A
100
AcDbSymbolTableRecord
100
AcDbDimStyleTableRecord
  2
ISO-25
 70
     0
 41
2.5
 42
0.625
 43
3.75
 44
1.25
 73
     0
 74
     0
 77
     1
 78
     8
140
2.5
141
2.5
143
0.03937007874016
147
0.625
171
     3
172
     1
271
     2
272
     2
274
     3
278
    44
283
     0
284
     8
340
11
  0
DIMSTYLE
105
137
330
A
100
AcDbSymbolTableRecord
100
AcDbDimStyleTableRecord
  2
Annotative
 70
     0
 40
0.0
 41
2.5
 42
0.625
 43
3.75
 44
1.25
 73
     0
 74
     0
 77
     1
 78
     8
140
2.5
141
2.5
143
0.03937007874016
147
0.625
171
     3
172
     1
271
     2
272
     2
274
     3
278
    44
283
     0
284
     8
340
11
1001
AcadAnnotative
1000
AnnotativeData
1002
{
1070
     1
1070
     1
1002
}
1001
ACAD_DSTYLE_DIMJAG
1070
   388
1040
1.5
1001
ACAD_DSTYLE_DIMTALN
1070
   392
1070
     0
  0
ENDTAB
  0
TABLE
  2
BLOCK_RECORD
  5
1
330
0
100
AcDbSymbolTable
 70
     5
  0
BLOCK_RECORD
  5
1F
330
1
100
AcDbSymbolTableRecord
100
AcDbBlockTableRecord
  2
*Model_Space
340
22
  0
BLOCK_RECORD
  5
D2
330
1
100
AcDbSymbolTableRecord
100
AcDbBlockTableRecord
  2
*Paper_Space
340
D3
  0
BLOCK_RECORD
  5
D6
330
1
100
AcDbSymbolTableRecord
100
AcDbBlockTableRecord
  2
*Paper_Space0
340
D7
  0
BLOCK_RECORD
  5
93D
330
1
100
AcDbSymbolTableRecord
100
AcDbBlockTableRecord
  2
1
340
0
310
2800000020000000200000000100080000000000000400000000000000000000000000000000000000000000000080000080000000808000800000008000800080800000C0C0C000C0DCC000F0CAA6000020400000206000002080000020A0000020C0000020E00000400000004020000040400000406000004080000040A0
310
000040C0000040E00000600000006020000060400000606000006080000060A0000060C0000060E00000800000008020000080400000806000008080000080A0000080C0000080E00000A0000000A0200000A0400000A0600000A0800000A0A00000A0C00000A0E00000C0000000C0200000C0400000C0600000C0800000C0
310
A00000C0C00000C0E00000E0000000E0200000E0400000E0600000E0800000E0A00000E0C00000E0E00040000000400020004000400040006000400080004000A0004000C0004000E00040200000402020004020400040206000402080004020A0004020C0004020E000404000004040200040404000404060004040800040
310
40A0004040C0004040E00040600000406020004060400040606000406080004060A0004060C0004060E00040800000408020004080400040806000408080004080A0004080C0004080E00040A0000040A0200040A0400040A0600040A0800040A0A00040A0C00040A0E00040C0000040C0200040C0400040C0600040C08000
310
40C0A00040C0C00040C0E00040E0000040E0200040E0400040E0600040E0800040E0A00040E0C00040E0E00080000000800020008000400080006000800080008000A0008000C0008000E00080200000802020008020400080206000802080008020A0008020C0008020E00080400000804020008040400080406000804080
310
008040A0008040C0008040E00080600000806020008060400080606000806080008060A0008060C0008060E00080800000808020008080400080806000808080008080A0008080C0008080E00080A0000080A0200080A0400080A0600080A0800080A0A00080A0C00080A0E00080C0000080C0200080C0400080C0600080C0
310
800080C0A00080C0C00080C0E00080E0000080E0200080E0400080E0600080E0800080E0A00080E0C00080E0E000C0000000C0002000C0004000C0006000C0008000C000A000C000C000C000E000C0200000C0202000C0204000C0206000C0208000C020A000C020C000C020E000C0400000C0402000C0404000C0406000C0
310
408000C040A000C040C000C040E000C0600000C0602000C0604000C0606000C0608000C060A000C060C000C060E000C0800000C0802000C0804000C0806000C0808000C080A000C080C000C080E000C0A00000C0A02000C0A04000C0A06000C0A08000C0A0A000C0A0C000C0A0E000C0C00000C0C02000C0C04000C0C06000
310
C0C08000C0C0A000F0FBFF00A4A0A000808080000000FF0000FF000000FFFF00FF000000FF00FF00FFFF0000FFFFFF0000000000000000000000000000000000000000000000000000000000000000000000000000000000000000000000000000000000000000000000000000000000000000000000000000000000000000
310
00000000000000000000000000000000000000000000000000000000000000000000000000000000000000000000000000000000000000000000000000000000000000000000000000000000000000000000000000000000000000000000000000000000000000000000000000000000000000000000000000000000000000
310
00000000000000000000000000000000000000000000000000000000000000000000000000000000000000000000000000000000000000000000000000000000000000000000000000000000000000000000000000000000000000000000000000000000000000000000000000000000000000000000000000000000000000
310
0000000000000000000000000000000000000000000000000000000000000000000000000000000000000000000000000000000000000000000000000000000000000000000000000000000000000000000000000000000000000000000000000000000000000000000000000000000000000000FFFFFFFFFFFFFFFFFFFFFF
310
FFFFFFFFFFFFFFFFFFFFFFFFFFFFFFFFFFFFFF0000FF00FFFFFFFF0000FFFFFFFFFFFFFFFFFFFFFFFFFFFFFFFFFFFFFFFFFFFF0000FFFFFFFFFFFFFFFFFFFFFFFFFFFFFFFFFFFFFFFFFFFFFFFFFFFFFFFFFFFF000000FFFFFFFFFF0000FFFFFFFFFFFFFFFFFFFFFFFFFFFFFFFFFFFFFFFFFF00000000000000000000000000
310
00000000000000000000000000000000000000000000000000000000000000000000000000000000000000000000000000000000000000000000000000000000000000000000000000000000000000000000000000000000000000000000000000000000000000000000000000000000000000000000000000000000000000
310
00000000000000000000000000000000000000000000000000000000000000000000000000000000000000000000000000000000000000000000000000000000000000000000000000000000000000000000000000000000000000000000000000000000000000000000000000000000000000000000000000000000000000
310
00000000000000000000000000000000000000000000000000000000000000000000000000000000000000000000000000000000000000000000000000000000000000000000000000000000000000000000000000000000000000000000000000000000000000000000000000000000000000000000000000000000000000
310
0000000000000000000000000000000000000000000000000000000000000000000000000000000000000000000000000000000000000000
102
{BLKREFS
331
9BC
102
}
1001
ACAD
1000
DesignCenter Data
1002
{
1070
     1
1070
     4
1002
}
  0
BLOCK_RECORD
  5
9BD
330
1
100
AcDbSymbolTableRecord
100
AcDbBlockTableRecord
  2
2
340
0
310
2800000020000000200000000100080000000000000400000000000000000000000000000000000000000000000080000080000000808000800000008000800080800000C0C0C000C0DCC000F0CAA6000020400000206000002080000020A0000020C0000020E00000400000004020000040400000406000004080000040A0
310
000040C0000040E00000600000006020000060400000606000006080000060A0000060C0000060E00000800000008020000080400000806000008080000080A0000080C0000080E00000A0000000A0200000A0400000A0600000A0800000A0A00000A0C00000A0E00000C0000000C0200000C0400000C0600000C0800000C0
310
A00000C0C00000C0E00000E0000000E0200000E0400000E0600000E0800000E0A00000E0C00000E0E00040000000400020004000400040006000400080004000A0004000C0004000E00040200000402020004020400040206000402080004020A0004020C0004020E000404000004040200040404000404060004040800040
310
40A0004040C0004040E00040600000406020004060400040606000406080004060A0004060C0004060E00040800000408020004080400040806000408080004080A0004080C0004080E00040A0000040A0200040A0400040A0600040A0800040A0A00040A0C00040A0E00040C0000040C0200040C0400040C0600040C08000
310
40C0A00040C0C00040C0E00040E0000040E0200040E0400040E0600040E0800040E0A00040E0C00040E0E00080000000800020008000400080006000800080008000A0008000C0008000E00080200000802020008020400080206000802080008020A0008020C0008020E00080400000804020008040400080406000804080
310
008040A0008040C0008040E00080600000806020008060400080606000806080008060A0008060C0008060E00080800000808020008080400080806000808080008080A0008080C0008080E00080A0000080A0200080A0400080A0600080A0800080A0A00080A0C00080A0E00080C0000080C0200080C0400080C0600080C0
310
800080C0A00080C0C00080C0E00080E0000080E0200080E0400080E0600080E0800080E0A00080E0C00080E0E000C0000000C0002000C0004000C0006000C0008000C000A000C000C000C000E000C0200000C0202000C0204000C0206000C0208000C020A000C020C000C020E000C0400000C0402000C0404000C0406000C0
310
408000C040A000C040C000C040E000C0600000C0602000C0604000C0606000C0608000C060A000C060C000C060E000C0800000C0802000C0804000C0806000C0808000C080A000C080C000C080E000C0A00000C0A02000C0A04000C0A06000C0A08000C0A0A000C0A0C000C0A0E000C0C00000C0C02000C0C04000C0C06000
310
C0C08000C0C0A000F0FBFF00A4A0A000808080000000FF0000FF000000FFFF00FF000000FF00FF00FFFF0000FFFFFF0000000000000000000000000000000000000000000000000000000000000000000000000000000000000000000000000000000000000000000000000000000000000000000000000000000000000000
310
00000000000000000000000000000000000000000000000000000000000000000000000000000000000000000000000000000000000000000000000000000000000000000000000000000000000000000000000000000000000000000000000000000000000000000000000000000000000000000000000000000000000000
310
00000000000000000000000000000000000000000000000000000000000000000000000000000000000000000000000000000000000000000000000000000000000000000000000000000000000000000000000000000000000000000000000000000000000000000000000000000000000000000000000000000000000000
310
0000000000000000000000000000000000000000000000000000000000000000000000000000000000000000000000000000000000000000000000000000000000000000000000000000000000000000000000000000000000000000000000000000000000000000000000000000000000000000FFFFFFFFFFFFFFFFFFFFFF
310
FFFFFFFFFFFFFFFFFFFFFFFFFFFFFFFFFFFFFF0000FFFFFFFFFFFFFFFFFFFFFFFFFFFFFFFFFFFFFFFFFFFFFFFFFFFFFFFFFFFF0000FFFFFFFFFFFFFF00FFFFFFFFFFFFFFFFFFFFFFFFFFFFFFFFFFFFFFFFFFFF0000FFFFFFFFFFFFFFFFFFFFFFFFFFFFFFFFFFFFFFFFFFFFFFFFFFFFFFFFFFFF000000000000000000000000
310
00000000000000000000000000000000000000000000000000000000000000000000000000000000000000000000000000000000000000000000000000000000000000000000000000000000000000000000000000000000000000000000000000000000000000000000000000000000000000000000000000000000000000
310
00000000000000000000000000000000000000000000000000000000000000000000000000000000000000000000000000000000000000000000000000000000000000000000000000000000000000000000000000000000000000000000000000000000000000000000000000000000000000000000000000000000000000
310
00000000000000000000000000000000000000000000000000000000000000000000000000000000000000000000000000000000000000000000000000000000000000000000000000000000000000000000000000000000000000000000000000000000000000000000000000000000000000000000000000000000000000
310
0000000000000000000000000000000000000000000000000000000000000000000000000000000000000000000000000000000000000000
102
{BLKREFS
331
B75
102
}
1001
ACAD
1000
DesignCenter Data
1002
{
1070
     1
1070
     4
1002
}
  0
BLOCK_RECORD
  5
B76
330
1
100
AcDbSymbolTableRecord
100
AcDbBlockTableRecord
  2
3
340
0
310
2800000020000000200000000100080000000000000400000000000000000000000000000000000000000000000080000080000000808000800000008000800080800000C0C0C000C0DCC000F0CAA6000020400000206000002080000020A0000020C0000020E00000400000004020000040400000406000004080000040A0
310
000040C0000040E00000600000006020000060400000606000006080000060A0000060C0000060E00000800000008020000080400000806000008080000080A0000080C0000080E00000A0000000A0200000A0400000A0600000A0800000A0A00000A0C00000A0E00000C0000000C0200000C0400000C0600000C0800000C0
310
A00000C0C00000C0E00000E0000000E0200000E0400000E0600000E0800000E0A00000E0C00000E0E00040000000400020004000400040006000400080004000A0004000C0004000E00040200000402020004020400040206000402080004020A0004020C0004020E000404000004040200040404000404060004040800040
310
40A0004040C0004040E00040600000406020004060400040606000406080004060A0004060C0004060E00040800000408020004080400040806000408080004080A0004080C0004080E00040A0000040A0200040A0400040A0600040A0800040A0A00040A0C00040A0E00040C0000040C0200040C0400040C0600040C08000
310
40C0A00040C0C00040C0E00040E0000040E0200040E0400040E0600040E0800040E0A00040E0C00040E0E00080000000800020008000400080006000800080008000A0008000C0008000E00080200000802020008020400080206000802080008020A0008020C0008020E00080400000804020008040400080406000804080
310
008040A0008040C0008040E00080600000806020008060400080606000806080008060A0008060C0008060E00080800000808020008080400080806000808080008080A0008080C0008080E00080A0000080A0200080A0400080A0600080A0800080A0A00080A0C00080A0E00080C0000080C0200080C0400080C0600080C0
310
800080C0A00080C0C00080C0E00080E0000080E0200080E0400080E0600080E0800080E0A00080E0C00080E0E000C0000000C0002000C0004000C0006000C0008000C000A000C000C000C000E000C0200000C0202000C0204000C0206000C0208000C020A000C020C000C020E000C0400000C0402000C0404000C0406000C0
310
408000C040A000C040C000C040E000C0600000C0602000C0604000C0606000C0608000C060A000C060C000C060E000C0800000C0802000C0804000C0806000C0808000C080A000C080C000C080E000C0A00000C0A02000C0A04000C0A06000C0A08000C0A0A000C0A0C000C0A0E000C0C00000C0C02000C0C04000C0C06000
310
C0C08000C0C0A000F0FBFF00A4A0A000808080000000FF0000FF000000FFFF00FF000000FF00FF00FFFF0000FFFFFF0000000000000000000000000000000000000000000000000000000000000000000000000000000000FFFFFFFFFFFFFFFFFFFFFFFFFFFFFFFF00000000000000000000000000000000FF000000000000
310
0000000000000000FF00000000000000000000000000000000FF0000000000000000000000000000FF00000000000000000000000000000000FF0000000000000000000000000000FF00000000000000000000000000000000FF0000000000000000000000000000FF00000000000000000000000000000000FF0000000000
310
000000000000000000FF00000000000000000000000000000000FF0000000000000000000000000000FF00000000000000000000000000000000FF0000000000000000000000000000FF00000000000000000000000000000000FF0000000000000000000000000000FF00000000000000000000000000000000FF00000000
310
00000000000000000000FF00000000000000000000000000000000FF0000000000000000000000000000FF00000000000000000000000000000000FF0000000000000000000000000000FF00000000000000000000000000000000FF0000000000000000000000000000FF00000000000000000000000000000000FF000000
310
0000000000000000000000FF00000000000000000000000000000000FF0000000000000000000000000000FF00000000000000000000000000000000FF0000000000000000000000000000FF00000000000000000000000000000000FF0000000000000000000000000000FF00000000000000000000000000000000FF0000
310
000000000000000000000000FF00000000000000000000000000000000FF0000000000000000000000000000FF00000000000000000000000000000000FF0000000000000000000000000000FF00000000000000000000000000000000FF0000000000000000000000000000FF00000000000000000000000000000000FF00
310
00000000000000000000000000FF00000000000000000000000000000000FFFFFFFFFFFFFFFFFFFFFFFFFFFFFFFF0000000000000000000000000000000000FFFF00000000000000000000FFFF000000000000000000000000000000000000FFFF00000000000000000000FFFF000000000000000000000000000000000000
310
FFFF000000FFFFFFFF000000FFFF000000000000000000000000000000000000FFFF000000FFFFFFFF000000FFFF000000000000000000000000000000000000FFFF000000FF0000FF000000FFFF000000000000000000000000000000000000FFFFFFFFFFFF0000FFFFFFFFFFFF0000000000000000000000000000000000
310
00FFFFFFFFFFFF0000FFFFFFFFFFFF0000000000000000000000000000000000000000000000000000000000000000000000000000000000
102
{BLKREFS
331
B93
102
}
1001
ACAD
1000
DesignCenter Data
1002
{
1070
     1
1070
     4
1002
}
  0
BLOCK_RECORD
  5
B94
330
1
100
AcDbSymbolTableRecord
100
AcDbBlockTableRecord
  2
4
340
0
310
2800000020000000200000000100080000000000000400000000000000000000000000000000000000000000000080000080000000808000800000008000800080800000C0C0C000C0DCC000F0CAA6000020400000206000002080000020A0000020C0000020E00000400000004020000040400000406000004080000040A0
310
000040C0000040E00000600000006020000060400000606000006080000060A0000060C0000060E00000800000008020000080400000806000008080000080A0000080C0000080E00000A0000000A0200000A0400000A0600000A0800000A0A00000A0C00000A0E00000C0000000C0200000C0400000C0600000C0800000C0
310
A00000C0C00000C0E00000E0000000E0200000E0400000E0600000E0800000E0A00000E0C00000E0E00040000000400020004000400040006000400080004000A0004000C0004000E00040200000402020004020400040206000402080004020A0004020C0004020E000404000004040200040404000404060004040800040
310
40A0004040C0004040E00040600000406020004060400040606000406080004060A0004060C0004060E00040800000408020004080400040806000408080004080A0004080C0004080E00040A0000040A0200040A0400040A0600040A0800040A0A00040A0C00040A0E00040C0000040C0200040C0400040C0600040C08000
310
40C0A00040C0C00040C0E00040E0000040E0200040E0400040E0600040E0800040E0A00040E0C00040E0E00080000000800020008000400080006000800080008000A0008000C0008000E00080200000802020008020400080206000802080008020A0008020C0008020E00080400000804020008040400080406000804080
310
008040A0008040C0008040E00080600000806020008060400080606000806080008060A0008060C0008060E00080800000808020008080400080806000808080008080A0008080C0008080E00080A0000080A0200080A0400080A0600080A0800080A0A00080A0C00080A0E00080C0000080C0200080C0400080C0600080C0
310
800080C0A00080C0C00080C0E00080E0000080E0200080E0400080E0600080E0800080E0A00080E0C00080E0E000C0000000C0002000C0004000C0006000C0008000C000A000C000C000C000E000C0200000C0202000C0204000C0206000C0208000C020A000C020C000C020E000C0400000C0402000C0404000C0406000C0
310
408000C040A000C040C000C040E000C0600000C0602000C0604000C0606000C0608000C060A000C060C000C060E000C0800000C0802000C0804000C0806000C0808000C080A000C080C000C080E000C0A00000C0A02000C0A04000C0A06000C0A08000C0A0A000C0A0C000C0A0E000C0C00000C0C02000C0C04000C0C06000
310
C0C08000C0C0A000F0FBFF00A4A0A000808080000000FF0000FF000000FFFF00FF000000FF00FF00FFFF0000FFFFFF0000000000000000000000000000000000000000000000000000000000000000000000000000000000000000000000000000000000000000000000000000000000000000000000000000000000000000
310
00000000000000000000000000000000000000000000000000000000000000000000000000000000000000000000000000000000000000000000000000000000000000000000000000000000000000000000000000000000000000000000000000000000000000000000000000000000000000000000000000000000000000
310
000000000000000000000000000000000000000000000000000000000000000000000000000000000000000000FFFF00000000000000000000000000000000000000000000000000000000FFFF00FFFFFF000000000000000000000000000000000000000000000000FFFF00FFFFFF00FF0000000000000000000000000000
310
0000000000000000FFFFFFFFFFFFFFFF00FF00000000000000000000000000000000000000FFFFFFFFFFFFFFFFFFFFFFFFFF0000000000000000000000000000000000FFFFFFFFFFFFFFFFFFFFFFFFFFFF00000000000000000000000000000000FFFFFFFFFFFFFFFFFFFFFFFFFFFFFF000000000000000000000000000000
310
FFFFFFFFFFFFFFFFFFFFFFFFFFFFFF0000000000000000000000000000FFFFFFFFFFFFFFFFFFFFFFFFFFFFFFFF0000000000000000000000000000FFFFFFFFFFFFFFFFFFFFFFFFFFFFFFFF0000000000000000000000000000FFFF00FFFFFFFFFFFFFFFFFFFFFFFFFF0000000000000000000000000000FFFFFFFF00FFFFFF
310
FFFFFFFFFFFFFF000000000000000000000000000000FFFFFFFFFFFFFFFFFFFFFFFFFFFFFF0000000000000000000000000000000000FFFFFFFFFFFFFFFFFFFFFFFFFF00000000000000000000000000000000000000FFFFFFFFFFFFFFFFFFFFFF000000000000000000000000000000000000000000FFFFFFFFFFFFFFFF00
310
000000000000000000000000000000000000000000000000FFFFFFFFFFFF000000000000000000000000000000000000000000000000000000FFFFFF00000000000000000000000000000000000000000000000000000000000000000000000000000000000000000000000000000000000000000000000000000000000000
310
00000000000000000000000000000000000000000000000000000000000000000000000000000000000000000000000000000000000000000000000000000000000000000000000000000000000000000000000000000000000000000000000000000000000000000000000000000000000000000000000000000000000000
310
0000000000000000000000000000000000000000000000000000000000000000000000000000000000000000000000000000000000000000
102
{BLKREFS
331
D12
102
}
1001
ACAD
1000
DesignCenter Data
1002
{
1070
     1
1070
     4
1002
}
  0
ENDTAB
  0
ENDSEC
  0
SECTION
  2
BLOCKS
  0
BLOCK
  5
20
330
1F
100
AcDbEntity
  8
0
100
AcDbBlockBegin
  2
*Model_Space
 70
     0
 10
0.0
 20
0.0
 30
0.0
  3
*Model_Space
  1

  0
ENDBLK
  5
21
330
1F
100
AcDbEntity
  8
0
100
AcDbBlockEnd
  0
BLOCK
  5
D4
330
D2
100
AcDbEntity
 67
     1
  8
0
100
AcDbBlockBegin
  2
*Paper_Space
 70
     0
 10
0.0
 20
0.0
 30
0.0
  3
*Paper_Space
  1

  0
ENDBLK
  5
D5
330
D2
100
AcDbEntity
 67
     1
  8
0
100
AcDbBlockEnd
  0
BLOCK
  5
D8
330
D6
100
AcDbEntity
 67
     1
  8
0
100
AcDbBlockBegin
  2
*Paper_Space0
 70
     0
 10
0.0
 20
0.0
 30
0.0
  3
*Paper_Space0
  1

  0
ENDBLK
  5
D9
330
D6
100
AcDbEntity
 67
     1
  8
0
100
AcDbBlockEnd
  0
BLOCK
  5
93E
330
93D
100
AcDbEntity
  8
0
100
AcDbBlockBegin
  2
1
 70
     0
 10
0.0
 20
0.0
 30
0.0
  3
1
  1

  0
LINE
  5
940
330
93D
100
AcDbEntity
  8
0
  6
Continuous
 62
     7
370
    15
100
AcDbLine
 10
1779.249613813901
 20
1019.914485087216
 30
0.0
 11
1779.249613813901
 21
1018.114485087216
 31
0.0
  0
LINE
  5
941
330
93D
100
AcDbEntity
  8
0
  6
Continuous
 62
     7
370
    15
100
AcDbLine
 10
1785.049613813901
 20
1018.114485087216
 30
0.0
 11
1785.049613813901
 21
1019.914485087216
 31
0.0
  0
LINE
  5
942
330
93D
100
AcDbEntity
  8
0
  6
Continuous
 62
     7
370
    15
100
AcDbLine
 10
1772.999613813901
 20
1019.914485087216
 30
0.0
 11
1772.999613813901
 21
1018.114485087216
 31
0.0
  0
LINE
  5
943
330
93D
100
AcDbEntity
  8
0
  6
Continuous
 62
     7
370
    15
100
AcDbLine
 10
1778.799613813901
 20
1018.114485087216
 30
0.0
 11
1778.799613813901
 21
1019.914485087216
 31
0.0
  0
LINE
  5
944
330
93D
100
AcDbEntity
  8
0
  6
Continuous
 62
     7
370
    15
100
AcDbLine
 10
1798.4996138139
 20
1019.484485087216
 30
0.0
 11
1798.4996138139
 21
1018.114485087216
 31
0.0
  0
LINE
  5
945
330
93D
100
AcDbEntity
  8
0
  6
Continuous
 62
     7
370
    15
100
AcDbLine
 10
1803.2996138139
 20
1018.114485087216
 30
0.0
 11
1803.2996138139
 21
1019.484485087216
 31
0.0
  0
LINE
  5
946
330
93D
100
AcDbEntity
  8
0
  6
Continuous
 62
     7
370
    15
100
AcDbLine
 10
1810.999613813901
 20
1019.484485087216
 30
0.0
 11
1810.999613813901
 21
1018.114485087216
 31
0.0
  0
LINE
  5
947
330
93D
100
AcDbEntity
  8
0
  6
Continuous
 62
     7
370
    15
100
AcDbLine
 10
1815.7996138139
 20
1018.114485087216
 30
0.0
 11
1815.7996138139
 21
1019.484485087216
 31
0.0
  0
LINE
  5
948
330
93D
100
AcDbEntity
  8
0
  6
Continuous
 62
     7
370
    15
100
AcDbLine
 10
1823.499613813901
 20
1019.484485087216
 30
0.0
 11
1823.499613813901
 21
1018.114485087216
 31
0.0
  0
LINE
  5
949
330
93D
100
AcDbEntity
  8
0
  6
Continuous
 62
     7
370
    15
100
AcDbLine
 10
1828.2996138139
 20
1018.114485087216
 30
0.0
 11
1828.2996138139
 21
1019.484485087216
 31
0.0
  0
LINE
  5
94A
330
93D
100
AcDbEntity
  8
0
  6
Continuous
 62
     7
370
    15
100
AcDbLine
 10
1804.749613813901
 20
1019.484485087216
 30
0.0
 11
1804.749613813901
 21
1018.114485087216
 31
0.0
  0
LINE
  5
94B
330
93D
100
AcDbEntity
  8
0
  6
Continuous
 62
     7
370
    15
100
AcDbLine
 10
1809.5496138139
 20
1018.114485087216
 30
0.0
 11
1809.5496138139
 21
1019.484485087216
 31
0.0
  0
LINE
  5
94C
330
93D
100
AcDbEntity
  8
0
  6
Continuous
 62
     7
370
    15
100
AcDbLine
 10
1817.249613813901
 20
1019.484485087216
 30
0.0
 11
1817.249613813901
 21
1018.114485087216
 31
0.0
  0
LINE
  5
94D
330
93D
100
AcDbEntity
  8
0
  6
Continuous
 62
     7
370
    15
100
AcDbLine
 10
1822.0496138139
 20
1018.114485087216
 30
0.0
 11
1822.0496138139
 21
1019.484485087216
 31
0.0
  0
LINE
  5
94E
330
93D
100
AcDbEntity
  8
0
  6
Continuous
 62
     7
370
    15
100
AcDbLine
 10
1792.249613813901
 20
1019.484485087216
 30
0.0
 11
1792.249613813901
 21
1018.114485087216
 31
0.0
  0
LINE
  5
94F
330
93D
100
AcDbEntity
  8
0
  6
Continuous
 62
     7
370
    15
100
AcDbLine
 10
1797.0496138139
 20
1018.114485087216
 30
0.0
 11
1797.0496138139
 21
1019.484485087216
 31
0.0
  0
LINE
  5
950
330
93D
100
AcDbEntity
  8
0
  6
Continuous
 62
     7
370
    15
100
AcDbLine
 10
1848.499613813901
 20
1019.484485087216
 30
0.0
 11
1848.499613813901
 21
1018.114485087216
 31
0.0
  0
LINE
  5
951
330
93D
100
AcDbEntity
  8
0
  6
Continuous
 62
     7
370
    15
100
AcDbLine
 10
1853.2996138139
 20
1018.114485087216
 30
0.0
 11
1853.2996138139
 21
1019.484485087216
 31
0.0
  0
LINE
  5
952
330
93D
100
AcDbEntity
  8
0
  6
Continuous
 62
     7
370
    15
100
AcDbLine
 10
1842.249613813901
 20
1019.484485087216
 30
0.0
 11
1842.249613813901
 21
1018.114485087216
 31
0.0
  0
LINE
  5
953
330
93D
100
AcDbEntity
  8
0
  6
Continuous
 62
     7
370
    15
100
AcDbLine
 10
1847.0496138139
 20
1018.114485087216
 30
0.0
 11
1847.0496138139
 21
1019.484485087216
 31
0.0
  0
LINE
  5
954
330
93D
100
AcDbEntity
  8
0
  6
Continuous
 62
     7
370
    15
100
AcDbLine
 10
1829.7496138139
 20
1019.484485087216
 30
0.0
 11
1829.7496138139
 21
1018.114485087216
 31
0.0
  0
LINE
  5
955
330
93D
100
AcDbEntity
  8
0
  6
Continuous
 62
     7
370
    15
100
AcDbLine
 10
1834.5496138139
 20
1018.114485087216
 30
0.0
 11
1834.5496138139
 21
1019.484485087216
 31
0.0
  0
LINE
  5
956
330
93D
100
AcDbEntity
  8
0
  6
Continuous
 62
     7
370
    15
100
AcDbLine
 10
1835.999613813901
 20
1019.484485087216
 30
0.0
 11
1835.999613813901
 21
1018.114485087216
 31
0.0
  0
LINE
  5
957
330
93D
100
AcDbEntity
  8
0
  6
Continuous
 62
     7
370
    15
100
AcDbLine
 10
1840.7996138139
 20
1018.114485087216
 30
0.0
 11
1840.7996138139
 21
1019.484485087216
 31
0.0
  0
CIRCLE
  5
958
330
93D
100
AcDbEntity
  8
0
  6
Continuous
 62
     7
370
    15
100
AcDbCircle
 10
1794.6496138139
 20
1013.514485087216
 30
0.0
 40
2.400000000000005
  0
CIRCLE
  5
959
330
93D
100
AcDbEntity
  8
0
  6
Continuous
 62
     7
370
    15
100
AcDbCircle
 10
1800.8996138139
 20
1013.514485087216
 30
0.0
 40
2.399999999999977
  0
CIRCLE
  5
95A
330
93D
100
AcDbEntity
  8
0
  6
Continuous
 62
     7
370
    15
100
AcDbCircle
 10
1807.1496138139
 20
1013.514485087216
 30
0.0
 40
2.400000000000005
  0
CIRCLE
  5
95B
330
93D
100
AcDbEntity
  8
0
  6
Continuous
 62
     7
370
    15
100
AcDbCircle
 10
1813.3996138139
 20
1013.514485087216
 30
0.0
 40
2.399999999999977
  0
CIRCLE
  5
95C
330
93D
100
AcDbEntity
  8
0
  6
Continuous
 62
     7
370
    15
100
AcDbCircle
 10
1819.6496138139
 20
1013.514485087216
 30
0.0
 40
2.400000000000005
  0
CIRCLE
  5
95D
330
93D
100
AcDbEntity
  8
0
  6
Continuous
 62
     7
370
    15
100
AcDbCircle
 10
1825.8996138139
 20
1013.514485087216
 30
0.0
 40
2.399999999999977
  0
CIRCLE
  5
95E
330
93D
100
AcDbEntity
  8
0
  6
Continuous
 62
     7
370
    15
100
AcDbCircle
 10
1832.1496138139
 20
1013.514485087216
 30
0.0
 40
2.400000000000005
  0
CIRCLE
  5
95F
330
93D
100
AcDbEntity
  8
0
  6
Continuous
 62
     7
370
    15
100
AcDbCircle
 10
1838.3996138139
 20
1013.514485087216
 30
0.0
 40
2.399999999999977
  0
CIRCLE
  5
960
330
93D
100
AcDbEntity
  8
0
  6
Continuous
 62
     7
370
    15
100
AcDbCircle
 10
1844.6496138139
 20
1013.514485087216
 30
0.0
 40
2.400000000000005
  0
CIRCLE
  5
961
330
93D
100
AcDbEntity
  8
0
  6
Continuous
 62
     7
370
    15
100
AcDbCircle
 10
1850.8996138139
 20
1013.514485087216
 30
0.0
 40
2.399999999999977
  0
CIRCLE
  5
962
330
93D
100
AcDbEntity
  8
0
  6
Continuous
 62
     7
370
    15
100
AcDbCircle
 10
1782.1496138139
 20
1013.514485087216
 30
0.0
 40
2.749999999999971
  0
CIRCLE
  5
963
330
93D
100
AcDbEntity
  8
0
  6
Continuous
 62
     7
370
    15
100
AcDbCircle
 10
1775.8996138139
 20
1013.514485087216
 30
0.0
 40
2.749999999999971
  0
LINE
  5
964
330
93D
100
AcDbEntity
  8
0
  6
Continuous
 62
     7
370
    15
100
AcDbLine
 10
1770.3996138139
 20
1009.114485087216
 30
0.0
 11
1770.3996138139
 21
1018.114485087216
 31
0.0
  0
LINE
  5
965
330
93D
100
AcDbEntity
  8
0
  6
Continuous
 62
     7
370
    15
100
AcDbLine
 10
1770.3996138139
 20
1018.114485087216
 30
0.0
 11
1856.3996138139
 21
1018.114485087216
 31
0.0
  0
LINE
  5
966
330
93D
100
AcDbEntity
  8
0
  6
Continuous
 62
     7
370
    15
100
AcDbLine
 10
1856.3996138139
 20
1018.114485087216
 30
0.0
 11
1856.3996138139
 21
1009.114485087216
 31
0.0
  0
LINE
  5
967
330
93D
100
AcDbEntity
  8
0
  6
Continuous
 62
     7
370
    15
100
AcDbLine
 10
1856.3996138139
 20
1009.114485087216
 30
0.0
 11
1770.3996138139
 21
1009.114485087216
 31
0.0
  0
LINE
  5
968
330
93D
100
AcDbEntity
  8
0
  6
Continuous
 62
     7
370
    15
100
AcDbLine
 10
1779.299053213063
 20
1019.914485087216
 30
0.0
 11
1779.249613813901
 21
1019.914485087216
 31
0.0
  0
ELLIPSE
  5
969
330
93D
100
AcDbEntity
  8
0
  6
Continuous
 62
     7
370
    15
100
AcDbEllipse
 10
1782.1496138139
 20
1009.665803074579
 30
0.0
 11
-0.0039880259559197
 21
55.33529639401712
 31
0.0
210
0.0
220
0.0
230
1.0
 40
0.0524077297285927
 41
1.362390743167512
 42
1.384506410350493
  0
ELLIPSE
  5
96A
330
93D
100
AcDbEntity
  8
0
  6
Continuous
 62
     7
370
    15
100
AcDbEllipse
 10
1782.1496138139
 20
1009.665803074579
 30
0.0
 11
-0.0039880259559197
 21
55.33529639401712
 31
0.0
210
0.0
220
0.0
230
1.0
 40
0.0524077297285927
 41
4.89867134275783
 42
4.92078700994081
  0
LINE
  5
96B
330
93D
100
AcDbEntity
  8
0
  6
Continuous
 62
     7
370
    15
100
AcDbLine
 10
1785.049613813901
 20
1019.914485087216
 30
0.0
 11
1784.998701222953
 21
1019.914485087216
 31
0.0
  0
ELLIPSE
  5
96C
330
93D
100
AcDbEntity
  8
0
  6
Continuous
 62
     7
370
    15
100
AcDbEllipse
 10
1782.1496138139
 20
1009.665803074579
 30
0.0
 11
0.0039880259559482
 21
55.33529639401712
 31
0.0
210
0.0
220
0.0
230
1.0
 40
0.0524077297285927
 41
4.898678896829106
 42
4.920794564012087
  0
LINE
  5
96D
330
93D
100
AcDbEntity
  8
0
  6
Continuous
 62
     7
370
    15
100
AcDbLine
 10
1784.986040495041
 20
1021.114485087216
 30
0.0
 11
1779.311541447561
 21
1021.114485087216
 31
0.0
  0
LINE
  5
96E
330
93D
100
AcDbEntity
  8
0
  6
Continuous
 62
     7
370
    15
100
AcDbLine
 10
1773.049053213063
 20
1019.914485087216
 30
0.0
 11
1772.999613813901
 21
1019.914485087216
 31
0.0
  0
ELLIPSE
  5
96F
330
93D
100
AcDbEntity
  8
0
  6
Continuous
 62
     7
370
    15
100
AcDbEllipse
 10
1775.8996138139
 20
1009.665803074579
 30
0.0
 11
-0.0039880259559197
 21
55.33529639401712
 31
0.0
210
0.0
220
0.0
230
1.0
 40
0.0524077297285927
 41
1.362390743167512
 42
1.384506410350493
  0
ELLIPSE
  5
970
330
93D
100
AcDbEntity
  8
0
  6
Continuous
 62
     7
370
    15
100
AcDbEllipse
 10
1775.8996138139
 20
1009.665803074579
 30
0.0
 11
-0.0039880259559197
 21
55.33529639401712
 31
0.0
210
0.0
220
0.0
230
1.0
 40
0.0524077297285927
 41
4.89867134275783
 42
4.92078700994081
  0
LINE
  5
971
330
93D
100
AcDbEntity
  8
0
  6
Continuous
 62
     7
370
    15
100
AcDbLine
 10
1778.799613813901
 20
1019.914485087216
 30
0.0
 11
1778.748701222953
 21
1019.914485087216
 31
0.0
  0
ELLIPSE
  5
972
330
93D
100
AcDbEntity
  8
0
  6
Continuous
 62
     7
370
    15
100
AcDbEllipse
 10
1775.8996138139
 20
1009.665803074579
 30
0.0
 11
0.0039880259559482
 21
55.33529639401712
 31
0.0
210
0.0
220
0.0
230
1.0
 40
0.0524077297285932
 41
4.898678896829108
 42
4.920794564012089
  0
LINE
  5
973
330
93D
100
AcDbEntity
  8
0
  6
Continuous
 62
     7
370
    15
100
AcDbLine
 10
1778.736040495041
 20
1021.114485087216
 30
0.0
 11
1773.061541447561
 21
1021.114485087216
 31
0.0
  0
LINE
  5
974
330
93D
100
AcDbEntity
  8
0
  6
Continuous
 62
     7
370
    15
100
AcDbLine
 10
1803.2996138139
 20
1019.484485087216
 30
0.0
 11
1803.238247226904
 21
1019.484485087216
 31
0.0
  0
ELLIPSE
  5
975
330
93D
100
AcDbEntity
  8
0
  6
Continuous
 62
     7
370
    15
100
AcDbEllipse
 10
1800.8996138139
 20
1009.235803074579
 30
0.0
 11
0.0022043364552928
 21
45.79472805040194
 31
0.0
210
0.0
220
0.0
230
1.0
 40
0.0524077571777692
 41
4.938099143905423
 42
4.965071758182445
  0
LINE
  5
976
330
93D
100
AcDbEntity
  8
0
  6
Continuous
 62
     7
370
    15
100
AcDbLine
 10
1798.559996466937
 20
1019.484485087216
 30
0.0
 11
1798.4996138139
 21
1019.484485087216
 31
0.0
  0
ELLIPSE
  5
977
330
93D
100
AcDbEntity
  8
0
  6
Continuous
 62
     7
370
    15
100
AcDbEllipse
 10
1800.8996138139
 20
1009.235803074579
 30
0.0
 11
-0.0022043364552928
 21
45.79472805040197
 31
0.0
210
0.0
220
0.0
230
0.9999999999999998
 40
0.0524077571777692
 41
1.318113548997165
 42
1.345086163274183
  0
LINE
  5
978
330
93D
100
AcDbEntity
  8
0
  6
Continuous
 62
     7
370
    15
100
AcDbLine
 10
1803.222853276313
 20
1020.684485087216
 30
0.0
 11
1798.575275210446
 21
1020.684485087216
 31
0.0
  0
ELLIPSE
  5
979
330
93D
100
AcDbEntity
  8
0
  6
Continuous
 62
     7
370
    15
100
AcDbEllipse
 10
1800.8996138139
 20
1009.235803074579
 30
0.0
 11
-0.0022043364552928
 21
45.79472805040197
 31
0.0
210
0.0
220
0.0
230
0.9999999999999998
 40
0.0524077571777692
 41
4.938094098594106
 42
4.965066712871129
  0
LINE
  5
97A
330
93D
100
AcDbEntity
  8
0
  6
Continuous
 62
     7
370
    15
100
AcDbLine
 10
1815.7996138139
 20
1019.484485087216
 30
0.0
 11
1815.738247226904
 21
1019.484485087216
 31
0.0
  0
ELLIPSE
  5
97B
330
93D
100
AcDbEntity
  8
0
  6
Continuous
 62
     7
370
    15
100
AcDbEllipse
 10
1813.3996138139
 20
1009.235803074579
 30
0.0
 11
0.0022043364552928
 21
45.79472805040194
 31
0.0
210
0.0
220
0.0
230
1.0
 40
0.0524077571777695
 41
4.938099143905426
 42
4.965071758182449
  0
LINE
  5
97C
330
93D
100
AcDbEntity
  8
0
  6
Continuous
 62
     7
370
    15
100
AcDbLine
 10
1811.059996466937
 20
1019.484485087216
 30
0.0
 11
1810.999613813901
 21
1019.484485087216
 31
0.0
  0
ELLIPSE
  5
97D
330
93D
100
AcDbEntity
  8
0
  6
Continuous
 62
     7
370
    15
100
AcDbEllipse
 10
1813.3996138139
 20
1009.235803074579
 30
0.0
 11
-0.0022043364552928
 21
45.79472805040197
 31
0.0
210
0.0
220
0.0
230
0.9999999999999998
 40
0.0524077571777695
 41
1.318113548997165
 42
1.345086163274182
  0
ELLIPSE
  5
97E
330
93D
100
AcDbEntity
  8
0
  6
Continuous
 62
     7
370
    15
100
AcDbEllipse
 10
1813.3996138139
 20
1009.235803074579
 30
0.0
 11
-0.0022043364552928
 21
45.79472805040197
 31
0.0
210
0.0
220
0.0
230
0.9999999999999998
 40
0.0524077571777695
 41
4.938094098594105
 42
4.965066712871129
  0
LINE
  5
97F
330
93D
100
AcDbEntity
  8
0
  6
Continuous
 62
     7
370
    15
100
AcDbLine
 10
1815.722853276313
 20
1020.684485087216
 30
0.0
 11
1811.075275210446
 21
1020.684485087216
 31
0.0
  0
LINE
  5
980
330
93D
100
AcDbEntity
  8
0
  6
Continuous
 62
     7
370
    15
100
AcDbLine
 10
1828.2996138139
 20
1019.484485087216
 30
0.0
 11
1828.238247226904
 21
1019.484485087216
 31
0.0
  0
ELLIPSE
  5
981
330
93D
100
AcDbEntity
  8
0
  6
Continuous
 62
     7
370
    15
100
AcDbEllipse
 10
1825.8996138139
 20
1009.235803074579
 30
0.0
 11
0.0022043364552928
 21
45.79472805040194
 31
0.0
210
0.0
220
0.0
230
1.0
 40
0.0524077571777695
 41
4.938099143905424
 42
4.965071758182446
  0
LINE
  5
982
330
93D
100
AcDbEntity
  8
0
  6
Continuous
 62
     7
370
    15
100
AcDbLine
 10
1823.559996466937
 20
1019.484485087216
 30
0.0
 11
1823.499613813901
 21
1019.484485087216
 31
0.0
  0
ELLIPSE
  5
983
330
93D
100
AcDbEntity
  8
0
  6
Continuous
 62
     7
370
    15
100
AcDbEllipse
 10
1825.8996138139
 20
1009.235803074579
 30
0.0
 11
-0.0022043364552786
 21
45.79472805040197
 31
0.0
210
0.0
220
0.0
230
0.9999999999999998
 40
0.0524077571777692
 41
1.318113548997165
 42
1.345086163274183
  0
ELLIPSE
  5
984
330
93D
100
AcDbEntity
  8
0
  6
Continuous
 62
     7
370
    15
100
AcDbEllipse
 10
1825.8996138139
 20
1009.235803074579
 30
0.0
 11
-0.0022043364552786
 21
45.79472805040197
 31
0.0
210
0.0
220
0.0
230
0.9999999999999998
 40
0.0524077571777692
 41
4.938094098594108
 42
4.965066712871127
  0
LINE
  5
985
330
93D
100
AcDbEntity
  8
0
  6
Continuous
 62
     7
370
    15
100
AcDbLine
 10
1828.222853276313
 20
1020.684485087216
 30
0.0
 11
1823.575275210446
 21
1020.684485087216
 31
0.0
  0
LINE
  5
986
330
93D
100
AcDbEntity
  8
0
  6
Continuous
 62
     7
370
    15
100
AcDbLine
 10
1809.5496138139
 20
1019.484485087216
 30
0.0
 11
1809.488247226904
 21
1019.484485087216
 31
0.0
  0
ELLIPSE
  5
987
330
93D
100
AcDbEntity
  8
0
  6
Continuous
 62
     7
370
    15
100
AcDbEllipse
 10
1807.1496138139
 20
1009.235803074579
 30
0.0
 11
0.0022043364552928
 21
45.79472805040194
 31
0.0
210
0.0
220
0.0
230
1.0
 40
0.0524077571777692
 41
4.938099143905422
 42
4.965071758182447
  0
LINE
  5
988
330
93D
100
AcDbEntity
  8
0
  6
Continuous
 62
     7
370
    15
100
AcDbLine
 10
1804.809996466937
 20
1019.484485087216
 30
0.0
 11
1804.749613813901
 21
1019.484485087216
 31
0.0
  0
ELLIPSE
  5
989
330
93D
100
AcDbEntity
  8
0
  6
Continuous
 62
     7
370
    15
100
AcDbEllipse
 10
1807.1496138139
 20
1009.235803074579
 30
0.0
 11
-0.0022043364552928
 21
45.79472805040197
 31
0.0
210
0.0
220
0.0
230
0.9999999999999998
 40
0.0524077571777692
 41
1.318113548997165
 42
1.345086163274183
  0
ELLIPSE
  5
98A
330
93D
100
AcDbEntity
  8
0
  6
Continuous
 62
     7
370
    15
100
AcDbEllipse
 10
1807.1496138139
 20
1009.235803074579
 30
0.0
 11
-0.0022043364552928
 21
45.79472805040197
 31
0.0
210
0.0
220
0.0
230
0.9999999999999998
 40
0.0524077571777692
 41
4.938094098594106
 42
4.965066712871129
  0
LINE
  5
98B
330
93D
100
AcDbEntity
  8
0
  6
Continuous
 62
     7
370
    15
100
AcDbLine
 10
1809.472853276313
 20
1020.684485087216
 30
0.0
 11
1804.825275210445
 21
1020.684485087216
 31
0.0
  0
LINE
  5
98C
330
93D
100
AcDbEntity
  8
0
  6
Continuous
 62
     7
370
    15
100
AcDbLine
 10
1822.0496138139
 20
1019.484485087216
 30
0.0
 11
1821.988247226904
 21
1019.484485087216
 31
0.0
  0
ELLIPSE
  5
98D
330
93D
100
AcDbEntity
  8
0
  6
Continuous
 62
     7
370
    15
100
AcDbEllipse
 10
1819.6496138139
 20
1009.235803074579
 30
0.0
 11
0.0022043364552786
 21
45.79472805040194
 31
0.0
210
0.0
220
0.0
230
1.0
 40
0.0524077571777692
 41
4.938099143905426
 42
4.965071758182446
  0
LINE
  5
98E
330
93D
100
AcDbEntity
  8
0
  6
Continuous
 62
     7
370
    15
100
AcDbLine
 10
1817.309996466937
 20
1019.484485087216
 30
0.0
 11
1817.249613813901
 21
1019.484485087216
 31
0.0
  0
ELLIPSE
  5
98F
330
93D
100
AcDbEntity
  8
0
  6
Continuous
 62
     7
370
    15
100
AcDbEllipse
 10
1819.6496138139
 20
1009.235803074579
 30
0.0
 11
-0.002204336455307
 21
45.79472805040197
 31
0.0
210
0.0
220
0.0
230
0.9999999999999998
 40
0.0524077571777698
 41
1.318113548997163
 42
1.345086163274182
  0
ELLIPSE
  5
990
330
93D
100
AcDbEntity
  8
0
  6
Continuous
 62
     7
370
    15
100
AcDbEllipse
 10
1819.6496138139
 20
1009.235803074579
 30
0.0
 11
-0.002204336455307
 21
45.79472805040197
 31
0.0
210
0.0
220
0.0
230
0.9999999999999998
 40
0.0524077571777698
 41
4.938094098594108
 42
4.965066712871132
  0
LINE
  5
991
330
93D
100
AcDbEntity
  8
0
  6
Continuous
 62
     7
370
    15
100
AcDbLine
 10
1821.972853276313
 20
1020.684485087216
 30
0.0
 11
1817.325275210446
 21
1020.684485087216
 31
0.0
  0
LINE
  5
992
330
93D
100
AcDbEntity
  8
0
  6
Continuous
 62
     7
370
    15
100
AcDbLine
 10
1797.0496138139
 20
1019.484485087216
 30
0.0
 11
1796.988247226904
 21
1019.484485087216
 31
0.0
  0
ELLIPSE
  5
993
330
93D
100
AcDbEntity
  8
0
  6
Continuous
 62
     7
370
    15
100
AcDbEllipse
 10
1794.6496138139
 20
1009.235803074579
 30
0.0
 11
0.002204336455236
 21
45.79472805040194
 31
0.0
210
0.0
220
0.0
230
1.0
 40
0.0524077571777692
 41
4.938099143905425
 42
4.965071758182446
  0
LINE
  5
994
330
93D
100
AcDbEntity
  8
0
  6
Continuous
 62
     7
370
    15
100
AcDbLine
 10
1792.309996466937
 20
1019.484485087216
 30
0.0
 11
1792.249613813901
 21
1019.484485087216
 31
0.0
  0
ELLIPSE
  5
995
330
93D
100
AcDbEntity
  8
0
  6
Continuous
 62
     7
370
    15
100
AcDbEllipse
 10
1794.6496138139
 20
1009.235803074579
 30
0.0
 11
-0.0022043364553213
 21
45.79472805040197
 31
0.0
210
0.0
220
0.0
230
0.9999999999999998
 40
0.0524077571777704
 41
1.318113548997161
 42
1.34508616327418
  0
ELLIPSE
  5
996
330
93D
100
AcDbEntity
  8
0
  6
Continuous
 62
     7
370
    15
100
AcDbEllipse
 10
1794.6496138139
 20
1009.235803074579
 30
0.0
 11
-0.0022043364553213
 21
45.79472805040197
 31
0.0
210
0.0
220
0.0
230
0.9999999999999998
 40
0.0524077571777704
 41
4.938094098594114
 42
4.965066712871133
  0
LINE
  5
997
330
93D
100
AcDbEntity
  8
0
  6
Continuous
 62
     7
370
    15
100
AcDbLine
 10
1796.972853276313
 20
1020.684485087216
 30
0.0
 11
1792.325275210445
 21
1020.684485087216
 31
0.0
  0
LINE
  5
998
330
93D
100
AcDbEntity
  8
0
  6
Continuous
 62
     7
370
    15
100
AcDbLine
 10
1853.2996138139
 20
1019.484485087216
 30
0.0
 11
1853.238247226904
 21
1019.484485087216
 31
0.0
  0
ELLIPSE
  5
999
330
93D
100
AcDbEntity
  8
0
  6
Continuous
 62
     7
370
    15
100
AcDbEllipse
 10
1850.8996138139
 20
1009.235803074579
 30
0.0
 11
0.0022043364552786
 21
45.79472805040194
 31
0.0
210
0.0
220
0.0
230
1.0
 40
0.0524077571777695
 41
4.938099143905424
 42
4.965071758182448
  0
LINE
  5
99A
330
93D
100
AcDbEntity
  8
0
  6
Continuous
 62
     7
370
    15
100
AcDbLine
 10
1848.559996466937
 20
1019.484485087216
 30
0.0
 11
1848.499613813901
 21
1019.484485087216
 31
0.0
  0
ELLIPSE
  5
99B
330
93D
100
AcDbEntity
  8
0
  6
Continuous
 62
     7
370
    15
100
AcDbEllipse
 10
1850.8996138139
 20
1009.235803074579
 30
0.0
 11
-0.0022043364552928
 21
45.79472805040194
 31
0.0
210
0.0
220
0.0
230
1.0
 40
0.0524077571777695
 41
1.318113548997162
 42
1.345086163274183
  0
LINE
  5
99C
330
93D
100
AcDbEntity
  8
0
  6
Continuous
 62
     7
370
    15
100
AcDbLine
 10
1853.222853276313
 20
1020.684485087216
 30
0.0
 11
1848.575275210446
 21
1020.684485087216
 31
0.0
  0
ELLIPSE
  5
99D
330
93D
100
AcDbEntity
  8
0
  6
Continuous
 62
     7
370
    15
100
AcDbEllipse
 10
1850.8996138139
 20
1009.235803074579
 30
0.0
 11
-0.0022043364552928
 21
45.79472805040194
 31
0.0
210
0.0
220
0.0
230
1.0
 40
0.0524077571777695
 41
4.938094098594107
 42
4.965066712871131
  0
LINE
  5
99E
330
93D
100
AcDbEntity
  8
0
  6
Continuous
 62
     7
370
    15
100
AcDbLine
 10
1847.0496138139
 20
1019.484485087216
 30
0.0
 11
1846.988247226904
 21
1019.484485087216
 31
0.0
  0
ELLIPSE
  5
99F
330
93D
100
AcDbEntity
  8
0
  6
Continuous
 62
     7
370
    15
100
AcDbEllipse
 10
1844.6496138139
 20
1009.235803074579
 30
0.0
 11
0.0022043364552928
 21
45.79472805040194
 31
0.0
210
0.0
220
0.0
230
1.0
 40
0.0524077571777695
 41
4.938099143905426
 42
4.965071758182449
  0
LINE
  5
9A0
330
93D
100
AcDbEntity
  8
0
  6
Continuous
 62
     7
370
    15
100
AcDbLine
 10
1842.309996466937
 20
1019.484485087216
 30
0.0
 11
1842.249613813901
 21
1019.484485087216
 31
0.0
  0
ELLIPSE
  5
9A1
330
93D
100
AcDbEntity
  8
0
  6
Continuous
 62
     7
370
    15
100
AcDbEllipse
 10
1844.6496138139
 20
1009.235803074579
 30
0.0
 11
-0.0022043364552928
 21
45.79472805040194
 31
0.0
210
0.0
220
0.0
230
1.0
 40
0.0524077571777695
 41
1.318113548997165
 42
1.345086163274182
  0
ELLIPSE
  5
9A2
330
93D
100
AcDbEntity
  8
0
  6
Continuous
 62
     7
370
    15
100
AcDbEllipse
 10
1844.6496138139
 20
1009.235803074579
 30
0.0
 11
-0.0022043364552928
 21
45.79472805040194
 31
0.0
210
0.0
220
0.0
230
1.0
 40
0.0524077571777695
 41
4.938094098594105
 42
4.96506671287113
  0
LINE
  5
9A3
330
93D
100
AcDbEntity
  8
0
  6
Continuous
 62
     7
370
    15
100
AcDbLine
 10
1846.972853276313
 20
1020.684485087216
 30
0.0
 11
1842.325275210446
 21
1020.684485087216
 31
0.0
  0
LINE
  5
9A4
330
93D
100
AcDbEntity
  8
0
  6
Continuous
 62
     7
370
    15
100
AcDbLine
 10
1834.5496138139
 20
1019.484485087216
 30
0.0
 11
1834.488247226904
 21
1019.484485087216
 31
0.0
  0
ELLIPSE
  5
9A5
330
93D
100
AcDbEntity
  8
0
  6
Continuous
 62
     7
370
    15
100
AcDbEllipse
 10
1832.1496138139
 20
1009.235803074579
 30
0.0
 11
0.0022043364552786
 21
45.79472805040194
 31
0.0
210
0.0
220
0.0
230
1.0
 40
0.0524077571777695
 41
4.938099143905425
 42
4.965071758182446
  0
LINE
  5
9A6
330
93D
100
AcDbEntity
  8
0
  6
Continuous
 62
     7
370
    15
100
AcDbLine
 10
1829.809996466937
 20
1019.484485087216
 30
0.0
 11
1829.7496138139
 21
1019.484485087216
 31
0.0
  0
ELLIPSE
  5
9A7
330
93D
100
AcDbEntity
  8
0
  6
Continuous
 62
     7
370
    15
100
AcDbEllipse
 10
1832.1496138139
 20
1009.235803074579
 30
0.0
 11
-0.0022043364552928
 21
45.79472805040194
 31
0.0
210
0.0
220
0.0
230
1.0
 40
0.0524077571777698
 41
1.318113548997163
 42
1.345086163274181
  0
LINE
  5
9A8
330
93D
100
AcDbEntity
  8
0
  6
Continuous
 62
     7
370
    15
100
AcDbLine
 10
1834.472853276313
 20
1020.684485087216
 30
0.0
 11
1829.825275210446
 21
1020.684485087216
 31
0.0
  0
ELLIPSE
  5
9A9
330
93D
100
AcDbEntity
  8
0
  6
Continuous
 62
     7
370
    15
100
AcDbEllipse
 10
1832.1496138139
 20
1009.235803074579
 30
0.0
 11
-0.0022043364552928
 21
45.79472805040194
 31
0.0
210
0.0
220
0.0
230
1.0
 40
0.0524077571777698
 41
4.93809409859411
 42
4.965066712871131
  0
LINE
  5
9AA
330
93D
100
AcDbEntity
  8
0
  6
Continuous
 62
     7
370
    15
100
AcDbLine
 10
1840.7996138139
 20
1019.484485087216
 30
0.0
 11
1840.738247226904
 21
1019.484485087216
 31
0.0
  0
ELLIPSE
  5
9AB
330
93D
100
AcDbEntity
  8
0
  6
Continuous
 62
     7
370
    15
100
AcDbEllipse
 10
1838.3996138139
 20
1009.235803074579
 30
0.0
 11
0.0022043364552928
 21
45.79472805040194
 31
0.0
210
0.0
220
0.0
230
1.0
 40
0.0524077571777695
 41
4.938099143905423
 42
4.965071758182449
  0
LINE
  5
9AC
330
93D
100
AcDbEntity
  8
0
  6
Continuous
 62
     7
370
    15
100
AcDbLine
 10
1836.059996466937
 20
1019.484485087216
 30
0.0
 11
1835.999613813901
 21
1019.484485087216
 31
0.0
  0
ELLIPSE
  5
9AD
330
93D
100
AcDbEntity
  8
0
  6
Continuous
 62
     7
370
    15
100
AcDbEllipse
 10
1838.3996138139
 20
1009.235803074579
 30
0.0
 11
-0.0022043364552928
 21
45.79472805040194
 31
0.0
210
0.0
220
0.0
230
1.0
 40
0.0524077571777692
 41
1.318113548997163
 42
1.345086163274185
  0
ELLIPSE
  5
9AE
330
93D
100
AcDbEntity
  8
0
  6
Continuous
 62
     7
370
    15
100
AcDbEllipse
 10
1838.3996138139
 20
1009.235803074579
 30
0.0
 11
-0.0022043364552928
 21
45.79472805040194
 31
0.0
210
0.0
220
0.0
230
1.0
 40
0.0524077571777692
 41
4.938094098594106
 42
4.965066712871129
  0
LINE
  5
9AF
330
93D
100
AcDbEntity
  8
0
  6
Continuous
 62
     7
370
    15
100
AcDbLine
 10
1840.722853276313
 20
1020.684485087216
 30
0.0
 11
1836.075275210445
 21
1020.684485087216
 31
0.0
  0
LINE
  5
9B0
330
93D
100
AcDbEntity
  8
0
  6
Continuous
 62
     7
370
    15
100
AcDbLine
 10
1784.98768618024
 20
1021.114485087216
 30
0.0
 11
1784.986040495041
 21
1021.114485087216
 31
0.0
  0
LINE
  5
9B1
330
93D
100
AcDbEntity
  8
0
  6
Continuous
 62
     7
370
    15
100
AcDbLine
 10
1778.73768618024
 20
1021.114485087216
 30
0.0
 11
1778.736040495041
 21
1021.114485087216
 31
0.0
  0
LINE
  5
9B2
330
93D
100
AcDbEntity
  8
0
  6
Continuous
 62
     7
370
    15
100
AcDbLine
 10
1809.473952417355
 20
1020.684485087216
 30
0.0
 11
1809.472853276313
 21
1020.684485087216
 31
0.0
  0
LINE
  5
9B3
330
93D
100
AcDbEntity
  8
0
  6
Continuous
 62
     7
370
    15
100
AcDbLine
 10
1828.223952417355
 20
1020.684485087216
 30
0.0
 11
1828.222853276313
 21
1020.684485087216
 31
0.0
  0
LINE
  5
9B4
330
93D
100
AcDbEntity
  8
0
  6
Continuous
 62
     7
370
    15
100
AcDbLine
 10
1796.973952417355
 20
1020.684485087216
 30
0.0
 11
1796.972853276313
 21
1020.684485087216
 31
0.0
  0
LINE
  5
9B5
330
93D
100
AcDbEntity
  8
0
  6
Continuous
 62
     7
370
    15
100
AcDbLine
 10
1803.223952417355
 20
1020.684485087216
 30
0.0
 11
1803.222853276313
 21
1020.684485087216
 31
0.0
  0
LINE
  5
9B6
330
93D
100
AcDbEntity
  8
0
  6
Continuous
 62
     7
370
    15
100
AcDbLine
 10
1821.973952417355
 20
1020.684485087216
 30
0.0
 11
1821.972853276313
 21
1020.684485087216
 31
0.0
  0
LINE
  5
9B7
330
93D
100
AcDbEntity
  8
0
  6
Continuous
 62
     7
370
    15
100
AcDbLine
 10
1815.723952417355
 20
1020.684485087216
 30
0.0
 11
1815.722853276313
 21
1020.684485087216
 31
0.0
  0
LINE
  5
9B8
330
93D
100
AcDbEntity
  8
0
  6
Continuous
 62
     7
370
    15
100
AcDbLine
 10
1853.223952417355
 20
1020.684485087216
 30
0.0
 11
1853.222853276313
 21
1020.684485087216
 31
0.0
  0
LINE
  5
9B9
330
93D
100
AcDbEntity
  8
0
  6
Continuous
 62
     7
370
    15
100
AcDbLine
 10
1834.473952417355
 20
1020.684485087216
 30
0.0
 11
1834.472853276313
 21
1020.684485087216
 31
0.0
  0
LINE
  5
9BA
330
93D
100
AcDbEntity
  8
0
  6
Continuous
 62
     7
370
    15
100
AcDbLine
 10
1846.973952417355
 20
1020.684485087216
 30
0.0
 11
1846.972853276313
 21
1020.684485087216
 31
0.0
  0
LINE
  5
9BB
330
93D
100
AcDbEntity
  8
0
  6
Continuous
 62
     7
370
    15
100
AcDbLine
 10
1840.723952417355
 20
1020.684485087216
 30
0.0
 11
1840.722853276313
 21
1020.684485087216
 31
0.0
  0
ENDBLK
  5
93F
330
93D
100
AcDbEntity
  8
0
100
AcDbBlockEnd
  0
BLOCK
  5
9BE
330
9BD
100
AcDbEntity
  8
0
100
AcDbBlockBegin
  2
2
 70
     0
 10
0.0
 20
0.0
 30
0.0
  3
2
  1

  0
LINE
  5
9C0
330
9BD
100
AcDbEntity
  8
0
  6
Continuous
 62
     7
370
    15
100
AcDbLine
 10
1782.5840678586
 20
988.3511805007989
 30
0.0
 11
1782.585987314426
 21
989.7511790538962
 31
0.0
  0
LINE
  5
9C1
330
9BD
100
AcDbEntity
  8
0
  6
Continuous
 62
     7
370
    15
100
AcDbLine
 10
1782.648790120923
 20
989.6882037198926
 30
0.0
 11
1782.585987314426
 21
989.7511790538962
 31
0.0
  0
LINE
  5
9C2
330
9BD
100
AcDbEntity
  8
0
  6
Continuous
 62
     7
370
    15
100
AcDbLine
 10
1782.646870665097
 20
988.2882049339647
 30
0.0
 11
1782.648790120923
 21
989.6882037198926
 31
0.0
  0
LINE
  5
9C3
330
9BD
100
AcDbEntity
  8
0
  6
Continuous
 62
     7
370
    15
100
AcDbLine
 10
1782.646870665097
 20
988.2882049339647
 30
0.0
 11
1782.5840678586
 21
988.3511805007989
 31
0.0
  0
LINE
  5
9C4
330
9BD
100
AcDbEntity
  8
0
  6
Continuous
 62
     7
370
    15
100
AcDbLine
 10
1782.585987314426
 20
989.7511790538962
 30
0.0
 11
1784.998701378548
 21
989.7478702976192
 31
0.0
  0
ARC
  5
9C5
330
9BD
100
AcDbEntity
  8
0
  6
Continuous
 62
     7
370
    15
100
AcDbCircle
 10
1782.1496138139
 20
990.2888887855048
 30
0.0
 40
2.900000000000012
100
AcDbArc
 50
347.9808803345295
 51
349.248014725233
  0
LINE
  5
9C6
330
9BD
100
AcDbEntity
  8
0
  6
Continuous
 62
     7
370
    15
100
AcDbLine
 10
1782.648790120923
 20
989.6882037198926
 30
0.0
 11
1784.986040048146
 21
989.6849983404214
 31
0.0
  0
ARC
  5
9C7
330
9BD
100
AcDbEntity
  8
0
  6
Continuous
 62
     7
370
    15
100
AcDbCircle
 10
1782.1496138139
 20
990.2888887855048
 30
0.0
 40
2.900000000000012
100
AcDbArc
 50
191.8619682557465
 51
347.9808803345295
  0
LINE
  5
9C8
330
9BD
100
AcDbEntity
  8
0
  6
Continuous
 62
     7
370
    15
100
AcDbLine
 10
1779.311541892433
 20
989.6927804718549
 30
0.0
 11
1781.648791819655
 21
989.6895750923837
 31
0.0
  0
LINE
  5
9C9
330
9BD
100
AcDbEntity
  8
0
  6
Continuous
 62
     7
370
    15
100
AcDbLine
 10
1781.648791819655
 20
989.6895750923837
 30
0.0
 11
1781.646871432507
 21
988.2895764228711
 31
0.0
  0
LINE
  5
9CA
330
9BD
100
AcDbEntity
  8
0
  6
Continuous
 62
     7
370
    15
100
AcDbLine
 10
1781.646871432507
 20
988.2895764228711
 30
0.0
 11
1782.646870665097
 21
988.2882049339647
 31
0.0
  0
LINE
  5
9CB
330
9BD
100
AcDbEntity
  8
0
  6
Continuous
 62
     7
370
    15
100
AcDbLine
 10
1776.334067299807
 20
988.3511805007989
 30
0.0
 11
1776.335987686955
 21
989.7511790538962
 31
0.0
  0
LINE
  5
9CC
330
9BD
100
AcDbEntity
  8
0
  6
Continuous
 62
     7
370
    15
100
AcDbLine
 10
1776.398790493452
 20
989.6882037198926
 30
0.0
 11
1776.335987686955
 21
989.7511790538962
 31
0.0
  0
LINE
  5
9CD
330
9BD
100
AcDbEntity
  8
0
  6
Continuous
 62
     7
370
    15
100
AcDbLine
 10
1776.396870571965
 20
988.2882049339647
 30
0.0
 11
1776.398790493452
 21
989.6882037198926
 31
0.0
  0
LINE
  5
9CE
330
9BD
100
AcDbEntity
  8
0
  6
Continuous
 62
     7
370
    15
100
AcDbLine
 10
1776.396870571965
 20
988.2882049339647
 30
0.0
 11
1776.334067299807
 21
988.3511805007989
 31
0.0
  0
LINE
  5
9CF
330
9BD
100
AcDbEntity
  8
0
  6
Continuous
 62
     7
370
    15
100
AcDbLine
 10
1781.715159728968
 20
992.2265972043211
 30
0.0
 11
1781.713240273141
 21
990.8265984183932
 31
0.0
  0
LINE
  5
9D0
330
9BD
100
AcDbEntity
  8
0
  6
Continuous
 62
     7
370
    15
100
AcDbLine
 10
1781.650437466645
 20
990.8895739852274
 30
0.0
 11
1781.713240273141
 21
990.8265984183932
 31
0.0
  0
LINE
  5
9D1
330
9BD
100
AcDbEntity
  8
0
  6
Continuous
 62
     7
370
    15
100
AcDbLine
 10
1781.652356922471
 20
992.2895727711553
 30
0.0
 11
1781.650437466645
 21
990.8895739852274
 31
0.0
  0
LINE
  5
9D2
330
9BD
100
AcDbEntity
  8
0
  6
Continuous
 62
     7
370
    15
100
AcDbLine
 10
1781.715159728968
 20
992.2265972043211
 30
0.0
 11
1781.652356922471
 21
992.2895727711553
 31
0.0
  0
LINE
  5
9D3
330
9BD
100
AcDbEntity
  8
0
  6
Continuous
 62
     7
370
    15
100
AcDbLine
 10
1782.652356155061
 20
992.2882013986642
 30
0.0
 11
1781.652356922471
 21
992.2895727711553
 31
0.0
  0
LINE
  5
9D4
330
9BD
100
AcDbEntity
  8
0
  6
Continuous
 62
     7
370
    15
100
AcDbLine
 10
1781.650437466645
 20
990.8895739852274
 30
0.0
 11
1779.313187539422
 21
990.892779131868
 31
0.0
  0
ARC
  5
9D5
330
9BD
100
AcDbEntity
  8
0
  6
Continuous
 62
     7
370
    15
100
AcDbCircle
 10
1782.1496138139
 20
990.2888887855048
 30
0.0
 40
2.900000000000001
100
AcDbArc
 50
11.8619682557465
 51
167.9808803345295
  0
LINE
  5
9D6
330
9BD
100
AcDbEntity
  8
0
  6
Continuous
 62
     7
370
    15
100
AcDbLine
 10
1784.987686626458
 20
990.8849972332651
 30
0.0
 11
1782.650435767912
 21
990.8882026127363
 31
0.0
  0
LINE
  5
9D7
330
9BD
100
AcDbEntity
  8
0
  6
Continuous
 62
     7
370
    15
100
AcDbLine
 10
1782.650435767912
 20
990.8882026127363
 30
0.0
 11
1782.652356155061
 21
992.2882013986642
 31
0.0
  0
LINE
  5
9D8
330
9BD
100
AcDbEntity
  8
0
  6
Continuous
 62
     7
370
    15
100
AcDbLine
 10
1781.713240273141
 20
990.8265984183932
 30
0.0
 11
1779.30052620902
 21
990.8299071746702
 31
0.0
  0
ARC
  5
9D9
330
9BD
100
AcDbEntity
  8
0
  6
Continuous
 62
     7
370
    15
100
AcDbCircle
 10
1782.1496138139
 20
990.2888887855048
 30
0.0
 40
2.900000000000003
100
AcDbArc
 50
167.9808803345295
 51
169.248014725233
  0
LINE
  5
9DA
330
9BD
100
AcDbEntity
  8
0
  6
Continuous
 62
     7
370
    15
100
AcDbLine
 10
1776.335987686955
 20
989.7511790538962
 30
0.0
 11
1778.748700819754
 21
989.7478702976192
 31
0.0
  0
ARC
  5
9DB
330
9BD
100
AcDbEntity
  8
0
  6
Continuous
 62
     7
370
    15
100
AcDbCircle
 10
1775.8996138139
 20
990.2888887855048
 30
0.0
 40
2.900000000000012
100
AcDbArc
 50
347.9808803345295
 51
349.248014725233
  0
LINE
  5
9DC
330
9BD
100
AcDbEntity
  8
0
  6
Continuous
 62
     7
370
    15
100
AcDbLine
 10
1776.398790493452
 20
989.6882037198926
 30
0.0
 11
1778.736040420675
 21
989.6849983404214
 31
0.0
  0
ARC
  5
9DD
330
9BD
100
AcDbEntity
  8
0
  6
Continuous
 62
     7
370
    15
100
AcDbCircle
 10
1775.8996138139
 20
990.2888887855048
 30
0.0
 40
2.900000000000012
100
AcDbArc
 50
191.8619682557465
 51
347.9808803345295
  0
LINE
  5
9DE
330
9BD
100
AcDbEntity
  8
0
  6
Continuous
 62
     7
370
    15
100
AcDbLine
 10
1773.061541333639
 20
989.6927804718549
 30
0.0
 11
1775.398791260862
 21
989.6895750923837
 31
0.0
  0
LINE
  5
9DF
330
9BD
100
AcDbEntity
  8
0
  6
Continuous
 62
     7
370
    15
100
AcDbLine
 10
1775.398791260862
 20
989.6895750923837
 30
0.0
 11
1775.396871339374
 21
988.2895764228711
 31
0.0
  0
LINE
  5
9E0
330
9BD
100
AcDbEntity
  8
0
  6
Continuous
 62
     7
370
    15
100
AcDbLine
 10
1775.396871339374
 20
988.2895764228711
 30
0.0
 11
1776.396870571965
 21
988.2882049339647
 31
0.0
  0
LINE
  5
9E1
330
9BD
100
AcDbEntity
  8
0
  6
Continuous
 62
     7
370
    15
100
AcDbLine
 10
1775.465160101497
 20
992.2265972043211
 30
0.0
 11
1775.463240180009
 21
990.8265984183932
 31
0.0
  0
LINE
  5
9E2
330
9BD
100
AcDbEntity
  8
0
  6
Continuous
 62
     7
370
    15
100
AcDbLine
 10
1775.400436907851
 20
990.8895739852274
 30
0.0
 11
1775.463240180009
 21
990.8265984183932
 31
0.0
  0
LINE
  5
9E3
330
9BD
100
AcDbEntity
  8
0
  6
Continuous
 62
     7
370
    15
100
AcDbLine
 10
1775.402357295
 20
992.2895727711553
 30
0.0
 11
1775.400436907851
 21
990.8895739852274
 31
0.0
  0
LINE
  5
9E4
330
9BD
100
AcDbEntity
  8
0
  6
Continuous
 62
     7
370
    15
100
AcDbLine
 10
1775.465160101497
 20
992.2265972043211
 30
0.0
 11
1775.402357295
 21
992.2895727711553
 31
0.0
  0
LINE
  5
9E5
330
9BD
100
AcDbEntity
  8
0
  6
Continuous
 62
     7
370
    15
100
AcDbLine
 10
1775.463240180009
 20
990.8265984183932
 30
0.0
 11
1773.050526348719
 21
990.8299071746702
 31
0.0
  0
ARC
  5
9E6
330
9BD
100
AcDbEntity
  8
0
  6
Continuous
 62
     7
370
    15
100
AcDbCircle
 10
1775.8996138139
 20
990.2888887855048
 30
0.0
 40
2.900000000000003
100
AcDbArc
 50
167.9808803345295
 51
169.248014725233
  0
LINE
  5
9E7
330
9BD
100
AcDbEntity
  8
0
  6
Continuous
 62
     7
370
    15
100
AcDbLine
 10
1775.400436907851
 20
990.8895739852274
 30
0.0
 11
1773.063187213459
 21
990.892779131868
 31
0.0
  0
LINE
  5
9E8
330
9BD
100
AcDbEntity
  8
0
  6
Continuous
 62
     7
370
    15
100
AcDbLine
 10
1776.402356061929
 20
992.2882013986642
 30
0.0
 11
1775.402357295
 21
992.2895727711553
 31
0.0
  0
ARC
  5
9E9
330
9BD
100
AcDbEntity
  8
0
  6
Continuous
 62
     7
370
    15
100
AcDbCircle
 10
1775.8996138139
 20
990.2888887855048
 30
0.0
 40
2.900000000000001
100
AcDbArc
 50
11.8619682557465
 51
167.9808803345295
  0
LINE
  5
9EA
330
9BD
100
AcDbEntity
  8
0
  6
Continuous
 62
     7
370
    15
100
AcDbLine
 10
1778.737686067664
 20
990.8849972332651
 30
0.0
 11
1776.400436140441
 21
990.8882026127363
 31
0.0
  0
LINE
  5
9EB
330
9BD
100
AcDbEntity
  8
0
  6
Continuous
 62
     7
370
    15
100
AcDbLine
 10
1776.400436140441
 20
990.8882026127363
 30
0.0
 11
1776.402356061929
 21
992.2882013986642
 31
0.0
  0
LINE
  5
9EC
330
9BD
100
AcDbEntity
  8
0
  6
Continuous
 62
     7
370
    15
100
AcDbLine
 10
1782.652356155061
 20
992.2882013986642
 30
0.0
 11
1782.589381053888
 21
992.2253981265063
 31
0.0
  0
LINE
  5
9ED
330
9BD
100
AcDbEntity
  8
0
  6
Continuous
 62
     7
370
    15
100
AcDbLine
 10
1782.589381053888
 20
992.2253981265063
 30
0.0
 11
1781.715159728968
 21
992.2265972043211
 31
0.0
  0
ARC
  5
9EE
330
9BD
100
AcDbEntity
  8
0
  6
Continuous
 62
     7
370
    15
100
AcDbCircle
 10
1782.1496138139
 20
990.2888887855048
 30
0.0
 40
2.900000000000008
100
AcDbArc
 50
190.5948338650498
 51
191.8619682557465
  0
LINE
  5
9EF
330
9BD
100
AcDbEntity
  8
0
  6
Continuous
 62
     7
370
    15
100
AcDbLine
 10
1779.299052856707
 20
989.7556868879879
 30
0.0
 11
1781.711766920828
 21
989.752378131711
 31
0.0
  0
LINE
  5
9F0
330
9BD
100
AcDbEntity
  8
0
  6
Continuous
 62
     7
370
    15
100
AcDbLine
 10
1781.648791819655
 20
989.6895750923837
 30
0.0
 11
1781.711766920828
 21
989.752378131711
 31
0.0
  0
LINE
  5
9F1
330
9BD
100
AcDbEntity
  8
0
  6
Continuous
 62
     7
370
    15
100
AcDbLine
 10
1781.711766920828
 20
989.752378131711
 30
0.0
 11
1781.709846533679
 21
988.3523793457831
 31
0.0
  0
LINE
  5
9F2
330
9BD
100
AcDbEntity
  8
0
  6
Continuous
 62
     7
370
    15
100
AcDbLine
 10
1781.646871432507
 20
988.2895764228711
 30
0.0
 11
1781.709846533679
 21
988.3523793457831
 31
0.0
  0
ARC
  5
9F3
330
9BD
100
AcDbEntity
  8
0
  6
Continuous
 62
     7
370
    15
100
AcDbCircle
 10
1782.1496138139
 20
990.2888887855048
 30
0.0
 40
2.900000000000003
100
AcDbArc
 50
10.59483386504347
 51
11.8619682557465
  0
LINE
  5
9F4
330
9BD
100
AcDbEntity
  8
0
  6
Continuous
 62
     7
370
    15
100
AcDbLine
 10
1785.000174730861
 20
990.8220905843014
 30
0.0
 11
1782.587460666739
 21
990.825399573409
 31
0.0
  0
LINE
  5
9F5
330
9BD
100
AcDbEntity
  8
0
  6
Continuous
 62
     7
370
    15
100
AcDbLine
 10
1782.650435767912
 20
990.8882026127363
 30
0.0
 11
1782.587460666739
 21
990.825399573409
 31
0.0
  0
LINE
  5
9F6
330
9BD
100
AcDbEntity
  8
0
  6
Continuous
 62
     7
370
    15
100
AcDbLine
 10
1782.587460666739
 20
990.825399573409
 30
0.0
 11
1782.589381053888
 21
992.2253981265063
 31
0.0
  0
ARC
  5
9F7
330
9BD
100
AcDbEntity
  8
0
  6
Continuous
 62
     7
370
    15
100
AcDbCircle
 10
1775.8996138139
 20
990.2888887855048
 30
0.0
 40
2.900000000000003
100
AcDbArc
 50
10.59483386504347
 51
11.8619682557465
  0
LINE
  5
9F8
330
9BD
100
AcDbEntity
  8
0
  6
Continuous
 62
     7
370
    15
100
AcDbLine
 10
1778.750174172067
 20
990.8220905843014
 30
0.0
 11
1776.337460573607
 21
990.825399573409
 31
0.0
  0
LINE
  5
9F9
330
9BD
100
AcDbEntity
  8
0
  6
Continuous
 62
     7
370
    15
100
AcDbLine
 10
1776.400436140441
 20
990.8882026127363
 30
0.0
 11
1776.337460573607
 21
990.825399573409
 31
0.0
  0
LINE
  5
9FA
330
9BD
100
AcDbEntity
  8
0
  6
Continuous
 62
     7
370
    15
100
AcDbLine
 10
1775.398791260862
 20
989.6895750923837
 30
0.0
 11
1775.461766827696
 21
989.752378131711
 31
0.0
  0
LINE
  5
9FB
330
9BD
100
AcDbEntity
  8
0
  6
Continuous
 62
     7
370
    15
100
AcDbLine
 10
1775.461766827696
 20
989.752378131711
 30
0.0
 11
1775.459846906209
 21
988.3523793457831
 31
0.0
  0
LINE
  5
9FC
330
9BD
100
AcDbEntity
  8
0
  6
Continuous
 62
     7
370
    15
100
AcDbLine
 10
1775.396871339374
 20
988.2895764228711
 30
0.0
 11
1775.459846906209
 21
988.3523793457831
 31
0.0
  0
LINE
  5
9FD
330
9BD
100
AcDbEntity
  8
0
  6
Continuous
 62
     7
370
    15
100
AcDbLine
 10
1776.337460573607
 20
990.825399573409
 30
0.0
 11
1776.339380495095
 21
992.2253981265063
 31
0.0
  0
LINE
  5
9FE
330
9BD
100
AcDbEntity
  8
0
  6
Continuous
 62
     7
370
    15
100
AcDbLine
 10
1776.402356061929
 20
992.2882013986642
 30
0.0
 11
1776.339380495095
 21
992.2253981265063
 31
0.0
  0
LINE
  5
9FF
330
9BD
100
AcDbEntity
  8
0
  6
Continuous
 62
     7
370
    15
100
AcDbLine
 10
1776.339380495095
 20
992.2253981265063
 30
0.0
 11
1775.465160101497
 21
992.2265972043211
 31
0.0
  0
ARC
  5
A00
330
9BD
100
AcDbEntity
  8
0
  6
Continuous
 62
     7
370
    15
100
AcDbCircle
 10
1775.8996138139
 20
990.2888887855048
 30
0.0
 40
2.900000000000008
100
AcDbArc
 50
190.5948338650498
 51
191.8619682557465
  0
LINE
  5
A01
330
9BD
100
AcDbEntity
  8
0
  6
Continuous
 62
     7
370
    15
100
AcDbLine
 10
1773.049053229236
 20
989.7556868879879
 30
0.0
 11
1775.461766827696
 21
989.752378131711
 31
0.0
  0
LINE
  5
A02
330
9BD
100
AcDbEntity
  8
0
  6
Continuous
 62
     7
370
    15
100
AcDbLine
 10
1775.459846906209
 20
988.3523793457831
 30
0.0
 11
1776.334067299807
 21
988.3511805007989
 31
0.0
  0
LINE
  5
A03
330
9BD
100
AcDbEntity
  8
0
  6
Continuous
 62
     7
370
    15
100
AcDbLine
 10
1781.709846533679
 20
988.3523793457831
 30
0.0
 11
1782.5840678586
 21
988.3511805007989
 31
0.0
  0
LINE
  5
A04
330
9BD
100
AcDbEntity
  8
0
  6
Continuous
 62
     7
370
    15
100
AcDbLine
 10
1837.998239748024
 20
988.7892557806159
 30
0.0
 11
1838.798238389039
 21
988.7885230625803
 31
0.0
  0
LINE
  5
A05
330
9BD
100
AcDbEntity
  8
0
  6
Continuous
 62
     7
370
    15
100
AcDbLine
 10
1837.998239748024
 20
988.7892557806159
 30
0.0
 11
1838.061189703488
 21
988.8520874581123
 31
0.0
  0
LINE
  5
A06
330
9BD
100
AcDbEntity
  8
0
  6
Continuous
 62
     7
370
    15
100
AcDbLine
 10
1838.061189703488
 20
988.8520874581123
 30
0.0
 11
1838.735407642865
 21
988.8514699912454
 31
0.0
  0
LINE
  5
A07
330
9BD
100
AcDbEntity
  8
0
  6
Continuous
 62
     7
370
    15
100
AcDbLine
 10
1838.735407642865
 20
988.8514699912454
 30
0.0
 11
1838.798238389039
 21
988.7885230625803
 31
0.0
  0
LINE
  5
A08
330
9BD
100
AcDbEntity
  8
0
  6
Continuous
 62
     7
370
    15
100
AcDbLine
 10
1837.999066762471
 20
989.68925541591
 30
0.0
 11
1837.998239748024
 21
988.7892557806159
 31
0.0
  0
LINE
  5
A09
330
9BD
100
AcDbEntity
  8
0
  6
Continuous
 62
     7
370
    15
100
AcDbLine
 10
1837.999066762471
 20
989.68925541591
 30
0.0
 11
1838.062009267354
 21
989.7520870934064
 31
0.0
  0
LINE
  5
A0A
330
9BD
100
AcDbEntity
  8
0
  6
Continuous
 62
     7
370
    15
100
AcDbLine
 10
1838.062009267354
 20
989.7520870934064
 30
0.0
 11
1838.061189703488
 21
988.8520874581123
 31
0.0
  0
LINE
  5
A0B
330
9BD
100
AcDbEntity
  8
0
  6
Continuous
 62
     7
370
    15
100
AcDbLine
 10
1838.798238389039
 20
988.7885230625803
 30
0.0
 11
1838.799065403485
 21
989.6885226978744
 31
0.0
  0
LINE
  5
A0C
330
9BD
100
AcDbEntity
  8
0
  6
Continuous
 62
     7
370
    15
100
AcDbLine
 10
1838.799065403485
 20
989.6885226978744
 30
0.0
 11
1840.722850017094
 21
989.6867606355632
 31
0.0
  0
ARC
  5
A0D
330
9BD
100
AcDbEntity
  8
0
  6
Continuous
 62
     7
370
    15
100
AcDbCircle
 10
1838.3996138139
 20
990.2888887855048
 30
0.0
 40
2.399999999999991
100
AcDbArc
 50
194.4250320595904
 51
345.4700076877318
  0
LINE
  5
A0E
330
9BD
100
AcDbEntity
  8
0
  6
Continuous
 62
     7
370
    15
100
AcDbLine
 10
1836.075274698281
 20
989.6910174782211
 30
0.0
 11
1837.999066762471
 21
989.68925541591
 31
0.0
  0
LINE
  5
A0F
330
9BD
100
AcDbEntity
  8
0
  6
Continuous
 62
     7
370
    15
100
AcDbLine
 10
1832.550162874007
 20
990.8885220563794
 30
0.0
 11
1832.550986163163
 21
991.7885216916735
 31
0.0
  0
LINE
  5
A10
330
9BD
100
AcDbEntity
  8
0
  6
Continuous
 62
     7
370
    15
100
AcDbLine
 10
1832.550162874007
 20
990.8885220563794
 30
0.0
 11
1832.487216643834
 21
990.825690378883
 31
0.0
  0
LINE
  5
A11
330
9BD
100
AcDbEntity
  8
0
  6
Continuous
 62
     7
370
    15
100
AcDbLine
 10
1832.487216643834
 20
990.825690378883
 30
0.0
 11
1832.48803993299
 21
991.725690014177
 31
0.0
  0
LINE
  5
A12
330
9BD
100
AcDbEntity
  8
0
  6
Continuous
 62
     7
370
    15
100
AcDbLine
 10
1832.550986163163
 20
991.7885216916735
 30
0.0
 11
1832.48803993299
 21
991.725690014177
 31
0.0
  0
LINE
  5
A13
330
9BD
100
AcDbEntity
  8
0
  6
Continuous
 62
     7
370
    15
100
AcDbLine
 10
1831.750164232993
 20
990.8892550072456
 30
0.0
 11
1829.826375894093
 21
990.8910170695568
 31
0.0
  0
ARC
  5
A14
330
9BD
100
AcDbEntity
  8
0
  6
Continuous
 62
     7
370
    15
100
AcDbCircle
 10
1832.1496138139
 20
990.2888887855048
 30
0.0
 40
2.400000000000005
100
AcDbArc
 50
14.42503205959039
 51
165.4700076877318
  0
LINE
  5
A15
330
9BD
100
AcDbEntity
  8
0
  6
Continuous
 62
     7
370
    15
100
AcDbLine
 10
1834.473951212906
 20
990.8867599940682
 30
0.0
 11
1832.550162874007
 21
990.8885220563794
 31
0.0
  0
LINE
  5
A16
330
9BD
100
AcDbEntity
  8
0
  6
Continuous
 62
     7
370
    15
100
AcDbLine
 10
1832.550986163163
 20
991.7885216916735
 30
0.0
 11
1831.750987522149
 21
991.7892546425397
 31
0.0
  0
LINE
  5
A17
330
9BD
100
AcDbEntity
  8
0
  6
Continuous
 62
     7
370
    15
100
AcDbLine
 10
1831.750987522149
 20
991.7892546425397
 30
0.0
 11
1831.750164232993
 21
990.8892550072456
 31
0.0
  0
ARC
  5
A18
330
9BD
100
AcDbEntity
  8
0
  6
Continuous
 62
     7
370
    15
100
AcDbCircle
 10
1832.1496138139
 20
990.2888887855048
 30
0.0
 40
2.400000000000005
100
AcDbArc
 50
12.87961509908336
 51
14.42503205959039
  0
LINE
  5
A19
330
9BD
100
AcDbEntity
  8
0
  6
Continuous
 62
     7
370
    15
100
AcDbLine
 10
1834.489232353711
 20
990.8238566047335
 30
0.0
 11
1832.487216643834
 21
990.825690378883
 31
0.0
  0
LINE
  5
A1A
330
9BD
100
AcDbEntity
  8
0
  6
Continuous
 62
     7
370
    15
100
AcDbLine
 10
1812.998241238141
 20
988.7892557806159
 30
0.0
 11
1813.798239879155
 21
988.7885230625803
 31
0.0
  0
LINE
  5
A1B
330
9BD
100
AcDbEntity
  8
0
  6
Continuous
 62
     7
370
    15
100
AcDbLine
 10
1813.798239879155
 20
988.7885230625803
 30
0.0
 11
1813.799063168311
 21
989.6885226978744
 31
0.0
  0
LINE
  5
A1C
330
9BD
100
AcDbEntity
  8
0
  6
Continuous
 62
     7
370
    15
100
AcDbLine
 10
1813.799063168311
 20
989.6885226978744
 30
0.0
 11
1815.72285150721
 21
989.6867606355632
 31
0.0
  0
ARC
  5
A1D
330
9BD
100
AcDbEntity
  8
0
  6
Continuous
 62
     7
370
    15
100
AcDbCircle
 10
1813.3996138139
 20
990.2888887855048
 30
0.0
 40
2.400000000000019
100
AcDbArc
 50
194.4250320595904
 51
345.4700076877318
  0
LINE
  5
A1E
330
9BD
100
AcDbEntity
  8
0
  6
Continuous
 62
     7
370
    15
100
AcDbLine
 10
1811.075276188397
 20
989.6910174782211
 30
0.0
 11
1812.999064527297
 21
989.68925541591
 31
0.0
  0
LINE
  5
A1F
330
9BD
100
AcDbEntity
  8
0
  6
Continuous
 62
     7
370
    15
100
AcDbLine
 10
1812.999064527297
 20
989.68925541591
 30
0.0
 11
1812.998241238141
 21
988.7892557806159
 31
0.0
  0
LINE
  5
A20
330
9BD
100
AcDbEntity
  8
0
  6
Continuous
 62
     7
370
    15
100
AcDbLine
 10
1813.735409132981
 20
988.8514699912454
 30
0.0
 11
1813.736232422137
 21
989.7514696265394
 31
0.0
  0
LINE
  5
A21
330
9BD
100
AcDbEntity
  8
0
  6
Continuous
 62
     7
370
    15
100
AcDbLine
 10
1813.799063168311
 20
989.6885226978744
 30
0.0
 11
1813.736232422137
 21
989.7514696265394
 31
0.0
  0
LINE
  5
A22
330
9BD
100
AcDbEntity
  8
0
  6
Continuous
 62
     7
370
    15
100
AcDbLine
 10
1813.735409132981
 20
988.8514699912454
 30
0.0
 11
1813.798239879155
 21
988.7885230625803
 31
0.0
  0
LINE
  5
A23
330
9BD
100
AcDbEntity
  8
0
  6
Continuous
 62
     7
370
    15
100
AcDbLine
 10
1813.736232422137
 20
989.7514696265394
 30
0.0
 11
1815.738248132014
 21
989.74963585239
 31
0.0
  0
ARC
  5
A24
330
9BD
100
AcDbEntity
  8
0
  6
Continuous
 62
     7
370
    15
100
AcDbCircle
 10
1813.3996138139
 20
990.2888887855048
 30
0.0
 40
2.400000000000017
100
AcDbArc
 50
345.4700076877318
 51
347.0154246482373
  0
LINE
  5
A25
330
9BD
100
AcDbEntity
  8
0
  6
Continuous
 62
     7
370
    15
100
AcDbLine
 10
1794.249063782238
 20
989.68925541591
 30
0.0
 11
1794.248240493083
 21
988.7892557806159
 31
0.0
  0
LINE
  5
A26
330
9BD
100
AcDbEntity
  8
0
  6
Continuous
 62
     7
370
    15
100
AcDbLine
 10
1794.249063782238
 20
989.68925541591
 30
0.0
 11
1794.312011875057
 21
989.7520870934064
 31
0.0
  0
LINE
  5
A27
330
9BD
100
AcDbEntity
  8
0
  6
Continuous
 62
     7
370
    15
100
AcDbLine
 10
1794.312011875057
 20
989.7520870934064
 30
0.0
 11
1794.311186723256
 21
988.8520874581123
 31
0.0
  0
LINE
  5
A28
330
9BD
100
AcDbEntity
  8
0
  6
Continuous
 62
     7
370
    15
100
AcDbLine
 10
1794.248240493083
 20
988.7892557806159
 30
0.0
 11
1794.311186723256
 21
988.8520874581123
 31
0.0
  0
LINE
  5
A29
330
9BD
100
AcDbEntity
  8
0
  6
Continuous
 62
     7
370
    15
100
AcDbLine
 10
1794.248240493083
 20
988.7892557806159
 30
0.0
 11
1795.048239134097
 21
988.7885230625803
 31
0.0
  0
LINE
  5
A2A
330
9BD
100
AcDbEntity
  8
0
  6
Continuous
 62
     7
370
    15
100
AcDbLine
 10
1795.048239134097
 20
988.7885230625803
 30
0.0
 11
1795.049064285898
 21
989.6885226978744
 31
0.0
  0
LINE
  5
A2B
330
9BD
100
AcDbEntity
  8
0
  6
Continuous
 62
     7
370
    15
100
AcDbLine
 10
1795.049064285898
 20
989.6885226978744
 30
0.0
 11
1796.972852624797
 21
989.6867606355632
 31
0.0
  0
ARC
  5
A2C
330
9BD
100
AcDbEntity
  8
0
  6
Continuous
 62
     7
370
    15
100
AcDbCircle
 10
1794.6496138139
 20
990.2888887855048
 30
0.0
 40
2.400000000000032
100
AcDbArc
 50
194.4250320595904
 51
345.4700076877318
  0
LINE
  5
A2D
330
9BD
100
AcDbEntity
  8
0
  6
Continuous
 62
     7
370
    15
100
AcDbLine
 10
1792.325275443339
 20
989.6910174782211
 30
0.0
 11
1794.249063782238
 21
989.68925541591
 31
0.0
  0
ARC
  5
A2E
330
9BD
100
AcDbEntity
  8
0
  6
Continuous
 62
     7
370
    15
100
AcDbCircle
 10
1794.6496138139
 20
990.2888887855048
 30
0.0
 40
2.400000000000032
100
AcDbArc
 50
192.8796150990834
 51
194.4250320595904
  0
LINE
  5
A2F
330
9BD
100
AcDbEntity
  8
0
  6
Continuous
 62
     7
370
    15
100
AcDbLine
 10
1792.30999616518
 20
989.7539208675558
 30
0.0
 11
1794.312011875057
 21
989.7520870934064
 31
0.0
  0
LINE
  5
A30
330
9BD
100
AcDbEntity
  8
0
  6
Continuous
 62
     7
370
    15
100
AcDbLine
 10
1812.998241238141
 20
988.7892557806159
 30
0.0
 11
1813.061187468314
 21
988.8520874581123
 31
0.0
  0
LINE
  5
A31
330
9BD
100
AcDbEntity
  8
0
  6
Continuous
 62
     7
370
    15
100
AcDbLine
 10
1813.061187468314
 20
988.8520874581123
 30
0.0
 11
1813.735409132981
 21
988.8514699912454
 31
0.0
  0
LINE
  5
A32
330
9BD
100
AcDbEntity
  8
0
  6
Continuous
 62
     7
370
    15
100
AcDbLine
 10
1826.236231677079
 20
989.7514696265394
 30
0.0
 11
1828.238247386956
 21
989.74963585239
 31
0.0
  0
ARC
  5
A33
330
9BD
100
AcDbEntity
  8
0
  6
Continuous
 62
     7
370
    15
100
AcDbCircle
 10
1825.8996138139
 20
990.2888887855048
 30
0.0
 40
2.400000000000009
100
AcDbArc
 50
345.4700076877318
 51
347.0154246482373
  0
LINE
  5
A34
330
9BD
100
AcDbEntity
  8
0
  6
Continuous
 62
     7
370
    15
100
AcDbLine
 10
1826.299062423253
 20
989.6885226978744
 30
0.0
 11
1828.222854487442
 21
989.6867606355632
 31
0.0
  0
LINE
  5
A35
330
9BD
100
AcDbEntity
  8
0
  6
Continuous
 62
     7
370
    15
100
AcDbLine
 10
1826.299062423253
 20
989.6885226978744
 30
0.0
 11
1826.236231677079
 21
989.7514696265394
 31
0.0
  0
LINE
  5
A36
330
9BD
100
AcDbEntity
  8
0
  6
Continuous
 62
     7
370
    15
100
AcDbLine
 10
1800.498240120553
 20
988.7892557806159
 30
0.0
 11
1801.298240624213
 21
988.7885230625803
 31
0.0
  0
LINE
  5
A37
330
9BD
100
AcDbEntity
  8
0
  6
Continuous
 62
     7
370
    15
100
AcDbLine
 10
1801.298240624213
 20
988.7885230625803
 30
0.0
 11
1801.299063913369
 21
989.6885226978744
 31
0.0
  0
LINE
  5
A38
330
9BD
100
AcDbEntity
  8
0
  6
Continuous
 62
     7
370
    15
100
AcDbLine
 10
1801.299063913369
 20
989.6885226978744
 30
0.0
 11
1803.222852252268
 21
989.6867606355632
 31
0.0
  0
ARC
  5
A39
330
9BD
100
AcDbEntity
  8
0
  6
Continuous
 62
     7
370
    15
100
AcDbCircle
 10
1800.8996138139
 20
990.2888887855048
 30
0.0
 40
2.400000000000005
100
AcDbArc
 50
194.4250320595904
 51
345.4700076877318
  0
LINE
  5
A3A
330
9BD
100
AcDbEntity
  8
0
  6
Continuous
 62
     7
370
    15
100
AcDbLine
 10
1798.57527507081
 20
989.6910174782211
 30
0.0
 11
1800.499065272355
 21
989.68925541591
 31
0.0
  0
LINE
  5
A3B
330
9BD
100
AcDbEntity
  8
0
  6
Continuous
 62
     7
370
    15
100
AcDbLine
 10
1800.499065272355
 20
989.68925541591
 30
0.0
 11
1800.498240120553
 21
988.7892557806159
 31
0.0
  0
LINE
  5
A3C
330
9BD
100
AcDbEntity
  8
0
  6
Continuous
 62
     7
370
    15
100
AcDbLine
 10
1801.236233167195
 20
989.7514696265394
 30
0.0
 11
1803.238248877072
 21
989.74963585239
 31
0.0
  0
ARC
  5
A3D
330
9BD
100
AcDbEntity
  8
0
  6
Continuous
 62
     7
370
    15
100
AcDbCircle
 10
1800.8996138139
 20
990.2888887855048
 30
0.0
 40
2.399999999999989
100
AcDbArc
 50
345.4700076877318
 51
347.0154246482373
  0
LINE
  5
A3E
330
9BD
100
AcDbEntity
  8
0
  6
Continuous
 62
     7
370
    15
100
AcDbLine
 10
1801.299063913369
 20
989.6885226978744
 30
0.0
 11
1801.236233167195
 21
989.7514696265394
 31
0.0
  0
LINE
  5
A3F
330
9BD
100
AcDbEntity
  8
0
  6
Continuous
 62
     7
370
    15
100
AcDbLine
 10
1831.748238257908
 20
988.7892557806159
 30
0.0
 11
1832.548240624213
 21
988.7885230625803
 31
0.0
  0
LINE
  5
A40
330
9BD
100
AcDbEntity
  8
0
  6
Continuous
 62
     7
370
    15
100
AcDbLine
 10
1832.548240624213
 20
988.7885230625803
 30
0.0
 11
1832.549063913369
 21
989.6885226978744
 31
0.0
  0
LINE
  5
A41
330
9BD
100
AcDbEntity
  8
0
  6
Continuous
 62
     7
370
    15
100
AcDbLine
 10
1832.549063913369
 20
989.6885226978744
 30
0.0
 11
1834.472855977559
 21
989.6867606355632
 31
0.0
  0
ARC
  5
A42
330
9BD
100
AcDbEntity
  8
0
  6
Continuous
 62
     7
370
    15
100
AcDbCircle
 10
1832.1496138139
 20
990.2888887855048
 30
0.0
 40
2.400000000000019
100
AcDbArc
 50
194.4250320595904
 51
345.4700076877318
  0
LINE
  5
A43
330
9BD
100
AcDbEntity
  8
0
  6
Continuous
 62
     7
370
    15
100
AcDbLine
 10
1829.825276933455
 20
989.6910174782211
 30
0.0
 11
1831.749065272355
 21
989.68925541591
 31
0.0
  0
LINE
  5
A44
330
9BD
100
AcDbEntity
  8
0
  6
Continuous
 62
     7
370
    15
100
AcDbLine
 10
1831.749065272355
 20
989.68925541591
 30
0.0
 11
1831.748238257908
 21
988.7892557806159
 31
0.0
  0
LINE
  5
A45
330
9BD
100
AcDbEntity
  8
0
  6
Continuous
 62
     7
370
    15
100
AcDbLine
 10
1807.486230932021
 20
989.7514696265394
 30
0.0
 11
1809.488246641898
 21
989.74963585239
 31
0.0
  0
ARC
  5
A46
330
9BD
100
AcDbEntity
  8
0
  6
Continuous
 62
     7
370
    15
100
AcDbCircle
 10
1807.1496138139
 20
990.2888887855048
 30
0.0
 40
2.400000000000003
100
AcDbArc
 50
345.4700076877318
 51
347.0154246482373
  0
LINE
  5
A47
330
9BD
100
AcDbEntity
  8
0
  6
Continuous
 62
     7
370
    15
100
AcDbLine
 10
1807.549065403485
 20
989.6885226978744
 30
0.0
 11
1809.472853742384
 21
989.6867606355632
 31
0.0
  0
LINE
  5
A48
330
9BD
100
AcDbEntity
  8
0
  6
Continuous
 62
     7
370
    15
100
AcDbLine
 10
1807.549065403485
 20
989.6885226978744
 30
0.0
 11
1807.486230932021
 21
989.7514696265394
 31
0.0
  0
LINE
  5
A49
330
9BD
100
AcDbEntity
  8
0
  6
Continuous
 62
     7
370
    15
100
AcDbLine
 10
1819.248239002966
 20
988.7892557806159
 30
0.0
 11
1820.048241369271
 21
988.7885230625803
 31
0.0
  0
LINE
  5
A4A
330
9BD
100
AcDbEntity
  8
0
  6
Continuous
 62
     7
370
    15
100
AcDbLine
 10
1820.048241369271
 20
988.7885230625803
 30
0.0
 11
1820.049064658427
 21
989.6885226978744
 31
0.0
  0
LINE
  5
A4B
330
9BD
100
AcDbEntity
  8
0
  6
Continuous
 62
     7
370
    15
100
AcDbLine
 10
1820.049064658427
 20
989.6885226978744
 30
0.0
 11
1821.972852997326
 21
989.6867606355632
 31
0.0
  0
ARC
  5
A4C
330
9BD
100
AcDbEntity
  8
0
  6
Continuous
 62
     7
370
    15
100
AcDbCircle
 10
1819.6496138139
 20
990.2888887855048
 30
0.0
 40
2.400000000000019
100
AcDbArc
 50
194.4250320595904
 51
345.4700076877318
  0
LINE
  5
A4D
330
9BD
100
AcDbEntity
  8
0
  6
Continuous
 62
     7
370
    15
100
AcDbLine
 10
1817.325273953223
 20
989.6910174782211
 30
0.0
 11
1819.249066017413
 21
989.68925541591
 31
0.0
  0
LINE
  5
A4E
330
9BD
100
AcDbEntity
  8
0
  6
Continuous
 62
     7
370
    15
100
AcDbLine
 10
1819.249066017413
 20
989.68925541591
 30
0.0
 11
1819.248239002966
 21
988.7892557806159
 31
0.0
  0
LINE
  5
A4F
330
9BD
100
AcDbEntity
  8
0
  6
Continuous
 62
     7
370
    15
100
AcDbLine
 10
1838.735407642865
 20
988.8514699912454
 30
0.0
 11
1838.736234657311
 21
989.7514696265394
 31
0.0
  0
LINE
  5
A50
330
9BD
100
AcDbEntity
  8
0
  6
Continuous
 62
     7
370
    15
100
AcDbLine
 10
1838.799065403485
 20
989.6885226978744
 30
0.0
 11
1838.736234657311
 21
989.7514696265394
 31
0.0
  0
LINE
  5
A51
330
9BD
100
AcDbEntity
  8
0
  6
Continuous
 62
     7
370
    15
100
AcDbLine
 10
1844.248241238141
 20
988.7892557806159
 30
0.0
 11
1845.048239879155
 21
988.7885230625803
 31
0.0
  0
LINE
  5
A52
330
9BD
100
AcDbEntity
  8
0
  6
Continuous
 62
     7
370
    15
100
AcDbLine
 10
1845.048239879155
 20
988.7885230625803
 30
0.0
 11
1845.049066893601
 21
989.6885226978744
 31
0.0
  0
LINE
  5
A53
330
9BD
100
AcDbEntity
  8
0
  6
Continuous
 62
     7
370
    15
100
AcDbLine
 10
1845.049066893601
 20
989.6885226978744
 30
0.0
 11
1846.97285150721
 21
989.6867606355632
 31
0.0
  0
ARC
  5
A54
330
9BD
100
AcDbEntity
  8
0
  6
Continuous
 62
     7
370
    15
100
AcDbCircle
 10
1844.6496138139
 20
990.2888887855048
 30
0.0
 40
2.400000000000019
100
AcDbArc
 50
194.4250320595904
 51
345.4700076877318
  0
LINE
  5
A55
330
9BD
100
AcDbEntity
  8
0
  6
Continuous
 62
     7
370
    15
100
AcDbLine
 10
1842.325276188397
 20
989.6910174782211
 30
0.0
 11
1844.249060802006
 21
989.68925541591
 31
0.0
  0
LINE
  5
A56
330
9BD
100
AcDbEntity
  8
0
  6
Continuous
 62
     7
370
    15
100
AcDbLine
 10
1844.249060802006
 20
989.68925541591
 30
0.0
 11
1844.248241238141
 21
988.7892557806159
 31
0.0
  0
LINE
  5
A57
330
9BD
100
AcDbEntity
  8
0
  6
Continuous
 62
     7
370
    15
100
AcDbLine
 10
1838.736234657311
 20
989.7514696265394
 30
0.0
 11
1840.738250367188
 21
989.74963585239
 31
0.0
  0
ARC
  5
A58
330
9BD
100
AcDbEntity
  8
0
  6
Continuous
 62
     7
370
    15
100
AcDbCircle
 10
1838.3996138139
 20
990.2888887855048
 30
0.0
 40
2.400000000000003
100
AcDbArc
 50
345.4700076877318
 51
347.0154246482373
  0
LINE
  5
A59
330
9BD
100
AcDbEntity
  8
0
  6
Continuous
 62
     7
370
    15
100
AcDbLine
 10
1825.498240493083
 20
988.7892557806159
 30
0.0
 11
1826.298239134097
 21
988.7885230625803
 31
0.0
  0
LINE
  5
A5A
330
9BD
100
AcDbEntity
  8
0
  6
Continuous
 62
     7
370
    15
100
AcDbLine
 10
1826.298239134097
 20
988.7885230625803
 30
0.0
 11
1826.299062423253
 21
989.6885226978744
 31
0.0
  0
ARC
  5
A5B
330
9BD
100
AcDbEntity
  8
0
  6
Continuous
 62
     7
370
    15
100
AcDbCircle
 10
1825.8996138139
 20
990.2888887855048
 30
0.0
 40
2.400000000000009
100
AcDbArc
 50
194.4250320595904
 51
345.4700076877318
  0
LINE
  5
A5C
330
9BD
100
AcDbEntity
  8
0
  6
Continuous
 62
     7
370
    15
100
AcDbLine
 10
1823.575275443339
 20
989.6910174782211
 30
0.0
 11
1825.499063782238
 21
989.68925541591
 31
0.0
  0
LINE
  5
A5D
330
9BD
100
AcDbEntity
  8
0
  6
Continuous
 62
     7
370
    15
100
AcDbLine
 10
1825.499063782238
 20
989.68925541591
 30
0.0
 11
1825.498240493083
 21
988.7892557806159
 31
0.0
  0
LINE
  5
A5E
330
9BD
100
AcDbEntity
  8
0
  6
Continuous
 62
     7
370
    15
100
AcDbLine
 10
1844.985409132981
 20
988.8514699912454
 30
0.0
 11
1844.986228696846
 21
989.7514696265394
 31
0.0
  0
LINE
  5
A5F
330
9BD
100
AcDbEntity
  8
0
  6
Continuous
 62
     7
370
    15
100
AcDbLine
 10
1845.049066893601
 20
989.6885226978744
 30
0.0
 11
1844.986228696846
 21
989.7514696265394
 31
0.0
  0
LINE
  5
A60
330
9BD
100
AcDbEntity
  8
0
  6
Continuous
 62
     7
370
    15
100
AcDbLine
 10
1844.985409132981
 20
988.8514699912454
 30
0.0
 11
1845.048239879155
 21
988.7885230625803
 31
0.0
  0
LINE
  5
A61
330
9BD
100
AcDbEntity
  8
0
  6
Continuous
 62
     7
370
    15
100
AcDbLine
 10
1844.986228696846
 20
989.7514696265394
 30
0.0
 11
1846.988244406724
 21
989.74963585239
 31
0.0
  0
ARC
  5
A62
330
9BD
100
AcDbEntity
  8
0
  6
Continuous
 62
     7
370
    15
100
AcDbCircle
 10
1844.6496138139
 20
990.2888887855048
 30
0.0
 40
2.400000000000017
100
AcDbArc
 50
345.4700076877318
 51
347.0154246482373
  0
LINE
  5
A63
330
9BD
100
AcDbEntity
  8
0
  6
Continuous
 62
     7
370
    15
100
AcDbLine
 10
1806.748239748024
 20
988.7892557806159
 30
0.0
 11
1807.548238389039
 21
988.7885230625803
 31
0.0
  0
LINE
  5
A64
330
9BD
100
AcDbEntity
  8
0
  6
Continuous
 62
     7
370
    15
100
AcDbLine
 10
1807.548238389039
 20
988.7885230625803
 30
0.0
 11
1807.549065403485
 21
989.6885226978744
 31
0.0
  0
ARC
  5
A65
330
9BD
100
AcDbEntity
  8
0
  6
Continuous
 62
     7
370
    15
100
AcDbCircle
 10
1807.1496138139
 20
990.2888887855048
 30
0.0
 40
2.400000000000005
100
AcDbArc
 50
194.4250320595904
 51
345.4700076877318
  0
LINE
  5
A66
330
9BD
100
AcDbEntity
  8
0
  6
Continuous
 62
     7
370
    15
100
AcDbLine
 10
1804.825274698281
 20
989.6910174782211
 30
0.0
 11
1806.74906303718
 21
989.68925541591
 31
0.0
  0
LINE
  5
A67
330
9BD
100
AcDbEntity
  8
0
  6
Continuous
 62
     7
370
    15
100
AcDbLine
 10
1806.74906303718
 20
989.68925541591
 30
0.0
 11
1806.748239748024
 21
988.7892557806159
 31
0.0
  0
LINE
  5
A68
330
9BD
100
AcDbEntity
  8
0
  6
Continuous
 62
     7
370
    15
100
AcDbLine
 10
1826.235408387923
 20
988.8514699912454
 30
0.0
 11
1826.236231677079
 21
989.7514696265394
 31
0.0
  0
LINE
  5
A69
330
9BD
100
AcDbEntity
  8
0
  6
Continuous
 62
     7
370
    15
100
AcDbLine
 10
1826.235408387923
 20
988.8514699912454
 30
0.0
 11
1826.298239134097
 21
988.7885230625803
 31
0.0
  0
LINE
  5
A6A
330
9BD
100
AcDbEntity
  8
0
  6
Continuous
 62
     7
370
    15
100
AcDbLine
 10
1832.486233167195
 20
989.7514696265394
 30
0.0
 11
1834.488248877072
 21
989.74963585239
 31
0.0
  0
ARC
  5
A6B
330
9BD
100
AcDbEntity
  8
0
  6
Continuous
 62
     7
370
    15
100
AcDbCircle
 10
1832.1496138139
 20
990.2888887855048
 30
0.0
 40
2.399999999999995
100
AcDbArc
 50
345.4700076877318
 51
347.0154246482373
  0
LINE
  5
A6C
330
9BD
100
AcDbEntity
  8
0
  6
Continuous
 62
     7
370
    15
100
AcDbLine
 10
1832.549063913369
 20
989.6885226978744
 30
0.0
 11
1832.486233167195
 21
989.7514696265394
 31
0.0
  0
LINE
  5
A6D
330
9BD
100
AcDbEntity
  8
0
  6
Continuous
 62
     7
370
    15
100
AcDbLine
 10
1819.986233912253
 20
989.7514696265394
 30
0.0
 11
1821.98824589684
 21
989.74963585239
 31
0.0
  0
ARC
  5
A6E
330
9BD
100
AcDbEntity
  8
0
  6
Continuous
 62
     7
370
    15
100
AcDbCircle
 10
1819.6496138139
 20
990.2888887855048
 30
0.0
 40
2.400000000000003
100
AcDbArc
 50
345.4700076877318
 51
347.0154246482373
  0
LINE
  5
A6F
330
9BD
100
AcDbEntity
  8
0
  6
Continuous
 62
     7
370
    15
100
AcDbLine
 10
1820.049064658427
 20
989.6885226978744
 30
0.0
 11
1819.986233912253
 21
989.7514696265394
 31
0.0
  0
LINE
  5
A70
330
9BD
100
AcDbEntity
  8
0
  6
Continuous
 62
     7
370
    15
100
AcDbLine
 10
1807.485407642865
 20
988.8514699912454
 30
0.0
 11
1807.486230932021
 21
989.7514696265394
 31
0.0
  0
LINE
  5
A71
330
9BD
100
AcDbEntity
  8
0
  6
Continuous
 62
     7
370
    15
100
AcDbLine
 10
1807.485407642865
 20
988.8514699912454
 30
0.0
 11
1807.548238389039
 21
988.7885230625803
 31
0.0
  0
LINE
  5
A72
330
9BD
100
AcDbEntity
  8
0
  6
Continuous
 62
     7
370
    15
100
AcDbLine
 10
1851.236230186963
 20
989.7514696265394
 30
0.0
 11
1853.23824589684
 21
989.74963585239
 31
0.0
  0
ARC
  5
A73
330
9BD
100
AcDbEntity
  8
0
  6
Continuous
 62
     7
370
    15
100
AcDbCircle
 10
1850.8996138139
 20
990.2888887855048
 30
0.0
 40
2.400000000000003
100
AcDbArc
 50
345.4700076877318
 51
347.0154246482373
  0
LINE
  5
A74
330
9BD
100
AcDbEntity
  8
0
  6
Continuous
 62
     7
370
    15
100
AcDbLine
 10
1851.299060933136
 20
989.6885226978744
 30
0.0
 11
1853.222852997326
 21
989.6867606355632
 31
0.0
  0
LINE
  5
A75
330
9BD
100
AcDbEntity
  8
0
  6
Continuous
 62
     7
370
    15
100
AcDbLine
 10
1851.299060933136
 20
989.6885226978744
 30
0.0
 11
1851.236230186963
 21
989.7514696265394
 31
0.0
  0
LINE
  5
A76
330
9BD
100
AcDbEntity
  8
0
  6
Continuous
 62
     7
370
    15
100
AcDbLine
 10
1794.985408387923
 20
988.8514699912454
 30
0.0
 11
1794.986231677079
 21
989.7514696265394
 31
0.0
  0
LINE
  5
A77
330
9BD
100
AcDbEntity
  8
0
  6
Continuous
 62
     7
370
    15
100
AcDbLine
 10
1795.049064285898
 20
989.6885226978744
 30
0.0
 11
1794.986231677079
 21
989.7514696265394
 31
0.0
  0
LINE
  5
A78
330
9BD
100
AcDbEntity
  8
0
  6
Continuous
 62
     7
370
    15
100
AcDbLine
 10
1794.985408387923
 20
988.8514699912454
 30
0.0
 11
1795.048239134097
 21
988.7885230625803
 31
0.0
  0
LINE
  5
A79
330
9BD
100
AcDbEntity
  8
0
  6
Continuous
 62
     7
370
    15
100
AcDbLine
 10
1832.485406152749
 20
988.8514699912454
 30
0.0
 11
1832.486233167195
 21
989.7514696265394
 31
0.0
  0
LINE
  5
A7A
330
9BD
100
AcDbEntity
  8
0
  6
Continuous
 62
     7
370
    15
100
AcDbLine
 10
1832.485406152749
 20
988.8514699912454
 30
0.0
 11
1832.548240624213
 21
988.7885230625803
 31
0.0
  0
LINE
  5
A7B
330
9BD
100
AcDbEntity
  8
0
  6
Continuous
 62
     7
370
    15
100
AcDbLine
 10
1801.235408015394
 20
988.8514699912454
 30
0.0
 11
1801.236233167195
 21
989.7514696265394
 31
0.0
  0
LINE
  5
A7C
330
9BD
100
AcDbEntity
  8
0
  6
Continuous
 62
     7
370
    15
100
AcDbLine
 10
1801.235408015394
 20
988.8514699912454
 30
0.0
 11
1801.298240624213
 21
988.7885230625803
 31
0.0
  0
LINE
  5
A7D
330
9BD
100
AcDbEntity
  8
0
  6
Continuous
 62
     7
370
    15
100
AcDbLine
 10
1794.986231677079
 20
989.7514696265394
 30
0.0
 11
1796.988247386956
 21
989.74963585239
 31
0.0
  0
ARC
  5
A7E
330
9BD
100
AcDbEntity
  8
0
  6
Continuous
 62
     7
370
    15
100
AcDbCircle
 10
1794.6496138139
 20
990.2888887855048
 30
0.0
 40
2.399999999999982
100
AcDbArc
 50
345.4700076877318
 51
347.0154246482373
  0
LINE
  5
A7F
330
9BD
100
AcDbEntity
  8
0
  6
Continuous
 62
     7
370
    15
100
AcDbLine
 10
1819.985406897807
 20
988.8514699912454
 30
0.0
 11
1819.986233912253
 21
989.7514696265394
 31
0.0
  0
LINE
  5
A80
330
9BD
100
AcDbEntity
  8
0
  6
Continuous
 62
     7
370
    15
100
AcDbLine
 10
1819.985406897807
 20
988.8514699912454
 30
0.0
 11
1820.048241369271
 21
988.7885230625803
 31
0.0
  0
LINE
  5
A81
330
9BD
100
AcDbEntity
  8
0
  6
Continuous
 62
     7
370
    15
100
AcDbLine
 10
1850.498242728257
 20
988.7892557806159
 30
0.0
 11
1851.298241369271
 21
988.7885230625803
 31
0.0
  0
LINE
  5
A82
330
9BD
100
AcDbEntity
  8
0
  6
Continuous
 62
     7
370
    15
100
AcDbLine
 10
1851.298241369271
 20
988.7885230625803
 30
0.0
 11
1851.299060933136
 21
989.6885226978744
 31
0.0
  0
ARC
  5
A83
330
9BD
100
AcDbEntity
  8
0
  6
Continuous
 62
     7
370
    15
100
AcDbCircle
 10
1850.8996138139
 20
990.2888887855048
 30
0.0
 40
2.399999999999991
100
AcDbArc
 50
194.4250320595904
 51
345.4700076877318
  0
LINE
  5
A84
330
9BD
100
AcDbEntity
  8
0
  6
Continuous
 62
     7
370
    15
100
AcDbLine
 10
1848.575277678513
 20
989.6910174782211
 30
0.0
 11
1850.499062292122
 21
989.68925541591
 31
0.0
  0
LINE
  5
A85
330
9BD
100
AcDbEntity
  8
0
  6
Continuous
 62
     7
370
    15
100
AcDbLine
 10
1850.499062292122
 20
989.68925541591
 30
0.0
 11
1850.498242728257
 21
988.7892557806159
 31
0.0
  0
LINE
  5
A86
330
9BD
100
AcDbEntity
  8
0
  6
Continuous
 62
     7
370
    15
100
AcDbLine
 10
1851.235410623097
 20
988.8514699912454
 30
0.0
 11
1851.236230186963
 21
989.7514696265394
 31
0.0
  0
LINE
  5
A87
330
9BD
100
AcDbEntity
  8
0
  6
Continuous
 62
     7
370
    15
100
AcDbLine
 10
1851.235410623097
 20
988.8514699912454
 30
0.0
 11
1851.298241369271
 21
988.7885230625803
 31
0.0
  0
LINE
  5
A88
330
9BD
100
AcDbEntity
  8
0
  6
Continuous
 62
     7
370
    15
100
AcDbLine
 10
1831.748238257908
 20
988.7892557806159
 30
0.0
 11
1831.811188213372
 21
988.8520874581123
 31
0.0
  0
LINE
  5
A89
330
9BD
100
AcDbEntity
  8
0
  6
Continuous
 62
     7
370
    15
100
AcDbLine
 10
1831.811188213372
 20
988.8520874581123
 30
0.0
 11
1832.485406152749
 21
988.8514699912454
 31
0.0
  0
LINE
  5
A8A
330
9BD
100
AcDbEntity
  8
0
  6
Continuous
 62
     7
370
    15
100
AcDbLine
 10
1819.249066017413
 20
989.68925541591
 30
0.0
 11
1819.312012247586
 21
989.7520870934064
 31
0.0
  0
LINE
  5
A8B
330
9BD
100
AcDbEntity
  8
0
  6
Continuous
 62
     7
370
    15
100
AcDbLine
 10
1819.312012247586
 20
989.7520870934064
 30
0.0
 11
1819.31118523314
 21
988.8520874581123
 31
0.0
  0
LINE
  5
A8C
330
9BD
100
AcDbEntity
  8
0
  6
Continuous
 62
     7
370
    15
100
AcDbLine
 10
1819.248239002966
 20
988.7892557806159
 30
0.0
 11
1819.31118523314
 21
988.8520874581123
 31
0.0
  0
LINE
  5
A8D
330
9BD
100
AcDbEntity
  8
0
  6
Continuous
 62
     7
370
    15
100
AcDbLine
 10
1831.749065272355
 20
989.68925541591
 30
0.0
 11
1831.812011502528
 21
989.7520870934064
 31
0.0
  0
LINE
  5
A8E
330
9BD
100
AcDbEntity
  8
0
  6
Continuous
 62
     7
370
    15
100
AcDbLine
 10
1831.812011502528
 20
989.7520870934064
 30
0.0
 11
1831.811188213372
 21
988.8520874581123
 31
0.0
  0
LINE
  5
A8F
330
9BD
100
AcDbEntity
  8
0
  6
Continuous
 62
     7
370
    15
100
AcDbLine
 10
1819.31118523314
 20
988.8520874581123
 30
0.0
 11
1819.985406897807
 21
988.8514699912454
 31
0.0
  0
LINE
  5
A90
330
9BD
100
AcDbEntity
  8
0
  6
Continuous
 62
     7
370
    15
100
AcDbLine
 10
1794.311186723256
 20
988.8520874581123
 30
0.0
 11
1794.985408387923
 21
988.8514699912454
 31
0.0
  0
LINE
  5
A91
330
9BD
100
AcDbEntity
  8
0
  6
Continuous
 62
     7
370
    15
100
AcDbLine
 10
1806.748239748024
 20
988.7892557806159
 30
0.0
 11
1806.811185978198
 21
988.8520874581123
 31
0.0
  0
LINE
  5
A92
330
9BD
100
AcDbEntity
  8
0
  6
Continuous
 62
     7
370
    15
100
AcDbLine
 10
1806.811185978198
 20
988.8520874581123
 30
0.0
 11
1807.485407642865
 21
988.8514699912454
 31
0.0
  0
LINE
  5
A93
330
9BD
100
AcDbEntity
  8
0
  6
Continuous
 62
     7
370
    15
100
AcDbLine
 10
1825.498240493083
 20
988.7892557806159
 30
0.0
 11
1825.561186723256
 21
988.8520874581123
 31
0.0
  0
LINE
  5
A94
330
9BD
100
AcDbEntity
  8
0
  6
Continuous
 62
     7
370
    15
100
AcDbLine
 10
1825.561186723256
 20
988.8520874581123
 30
0.0
 11
1826.235408387923
 21
988.8514699912454
 31
0.0
  0
LINE
  5
A95
330
9BD
100
AcDbEntity
  8
0
  6
Continuous
 62
     7
370
    15
100
AcDbLine
 10
1825.499063782238
 20
989.68925541591
 30
0.0
 11
1825.562010012412
 21
989.7520870934064
 31
0.0
  0
LINE
  5
A96
330
9BD
100
AcDbEntity
  8
0
  6
Continuous
 62
     7
370
    15
100
AcDbLine
 10
1825.562010012412
 20
989.7520870934064
 30
0.0
 11
1825.561186723256
 21
988.8520874581123
 31
0.0
  0
LINE
  5
A97
330
9BD
100
AcDbEntity
  8
0
  6
Continuous
 62
     7
370
    15
100
AcDbLine
 10
1806.74906303718
 20
989.68925541591
 30
0.0
 11
1806.812012992644
 21
989.7520870934064
 31
0.0
  0
LINE
  5
A98
330
9BD
100
AcDbEntity
  8
0
  6
Continuous
 62
     7
370
    15
100
AcDbLine
 10
1806.812012992644
 20
989.7520870934064
 30
0.0
 11
1806.811185978198
 21
988.8520874581123
 31
0.0
  0
LINE
  5
A99
330
9BD
100
AcDbEntity
  8
0
  6
Continuous
 62
     7
370
    15
100
AcDbLine
 10
1807.550164364123
 20
990.8885220563794
 30
0.0
 11
1807.550987653279
 21
991.7885216916735
 31
0.0
  0
LINE
  5
A9A
330
9BD
100
AcDbEntity
  8
0
  6
Continuous
 62
     7
370
    15
100
AcDbLine
 10
1807.550164364123
 20
990.8885220563794
 30
0.0
 11
1807.48721813395
 21
990.825690378883
 31
0.0
  0
LINE
  5
A9B
330
9BD
100
AcDbEntity
  8
0
  6
Continuous
 62
     7
370
    15
100
AcDbLine
 10
1807.48721813395
 20
990.825690378883
 30
0.0
 11
1807.488041423106
 21
991.725690014177
 31
0.0
  0
LINE
  5
A9C
330
9BD
100
AcDbEntity
  8
0
  6
Continuous
 62
     7
370
    15
100
AcDbLine
 10
1807.550987653279
 20
991.7885216916735
 30
0.0
 11
1807.488041423106
 21
991.725690014177
 31
0.0
  0
ARC
  5
A9D
330
9BD
100
AcDbEntity
  8
0
  6
Continuous
 62
     7
370
    15
100
AcDbCircle
 10
1813.3996138139
 20
990.2888887855048
 30
0.0
 40
2.400000000000019
100
AcDbArc
 50
192.8796150990834
 51
194.4250320595904
  0
LINE
  5
A9E
330
9BD
100
AcDbEntity
  8
0
  6
Continuous
 62
     7
370
    15
100
AcDbLine
 10
1811.059995047593
 20
989.7539208675558
 30
0.0
 11
1813.06201075747
 21
989.7520870934064
 31
0.0
  0
LINE
  5
A9F
330
9BD
100
AcDbEntity
  8
0
  6
Continuous
 62
     7
370
    15
100
AcDbLine
 10
1812.999064527297
 20
989.68925541591
 30
0.0
 11
1813.06201075747
 21
989.7520870934064
 31
0.0
  0
ARC
  5
AA0
330
9BD
100
AcDbEntity
  8
0
  6
Continuous
 62
     7
370
    15
100
AcDbCircle
 10
1825.8996138139
 20
990.2888887855048
 30
0.0
 40
2.400000000000005
100
AcDbArc
 50
192.8796150990834
 51
194.4250320595904
  0
LINE
  5
AA1
330
9BD
100
AcDbEntity
  8
0
  6
Continuous
 62
     7
370
    15
100
AcDbLine
 10
1823.559998027825
 20
989.7539208675558
 30
0.0
 11
1825.562010012412
 21
989.7520870934064
 31
0.0
  0
LINE
  5
AA2
330
9BD
100
AcDbEntity
  8
0
  6
Continuous
 62
     7
370
    15
100
AcDbLine
 10
1828.223953448081
 20
990.8867599940682
 30
0.0
 11
1826.300161383891
 21
990.8885220563794
 31
0.0
  0
ARC
  5
AA3
330
9BD
100
AcDbEntity
  8
0
  6
Continuous
 62
     7
370
    15
100
AcDbCircle
 10
1825.8996138139
 20
990.2888887855048
 30
0.0
 40
2.400000000000005
100
AcDbArc
 50
12.87961509908336
 51
14.42503205959039
  0
LINE
  5
AA4
330
9BD
100
AcDbEntity
  8
0
  6
Continuous
 62
     7
370
    15
100
AcDbLine
 10
1828.239230863595
 20
990.8238566047335
 30
0.0
 11
1826.237215153718
 21
990.825690378883
 31
0.0
  0
LINE
  5
AA5
330
9BD
100
AcDbEntity
  8
0
  6
Continuous
 62
     7
370
    15
100
AcDbLine
 10
1826.300161383891
 20
990.8885220563794
 30
0.0
 11
1826.237215153718
 21
990.825690378883
 31
0.0
  0
LINE
  5
AA6
330
9BD
100
AcDbEntity
  8
0
  6
Continuous
 62
     7
370
    15
100
AcDbLine
 10
1826.300161383891
 20
990.8885220563794
 30
0.0
 11
1826.300988398337
 21
991.7885216916735
 31
0.0
  0
LINE
  5
AA7
330
9BD
100
AcDbEntity
  8
0
  6
Continuous
 62
     7
370
    15
100
AcDbLine
 10
1826.237215153718
 20
990.825690378883
 30
0.0
 11
1826.238042168164
 21
991.725690014177
 31
0.0
  0
LINE
  5
AA8
330
9BD
100
AcDbEntity
  8
0
  6
Continuous
 62
     7
370
    15
100
AcDbLine
 10
1826.300988398337
 20
991.7885216916735
 30
0.0
 11
1826.238042168164
 21
991.725690014177
 31
0.0
  0
LINE
  5
AA9
330
9BD
100
AcDbEntity
  8
0
  6
Continuous
 62
     7
370
    15
100
AcDbLine
 10
1813.800162128949
 20
990.8885220563794
 30
0.0
 11
1813.800989143395
 21
991.7885216916735
 31
0.0
  0
LINE
  5
AAA
330
9BD
100
AcDbEntity
  8
0
  6
Continuous
 62
     7
370
    15
100
AcDbLine
 10
1813.800162128949
 20
990.8885220563794
 30
0.0
 11
1813.737215898776
 21
990.825690378883
 31
0.0
  0
LINE
  5
AAB
330
9BD
100
AcDbEntity
  8
0
  6
Continuous
 62
     7
370
    15
100
AcDbLine
 10
1813.737215898776
 20
990.825690378883
 30
0.0
 11
1813.738039187932
 21
991.725690014177
 31
0.0
  0
LINE
  5
AAC
330
9BD
100
AcDbEntity
  8
0
  6
Continuous
 62
     7
370
    15
100
AcDbLine
 10
1813.800989143395
 20
991.7885216916735
 30
0.0
 11
1813.738039187932
 21
991.725690014177
 31
0.0
  0
LINE
  5
AAD
330
9BD
100
AcDbEntity
  8
0
  6
Continuous
 62
     7
370
    15
100
AcDbLine
 10
1821.973951957964
 20
990.8867599940682
 30
0.0
 11
1820.050163619065
 21
990.8885220563794
 31
0.0
  0
ARC
  5
AAE
330
9BD
100
AcDbEntity
  8
0
  6
Continuous
 62
     7
370
    15
100
AcDbCircle
 10
1819.6496138139
 20
990.2888887855048
 30
0.0
 40
2.399999999999991
100
AcDbArc
 50
12.87961509908336
 51
14.42503205959039
  0
LINE
  5
AAF
330
9BD
100
AcDbEntity
  8
0
  6
Continuous
 62
     7
370
    15
100
AcDbLine
 10
1821.989229373478
 20
990.8238566047335
 30
0.0
 11
1819.987217388892
 21
990.825690378883
 31
0.0
  0
LINE
  5
AB0
330
9BD
100
AcDbEntity
  8
0
  6
Continuous
 62
     7
370
    15
100
AcDbLine
 10
1820.050163619065
 20
990.8885220563794
 30
0.0
 11
1819.987217388892
 21
990.825690378883
 31
0.0
  0
LINE
  5
AB1
330
9BD
100
AcDbEntity
  8
0
  6
Continuous
 62
     7
370
    15
100
AcDbLine
 10
1844.248241238141
 20
988.7892557806159
 30
0.0
 11
1844.311183743023
 21
988.8520874581123
 31
0.0
  0
LINE
  5
AB2
330
9BD
100
AcDbEntity
  8
0
  6
Continuous
 62
     7
370
    15
100
AcDbLine
 10
1844.311183743023
 20
988.8520874581123
 30
0.0
 11
1844.985409132981
 21
988.8514699912454
 31
0.0
  0
LINE
  5
AB3
330
9BD
100
AcDbEntity
  8
0
  6
Continuous
 62
     7
370
    15
100
AcDbLine
 10
1813.800989143395
 20
991.7885216916735
 30
0.0
 11
1813.000986777091
 21
991.7892546425397
 31
0.0
  0
LINE
  5
AB4
330
9BD
100
AcDbEntity
  8
0
  6
Continuous
 62
     7
370
    15
100
AcDbLine
 10
1813.738039187932
 20
991.725690014177
 30
0.0
 11
1813.063821248555
 21
991.726307481044
 31
0.0
  0
LINE
  5
AB5
330
9BD
100
AcDbEntity
  8
0
  6
Continuous
 62
     7
370
    15
100
AcDbLine
 10
1813.000986777091
 20
991.7892546425397
 30
0.0
 11
1813.063821248555
 21
991.726307481044
 31
0.0
  0
LINE
  5
AB6
330
9BD
100
AcDbEntity
  8
0
  6
Continuous
 62
     7
370
    15
100
AcDbLine
 10
1850.498242728257
 20
988.7892557806159
 30
0.0
 11
1850.56118523314
 21
988.8520874581123
 31
0.0
  0
LINE
  5
AB7
330
9BD
100
AcDbEntity
  8
0
  6
Continuous
 62
     7
370
    15
100
AcDbLine
 10
1850.56118523314
 20
988.8520874581123
 30
0.0
 11
1851.235410623097
 21
988.8514699912454
 31
0.0
  0
LINE
  5
AB8
330
9BD
100
AcDbEntity
  8
0
  6
Continuous
 62
     7
370
    15
100
AcDbLine
 10
1800.498240120553
 20
988.7892557806159
 30
0.0
 11
1800.561186350727
 21
988.8520874581123
 31
0.0
  0
LINE
  5
AB9
330
9BD
100
AcDbEntity
  8
0
  6
Continuous
 62
     7
370
    15
100
AcDbLine
 10
1800.561186350727
 20
988.8520874581123
 30
0.0
 11
1801.235408015394
 21
988.8514699912454
 31
0.0
  0
ARC
  5
ABA
330
9BD
100
AcDbEntity
  8
0
  6
Continuous
 62
     7
370
    15
100
AcDbCircle
 10
1807.1496138139
 20
990.2888887855048
 30
0.0
 40
2.400000000000005
100
AcDbArc
 50
192.8796150990834
 51
194.4250320595904
  0
LINE
  5
ABB
330
9BD
100
AcDbEntity
  8
0
  6
Continuous
 62
     7
370
    15
100
AcDbLine
 10
1804.809997282767
 20
989.7539208675558
 30
0.0
 11
1806.812012992644
 21
989.7520870934064
 31
0.0
  0
LINE
  5
ABC
330
9BD
100
AcDbEntity
  8
0
  6
Continuous
 62
     7
370
    15
100
AcDbLine
 10
1825.500162742877
 20
990.8892550072456
 30
0.0
 11
1823.576374403977
 21
990.8910170695568
 31
0.0
  0
ARC
  5
ABD
330
9BD
100
AcDbEntity
  8
0
  6
Continuous
 62
     7
370
    15
100
AcDbCircle
 10
1825.8996138139
 20
990.2888887855048
 30
0.0
 40
2.400000000000005
100
AcDbArc
 50
14.42503205959039
 51
165.4700076877318
  0
LINE
  5
ABE
330
9BD
100
AcDbEntity
  8
0
  6
Continuous
 62
     7
370
    15
100
AcDbLine
 10
1826.300988398337
 20
991.7885216916735
 30
0.0
 11
1825.500989757323
 21
991.7892546425397
 31
0.0
  0
LINE
  5
ABF
330
9BD
100
AcDbEntity
  8
0
  6
Continuous
 62
     7
370
    15
100
AcDbLine
 10
1825.500989757323
 20
991.7892546425397
 30
0.0
 11
1825.500162742877
 21
990.8892550072456
 31
0.0
  0
LINE
  5
AC0
330
9BD
100
AcDbEntity
  8
0
  6
Continuous
 62
     7
370
    15
100
AcDbLine
 10
1809.473952703022
 20
990.8867599940682
 30
0.0
 11
1807.550164364123
 21
990.8885220563794
 31
0.0
  0
ARC
  5
AC1
330
9BD
100
AcDbEntity
  8
0
  6
Continuous
 62
     7
370
    15
100
AcDbCircle
 10
1807.1496138139
 20
990.2888887855048
 30
0.0
 40
2.400000000000016
100
AcDbArc
 50
12.87961509908336
 51
14.42503205959039
  0
LINE
  5
AC2
330
9BD
100
AcDbEntity
  8
0
  6
Continuous
 62
     7
370
    15
100
AcDbLine
 10
1809.489230118536
 20
990.8238566047335
 30
0.0
 11
1807.48721813395
 21
990.825690378883
 31
0.0
  0
ARC
  5
AC3
330
9BD
100
AcDbEntity
  8
0
  6
Continuous
 62
     7
370
    15
100
AcDbCircle
 10
1832.1496138139
 20
990.2888887855048
 30
0.0
 40
2.400000000000019
100
AcDbArc
 50
192.8796150990834
 51
194.4250320595904
  0
LINE
  5
AC4
330
9BD
100
AcDbEntity
  8
0
  6
Continuous
 62
     7
370
    15
100
AcDbLine
 10
1829.809995792651
 20
989.7539208675558
 30
0.0
 11
1831.812011502528
 21
989.7520870934064
 31
0.0
  0
ARC
  5
AC5
330
9BD
100
AcDbEntity
  8
0
  6
Continuous
 62
     7
370
    15
100
AcDbCircle
 10
1800.8996138139
 20
990.2888887855048
 30
0.0
 40
2.400000000000005
100
AcDbArc
 50
192.8796150990834
 51
194.4250320595904
  0
LINE
  5
AC6
330
9BD
100
AcDbEntity
  8
0
  6
Continuous
 62
     7
370
    15
100
AcDbLine
 10
1798.559995792651
 20
989.7539208675558
 30
0.0
 11
1800.562011502528
 21
989.7520870934064
 31
0.0
  0
LINE
  5
AC7
330
9BD
100
AcDbEntity
  8
0
  6
Continuous
 62
     7
370
    15
100
AcDbLine
 10
1800.499065272355
 20
989.68925541591
 30
0.0
 11
1800.562011502528
 21
989.7520870934064
 31
0.0
  0
LINE
  5
AC8
330
9BD
100
AcDbEntity
  8
0
  6
Continuous
 62
     7
370
    15
100
AcDbLine
 10
1813.000163487935
 20
990.8892550072456
 30
0.0
 11
1811.076375149035
 21
990.8910170695568
 31
0.0
  0
ARC
  5
AC9
330
9BD
100
AcDbEntity
  8
0
  6
Continuous
 62
     7
370
    15
100
AcDbCircle
 10
1813.3996138139
 20
990.2888887855048
 30
0.0
 40
2.399999999999991
100
AcDbArc
 50
14.42503205959039
 51
165.4700076877318
  0
LINE
  5
ACA
330
9BD
100
AcDbEntity
  8
0
  6
Continuous
 62
     7
370
    15
100
AcDbLine
 10
1815.723954193139
 20
990.8867599940682
 30
0.0
 11
1813.800162128949
 21
990.8885220563794
 31
0.0
  0
LINE
  5
ACB
330
9BD
100
AcDbEntity
  8
0
  6
Continuous
 62
     7
370
    15
100
AcDbLine
 10
1813.000986777091
 20
991.7892546425397
 30
0.0
 11
1813.000163487935
 21
990.8892550072456
 31
0.0
  0
ARC
  5
ACC
330
9BD
100
AcDbEntity
  8
0
  6
Continuous
 62
     7
370
    15
100
AcDbCircle
 10
1813.3996138139
 20
990.2888887855048
 30
0.0
 40
2.399999999999991
100
AcDbArc
 50
12.87961509908336
 51
14.42503205959039
  0
LINE
  5
ACD
330
9BD
100
AcDbEntity
  8
0
  6
Continuous
 62
     7
370
    15
100
AcDbLine
 10
1815.739231608653
 20
990.8238566047335
 30
0.0
 11
1813.737215898776
 21
990.825690378883
 31
0.0
  0
ARC
  5
ACE
330
9BD
100
AcDbEntity
  8
0
  6
Continuous
 62
     7
370
    15
100
AcDbCircle
 10
1819.6496138139
 20
990.2888887855048
 30
0.0
 40
2.400000000000019
100
AcDbArc
 50
192.8796150990834
 51
194.4250320595904
  0
LINE
  5
ACF
330
9BD
100
AcDbEntity
  8
0
  6
Continuous
 62
     7
370
    15
100
AcDbLine
 10
1817.309996537709
 20
989.7539208675558
 30
0.0
 11
1819.312012247586
 21
989.7520870934064
 31
0.0
  0
LINE
  5
AD0
330
9BD
100
AcDbEntity
  8
0
  6
Continuous
 62
     7
370
    15
100
AcDbLine
 10
1800.562011502528
 20
989.7520870934064
 30
0.0
 11
1800.561186350727
 21
988.8520874581123
 31
0.0
  0
LINE
  5
AD1
330
9BD
100
AcDbEntity
  8
0
  6
Continuous
 62
     7
370
    15
100
AcDbLine
 10
1806.750161997818
 20
990.8892550072456
 30
0.0
 11
1804.826373658919
 21
990.8910170695568
 31
0.0
  0
ARC
  5
AD2
330
9BD
100
AcDbEntity
  8
0
  6
Continuous
 62
     7
370
    15
100
AcDbCircle
 10
1807.1496138139
 20
990.2888887855048
 30
0.0
 40
2.399999999999991
100
AcDbArc
 50
14.42503205959039
 51
165.4700076877318
  0
LINE
  5
AD3
330
9BD
100
AcDbEntity
  8
0
  6
Continuous
 62
     7
370
    15
100
AcDbLine
 10
1807.550987653279
 20
991.7885216916735
 30
0.0
 11
1806.750989012265
 21
991.7892546425397
 31
0.0
  0
LINE
  5
AD4
330
9BD
100
AcDbEntity
  8
0
  6
Continuous
 62
     7
370
    15
100
AcDbLine
 10
1806.750989012265
 20
991.7892546425397
 30
0.0
 11
1806.750161997818
 21
990.8892550072456
 31
0.0
  0
LINE
  5
AD5
330
9BD
100
AcDbEntity
  8
0
  6
Continuous
 62
     7
370
    15
100
AcDbLine
 10
1831.812994979167
 20
990.8263080785806
 30
0.0
 11
1829.810979269289
 21
990.82814185273
 31
0.0
  0
ARC
  5
AD6
330
9BD
100
AcDbEntity
  8
0
  6
Continuous
 62
     7
370
    15
100
AcDbCircle
 10
1832.1496138139
 20
990.2888887855048
 30
0.0
 40
2.400000000000002
100
AcDbArc
 50
165.4700076877318
 51
167.0154246482373
  0
LINE
  5
AD7
330
9BD
100
AcDbEntity
  8
0
  6
Continuous
 62
     7
370
    15
100
AcDbLine
 10
1831.750164232993
 20
990.8892550072456
 30
0.0
 11
1831.812994979167
 21
990.8263080785806
 31
0.0
  0
LINE
  5
AD8
330
9BD
100
AcDbEntity
  8
0
  6
Continuous
 62
     7
370
    15
100
AcDbLine
 10
1832.48803993299
 20
991.725690014177
 30
0.0
 11
1831.813818268322
 21
991.726307481044
 31
0.0
  0
LINE
  5
AD9
330
9BD
100
AcDbEntity
  8
0
  6
Continuous
 62
     7
370
    15
100
AcDbLine
 10
1831.750987522149
 20
991.7892546425397
 30
0.0
 11
1831.813818268322
 21
991.726307481044
 31
0.0
  0
LINE
  5
ADA
330
9BD
100
AcDbEntity
  8
0
  6
Continuous
 62
     7
370
    15
100
AcDbLine
 10
1813.06201075747
 20
989.7520870934064
 30
0.0
 11
1813.061187468314
 21
988.8520874581123
 31
0.0
  0
LINE
  5
ADB
330
9BD
100
AcDbEntity
  8
0
  6
Continuous
 62
     7
370
    15
100
AcDbLine
 10
1820.050163619065
 20
990.8885220563794
 30
0.0
 11
1820.050986908221
 21
991.7885216916735
 31
0.0
  0
LINE
  5
ADC
330
9BD
100
AcDbEntity
  8
0
  6
Continuous
 62
     7
370
    15
100
AcDbLine
 10
1819.987217388892
 20
990.825690378883
 30
0.0
 11
1819.988040678048
 21
991.725690014177
 31
0.0
  0
LINE
  5
ADD
330
9BD
100
AcDbEntity
  8
0
  6
Continuous
 62
     7
370
    15
100
AcDbLine
 10
1820.050986908221
 20
991.7885216916735
 30
0.0
 11
1819.988040678048
 21
991.725690014177
 31
0.0
  0
LINE
  5
ADE
330
9BD
100
AcDbEntity
  8
0
  6
Continuous
 62
     7
370
    15
100
AcDbLine
 10
1831.813818268322
 20
991.726307481044
 30
0.0
 11
1831.812994979167
 21
990.8263080785806
 31
0.0
  0
LINE
  5
ADF
330
9BD
100
AcDbEntity
  8
0
  6
Continuous
 62
     7
370
    15
100
AcDbLine
 10
1819.250164978051
 20
990.8892550072456
 30
0.0
 11
1817.326372913861
 21
990.8910170695568
 31
0.0
  0
ARC
  5
AE0
330
9BD
100
AcDbEntity
  8
0
  6
Continuous
 62
     7
370
    15
100
AcDbCircle
 10
1819.6496138139
 20
990.2888887855048
 30
0.0
 40
2.400000000000002
100
AcDbArc
 50
14.42503205959039
 51
165.4700076877318
  0
LINE
  5
AE1
330
9BD
100
AcDbEntity
  8
0
  6
Continuous
 62
     7
370
    15
100
AcDbLine
 10
1820.050986908221
 20
991.7885216916735
 30
0.0
 11
1819.250988267207
 21
991.7892546425397
 31
0.0
  0
LINE
  5
AE2
330
9BD
100
AcDbEntity
  8
0
  6
Continuous
 62
     7
370
    15
100
AcDbLine
 10
1819.250988267207
 20
991.7892546425397
 30
0.0
 11
1819.250164978051
 21
990.8892550072456
 31
0.0
  0
LINE
  5
AE3
330
9BD
100
AcDbEntity
  8
0
  6
Continuous
 62
     7
370
    15
100
AcDbLine
 10
1850.499062292122
 20
989.68925541591
 30
0.0
 11
1850.562012247586
 21
989.7520870934064
 31
0.0
  0
LINE
  5
AE4
330
9BD
100
AcDbEntity
  8
0
  6
Continuous
 62
     7
370
    15
100
AcDbLine
 10
1850.562012247586
 20
989.7520870934064
 30
0.0
 11
1850.56118523314
 21
988.8520874581123
 31
0.0
  0
LINE
  5
AE5
330
9BD
100
AcDbEntity
  8
0
  6
Continuous
 62
     7
370
    15
100
AcDbLine
 10
1844.249060802006
 20
989.68925541591
 30
0.0
 11
1844.31201075747
 21
989.7520870934064
 31
0.0
  0
LINE
  5
AE6
330
9BD
100
AcDbEntity
  8
0
  6
Continuous
 62
     7
370
    15
100
AcDbLine
 10
1844.31201075747
 20
989.7520870934064
 30
0.0
 11
1844.311183743023
 21
988.8520874581123
 31
0.0
  0
LINE
  5
AE7
330
9BD
100
AcDbEntity
  8
0
  6
Continuous
 62
     7
370
    15
100
AcDbLine
 10
1794.312995351696
 20
990.8263080785806
 30
0.0
 11
1792.310979641819
 21
990.82814185273
 31
0.0
  0
ARC
  5
AE8
330
9BD
100
AcDbEntity
  8
0
  6
Continuous
 62
     7
370
    15
100
AcDbCircle
 10
1794.6496138139
 20
990.2888887855048
 30
0.0
 40
2.400000000000043
100
AcDbArc
 50
165.4700076877318
 51
167.0154246482373
  0
LINE
  5
AE9
330
9BD
100
AcDbEntity
  8
0
  6
Continuous
 62
     7
370
    15
100
AcDbLine
 10
1794.250162742877
 20
990.8892550072456
 30
0.0
 11
1792.326374403977
 21
990.8910170695568
 31
0.0
  0
LINE
  5
AEA
330
9BD
100
AcDbEntity
  8
0
  6
Continuous
 62
     7
370
    15
100
AcDbLine
 10
1794.250162742877
 20
990.8892550072456
 30
0.0
 11
1794.312995351696
 21
990.8263080785806
 31
0.0
  0
LINE
  5
AEB
330
9BD
100
AcDbEntity
  8
0
  6
Continuous
 62
     7
370
    15
100
AcDbLine
 10
1803.223951212906
 20
990.8867599940682
 30
0.0
 11
1801.300162874007
 21
990.8885220563794
 31
0.0
  0
ARC
  5
AEC
330
9BD
100
AcDbEntity
  8
0
  6
Continuous
 62
     7
370
    15
100
AcDbCircle
 10
1800.8996138139
 20
990.2888887855048
 30
0.0
 40
2.400000000000005
100
AcDbArc
 50
12.87961509908336
 51
14.42503205959039
  0
LINE
  5
AED
330
9BD
100
AcDbEntity
  8
0
  6
Continuous
 62
     7
370
    15
100
AcDbLine
 10
1803.239232353711
 20
990.8238566047335
 30
0.0
 11
1801.237216643834
 21
990.825690378883
 31
0.0
  0
LINE
  5
AEE
330
9BD
100
AcDbEntity
  8
0
  6
Continuous
 62
     7
370
    15
100
AcDbLine
 10
1801.300162874007
 20
990.8885220563794
 30
0.0
 11
1801.237216643834
 21
990.825690378883
 31
0.0
  0
LINE
  5
AEF
330
9BD
100
AcDbEntity
  8
0
  6
Continuous
 62
     7
370
    15
100
AcDbLine
 10
1796.973951585435
 20
990.8867599940682
 30
0.0
 11
1795.050163246536
 21
990.8885220563794
 31
0.0
  0
ARC
  5
AF0
330
9BD
100
AcDbEntity
  8
0
  6
Continuous
 62
     7
370
    15
100
AcDbCircle
 10
1794.6496138139
 20
990.2888887855048
 30
0.0
 40
2.399999999999978
100
AcDbArc
 50
12.87961509908336
 51
14.42503205959039
  0
LINE
  5
AF1
330
9BD
100
AcDbEntity
  8
0
  6
Continuous
 62
     7
370
    15
100
AcDbLine
 10
1796.989230863595
 20
990.8238566047335
 30
0.0
 11
1794.987217016363
 21
990.825690378883
 31
0.0
  0
LINE
  5
AF2
330
9BD
100
AcDbEntity
  8
0
  6
Continuous
 62
     7
370
    15
100
AcDbLine
 10
1795.050163246536
 20
990.8885220563794
 30
0.0
 11
1794.987217016363
 21
990.825690378883
 31
0.0
  0
ARC
  5
AF3
330
9BD
100
AcDbEntity
  8
0
  6
Continuous
 62
     7
370
    15
100
AcDbCircle
 10
1794.6496138139
 20
990.2888887855048
 30
0.0
 40
2.400000000000043
100
AcDbArc
 50
14.42503205959039
 51
165.4700076877318
  0
LINE
  5
AF4
330
9BD
100
AcDbEntity
  8
0
  6
Continuous
 62
     7
370
    15
100
AcDbLine
 10
1795.050163246536
 20
990.8885220563794
 30
0.0
 11
1795.050988398337
 21
991.7885216916735
 31
0.0
  0
LINE
  5
AF5
330
9BD
100
AcDbEntity
  8
0
  6
Continuous
 62
     7
370
    15
100
AcDbLine
 10
1795.050988398337
 20
991.7885216916735
 30
0.0
 11
1794.250987894678
 21
991.7892546425397
 31
0.0
  0
LINE
  5
AF6
330
9BD
100
AcDbEntity
  8
0
  6
Continuous
 62
     7
370
    15
100
AcDbLine
 10
1794.250987894678
 20
991.7892546425397
 30
0.0
 11
1794.250162742877
 21
990.8892550072456
 31
0.0
  0
LINE
  5
AF7
330
9BD
100
AcDbEntity
  8
0
  6
Continuous
 62
     7
370
    15
100
AcDbLine
 10
1801.300162874007
 20
990.8885220563794
 30
0.0
 11
1801.300988025808
 21
991.7885216916735
 31
0.0
  0
LINE
  5
AF8
330
9BD
100
AcDbEntity
  8
0
  6
Continuous
 62
     7
370
    15
100
AcDbLine
 10
1801.237216643834
 20
990.825690378883
 30
0.0
 11
1801.23803993299
 21
991.725690014177
 31
0.0
  0
LINE
  5
AF9
330
9BD
100
AcDbEntity
  8
0
  6
Continuous
 62
     7
370
    15
100
AcDbLine
 10
1801.300988025808
 20
991.7885216916735
 30
0.0
 11
1801.23803993299
 21
991.725690014177
 31
0.0
  0
LINE
  5
AFA
330
9BD
100
AcDbEntity
  8
0
  6
Continuous
 62
     7
370
    15
100
AcDbLine
 10
1794.313820503497
 20
991.726307481044
 30
0.0
 11
1794.312995351696
 21
990.8263080785806
 31
0.0
  0
LINE
  5
AFB
330
9BD
100
AcDbEntity
  8
0
  6
Continuous
 62
     7
370
    15
100
AcDbLine
 10
1794.250987894678
 20
991.7892546425397
 30
0.0
 11
1794.313820503497
 21
991.726307481044
 31
0.0
  0
LINE
  5
AFC
330
9BD
100
AcDbEntity
  8
0
  6
Continuous
 62
     7
370
    15
100
AcDbLine
 10
1800.500164232993
 20
990.8892550072456
 30
0.0
 11
1798.576374031448
 21
990.8910170695568
 31
0.0
  0
ARC
  5
AFD
330
9BD
100
AcDbEntity
  8
0
  6
Continuous
 62
     7
370
    15
100
AcDbCircle
 10
1800.8996138139
 20
990.2888887855048
 30
0.0
 40
2.400000000000005
100
AcDbArc
 50
14.42503205959039
 51
165.4700076877318
  0
LINE
  5
AFE
330
9BD
100
AcDbEntity
  8
0
  6
Continuous
 62
     7
370
    15
100
AcDbLine
 10
1801.300988025808
 20
991.7885216916735
 30
0.0
 11
1800.500987522149
 21
991.7892546425397
 31
0.0
  0
LINE
  5
AFF
330
9BD
100
AcDbEntity
  8
0
  6
Continuous
 62
     7
370
    15
100
AcDbLine
 10
1800.500987522149
 20
991.7892546425397
 30
0.0
 11
1800.500164232993
 21
990.8892550072456
 31
0.0
  0
LINE
  5
B00
330
9BD
100
AcDbEntity
  8
0
  6
Continuous
 62
     7
370
    15
100
AcDbLine
 10
1795.050988398337
 20
991.7885216916735
 30
0.0
 11
1794.988040305519
 21
991.725690014177
 31
0.0
  0
LINE
  5
B01
330
9BD
100
AcDbEntity
  8
0
  6
Continuous
 62
     7
370
    15
100
AcDbLine
 10
1794.988040305519
 20
991.725690014177
 30
0.0
 11
1794.313820503497
 21
991.726307481044
 31
0.0
  0
LINE
  5
B02
330
9BD
100
AcDbEntity
  8
0
  6
Continuous
 62
     7
370
    15
100
AcDbLine
 10
1794.987217016363
 20
990.825690378883
 30
0.0
 11
1794.988040305519
 21
991.725690014177
 31
0.0
  0
LINE
  5
B03
330
9BD
100
AcDbEntity
  8
0
  6
Continuous
 62
     7
370
    15
100
AcDbLine
 10
1845.050162128949
 20
990.8885220563794
 30
0.0
 11
1845.050989143395
 21
991.7885216916735
 31
0.0
  0
LINE
  5
B04
330
9BD
100
AcDbEntity
  8
0
  6
Continuous
 62
     7
370
    15
100
AcDbLine
 10
1845.050162128949
 20
990.8885220563794
 30
0.0
 11
1844.987219624066
 21
990.825690378883
 31
0.0
  0
LINE
  5
B05
330
9BD
100
AcDbEntity
  8
0
  6
Continuous
 62
     7
370
    15
100
AcDbLine
 10
1844.987219624066
 20
990.825690378883
 30
0.0
 11
1844.988039187932
 21
991.725690014177
 31
0.0
  0
LINE
  5
B06
330
9BD
100
AcDbEntity
  8
0
  6
Continuous
 62
     7
370
    15
100
AcDbLine
 10
1845.050989143395
 20
991.7885216916735
 30
0.0
 11
1844.988039187932
 21
991.725690014177
 31
0.0
  0
ARC
  5
B07
330
9BD
100
AcDbEntity
  8
0
  6
Continuous
 62
     7
370
    15
100
AcDbCircle
 10
1850.8996138139
 20
990.2888887855048
 30
0.0
 40
2.400000000000016
100
AcDbArc
 50
192.8796150990834
 51
194.4250320595904
  0
LINE
  5
B08
330
9BD
100
AcDbEntity
  8
0
  6
Continuous
 62
     7
370
    15
100
AcDbLine
 10
1848.559996537709
 20
989.7539208675558
 30
0.0
 11
1850.562012247586
 21
989.7520870934064
 31
0.0
  0
LINE
  5
B09
330
9BD
100
AcDbEntity
  8
0
  6
Continuous
 62
     7
370
    15
100
AcDbLine
 10
1825.56299348905
 20
990.8263080785806
 30
0.0
 11
1823.560981504464
 21
990.82814185273
 31
0.0
  0
ARC
  5
B0A
330
9BD
100
AcDbEntity
  8
0
  6
Continuous
 62
     7
370
    15
100
AcDbCircle
 10
1825.8996138139
 20
990.2888887855048
 30
0.0
 40
2.399999999999989
100
AcDbArc
 50
165.4700076877318
 51
167.0154246482373
  0
LINE
  5
B0B
330
9BD
100
AcDbEntity
  8
0
  6
Continuous
 62
     7
370
    15
100
AcDbLine
 10
1825.500162742877
 20
990.8892550072456
 30
0.0
 11
1825.56299348905
 21
990.8263080785806
 31
0.0
  0
LINE
  5
B0C
330
9BD
100
AcDbEntity
  8
0
  6
Continuous
 62
     7
370
    15
100
AcDbLine
 10
1846.973954193139
 20
990.8867599940682
 30
0.0
 11
1845.050162128949
 21
990.8885220563794
 31
0.0
  0
ARC
  5
B0D
330
9BD
100
AcDbEntity
  8
0
  6
Continuous
 62
     7
370
    15
100
AcDbCircle
 10
1844.6496138139
 20
990.2888887855048
 30
0.0
 40
2.399999999999991
100
AcDbArc
 50
12.87961509908336
 51
14.42503205959039
  0
LINE
  5
B0E
330
9BD
100
AcDbEntity
  8
0
  6
Continuous
 62
     7
370
    15
100
AcDbLine
 10
1846.989227883362
 20
990.8238566047335
 30
0.0
 11
1844.987219624066
 21
990.825690378883
 31
0.0
  0
LINE
  5
B0F
330
9BD
100
AcDbEntity
  8
0
  6
Continuous
 62
     7
370
    15
100
AcDbLine
 10
1844.312994234108
 20
990.8263080785806
 30
0.0
 11
1842.310978524231
 21
990.82814185273
 31
0.0
  0
ARC
  5
B10
330
9BD
100
AcDbEntity
  8
0
  6
Continuous
 62
     7
370
    15
100
AcDbCircle
 10
1844.6496138139
 20
990.2888887855048
 30
0.0
 40
2.399999999999996
100
AcDbArc
 50
165.4700076877318
 51
167.0154246482373
  0
LINE
  5
B11
330
9BD
100
AcDbEntity
  8
0
  6
Continuous
 62
     7
370
    15
100
AcDbLine
 10
1844.250163487935
 20
990.8892550072456
 30
0.0
 11
1842.326371423745
 21
990.8910170695568
 31
0.0
  0
LINE
  5
B12
330
9BD
100
AcDbEntity
  8
0
  6
Continuous
 62
     7
370
    15
100
AcDbLine
 10
1844.250163487935
 20
990.8892550072456
 30
0.0
 11
1844.312994234108
 21
990.8263080785806
 31
0.0
  0
LINE
  5
B13
330
9BD
100
AcDbEntity
  8
0
  6
Continuous
 62
     7
370
    15
100
AcDbLine
 10
1825.563820503497
 20
991.726307481044
 30
0.0
 11
1825.56299348905
 21
990.8263080785806
 31
0.0
  0
LINE
  5
B14
330
9BD
100
AcDbEntity
  8
0
  6
Continuous
 62
     7
370
    15
100
AcDbLine
 10
1825.500989757323
 20
991.7892546425397
 30
0.0
 11
1825.563820503497
 21
991.726307481044
 31
0.0
  0
LINE
  5
B15
330
9BD
100
AcDbEntity
  8
0
  6
Continuous
 62
     7
370
    15
100
AcDbLine
 10
1819.313819013381
 20
991.726307481044
 30
0.0
 11
1819.312995724225
 21
990.8263080785806
 31
0.0
  0
LINE
  5
B16
330
9BD
100
AcDbEntity
  8
0
  6
Continuous
 62
     7
370
    15
100
AcDbLine
 10
1819.250164978051
 20
990.8892550072456
 30
0.0
 11
1819.312995724225
 21
990.8263080785806
 31
0.0
  0
LINE
  5
B17
330
9BD
100
AcDbEntity
  8
0
  6
Continuous
 62
     7
370
    15
100
AcDbLine
 10
1819.250988267207
 20
991.7892546425397
 30
0.0
 11
1819.313819013381
 21
991.726307481044
 31
0.0
  0
ARC
  5
B18
330
9BD
100
AcDbEntity
  8
0
  6
Continuous
 62
     7
370
    15
100
AcDbCircle
 10
1838.3996138139
 20
990.2888887855048
 30
0.0
 40
2.400000000000016
100
AcDbArc
 50
192.8796150990834
 51
194.4250320595904
  0
LINE
  5
B19
330
9BD
100
AcDbEntity
  8
0
  6
Continuous
 62
     7
370
    15
100
AcDbLine
 10
1836.059993557477
 20
989.7539208675558
 30
0.0
 11
1838.062009267354
 21
989.7520870934064
 31
0.0
  0
LINE
  5
B1A
330
9BD
100
AcDbEntity
  8
0
  6
Continuous
 62
     7
370
    15
100
AcDbLine
 10
1806.812996469283
 20
990.8263080785806
 30
0.0
 11
1804.810980759406
 21
990.82814185273
 31
0.0
  0
ARC
  5
B1B
330
9BD
100
AcDbEntity
  8
0
  6
Continuous
 62
     7
370
    15
100
AcDbCircle
 10
1807.1496138139
 20
990.2888887855048
 30
0.0
 40
2.40000000000001
100
AcDbArc
 50
165.4700076877318
 51
167.0154246482373
  0
LINE
  5
B1C
330
9BD
100
AcDbEntity
  8
0
  6
Continuous
 62
     7
370
    15
100
AcDbLine
 10
1806.750161997818
 20
990.8892550072456
 30
0.0
 11
1806.812996469283
 21
990.8263080785806
 31
0.0
  0
LINE
  5
B1D
330
9BD
100
AcDbEntity
  8
0
  6
Continuous
 62
     7
370
    15
100
AcDbLine
 10
1800.562994979167
 20
990.8263080785806
 30
0.0
 11
1798.560981131935
 21
990.82814185273
 31
0.0
  0
ARC
  5
B1E
330
9BD
100
AcDbEntity
  8
0
  6
Continuous
 62
     7
370
    15
100
AcDbCircle
 10
1800.8996138139
 20
990.2888887855048
 30
0.0
 40
2.399999999999989
100
AcDbArc
 50
165.4700076877318
 51
167.0154246482373
  0
LINE
  5
B1F
330
9BD
100
AcDbEntity
  8
0
  6
Continuous
 62
     7
370
    15
100
AcDbLine
 10
1800.500164232993
 20
990.8892550072456
 30
0.0
 11
1800.562994979167
 21
990.8263080785806
 31
0.0
  0
LINE
  5
B20
330
9BD
100
AcDbEntity
  8
0
  6
Continuous
 62
     7
370
    15
100
AcDbLine
 10
1840.723952703022
 20
990.8867599940682
 30
0.0
 11
1838.800160638833
 21
990.8885220563794
 31
0.0
  0
ARC
  5
B21
330
9BD
100
AcDbEntity
  8
0
  6
Continuous
 62
     7
370
    15
100
AcDbCircle
 10
1838.3996138139
 20
990.2888887855048
 30
0.0
 40
2.400000000000016
100
AcDbArc
 50
12.87961509908336
 51
14.42503205959039
  0
LINE
  5
B22
330
9BD
100
AcDbEntity
  8
0
  6
Continuous
 62
     7
370
    15
100
AcDbLine
 10
1840.739233843827
 20
990.8238566047335
 30
0.0
 11
1838.73721813395
 21
990.825690378883
 31
0.0
  0
LINE
  5
B23
330
9BD
100
AcDbEntity
  8
0
  6
Continuous
 62
     7
370
    15
100
AcDbLine
 10
1838.800160638833
 20
990.8885220563794
 30
0.0
 11
1838.73721813395
 21
990.825690378883
 31
0.0
  0
LINE
  5
B24
330
9BD
100
AcDbEntity
  8
0
  6
Continuous
 62
     7
370
    15
100
AcDbLine
 10
1806.813819758439
 20
991.726307481044
 30
0.0
 11
1806.812996469283
 21
990.8263080785806
 31
0.0
  0
LINE
  5
B25
330
9BD
100
AcDbEntity
  8
0
  6
Continuous
 62
     7
370
    15
100
AcDbLine
 10
1806.750989012265
 20
991.7892546425397
 30
0.0
 11
1806.813819758439
 21
991.726307481044
 31
0.0
  0
LINE
  5
B26
330
9BD
100
AcDbEntity
  8
0
  6
Continuous
 62
     7
370
    15
100
AcDbLine
 10
1851.300163619065
 20
990.8885220563794
 30
0.0
 11
1851.300990633511
 21
991.7885216916735
 31
0.0
  0
LINE
  5
B27
330
9BD
100
AcDbEntity
  8
0
  6
Continuous
 62
     7
370
    15
100
AcDbLine
 10
1851.300163619065
 20
990.8885220563794
 30
0.0
 11
1851.237213663601
 21
990.825690378883
 31
0.0
  0
LINE
  5
B28
330
9BD
100
AcDbEntity
  8
0
  6
Continuous
 62
     7
370
    15
100
AcDbLine
 10
1851.237213663601
 20
990.825690378883
 30
0.0
 11
1851.238040678048
 21
991.725690014177
 31
0.0
  0
LINE
  5
B29
330
9BD
100
AcDbEntity
  8
0
  6
Continuous
 62
     7
370
    15
100
AcDbLine
 10
1851.300990633511
 20
991.7885216916735
 30
0.0
 11
1851.238040678048
 21
991.725690014177
 31
0.0
  0
LINE
  5
B2A
330
9BD
100
AcDbEntity
  8
0
  6
Continuous
 62
     7
370
    15
100
AcDbLine
 10
1838.063819758439
 20
991.726307481044
 30
0.0
 11
1838.062992743992
 21
990.8263080785806
 31
0.0
  0
LINE
  5
B2B
330
9BD
100
AcDbEntity
  8
0
  6
Continuous
 62
     7
370
    15
100
AcDbLine
 10
1838.000161997818
 20
990.8892550072456
 30
0.0
 11
1838.062992743992
 21
990.8263080785806
 31
0.0
  0
LINE
  5
B2C
330
9BD
100
AcDbEntity
  8
0
  6
Continuous
 62
     7
370
    15
100
AcDbLine
 10
1838.000989012265
 20
991.7892546425397
 30
0.0
 11
1838.000161997818
 21
990.8892550072456
 31
0.0
  0
LINE
  5
B2D
330
9BD
100
AcDbEntity
  8
0
  6
Continuous
 62
     7
370
    15
100
AcDbLine
 10
1838.000989012265
 20
991.7892546425397
 30
0.0
 11
1838.063819758439
 21
991.726307481044
 31
0.0
  0
LINE
  5
B2E
330
9BD
100
AcDbEntity
  8
0
  6
Continuous
 62
     7
370
    15
100
AcDbLine
 10
1813.063821248555
 20
991.726307481044
 30
0.0
 11
1813.062994234108
 21
990.8263080785806
 31
0.0
  0
LINE
  5
B2F
330
9BD
100
AcDbEntity
  8
0
  6
Continuous
 62
     7
370
    15
100
AcDbLine
 10
1813.000163487935
 20
990.8892550072456
 30
0.0
 11
1813.062994234108
 21
990.8263080785806
 31
0.0
  0
LINE
  5
B30
330
9BD
100
AcDbEntity
  8
0
  6
Continuous
 62
     7
370
    15
100
AcDbLine
 10
1838.062992743992
 20
990.8263080785806
 30
0.0
 11
1836.060977034115
 21
990.82814185273
 31
0.0
  0
ARC
  5
B31
330
9BD
100
AcDbEntity
  8
0
  6
Continuous
 62
     7
370
    15
100
AcDbCircle
 10
1838.3996138139
 20
990.2888887855048
 30
0.0
 40
2.400000000000002
100
AcDbArc
 50
165.4700076877318
 51
167.0154246482373
  0
LINE
  5
B32
330
9BD
100
AcDbEntity
  8
0
  6
Continuous
 62
     7
370
    15
100
AcDbLine
 10
1838.000161997818
 20
990.8892550072456
 30
0.0
 11
1836.076377384209
 21
990.8910170695568
 31
0.0
  0
LINE
  5
B33
330
9BD
100
AcDbEntity
  8
0
  6
Continuous
 62
     7
370
    15
100
AcDbLine
 10
1844.313821248555
 20
991.726307481044
 30
0.0
 11
1844.312994234108
 21
990.8263080785806
 31
0.0
  0
LINE
  5
B34
330
9BD
100
AcDbEntity
  8
0
  6
Continuous
 62
     7
370
    15
100
AcDbLine
 10
1844.250990502381
 20
991.7892546425397
 30
0.0
 11
1844.250163487935
 21
990.8892550072456
 31
0.0
  0
LINE
  5
B35
330
9BD
100
AcDbEntity
  8
0
  6
Continuous
 62
     7
370
    15
100
AcDbLine
 10
1844.250990502381
 20
991.7892546425397
 30
0.0
 11
1844.313821248555
 21
991.726307481044
 31
0.0
  0
LINE
  5
B36
330
9BD
100
AcDbEntity
  8
0
  6
Continuous
 62
     7
370
    15
100
AcDbLine
 10
1853.223955683255
 20
990.8867599940682
 30
0.0
 11
1851.300163619065
 21
990.8885220563794
 31
0.0
  0
ARC
  5
B37
330
9BD
100
AcDbEntity
  8
0
  6
Continuous
 62
     7
370
    15
100
AcDbCircle
 10
1850.8996138139
 20
990.2888887855048
 30
0.0
 40
2.400000000000002
100
AcDbArc
 50
12.87961509908336
 51
14.42503205959039
  0
LINE
  5
B38
330
9BD
100
AcDbEntity
  8
0
  6
Continuous
 62
     7
370
    15
100
AcDbLine
 10
1853.239229373478
 20
990.8238566047335
 30
0.0
 11
1851.237213663601
 21
990.825690378883
 31
0.0
  0
LINE
  5
B39
330
9BD
100
AcDbEntity
  8
0
  6
Continuous
 62
     7
370
    15
100
AcDbLine
 10
1838.800160638833
 20
990.8885220563794
 30
0.0
 11
1838.800987653279
 21
991.7885216916735
 31
0.0
  0
LINE
  5
B3A
330
9BD
100
AcDbEntity
  8
0
  6
Continuous
 62
     7
370
    15
100
AcDbLine
 10
1838.73721813395
 20
990.825690378883
 30
0.0
 11
1838.738037697815
 21
991.725690014177
 31
0.0
  0
LINE
  5
B3B
330
9BD
100
AcDbEntity
  8
0
  6
Continuous
 62
     7
370
    15
100
AcDbLine
 10
1838.800987653279
 20
991.7885216916735
 30
0.0
 11
1838.738037697815
 21
991.725690014177
 31
0.0
  0
LINE
  5
B3C
330
9BD
100
AcDbEntity
  8
0
  6
Continuous
 62
     7
370
    15
100
AcDbLine
 10
1813.062994234108
 20
990.8263080785806
 30
0.0
 11
1811.060982249522
 21
990.82814185273
 31
0.0
  0
ARC
  5
B3D
330
9BD
100
AcDbEntity
  8
0
  6
Continuous
 62
     7
370
    15
100
AcDbCircle
 10
1813.3996138139
 20
990.2888887855048
 30
0.0
 40
2.399999999999996
100
AcDbArc
 50
165.4700076877318
 51
167.0154246482373
  0
LINE
  5
B3E
330
9BD
100
AcDbEntity
  8
0
  6
Continuous
 62
     7
370
    15
100
AcDbLine
 10
1850.563822738671
 20
991.726307481044
 30
0.0
 11
1850.562995724225
 21
990.8263080785806
 31
0.0
  0
LINE
  5
B3F
330
9BD
100
AcDbEntity
  8
0
  6
Continuous
 62
     7
370
    15
100
AcDbLine
 10
1850.500164978051
 20
990.8892550072456
 30
0.0
 11
1850.562995724225
 21
990.8263080785806
 31
0.0
  0
LINE
  5
B40
330
9BD
100
AcDbEntity
  8
0
  6
Continuous
 62
     7
370
    15
100
AcDbLine
 10
1850.500984541916
 20
991.7892546425397
 30
0.0
 11
1850.500164978051
 21
990.8892550072456
 31
0.0
  0
LINE
  5
B41
330
9BD
100
AcDbEntity
  8
0
  6
Continuous
 62
     7
370
    15
100
AcDbLine
 10
1850.500984541916
 20
991.7892546425397
 30
0.0
 11
1850.563822738671
 21
991.726307481044
 31
0.0
  0
LINE
  5
B42
330
9BD
100
AcDbEntity
  8
0
  6
Continuous
 62
     7
370
    15
100
AcDbLine
 10
1850.562995724225
 20
990.8263080785806
 30
0.0
 11
1848.560980014348
 21
990.82814185273
 31
0.0
  0
ARC
  5
B43
330
9BD
100
AcDbEntity
  8
0
  6
Continuous
 62
     7
370
    15
100
AcDbCircle
 10
1850.8996138139
 20
990.2888887855048
 30
0.0
 40
2.400000000000002
100
AcDbArc
 50
165.4700076877318
 51
167.0154246482373
  0
LINE
  5
B44
330
9BD
100
AcDbEntity
  8
0
  6
Continuous
 62
     7
370
    15
100
AcDbLine
 10
1850.500164978051
 20
990.8892550072456
 30
0.0
 11
1848.576372913861
 21
990.8910170695568
 31
0.0
  0
ARC
  5
B45
330
9BD
100
AcDbEntity
  8
0
  6
Continuous
 62
     7
370
    15
100
AcDbCircle
 10
1850.8996138139
 20
990.2888887855048
 30
0.0
 40
2.400000000000002
100
AcDbArc
 50
14.42503205959039
 51
165.4700076877318
  0
LINE
  5
B46
330
9BD
100
AcDbEntity
  8
0
  6
Continuous
 62
     7
370
    15
100
AcDbLine
 10
1851.300990633511
 20
991.7885216916735
 30
0.0
 11
1850.500984541916
 21
991.7892546425397
 31
0.0
  0
ARC
  5
B47
330
9BD
100
AcDbEntity
  8
0
  6
Continuous
 62
     7
370
    15
100
AcDbCircle
 10
1844.6496138139
 20
990.2888887855048
 30
0.0
 40
2.400000000000019
100
AcDbArc
 50
192.8796150990834
 51
194.4250320595904
  0
LINE
  5
B48
330
9BD
100
AcDbEntity
  8
0
  6
Continuous
 62
     7
370
    15
100
AcDbLine
 10
1842.309995047593
 20
989.7539208675558
 30
0.0
 11
1844.31201075747
 21
989.7520870934064
 31
0.0
  0
ARC
  5
B49
330
9BD
100
AcDbEntity
  8
0
  6
Continuous
 62
     7
370
    15
100
AcDbCircle
 10
1844.6496138139
 20
990.2888887855048
 30
0.0
 40
2.399999999999991
100
AcDbArc
 50
14.42503205959039
 51
165.4700076877318
  0
LINE
  5
B4A
330
9BD
100
AcDbEntity
  8
0
  6
Continuous
 62
     7
370
    15
100
AcDbLine
 10
1845.050989143395
 20
991.7885216916735
 30
0.0
 11
1844.250990502381
 21
991.7892546425397
 31
0.0
  0
LINE
  5
B4B
330
9BD
100
AcDbEntity
  8
0
  6
Continuous
 62
     7
370
    15
100
AcDbLine
 10
1800.563820130968
 20
991.726307481044
 30
0.0
 11
1800.562994979167
 21
990.8263080785806
 31
0.0
  0
LINE
  5
B4C
330
9BD
100
AcDbEntity
  8
0
  6
Continuous
 62
     7
370
    15
100
AcDbLine
 10
1800.500987522149
 20
991.7892546425397
 30
0.0
 11
1800.563820130968
 21
991.726307481044
 31
0.0
  0
ARC
  5
B4D
330
9BD
100
AcDbEntity
  8
0
  6
Continuous
 62
     7
370
    15
100
AcDbCircle
 10
1838.3996138139
 20
990.2888887855048
 30
0.0
 40
2.400000000000002
100
AcDbArc
 50
14.42503205959039
 51
165.4700076877318
  0
LINE
  5
B4E
330
9BD
100
AcDbEntity
  8
0
  6
Continuous
 62
     7
370
    15
100
AcDbLine
 10
1838.800987653279
 20
991.7885216916735
 30
0.0
 11
1838.000989012265
 21
991.7892546425397
 31
0.0
  0
LINE
  5
B4F
330
9BD
100
AcDbEntity
  8
0
  6
Continuous
 62
     7
370
    15
100
AcDbLine
 10
1819.312995724225
 20
990.8263080785806
 30
0.0
 11
1817.310980014348
 21
990.82814185273
 31
0.0
  0
ARC
  5
B50
330
9BD
100
AcDbEntity
  8
0
  6
Continuous
 62
     7
370
    15
100
AcDbCircle
 10
1819.6496138139
 20
990.2888887855048
 30
0.0
 40
2.400000000000002
100
AcDbArc
 50
165.4700076877318
 51
167.0154246482373
  0
LINE
  5
B51
330
9BD
100
AcDbEntity
  8
0
  6
Continuous
 62
     7
370
    15
100
AcDbLine
 10
1807.488041423106
 20
991.725690014177
 30
0.0
 11
1806.813819758439
 21
991.726307481044
 31
0.0
  0
LINE
  5
B52
330
9BD
100
AcDbEntity
  8
0
  6
Continuous
 62
     7
370
    15
100
AcDbLine
 10
1844.988039187932
 20
991.725690014177
 30
0.0
 11
1844.313821248555
 21
991.726307481044
 31
0.0
  0
LINE
  5
B53
330
9BD
100
AcDbEntity
  8
0
  6
Continuous
 62
     7
370
    15
100
AcDbLine
 10
1801.23803993299
 20
991.725690014177
 30
0.0
 11
1800.563820130968
 21
991.726307481044
 31
0.0
  0
LINE
  5
B54
330
9BD
100
AcDbEntity
  8
0
  6
Continuous
 62
     7
370
    15
100
AcDbLine
 10
1851.238040678048
 20
991.725690014177
 30
0.0
 11
1850.563822738671
 21
991.726307481044
 31
0.0
  0
LINE
  5
B55
330
9BD
100
AcDbEntity
  8
0
  6
Continuous
 62
     7
370
    15
100
AcDbLine
 10
1826.238042168164
 20
991.725690014177
 30
0.0
 11
1825.563820503497
 21
991.726307481044
 31
0.0
  0
LINE
  5
B56
330
9BD
100
AcDbEntity
  8
0
  6
Continuous
 62
     7
370
    15
100
AcDbLine
 10
1819.988040678048
 20
991.725690014177
 30
0.0
 11
1819.313819013381
 21
991.726307481044
 31
0.0
  0
LINE
  5
B57
330
9BD
100
AcDbEntity
  8
0
  6
Continuous
 62
     7
370
    15
100
AcDbLine
 10
1838.738037697815
 20
991.725690014177
 30
0.0
 11
1838.063819758439
 21
991.726307481044
 31
0.0
  0
ARC
  5
B58
330
9BD
100
AcDbEntity
  8
0
  6
Continuous
 62
     7
370
    15
100
AcDbCircle
 10
1782.1496138139
 20
990.2888887855048
 30
0.0
 40
2.900000000000008
100
AcDbArc
 50
169.248014725233
 51
190.5948338650498
  0
ARC
  5
B59
330
9BD
100
AcDbEntity
  8
0
  6
Continuous
 62
     7
370
    15
100
AcDbCircle
 10
1782.1496138139
 20
990.2888887855048
 30
0.0
 40
2.900000000000003
100
AcDbArc
 50
349.248014725233
 51
10.59483386504347
  0
ARC
  5
B5A
330
9BD
100
AcDbEntity
  8
0
  6
Continuous
 62
     7
370
    15
100
AcDbCircle
 10
1775.8996138139
 20
990.2888887855048
 30
0.0
 40
2.900000000000008
100
AcDbArc
 50
169.248014725233
 51
190.5948338650498
  0
ARC
  5
B5B
330
9BD
100
AcDbEntity
  8
0
  6
Continuous
 62
     7
370
    15
100
AcDbCircle
 10
1775.8996138139
 20
990.2888887855048
 30
0.0
 40
2.900000000000003
100
AcDbArc
 50
349.248014725233
 51
10.59483386504347
  0
ARC
  5
B5C
330
9BD
100
AcDbEntity
  8
0
  6
Continuous
 62
     7
370
    15
100
AcDbCircle
 10
1850.8996138139
 20
990.2888887855048
 30
0.0
 40
2.400000000000003
100
AcDbArc
 50
347.0154246482373
 51
12.87961509908336
  0
ARC
  5
B5D
330
9BD
100
AcDbEntity
  8
0
  6
Continuous
 62
     7
370
    15
100
AcDbCircle
 10
1850.8996138139
 20
990.2888887855048
 30
0.0
 40
2.400000000000016
100
AcDbArc
 50
167.0154246482373
 51
192.8796150990834
  0
ARC
  5
B5E
330
9BD
100
AcDbEntity
  8
0
  6
Continuous
 62
     7
370
    15
100
AcDbCircle
 10
1825.8996138139
 20
990.2888887855048
 30
0.0
 40
2.400000000000002
100
AcDbArc
 50
347.0154246482373
 51
12.87961509908336
  0
ARC
  5
B5F
330
9BD
100
AcDbEntity
  8
0
  6
Continuous
 62
     7
370
    15
100
AcDbCircle
 10
1825.8996138139
 20
990.2888887855048
 30
0.0
 40
2.399999999999988
100
AcDbArc
 50
167.0154246482373
 51
192.8796150990834
  0
ARC
  5
B60
330
9BD
100
AcDbEntity
  8
0
  6
Continuous
 62
     7
370
    15
100
AcDbCircle
 10
1807.1496138139
 20
990.2888887855048
 30
0.0
 40
2.400000000000016
100
AcDbArc
 50
347.0154246482373
 51
12.87961509908336
  0
ARC
  5
B61
330
9BD
100
AcDbEntity
  8
0
  6
Continuous
 62
     7
370
    15
100
AcDbCircle
 10
1807.1496138139
 20
990.2888887855048
 30
0.0
 40
2.40000000000001
100
AcDbArc
 50
167.0154246482373
 51
192.8796150990834
  0
ARC
  5
B62
330
9BD
100
AcDbEntity
  8
0
  6
Continuous
 62
     7
370
    15
100
AcDbCircle
 10
1794.6496138139
 20
990.2888887855048
 30
0.0
 40
2.399999999999975
100
AcDbArc
 50
347.0154246482373
 51
12.87961509908336
  0
ARC
  5
B63
330
9BD
100
AcDbEntity
  8
0
  6
Continuous
 62
     7
370
    15
100
AcDbCircle
 10
1794.6496138139
 20
990.2888887855048
 30
0.0
 40
2.40000000000003
100
AcDbArc
 50
167.0154246482373
 51
192.8796150990834
  0
ARC
  5
B64
330
9BD
100
AcDbEntity
  8
0
  6
Continuous
 62
     7
370
    15
100
AcDbCircle
 10
1838.3996138139
 20
990.2888887855048
 30
0.0
 40
2.400000000000016
100
AcDbArc
 50
347.0154246482373
 51
12.87961509908336
  0
ARC
  5
B65
330
9BD
100
AcDbEntity
  8
0
  6
Continuous
 62
     7
370
    15
100
AcDbCircle
 10
1838.3996138139
 20
990.2888887855048
 30
0.0
 40
2.400000000000016
100
AcDbArc
 50
167.0154246482373
 51
192.8796150990834
  0
ARC
  5
B66
330
9BD
100
AcDbEntity
  8
0
  6
Continuous
 62
     7
370
    15
100
AcDbCircle
 10
1813.3996138139
 20
990.2888887855048
 30
0.0
 40
2.400000000000017
100
AcDbArc
 50
347.0154246482373
 51
12.87961509908336
  0
ARC
  5
B67
330
9BD
100
AcDbEntity
  8
0
  6
Continuous
 62
     7
370
    15
100
AcDbCircle
 10
1813.3996138139
 20
990.2888887855048
 30
0.0
 40
2.400000000000002
100
AcDbArc
 50
167.0154246482373
 51
192.8796150990834
  0
ARC
  5
B68
330
9BD
100
AcDbEntity
  8
0
  6
Continuous
 62
     7
370
    15
100
AcDbCircle
 10
1844.6496138139
 20
990.2888887855048
 30
0.0
 40
2.400000000000017
100
AcDbArc
 50
347.0154246482373
 51
12.87961509908336
  0
ARC
  5
B69
330
9BD
100
AcDbEntity
  8
0
  6
Continuous
 62
     7
370
    15
100
AcDbCircle
 10
1844.6496138139
 20
990.2888887855048
 30
0.0
 40
2.400000000000002
100
AcDbArc
 50
167.0154246482373
 51
192.8796150990834
  0
ARC
  5
B6A
330
9BD
100
AcDbEntity
  8
0
  6
Continuous
 62
     7
370
    15
100
AcDbCircle
 10
1819.6496138139
 20
990.2888887855048
 30
0.0
 40
2.400000000000003
100
AcDbArc
 50
347.0154246482373
 51
12.87961509908336
  0
ARC
  5
B6B
330
9BD
100
AcDbEntity
  8
0
  6
Continuous
 62
     7
370
    15
100
AcDbCircle
 10
1819.6496138139
 20
990.2888887855048
 30
0.0
 40
2.400000000000016
100
AcDbArc
 50
167.0154246482373
 51
192.8796150990834
  0
ARC
  5
B6C
330
9BD
100
AcDbEntity
  8
0
  6
Continuous
 62
     7
370
    15
100
AcDbCircle
 10
1832.1496138139
 20
990.2888887855048
 30
0.0
 40
2.399999999999989
100
AcDbArc
 50
347.0154246482373
 51
12.87961509908336
  0
ARC
  5
B6D
330
9BD
100
AcDbEntity
  8
0
  6
Continuous
 62
     7
370
    15
100
AcDbCircle
 10
1832.1496138139
 20
990.2888887855048
 30
0.0
 40
2.400000000000002
100
AcDbArc
 50
167.0154246482373
 51
192.8796150990834
  0
ARC
  5
B6E
330
9BD
100
AcDbEntity
  8
0
  6
Continuous
 62
     7
370
    15
100
AcDbCircle
 10
1800.8996138139
 20
990.2888887855048
 30
0.0
 40
2.400000000000002
100
AcDbArc
 50
347.0154246482373
 51
12.87961509908336
  0
ARC
  5
B6F
330
9BD
100
AcDbEntity
  8
0
  6
Continuous
 62
     7
370
    15
100
AcDbCircle
 10
1800.8996138139
 20
990.2888887855048
 30
0.0
 40
2.400000000000002
100
AcDbArc
 50
167.0154246482373
 51
192.8796150990834
  0
LINE
  5
B70
330
9BD
100
AcDbEntity
  8
0
  6
Continuous
 62
     7
370
    15
100
AcDbLine
 10
1856.399616651082
 20
993.5388889196152
 30
0.0
 11
1770.399613817765
 21
993.5388889196152
 31
0.0
  0
LINE
  5
B71
330
9BD
100
AcDbEntity
  8
0
  6
Continuous
 62
     7
370
    15
100
AcDbLine
 10
1770.399613817765
 20
993.5388889196152
 30
0.0
 11
1770.399613817765
 21
987.0388887855048
 31
0.0
  0
CIRCLE
  5
B72
330
9BD
100
AcDbEntity
  8
0
  6
Continuous
 62
     7
370
    15
100
AcDbCircle
 10
1788.3996138139
 20
990.2888887855048
 30
0.0
 40
2.099999999999994
  0
LINE
  5
B73
330
9BD
100
AcDbEntity
  8
0
  6
Continuous
 62
     7
370
    15
100
AcDbLine
 10
1770.399613817765
 20
987.0388887855048
 30
0.0
 11
1856.399616651082
 21
987.0388887855048
 31
0.0
  0
LINE
  5
B74
330
9BD
100
AcDbEntity
  8
0
  6
Continuous
 62
     7
370
    15
100
AcDbLine
 10
1856.399616651082
 20
987.0388887855048
 30
0.0
 11
1856.399616651082
 21
993.5388889196152
 31
0.0
  0
ENDBLK
  5
9BF
330
9BD
100
AcDbEntity
  8
0
100
AcDbBlockEnd
  0
BLOCK
  5
B77
330
B76
100
AcDbEntity
  8
0
100
AcDbBlockBegin
  2
3
 70
     0
 10
0.0
 20
0.0
 30
0.0
  3
3
  1

  0
LINE
  5
B79
330
B76
100
AcDbEntity
  8
0
  6
Continuous
 62
     7
370
    15
100
AcDbLine
 10
1736.85815203115
 20
1020.684485176921
 30
0.0
 11
1736.85815203115
 21
1018.114484699786
 31
0.0
  0
LINE
  5
B7A
330
B76
100
AcDbEntity
  8
0
  6
Continuous
 62
     7
370
    15
100
AcDbLine
 10
1741.65815220093
 20
1018.114484699786
 30
0.0
 11
1741.65815220093
 21
1020.684485176921
 31
0.0
  0
LINE
  5
B7B
330
B76
100
AcDbEntity
  8
0
  6
Continuous
 62
     7
370
    15
100
AcDbLine
 10
1736.358152007401
 20
1021.114485191524
 30
0.0
 11
1736.358152007401
 21
1018.114484699786
 31
0.0
  0
LINE
  5
B7C
330
B76
100
AcDbEntity
  8
0
  6
Continuous
 62
     7
370
    15
100
AcDbLine
 10
1742.158151817225
 20
1018.114484699786
 30
0.0
 11
1742.158151817225
 21
1021.114485191524
 31
0.0
  0
LINE
  5
B7D
330
B76
100
AcDbEntity
  8
0
  6
Continuous
 62
     7
370
    15
100
AcDbLine
 10
1736.008152019881
 20
1018.114484699786
 30
0.0
 11
1736.008152019881
 21
1009.114485087216
 31
0.0
  0
LINE
  5
B7E
330
B76
100
AcDbEntity
  8
0
  6
Continuous
 62
     7
370
    15
100
AcDbLine
 10
1736.008152019881
 20
1018.114484699786
 30
0.0
 11
1742.508152153991
 21
1018.114484699786
 31
0.0
  0
LINE
  5
B7F
330
B76
100
AcDbEntity
  8
0
  6
Continuous
 62
     7
370
    15
100
AcDbLine
 10
1742.508152153991
 20
1018.114484699786
 30
0.0
 11
1742.508152153991
 21
1009.114485087216
 31
0.0
  0
LINE
  5
B80
330
B76
100
AcDbEntity
  8
0
  6
Continuous
 62
     7
370
    15
100
AcDbLine
 10
1742.508152153991
 20
1009.114485087216
 30
0.0
 11
1736.008152019881
 21
1009.114485087216
 31
0.0
  0
ELLIPSE
  5
B81
330
B76
100
AcDbEntity
  8
0
  6
Continuous
 62
     7
370
    15
100
AcDbEllipse
 10
1739.25815201988
 20
1009.235803074579
 30
0.0
 11
2.399998999135561
 21
45.7947280577948
 31
0.0
210
0.0
220
0.0
230
0.9999999999999998
 40
0.0000478714684553
 41
1.318118580527498
 42
1.345091194800273
  0
LINE
  5
B82
330
B76
100
AcDbEntity
  8
0
  6
Continuous
 62
     7
370
    15
100
AcDbLine
 10
1741.65815220093
 20
1020.684485176921
 30
0.0
 11
1739.856023228444
 21
1020.684485176921
 31
0.0
  0
ELLIPSE
  5
B83
330
B76
100
AcDbEntity
  8
0
  6
Continuous
 62
     7
370
    15
100
AcDbEllipse
 10
1739.25815201988
 20
1009.235803074579
 30
0.0
 11
-2.399998998617746
 21
45.79472804791541
 31
0.0
210
0.0
220
0.0
230
0.9999999999999998
 40
0.0000478714684663
 41
4.938094112441097
 42
4.965066726719343
  0
LINE
  5
B84
330
B76
100
AcDbEntity
  8
0
  6
Continuous
 62
     7
370
    15
100
AcDbLine
 10
1738.656023869939
 20
1020.684485176921
 30
0.0
 11
1736.85815203115
 21
1020.684485176921
 31
0.0
  0
ELLIPSE
  5
B85
330
B76
100
AcDbEntity
  8
0
  6
Continuous
 62
     7
370
    15
100
AcDbEllipse
 10
1739.25815201988
 20
1009.235803074579
 30
0.0
 11
-2.399998998617746
 21
45.79472804791541
 31
0.0
210
0.0
220
0.0
230
0.9999999999999998
 40
0.0000478714684663
 41
1.318113562799005
 42
1.345086177079412
  0
LINE
  5
B86
330
B76
100
AcDbEntity
  8
0
  6
Continuous
 62
     7
370
    15
100
AcDbLine
 10
1739.793119839109
 20
1019.484485352754
 30
0.0
 11
1738.718899086766
 21
1019.484485352754
 31
0.0
  0
LINE
  5
B87
330
B76
100
AcDbEntity
  8
0
  6
Continuous
 62
     7
370
    15
100
AcDbLine
 10
1738.65778593225
 20
1020.684485176921
 30
0.0
 11
1738.656023869939
 21
1020.684485176921
 31
0.0
  0
LINE
  5
B88
330
B76
100
AcDbEntity
  8
0
  6
Continuous
 62
     7
370
    15
100
AcDbLine
 10
1738.65778593225
 20
1020.684485176921
 30
0.0
 11
1738.720732860915
 21
1019.484485352754
 31
0.0
  0
LINE
  5
B89
330
B76
100
AcDbEntity
  8
0
  6
Continuous
 62
     7
370
    15
100
AcDbLine
 10
1738.658518650286
 20
1020.684485176921
 30
0.0
 11
1738.721350327782
 21
1019.484485352754
 31
0.0
  0
ELLIPSE
  5
B8A
330
B76
100
AcDbEntity
  8
0
  6
Continuous
 62
     7
370
    15
100
AcDbEllipse
 10
1739.25815201988
 20
1009.665803074579
 30
0.0
 11
-2.899997287849885
 21
55.33529639439669
 31
0.0
210
0.0
220
0.0
230
1.0
 40
0.0000716753940413
 41
4.898671363454386
 42
4.920787030639276
  0
LINE
  5
B8B
330
B76
100
AcDbEntity
  8
0
  6
Continuous
 62
     7
370
    15
100
AcDbLine
 10
1738.654261574797
 20
1021.114485191524
 30
0.0
 11
1736.358152007401
 21
1021.114485191524
 31
0.0
  0
ELLIPSE
  5
B8C
330
B76
100
AcDbEntity
  8
0
  6
Continuous
 62
     7
370
    15
100
AcDbEllipse
 10
1739.25815201988
 20
1009.665803074579
 30
0.0
 11
-2.899997287849885
 21
55.33529639439669
 31
0.0
210
0.0
220
0.0
230
1.0
 40
0.0000716753940413
 41
1.362390763858364
 42
1.384506431040213
  0
LINE
  5
B8D
330
B76
100
AcDbEntity
  8
0
  6
Continuous
 62
     7
370
    15
100
AcDbLine
 10
1739.791353818677
 20
1019.914485367358
 30
0.0
 11
1738.717133531995
 21
1019.914485367358
 31
0.0
  0
ELLIPSE
  5
B8E
330
B76
100
AcDbEntity
  8
0
  6
Continuous
 62
     7
370
    15
100
AcDbEllipse
 10
1739.25815201988
 20
1009.665803074579
 30
0.0
 11
2.89999728784997
 21
55.33529639439723
 31
0.0
210
0.0
220
0.0
230
1.0
 40
0.0000716753940403
 41
1.362398276549839
 42
1.384513943732463
  0
LINE
  5
B8F
330
B76
100
AcDbEntity
  8
0
  6
Continuous
 62
     7
370
    15
100
AcDbLine
 10
1742.158151817225
 20
1021.114485191524
 30
0.0
 11
1739.854260467641
 21
1021.114485191524
 31
0.0
  0
LINE
  5
B90
330
B76
100
AcDbEntity
  8
0
  6
Continuous
 62
     7
370
    15
100
AcDbLine
 10
1738.657466954268
 20
1021.114485191524
 30
0.0
 11
1738.654261574797
 21
1021.114485191524
 31
0.0
  0
LINE
  5
B91
330
B76
100
AcDbEntity
  8
0
  6
Continuous
 62
     7
370
    15
100
AcDbLine
 10
1738.657466954268
 20
1021.114485191524
 30
0.0
 11
1738.720442288272
 21
1019.914485367358
 31
0.0
  0
LINE
  5
B92
330
B76
100
AcDbEntity
  8
0
  6
Continuous
 62
     7
370
    15
100
AcDbLine
 10
1738.65883832676
 20
1021.114485191524
 30
0.0
 11
1738.721641366087
 21
1019.914485367358
 31
0.0
  0
ENDBLK
  5
B78
330
B76
100
AcDbEntity
  8
0
100
AcDbBlockEnd
  0
BLOCK
  5
B95
330
B94
100
AcDbEntity
  8
0
100
AcDbBlockBegin
  2
4
 70
     0
 10
0.0
 20
0.0
 30
0.0
  3
4
  1

  0
LINE
  5
B97
330
B94
100
AcDbEntity
  8
0
  6
Continuous
 62
     7
370
    15
100
AcDbLine
 10
2034.40532564065
 20
1000.504229579193
 30
0.0
 11
2034.379804035875
 21
998.2941858516877
 31
0.0
  0
LINE
  5
B98
330
B94
100
AcDbEntity
  8
0
  6
Continuous
 62
     7
370
    15
100
AcDbLine
 10
2039.17948319106
 20
998.2387595280012
 30
0.0
 11
2039.205004795835
 21
1000.448803255506
 31
0.0
  0
LINE
  5
B99
330
B94
100
AcDbEntity
  8
0
  6
Continuous
 62
     7
370
    15
100
AcDbLine
 10
2029.666098596006
 20
1002.623930439159
 30
0.0
 11
2029.640576991231
 21
1000.413886711654
 31
0.0
  0
LINE
  5
B9A
330
B94
100
AcDbEntity
  8
0
  6
Continuous
 62
     7
370
    15
100
AcDbLine
 10
2034.444395448677
 20
1000.71690332589
 30
0.0
 11
2034.465777751191
 21
1002.568504115473
 31
0.0
  0
LINE
  5
B9B
330
B94
100
AcDbEntity
  8
0
  6
Continuous
 62
     7
370
    15
100
AcDbLine
 10
2024.926871551362
 20
1004.743631299127
 30
0.0
 11
2024.901349946587
 21
1002.533587571621
 31
0.0
  0
LINE
  5
B9C
330
B94
100
AcDbEntity
  8
0
  6
Continuous
 62
     7
370
    15
100
AcDbLine
 10
2029.70517405363
 20
1002.836601658977
 30
0.0
 11
2029.726556356145
 21
1004.68820244856
 31
0.0
  0
LINE
  5
B9D
330
B94
100
AcDbEntity
  8
0
  6
Continuous
 62
     7
370
    15
100
AcDbLine
 10
2020.187647331518
 20
1006.863330895654
 30
0.0
 11
2020.162125726743
 21
1004.653287168149
 31
0.0
  0
LINE
  5
B9E
330
B94
100
AcDbEntity
  8
0
  6
Continuous
 62
     7
370
    15
100
AcDbLine
 10
2024.965947008986
 20
1004.956302518944
 30
0.0
 11
2024.987329311501
 21
1006.807903308527
 31
0.0
  0
LINE
  5
B9F
330
B94
100
AcDbEntity
  8
0
  6
Continuous
 62
     7
370
    15
100
AcDbLine
 10
2015.448423111672
 20
1008.98303049218
 30
0.0
 11
2015.422901506898
 21
1006.772986764675
 31
0.0
  0
LINE
  5
BA0
330
B94
100
AcDbEntity
  8
0
  6
Continuous
 62
     7
370
    15
100
AcDbLine
 10
2020.226719964343
 20
1007.076003378911
 30
0.0
 11
2020.248102266858
 21
1008.927604168494
 31
0.0
  0
LINE
  5
BA1
330
B94
100
AcDbEntity
  8
0
  6
Continuous
 62
     7
370
    15
100
AcDbLine
 10
2010.709196067029
 20
1011.102731352147
 30
0.0
 11
2010.683674462254
 21
1008.892687624642
 31
0.0
  0
LINE
  5
BA2
330
B94
100
AcDbEntity
  8
0
  6
Continuous
 62
     7
370
    15
100
AcDbLine
 10
2015.487492919699
 20
1009.195704238878
 30
0.0
 11
2015.508875222214
 21
1011.047305028461
 31
0.0
  0
LINE
  5
BA3
330
B94
100
AcDbEntity
  8
0
  6
Continuous
 62
     7
370
    15
100
AcDbLine
 10
2005.969969022385
 20
1013.222432212114
 30
0.0
 11
2005.94444741761
 21
1011.012388484609
 31
0.0
  0
LINE
  5
BA4
330
B94
100
AcDbEntity
  8
0
  6
Continuous
 62
     7
370
    15
100
AcDbLine
 10
2010.748268699854
 20
1011.315403835405
 30
0.0
 11
2010.769651002369
 21
1013.167004624988
 31
0.0
  0
LINE
  5
BA5
330
B94
100
AcDbEntity
  8
0
  6
Continuous
 62
     7
370
    15
100
AcDbLine
 10
2001.23074480254
 20
1015.342131808641
 30
0.0
 11
2001.205223197765
 21
1013.132088081136
 31
0.0
  0
LINE
  5
BA6
330
B94
100
AcDbEntity
  8
0
  6
Continuous
 62
     7
370
    15
100
AcDbLine
 10
2006.00904165521
 20
1013.435104695372
 30
0.0
 11
2006.030423957725
 21
1015.286705484955
 31
0.0
  0
LINE
  5
BA7
330
B94
100
AcDbEntity
  8
0
  6
Continuous
 62
     7
370
    15
100
AcDbLine
 10
1996.491519170295
 20
1017.461832036889
 30
0.0
 11
1996.46599756552
 21
1015.251788309383
 31
0.0
  0
LINE
  5
BA8
330
B94
100
AcDbEntity
  8
0
  6
Continuous
 62
     7
370
    15
100
AcDbLine
 10
2001.269817435365
 20
1015.554804291899
 30
0.0
 11
2001.29119973788
 21
1017.406405081482
 31
0.0
  0
LINE
  5
BA9
330
B94
100
AcDbEntity
  8
0
  6
Continuous
 62
     7
370
    15
100
AcDbLine
 10
1991.752292125651
 20
1019.581532896856
 30
0.0
 11
1991.726770520877
 21
1017.37148916935
 31
0.0
  0
LINE
  5
BAA
330
B94
100
AcDbEntity
  8
0
  6
Continuous
 62
     7
370
    15
100
AcDbLine
 10
1996.530590390721
 20
1017.674505151866
 30
0.0
 11
1996.551972693236
 21
1019.526105941449
 31
0.0
  0
LINE
  5
BAB
330
B94
100
AcDbEntity
  8
0
  6
Continuous
 62
     7
370
    15
100
AcDbLine
 10
1981.778144206127
 20
1024.196480835793
 30
0.0
 11
1981.748352450228
 21
1021.61666331114
 31
0.0
  0
LINE
  5
BAC
330
B94
100
AcDbEntity
  8
0
  6
Continuous
 62
     7
370
    15
100
AcDbLine
 10
1987.547965848047
 20
1021.549689256599
 30
0.0
 11
1987.577757603945
 21
1024.129506781251
 31
0.0
  0
LINE
  5
BAD
330
B94
100
AcDbEntity
  8
0
  6
Continuous
 62
     7
370
    15
100
AcDbLine
 10
1977.038918397332
 20
1026.316181143005
 30
0.0
 11
1977.009126641434
 21
1023.736363618352
 31
0.0
  0
LINE
  5
BAE
330
B94
100
AcDbEntity
  8
0
  6
Continuous
 62
     7
370
    15
100
AcDbLine
 10
1982.819397256655
 20
1024.592266823249
 30
0.0
 11
1982.838531618601
 21
1026.249207167428
 31
0.0
  0
LWPOLYLINE
  5
BAF
330
B94
100
AcDbEntity
  8
0
  6
Continuous
 62
     7
370
    15
100
AcDbPolyline
 90
       40
 70
   128
 43
0.0
 10
1991.938559379858
 20
1010.08458957798
 10
1992.230794018362
 20
1009.980746836074
 10
1992.516077365318
 20
1009.933046505889
 10
1992.787021392237
 20
1009.942723311047
 10
1993.036607084847
 20
1010.009527503982
 10
1993.258371880967
 20
1010.131728174248
 10
1993.446570647368
 20
1010.306160995152
 10
1993.596331342288
 20
1010.528307529203
 10
1993.703772813692
 20
1010.792415015756
 10
1993.766112974318
 20
1011.091643405785
 10
1993.781738980667
 20
1011.418241466313
 10
1993.750243678572
 20
1011.763752261753
 10
1993.672445093034
 20
1012.119225615214
 10
1993.550356518772
 20
1012.475455683323
 10
1993.387140972629
 20
1012.823216670272
 10
1993.187024506067
 20
1013.15350124457
 10
1992.955191022348
 20
1013.457755555384
 10
1992.697644266344
 20
1013.728099145864
 10
1992.42105544989
 20
1013.957530360757
 10
1992.132586464021
 20
1014.140107654961
 10
1991.839709914985
 20
1014.271101732056
 10
1991.550011799882
 20
1014.34711962428
 10
1991.270993770754
 20
1014.36619313332
 10
1991.009882049108
 20
1014.327828473317
 10
1990.773440166067
 20
1014.233018379517
 10
1990.567791237885
 20
1014.084219361426
 10
1990.398261025129
 20
1013.88528464185
 10
1990.269241937391
 20
1013.641366797247
 10
1990.184075056998
 20
1013.358782553133
 10
1990.144964513798
 20
1013.044851437161
 10
1990.152925577192
 20
1012.707703653746
 10
1990.207749595214
 20
1012.356071568368
 10
1990.308019814682
 20
1011.99906145326
 10
1990.451135668798
 20
1011.645920842114
 10
1990.633392312497
 20
1011.305795463337
 10
1990.85007018331
 20
1010.987493764488
 10
1991.095555898608
 20
1010.699260363962
 10
1991.363493083744
 20
1010.448559662322
 10
1991.646940597464
 20
1010.241885326953
 10
1991.938559379858
 20
1010.08458957798
  0
LWPOLYLINE
  5
BB0
330
B94
100
AcDbEntity
  8
0
  6
Continuous
 62
     7
370
    15
100
AcDbPolyline
 90
       40
 70
   128
 43
0.0
 10
1996.677785012102
 20
1007.964889349733
 10
1996.970019650607
 20
1007.861046607827
 10
1997.255302997562
 20
1007.813346277643
 10
1997.526247024481
 20
1007.8230230828
 10
1997.77583412949
 20
1007.889826644015
 10
1997.997598925611
 20
1008.012027314281
 10
1998.185797692012
 20
1008.186460135185
 10
1998.335556974532
 20
1008.408607300956
 10
1998.442999858336
 20
1008.672714155789
 10
1998.505338606563
 20
1008.971943177537
 10
1998.520964612912
 20
1009.298541238067
 10
1998.489470723215
 20
1009.644051401786
 10
1998.411670725278
 20
1009.999525386967
 10
1998.289582151016
 20
1010.355755455076
 10
1998.126366604874
 20
1010.703516442025
 10
1997.926250138311
 20
1011.033801016322
 10
1997.694415242193
 20
1011.338055958857
 10
1997.436869898589
 20
1011.608398917617
 10
1997.160281082134
 20
1011.83783013251
 10
1996.871812096266
 20
1012.020407426714
 10
1996.578935547229
 20
1012.151401503809
 10
1996.289237432126
 20
1012.227419396033
 10
1996.010219402999
 20
1012.246492905073
 10
1995.749107681352
 20
1012.20812824507
 10
1995.512665798311
 20
1012.11331815127
 10
1995.30701687013
 20
1011.964519133179
 10
1995.137488069773
 20
1011.765583781883
 10
1995.008468982035
 20
1011.52166593728
 10
1994.923300689242
 20
1011.239082324887
 10
1994.884191558442
 20
1010.925150577194
 10
1994.892151209436
 20
1010.588003425499
 10
1994.946976639858
 20
1010.236370708401
 10
1995.047245446926
 20
1009.879361225013
 10
1995.190361301042
 20
1009.526220613866
 10
1995.37261935714
 20
1009.18609460337
 10
1995.589295815554
 20
1008.867793536241
 10
1995.834782943251
 20
1008.579559503995
 10
1996.102718715989
 20
1008.328859434075
 10
1996.386166229708
 20
1008.122185098706
 10
1996.677785012102
 20
1007.964889349733
  0
LWPOLYLINE
  5
BB1
330
B94
100
AcDbEntity
  8
0
  6
Continuous
 62
     7
370
    15
100
AcDbPolyline
 90
       40
 70
   128
 43
0.0
 10
2001.417010644347
 20
1005.845189121486
 10
2001.709245282851
 20
1005.74134637958
 10
2001.994530042207
 20
1005.693645417675
 10
2002.265474069126
 20
1005.703322222833
 10
2002.515058349336
 20
1005.770127047489
 10
2002.736823145456
 20
1005.892327717754
 10
2002.925021911857
 20
1006.066760538658
 10
2003.074784019176
 20
1006.288906440989
 10
2003.182224078181
 20
1006.553014559262
 10
2003.244565651207
 20
1006.85224231757
 10
2003.260191657556
 20
1007.1788403781
 10
2003.228694943061
 20
1007.524351805259
 10
2003.150897769922
 20
1007.879824526999
 10
2003.02880919566
 20
1008.236054595109
 10
2002.865590824719
 20
1008.583816845498
 10
2002.665477182955
 20
1008.914100156355
 10
2002.433642286836
 20
1009.21835509889
 10
2002.176096943232
 20
1009.48869805765
 10
2001.899506714378
 20
1009.718129904263
 10
2001.61103772851
 20
1009.900707198467
 10
2001.318162591873
 20
1010.031700643842
 10
2001.028463064371
 20
1010.107719167785
 10
2000.749443622844
 20
1010.126793308546
 10
2000.488333313596
 20
1010.088428016823
 10
2000.251892842955
 20
1009.993617291303
 10
2000.046243914773
 20
1009.844818273212
 10
1999.876712289618
 20
1009.645884185355
 10
1999.74769320188
 20
1009.401966340753
 10
1999.662527733886
 20
1009.11938146492
 10
1999.623415778287
 20
1008.805450980667
 10
1999.631376841681
 20
1008.468303197251
 10
1999.686202272102
 20
1008.116670480154
 10
1999.786472491569
 20
1007.759660365046
 10
1999.929588345686
 20
1007.406519753899
 10
2000.111844989385
 20
1007.066394375123
 10
2000.328522860198
 20
1006.748092676274
 10
2000.574007163097
 20
1006.459859907468
 10
2000.841944348233
 20
1006.209159205828
 10
2001.125393274352
 20
1006.002484238739
 10
2001.417010644347
 20
1005.845189121486
  0
LWPOLYLINE
  5
BB2
330
B94
100
AcDbEntity
  8
0
  6
Continuous
 62
     7
370
    15
100
AcDbPolyline
 90
       40
 70
   128
 43
0.0
 10
2006.15623768899
 20
1003.725488261519
 10
2006.448472327495
 20
1003.621645519613
 10
2006.733754262052
 20
1003.573945821149
 10
2007.00469828897
 20
1003.583622626306
 10
2007.25428539398
 20
1003.650426187522
 10
2007.4760501901
 20
1003.772626857787
 10
2007.6642489565
 20
1003.947059678691
 10
2007.814008239021
 20
1004.169206844462
 10
2007.921451122825
 20
1004.433313699295
 10
2007.983789871051
 20
1004.732542721043
 10
2007.999415877401
 20
1005.059140781573
 10
2007.967921987704
 20
1005.404650945292
 10
2007.890121989767
 20
1005.760124930472
 10
2007.768033415505
 20
1006.116354998582
 10
2007.604817869363
 20
1006.464115985531
 10
2007.4047014028
 20
1006.794400559829
 10
2007.17286933148
 20
1007.098654238923
 10
2006.915321163078
 20
1007.368998461123
 10
2006.638733759022
 20
1007.598429044296
 10
2006.350264773154
 20
1007.7810063385
 10
2006.057386811718
 20
1007.912001047315
 10
2005.767690109014
 20
1007.988018307818
 10
2005.488670667488
 20
1008.007092448579
 10
2005.22756035824
 20
1007.968727156856
 10
2004.9911170628
 20
1007.873917694776
 10
2004.785468134619
 20
1007.725118676685
 10
2004.615939334262
 20
1007.526183325389
 10
2004.486920246524
 20
1007.282265480786
 10
2004.401751953731
 20
1006.999681868393
 10
2004.362642822931
 20
1006.6857501207
 10
2004.370603886324
 20
1006.348602337285
 10
2004.425429316746
 20
1005.996969620187
 10
2004.525696711415
 20
1005.639960768519
 10
2004.668812565531
 20
1005.286820157373
 10
2004.85106920923
 20
1004.946694778596
 10
2005.067747080043
 20
1004.628393079747
 10
2005.31323420774
 20
1004.340159047501
 10
2005.581171392877
 20
1004.089458345861
 10
2005.864617494197
 20
1003.882784642212
 10
2006.15623768899
 20
1003.725488261519
  0
LWPOLYLINE
  5
BB3
330
B94
100
AcDbEntity
  8
0
  6
Continuous
 62
     7
370
    15
100
AcDbPolyline
 90
       40
 70
   128
 43
0.0
 10
2010.895461908836
 20
1001.605788664992
 10
2011.18769654734
 20
1001.501945923086
 10
2011.472981306695
 20
1001.454244961182
 10
2011.743925333615
 20
1001.463921766339
 10
2011.993509613824
 20
1001.530726590995
 10
2012.215274409944
 20
1001.65292726126
 10
2012.403476001144
 20
1001.827358818724
 10
2012.553235283665
 20
1002.049505984495
 10
2012.66067534267
 20
1002.313614102768
 10
2012.723016915696
 20
1002.612841861076
 10
2012.738642922045
 20
1002.939439921606
 10
2012.707149032348
 20
1003.284950085325
 10
2012.629349034411
 20
1003.640424070506
 10
2012.507260460149
 20
1003.996654138615
 10
2012.344044914006
 20
1004.344415125564
 10
2012.143928447444
 20
1004.674699699862
 10
2011.912093551325
 20
1004.978954642396
 10
2011.654548207721
 20
1005.249297601156
 10
2011.377957978867
 20
1005.478729447769
 10
2011.089488992999
 20
1005.661306741973
 10
2010.796613856362
 20
1005.792300187348
 10
2010.50691432886
 20
1005.868318711292
 10
2010.227897712132
 20
1005.887391588612
 10
2009.966784578085
 20
1005.849027560329
 10
2009.730344107444
 20
1005.754216834809
 10
2009.524695179262
 20
1005.605417816718
 10
2009.355166378905
 20
1005.406482465422
 10
2009.226147291168
 20
1005.162564620819
 10
2009.140978998375
 20
1004.879981008426
 10
2009.101869867574
 20
1004.566049260733
 10
2009.109828106169
 20
1004.228902740758
 10
2009.164653536591
 20
1003.87727002366
 10
2009.264923756059
 20
1003.520259908552
 10
2009.408039610175
 20
1003.167119297406
 10
2009.590296253874
 20
1002.826993918629
 10
2009.806974124687
 20
1002.50869221978
 10
2010.052461252384
 20
1002.220458187534
 10
2010.320395612723
 20
1001.969758749334
 10
2010.603844538841
 20
1001.763083782245
 10
2010.895461908836
 20
1001.605788664992
  0
LWPOLYLINE
  5
BB4
330
B94
100
AcDbEntity
  8
0
  6
Continuous
 62
     7
370
    15
100
AcDbPolyline
 90
       40
 70
   128
 43
0.0
 10
2015.634688953479
 20
999.4860878050252
 10
2015.926923591984
 20
999.3822450631189
 10
2016.212208351339
 20
999.3345441012149
 10
2016.483149553459
 20
999.3442221698121
 10
2016.732736658468
 20
999.4110257310278
 10
2016.954501454589
 20
999.5332264012933
 10
2017.142700220989
 20
999.707659222197
 10
2017.29245950351
 20
999.9298063879685
 10
2017.399902387313
 20
1000.193913242801
 10
2017.462243960339
 20
1000.493141001109
 10
2017.47786714189
 20
1000.819740325079
 10
2017.446373252193
 20
1001.165250488798
 10
2017.368573254256
 20
1001.520724473978
 10
2017.246484679994
 20
1001.876954542088
 10
2017.083269133852
 20
1002.224715529037
 10
2016.883152667289
 20
1002.555000103334
 10
2016.651320595969
 20
1002.859253782429
 10
2016.393772427566
 20
1003.129598004629
 10
2016.117185023511
 20
1003.359028587802
 10
2015.828716037643
 20
1003.541605882006
 10
2015.535840901006
 20
1003.672599327381
 10
2015.246141373503
 20
1003.748617851325
 10
2014.967121931976
 20
1003.767691992085
 10
2014.706011622729
 20
1003.729326700362
 10
2014.469568327289
 20
1003.634517238282
 10
2014.263919399107
 20
1003.485718220191
 10
2014.094390598751
 20
1003.286782868895
 10
2013.965371511012
 20
1003.042865024292
 10
2013.880206043018
 20
1002.760280148459
 10
2013.841094087419
 20
1002.446349664206
 10
2013.849055150813
 20
1002.109201880791
 10
2013.903880581235
 20
1001.757569163693
 10
2014.004147975904
 20
1001.400560312025
 10
2014.147266654819
 20
1001.047418437439
 10
2014.329523298517
 20
1000.707293058662
 10
2014.546201169331
 20
1000.388991359813
 10
2014.791685472229
 20
1000.100758591007
 10
2015.059622657366
 20
999.8500578893676
 10
2015.343071583485
 20
999.6433829222786
 10
2015.634688953479
 20
999.4860878050252
  0
LWPOLYLINE
  5
BB5
330
B94
100
AcDbEntity
  8
0
  6
Continuous
 62
     7
370
    15
100
AcDbPolyline
 90
       40
 70
   128
 43
0.0
 10
2020.373913173324
 20
997.3663882084981
 10
2020.666150636627
 20
997.2625442031521
 10
2020.951432571184
 20
997.2148445046878
 10
2021.222379422902
 20
997.2245200464053
 10
2021.471960878313
 20
997.2913261345007
 10
2021.693725674433
 20
997.4135268047662
 10
2021.881924440834
 20
997.5879596256698
 10
2022.031683723355
 20
997.8101067914415
 10
2022.139126607159
 20
998.074213646274
 10
2022.201471004983
 20
998.373440141143
 10
2022.217094186533
 20
998.7000394651117
 10
2022.185597472038
 20
999.045550892271
 10
2022.107803123699
 20
999.4010223505719
 10
2021.985711724637
 20
999.7572536821209
 10
2021.822493353696
 20
1000.10501593251
 10
2021.622376887134
 20
1000.435300506807
 10
2021.390544815814
 20
1000.739554185902
 10
2021.13299947221
 20
1001.009897144663
 10
2020.856409243356
 20
1001.239328991275
 10
2020.567943082287
 20
1001.421905022039
 10
2020.275065120851
 20
1001.552899730854
 10
2019.985365593348
 20
1001.628918254797
 10
2019.70634897662
 20
1001.647991132118
 10
2019.445235842574
 20
1001.609627103835
 10
2019.208795371932
 20
1001.514816378315
 10
2019.003146443751
 20
1001.366017360224
 10
2018.833617643394
 20
1001.167082008928
 10
2018.704598555656
 20
1000.923164164325
 10
2018.619430262864
 20
1000.640580551932
 10
2018.580321132063
 20
1000.326648804239
 10
2018.588282195457
 20
999.989501020824
 10
2018.64310480108
 20
999.6378695671658
 10
2018.743375020548
 20
999.2808594520582
 10
2018.886490874664
 20
998.9277188409117
 10
2019.068747518362
 20
998.5875934621352
 10
2019.285425389176
 20
998.2692917632864
 10
2019.530912516873
 20
997.9810577310402
 10
2019.79884970201
 20
997.7303570294006
 10
2020.082295803329
 20
997.5236833257515
 10
2020.373913173324
 20
997.3663882084981
  0
LWPOLYLINE
  5
BB6
330
B94
100
AcDbEntity
  8
0
  6
Continuous
 62
     7
370
    15
100
AcDbPolyline
 90
       40
 70
   128
 43
0.0
 10
2025.113143042767
 20
995.2466860850913
 10
2025.405377681271
 20
995.1428433431852
 10
2025.690656791029
 20
995.0951449081607
 10
2025.961600817948
 20
995.104821713318
 10
2026.211187922957
 20
995.1716252745338
 10
2026.432952719077
 20
995.2938259447993
 10
2026.621151485478
 20
995.468258765703
 10
2026.770910767998
 20
995.6904059314744
 10
2026.878353651802
 20
995.9545127863071
 10
2026.940692400029
 20
996.2537418080557
 10
2026.956321231177
 20
996.5803386051449
 10
2026.924824516682
 20
996.9258500323041
 10
2026.847024518745
 20
997.2813240174847
 10
2026.724938769281
 20
997.6375528221542
 10
2026.561720398341
 20
997.9853150725432
 10
2026.361603931778
 20
998.3155996468408
 10
2026.129771860458
 20
998.6198533259358
 10
2025.872226516854
 20
998.8901962846956
 10
2025.595633463201
 20
999.1196293947478
 10
2025.30717012693
 20
999.302204162072
 10
2025.014289340695
 20
999.4332001343266
 10
2024.724595462791
 20
999.5092161313909
 10
2024.445573196465
 20
999.5282915355911
 10
2024.184462887218
 20
999.4899262438682
 10
2023.948022416576
 20
999.3951155183486
 10
2023.742373488395
 20
999.2463165002572
 10
2023.57284186324
 20
999.0473824124007
 10
2023.4438256003
 20
998.8034633043582
 10
2023.358657307507
 20
998.5208796919648
 10
2023.319545351908
 20
998.2069492077126
 10
2023.327509240101
 20
997.869800160857
 10
2023.382331845724
 20
997.5181687071991
 10
2023.482602065191
 20
997.1611585920914
 10
2023.625717919308
 20
996.8080179809449
 10
2023.807974563006
 20
996.4678926021683
 10
2024.02465243382
 20
996.1495909033194
 10
2024.270139561517
 20
995.8613568710735
 10
2024.538076746654
 20
995.6106561694337
 10
2024.821520023174
 20
995.4039837292244
 10
2025.113143042767
 20
995.2466860850913
  0
LWPOLYLINE
  5
BB7
330
B94
100
AcDbEntity
  8
0
  6
Continuous
 62
     7
370
    15
100
AcDbPolyline
 90
       40
 70
   128
 43
0.0
 10
2029.852364437813
 20
993.1269877520039
 10
2030.144599076317
 20
993.0231450100979
 10
2030.429883835672
 20
992.9754440481938
 10
2030.700827862592
 20
992.9851208533511
 10
2030.9504149676
 20
993.0519244145669
 10
2031.172179763721
 20
993.1741250848324
 10
2031.360378530122
 20
993.3485579057359
 10
2031.510137812642
 20
993.5707050715075
 10
2031.617580696446
 20
993.8348119263402
 10
2031.679919444673
 20
994.1340409480888
 10
2031.695548275821
 20
994.4606377451778
 10
2031.664051561326
 20
994.8061491723372
 10
2031.586251563389
 20
995.1616231575178
 10
2031.464165813925
 20
995.5178519621872
 10
2031.300947442984
 20
995.8656142125763
 10
2031.100830976422
 20
996.1958987868738
 10
2030.868998905102
 20
996.5001524659687
 10
2030.611453561498
 20
996.7704954247288
 10
2030.334860507844
 20
996.9999285347808
 10
2030.046391521976
 20
997.1825058289848
 10
2029.75351638534
 20
997.3134992743599
 10
2029.463816857837
 20
997.3895177983036
 10
2029.184800241109
 20
997.4085906756242
 10
2028.923689931861
 20
997.3702253839013
 10
2028.68724946122
 20
997.2754146583818
 10
2028.481600533039
 20
997.1266156402903
 10
2028.312068907883
 20
996.9276815524338
 10
2028.183052644944
 20
996.6837624443913
 10
2028.097884352151
 20
996.4011788319979
 10
2028.058772396552
 20
996.0872483477455
 10
2028.066730635147
 20
995.7501018277698
 10
2028.121558890367
 20
995.398467847232
 10
2028.221829109835
 20
995.0414577321243
 10
2028.364944963951
 20
994.6883171209778
 10
2028.54720160765
 20
994.3481917422015
 10
2028.763879478463
 20
994.0298900433525
 10
2029.00936660616
 20
993.7416560111064
 10
2029.2772981417
 20
993.4909578363464
 10
2029.560747067818
 20
993.2842828692573
 10
2029.852364437813
 20
993.1269877520039
  0
LWPOLYLINE
  5
BB8
330
B94
100
AcDbEntity
  8
0
  6
Continuous
 62
     7
370
    15
100
AcDbPolyline
 90
       40
 70
   128
 43
0.0
 10
2034.591591482457
 20
991.0072868920371
 10
2034.883826120961
 20
990.903444150131
 10
2035.169110880316
 20
990.8557431882268
 10
2035.440054907235
 20
990.8654199933842
 10
2035.689642012244
 20
990.9322235545998
 10
2035.911406808365
 20
991.0544242248654
 10
2036.099605574765
 20
991.228857045769
 10
2036.249364857286
 20
991.4510042115406
 10
2036.35680774109
 20
991.7151110663732
 10
2036.419146489317
 20
992.0143400881217
 10
2036.434769670867
 20
992.3409394120907
 10
2036.403278605969
 20
992.6864483123702
 10
2036.325478608032
 20
993.0419222975508
 10
2036.203387208971
 20
993.3981536291
 10
2036.040174487628
 20
993.7459133526092
 10
2035.840058021065
 20
994.0761979269067
 10
2035.608225949745
 20
994.3804516060017
 10
2035.350674956544
 20
994.6507970916416
 10
2035.074087552489
 20
994.8802276748139
 10
2034.78561856662
 20
995.0628049690179
 10
2034.492743429983
 20
995.1937984143928
 10
2034.203043902481
 20
995.2698169383367
 10
2033.924027285753
 20
995.2888898156572
 10
2033.662916976505
 20
995.2505245239343
 10
2033.426470856266
 20
995.1557163252946
 10
2033.220821928085
 20
995.006917307203
 10
2033.051295952527
 20
994.807980692467
 10
2032.92227403999
 20
994.564064111304
 10
2032.837105747197
 20
994.2814804989106
 10
2032.797999441196
 20
993.9675474877786
 10
2032.805957679791
 20
993.6304009678028
 10
2032.860785935011
 20
993.278766987265
 10
2032.961050504881
 20
992.9217593990372
 10
2033.104166358997
 20
992.5686187878907
 10
2033.286428652294
 20
992.2284908822344
 10
2033.50310087351
 20
991.9101917102652
 10
2033.748588001207
 20
991.6219576780193
 10
2034.016525186343
 20
991.3712569763795
 10
2034.299974112462
 20
991.1645820092905
 10
2034.591591482457
 20
991.0072868920371
  0
LWPOLYLINE
  5
BB9
330
B94
100
AcDbEntity
  8
0
  6
Continuous
 62
     7
370
    15
100
AcDbPolyline
 90
       43
 70
   128
 43
0.0
 10
1982.456631703852
 20
1014.02301159908
 10
1982.767728147071
 20
1013.910418029916
 10
1983.072485873011
 20
1013.853165702438
 10
1983.36409589727
 20
1013.852534246831
 10
1983.636044820407
 20
1013.908537422323
 10
1983.882258224782
 20
1014.019923784358
 10
1984.097235171743
 20
1014.184205784705
 10
1984.276173755197
 20
1014.397713500312
 10
1984.415076407768
 20
1014.65567764422
 10
1984.510841271397
 20
1014.952335211626
 10
1984.561328299673
 20
1015.281059911649
 10
1984.565409923185
 20
1015.634508157491
 10
1984.522994964837
 20
1016.004784467409
 10
1984.435030681477
 20
1016.383618259122
 10
1984.303482860147
 20
1016.762545830803
 10
1984.131289069498
 20
1017.133103543875
 10
1983.922296208344
 20
1017.487013538869
 10
1983.681172501537
 20
1017.816369609919
 10
1983.413305205379
 20
1018.113814980599
 10
1983.124677551169
 20
1018.372704812843
 10
1982.821736318535
 20
1018.587256403988
 10
1982.511249913751
 20
1018.752676260063
 10
1982.200152766645
 20
1018.865270345306
 10
1981.895395039549
 20
1018.922522572675
 10
1981.603785015289
 20
1018.923154028282
 10
1981.331836090997
 20
1018.86715075268
 10
1981.085622688934
 20
1018.755764590865
 10
1980.87064573966
 20
1018.591482390298
 10
1980.691707156206
 20
1018.377974674691
 10
1980.552804505948
 20
1018.120010731003
 10
1980.457039640006
 20
1017.823352963377
 10
1980.406552616354
 20
1017.494628663794
 10
1980.402470992843
 20
1017.141180417952
 10
1980.444885946567
 20
1016.770903707594
 10
1980.532850232238
 20
1016.392070116101
 10
1980.664398051257
 20
1016.0131423442
 10
1980.836591841905
 20
1015.642584631128
 10
1981.045584705372
 20
1015.288674836354
 10
1981.286708409867
 20
1014.959318565084
 10
1981.55457570718
 20
1014.661873294514
 10
1981.843203361391
 20
1014.40298346227
 10
1982.14614459518
 20
1014.188431971235
 10
1982.456631703852
 20
1014.02301159908
  0
LWPOLYLINE
  5
BBA
330
B94
100
AcDbEntity
  8
0
  6
Continuous
 62
     7
370
    15
100
AcDbPolyline
 90
       43
 70
   128
 43
0.0
 10
1977.717405365408
 20
1016.142712143187
 10
1978.028502161727
 20
1016.030118416094
 10
1978.333259887667
 20
1015.972866088615
 10
1978.624869911926
 20
1015.972234633008
 10
1978.896819188162
 20
1016.02823765057
 10
1979.143032239438
 20
1016.139624170535
 10
1979.358009186399
 20
1016.303906170882
 10
1979.536947769853
 20
1016.517413886489
 10
1979.675850775523
 20
1016.775377872467
 10
1979.771615639153
 20
1017.072035439873
 10
1979.822102667429
 20
1017.400760139897
 10
1979.82618429094
 20
1017.754208385738
 10
1979.783769332593
 20
1018.124484695656
 10
1979.695805049233
 20
1018.503318487369
 10
1979.564256874802
 20
1018.88224621698
 10
1979.392063084154
 20
1019.252803930052
 10
1979.183070223
 20
1019.606713925046
 10
1978.941946869292
 20
1019.936069838166
 10
1978.674079220036
 20
1020.233515366776
 10
1978.385451565824
 20
1020.49240519902
 10
1978.082510333191
 20
1020.706956790165
 10
1977.772023575307
 20
1020.872376804169
 10
1977.4609267813
 20
1020.984970731483
 10
1977.156169407304
 20
1021.042222800922
 10
1976.864559029945
 20
1021.042854414459
 10
1976.592609929103
 20
1020.986851217822
 10
1976.346396880139
 20
1020.875464898077
 10
1976.131420107416
 20
1020.711182618545
 10
1975.952481523962
 20
1020.497674902938
 10
1975.813578520603
 20
1020.23971111718
 10
1975.717813831212
 20
1019.943053270589
 10
1975.66732680756
 20
1019.614328971006
 10
1975.663245184049
 20
1019.260880725164
 10
1975.705660137773
 20
1018.890604014806
 10
1975.793624246895
 20
1018.511770502278
 10
1975.925172419012
 20
1018.132842572447
 10
1976.097366209661
 20
1017.762284859375
 10
1976.306358896577
 20
1017.408375143566
 10
1976.547482247973
 20
1017.079019030226
 10
1976.815349721835
 20
1016.781573680691
 10
1977.103977729147
 20
1016.522683690517
 10
1977.406918609836
 20
1016.308132357412
 10
1977.717405365408
 20
1016.142712143187
  0
LINE
  5
BBB
330
B94
100
AcDbEntity
  8
0
  6
Continuous
 62
     7
370
    15
100
AcDbLine
 10
2038.742251921327
 20
987.4220711771165
 30
0.0
 11
1973.530501186285
 21
1016.589149017213
 31
0.0
  0
LINE
  5
BBC
330
B94
100
AcDbEntity
  8
0
  6
Continuous
 62
     7
370
    15
100
AcDbLine
 10
1973.530501186285
 20
1016.589149017213
 30
0.0
 11
1973.619876435484
 21
1024.328599989409
 31
0.0
  0
LINE
  5
BBD
330
B94
100
AcDbEntity
  8
0
  6
Continuous
 62
     7
370
    15
100
AcDbLine
 10
1973.619876435484
 20
1024.328599989409
 30
0.0
 11
2038.831627170526
 21
995.1615221493128
 31
0.0
  0
LINE
  5
BBE
330
B94
100
AcDbEntity
  8
0
  6
Continuous
 62
     7
370
    15
100
AcDbLine
 10
2038.831627170526
 20
995.1615221493128
 30
0.0
 11
2038.742251921327
 21
987.4220711771165
 31
0.0
  0
LINE
  5
BBF
330
B94
100
AcDbEntity
  8
0
  6
Continuous
 62
     7
370
    15
100
AcDbLine
 10
2042.979328097411
 20
989.9012971718381
 30
0.0
 11
2038.742251921327
 21
987.4220711771165
 31
0.0
  0
LINE
  5
BC0
330
B94
100
AcDbEntity
  8
0
  6
Continuous
 62
     7
370
    15
100
AcDbLine
 10
2038.831627170526
 20
995.1615221493128
 30
0.0
 11
2043.068703346611
 21
997.6407481440345
 31
0.0
  0
LINE
  5
BC1
330
B94
100
AcDbEntity
  8
0
  6
Continuous
 62
     7
370
    15
100
AcDbLine
 10
2043.068703346611
 20
997.6407481440345
 30
0.0
 11
2042.979328097411
 21
989.9012971718381
 31
0.0
  0
LWPOLYLINE
  5
BC2
330
B94
100
AcDbEntity
  8
0
  6
Continuous
 62
     7
370
    15
100
AcDbPolyline
 90
       38
 70
   128
 43
0.0
 10
1990.979764531287
 20
1018.751256885243
 10
1990.72551406564
 20
1018.626135030963
 10
1990.432768955843
 20
1018.525101693713
 10
1990.109949213412
 20
1018.45106410518
 10
1989.766341639664
 20
1018.406152046567
 10
1989.411833481402
 20
1018.391656783355
 10
1989.056622446084
 20
1018.407995537486
 10
1988.710926125614
 20
1018.454698943946
 10
1988.384689218136
 20
1018.530423465652
 10
1988.087299661233
 20
1018.632989436766
 10
1987.827310653518
 20
1018.759447340064
 10
1987.612202491641
 20
1018.906158632435
 10
1987.448162564389
 20
1019.068903234271
 10
1987.339910584147
 20
1019.242998906902
 10
1987.290560155432
 20
1019.423437517372
 10
1987.301533115102
 20
1019.605027392733
 10
1987.372510821318
 20
1019.782545628812
 10
1987.501452979266
 20
1019.950884713821
 10
1987.684650717754
 20
1020.105201695222
 10
1987.916832568954
 20
1020.241057473376
 10
1988.191319329343
 20
1020.354543868606
 10
1988.500215141263
 20
1020.442395428103
 10
1988.834633732687
 20
1020.502085351024
 10
1989.184952365927
 20
1020.531896798555
 10
1989.54109622716
 20
1020.530971187449
 10
1989.892817757747
 20
1020.499336026042
 10
1990.229998673556
 20
1020.437900822892
 10
1990.542938696331
 20
1020.348433555072
 10
1990.82263581655
 20
1020.233507392719
 10
1991.06104286733
 20
1020.096429188089
 10
1991.251303618214
 20
1019.941141399621
 10
1991.387941460333
 20
1019.772112315641
 10
1991.46702651501
 20
1019.594204904122
 10
1991.486284127464
 20
1019.412536153902
 10
1991.445161731659
 20
1019.23233247189
 10
1991.344840241042
 20
1019.058778867626
 10
1991.188205083482
 20
1018.896867855035
 10
1990.979764531287
 20
1018.751256885243
  0
LINE
  5
BC3
330
B94
100
AcDbEntity
  8
0
  6
Continuous
 62
     7
370
    15
100
AcDbLine
 10
1977.03918485642
 20
1026.329328314523
 30
0.0
 11
1973.619876435484
 21
1024.328599989409
 31
0.0
  0
LINE
  5
BC4
330
B94
100
AcDbEntity
  8
0
  6
Continuous
 62
     7
370
    15
100
AcDbLine
 10
2043.068703346611
 20
997.6407481440345
 30
0.0
 11
2039.192599216219
 21
999.3744024258646
 31
0.0
  0
LINE
  5
BC5
330
B94
100
AcDbEntity
  8
0
  6
Continuous
 62
     7
370
    15
100
AcDbLine
 10
2035.409555256558
 20
1001.066433944727
 30
0.0
 11
2034.453372171575
 21
1001.494103285831
 31
0.0
  0
LINE
  5
BC6
330
B94
100
AcDbEntity
  8
0
  6
Continuous
 62
     7
370
    15
100
AcDbLine
 10
2030.670328211914
 20
1003.186134804694
 30
0.0
 11
2029.714145126931
 21
1003.613804145798
 31
0.0
  0
LINE
  5
BC7
330
B94
100
AcDbEntity
  8
0
  6
Continuous
 62
     7
370
    15
100
AcDbLine
 10
2025.931106816868
 20
1005.305833137782
 30
0.0
 11
2024.974920907086
 21
1005.733503742325
 31
0.0
  0
LINE
  5
BC8
330
B94
100
AcDbEntity
  8
0
  6
Continuous
 62
     7
370
    15
100
AcDbLine
 10
2021.191879772224
 20
1007.425533997748
 30
0.0
 11
2020.235693862443
 21
1007.853204602292
 31
0.0
  0
LINE
  5
BC9
330
B94
100
AcDbEntity
  8
0
  6
Continuous
 62
     7
370
    15
100
AcDbLine
 10
2016.452652727581
 20
1009.545234857716
 30
0.0
 11
2015.496469642597
 21
1009.972904198819
 31
0.0
  0
LINE
  5
BCA
330
B94
100
AcDbEntity
  8
0
  6
Continuous
 62
     7
370
    15
100
AcDbLine
 10
2011.713428507736
 20
1011.664934454242
 30
0.0
 11
2010.757242597954
 21
1012.092605058786
 31
0.0
  0
LINE
  5
BCB
330
B94
100
AcDbEntity
  8
0
  6
Continuous
 62
     7
370
    15
100
AcDbLine
 10
2006.974201463092
 20
1013.784635314209
 30
0.0
 11
2006.018018378109
 21
1014.212304655313
 31
0.0
  0
LINE
  5
BCC
330
B94
100
AcDbEntity
  8
0
  6
Continuous
 62
     7
370
    15
100
AcDbLine
 10
2002.234974418448
 20
1015.904336174177
 30
0.0
 11
2001.278791333465
 21
1016.33200551528
 31
0.0
  0
LINE
  5
BCD
330
B94
100
AcDbEntity
  8
0
  6
Continuous
 62
     7
370
    15
100
AcDbLine
 10
1997.495750198603
 20
1018.024035770703
 30
0.0
 11
1996.53956570122
 21
1018.451705743527
 31
0.0
  0
LINE
  5
BCE
330
B94
100
AcDbEntity
  8
0
  6
Continuous
 62
     7
370
    15
100
AcDbLine
 10
1992.756523153959
 20
1020.14373663067
 30
0.0
 11
1987.558577742999
 21
1022.468607174724
 31
0.0
  0
ARC
  5
BCF
330
B94
100
AcDbEntity
  8
0
  6
Continuous
 62
     7
370
    15
100
AcDbCircle
 10
2038.223991268336
 20
998.3365382839448
 30
0.0
 40
0.9604819100352365
100
AcDbArc
 50
293.0147446726861
 51
354.1570662862617
  0
LWPOLYLINE
  5
BD0
330
B94
100
AcDbEntity
  8
0
  6
Continuous
 62
     7
370
    15
100
AcDbPolyline
 90
       17
 70
   128
 43
0.0
 10
2034.379804035875
 20
998.2941858516877
 10
2034.380029739915
 20
998.2687069285532
 10
2034.416841740275
 20
998.0721828357379
 10
2034.514852685576
 20
997.8806891931165
 10
2034.671518204323
 20
997.6991880874063
 10
2034.882780907984
 20
997.5323803880291
 10
2035.143178251437
 20
997.3845822156198
 10
2035.445953975776
 20
997.2596268371081
 10
2035.783269480182
 20
997.1607492080341
 10
2036.146396784862
 20
997.0905064041794
 10
2036.525922091893
 20
997.0507217521486
 10
2036.912014542808
 20
997.0424262800278
 10
2037.294685741621
 20
997.0658297603138
 10
2037.664009822266
 20
997.120332825037
 10
2038.010435856475
 20
997.2045172878088
 10
2038.324981973387
 20
997.3162072348795
 10
2038.599508960802
 20
997.4525066317118
  0
ARC
  5
BD1
330
B94
100
AcDbEntity
  8
0
  6
Continuous
 62
     7
370
    15
100
AcDbCircle
 10
2033.360359035166
 20
1000.585481588545
 30
0.0
 40
1.129888172484713
100
AcDbArc
 50
296.2605237762375
 51
337.0984885168509
  0
LWPOLYLINE
  5
BD2
330
B94
100
AcDbEntity
  8
0
  6
Continuous
 62
     7
370
    15
100
AcDbPolyline
 90
       17
 70
   128
 43
0.0
 10
2029.640576991231
 20
1000.413886711654
 10
2029.640802695272
 20
1000.38840778852
 10
2029.677614695631
 20
1000.191883695705
 10
2029.775625640933
 20
1000.000390053083
 10
2029.932291159679
 20
999.8188889473732
 10
2030.143559512938
 20
999.6520787211165
 10
2030.403951206793
 20
999.5042830755867
 10
2030.706726931132
 20
999.379327697075
 10
2031.044042435539
 20
999.280450068001
 10
2031.407169740218
 20
999.2102072641461
 10
2031.786695047249
 20
999.1704226121155
 10
2032.172787498164
 20
999.1621271399948
 10
2032.555458696978
 20
999.1855306202806
 10
2032.924788427219
 20
999.2400311581242
 10
2033.271208811831
 20
999.3242181477757
 10
2033.585754928743
 20
999.4359080948463
 10
2033.860281916159
 20
999.5722074916788
  0
ARC
  5
BD3
330
B94
100
AcDbEntity
  8
0
  6
Continuous
 62
     7
370
    15
100
AcDbCircle
 10
2028.621073643163
 20
1002.705249661477
 30
0.0
 40
1.129974264713597
100
AcDbArc
 50
296.2616690490884
 51
337.0964938528612
  0
LWPOLYLINE
  5
BD4
330
B94
100
AcDbEntity
  8
0
  6
Continuous
 62
     7
370
    15
100
AcDbPolyline
 90
       17
 70
   128
 43
0.0
 10
2024.901349946587
 20
1002.533587571621
 10
2024.901575650628
 20
1002.508108648487
 10
2024.938393300584
 20
1002.311582028792
 10
2025.036398596289
 20
1002.12009091305
 10
2025.193064115036
 20
1001.93858980734
 10
2025.404332468294
 20
1001.771779581083
 10
2025.664724162149
 20
1001.623983935553
 10
2025.967499886488
 20
1001.499028557042
 10
2026.304821040492
 20
1001.400148401088
 10
2026.667942695574
 20
1001.329908124113
 10
2027.047468002605
 20
1001.290123472082
 10
2027.433566103118
 20
1001.281825473082
 10
2027.816231652334
 20
1001.305231480247
 10
2028.185561382576
 20
1001.359732018091
 10
2028.531981767187
 20
1001.443919007742
 10
2028.846533533697
 20
1001.555606427933
 10
2029.121054871515
 20
1001.691908351646
  0
ARC
  5
BD5
330
B94
100
AcDbEntity
  8
0
  6
Continuous
 62
     7
370
    15
100
AcDbCircle
 10
2023.881872021229
 20
1004.824926546763
 30
0.0
 40
1.129941515881273
100
AcDbArc
 50
296.2610509053403
 51
337.0971119966076
  0
LWPOLYLINE
  5
BD6
330
B94
100
AcDbEntity
  8
0
  6
Continuous
 62
     7
370
    15
100
AcDbPolyline
 90
       17
 70
   128
 43
0.0
 10
2020.162125726743
 20
1004.653287168149
 10
2020.162351430783
 20
1004.627808245014
 10
2020.19916625594
 20
1004.431282888759
 10
2020.297174376444
 20
1004.239790509577
 10
2020.453839895191
 20
1004.058289403867
 10
2020.665105423651
 20
1003.89148044105
 10
2020.925497117506
 20
1003.74368479552
 10
2021.228275666643
 20
1003.618728153569
 10
2021.565593995848
 20
1003.519849261055
 10
2021.92871565093
 20
1003.44960898408
 10
2022.308240957961
 20
1003.409824332049
 10
2022.694339058475
 20
1003.401526333049
 10
2023.07700460769
 20
1003.424932340214
 10
2023.446334337932
 20
1003.479432878058
 10
2023.792760372141
 20
1003.56361734083
 10
2024.107306489054
 20
1003.6753072879
 10
2024.381827826871
 20
1003.811609211612
  0
ARC
  5
BD7
330
B94
100
AcDbEntity
  8
0
  6
Continuous
 62
     7
370
    15
100
AcDbCircle
 10
2019.14266426819
 20
1006.944604519786
 30
0.0
 40
1.129914838276451
100
AcDbArc
 50
296.2607872411397
 51
337.0978003558359
  0
LWPOLYLINE
  5
BD8
330
B94
100
AcDbEntity
  8
0
  6
Continuous
 62
     7
370
    15
100
AcDbPolyline
 90
       17
 70
   128
 43
0.0
 10
2015.422901506898
 20
1006.772986764675
 10
2015.423124386139
 20
1006.747509104981
 10
2015.459939211297
 20
1006.550983748726
 10
2015.5579473318
 20
1006.359491369544
 10
2015.714612850547
 20
1006.177990263834
 10
2015.925878379007
 20
1006.011181301017
 10
2016.186272897661
 20
1005.863384392047
 10
2016.489048622
 20
1005.738429013536
 10
2016.826366951205
 20
1005.639550121022
 10
2017.189491431086
 20
1005.569308580607
 10
2017.569016738117
 20
1005.529523928576
 10
2017.955112013831
 20
1005.521227193016
 10
2018.337780387845
 20
1005.544631936742
 10
2018.707110118087
 20
1005.599132474585
 10
2019.053533327497
 20
1005.683318200796
 10
2019.36807944441
 20
1005.795008147867
 10
2019.642603607026
 20
1005.93130880814
  0
ARC
  5
BD9
330
B94
100
AcDbEntity
  8
0
  6
Continuous
 62
     7
370
    15
100
AcDbCircle
 10
2014.403452081328
 20
1009.064291368347
 30
0.0
 40
1.129895699080215
100
AcDbArc
 50
296.2604259477889
 51
337.0981616491869
  0
LWPOLYLINE
  5
BDA
330
B94
100
AcDbEntity
  8
0
  6
Continuous
 62
     7
370
    15
100
AcDbPolyline
 90
       17
 70
   128
 43
0.0
 10
2010.683674462254
 20
1008.892687624642
 10
2010.683900166295
 20
1008.867208701508
 10
2010.720712166653
 20
1008.670684608693
 10
2010.818723111956
 20
1008.479190966071
 10
2010.975388630702
 20
1008.297689860361
 10
2011.186654159162
 20
1008.130880897544
 10
2011.447045853017
 20
1007.983085252014
 10
2011.749821577356
 20
1007.858129873502
 10
2012.087139906561
 20
1007.759250980989
 10
2012.450264386442
 20
1007.689009440574
 10
2012.829789693473
 20
1007.649224788543
 10
2013.215884969187
 20
1007.640928052982
 10
2013.598553343201
 20
1007.664332796708
 10
2013.967883073443
 20
1007.718833334552
 10
2014.314306282853
 20
1007.803019060764
 10
2014.628855224565
 20
1007.914707744394
 10
2014.903376562382
 20
1008.051009668107
  0
ARC
  5
BDB
330
B94
100
AcDbEntity
  8
0
  6
Continuous
 62
     7
370
    15
100
AcDbCircle
 10
2009.664177542219
 20
1011.184038417694
 30
0.0
 40
1.129960518512381
100
AcDbArc
 50
296.2616495006114
 51
337.0969380963615
  0
LWPOLYLINE
  5
BDC
330
B94
100
AcDbEntity
  8
0
  6
Continuous
 62
     7
370
    15
100
AcDbPolyline
 90
       17
 70
   128
 43
0.0
 10
2005.94444741761
 20
1011.012388484609
 10
2005.944673121651
 20
1010.986909561475
 10
2005.981487946808
 20
1010.79038420522
 10
2006.079496067312
 20
1010.598891826038
 10
2006.236161586059
 20
1010.417390720328
 10
2006.447427114518
 20
1010.250581757511
 10
2006.707818808374
 20
1010.102786111981
 10
2007.010597357511
 20
1009.97782947003
 10
2007.347915686716
 20
1009.878950577516
 10
2007.711040166597
 20
1009.808709037101
 10
2008.090565473628
 20
1009.76892438507
 10
2008.476660749342
 20
1009.76062764951
 10
2008.859329123357
 20
1009.784032393235
 10
2009.228656028799
 20
1009.838534194519
 10
2009.575082063008
 20
1009.92271865729
 10
2009.889628179921
 20
1010.034408604361
 10
2010.164152342538
 20
1010.170709264634
  0
ARC
  5
BDD
330
B94
100
AcDbEntity
  8
0
  6
Continuous
 62
     7
370
    15
100
AcDbCircle
 10
2004.924985959057
 20
1013.303705836247
 30
0.0
 40
1.12991483827647
100
AcDbArc
 50
296.2607872411397
 51
337.0978003558359
  0
LWPOLYLINE
  5
BDE
330
B94
100
AcDbEntity
  8
0
  6
Continuous
 62
     7
370
    15
100
AcDbPolyline
 90
       17
 70
   128
 43
0.0
 10
2001.205223197765
 20
1013.132088081136
 10
2001.205448901806
 20
1013.106609158002
 10
2001.242260902165
 20
1012.910085065187
 10
2001.340269022668
 20
1012.718592686005
 10
2001.496937366213
 20
1012.537090316855
 10
2001.708200069874
 20
1012.370282617478
 10
2001.968594588528
 20
1012.222485708508
 10
2002.271370312867
 20
1012.097530329997
 10
2002.608688642072
 20
1011.998651437483
 10
2002.971813121953
 20
1011.928409897068
 10
2003.351338428984
 20
1011.888625245037
 10
2003.737433704698
 20
1011.880328509477
 10
2004.120102078712
 20
1011.903733253202
 10
2004.489431808954
 20
1011.958233791046
 10
2004.835855018365
 20
1012.042419517257
 10
2005.150401135277
 20
1012.154109464328
 10
2005.424925297894
 20
1012.2904101246
  0
ARC
  5
BDF
330
B94
100
AcDbEntity
  8
0
  6
Continuous
 62
     7
370
    15
100
AcDbCircle
 10
2000.185713566521
 20
1015.423450861302
 30
0.0
 40
1.129976892708305
100
AcDbArc
 50
296.26195856154
 51
337.096629035435
  0
LWPOLYLINE
  5
BE0
330
B94
100
AcDbEntity
  8
0
  6
Continuous
 62
     7
370
    15
100
AcDbPolyline
 90
       17
 70
   128
 43
0.0
 10
1996.46599756552
 20
1015.251788309383
 10
1996.466221857162
 20
1015.226310017969
 10
1996.50303526992
 20
1015.029785293434
 10
1996.601044802823
 20
1014.838292282532
 10
1996.757710321569
 20
1014.656791176822
 10
1996.968975850029
 20
1014.489982214005
 10
1997.229368956284
 20
1014.342185936755
 10
1997.532144680622
 20
1014.217230558243
 10
1997.869463009828
 20
1014.11835166573
 10
1998.232588902108
 20
1014.048109493595
 10
1998.61211138434
 20
1014.008326105004
 10
1998.998209484853
 20
1014.000028106003
 10
1999.380877858868
 20
1014.02343284973
 10
1999.75020476431
 20
1014.077934651013
 10
2000.096627973721
 20
1014.162120377224
 10
2000.411176915432
 20
1014.273809060855
 10
2000.685701078049
 20
1014.410109721127
  0
ARC
  5
BE1
330
B94
100
AcDbEntity
  8
0
  6
Continuous
 62
     7
370
    15
100
AcDbCircle
 10
1995.446516965021
 20
1017.543123012322
 30
0.0
 40
1.129937676823774
100
AcDbArc
 50
296.2612183505377
 51
337.0973692464224
  0
LWPOLYLINE
  5
BE2
330
B94
100
AcDbEntity
  8
0
  6
Continuous
 62
     7
370
    15
100
AcDbPolyline
 90
       17
 70
   128
 43
0.0
 10
1991.726770520877
 20
1017.37148916935
 10
1991.726996224917
 20
1017.346010246216
 10
1991.763809637675
 20
1017.149485521681
 10
1991.861819170578
 20
1016.957992510779
 10
1992.018484689325
 20
1016.776491405069
 10
1992.229750217784
 20
1016.609682442252
 10
1992.49014191164
 20
1016.461886796722
 10
1992.792919048378
 20
1016.336930786491
 10
1993.130237377583
 20
1016.238051893977
 10
1993.493361857464
 20
1016.167810353562
 10
1993.872887164495
 20
1016.128025701531
 10
1994.258982440209
 20
1016.11972896597
 10
1994.641650814224
 20
1016.143133709696
 10
1995.010979132066
 20
1016.19763487926
 10
1995.357403753876
 20
1016.281819973751
 10
1995.671949870788
 20
1016.393509920822
 10
1995.946474033405
 20
1016.529810581094
  0
ARC
  5
BE3
330
B94
100
AcDbEntity
  8
0
  6
Continuous
 62
     7
370
    15
100
AcDbCircle
 10
1986.37257906877
 20
1021.683210255351
 30
0.0
 40
1.182946295487069
100
AcDbArc
 50
293.6523228180311
 51
353.5191246950632
  0
LWPOLYLINE
  5
BE4
330
B94
100
AcDbEntity
  8
0
  6
Continuous
 62
     7
370
    15
100
AcDbPolyline
 90
       18
 70
   128
 43
0.0
 10
1981.748352450228
 20
1021.61666331114
 10
1981.760992980818
 20
1021.46952973515
 10
1981.831217692889
 20
1021.255865549369
 10
1981.961481473912
 20
1021.049177084708
 10
1982.149006774729
 20
1020.853870041543
 10
1982.389796866178
 20
1020.674106999742
 10
1982.678720364208
 20
1020.513719081153
 10
1983.009619128283
 20
1020.376124726751
 10
1983.375440211797
 20
1020.264256714631
 10
1983.768387266838
 20
1020.180499103124
 10
1984.180085294145
 20
1020.126637086058
 10
1984.601759372813
 20
1020.103818673335
 10
1985.02442225561
 20
1020.112530307914
 10
1985.439066301916
 20
1020.152585957011
 10
1985.836853145857
 20
1020.223132375917
 10
1986.209304457925
 20
1020.322665947795
 10
1986.548483632967
 20
1020.44906462838
 10
1986.84716019804
 20
1020.599635297285
  0
LWPOLYLINE
  5
BE5
330
B94
100
AcDbEntity
  8
0
  6
Continuous
 62
     7
370
    15
100
AcDbPolyline
 90
       17
 70
   128
 43
0.0
 10
1977.009126641434
 20
1023.736363618352
 10
1977.021766818924
 20
1023.589230200292
 10
1977.091992060644
 20
1023.375565777616
 10
1977.222255488567
 20
1023.168877470885
 10
1977.409780789384
 20
1022.97357042772
 10
1977.650571233933
 20
1022.793807227989
 10
1977.939494731964
 20
1022.6334193094
 10
1978.270393496039
 20
1022.495824954998
 10
1978.636214579553
 20
1022.383956942878
 10
1979.029161634594
 20
1022.300199331371
 10
1979.440859661901
 20
1022.246337314306
 10
1979.862533740569
 20
1022.223518901582
 10
1980.285196623366
 20
1022.232230536161
 10
1980.699840316572
 20
1022.272286343188
 10
1981.097626807413
 20
1022.342832920024
 10
1981.47007882568
 20
1022.442366176042
 10
1981.759101772132
 20
1022.547490173616
  0
ARC
  5
BE6
330
B94
100
AcDbEntity
  8
0
  6
Continuous
 62
     7
370
    15
100
AcDbCircle
 10
2037.570234528615
 20
1000.354685730566
 30
0.0
 40
2.014898216835605
100
AcDbArc
 50
288.6647217712842
 51
311.9075519157189
  0
ELLIPSE
  5
BE7
330
B94
100
AcDbEntity
  8
0
  6
Continuous
 62
     7
370
    15
100
AcDbEllipse
 10
2036.691473767759
 20
990.6313474960279
 30
0.0
 11
1.987931528835559
 21
40.30346810979333
 31
0.0
210
0.0
220
0.0
230
1.0
 40
0.0460110858394978
 41
4.920148048086443
 42
4.947120662363467
  0
LWPOLYLINE
  5
BE8
330
B94
100
AcDbEntity
  8
0
  6
Continuous
 62
     7
370
    15
100
AcDbPolyline
 90
       17
 70
   128
 43
0.0
 10
2035.436009761134
 20
1001.494111446752
 10
2035.777838951081
 20
1001.592176617407
 10
2036.147491331433
 20
1001.660024313579
 10
2036.534956532383
 20
1001.695815869561
 10
2036.929737999754
 20
1001.698582996931
 10
2037.321152601675
 20
1001.668245611927
 10
2037.698584836968
 20
1001.605632262132
 10
2038.051824288091
 20
1001.512432609562
 10
2038.37128991464
 20
1001.391177022913
 10
2038.64834141972
 20
1001.245144633666
 10
2038.875462700945
 20
1001.078295699852
 10
2039.046513418452
 20
1000.895144672544
 10
2039.156850826266
 20
1000.700656504346
 10
2039.20349207979
 20
1000.500096650218
 10
2039.185174261755
 20
1000.298897044579
 10
2039.10239133875
 20
1000.102508579882
 10
2038.957385905263
 20
999.9162504605918
  0
ELLIPSE
  5
BE9
330
B94
100
AcDbEntity
  8
0
  6
Continuous
 62
     7
370
    15
100
AcDbEllipse
 10
2036.691473767759
 20
990.6313474960279
 30
0.0
 11
1.987931528835559
 21
40.30346810979333
 31
0.0
210
0.0
220
0.0
230
1.0
 40
0.0460110858394978
 41
1.30016749848948
 42
1.320375711280165
  0
LWPOLYLINE
  5
BEA
330
B94
100
AcDbEntity
  8
0
  6
Continuous
 62
     7
370
    15
100
AcDbPolyline
 90
       17
 70
   128
 43
0.0
 10
2038.174320751237
 20
999.4589214323502
 10
2037.832497210887
 20
999.3608537348151
 10
2037.462844754649
 20
999.29300599424
 10
2037.075373752329
 20
999.2572168763315
 10
2036.680592512617
 20
999.2544498821706
 10
2036.289177758924
 20
999.2847871783684
 10
2035.911745675403
 20
999.3474006169698
 10
2035.558511873877
 20
999.4405977426607
 10
2035.239040370072
 20
999.5618557229795
 10
2034.961994628419
 20
999.7078856519514
 10
2034.734867583767
 20
999.874737046041
 10
2034.563816942147
 20
1000.057888117751
 10
2034.453479610219
 20
1000.252376330353
 10
2034.406838432581
 20
1000.452936228884
 10
2034.42515617473
 20
1000.65413579012
 10
2034.507939021848
 20
1000.850524210414
 10
2034.652950104933
 20
1001.036779802825
  0
ELLIPSE
  5
BEB
330
B94
100
AcDbEntity
  8
0
  6
Continuous
 62
     7
370
    15
100
AcDbEllipse
 10
2036.691473767759
 20
990.6313474960283
 30
0.0
 11
-1.152120480807084
 21
38.47460495489793
 31
0.0
210
0.0
220
0.0
230
0.9999999999999998
 40
0.0465990315241242
 41
4.915521968398108
 42
4.94249458267513
  0
LINE
  5
BEC
330
B94
100
AcDbEntity
  8
0
  6
Continuous
 62
     7
370
    15
100
AcDbLine
 10
2035.523268182184
 20
1000.040652867234
 30
0.0
 11
2036.129410440771
 21
999.7690522098933
 31
0.0
  0
LINE
  5
BED
330
B94
100
AcDbEntity
  8
0
  6
Continuous
 62
     7
370
    15
100
AcDbLine
 10
2036.129410440771
 20
999.7690522098933
 30
0.0
 11
2036.71670373258
 21
1000.112051552357
 31
0.0
  0
LINE
  5
BEE
330
B94
100
AcDbEntity
  8
0
  6
Continuous
 62
     7
370
    15
100
AcDbLine
 10
2036.71670373258
 20
1000.112051552357
 30
0.0
 11
2038.174320751237
 21
999.4589214323502
 31
0.0
  0
LINE
  5
BEF
330
B94
100
AcDbEntity
  8
0
  6
Continuous
 62
     7
370
    15
100
AcDbLine
 10
2034.652950104933
 20
1001.036779802825
 30
0.0
 11
2036.110561473992
 21
1000.383652209698
 31
0.0
  0
LINE
  5
BF0
330
B94
100
AcDbEntity
  8
0
  6
Continuous
 62
     7
370
    15
100
AcDbLine
 10
2036.110561473992
 20
1000.383652209698
 30
0.0
 11
2035.523268182184
 21
1000.040652867234
 31
0.0
  0
LINE
  5
BF1
330
B94
100
AcDbEntity
  8
0
  6
Continuous
 62
     7
370
    15
100
AcDbLine
 10
2038.916046812821
 20
998.8551510961254
 30
0.0
 11
2038.185570213371
 21
999.1824636483451
 31
0.0
  0
LINE
  5
BF2
330
B94
100
AcDbEntity
  8
0
  6
Continuous
 62
     7
370
    15
100
AcDbLine
 10
2036.453734468476
 20
999.9584659381904
 30
0.0
 11
2036.131509356081
 21
1000.102848806005
 31
0.0
  0
LINE
  5
BF3
330
B94
100
AcDbEntity
  8
0
  6
Continuous
 62
     7
370
    15
100
AcDbLine
 10
2037.453521080969
 20
1000.093831812802
 30
0.0
 11
2037.1512911018
 21
999.9173214701428
 31
0.0
  0
ARC
  5
BF4
330
B94
100
AcDbEntity
  8
0
  6
Continuous
 62
     7
370
    15
100
AcDbCircle
 10
2035.558048433499
 20
992.4657348318348
 30
0.0
 40
1.420364875033573
100
AcDbArc
 50
243.1946949250811
 51
287.3532694263591
  0
LWPOLYLINE
  5
BF5
330
B94
100
AcDbEntity
  8
0
  6
Continuous
 62
     7
370
    15
100
AcDbPolyline
 90
       16
 70
   128
 43
0.0
 10
2033.575091022887
 20
995.2229703354189
 10
2033.546750873463
 20
995.1976270042282
 10
2033.377224897904
 20
994.9986903894922
 10
2033.248202985368
 20
994.7547738083292
 10
2033.163034692575
 20
994.4721901959358
 10
2033.123928386574
 20
994.1582571848037
 10
2033.131886625168
 20
993.821110664828
 10
2033.186714880389
 20
993.4694766842902
 10
2033.286979450259
 20
993.1124690960624
 10
2033.430095304376
 20
992.7593284849159
 10
2033.612357597672
 20
992.4192005792596
 10
2033.829029818887
 20
992.1009014072904
 10
2034.074516946585
 20
991.8126673750444
 10
2034.342454131721
 20
991.5619666734047
 10
2034.62590305784
 20
991.3552917063155
 10
2034.917520427835
 20
991.1979965890621
  0
LINE
  5
BF6
330
B94
100
AcDbEntity
  8
0
  6
Continuous
 62
     7
370
    15
100
AcDbLine
 10
2038.957385905263
 20
999.9162504605918
 30
0.0
 11
2037.499768886606
 21
1000.569380580598
 31
0.0
  0
LINE
  5
BF7
330
B94
100
AcDbEntity
  8
0
  6
Continuous
 62
     7
370
    15
100
AcDbLine
 10
2037.499768886606
 20
1000.569380580598
 30
0.0
 11
2037.424453715843
 21
999.7949221203036
 31
0.0
  0
LINE
  5
BF8
330
B94
100
AcDbEntity
  8
0
  6
Continuous
 62
     7
370
    15
100
AcDbLine
 10
2036.893626779791
 20
1000.840981326745
 30
0.0
 11
2035.436009761134
 21
1001.494111446752
 31
0.0
  0
LINE
  5
BF9
330
B94
100
AcDbEntity
  8
0
  6
Continuous
 62
     7
370
    15
100
AcDbLine
 10
2037.499768886606
 20
1000.569380580598
 30
0.0
 11
2038.087067828012
 21
1000.912377396182
 31
0.0
  0
LINE
  5
BFA
330
B94
100
AcDbEntity
  8
0
  6
Continuous
 62
     7
370
    15
100
AcDbLine
 10
2038.087067828012
 20
1000.912377396182
 30
0.0
 11
2037.480920071599
 21
1001.183980669209
 31
0.0
  0
LINE
  5
BFB
330
B94
100
AcDbEntity
  8
0
  6
Continuous
 62
     7
370
    15
100
AcDbLine
 10
2037.480920071599
 20
1001.183980669209
 30
0.0
 11
2036.893626779791
 21
1000.840981326745
 31
0.0
  0
LINE
  5
BFC
330
B94
100
AcDbEntity
  8
0
  6
Continuous
 62
     7
370
    15
100
AcDbLine
 10
2036.110561473992
 20
1000.383652209698
 30
0.0
 11
2036.155276998841
 21
999.7841600033943
 31
0.0
  0
LINE
  5
BFD
330
B94
100
AcDbEntity
  8
0
  6
Continuous
 62
     7
370
    15
100
AcDbLine
 10
2036.893626779791
 20
1000.840981326745
 30
0.0
 11
2036.889654915186
 21
1000.03455521331
 31
0.0
  0
LINE
  5
BFE
330
B94
100
AcDbEntity
  8
0
  6
Continuous
 62
     7
370
    15
100
AcDbLine
 10
2037.480920071599
 20
1001.183980669209
 30
0.0
 11
2037.476731553806
 21
1000.332457033
 31
0.0
  0
ARC
  5
BFF
330
B94
100
AcDbEntity
  8
0
  6
Continuous
 62
     7
370
    15
100
AcDbCircle
 10
2032.831007483971
 20
1002.474386590532
 30
0.0
 40
2.014898216834889
100
AcDbArc
 50
288.6647217712842
 51
311.9075519157232
  0
ELLIPSE
  5
C00
330
B94
100
AcDbEntity
  8
0
  6
Continuous
 62
     7
370
    15
100
AcDbEllipse
 10
2031.952247853035
 20
992.751047850619
 30
0.0
 11
1.987931528835559
 21
40.30346810979333
 31
0.0
210
0.0
220
0.0
230
1.0
 40
0.0460110858394975
 41
4.920148048086441
 42
4.947120662363465
  0
LWPOLYLINE
  5
C01
330
B94
100
AcDbEntity
  8
0
  6
Continuous
 62
     7
370
    15
100
AcDbPolyline
 90
       17
 70
   128
 43
0.0
 10
2030.69678271649
 20
1003.613812306719
 10
2031.038611906437
 20
1003.711877477374
 10
2031.40826428679
 20
1003.779725173546
 10
2031.795729487739
 20
1003.815516729528
 10
2032.190516604709
 20
1003.818281330018
 10
2032.581925557031
 20
1003.787946471894
 10
2032.959363441922
 20
1003.725330595219
 10
2033.312597243448
 20
1003.632133469529
 10
2033.632062869996
 20
1003.51087788288
 10
2033.909114375076
 20
1003.364845493633
 10
2034.136235656301
 20
1003.197996559819
 10
2034.307286373808
 20
1003.014845532511
 10
2034.417623781622
 20
1002.820357364313
 10
2034.464270684743
 20
1002.619794983305
 10
2034.445947217111
 20
1002.418597904546
 10
2034.363164294106
 20
1002.222209439849
 10
2034.218158860619
 20
1002.035951320558
  0
ELLIPSE
  5
C02
330
B94
100
AcDbEntity
  8
0
  6
Continuous
 62
     7
370
    15
100
AcDbEllipse
 10
2031.952247853035
 20
992.751047850619
 30
0.0
 11
1.987931528835559
 21
40.30346810979333
 31
0.0
210
0.0
220
0.0
230
1.0
 40
0.0460110858394975
 41
1.300167498489485
 42
1.320375711280169
  0
LWPOLYLINE
  5
C03
330
B94
100
AcDbEntity
  8
0
  6
Continuous
 62
     7
370
    15
100
AcDbPolyline
 90
       17
 70
   128
 43
0.0
 10
2033.435093706593
 20
1001.578622292317
 10
2033.093270166244
 20
1001.480554594782
 10
2032.723617710005
 20
1001.412706854207
 10
2032.336152357283
 20
1001.376915209418
 10
2031.941365467972
 20
1001.374150742138
 10
2031.549956363877
 20
1001.404485511455
 10
2031.172518630759
 20
1001.467101476936
 10
2030.819284829233
 20
1001.560298602627
 10
2030.499813325429
 20
1001.681556582946
 10
2030.222767583775
 20
1001.827586511918
 10
2029.995640539123
 20
1001.994437906008
 10
2029.824595547101
 20
1002.177586450839
 10
2029.714252565575
 20
1002.37207719032
 10
2029.667611387937
 20
1002.572637088851
 10
2029.685929130086
 20
1002.773836650087
 10
2029.768717626802
 20
1002.970222543501
 10
2029.913723060289
 20
1003.156480662791
  0
ELLIPSE
  5
C04
330
B94
100
AcDbEntity
  8
0
  6
Continuous
 62
     7
370
    15
100
AcDbEllipse
 10
2031.952247853035
 20
992.7510478506192
 30
0.0
 11
-1.152120480807056
 21
38.47460495489793
 31
0.0
210
0.0
220
0.0
230
0.9999999999999998
 40
0.0465990315241234
 41
4.915521968398104
 42
4.942494582675124
  0
LINE
  5
C05
330
B94
100
AcDbEntity
  8
0
  6
Continuous
 62
     7
370
    15
100
AcDbLine
 10
2030.784041137541
 20
1002.160353727201
 30
0.0
 11
2031.390183396128
 21
1001.88875306986
 31
0.0
  0
LINE
  5
C06
330
B94
100
AcDbEntity
  8
0
  6
Continuous
 62
     7
370
    15
100
AcDbLine
 10
2031.390183396128
 20
1001.88875306986
 30
0.0
 11
2031.977482337534
 21
1002.231749885444
 31
0.0
  0
LINE
  5
C07
330
B94
100
AcDbEntity
  8
0
  6
Continuous
 62
     7
370
    15
100
AcDbLine
 10
2031.977482337534
 20
1002.231749885444
 30
0.0
 11
2033.435093706593
 21
1001.578622292317
 31
0.0
  0
LINE
  5
C08
330
B94
100
AcDbEntity
  8
0
  6
Continuous
 62
     7
370
    15
100
AcDbLine
 10
2029.913723060289
 20
1003.156480662791
 30
0.0
 11
2031.371334429349
 21
1002.503353069664
 31
0.0
  0
LINE
  5
C09
330
B94
100
AcDbEntity
  8
0
  6
Continuous
 62
     7
370
    15
100
AcDbLine
 10
2031.371334429349
 20
1002.503353069664
 30
0.0
 11
2030.784041137541
 21
1002.160353727201
 31
0.0
  0
LINE
  5
C0A
330
B94
100
AcDbEntity
  8
0
  6
Continuous
 62
     7
370
    15
100
AcDbLine
 10
2034.176819768177
 20
1000.974851956092
 30
0.0
 11
2033.446343168727
 21
1001.302164508312
 31
0.0
  0
LINE
  5
C0B
330
B94
100
AcDbEntity
  8
0
  6
Continuous
 62
     7
370
    15
100
AcDbLine
 10
2031.714507423833
 20
1002.078166798157
 30
0.0
 11
2031.392282311437
 21
1002.222549665972
 31
0.0
  0
LINE
  5
C0C
330
B94
100
AcDbEntity
  8
0
  6
Continuous
 62
     7
370
    15
100
AcDbLine
 10
2032.714299685923
 20
1002.213530145889
 30
0.0
 11
2032.412069706754
 21
1002.03701980323
 31
0.0
  0
ARC
  5
C0D
330
B94
100
AcDbEntity
  8
0
  6
Continuous
 62
     7
370
    15
100
AcDbCircle
 10
2030.818821388856
 20
994.5854356918017
 30
0.0
 40
1.420364875033636
100
AcDbArc
 50
243.1946949250811
 51
287.3532694263591
  0
LWPOLYLINE
  5
C0E
330
B94
100
AcDbEntity
  8
0
  6
Continuous
 62
     7
370
    15
100
AcDbPolyline
 90
       16
 70
   128
 43
0.0
 10
2028.835863978243
 20
997.3426711953859
 10
2028.807529478416
 20
997.3173253373152
 10
2028.637997853261
 20
997.118391249459
 10
2028.508981590322
 20
996.8744721414164
 10
2028.423813297529
 20
996.591888529023
 10
2028.38470134193
 20
996.2779580447707
 10
2028.392659580525
 20
995.9408115247949
 10
2028.447487835745
 20
995.5891775442571
 10
2028.547758055213
 20
995.2321674291495
 10
2028.690873909329
 20
994.8790268180029
 10
2028.873130553028
 20
994.5389014392265
 10
2029.089808423841
 20
994.2205997403775
 10
2029.335295551538
 20
993.9323657081315
 10
2029.603227087077
 20
993.6816675333716
 10
2029.886676013196
 20
993.4749925662824
 10
2030.178293383191
 20
993.317697449029
  0
LINE
  5
C0F
330
B94
100
AcDbEntity
  8
0
  6
Continuous
 62
     7
370
    15
100
AcDbLine
 10
2034.218158860619
 20
1002.035951320558
 30
0.0
 11
2032.760541841962
 21
1002.689081440565
 31
0.0
  0
LINE
  5
C10
330
B94
100
AcDbEntity
  8
0
  6
Continuous
 62
     7
370
    15
100
AcDbLine
 10
2032.760541841962
 20
1002.689081440565
 30
0.0
 11
2032.685232320797
 21
1001.914620453391
 31
0.0
  0
LINE
  5
C11
330
B94
100
AcDbEntity
  8
0
  6
Continuous
 62
     7
370
    15
100
AcDbLine
 10
2032.154399735147
 20
1002.960682186712
 30
0.0
 11
2030.69678271649
 21
1003.613812306719
 31
0.0
  0
LINE
  5
C12
330
B94
100
AcDbEntity
  8
0
  6
Continuous
 62
     7
370
    15
100
AcDbLine
 10
2032.760541841962
 20
1002.689081440565
 30
0.0
 11
2033.347840783368
 21
1003.032078256149
 31
0.0
  0
LINE
  5
C13
330
B94
100
AcDbEntity
  8
0
  6
Continuous
 62
     7
370
    15
100
AcDbLine
 10
2033.347840783368
 20
1003.032078256149
 30
0.0
 11
2032.741698676553
 21
1003.303679002296
 31
0.0
  0
LINE
  5
C14
330
B94
100
AcDbEntity
  8
0
  6
Continuous
 62
     7
370
    15
100
AcDbLine
 10
2032.741698676553
 20
1003.303679002296
 30
0.0
 11
2032.154399735147
 21
1002.960682186712
 31
0.0
  0
LINE
  5
C15
330
B94
100
AcDbEntity
  8
0
  6
Continuous
 62
     7
370
    15
100
AcDbLine
 10
2031.371334429349
 20
1002.503353069664
 30
0.0
 11
2031.416049954197
 21
1001.903860863361
 31
0.0
  0
LINE
  5
C16
330
B94
100
AcDbEntity
  8
0
  6
Continuous
 62
     7
370
    15
100
AcDbLine
 10
2032.154399735147
 20
1002.960682186712
 30
0.0
 11
2032.150427870543
 21
1002.154256073278
 31
0.0
  0
LINE
  5
C17
330
B94
100
AcDbEntity
  8
0
  6
Continuous
 62
     7
370
    15
100
AcDbLine
 10
2032.741698676553
 20
1003.303679002296
 30
0.0
 11
2032.737504509162
 21
1002.452157892967
 31
0.0
  0
ARC
  5
C18
330
B94
100
AcDbEntity
  8
0
  6
Continuous
 62
     7
370
    15
100
AcDbCircle
 10
2028.091688720709
 20
1004.594251641941
 30
0.0
 40
2.015087328122387
100
AcDbArc
 50
288.6658276189647
 51
311.9064460680367
  0
ELLIPSE
  5
C19
330
B94
100
AcDbEntity
  8
0
  6
Continuous
 62
     7
370
    15
100
AcDbEllipse
 10
2027.213021938311
 20
994.87074820521
 30
0.0
 11
1.987931528835531
 21
40.30346810979333
 31
0.0
210
0.0
220
0.0
230
1.0
 40
0.0460110858394975
 41
4.920148048086444
 42
4.947120662363467
  0
LWPOLYLINE
  5
C1A
330
B94
100
AcDbEntity
  8
0
  6
Continuous
 62
     7
370
    15
100
AcDbPolyline
 90
       17
 70
   128
 43
0.0
 10
2025.957561321444
 20
1005.733510639806
 10
2026.299384861793
 20
1005.831578337341
 10
2026.669037242146
 20
1005.899426033513
 10
2027.056502443096
 20
1005.935217589495
 10
2027.451289560065
 20
1005.937982189985
 10
2027.842698512388
 20
1005.907647331861
 10
2028.220136397278
 20
1005.845031455186
 10
2028.573370198804
 20
1005.751834329495
 10
2028.89284147495
 20
1005.630576215967
 10
2029.169887330432
 20
1005.4845463536
 10
2029.397014261255
 20
1005.317694892906
 10
2029.568059329164
 20
1005.134546392478
 10
2029.678402386576
 20
1004.9400556974
 10
2029.7250436401
 20
1004.739495843272
 10
2029.706720172468
 20
1004.538298764513
 10
2029.623937249462
 20
1004.341910299816
 10
2029.478931815976
 20
1004.155652180525
  0
ELLIPSE
  5
C1B
330
B94
100
AcDbEntity
  8
0
  6
Continuous
 62
     7
370
    15
100
AcDbEllipse
 10
2027.213021938311
 20
994.87074820521
 30
0.0
 11
1.987931528835531
 21
40.30346810979333
 31
0.0
210
0.0
220
0.0
230
1.0
 40
0.0460110858394975
 41
1.300167498489483
 42
1.320375711280168
  0
LWPOLYLINE
  5
C1C
330
B94
100
AcDbEntity
  8
0
  6
Continuous
 62
     7
370
    15
100
AcDbPolyline
 90
       17
 70
   128
 43
0.0
 10
2028.69586666195
 20
1003.698323152284
 10
2028.3540431216
 20
1003.600255454749
 10
2027.984390665361
 20
1003.532407714174
 10
2027.596925312639
 20
1003.496616069385
 10
2027.202138423329
 20
1003.493851602104
 10
2026.810729319233
 20
1003.524186371422
 10
2026.433291586116
 20
1003.586802336903
 10
2026.080057784589
 20
1003.679999462594
 10
2025.760586280785
 20
1003.801257442913
 10
2025.483540539132
 20
1003.947287371885
 10
2025.25641349448
 20
1004.114138765975
 10
2025.085368502457
 20
1004.297287310806
 10
2024.975025520932
 20
1004.491778050286
 10
2024.928384343294
 20
1004.692337948818
 10
2024.94670773504
 20
1004.893534983174
 10
2025.029490582158
 20
1005.089923403468
 10
2025.174496015646
 20
1005.276181522758
  0
ELLIPSE
  5
C1D
330
B94
100
AcDbEntity
  8
0
  6
Continuous
 62
     7
370
    15
100
AcDbEllipse
 10
2027.213021938311
 20
994.8707482052101
 30
0.0
 11
-1.15212048080707
 21
38.47460495489793
 31
0.0
210
0.0
220
0.0
230
0.9999999999999998
 40
0.0465990315241242
 41
4.915521968398108
 42
4.94249458267513
  0
LINE
  5
C1E
330
B94
100
AcDbEntity
  8
0
  6
Continuous
 62
     7
370
    15
100
AcDbLine
 10
2026.044814092896
 20
1004.280054587168
 30
0.0
 11
2026.650956351484
 21
1004.008453929827
 31
0.0
  0
LINE
  5
C1F
330
B94
100
AcDbEntity
  8
0
  6
Continuous
 62
     7
370
    15
100
AcDbLine
 10
2026.650956351484
 20
1004.008453929827
 30
0.0
 11
2027.23825529289
 21
1004.351450745411
 31
0.0
  0
LINE
  5
C20
330
B94
100
AcDbEntity
  8
0
  6
Continuous
 62
     7
370
    15
100
AcDbLine
 10
2027.23825529289
 20
1004.351450745411
 30
0.0
 11
2028.69586666195
 21
1003.698323152284
 31
0.0
  0
LINE
  5
C21
330
B94
100
AcDbEntity
  8
0
  6
Continuous
 62
     7
370
    15
100
AcDbLine
 10
2025.174496015646
 20
1005.276181522758
 30
0.0
 11
2026.632113034303
 21
1004.623051402752
 31
0.0
  0
LINE
  5
C22
330
B94
100
AcDbEntity
  8
0
  6
Continuous
 62
     7
370
    15
100
AcDbLine
 10
2026.632113034303
 20
1004.623051402752
 30
0.0
 11
2026.044814092896
 21
1004.280054587168
 31
0.0
  0
LINE
  5
C23
330
B94
100
AcDbEntity
  8
0
  6
Continuous
 62
     7
370
    15
100
AcDbLine
 10
2029.437598373131
 20
1003.094550289179
 30
0.0
 11
2028.707121773681
 21
1003.421862841399
 31
0.0
  0
LINE
  5
C24
330
B94
100
AcDbEntity
  8
0
  6
Continuous
 62
     7
370
    15
100
AcDbLine
 10
2026.975280379189
 20
1004.197867658124
 30
0.0
 11
2026.653055266793
 21
1004.342250525938
 31
0.0
  0
LINE
  5
C25
330
B94
100
AcDbEntity
  8
0
  6
Continuous
 62
     7
370
    15
100
AcDbLine
 10
2027.975072641279
 20
1004.333231005856
 30
0.0
 11
2027.67284266211
 21
1004.156720663197
 31
0.0
  0
ARC
  5
C26
330
B94
100
AcDbEntity
  8
0
  6
Continuous
 62
     7
370
    15
100
AcDbCircle
 10
2026.079593995767
 20
996.70512761639
 30
0.0
 40
1.420356450289718
100
AcDbArc
 50
243.1947943018306
 51
287.3533903495192
  0
LWPOLYLINE
  5
C27
330
B94
100
AcDbEntity
  8
0
  6
Continuous
 62
     7
370
    15
100
AcDbPolyline
 90
       16
 70
   128
 43
0.0
 10
2024.096642583197
 20
999.4623695284731
 10
2024.068302433772
 20
999.4370261972822
 10
2023.898770808617
 20
999.2380921094259
 10
2023.769754545678
 20
998.9941730013834
 10
2023.684586252885
 20
998.71158938899
 10
2023.645474297286
 20
998.3976589047376
 10
2023.653438185478
 20
998.0605098578822
 10
2023.708260791102
 20
997.7088784042241
 10
2023.808531010569
 20
997.3518682891166
 10
2023.951646864685
 20
996.9987276779699
 10
2024.133903508384
 20
996.6586022991934
 10
2024.350581379197
 20
996.3403006003444
 10
2024.596068506895
 20
996.0520665680986
 10
2024.864005692031
 20
995.8013658664588
 10
2025.147448968553
 20
995.5946934262495
 10
2025.439071988145
 20
995.4373957821163
  0
LINE
  5
C28
330
B94
100
AcDbEntity
  8
0
  6
Continuous
 62
     7
370
    15
100
AcDbLine
 10
2029.478931815976
 20
1004.155652180525
 30
0.0
 11
2028.021314797319
 21
1004.808782300532
 31
0.0
  0
LINE
  5
C29
330
B94
100
AcDbEntity
  8
0
  6
Continuous
 62
     7
370
    15
100
AcDbLine
 10
2028.021314797319
 20
1004.808782300532
 30
0.0
 11
2027.946005276153
 21
1004.034321313358
 31
0.0
  0
LINE
  5
C2A
330
B94
100
AcDbEntity
  8
0
  6
Continuous
 62
     7
370
    15
100
AcDbLine
 10
2027.415172690504
 20
1005.080383046679
 30
0.0
 11
2025.957561321444
 21
1005.733510639806
 31
0.0
  0
LINE
  5
C2B
330
B94
100
AcDbEntity
  8
0
  6
Continuous
 62
     7
370
    15
100
AcDbLine
 10
2028.021314797319
 20
1004.808782300532
 30
0.0
 11
2028.608613738724
 21
1005.151779116116
 31
0.0
  0
LINE
  5
C2C
330
B94
100
AcDbEntity
  8
0
  6
Continuous
 62
     7
370
    15
100
AcDbLine
 10
2028.608613738724
 20
1005.151779116116
 30
0.0
 11
2028.002471631909
 21
1005.423379862263
 31
0.0
  0
LINE
  5
C2D
330
B94
100
AcDbEntity
  8
0
  6
Continuous
 62
     7
370
    15
100
AcDbLine
 10
2028.002471631909
 20
1005.423379862263
 30
0.0
 11
2027.415172690504
 21
1005.080383046679
 31
0.0
  0
LINE
  5
C2E
330
B94
100
AcDbEntity
  8
0
  6
Continuous
 62
     7
370
    15
100
AcDbLine
 10
2026.632113034303
 20
1004.623051402752
 30
0.0
 11
2026.676822909553
 21
1004.023561723328
 31
0.0
  0
LINE
  5
C2F
330
B94
100
AcDbEntity
  8
0
  6
Continuous
 62
     7
370
    15
100
AcDbLine
 10
2027.415172690504
 20
1005.080383046679
 30
0.0
 11
2027.411200825898
 21
1004.273956933244
 31
0.0
  0
LINE
  5
C30
330
B94
100
AcDbEntity
  8
0
  6
Continuous
 62
     7
370
    15
100
AcDbLine
 10
2028.002471631909
 20
1005.423379862263
 30
0.0
 11
2027.998277464519
 21
1004.571858752934
 31
0.0
  0
ARC
  5
C31
330
B94
100
AcDbEntity
  8
0
  6
Continuous
 62
     7
370
    15
100
AcDbCircle
 10
2023.352461676065
 20
1006.713952501909
 30
0.0
 40
2.015087328123552
100
AcDbArc
 50
288.6658276189668
 51
311.9064460680226
  0
ELLIPSE
  5
C32
330
B94
100
AcDbEntity
  8
0
  6
Continuous
 62
     7
370
    15
100
AcDbEllipse
 10
2022.473796023586
 20
996.9904485598011
 30
0.0
 11
1.987931528835545
 21
40.30346810979327
 31
0.0
210
0.0
220
0.0
230
1.0
 40
0.0460110858394973
 41
4.92014804808644
 42
4.947120662363465
  0
LWPOLYLINE
  5
C33
330
B94
100
AcDbEntity
  8
0
  6
Continuous
 62
     7
370
    15
100
AcDbPolyline
 90
       17
 70
   128
 43
0.0
 10
2021.2183342768
 20
1007.853211499773
 10
2021.560160641948
 20
1007.951277933868
 10
2021.929810197502
 20
1008.01912689348
 10
2022.317278223251
 20
1008.054917186022
 10
2022.712062515421
 20
1008.057683049952
 10
2023.103474292542
 20
1008.027346928388
 10
2023.480909352634
 20
1007.964732315153
 10
2023.83414315416
 20
1007.871535189462
 10
2024.153614430306
 20
1007.750277075935
 10
2024.430663110587
 20
1007.604245950127
 10
2024.657787216611
 20
1007.437395752873
 10
2024.828832284521
 20
1007.254247252445
 10
2024.939175341932
 20
1007.059756557367
 10
2024.985816595456
 20
1006.859196703239
 10
2024.967498777422
 20
1006.6579970976
 10
2024.884710204819
 20
1006.461611159783
 10
2024.739704771332
 20
1006.275353040492
  0
ELLIPSE
  5
C34
330
B94
100
AcDbEntity
  8
0
  6
Continuous
 62
     7
370
    15
100
AcDbEllipse
 10
2022.473796023586
 20
996.9904485598011
 30
0.0
 11
1.987931528835545
 21
40.30346810979327
 31
0.0
210
0.0
220
0.0
230
1.0
 40
0.0460110858394973
 41
1.300167498489488
 42
1.320375711280172
  0
LWPOLYLINE
  5
C35
330
B94
100
AcDbEntity
  8
0
  6
Continuous
 62
     7
370
    15
100
AcDbPolyline
 90
       17
 70
   128
 43
0.0
 10
2023.956645266903
 20
1005.818021485371
 10
2023.614816076956
 20
1005.719956314716
 10
2023.245163620718
 20
1005.652108574141
 10
2022.857698267995
 20
1005.616316929352
 10
2022.462911378685
 20
1005.613552462071
 10
2022.07150227459
 20
1005.643887231389
 10
2021.69406736627
 20
1005.70650193343
 10
2021.340830739946
 20
1005.799700322561
 10
2021.02136206094
 20
1005.92095703944
 10
2020.744313494488
 20
1006.066988231852
 10
2020.517189274635
 20
1006.233838362502
 10
2020.346141457813
 20
1006.416988170772
 10
2020.235801301087
 20
1006.611477646814
 10
2020.189160123448
 20
1006.812037545345
 10
2020.207480690396
 20
1007.013235843141
 10
2020.290263537515
 20
1007.209624263435
 10
2020.4352717958
 20
1007.395881119285
  0
ELLIPSE
  5
C36
330
B94
100
AcDbEntity
  8
0
  6
Continuous
 62
     7
370
    15
100
AcDbEllipse
 10
2022.473796023586
 20
996.9904485598013
 30
0.0
 11
-1.152120480807084
 21
38.47460495489798
 31
0.0
210
0.0
220
0.0
230
0.9999999999999998
 40
0.0465990315241241
 41
4.915521968398107
 42
4.942494582675129
  0
LINE
  5
C37
330
B94
100
AcDbEntity
  8
0
  6
Continuous
 62
     7
370
    15
100
AcDbLine
 10
2021.305587048253
 20
1006.399755447135
 30
0.0
 11
2021.911732131639
 21
1006.128153526354
 31
0.0
  0
LINE
  5
C38
330
B94
100
AcDbEntity
  8
0
  6
Continuous
 62
     7
370
    15
100
AcDbLine
 10
2021.911732131639
 20
1006.128153526354
 30
0.0
 11
2022.499028248246
 21
1006.471151605378
 31
0.0
  0
LINE
  5
C39
330
B94
100
AcDbEntity
  8
0
  6
Continuous
 62
     7
370
    15
100
AcDbLine
 10
2022.499028248246
 20
1006.471151605378
 30
0.0
 11
2023.956645266903
 21
1005.818021485371
 31
0.0
  0
LINE
  5
C3A
330
B94
100
AcDbEntity
  8
0
  6
Continuous
 62
     7
370
    15
100
AcDbLine
 10
2020.4352717958
 20
1007.395881119285
 30
0.0
 11
2021.892885989659
 21
1006.742752262719
 31
0.0
  0
LINE
  5
C3B
330
B94
100
AcDbEntity
  8
0
  6
Continuous
 62
     7
370
    15
100
AcDbLine
 10
2021.892885989659
 20
1006.742752262719
 30
0.0
 11
2021.305587048253
 21
1006.399755447135
 31
0.0
  0
LINE
  5
C3C
330
B94
100
AcDbEntity
  8
0
  6
Continuous
 62
     7
370
    15
100
AcDbLine
 10
2024.698371328487
 20
1005.214251149146
 30
0.0
 11
2023.967894729037
 21
1005.541563701366
 31
0.0
  0
LINE
  5
C3D
330
B94
100
AcDbEntity
  8
0
  6
Continuous
 62
     7
370
    15
100
AcDbLine
 10
2022.236056159344
 20
1006.317567254651
 30
0.0
 11
2021.91382822215
 21
1006.461951385905
 31
0.0
  0
LINE
  5
C3E
330
B94
100
AcDbEntity
  8
0
  6
Continuous
 62
     7
370
    15
100
AcDbLine
 10
2023.235845596635
 20
1006.452931865823
 30
0.0
 11
2022.933615617466
 21
1006.276421523164
 31
0.0
  0
ARC
  5
C3F
330
B94
100
AcDbEntity
  8
0
  6
Continuous
 62
     7
370
    15
100
AcDbCircle
 10
2021.340364656071
 20
998.8248030754276
 30
0.0
 40
1.420332890093304
100
AcDbArc
 50
243.1942901626694
 51
287.3537843384203
  0
LWPOLYLINE
  5
C40
330
B94
100
AcDbEntity
  8
0
  6
Continuous
 62
     7
370
    15
100
AcDbPolyline
 90
       16
 70
   128
 43
0.0
 10
2019.357412713754
 20
1001.58207165188
 10
2019.329075389129
 20
1001.556727057249
 10
2019.159546588772
 20
1001.357791705953
 10
2019.030527501034
 20
1001.11387386135
 10
2018.945359208242
 20
1000.831290248957
 10
2018.906250077441
 20
1000.517358501264
 10
2018.914211140835
 20
1000.180210717849
 10
2018.969033746458
 20
999.828579264191
 10
2019.069303965926
 20
999.4715691490833
 10
2019.212419820041
 20
999.1184285379368
 10
2019.39467646374
 20
998.7783031591604
 10
2019.611354334553
 20
998.4600014603115
 10
2019.856841462251
 20
998.1717674280654
 10
2020.124778647387
 20
997.9210667264258
 10
2020.408224748707
 20
997.7143930227766
 10
2020.699842118702
 20
997.5570979055232
  0
LINE
  5
C41
330
B94
100
AcDbEntity
  8
0
  6
Continuous
 62
     7
370
    15
100
AcDbLine
 10
2024.739704771332
 20
1006.275353040492
 30
0.0
 11
2023.282090577473
 21
1006.928481897059
 31
0.0
  0
LINE
  5
C42
330
B94
100
AcDbEntity
  8
0
  6
Continuous
 62
     7
370
    15
100
AcDbLine
 10
2023.282090577473
 20
1006.928481897059
 30
0.0
 11
2023.206778231509
 21
1006.154022173324
 31
0.0
  0
LINE
  5
C43
330
B94
100
AcDbEntity
  8
0
  6
Continuous
 62
     7
370
    15
100
AcDbLine
 10
2022.675948470658
 20
1007.200082643206
 30
0.0
 11
2021.2183342768
 21
1007.853211499773
 31
0.0
  0
LINE
  5
C44
330
B94
100
AcDbEntity
  8
0
  6
Continuous
 62
     7
370
    15
100
AcDbLine
 10
2023.282090577473
 20
1006.928481897059
 30
0.0
 11
2023.86938669408
 21
1007.271479976083
 31
0.0
  0
LINE
  5
C45
330
B94
100
AcDbEntity
  8
0
  6
Continuous
 62
     7
370
    15
100
AcDbLine
 10
2023.86938669408
 20
1007.271479976083
 30
0.0
 11
2023.263244587266
 21
1007.54308072223
 31
0.0
  0
LINE
  5
C46
330
B94
100
AcDbEntity
  8
0
  6
Continuous
 62
     7
370
    15
100
AcDbLine
 10
2023.263244587266
 20
1007.54308072223
 30
0.0
 11
2022.675948470658
 21
1007.200082643206
 31
0.0
  0
LINE
  5
C47
330
B94
100
AcDbEntity
  8
0
  6
Continuous
 62
     7
370
    15
100
AcDbLine
 10
2021.892885989659
 20
1006.742752262719
 30
0.0
 11
2021.937598689708
 21
1006.143261319855
 31
0.0
  0
LINE
  5
C48
330
B94
100
AcDbEntity
  8
0
  6
Continuous
 62
     7
370
    15
100
AcDbLine
 10
2022.675948470658
 20
1007.200082643206
 30
0.0
 11
2022.671976606054
 21
1006.393656529771
 31
0.0
  0
LINE
  5
C49
330
B94
100
AcDbEntity
  8
0
  6
Continuous
 62
     7
370
    15
100
AcDbLine
 10
2023.263244587266
 20
1007.54308072223
 30
0.0
 11
2023.259050419875
 21
1006.691559612901
 31
0.0
  0
ARC
  5
C4A
330
B94
100
AcDbEntity
  8
0
  6
Continuous
 62
     7
370
    15
100
AcDbCircle
 10
2018.613283319031
 20
1008.833569996719
 30
0.0
 40
2.014992765583741
100
AcDbArc
 50
288.6652746812973
 51
311.9069990057008
  0
ELLIPSE
  5
C4B
330
B94
100
AcDbEntity
  8
0
  6
Continuous
 62
     7
370
    15
100
AcDbEllipse
 10
2017.734570108862
 20
999.110148914392
 30
0.0
 11
1.987931528835559
 21
40.30346810979333
 31
0.0
210
0.0
220
0.0
230
1.0
 40
0.0460110858394975
 41
4.920148048086442
 42
4.947120662363463
  0
LWPOLYLINE
  5
C4C
330
B94
100
AcDbEntity
  8
0
  6
Continuous
 62
     7
370
    15
100
AcDbPolyline
 90
       17
 70
   128
 43
0.0
 10
2016.479107232156
 20
1009.97291235974
 10
2016.820933597305
 20
1010.070978793835
 10
2017.190585977657
 20
1010.138826490007
 10
2017.578051178607
 20
1010.174618045989
 10
2017.972838295576
 20
1010.177382646479
 10
2018.364247247899
 20
1010.147047788355
 10
2018.74168230799
 20
1010.08443317512
 10
2019.094918934316
 20
1009.99123478599
 10
2019.414387385662
 20
1009.869977935901
 10
2019.691436065944
 20
1009.723946810094
 10
2019.918560171968
 20
1009.55709661284
 10
2020.089608064675
 20
1009.373946848972
 10
2020.199948297288
 20
1009.179457417334
 10
2020.246589550812
 20
1008.978897563206
 10
2020.228271732777
 20
1008.777697957567
 10
2020.145485984974
 20
1008.58131075631
 10
2020.000480551487
 20
1008.395052637019
  0
ELLIPSE
  5
C4D
330
B94
100
AcDbEntity
  8
0
  6
Continuous
 62
     7
370
    15
100
AcDbEllipse
 10
2017.734570108862
 20
999.110148914392
 30
0.0
 11
1.987931528835559
 21
40.30346810979333
 31
0.0
210
0.0
220
0.0
230
1.0
 40
0.0460110858394975
 41
1.300167498489482
 42
1.320375711280171
  0
LWPOLYLINE
  5
C4E
330
B94
100
AcDbEntity
  8
0
  6
Continuous
 62
     7
370
    15
100
AcDbPolyline
 90
       17
 70
   128
 43
0.0
 10
2019.217418222259
 20
1007.937722345338
 10
2018.875591857111
 20
1007.839655911243
 10
2018.505939400873
 20
1007.771808170668
 10
2018.118471223351
 20
1007.736017789319
 10
2017.72368715884
 20
1007.733252058598
 10
2017.332275229946
 20
1007.763588091356
 10
2016.954840321627
 20
1007.826202793397
 10
2016.601606520101
 20
1007.919399919088
 10
2016.282137841095
 20
1008.040656635967
 10
2016.005089274643
 20
1008.186687828379
 10
2015.77796505479
 20
1008.353537959029
 10
2015.606914413169
 20
1008.536689030739
 10
2015.496577081242
 20
1008.73117724334
 10
2015.449933078805
 20
1008.931738405312
 10
2015.468253645752
 20
1009.132936703108
 10
2015.551036492871
 20
1009.329325123402
 10
2015.696044751157
 20
1009.515581979252
  0
ELLIPSE
  5
C4F
330
B94
100
AcDbEntity
  8
0
  6
Continuous
 62
     7
370
    15
100
AcDbEllipse
 10
2017.734570108862
 20
999.1101489143924
 30
0.0
 11
-1.15212048080707
 21
38.47460495489793
 31
0.0
210
0.0
220
0.0
230
0.9999999999999998
 40
0.0465990315241238
 41
4.915521968398107
 42
4.942494582675127
  0
LINE
  5
C50
330
B94
100
AcDbEntity
  8
0
  6
Continuous
 62
     7
370
    15
100
AcDbLine
 10
2016.566362828408
 20
1008.519455043662
 30
0.0
 11
2017.172505086996
 21
1008.247854386321
 31
0.0
  0
LINE
  5
C51
330
B94
100
AcDbEntity
  8
0
  6
Continuous
 62
     7
370
    15
100
AcDbLine
 10
2017.172505086996
 20
1008.247854386321
 30
0.0
 11
2017.759801203602
 21
1008.590852465345
 31
0.0
  0
LINE
  5
C52
330
B94
100
AcDbEntity
  8
0
  6
Continuous
 62
     7
370
    15
100
AcDbLine
 10
2017.759801203602
 20
1008.590852465345
 30
0.0
 11
2019.217418222259
 21
1007.937722345338
 31
0.0
  0
LINE
  5
C53
330
B94
100
AcDbEntity
  8
0
  6
Continuous
 62
     7
370
    15
100
AcDbLine
 10
2015.696044751157
 20
1009.515581979252
 30
0.0
 11
2017.153658945015
 21
1008.862453122685
 31
0.0
  0
LINE
  5
C54
330
B94
100
AcDbEntity
  8
0
  6
Continuous
 62
     7
370
    15
100
AcDbLine
 10
2017.153658945015
 20
1008.862453122685
 30
0.0
 11
2016.566362828408
 21
1008.519455043662
 31
0.0
  0
LINE
  5
C55
330
B94
100
AcDbEntity
  8
0
  6
Continuous
 62
     7
370
    15
100
AcDbLine
 10
2019.959144283843
 20
1007.333952009113
 30
0.0
 11
2019.228667684393
 21
1007.661264561333
 31
0.0
  0
LINE
  5
C56
330
B94
100
AcDbEntity
  8
0
  6
Continuous
 62
     7
370
    15
100
AcDbLine
 10
2017.4968291147
 20
1008.437268114618
 30
0.0
 11
2017.174604002305
 21
1008.581650982432
 31
0.0
  0
LINE
  5
C57
330
B94
100
AcDbEntity
  8
0
  6
Continuous
 62
     7
370
    15
100
AcDbLine
 10
2018.496618551992
 20
1008.57263272579
 30
0.0
 11
2018.194391397621
 21
1008.396121119691
 31
0.0
  0
ARC
  5
C58
330
B94
100
AcDbEntity
  8
0
  6
Continuous
 62
     7
370
    15
100
AcDbCircle
 10
2016.60114247787
 20
1000.944527367911
 30
0.0
 40
1.42035585298752
100
AcDbArc
 50
243.1946659125982
 51
287.3534085884813
  0
LWPOLYLINE
  5
C59
330
B94
100
AcDbEntity
  8
0
  6
Continuous
 62
     7
370
    15
100
AcDbPolyline
 90
       16
 70
   128
 43
0.0
 10
2014.618188493909
 20
1003.701771248407
 10
2014.589848344485
 20
1003.676427917216
 10
2014.420319544129
 20
1003.47749256592
 10
2014.29130045639
 20
1003.233574721317
 10
2014.206134988397
 20
1002.950989845484
 10
2014.167023032797
 20
1002.637059361231
 10
2014.174984096191
 20
1002.299911577816
 10
2014.229809526613
 20
1001.948278860718
 10
2014.330076921281
 20
1001.59127000905
 10
2014.473195600197
 20
1001.238128134464
 10
2014.655452243895
 20
1000.898002755687
 10
2014.872130114709
 20
1000.579701056838
 10
2015.117614417607
 20
1000.291468288032
 10
2015.385551602744
 20
1000.040767586392
 10
2015.669000528862
 20
999.8340926193035
 10
2015.960617898857
 20
999.6767975020501
  0
LINE
  5
C5A
330
B94
100
AcDbEntity
  8
0
  6
Continuous
 62
     7
370
    15
100
AcDbLine
 10
2020.000480551487
 20
1008.395052637019
 30
0.0
 11
2018.54286353283
 21
1009.048182757026
 31
0.0
  0
LINE
  5
C5B
330
B94
100
AcDbEntity
  8
0
  6
Continuous
 62
     7
370
    15
100
AcDbLine
 10
2018.54286353283
 20
1009.048182757026
 30
0.0
 11
2018.467551186866
 21
1008.273723033291
 31
0.0
  0
LINE
  5
C5C
330
B94
100
AcDbEntity
  8
0
  6
Continuous
 62
     7
370
    15
100
AcDbLine
 10
2017.936721426015
 20
1009.319783503173
 30
0.0
 11
2016.479107232156
 21
1009.97291235974
 31
0.0
  0
LINE
  5
C5D
330
B94
100
AcDbEntity
  8
0
  6
Continuous
 62
     7
370
    15
100
AcDbLine
 10
2018.54286353283
 20
1009.048182757026
 30
0.0
 11
2019.130162474235
 21
1009.39117957261
 31
0.0
  0
LINE
  5
C5E
330
B94
100
AcDbEntity
  8
0
  6
Continuous
 62
     7
370
    15
100
AcDbLine
 10
2019.130162474235
 20
1009.39117957261
 30
0.0
 11
2018.52402036742
 21
1009.662780318757
 31
0.0
  0
LINE
  5
C5F
330
B94
100
AcDbEntity
  8
0
  6
Continuous
 62
     7
370
    15
100
AcDbLine
 10
2018.52402036742
 20
1009.662780318757
 30
0.0
 11
2017.936721426015
 21
1009.319783503173
 31
0.0
  0
LINE
  5
C60
330
B94
100
AcDbEntity
  8
0
  6
Continuous
 62
     7
370
    15
100
AcDbLine
 10
2017.153658945015
 20
1008.862453122685
 30
0.0
 11
2017.198371645065
 21
1008.262962179822
 31
0.0
  0
LINE
  5
C61
330
B94
100
AcDbEntity
  8
0
  6
Continuous
 62
     7
370
    15
100
AcDbLine
 10
2017.936721426015
 20
1009.319783503173
 30
0.0
 11
2017.93274956141
 21
1008.513357389738
 31
0.0
  0
LINE
  5
C62
330
B94
100
AcDbEntity
  8
0
  6
Continuous
 62
     7
370
    15
100
AcDbLine
 10
2018.52402036742
 20
1009.662780318757
 30
0.0
 11
2018.51982620003
 21
1008.811259209428
 31
0.0
  0
ARC
  5
C63
330
B94
100
AcDbEntity
  8
0
  6
Continuous
 62
     7
370
    15
100
AcDbCircle
 10
2013.874056274388
 20
1010.953270856685
 30
0.0
 40
2.014992765582785
100
AcDbArc
 50
288.6652746812849
 51
311.9069990057051
  0
ELLIPSE
  5
C64
330
B94
100
AcDbEntity
  8
0
  6
Continuous
 62
     7
370
    15
100
AcDbEllipse
 10
2012.995344194138
 20
1001.229849268983
 30
0.0
 11
1.987931528835545
 21
40.3034681097933
 31
0.0
210
0.0
220
0.0
230
1.0
 40
0.0460110858394975
 41
4.920148048086443
 42
4.947120662363465
  0
LWPOLYLINE
  5
C65
330
B94
100
AcDbEntity
  8
0
  6
Continuous
 62
     7
370
    15
100
AcDbPolyline
 90
       17
 70
   128
 43
0.0
 10
2011.739880187513
 20
1012.092613219707
 10
2012.081706552661
 20
1012.190679653802
 10
2012.451358933013
 20
1012.258527349974
 10
2012.838826958762
 20
1012.294317642516
 10
2013.233611250932
 20
1012.297083506446
 10
2013.625023028054
 20
1012.266747384882
 10
2014.002458088146
 20
1012.204132771647
 10
2014.355691889672
 20
1012.110935645956
 10
2014.675160341019
 20
1011.989678795868
 10
2014.9522090213
 20
1011.843647670061
 10
2015.179335952122
 20
1011.676796209367
 10
2015.350383844831
 20
1011.493646445499
 10
2015.460724077443
 20
1011.299157013861
 10
2015.507365330968
 20
1011.098597159733
 10
2015.489044688134
 20
1010.897398817534
 10
2015.406261765129
 20
1010.701010352837
 10
2015.261253506843
 20
1010.514753496986
  0
ELLIPSE
  5
C66
330
B94
100
AcDbEntity
  8
0
  6
Continuous
 62
     7
370
    15
100
AcDbEllipse
 10
2012.995344194138
 20
1001.229849268983
 30
0.0
 11
1.987931528835545
 21
40.3034681097933
 31
0.0
210
0.0
220
0.0
230
1.0
 40
0.0460110858394975
 41
1.300167498489482
 42
1.320375711280167
  0
LWPOLYLINE
  5
C67
330
B94
100
AcDbEntity
  8
0
  6
Continuous
 62
     7
370
    15
100
AcDbPolyline
 90
       17
 70
   128
 43
0.0
 10
2014.478191177616
 20
1010.057423205305
 10
2014.136364812467
 20
1009.95935677121
 10
2013.766712356229
 20
1009.891509030635
 10
2013.379247003507
 20
1009.855717385846
 10
2012.984460114196
 20
1009.852952918565
 10
2012.593051010101
 20
1009.883287687883
 10
2012.215616101782
 20
1009.945902389925
 10
2011.862379475457
 20
1010.039100779055
 10
2011.542910796451
 20
1010.160357495934
 10
2011.265862229999
 20
1010.306388688346
 10
2011.038738010146
 20
1010.473238818996
 10
2010.867690193324
 20
1010.656388627267
 10
2010.757350036598
 20
1010.850878103307
 10
2010.71070885896
 20
1011.051438001839
 10
2010.729026601108
 20
1011.252637563075
 10
2010.811812273026
 20
1011.449024719929
 10
2010.956817706513
 20
1011.635282839219
  0
ELLIPSE
  5
C68
330
B94
100
AcDbEntity
  8
0
  6
Continuous
 62
     7
370
    15
100
AcDbEllipse
 10
2012.995344194138
 20
1001.229849268983
 30
0.0
 11
-1.152120480807056
 21
38.47460495489793
 31
0.0
210
0.0
220
0.0
230
0.9999999999999998
 40
0.0465990315241238
 41
4.915521968398107
 42
4.942494582675127
  0
LINE
  5
C69
330
B94
100
AcDbEntity
  8
0
  6
Continuous
 62
     7
370
    15
100
AcDbLine
 10
2011.827135783764
 20
1010.639155903628
 30
0.0
 11
2012.433280867151
 21
1010.367553982848
 31
0.0
  0
LINE
  5
C6A
330
B94
100
AcDbEntity
  8
0
  6
Continuous
 62
     7
370
    15
100
AcDbLine
 10
2012.433280867151
 20
1010.367553982848
 30
0.0
 11
2013.020576983758
 21
1010.710552061872
 31
0.0
  0
LINE
  5
C6B
330
B94
100
AcDbEntity
  8
0
  6
Continuous
 62
     7
370
    15
100
AcDbLine
 10
2013.020576983758
 20
1010.710552061872
 30
0.0
 11
2014.478191177616
 21
1010.057423205305
 31
0.0
  0
LINE
  5
C6C
330
B94
100
AcDbEntity
  8
0
  6
Continuous
 62
     7
370
    15
100
AcDbLine
 10
2010.956817706513
 20
1011.635282839219
 30
0.0
 11
2012.41443472517
 21
1010.982152719213
 31
0.0
  0
LINE
  5
C6D
330
B94
100
AcDbEntity
  8
0
  6
Continuous
 62
     7
370
    15
100
AcDbLine
 10
2012.41443472517
 20
1010.982152719213
 30
0.0
 11
2011.827135783764
 21
1010.639155903628
 31
0.0
  0
LINE
  5
C6E
330
B94
100
AcDbEntity
  8
0
  6
Continuous
 62
     7
370
    15
100
AcDbLine
 10
2015.2199172392
 20
1009.45365286908
 30
0.0
 11
2014.489440639749
 21
1009.7809654213
 31
0.0
  0
LINE
  5
C6F
330
B94
100
AcDbEntity
  8
0
  6
Continuous
 62
     7
370
    15
100
AcDbLine
 10
2012.757602070057
 20
1010.556968974585
 30
0.0
 11
2012.435376957661
 21
1010.701351842399
 31
0.0
  0
LINE
  5
C70
330
B94
100
AcDbEntity
  8
0
  6
Continuous
 62
     7
370
    15
100
AcDbLine
 10
2013.757394332147
 20
1010.692332322317
 30
0.0
 11
2013.455164352977
 21
1010.515821979658
 31
0.0
  0
ARC
  5
C71
330
B94
100
AcDbEntity
  8
0
  6
Continuous
 62
     7
370
    15
100
AcDbCircle
 10
2011.861914558559
 20
1003.064217647796
 30
0.0
 40
1.42034601536517
100
AcDbArc
 50
243.194504937727
 51
287.3535695633547
  0
LWPOLYLINE
  5
C72
330
B94
100
AcDbEntity
  8
0
  6
Continuous
 62
     7
370
    15
100
AcDbPolyline
 90
       16
 70
   128
 43
0.0
 10
2009.878961449266
 20
1005.821472108374
 10
2009.85062412464
 20
1005.796127513743
 10
2009.681095324284
 20
1005.597192162447
 10
2009.552076236545
 20
1005.353274317844
 10
2009.466907943753
 20
1005.07069070545
 10
2009.427798812953
 20
1004.756758957758
 10
2009.435757051547
 20
1004.419612437783
 10
2009.490582481969
 20
1004.067979720685
 10
2009.590852701437
 20
1003.710969605577
 10
2009.733968555553
 20
1003.357828994431
 10
2009.916225199252
 20
1003.017703615654
 10
2010.132903070065
 20
1002.699401916805
 10
2010.378390197762
 20
1002.411167884559
 10
2010.6463245581
 20
1002.160468446359
 10
2010.929773484218
 20
1001.95379347927
 10
2011.221390854213
 20
1001.796498362017
  0
LINE
  5
C73
330
B94
100
AcDbEntity
  8
0
  6
Continuous
 62
     7
370
    15
100
AcDbLine
 10
2015.261253506843
 20
1010.514753496986
 30
0.0
 11
2013.803639312985
 21
1011.167882353553
 31
0.0
  0
LINE
  5
C74
330
B94
100
AcDbEntity
  8
0
  6
Continuous
 62
     7
370
    15
100
AcDbLine
 10
2013.803639312985
 20
1011.167882353553
 30
0.0
 11
2013.72832696702
 21
1010.393422629819
 31
0.0
  0
LINE
  5
C75
330
B94
100
AcDbEntity
  8
0
  6
Continuous
 62
     7
370
    15
100
AcDbLine
 10
2013.197497206169
 20
1011.4394830997
 30
0.0
 11
2011.739880187513
 21
1012.092613219707
 31
0.0
  0
LINE
  5
C76
330
B94
100
AcDbEntity
  8
0
  6
Continuous
 62
     7
370
    15
100
AcDbLine
 10
2013.803639312985
 20
1011.167882353553
 30
0.0
 11
2014.390935429592
 21
1011.510880432577
 31
0.0
  0
LINE
  5
C77
330
B94
100
AcDbEntity
  8
0
  6
Continuous
 62
     7
370
    15
100
AcDbLine
 10
2014.390935429592
 20
1011.510880432577
 30
0.0
 11
2013.784793322777
 21
1011.782481178724
 31
0.0
  0
LINE
  5
C78
330
B94
100
AcDbEntity
  8
0
  6
Continuous
 62
     7
370
    15
100
AcDbLine
 10
2013.784793322777
 20
1011.782481178724
 30
0.0
 11
2013.197497206169
 21
1011.4394830997
 31
0.0
  0
LINE
  5
C79
330
B94
100
AcDbEntity
  8
0
  6
Continuous
 62
     7
370
    15
100
AcDbLine
 10
2012.41443472517
 20
1010.982152719213
 30
0.0
 11
2012.45914742522
 21
1010.382661776349
 31
0.0
  0
LINE
  5
C7A
330
B94
100
AcDbEntity
  8
0
  6
Continuous
 62
     7
370
    15
100
AcDbLine
 10
2013.197497206169
 20
1011.4394830997
 30
0.0
 11
2013.193525341565
 21
1010.633056986265
 31
0.0
  0
LINE
  5
C7B
330
B94
100
AcDbEntity
  8
0
  6
Continuous
 62
     7
370
    15
100
AcDbLine
 10
2013.784793322777
 20
1011.782481178724
 30
0.0
 11
2013.780599155386
 21
1010.930960069395
 31
0.0
  0
ARC
  5
C7C
330
B94
100
AcDbEntity
  8
0
  6
Continuous
 62
     7
370
    15
100
AcDbCircle
 10
2009.134811119006
 20
1013.073006299997
 30
0.0
 40
2.015033427188471
100
AcDbArc
 50
288.6655124493081
 51
311.9067612376857
  0
ELLIPSE
  5
C7D
330
B94
100
AcDbEntity
  8
0
  6
Continuous
 62
     7
370
    15
100
AcDbEllipse
 10
2008.256118279414
 20
1003.349549623574
 30
0.0
 11
1.987931528835531
 21
40.30346810979333
 31
0.0
210
0.0
220
0.0
230
1.0
 40
0.0460110858394971
 41
4.920148048086439
 42
4.947120662363464
  0
LWPOLYLINE
  5
C7E
330
B94
100
AcDbEntity
  8
0
  6
Continuous
 62
     7
370
    15
100
AcDbPolyline
 90
       17
 70
   128
 43
0.0
 10
2007.000655967668
 20
1014.212312816234
 10
2007.342482332816
 20
1014.310379250329
 10
2007.712134713168
 20
1014.378226946501
 10
2008.099599914118
 20
1014.414018502483
 10
2008.494384206288
 20
1014.416784366413
 10
2008.88579598341
 20
1014.386448244849
 10
2009.263231043502
 20
1014.323833631614
 10
2009.616467669827
 20
1014.230635242483
 10
2009.935936121173
 20
1014.109378392395
 10
2010.212984801455
 20
1013.963347266588
 10
2010.440108907479
 20
1013.796497069334
 10
2010.611156800186
 20
1013.613347305466
 10
2010.721497032799
 20
1013.418857873828
 10
2010.768138286323
 20
1013.2182980197
 10
2010.749820468289
 20
1013.017098414061
 10
2010.667034720485
 20
1012.820711212804
 10
2010.522029286998
 20
1012.634453093513
  0
ELLIPSE
  5
C7F
330
B94
100
AcDbEntity
  8
0
  6
Continuous
 62
     7
370
    15
100
AcDbEllipse
 10
2008.256118279414
 20
1003.349549623574
 30
0.0
 11
1.987931528835531
 21
40.30346810979333
 31
0.0
210
0.0
220
0.0
230
1.0
 40
0.0460110858394971
 41
1.300167498489485
 42
1.32037571128017
  0
LWPOLYLINE
  5
C80
330
B94
100
AcDbEntity
  8
0
  6
Continuous
 62
     7
370
    15
100
AcDbPolyline
 90
       17
 70
   128
 43
0.0
 10
2009.738964132972
 20
1012.177124065272
 10
2009.397140592623
 20
1012.079056367737
 10
2009.027488136384
 20
1012.011208627161
 10
2008.640019958863
 20
1011.975418245813
 10
2008.245235894351
 20
1011.972652515092
 10
2007.853823965457
 20
1012.00298854785
 10
2007.476389057138
 20
1012.065603249891
 10
2007.123155255612
 20
1012.158800375582
 10
2006.803686576606
 20
1012.280057092461
 10
2006.526635185355
 20
1012.426089548313
 10
2006.299510965502
 20
1012.592939678963
 10
2006.128463148681
 20
1012.776089487233
 10
2006.018122991954
 20
1012.970578963274
 10
2005.971481814316
 20
1013.171138861806
 10
2005.989802381263
 20
1013.372337159602
 10
2006.072585228382
 20
1013.568725579895
 10
2006.217593486668
 20
1013.754982435746
  0
ELLIPSE
  5
C81
330
B94
100
AcDbEntity
  8
0
  6
Continuous
 62
     7
370
    15
100
AcDbEllipse
 10
2008.256118279414
 20
1003.349549623574
 30
0.0
 11
-1.15212048080707
 21
38.47460495489793
 31
0.0
210
0.0
220
0.0
230
0.9999999999999998
 40
0.0465990315241242
 41
4.915521968398108
 42
4.942494582675131
  0
LINE
  5
C82
330
B94
100
AcDbEntity
  8
0
  6
Continuous
 62
     7
370
    15
100
AcDbLine
 10
2007.087911563919
 20
1012.758855500155
 30
0.0
 11
2007.694053822507
 21
1012.487254842815
 31
0.0
  0
LINE
  5
C83
330
B94
100
AcDbEntity
  8
0
  6
Continuous
 62
     7
370
    15
100
AcDbLine
 10
2007.694053822507
 20
1012.487254842815
 30
0.0
 11
2008.281349939114
 21
1012.830252921839
 31
0.0
  0
LINE
  5
C84
330
B94
100
AcDbEntity
  8
0
  6
Continuous
 62
     7
370
    15
100
AcDbLine
 10
2008.281349939114
 20
1012.830252921839
 30
0.0
 11
2009.738964132972
 21
1012.177124065272
 31
0.0
  0
LINE
  5
C85
330
B94
100
AcDbEntity
  8
0
  6
Continuous
 62
     7
370
    15
100
AcDbLine
 10
2006.217593486668
 20
1013.754982435746
 30
0.0
 11
2007.675207680526
 21
1013.101853579179
 31
0.0
  0
LINE
  5
C86
330
B94
100
AcDbEntity
  8
0
  6
Continuous
 62
     7
370
    15
100
AcDbLine
 10
2007.675207680526
 20
1013.101853579179
 30
0.0
 11
2007.087911563919
 21
1012.758855500155
 31
0.0
  0
LINE
  5
C87
330
B94
100
AcDbEntity
  8
0
  6
Continuous
 62
     7
370
    15
100
AcDbLine
 10
2010.480693019355
 20
1011.573352465607
 30
0.0
 11
2009.750216419905
 21
1011.900665017827
 31
0.0
  0
LINE
  5
C88
330
B94
100
AcDbEntity
  8
0
  6
Continuous
 62
     7
370
    15
100
AcDbLine
 10
2008.018377850211
 20
1012.676668571112
 30
0.0
 11
2007.696152737816
 21
1012.821051438926
 31
0.0
  0
LINE
  5
C89
330
B94
100
AcDbEntity
  8
0
  6
Continuous
 62
     7
370
    15
100
AcDbLine
 10
2009.018167287503
 20
1012.812033182284
 30
0.0
 11
2008.715937308333
 21
1012.635522839625
 31
0.0
  0
ARC
  5
C8A
330
B94
100
AcDbEntity
  8
0
  6
Continuous
 62
     7
370
    15
100
AcDbCircle
 10
2007.12269164101
 20
1005.183932997051
 30
0.0
 40
1.420360662645971
100
AcDbArc
 50
243.1947446130714
 51
287.353329888019
  0
LWPOLYLINE
  5
C8B
330
B94
100
AcDbEntity
  8
0
  6
Continuous
 62
     7
370
    15
100
AcDbPolyline
 90
       16
 70
   128
 43
0.0
 10
2005.13973722942
 20
1007.941171704901
 10
2005.111397079996
 20
1007.91582837371
 10
2004.94186827964
 20
1007.716893022414
 10
2004.812849191901
 20
1007.472975177811
 10
2004.727680899109
 20
1007.190391565417
 10
2004.688571768308
 20
1006.876459817725
 10
2004.696532831703
 20
1006.53931203431
 10
2004.751358262124
 20
1006.187679317212
 10
2004.851625656793
 20
1005.830670465544
 10
2004.994741510909
 20
1005.477529854398
 10
2005.176998154608
 20
1005.137404475621
 10
2005.393676025421
 20
1004.819102776772
 10
2005.639163153118
 20
1004.530868744526
 10
2005.907100338255
 20
1004.280168042886
 10
2006.190546439575
 20
1004.073494339237
 10
2006.482166634368
 20
1003.916197958544
  0
LINE
  5
C8C
330
B94
100
AcDbEntity
  8
0
  6
Continuous
 62
     7
370
    15
100
AcDbLine
 10
2010.522029286998
 20
1012.634453093513
 30
0.0
 11
2009.064412268341
 21
1013.28758321352
 31
0.0
  0
LINE
  5
C8D
330
B94
100
AcDbEntity
  8
0
  6
Continuous
 62
     7
370
    15
100
AcDbLine
 10
2009.064412268341
 20
1013.28758321352
 30
0.0
 11
2008.989099922377
 21
1012.513123489785
 31
0.0
  0
LINE
  5
C8E
330
B94
100
AcDbEntity
  8
0
  6
Continuous
 62
     7
370
    15
100
AcDbLine
 10
2008.458270161526
 20
1013.559183959667
 30
0.0
 11
2007.000655967668
 21
1014.212312816234
 31
0.0
  0
LINE
  5
C8F
330
B94
100
AcDbEntity
  8
0
  6
Continuous
 62
     7
370
    15
100
AcDbLine
 10
2009.064412268341
 20
1013.28758321352
 30
0.0
 11
2009.651711209747
 21
1013.630580029104
 31
0.0
  0
LINE
  5
C90
330
B94
100
AcDbEntity
  8
0
  6
Continuous
 62
     7
370
    15
100
AcDbLine
 10
2009.651711209747
 20
1013.630580029104
 30
0.0
 11
2009.045566278133
 21
1013.902182038691
 31
0.0
  0
LINE
  5
C91
330
B94
100
AcDbEntity
  8
0
  6
Continuous
 62
     7
370
    15
100
AcDbLine
 10
2009.045566278133
 20
1013.902182038691
 30
0.0
 11
2008.458270161526
 21
1013.559183959667
 31
0.0
  0
LINE
  5
C92
330
B94
100
AcDbEntity
  8
0
  6
Continuous
 62
     7
370
    15
100
AcDbLine
 10
2007.675207680526
 20
1013.101853579179
 30
0.0
 11
2007.719920380576
 21
1012.502362636316
 31
0.0
  0
LINE
  5
C93
330
B94
100
AcDbEntity
  8
0
  6
Continuous
 62
     7
370
    15
100
AcDbLine
 10
2008.458270161526
 20
1013.559183959667
 30
0.0
 11
2008.454298296921
 21
1012.752757846232
 31
0.0
  0
LINE
  5
C94
330
B94
100
AcDbEntity
  8
0
  6
Continuous
 62
     7
370
    15
100
AcDbLine
 10
2009.045566278133
 20
1013.902182038691
 30
0.0
 11
2009.041372110742
 21
1013.050660929362
 31
0.0
  0
ARC
  5
C95
330
B94
100
AcDbEntity
  8
0
  6
Continuous
 62
     7
370
    15
100
AcDbCircle
 10
2004.395605009899
 20
1015.192671313179
 30
0.0
 40
2.014992765583037
100
AcDbArc
 50
288.6652746812849
 51
311.9069990057051
  0
ELLIPSE
  5
C96
330
B94
100
AcDbEntity
  8
0
  6
Continuous
 62
     7
370
    15
100
AcDbEllipse
 10
2003.516892364689
 20
1005.469249978165
 30
0.0
 11
1.987931528835545
 21
40.3034681097933
 31
0.0
210
0.0
220
0.0
230
1.0
 40
0.0460110858394976
 41
4.920148048086442
 42
4.947120662363466
  0
LWPOLYLINE
  5
C97
330
B94
100
AcDbEntity
  8
0
  6
Continuous
 62
     7
370
    15
100
AcDbPolyline
 90
       17
 70
   128
 43
0.0
 10
2002.261428923024
 20
1016.332013676201
 10
2002.603255288172
 20
1016.430080110296
 10
2002.972907668524
 20
1016.497927806468
 10
2003.360372869474
 20
1016.53371936245
 10
2003.755159986443
 20
1016.53648396294
 10
2004.146568938766
 20
1016.506149104816
 10
2004.524003998858
 20
1016.443534491581
 10
2004.877240625183
 20
1016.35033610245
 10
2005.19670907653
 20
1016.229079252362
 10
2005.473757756811
 20
1016.083048126555
 10
2005.700881862835
 20
1015.916197929301
 10
2005.871932580342
 20
1015.733046901993
 10
2005.982269988155
 20
1015.538558733795
 10
2006.028914066479
 20
1015.337997616227
 10
2006.010593423645
 20
1015.136799274028
 10
2005.927807675842
 20
1014.940412072771
 10
2005.782802242354
 20
1014.75415395348
  0
ELLIPSE
  5
C98
330
B94
100
AcDbEntity
  8
0
  6
Continuous
 62
     7
370
    15
100
AcDbEllipse
 10
2003.516892364689
 20
1005.469249978165
 30
0.0
 11
1.987931528835545
 21
40.3034681097933
 31
0.0
210
0.0
220
0.0
230
1.0
 40
0.0460110858394976
 41
1.300167498489482
 42
1.320375711280169
  0
LWPOLYLINE
  5
C99
330
B94
100
AcDbEntity
  8
0
  6
Continuous
 62
     7
370
    15
100
AcDbPolyline
 90
       17
 70
   128
 43
0.0
 10
2004.999739913127
 20
1014.296823661799
 10
2004.657913547979
 20
1014.198757227704
 10
2004.28826109174
 20
1014.130909487128
 10
2003.900795739018
 20
1014.09511784234
 10
2003.506008849708
 20
1014.092353375059
 10
2003.114599745612
 20
1014.122688144377
 10
2002.737164837293
 20
1014.185302846418
 10
2002.383928210968
 20
1014.278501235549
 10
2002.064459531962
 20
1014.399757952428
 10
2001.78741096551
 20
1014.54578914484
 10
2001.560286745657
 20
1014.71263927549
 10
2001.389236104037
 20
1014.8957903472
 10
2001.278898772109
 20
1015.090278559801
 10
2001.232257594471
 20
1015.290838458333
 10
2001.250575336619
 20
1015.492038019569
 10
2001.333361008537
 20
1015.688425176423
 10
2001.478366442024
 20
1015.874683295713
  0
ELLIPSE
  5
C9A
330
B94
100
AcDbEntity
  8
0
  6
Continuous
 62
     7
370
    15
100
AcDbEllipse
 10
2003.516892364689
 20
1005.469249978165
 30
0.0
 11
-1.15212048080707
 21
38.47460495489796
 31
0.0
210
0.0
220
0.0
230
1.0
 40
0.0465990315241238
 41
4.915521968398106
 42
4.942494582675126
  0
LINE
  5
C9B
330
B94
100
AcDbEntity
  8
0
  6
Continuous
 62
     7
370
    15
100
AcDbLine
 10
2002.348684519275
 20
1014.878556360123
 30
0.0
 11
2002.954826777863
 21
1014.606955702782
 31
0.0
  0
LINE
  5
C9C
330
B94
100
AcDbEntity
  8
0
  6
Continuous
 62
     7
370
    15
100
AcDbLine
 10
2002.954826777863
 20
1014.606955702782
 30
0.0
 11
2003.542125719269
 21
1014.949952518366
 31
0.0
  0
LINE
  5
C9D
330
B94
100
AcDbEntity
  8
0
  6
Continuous
 62
     7
370
    15
100
AcDbLine
 10
2003.542125719269
 20
1014.949952518366
 30
0.0
 11
2004.999739913127
 21
1014.296823661799
 31
0.0
  0
LINE
  5
C9E
330
B94
100
AcDbEntity
  8
0
  6
Continuous
 62
     7
370
    15
100
AcDbLine
 10
2001.478366442024
 20
1015.874683295713
 30
0.0
 11
2002.935980635883
 21
1015.221554439146
 31
0.0
  0
LINE
  5
C9F
330
B94
100
AcDbEntity
  8
0
  6
Continuous
 62
     7
370
    15
100
AcDbLine
 10
2002.935980635883
 20
1015.221554439146
 30
0.0
 11
2002.348684519275
 21
1014.878556360123
 31
0.0
  0
LINE
  5
CA0
330
B94
100
AcDbEntity
  8
0
  6
Continuous
 62
     7
370
    15
100
AcDbLine
 10
2005.741465974711
 20
1013.693053325574
 30
0.0
 11
2005.010989375261
 21
1014.020365877794
 31
0.0
  0
LINE
  5
CA1
330
B94
100
AcDbEntity
  8
0
  6
Continuous
 62
     7
370
    15
100
AcDbLine
 10
2003.279150805568
 20
1014.796369431079
 30
0.0
 11
2002.956925693172
 21
1014.940752298893
 31
0.0
  0
LINE
  5
CA2
330
B94
100
AcDbEntity
  8
0
  6
Continuous
 62
     7
370
    15
100
AcDbLine
 10
2004.278943067658
 20
1014.931732778811
 30
0.0
 11
2003.976713088488
 21
1014.755222436152
 31
0.0
  0
ARC
  5
CA3
330
B94
100
AcDbEntity
  8
0
  6
Continuous
 62
     7
370
    15
100
AcDbCircle
 10
2002.38346329407
 20
1007.30361810429
 30
0.0
 40
1.420346015365585
100
AcDbArc
 50
243.1945049377415
 51
287.3535695633547
  0
LWPOLYLINE
  5
CA4
330
B94
100
AcDbEntity
  8
0
  6
Continuous
 62
     7
370
    15
100
AcDbPolyline
 90
       16
 70
   128
 43
0.0
 10
2000.400510184777
 20
1010.060872564868
 10
2000.372172860151
 20
1010.035527970237
 10
2000.202641234996
 20
1009.836593882381
 10
2000.073622147258
 20
1009.592676037778
 10
1999.988456679264
 20
1009.310091161945
 10
1999.949344723665
 20
1008.996160677692
 10
1999.957305787058
 20
1008.659012894277
 10
2000.01213121748
 20
1008.307380177179
 10
2000.112401436948
 20
1007.950370062071
 10
2000.255517291064
 20
1007.597229450925
 10
2000.437773934763
 20
1007.257104072148
 10
2000.654451805576
 20
1006.938802373299
 10
2000.899936108475
 20
1006.650569604493
 10
2001.167873293611
 20
1006.399868902853
 10
2001.45132221973
 20
1006.193193935764
 10
2001.742939589725
 20
1006.035898818511
  0
LINE
  5
CA5
330
B94
100
AcDbEntity
  8
0
  6
Continuous
 62
     7
370
    15
100
AcDbLine
 10
2005.782802242354
 20
1014.75415395348
 30
0.0
 11
2004.325188048496
 21
1015.407282810047
 31
0.0
  0
LINE
  5
CA6
330
B94
100
AcDbEntity
  8
0
  6
Continuous
 62
     7
370
    15
100
AcDbLine
 10
2004.325188048496
 20
1015.407282810047
 30
0.0
 11
2004.249872877733
 21
1014.632824349752
 31
0.0
  0
LINE
  5
CA7
330
B94
100
AcDbEntity
  8
0
  6
Continuous
 62
     7
370
    15
100
AcDbLine
 10
2003.719043116882
 20
1015.678884819634
 30
0.0
 11
2002.261428923024
 21
1016.332013676201
 31
0.0
  0
LINE
  5
CA8
330
B94
100
AcDbEntity
  8
0
  6
Continuous
 62
     7
370
    15
100
AcDbLine
 10
2004.325188048496
 20
1015.407282810047
 30
0.0
 11
2004.912484165103
 21
1015.750280889071
 31
0.0
  0
LINE
  5
CA9
330
B94
100
AcDbEntity
  8
0
  6
Continuous
 62
     7
370
    15
100
AcDbLine
 10
2004.912484165103
 20
1015.750280889071
 30
0.0
 11
2004.306342058288
 21
1016.021881635218
 31
0.0
  0
LINE
  5
CAA
330
B94
100
AcDbEntity
  8
0
  6
Continuous
 62
     7
370
    15
100
AcDbLine
 10
2004.306342058288
 20
1016.021881635218
 30
0.0
 11
2003.719043116882
 21
1015.678884819634
 31
0.0
  0
LINE
  5
CAB
330
B94
100
AcDbEntity
  8
0
  6
Continuous
 62
     7
370
    15
100
AcDbLine
 10
2002.935980635883
 20
1015.221554439146
 30
0.0
 11
2002.980696160731
 21
1014.622062232843
 31
0.0
  0
LINE
  5
CAC
330
B94
100
AcDbEntity
  8
0
  6
Continuous
 62
     7
370
    15
100
AcDbLine
 10
2003.719043116882
 20
1015.678884819634
 30
0.0
 11
2003.715071252278
 21
1014.872458706199
 31
0.0
  0
LINE
  5
CAD
330
B94
100
AcDbEntity
  8
0
  6
Continuous
 62
     7
370
    15
100
AcDbLine
 10
2004.306342058288
 20
1016.021881635218
 30
0.0
 11
2004.302147890897
 21
1015.170360525889
 31
0.0
  0
ARC
  5
CAE
330
B94
100
AcDbEntity
  8
0
  6
Continuous
 62
     7
370
    15
100
AcDbCircle
 10
1999.656359854517
 20
1017.312406756492
 30
0.0
 40
2.015033427189351
100
AcDbArc
 50
288.6655124493225
 51
311.9067612376857
  0
ELLIPSE
  5
CAF
330
B94
100
AcDbEntity
  8
0
  6
Continuous
 62
     7
370
    15
100
AcDbEllipse
 10
1998.777666449965
 20
1007.588950332756
 30
0.0
 11
1.987931528835559
 21
40.30346810979327
 31
0.0
210
0.0
220
0.0
230
1.0
 40
0.0460110858394979
 41
4.920148048086443
 42
4.947120662363465
  0
LWPOLYLINE
  5
CB0
330
B94
100
AcDbEntity
  8
0
  6
Continuous
 62
     7
370
    15
100
AcDbPolyline
 90
       17
 70
   128
 43
0.0
 10
1997.522203290779
 20
1018.451713904448
 10
1997.864029655928
 20
1018.549780338543
 10
1998.23368203628
 20
1018.617628034715
 10
1998.621148649629
 20
1018.653418958977
 10
1999.015932941799
 20
1018.656184822907
 10
1999.407344718921
 20
1018.625848701343
 10
1999.784779779013
 20
1018.563234088108
 10
2000.138014992938
 20
1018.470036330697
 10
2000.457483444286
 20
1018.348779480609
 10
2000.734532124567
 20
1018.202748354802
 10
2000.96165623059
 20
1018.035898157548
 10
2001.132705535698
 20
1017.85274776196
 10
2001.243045768311
 20
1017.658258330322
 10
2001.289687021835
 20
1017.457698476194
 10
2001.271366379001
 20
1017.256500133995
 10
2001.188583455997
 20
1017.060111669298
 10
2001.04357519771
 20
1016.873854813447
  0
ELLIPSE
  5
CB1
330
B94
100
AcDbEntity
  8
0
  6
Continuous
 62
     7
370
    15
100
AcDbEllipse
 10
1998.777666449965
 20
1007.588950332756
 30
0.0
 11
1.987931528835559
 21
40.30346810979327
 31
0.0
210
0.0
220
0.0
230
1.0
 40
0.0460110858394979
 41
1.300167498489478
 42
1.320375711280166
  0
LWPOLYLINE
  5
CB2
330
B94
100
AcDbEntity
  8
0
  6
Continuous
 62
     7
370
    15
100
AcDbPolyline
 90
       17
 70
   128
 43
0.0
 10
2000.260512868483
 20
1016.416524521766
 10
1999.918686503335
 20
1016.31845808767
 10
1999.549034047096
 20
1016.250610347096
 10
1999.161568694374
 20
1016.214818702307
 10
1998.766784629862
 20
1016.212052971586
 10
1998.375372700968
 20
1016.242389004344
 10
1997.997937792649
 20
1016.305003706385
 10
1997.644702578724
 20
1016.398201463796
 10
1997.325233899718
 20
1016.519458180675
 10
1997.048185333266
 20
1016.665489373087
 10
1996.821059701013
 20
1016.832340135457
 10
1996.650011884192
 20
1017.015489943727
 10
1996.539671727465
 20
1017.209979419768
 10
1996.493030549827
 20
1017.4105393183
 10
1996.511349704375
 20
1017.611738247816
 10
1996.594133963893
 20
1017.80812603639
 10
1996.73914080978
 20
1017.99438352396
  0
ELLIPSE
  5
CB3
330
B94
100
AcDbEntity
  8
0
  6
Continuous
 62
     7
370
    15
100
AcDbEllipse
 10
1998.777666449965
 20
1007.588950332756
 30
0.0
 11
-1.152120480807085
 21
38.47460495489796
 31
0.0
210
0.0
220
0.0
230
1.0
 40
0.0465990315241239
 41
4.915521968398107
 42
4.942494582675129
  0
LINE
  5
CB4
330
B94
100
AcDbEntity
  8
0
  6
Continuous
 62
     7
370
    15
100
AcDbLine
 10
1997.609458887031
 20
1016.99825658837
 30
0.0
 11
1998.215602558018
 21
1016.726655299309
 31
0.0
  0
LINE
  5
CB5
330
B94
100
AcDbEntity
  8
0
  6
Continuous
 62
     7
370
    15
100
AcDbLine
 10
1998.215602558018
 20
1016.726655299309
 30
0.0
 11
1998.802898674625
 21
1017.069653378333
 31
0.0
  0
LINE
  5
CB6
330
B94
100
AcDbEntity
  8
0
  6
Continuous
 62
     7
370
    15
100
AcDbLine
 10
1998.802898674625
 20
1017.069653378333
 30
0.0
 11
2000.260512868483
 21
1016.416524521766
 31
0.0
  0
LINE
  5
CB7
330
B94
100
AcDbEntity
  8
0
  6
Continuous
 62
     7
370
    15
100
AcDbLine
 10
1996.73914080978
 20
1017.99438352396
 30
0.0
 11
1998.196756416037
 21
1017.341254035674
 31
0.0
  0
LINE
  5
CB8
330
B94
100
AcDbEntity
  8
0
  6
Continuous
 62
     7
370
    15
100
AcDbLine
 10
1998.196756416037
 20
1017.341254035674
 30
0.0
 11
1997.609458887031
 21
1016.99825658837
 31
0.0
  0
LINE
  5
CB9
330
B94
100
AcDbEntity
  8
0
  6
Continuous
 62
     7
370
    15
100
AcDbLine
 10
2001.002241754866
 20
1015.812752922101
 30
0.0
 11
2000.271762330617
 21
1016.140066737761
 31
0.0
  0
LINE
  5
CBA
330
B94
100
AcDbEntity
  8
0
  6
Continuous
 62
     7
370
    15
100
AcDbLine
 10
1998.539925173323
 20
1016.916069659326
 30
0.0
 11
1998.217700060928
 21
1017.06045252714
 31
0.0
  0
LINE
  5
CBB
330
B94
100
AcDbEntity
  8
0
  6
Continuous
 62
     7
370
    15
100
AcDbLine
 10
1999.539716023014
 20
1017.051433638778
 30
0.0
 11
1999.237486043844
 21
1016.874923296119
 31
0.0
  0
ARC
  5
CBC
330
B94
100
AcDbEntity
  8
0
  6
Continuous
 62
     7
370
    15
100
AcDbCircle
 10
1997.644240463633
 20
1009.423335687394
 30
0.0
 40
1.420362768835764
100
AcDbArc
 50
243.1947197689773
 51
287.3532996572067
  0
LWPOLYLINE
  5
CBD
330
B94
100
AcDbEntity
  8
0
  6
Continuous
 62
     7
370
    15
100
AcDbPolyline
 90
       16
 70
   128
 43
0.0
 10
1995.661284552532
 20
1012.180572793115
 10
1995.632945815507
 20
1012.155228830204
 10
1995.463417015151
 20
1011.956293478908
 10
1995.334397927413
 20
1011.712375634305
 10
1995.24922963462
 20
1011.429792021911
 10
1995.21012050382
 20
1011.115860274219
 10
1995.218080154814
 20
1010.778713122524
 10
1995.272905585236
 20
1010.427080405426
 10
1995.373174392304
 20
1010.070070922038
 10
1995.51629024642
 20
1009.716930310891
 10
1995.698548302518
 20
1009.376804300395
 10
1995.915224760932
 20
1009.058503233266
 10
1996.160711888629
 20
1008.77026920102
 10
1996.428647661367
 20
1008.5195691311
 10
1996.712095175086
 20
1008.312894795731
 10
1997.00371395748
 20
1008.155599046758
  0
LINE
  5
CBE
330
B94
100
AcDbEntity
  8
0
  6
Continuous
 62
     7
370
    15
100
AcDbLine
 10
2001.04357519771
 20
1016.873854813447
 30
0.0
 11
1999.585961003852
 21
1017.526983670014
 31
0.0
  0
LINE
  5
CBF
330
B94
100
AcDbEntity
  8
0
  6
Continuous
 62
     7
370
    15
100
AcDbLine
 10
1999.585961003852
 20
1017.526983670014
 30
0.0
 11
1999.510648657888
 21
1016.75252394628
 31
0.0
  0
LINE
  5
CC0
330
B94
100
AcDbEntity
  8
0
  6
Continuous
 62
     7
370
    15
100
AcDbLine
 10
1998.979818897037
 20
1017.798584416161
 30
0.0
 11
1997.522203290779
 21
1018.451713904448
 31
0.0
  0
LINE
  5
CC1
330
B94
100
AcDbEntity
  8
0
  6
Continuous
 62
     7
370
    15
100
AcDbLine
 10
1999.585961003852
 20
1017.526983670014
 30
0.0
 11
2000.173258532859
 21
1017.869981117318
 31
0.0
  0
LINE
  5
CC2
330
B94
100
AcDbEntity
  8
0
  6
Continuous
 62
     7
370
    15
100
AcDbLine
 10
2000.173258532859
 20
1017.869981117318
 30
0.0
 11
1999.567115013644
 21
1018.141582495185
 31
0.0
  0
LINE
  5
CC3
330
B94
100
AcDbEntity
  8
0
  6
Continuous
 62
     7
370
    15
100
AcDbLine
 10
1999.567115013644
 20
1018.141582495185
 30
0.0
 11
1998.979818897037
 21
1017.798584416161
 31
0.0
  0
LINE
  5
CC4
330
B94
100
AcDbEntity
  8
0
  6
Continuous
 62
     7
370
    15
100
AcDbLine
 10
1998.196756416037
 20
1017.341254035674
 30
0.0
 11
1998.241469116087
 21
1016.74176309281
 31
0.0
  0
LINE
  5
CC5
330
B94
100
AcDbEntity
  8
0
  6
Continuous
 62
     7
370
    15
100
AcDbLine
 10
1998.979818897037
 20
1017.798584416161
 30
0.0
 11
1998.975847032432
 21
1016.992158302726
 31
0.0
  0
LINE
  5
CC6
330
B94
100
AcDbEntity
  8
0
  6
Continuous
 62
     7
370
    15
100
AcDbLine
 10
1999.567115013644
 20
1018.141582495185
 30
0.0
 11
1999.562920846253
 21
1017.290061385856
 31
0.0
  0
ARC
  5
CC7
330
B94
100
AcDbEntity
  8
0
  6
Continuous
 62
     7
370
    15
100
AcDbCircle
 10
1994.917143277957
 20
1019.432089692526
 30
0.0
 40
2.015013095769149
100
AcDbArc
 50
288.6653935629169
 51
311.906880124075
  0
ELLIPSE
  5
CC8
330
B94
100
AcDbEntity
  8
0
  6
Continuous
 62
     7
370
    15
100
AcDbEllipse
 10
1994.038440535241
 20
1009.708650687347
 30
0.0
 11
1.987931528835545
 21
40.3034681097933
 31
0.0
210
0.0
220
0.0
230
1.0
 40
0.0460110858394975
 41
4.920148048086443
 42
4.947120662363465
  0
LWPOLYLINE
  5
CC9
330
B94
100
AcDbEntity
  8
0
  6
Continuous
 62
     7
370
    15
100
AcDbPolyline
 90
       17
 70
   128
 43
0.0
 10
1992.782977658535
 20
1020.571414132695
 10
1993.124804023683
 20
1020.66948056679
 10
1993.494456404036
 20
1020.737328262962
 10
1993.881921604986
 20
1020.773119818944
 10
1994.276707309555
 20
1020.775885051154
 10
1994.668117674277
 20
1020.74554956131
 10
1995.045552734369
 20
1020.682934948075
 10
1995.398789360694
 20
1020.589736558944
 10
1995.718257812041
 20
1020.468479708856
 10
1995.995306492322
 20
1020.322448583049
 10
1996.222430598346
 20
1020.155598385795
 10
1996.393479903453
 20
1019.972447990207
 10
1996.503818723667
 20
1019.777959190289
 10
1996.55046138959
 20
1019.57739870444
 10
1996.532140746757
 20
1019.376200362242
 10
1996.449356411353
 20
1019.179812529265
 10
1996.304349565466
 20
1018.993555041694
  0
ELLIPSE
  5
CCA
330
B94
100
AcDbEntity
  8
0
  6
Continuous
 62
     7
370
    15
100
AcDbEllipse
 10
1994.038440535241
 20
1009.708650687347
 30
0.0
 11
1.987931528835545
 21
40.3034681097933
 31
0.0
210
0.0
220
0.0
230
1.0
 40
0.0460110858394975
 41
1.300167498489483
 42
1.32037571128017
  0
LWPOLYLINE
  5
CCB
330
B94
100
AcDbEntity
  8
0
  6
Continuous
 62
     7
370
    15
100
AcDbPolyline
 90
       17
 70
   128
 43
0.0
 10
1995.521287236239
 20
1018.536224750013
 10
1995.179460871091
 20
1018.438158315918
 10
1994.809809827251
 20
1018.370309943622
 10
1994.422343062129
 20
1018.334518930554
 10
1994.027557585219
 20
1018.331753831553
 10
1993.636147068724
 20
1018.362089232591
 10
1993.258712160405
 20
1018.424703934632
 10
1992.905476946479
 20
1018.517901692043
 10
1992.586006855074
 20
1018.639159040642
 10
1992.308958288622
 20
1018.785190233054
 10
1992.081834068769
 20
1018.952040363704
 10
1991.910786251947
 20
1019.135190171974
 10
1991.800446095221
 20
1019.329679648016
 10
1991.753804917583
 20
1019.530239546547
 10
1991.77212407213
 20
1019.731438476063
 10
1991.854908331649
 20
1019.927826264637
 10
1991.999915177535
 20
1020.114083752207
  0
ELLIPSE
  5
CCC
330
B94
100
AcDbEntity
  8
0
  6
Continuous
 62
     7
370
    15
100
AcDbEllipse
 10
1994.038440535241
 20
1009.708650687347
 30
0.0
 11
-1.152120480807077
 21
38.47460495489793
 31
0.0
210
0.0
220
0.0
230
0.9999999999999998
 40
0.046599031524124
 41
4.915521968398108
 42
4.94249458267513
  0
LINE
  5
CCD
330
B94
100
AcDbEntity
  8
0
  6
Continuous
 62
     7
370
    15
100
AcDbLine
 10
1992.870233254787
 20
1019.117956816616
 30
0.0
 11
1993.476375513374
 21
1018.846356159276
 31
0.0
  0
LINE
  5
CCE
330
B94
100
AcDbEntity
  8
0
  6
Continuous
 62
     7
370
    15
100
AcDbLine
 10
1993.476375513374
 20
1018.846356159276
 30
0.0
 11
1994.063673042381
 21
1019.18935360658
 31
0.0
  0
LINE
  5
CCF
330
B94
100
AcDbEntity
  8
0
  6
Continuous
 62
     7
370
    15
100
AcDbLine
 10
1994.063673042381
 20
1019.18935360658
 30
0.0
 11
1995.521287236239
 21
1018.536224750013
 31
0.0
  0
LINE
  5
CD0
330
B94
100
AcDbEntity
  8
0
  6
Continuous
 62
     7
370
    15
100
AcDbLine
 10
1991.999915177535
 20
1020.114083752207
 30
0.0
 11
1993.457529371394
 21
1019.46095489564
 31
0.0
  0
LINE
  5
CD1
330
B94
100
AcDbEntity
  8
0
  6
Continuous
 62
     7
370
    15
100
AcDbLine
 10
1993.457529371394
 20
1019.46095489564
 30
0.0
 11
1992.870233254787
 21
1019.117956816616
 31
0.0
  0
LINE
  5
CD2
330
B94
100
AcDbEntity
  8
0
  6
Continuous
 62
     7
370
    15
100
AcDbLine
 10
1996.263014710222
 20
1017.932453782068
 30
0.0
 11
1995.532538110772
 21
1018.259766334288
 31
0.0
  0
LINE
  5
CD3
330
B94
100
AcDbEntity
  8
0
  6
Continuous
 62
     7
370
    15
100
AcDbLine
 10
1993.800699541079
 20
1019.035769887573
 30
0.0
 11
1993.478473016284
 21
1019.180153387107
 31
0.0
  0
LINE
  5
CD4
330
B94
100
AcDbEntity
  8
0
  6
Continuous
 62
     7
370
    15
100
AcDbLine
 10
1994.80049039077
 20
1019.171133867025
 30
0.0
 11
1994.4982604116
 21
1018.994623524366
 31
0.0
  0
ARC
  5
CD5
330
B94
100
AcDbEntity
  8
0
  6
Continuous
 62
     7
370
    15
100
AcDbCircle
 10
1992.905012680726
 20
1011.543026437107
 30
0.0
 40
1.420353338964496
100
AcDbArc
 50
243.1946247753968
 51
287.3534497256882
  0
LWPOLYLINE
  5
CD6
330
B94
100
AcDbEntity
  8
0
  6
Continuous
 62
     7
370
    15
100
AcDbPolyline
 90
       16
 70
   128
 43
0.0
 10
1990.922058920288
 20
1014.300273021362
 10
1990.893720183263
 20
1014.274929058451
 10
1990.724189970507
 20
1014.075994338875
 10
1990.595170882769
 20
1013.832076494272
 10
1990.510004002375
 20
1013.549492250159
 10
1990.470893459176
 20
1013.235561134186
 10
1990.47885452257
 20
1012.898413350771
 10
1990.533678540592
 20
1012.546781265393
 10
1990.63394876006
 20
1012.189771150285
 10
1990.777064614176
 20
1011.836630539139
 10
1990.959321257874
 20
1011.496505160362
 10
1991.175999128688
 20
1011.178203461513
 10
1991.421484843986
 20
1010.889970060987
 10
1991.689422029122
 20
1010.639269359347
 10
1991.972869542841
 20
1010.432595023978
 10
1992.264488325236
 20
1010.275299275005
  0
LINE
  5
CD7
330
B94
100
AcDbEntity
  8
0
  6
Continuous
 62
     7
370
    15
100
AcDbLine
 10
1996.304349565466
 20
1018.993555041694
 30
0.0
 11
1994.846735371608
 21
1019.646683898261
 31
0.0
  0
LINE
  5
CD8
330
B94
100
AcDbEntity
  8
0
  6
Continuous
 62
     7
370
    15
100
AcDbLine
 10
1994.846735371608
 20
1019.646683898261
 30
0.0
 11
1994.771423025644
 21
1018.872224174526
 31
0.0
  0
LINE
  5
CD9
330
B94
100
AcDbEntity
  8
0
  6
Continuous
 62
     7
370
    15
100
AcDbLine
 10
1994.240591852393
 20
1019.918285276128
 30
0.0
 11
1992.782977658535
 21
1020.571414132695
 31
0.0
  0
LINE
  5
CDA
330
B94
100
AcDbEntity
  8
0
  6
Continuous
 62
     7
370
    15
100
AcDbLine
 10
1994.846735371608
 20
1019.646683898261
 30
0.0
 11
1995.434032900614
 21
1019.989681345565
 31
0.0
  0
LINE
  5
CDB
330
B94
100
AcDbEntity
  8
0
  6
Continuous
 62
     7
370
    15
100
AcDbLine
 10
1995.434032900614
 20
1019.989681345565
 30
0.0
 11
1994.8278893814
 21
1020.261282723432
 31
0.0
  0
LINE
  5
CDC
330
B94
100
AcDbEntity
  8
0
  6
Continuous
 62
     7
370
    15
100
AcDbLine
 10
1994.8278893814
 20
1020.261282723432
 30
0.0
 11
1994.240591852393
 21
1019.918285276128
 31
0.0
  0
LINE
  5
CDD
330
B94
100
AcDbEntity
  8
0
  6
Continuous
 62
     7
370
    15
100
AcDbLine
 10
1993.457529371394
 20
1019.46095489564
 30
0.0
 11
1993.502243483843
 21
1018.861463321057
 31
0.0
  0
LINE
  5
CDE
330
B94
100
AcDbEntity
  8
0
  6
Continuous
 62
     7
370
    15
100
AcDbLine
 10
1994.240591852393
 20
1019.918285276128
 30
0.0
 11
1994.236621400188
 21
1019.111858530973
 31
0.0
  0
LINE
  5
CDF
330
B94
100
AcDbEntity
  8
0
  6
Continuous
 62
     7
370
    15
100
AcDbLine
 10
1994.8278893814
 20
1020.261282723432
 30
0.0
 11
1994.823695214009
 21
1019.409761614103
 31
0.0
  0
LWPOLYLINE
  5
CE0
330
B94
100
AcDbEntity
  8
0
  6
Continuous
 62
     7
370
    15
100
AcDbPolyline
 90
       20
 70
   128
 43
0.0
 10
1986.43509457371
 20
1022.97067851271
 10
1986.087362546734
 20
1022.857570039875
 10
1985.710693080715
 20
1022.771263866224
 10
1985.312820743077
 20
1022.713531243063
 10
1984.90191358176
 20
1022.685557895983
 10
1984.486408020673
 20
1022.687918138183
 10
1984.074834932376
 20
1022.72056350642
 10
1983.675644382127
 20
1022.782823742908
 10
1983.297033002093
 20
1022.873420252337
 10
1982.946772825733
 20
1022.990493536652
 10
1982.632056347113
 20
1023.131639394394
 10
1982.359344041624
 20
1023.293960412722
 10
1982.134235932498
 20
1023.47412350943
 10
1981.961353287806
 20
1023.668429964268
 10
1981.844245244454
 20
1023.872890557722
 10
1981.785317325687
 20
1024.083306958576
 10
1981.785777699277
 20
1024.295359846649
 10
1981.845618380354
 20
1024.504694881201
 10
1981.963610087523
 20
1024.707014471021
 10
1982.137330823233
 20
1024.898164488871
  0
ELLIPSE
  5
CE1
330
B94
100
AcDbEntity
  8
0
  6
Continuous
 62
     7
370
    15
100
AcDbEllipse
 10
1984.564258856771
 20
1014.317825181119
 30
0.0
 11
-1.393150282698037
 21
46.49060672093174
 31
0.0
210
0.0
220
0.0
230
1.0
 40
0.0465792159860522
 41
4.876089448987598
 42
4.898205116170579
  0
ARC
  5
CE2
330
B94
100
AcDbEntity
  8
0
  6
Continuous
 62
     7
370
    15
100
AcDbCircle
 10
1985.610629344381
 20
1024.243341006726
 30
0.0
 40
2.442494385035363
100
AcDbArc
 50
290.6942969965511
 51
309.8312939364185
  0
ELLIPSE
  5
CE3
330
B94
100
AcDbEntity
  8
0
  6
Continuous
 62
     7
370
    15
100
AcDbEllipse
 10
1984.564258856771
 20
1014.317825181118
 30
0.0
 11
2.403076573681027
 21
48.69958568622273
 31
0.0
210
0.0
220
0.0
230
1.0
 40
0.0459946801976244
 41
4.880716177083891
 42
4.902831844266873
  0
LWPOLYLINE
  5
CE4
330
B94
100
AcDbEntity
  8
0
  6
Continuous
 62
     7
370
    15
100
AcDbPolyline
 90
       20
 70
   128
 43
0.0
 10
1982.920807236362
 20
1025.355309104334
 10
1983.268539111566
 20
1025.468417488363
 10
1983.64520865347
 20
1025.554723706417
 10
1984.043081218768
 20
1025.612456462788
 10
1984.453989010397
 20
1025.640429449604
 10
1984.869494647371
 20
1025.638069251808
 10
1985.281066953582
 20
1025.605424155027
 10
1985.680257427945
 20
1025.543163874136
 10
1986.058868902837
 20
1025.452567420211
 10
1986.409129003311
 20
1025.335494091493
 10
1986.723845406044
 20
1025.194348189347
 10
1986.996557920219
 20
1025.032027293128
 10
1987.221665801688
 20
1024.851864063211
 10
1987.394548674039
 20
1024.657557741582
 10
1987.51165671739
 20
1024.453097148128
 10
1987.570584484385
 20
1024.242680658468
 10
1987.57012418668
 20
1024.030627814798
 10
1987.510283429719
 20
1023.821292735843
 10
1987.392291722549
 20
1023.618973146023
 10
1987.218571844811
 20
1023.427822901119
  0
ELLIPSE
  5
CE5
330
B94
100
AcDbEntity
  8
0
  6
Continuous
 62
     7
370
    15
100
AcDbEllipse
 10
1984.564258856771
 20
1014.317825181118
 30
0.0
 11
2.403076573681027
 21
48.69958568622273
 31
0.0
210
0.0
220
0.0
230
1.0
 40
0.0459946801976244
 41
1.34443557749357
 42
1.361006635772647
  0
LINE
  5
CE6
330
B94
100
AcDbEntity
  8
0
  6
Continuous
 62
     7
370
    15
100
AcDbLine
 10
1984.664903157626
 20
1023.764584226468
 30
0.0
 11
1986.43509457371
 21
1022.97067851271
 31
0.0
  0
LINE
  5
CE7
330
B94
100
AcDbEntity
  8
0
  6
Continuous
 62
     7
370
    15
100
AcDbLine
 10
1982.137330823233
 20
1024.898164488871
 30
0.0
 11
1983.907522239316
 21
1024.104258775114
 31
0.0
  0
LINE
  5
CE8
330
B94
100
AcDbEntity
  8
0
  6
Continuous
 62
     7
370
    15
100
AcDbLine
 10
1983.907522239316
 20
1024.104258775114
 30
0.0
 11
1982.993465919126
 21
1023.570923459532
 31
0.0
  0
LINE
  5
CE9
330
B94
100
AcDbEntity
  8
0
  6
Continuous
 62
     7
370
    15
100
AcDbLine
 10
1982.993465919126
 20
1023.570923459532
 30
0.0
 11
1983.75084746775
 21
1023.231248550623
 31
0.0
  0
LINE
  5
CEA
330
B94
100
AcDbEntity
  8
0
  6
Continuous
 62
     7
370
    15
100
AcDbLine
 10
1983.75084746775
 20
1023.231248550623
 30
0.0
 11
1984.664903157626
 21
1023.764584226468
 31
0.0
  0
LINE
  5
CEB
330
B94
100
AcDbEntity
  8
0
  6
Continuous
 62
     7
370
    15
100
AcDbLine
 10
1984.402180537609
 20
1023.611290203709
 30
0.0
 11
1983.928444100074
 21
1023.823754377488
 31
0.0
  0
LINE
  5
CEC
330
B94
100
AcDbEntity
  8
0
  6
Continuous
 62
     7
370
    15
100
AcDbLine
 10
1985.418219148803
 20
1023.91159658004
 30
0.0
 11
1984.948375215735
 21
1023.637451215738
 31
0.0
  0
LINE
  5
CED
330
B94
100
AcDbEntity
  8
0
  6
Continuous
 62
     7
370
    15
100
AcDbLine
 10
1987.175118384273
 20
1022.367667030527
 30
0.0
 11
1986.445740659141
 21
1022.694782667568
 31
0.0
  0
LINE
  5
CEE
330
B94
100
AcDbEntity
  8
0
  6
Continuous
 62
     7
370
    15
100
AcDbLine
 10
1987.218571844811
 20
1023.427822901119
 30
0.0
 11
1985.448379722529
 21
1024.221728930736
 31
0.0
  0
LINE
  5
CEF
330
B94
100
AcDbEntity
  8
0
  6
Continuous
 62
     7
370
    15
100
AcDbLine
 10
1985.448379722529
 20
1024.221728930736
 30
0.0
 11
1985.373036824298
 21
1023.44699637787
 31
0.0
  0
LINE
  5
CF0
330
B94
100
AcDbEntity
  8
0
  6
Continuous
 62
     7
370
    15
100
AcDbLine
 10
1986.362436118605
 20
1024.755064290722
 30
0.0
 11
1985.605054494095
 21
1025.094739155227
 31
0.0
  0
LINE
  5
CF1
330
B94
100
AcDbEntity
  8
0
  6
Continuous
 62
     7
370
    15
100
AcDbLine
 10
1985.605054494095
 20
1025.094739155227
 30
0.0
 11
1984.690998804218
 21
1024.561403479382
 31
0.0
  0
LINE
  5
CF2
330
B94
100
AcDbEntity
  8
0
  6
Continuous
 62
     7
370
    15
100
AcDbLine
 10
1984.690998804218
 20
1024.561403479382
 30
0.0
 11
1982.920807236362
 21
1025.355309104334
 31
0.0
  0
LINE
  5
CF3
330
B94
100
AcDbEntity
  8
0
  6
Continuous
 62
     7
370
    15
100
AcDbLine
 10
1985.448379722529
 20
1024.221728930736
 30
0.0
 11
1986.362436118605
 21
1024.755064290722
 31
0.0
  0
ARC
  5
CF4
330
B94
100
AcDbEntity
  8
0
  6
Continuous
 62
     7
370
    15
100
AcDbCircle
 10
1983.511049682326
 20
1015.615298740986
 30
0.0
 40
1.579593493699889
100
AcDbArc
 50
242.5362281361828
 51
289.1062541548857
  0
LWPOLYLINE
  5
CF5
330
B94
100
AcDbEntity
  8
0
  6
Continuous
 62
     7
370
    15
100
AcDbPolyline
 90
       17
 70
   128
 43
0.0
 10
1981.265726063566
 20
1018.843677712504
 10
1981.196574685038
 20
1018.782192087323
 10
1981.017636101584
 20
1018.568684371716
 10
1980.878733451326
 20
1018.310720428028
 10
1980.782968585384
 20
1018.014062660402
 10
1980.732481561732
 20
1017.685338360819
 10
1980.728399938221
 20
1017.331890114977
 10
1980.770814891945
 20
1016.961613404619
 10
1980.858779177617
 20
1016.582779813126
 10
1980.990326996635
 20
1016.203852041225
 10
1981.162520787283
 20
1015.833294328153
 10
1981.371513650749
 20
1015.479384533379
 10
1981.612637355245
 20
1015.150028262109
 10
1981.880504652558
 20
1014.852582991539
 10
1982.169132306769
 20
1014.593693159295
 10
1982.472073540558
 20
1014.37914166826
 10
1982.78256064923
 20
1014.213721296105
  0
LINE
  5
CF6
330
B94
100
AcDbEntity
  8
0
  6
Continuous
 62
     7
370
    15
100
AcDbLine
 10
1983.907522239316
 20
1024.104258775114
 30
0.0
 11
1983.963387292963
 21
1023.355262276696
 31
0.0
  0
LWPOLYLINE
  5
CF7
330
B94
100
AcDbEntity
  8
0
  6
Continuous
 62
     7
370
    15
100
AcDbPolyline
 90
       20
 70
   128
 43
0.0
 10
1981.695868941465
 20
1025.090378740957
 10
1981.34813620829
 20
1024.977270583982
 10
1980.971467448471
 20
1024.890964094471
 10
1980.573594757732
 20
1024.833231629239
 10
1980.162687243317
 20
1024.80525844009
 10
1979.747181682229
 20
1024.80761868229
 10
1979.335608947032
 20
1024.840263892597
 10
1978.936418749882
 20
1024.902523971155
 10
1978.557807016749
 20
1024.993120638514
 10
1978.207547193488
 20
1025.110193764899
 10
1977.892830361769
 20
1025.251339780571
 10
1977.62011840938
 20
1025.413660640969
 10
1977.395010300254
 20
1025.593823737677
 10
1977.222127479011
 20
1025.788130271481
 10
1977.10501961221
 20
1025.992590785969
 10
1977.046091163793
 20
1026.203007423718
 10
1977.046551890483
 20
1026.415060153861
 10
1977.106392395009
 20
1026.624395267378
 10
1977.224384278728
 20
1026.826714778233
 10
1977.398104484788
 20
1027.017865032978
  0
ELLIPSE
  5
CF8
330
B94
100
AcDbEntity
  8
0
  6
Continuous
 62
     7
370
    15
100
AcDbEllipse
 10
1979.825032942047
 20
1016.437525535709
 30
0.0
 11
-1.393150282698023
 21
46.49060672093168
 31
0.0
210
0.0
220
0.0
230
1.0
 40
0.0465792159860521
 41
4.876089448987595
 42
4.898205116170577
  0
LINE
  5
CF9
330
B94
100
AcDbEntity
  8
0
  6
Continuous
 62
     7
370
    15
100
AcDbLine
 10
1981.776976829371
 20
1024.09538100876
 30
0.0
 11
1981.73453590089
 21
1024.07813883374
 31
0.0
  0
ELLIPSE
  5
CFA
330
B94
100
AcDbEntity
  8
0
  6
Continuous
 62
     7
370
    15
100
AcDbEllipse
 10
1979.825032942047
 20
1016.437525535709
 30
0.0
 11
2.403076573681041
 21
48.69958568622273
 31
0.0
210
0.0
220
0.0
230
1.0
 40
0.0459946801976245
 41
4.886378954071465
 42
4.902831844266873
  0
LWPOLYLINE
  5
CFB
330
B94
100
AcDbEntity
  8
0
  6
Continuous
 62
     7
370
    15
100
AcDbPolyline
 90
       20
 70
   128
 43
0.0
 10
1978.181581074468
 20
1027.475009569476
 10
1978.529313302772
 20
1027.588117795575
 10
1978.905982668126
 20
1027.674424092595
 10
1979.303855586523
 20
1027.732156691035
 10
1979.714762848503
 20
1027.760129914746
 10
1980.130268308927
 20
1027.757769795915
 10
1980.541841321338
 20
1027.725124383274
 10
1980.941031442601
 20
1027.662864260312
 10
1981.319643270592
 20
1027.572267648458
 10
1981.669903017967
 20
1027.45519447767
 10
1981.9846194207
 20
1027.314048575524
 10
1982.257331581776
 20
1027.151727837235
 10
1982.482439816343
 20
1026.971564449388
 10
1982.655322688694
 20
1026.777258127759
 10
1982.772430378946
 20
1026.572797692235
 10
1982.831358852141
 20
1026.362380886715
 10
1982.830898201336
 20
1026.150328200975
 10
1982.771057797474
 20
1025.94099296409
 10
1982.653066090305
 20
1025.738673374269
 10
1982.479345506367
 20
1025.547523445226
  0
ELLIPSE
  5
CFC
330
B94
100
AcDbEntity
  8
0
  6
Continuous
 62
     7
370
    15
100
AcDbEllipse
 10
1979.825032942047
 20
1016.437525535709
 30
0.0
 11
2.403076573681041
 21
48.69958568622273
 31
0.0
210
0.0
220
0.0
230
1.0
 40
0.0459946801976245
 41
1.344435577493569
 42
1.361006635772647
  0
LINE
  5
CFD
330
B94
100
AcDbEntity
  8
0
  6
Continuous
 62
     7
370
    15
100
AcDbLine
 10
1979.925677525382
 20
1025.884284454715
 30
0.0
 11
1981.695868941465
 21
1025.090378740957
 31
0.0
  0
LINE
  5
CFE
330
B94
100
AcDbEntity
  8
0
  6
Continuous
 62
     7
370
    15
100
AcDbLine
 10
1977.398104484788
 20
1027.017865032978
 30
0.0
 11
1979.168295900872
 21
1026.223959319221
 31
0.0
  0
LINE
  5
CFF
330
B94
100
AcDbEntity
  8
0
  6
Continuous
 62
     7
370
    15
100
AcDbLine
 10
1979.168295900872
 20
1026.223959319221
 30
0.0
 11
1978.254239933782
 21
1025.690623845708
 31
0.0
  0
LINE
  5
D00
330
B94
100
AcDbEntity
  8
0
  6
Continuous
 62
     7
370
    15
100
AcDbLine
 10
1978.254239933782
 20
1025.690623845708
 30
0.0
 11
1979.011621482406
 21
1025.3509489368
 31
0.0
  0
LINE
  5
D01
330
B94
100
AcDbEntity
  8
0
  6
Continuous
 62
     7
370
    15
100
AcDbLine
 10
1979.011621482406
 20
1025.3509489368
 30
0.0
 11
1979.925677525382
 21
1025.884284454715
 31
0.0
  0
LINE
  5
D02
330
B94
100
AcDbEntity
  8
0
  6
Continuous
 62
     7
370
    15
100
AcDbLine
 10
1984.690998804218
 20
1024.561403479382
 30
0.0
 11
1984.68699544857
 21
1023.754676282618
 31
0.0
  0
LINE
  5
D03
330
B94
100
AcDbEntity
  8
0
  6
Continuous
 62
     7
370
    15
100
AcDbLine
 10
1985.601164519055
 20
1024.310876096
 30
0.0
 11
1985.605054494095
 21
1025.094739155227
 31
0.0
  0
LINE
  5
D04
330
B94
100
AcDbEntity
  8
0
  6
Continuous
 62
     7
370
    15
100
AcDbLine
 10
1979.662954905365
 20
1025.730990431956
 30
0.0
 11
1979.18921811473
 21
1025.943454763665
 31
0.0
  0
LINE
  5
D05
330
B94
100
AcDbEntity
  8
0
  6
Continuous
 62
     7
370
    15
100
AcDbLine
 10
1980.678993163459
 20
1026.031296966217
 30
0.0
 11
1980.20914958349
 21
1025.757151443985
 31
0.0
  0
LINE
  5
D06
330
B94
100
AcDbEntity
  8
0
  6
Continuous
 62
     7
370
    15
100
AcDbLine
 10
1981.959272002944
 20
1024.701124937691
 30
0.0
 11
1981.706515026897
 21
1024.814482895815
 31
0.0
  0
LINE
  5
D07
330
B94
100
AcDbEntity
  8
0
  6
Continuous
 62
     7
370
    15
100
AcDbLine
 10
1982.479345506367
 20
1025.547523445226
 30
0.0
 11
1980.709154090284
 21
1026.341429158983
 31
0.0
  0
LINE
  5
D08
330
B94
100
AcDbEntity
  8
0
  6
Continuous
 62
     7
370
    15
100
AcDbLine
 10
1980.709154090284
 20
1026.341429158983
 30
0.0
 11
1980.633810838953
 21
1025.566696764047
 31
0.0
  0
LINE
  5
D09
330
B94
100
AcDbEntity
  8
0
  6
Continuous
 62
     7
370
    15
100
AcDbLine
 10
1981.623210133261
 20
1026.874764676899
 30
0.0
 11
1980.86582886185
 21
1027.214439383475
 31
0.0
  0
LINE
  5
D0A
330
B94
100
AcDbEntity
  8
0
  6
Continuous
 62
     7
370
    15
100
AcDbLine
 10
1980.86582886185
 20
1027.214439383475
 30
0.0
 11
1979.951772465774
 21
1026.681104023489
 31
0.0
  0
LINE
  5
D0B
330
B94
100
AcDbEntity
  8
0
  6
Continuous
 62
     7
370
    15
100
AcDbLine
 10
1979.951772465774
 20
1026.681104023489
 30
0.0
 11
1978.181581074468
 21
1027.475009569476
 31
0.0
  0
LINE
  5
D0C
330
B94
100
AcDbEntity
  8
0
  6
Continuous
 62
     7
370
    15
100
AcDbLine
 10
1980.709154090284
 20
1026.341429158983
 30
0.0
 11
1981.623210133261
 21
1026.874764676899
 31
0.0
  0
ARC
  5
D0D
330
B94
100
AcDbEntity
  8
0
  6
Continuous
 62
     7
370
    15
100
AcDbCircle
 10
1978.771823346498
 20
1017.734994724402
 30
0.0
 40
1.579589448195147
100
AcDbArc
 50
242.5361517586327
 51
289.1063184405111
  0
LWPOLYLINE
  5
D0E
330
B94
100
AcDbEntity
  8
0
  6
Continuous
 62
     7
370
    15
100
AcDbPolyline
 90
       17
 70
   128
 43
0.0
 10
1976.526500078222
 20
1020.963378098681
 10
1976.457349052794
 20
1020.90189231557
 10
1976.27841046934
 20
1020.688384599963
 10
1976.139507465981
 20
1020.430420814205
 10
1976.04374277659
 20
1020.133762967614
 10
1975.993255752938
 20
1019.805038668031
 10
1975.989174129427
 20
1019.45159042219
 10
1976.031589083151
 20
1019.081313711831
 10
1976.119553192272
 20
1018.702480199303
 10
1976.25110136439
 20
1018.323552269472
 10
1976.423295155039
 20
1017.9529945564
 10
1976.632287841955
 20
1017.599084840591
 10
1976.87341119335
 20
1017.269728727251
 10
1977.141278667214
 20
1016.972283377716
 10
1977.429906674524
 20
1016.713393387542
 10
1977.732847555214
 20
1016.498842054437
 10
1978.043334310786
 20
1016.333421840212
  0
LINE
  5
D0F
330
B94
100
AcDbEntity
  8
0
  6
Continuous
 62
     7
370
    15
100
AcDbLine
 10
1979.168295900872
 20
1026.223959319221
 30
0.0
 11
1979.224161660718
 21
1025.474962504943
 31
0.0
  0
LINE
  5
D10
330
B94
100
AcDbEntity
  8
0
  6
Continuous
 62
     7
370
    15
100
AcDbLine
 10
1979.951772465774
 20
1026.681104023489
 30
0.0
 11
1979.947769463226
 21
1025.874376668795
 31
0.0
  0
LINE
  5
D11
330
B94
100
AcDbEntity
  8
0
  6
Continuous
 62
     7
370
    15
100
AcDbLine
 10
1980.861938533711
 20
1026.430576482177
 30
0.0
 11
1980.86582886185
 21
1027.214439383475
 31
0.0
  0
ENDBLK
  5
B96
330
B94
100
AcDbEntity
  8
0
100
AcDbBlockEnd
  0
ENDSEC
  0
SECTION
  2
ENTITIES
  0
INSERT
  5
9BC
330
1F
100
AcDbEntity
  8
0
100
AcDbBlockReference
  2
1
 10
0.0
 20
0.0
 30
0.0
  0
INSERT
  5
B75
330
1F
100
AcDbEntity
  8
0
100
AcDbBlockReference
  2
2
 10
0.0
 20
0.0
 30
0.0
  0
INSERT
  5
B93
330
1F
100
AcDbEntity
  8
0
100
AcDbBlockReference
  2
3
 10
15.54305372165436
 20
0.0
 30
0.0
  0
INSERT
  5
D12
330
1F
100
AcDbEntity
  8
0
100
AcDbBlockReference
  2
4
 10
-106.2503780578824
 20
-1.321916878879392
 30
0.0
  0
ENDSEC
  0
SECTION
  2
OBJECTS
  0
DICTIONARY
  5
C
330
0
100
AcDbDictionary
281
     1
  3
ACAD_COLOR
350
6B
  3
ACAD_GROUP
350
D
  3
ACAD_LAYOUT
350
1A
  3
ACAD_MATERIAL
350
6A
  3
ACAD_MLEADERSTYLE
350
12D
  3
ACAD_MLINESTYLE
350
17
  3
ACAD_PLOTSETTINGS
350
19
  3
ACAD_PLOTSTYLENAME
350
E
  3
ACAD_SCALELIST
350
10C
  3
ACAD_TABLESTYLE
350
7E
  3
ACAD_VISUALSTYLE
350
EF
  3
ACDB_RECOMPOSE_DATA
350
15D
  3
AcDbVariableDictionary
350
5E
  3
DWGPROPS
350
D20
  0
DICTIONARY
  5
13C
330
10
100
AcDbDictionary
280
     1
281
     1
  3
ADSK_XREC_LAYER_RECONCILED
360
D13
  0
DICTIONARY
  5
6B
102
{ACAD_REACTORS
330
C
102
}
330
C
100
AcDbDictionary
281
     1
  0
DICTIONARY
  5
D
102
{ACAD_REACTORS
330
C
102
}
330
C
100
AcDbDictionary
281
     1
  0
DICTIONARY
  5
1A
102
{ACAD_REACTORS
330
C
102
}
330
C
100
AcDbDictionary
281
     1
  3
Layout1
350
D3
  3
Layout2
350
D7
  3
Model
350
22
  0
DICTIONARY
  5
6A
102
{ACAD_REACTORS
330
C
102
}
330
C
100
AcDbDictionary
281
     1
  3
ByBlock
350
ED
  3
ByLayer
350
EC
  3
Global
350
EE
  0
DICTIONARY
  5
12D
102
{ACAD_REACTORS
330
C
102
}
330
C
100
AcDbDictionary
281
     1
  3
Annotative
350
13B
  3
Standard
350
12E
  0
DICTIONARY
  5
17
102
{ACAD_REACTORS
330
C
102
}
330
C
100
AcDbDictionary
281
     1
  3
Standard
350
18
  0
DICTIONARY
  5
19
102
{ACAD_REACTORS
330
C
102
}
330
C
100
AcDbDictionary
281
     1
  0
ACDBDICTIONARYWDFLT
  5
E
102
{ACAD_REACTORS
330
C
102
}
330
C
100
AcDbDictionary
281
     1
  3
Normal
350
F
100
AcDbDictionaryWithDefault
340
F
  0
DICTIONARY
  5
10C
102
{ACAD_REACTORS
330
C
102
}
330
C
100
AcDbDictionary
281
     1
  3
A0
350
10D
  3
A1
350
188
  3
A2
350
189
  3
A3
350
18A
  3
A4
350
18B
  3
A5
350
18C
  3
A6
350
18D
  3
A7
350
18E
  3
A8
350
18F
  3
A9
350
190
  3
B0
350
191
  3
B1
350
192
  3
B2
350
193
  3
B3
350
194
  3
B4
350
195
  3
B5
350
196
  3
B6
350
197
  3
B7
350
198
  3
B8
350
199
  3
B9
350
19A
  3
C0
350
19B
  3
C1
350
19C
  3
C2
350
19D
  3
C3
350
19E
  3
C4
350
19F
  3
C5
350
1A0
  3
C6
350
1A1
  3
C7
350
1A2
  3
C8
350
1A3
  3
C9
350
1A4
  3
D0
350
1A5
  3
D1
350
1A6
  3
D2
350
1A7
  0
DICTIONARY
  5
7E
102
{ACAD_REACTORS
330
C
102
}
330
C
100
AcDbDictionary
281
     1
  3
Standard
350
7F
  0
DICTIONARY
  5
EF
102
{ACAD_REACTORS
330
C
102
}
330
C
100
AcDbDictionary
281
     1
  3
2dWireframe
350
F5
  3
3D Hidden
350
F7
  3
3dWireframe
350
F6
  3
Basic
350
F4
  3
Brighten
350
FB
  3
ColorChange
350
FF
  3
Conceptual
350
F8
  3
Dim
350
FA
  3
Facepattern
350
FE
  3
Flat
350
F0
  3
FlatWithEdges
350
F1
  3
Gouraud
350
F2
  3
GouraudWithEdges
350
F3
  3
Linepattern
350
FD
  3
Realistic
350
F9
  3
Thicken
350
FC
  0
XRECORD
  5
15D
102
{ACAD_REACTORS
330
C
102
}
330
C
100
AcDbXrecord
280
     1
 90
        1
330
7F
  0
DICTIONARY
  5
5E
102
{ACAD_REACTORS
330
C
102
}
330
C
100
AcDbDictionary
281
     1
  3
CANNOSCALE
350
146
  3
CMLEADERSTYLE
350
145
  3
CTABLESTYLE
350
84
  3
DIMASSOC
350
5F
  3
HIDETEXT
350
63
  3
INDEXCTL
350
D1C
  3
LIGHTINGUNITS
350
D1A
  3
MSLTSCALE
350
D19
  3
PSOLHEIGHT
350
D1E
  3
PSOLWIDTH
350
D1D
  3
SORTENTS
350
D1B
  0
XRECORD
  5
D20
102
{ACAD_REACTORS
330
C
102
}
330
C
100
AcDbXrecord
280
     1
  1
DWGPROPS COOKIE
  2

  3

  4

  6

  7

  8
orhan kara
  9

300
=
301
=
302
=
303
=
304
=
305
=
306
=
307
=
308
=
309
=
 40
0.0005578819444444
 41
2458453.449573438
 42
2458983.556176805
  1

 90
        0
  0
XRECORD
  5
D13
102
{ACAD_REACTORS
330
13C
102
}
330
13C
100
AcDbXrecord
280
     1
290
     1
  0
LAYOUT
  5
D3
102
{ACAD_XDICTIONARY
360
D24
102
}
102
{ACAD_REACTORS
330
1A
102
}
330
1A
100
AcDbPlotSettings
  1

  2
C:\Documents and Settings\basas\Application Data\Autodesk\AutoCAD 2005\R16.1\enu\plotters\Default Windows System Printer.pc3
  4

  6

 40
0.0
 41
0.0
 42
0.0
 43
0.0
 44
0.0
 45
0.0
 46
0.0
 47
0.0
 48
0.0
 49
0.0
140
0.0
141
0.0
142
1.0
143
1.0
 70
   688
 72
     0
 73
     0
 74
     5
  7

 75
    16
147
1.0
148
0.0
149
0.0
100
AcDbLayout
  1
Layout1
 70
     1
 71
     1
 10
0.0
 20
0.0
 11
12.0
 21
9.0
 12
0.0
 22
0.0
 32
0.0
 14
0.0
 24
0.0
 34
0.0
 15
0.0
 25
0.0
 35
0.0
146
0.0
 13
0.0
 23
0.0
 33
0.0
 16
1.0
 26
0.0
 36
0.0
 17
0.0
 27
1.0
 37
0.0
 76
     0
330
D2
  0
LAYOUT
  5
D7
102
{ACAD_XDICTIONARY
360
D26
102
}
102
{ACAD_REACTORS
330
1A
102
}
330
1A
100
AcDbPlotSettings
  1

  2
C:\Documents and Settings\basas\Application Data\Autodesk\AutoCAD 2005\R16.1\enu\plotters\Default Windows System Printer.pc3
  4

  6

 40
0.0
 41
0.0
 42
0.0
 43
0.0
 44
0.0
 45
0.0
 46
0.0
 47
0.0
 48
0.0
 49
0.0
140
0.0
141
0.0
142
1.0
143
1.0
 70
   688
 72
     0
 73
     0
 74
     5
  7

 75
    16
147
1.0
148
0.0
149
0.0
100
AcDbLayout
  1
Layout2
 70
     1
 71
     2
 10
0.0
 20
0.0
 11
12.0
 21
9.0
 12
0.0
 22
0.0
 32
0.0
 14
0.0
 24
0.0
 34
0.0
 15
0.0
 25
0.0
 35
0.0
146
0.0
 13
0.0
 23
0.0
 33
0.0
 16
1.0
 26
0.0
 36
0.0
 17
0.0
 27
1.0
 37
0.0
 76
     0
330
D6
  0
LAYOUT
  5
22
102
{ACAD_XDICTIONARY
360
D21
102
}
102
{ACAD_REACTORS
330
1A
102
}
330
1A
100
AcDbPlotSettings
  1

  2
none_device
  4
ISO_A4_(210.00_x_297.00_MM)
  6

 40
7.5
 41
20.0
 42
7.5
 43
20.0
 44
210.0
 45
297.0
 46
11.54999923706054
 47
-13.65000009536743
 48
0.0
 49
0.0
140
0.0
141
0.0
142
1.0
143
8.704084754739808
 70
 11952
 72
     1
 73
     0
 74
     0
  7

 75
     0
147
0.1148885871608098
148
0.0
149
0.0
100
AcDbLayout
  1
Model
 70
     1
 71
     0
 10
0.0
 20
0.0
 11
12.0
 21
9.0
 12
0.0
 22
0.0
 32
0.0
 14
0.0
 24
0.0
 34
0.0
 15
0.0
 25
0.0
 35
0.0
146
0.0
 13
0.0
 23
0.0
 33
0.0
 16
1.0
 26
0.0
 36
0.0
 17
0.0
 27
1.0
 37
0.0
 76
     0
330
1F
331
EA
1001
ACAD_PSEXT
1000
None
1000
None
1000
Not applicable
1000
The layout will not be plotted unless a new plotter configuration name is selected.
1070
     0
  0
MATERIAL
  5
ED
102
{ACAD_XDICTIONARY
360
D2A
102
}
102
{ACAD_REACTORS
330
6A
102
}
330
6A
100
AcDbMaterial
  1
ByBlock
  0
MATERIAL
  5
EC
102
{ACAD_XDICTIONARY
360
D28
102
}
102
{ACAD_REACTORS
330
6A
102
}
330
6A
100
AcDbMaterial
  1
ByLayer
  0
MATERIAL
  5
EE
102
{ACAD_XDICTIONARY
360
173
102
}
102
{ACAD_REACTORS
330
6A
102
}
330
6A
100
AcDbMaterial
  1
Global
 43
0.0007999999797903
 43
0.0
 43
0.0
 43
0.0
 43
0.0
 43
0.0007999999797903
 43
0.0
 43
0.0
 43
0.0
 43
0.0
 43
1.0
 43
0.0
 43
0.0
 43
0.0
 43
0.0
 43
1.0
 49
0.0007999999797903
 49
0.0
 49
0.0
 49
0.0
 49
0.0
 49
0.0007999999797903
 49
0.0
 49
0.0
 49
0.0
 49
0.0
 49
1.0
 49
0.0
 49
0.0
 49
0.0
 49
0.0
 49
1.0
142
0.0007999999797903
142
0.0
142
0.0
142
0.0
142
0.0
142
0.0007999999797903
142
0.0
142
0.0
142
0.0
142
0.0
142
1.0
142
0.0
142
0.0
142
0.0
142
0.0
142
1.0
144
0.0007999999797903
144
0.0
144
0.0
144
0.0
144
0.0
144
0.0007999999797903
144
0.0
144
0.0
144
0.0
144
0.0
144
1.0
144
0.0
144
0.0
144
0.0
144
0.0
144
1.0
1001
ACAD
1070
    -1
1070
     3
1070
     0
1000

1071
        0
1070
     0
  0
MLEADERSTYLE
  5
13B
102
{ACAD_REACTORS
330
12D
102
}
330
12D
100
AcDbMLeaderStyle
170
     2
171
     1
172
     0
 90
        2
 40
0.0
 41
0.0
173
     1
 91
-1056964608
340
14
 92
       -2
290
     1
 42
2.0
291
     1
 43
8.0
  3
Standard
 44
4.0
300

342
11
174
     1
178
     1
175
     1
176
     0
 93
-1056964608
 45
4.0
292
     0
297
     0
 46
4.0
 94
-1056964608
 47
1.0
 49
1.0
140
1.0
293
     1
141
0.0
294
     1
177
     0
142
1.0
295
     0
296
     1
143
3.75
1001
ACAD_MLEADERVER
1070
     2
  0
MLEADERSTYLE
  5
12E
102
{ACAD_REACTORS
330
12D
102
}
330
12D
100
AcDbMLeaderStyle
170
     2
171
     1
172
     0
 90
        2
 40
0.0
 41
0.0
173
     1
 91
-1056964608
340
14
 92
       -2
290
     1
 42
2.0
291
     1
 43
8.0
  3
Standard
 44
4.0
300

342
11
174
     1
178
     1
175
     1
176
     0
 93
-1056964608
 45
4.0
292
     0
297
     0
 46
4.0
 94
-1056964608
 47
1.0
 49
1.0
140
1.0
293
     1
141
0.0
294
     1
177
     0
142
1.0
295
     0
296
     0
143
3.75
1001
ACAD_MLEADERVER
1070
     2
  0
MLINESTYLE
  5
18
102
{ACAD_REACTORS
330
17
102
}
330
17
100
AcDbMlineStyle
  2
STANDARD
 70
     0
  3

 62
   256
 51
90.0
 52
90.0
 71
     2
 49
0.5
 62
   256
  6
BYLAYER
 49
-0.5
 62
   256
  6
BYLAYER
  0
ACDBPLACEHOLDER
  5
F
102
{ACAD_REACTORS
330
E
102
}
330
E
  0
SCALE
  5
10D
102
{ACAD_REACTORS
330
10C
102
}
330
10C
100
AcDbScale
 70
     0
300
1:1
140
1.0
141
1.0
290
     1
  0
SCALE
  5
188
102
{ACAD_REACTORS
330
10C
102
}
330
10C
100
AcDbScale
 70
     0
300
1:2
140
1.0
141
2.0
290
     0
  0
SCALE
  5
189
102
{ACAD_REACTORS
330
10C
102
}
330
10C
100
AcDbScale
 70
     0
300
1:4
140
1.0
141
4.0
290
     0
  0
SCALE
  5
18A
102
{ACAD_REACTORS
330
10C
102
}
330
10C
100
AcDbScale
 70
     0
300
1:5
140
1.0
141
5.0
290
     0
  0
SCALE
  5
18B
102
{ACAD_REACTORS
330
10C
102
}
330
10C
100
AcDbScale
 70
     0
300
1:8
140
1.0
141
8.0
290
     0
  0
SCALE
  5
18C
102
{ACAD_REACTORS
330
10C
102
}
330
10C
100
AcDbScale
 70
     0
300
1:10
140
1.0
141
10.0
290
     0
  0
SCALE
  5
18D
102
{ACAD_REACTORS
330
10C
102
}
330
10C
100
AcDbScale
 70
     0
300
1:16
140
1.0
141
16.0
290
     0
  0
SCALE
  5
18E
102
{ACAD_REACTORS
330
10C
102
}
330
10C
100
AcDbScale
 70
     0
300
1:20
140
1.0
141
20.0
290
     0
  0
SCALE
  5
18F
102
{ACAD_REACTORS
330
10C
102
}
330
10C
100
AcDbScale
 70
     0
300
1:30
140
1.0
141
30.0
290
     0
  0
SCALE
  5
190
102
{ACAD_REACTORS
330
10C
102
}
330
10C
100
AcDbScale
 70
     0
300
1:40
140
1.0
141
40.0
290
     0
  0
SCALE
  5
191
102
{ACAD_REACTORS
330
10C
102
}
330
10C
100
AcDbScale
 70
     0
300
1:50
140
1.0
141
50.0
290
     0
  0
SCALE
  5
192
102
{ACAD_REACTORS
330
10C
102
}
330
10C
100
AcDbScale
 70
     0
300
1:100
140
1.0
141
100.0
290
     0
  0
SCALE
  5
193
102
{ACAD_REACTORS
330
10C
102
}
330
10C
100
AcDbScale
 70
     0
300
2:1
140
2.0
141
1.0
290
     0
  0
SCALE
  5
194
102
{ACAD_REACTORS
330
10C
102
}
330
10C
100
AcDbScale
 70
     0
300
4:1
140
4.0
141
1.0
290
     0
  0
SCALE
  5
195
102
{ACAD_REACTORS
330
10C
102
}
330
10C
100
AcDbScale
 70
     0
300
8:1
140
8.0
141
1.0
290
     0
  0
SCALE
  5
196
102
{ACAD_REACTORS
330
10C
102
}
330
10C
100
AcDbScale
 70
     0
300
10:1
140
10.0
141
1.0
290
     0
  0
SCALE
  5
197
102
{ACAD_REACTORS
330
10C
102
}
330
10C
100
AcDbScale
 70
     0
300
100:1
140
100.0
141
1.0
290
     0
  0
SCALE
  5
198
102
{ACAD_REACTORS
330
10C
102
}
330
10C
100
AcDbScale
 70
     0
300
1/128" = 1'-0"
140
0.0078125
141
12.0
290
     0
  0
SCALE
  5
199
102
{ACAD_REACTORS
330
10C
102
}
330
10C
100
AcDbScale
 70
     0
300
1/64" = 1'-0"
140
0.015625
141
12.0
290
     0
  0
SCALE
  5
19A
102
{ACAD_REACTORS
330
10C
102
}
330
10C
100
AcDbScale
 70
     0
300
1/32" = 1'-0"
140
0.03125
141
12.0
290
     0
  0
SCALE
  5
19B
102
{ACAD_REACTORS
330
10C
102
}
330
10C
100
AcDbScale
 70
     0
300
1/16" = 1'-0"
140
0.0625
141
12.0
290
     0
  0
SCALE
  5
19C
102
{ACAD_REACTORS
330
10C
102
}
330
10C
100
AcDbScale
 70
     0
300
3/32" = 1'-0"
140
0.09375
141
12.0
290
     0
  0
SCALE
  5
19D
102
{ACAD_REACTORS
330
10C
102
}
330
10C
100
AcDbScale
 70
     0
300
1/8" = 1'-0"
140
0.125
141
12.0
290
     0
  0
SCALE
  5
19E
102
{ACAD_REACTORS
330
10C
102
}
330
10C
100
AcDbScale
 70
     0
300
3/16" = 1'-0"
140
0.1875
141
12.0
290
     0
  0
SCALE
  5
19F
102
{ACAD_REACTORS
330
10C
102
}
330
10C
100
AcDbScale
 70
     0
300
1/4" = 1'-0"
140
0.25
141
12.0
290
     0
  0
SCALE
  5
1A0
102
{ACAD_REACTORS
330
10C
102
}
330
10C
100
AcDbScale
 70
     0
300
3/8" = 1'-0"
140
0.375
141
12.0
290
     0
  0
SCALE
  5
1A1
102
{ACAD_REACTORS
330
10C
102
}
330
10C
100
AcDbScale
 70
     0
300
1/2" = 1'-0"
140
0.5
141
12.0
290
     0
  0
SCALE
  5
1A2
102
{ACAD_REACTORS
330
10C
102
}
330
10C
100
AcDbScale
 70
     0
300
3/4" = 1'-0"
140
0.75
141
12.0
290
     0
  0
SCALE
  5
1A3
102
{ACAD_REACTORS
330
10C
102
}
330
10C
100
AcDbScale
 70
     0
300
1" = 1'-0"
140
1.0
141
12.0
290
     0
  0
SCALE
  5
1A4
102
{ACAD_REACTORS
330
10C
102
}
330
10C
100
AcDbScale
 70
     0
300
1-1/2" = 1'-0"
140
1.5
141
12.0
290
     0
  0
SCALE
  5
1A5
102
{ACAD_REACTORS
330
10C
102
}
330
10C
100
AcDbScale
 70
     0
300
3" = 1'-0"
140
3.0
141
12.0
290
     0
  0
SCALE
  5
1A6
102
{ACAD_REACTORS
330
10C
102
}
330
10C
100
AcDbScale
 70
     0
300
6" = 1'-0"
140
6.0
141
12.0
290
     0
  0
SCALE
  5
1A7
102
{ACAD_REACTORS
330
10C
102
}
330
10C
100
AcDbScale
 70
     0
300
1'-0" = 1'-0"
140
12.0
141
12.0
290
     0
  0
TABLESTYLE
  5
7F
102
{ACAD_XDICTIONARY
360
162
102
}
102
{ACAD_REACTORS
330
7E
102
}
330
7E
100
AcDbTableStyle
  3
Standard
 70
     0
 71
     0
 40
1.5
 41
1.5
280
     0
281
     0
  7
Standard
140
4.5
170
     2
 62
     0
 63
     7
283
     0
274
    -2
284
     1
 64
     0
275
    -2
285
     1
 65
     0
276
    -2
286
     1
 66
     0
277
    -2
287
     1
 67
     0
278
    -2
288
     1
 68
     0
279
    -2
289
     1
 69
     0
  7
Standard
140
6.0
170
     5
 62
     0
 63
     7
283
     0
274
    -2
284
     1
 64
     0
275
    -2
285
     1
 65
     0
276
    -2
286
     1
 66
     0
277
    -2
287
     1
 67
     0
278
    -2
288
     1
 68
     0
279
    -2
289
     1
 69
     0
  7
Standard
140
4.5
170
     5
 62
     0
 63
     7
283
     0
274
    -2
284
     1
 64
     0
275
    -2
285
     1
 65
     0
276
    -2
286
     1
 66
     0
277
    -2
287
     1
 67
     0
278
    -2
288
     1
 68
     0
279
    -2
289
     1
 69
     0
  0
VISUALSTYLE
  5
F5
102
{ACAD_REACTORS
330
EF
102
}
330
EF
100
AcDbVisualStyle
  2
2dWireframe
 70
     4
 71
     0
 72
     2
 73
     1
 90
        0
 40
-0.6
 41
-30.0
 62
     5
 63
     7
 74
     1
 91
        4
 64
     7
 65
   257
 75
     1
175
     1
 42
1.0
 92
        0
 66
   257
 43
1.0
 76
     1
 77
     6
 78
     2
 67
     7
 79
     5
170
     0
171
     0
290
     0
174
     0
 93
        1
 44
0.0
173
     0
291
     0
 45
0.0
1001
ACAD
1000
AcDbSavedByObjectVersion
1070
     0
  0
VISUALSTYLE
  5
F7
102
{ACAD_REACTORS
330
EF
102
}
330
EF
100
AcDbVisualStyle
  2
3D Hidden
 70
     6
 71
     1
 72
     2
 73
     2
 90
        0
 40
-0.6
 41
-30.0
 62
     5
 63
     7
 74
     2
 91
        2
 64
     7
 65
   257
 75
     2
175
     1
 42
40.0
 92
        0
 66
   257
 43
1.0
 76
     1
 77
     6
 78
     2
 67
     7
 79
     3
170
     0
171
     0
290
     0
174
     0
 93
        1
 44
0.0
173
     0
291
     0
 45
0.0
1001
ACAD
1000
AcDbSavedByObjectVersion
1070
     0
  0
VISUALSTYLE
  5
F6
102
{ACAD_REACTORS
330
EF
102
}
330
EF
100
AcDbVisualStyle
  2
3dWireframe
 70
     5
 71
     0
 72
     2
 73
     1
 90
        0
 40
-0.6
 41
-30.0
 62
     5
 63
     7
 74
     1
 91
        4
 64
     7
 65
   257
 75
     1
175
     1
 42
1.0
 92
        0
 66
   257
 43
1.0
 76
     1
 77
     6
 78
     2
 67
     7
 79
     5
170
     0
171
     0
290
     0
174
     0
 93
        1
 44
0.0
173
     0
291
     0
 45
0.0
1001
ACAD
1000
AcDbSavedByObjectVersion
1070
     0
  0
VISUALSTYLE
  5
F4
102
{ACAD_REACTORS
330
EF
102
}
330
EF
100
AcDbVisualStyle
  2
Basic
 70
     7
 71
     1
 72
     0
 73
     1
 90
        0
 40
-0.6
 41
-30.0
 62
     5
 63
     7
 74
     0
 91
        4
 64
     7
 65
   257
 75
     1
175
     1
 42
1.0
 92
        8
 66
     7
 43
1.0
 76
     1
 77
     6
 78
     2
 67
     7
 79
     5
170
     0
171
     0
290
     0
174
     0
 93
        1
 44
0.0
173
     0
291
     1
 45
0.0
1001
ACAD
1000
AcDbSavedByObjectVersion
1070
     0
  0
VISUALSTYLE
  5
FB
102
{ACAD_REACTORS
330
EF
102
}
330
EF
100
AcDbVisualStyle
  2
Brighten
 70
    12
 71
     2
 72
     2
 73
     1
 90
        0
 40
-0.6
 41
-30.0
 62
     5
 63
     7
 74
     1
 91
        4
 64
     7
 65
   257
 75
     1
175
     1
 42
1.0
 92
        8
 66
     7
 43
1.0
 76
     1
 77
     6
 78
     2
 67
     7
 79
     5
170
     0
171
     0
290
     0
174
     0
 93
        1
 44
50.0
173
     0
291
     1
 45
0.0
1001
ACAD
1000
AcDbSavedByObjectVersion
1070
     0
  0
VISUALSTYLE
  5
FF
102
{ACAD_REACTORS
330
EF
102
}
330
EF
100
AcDbVisualStyle
  2
ColorChange
 70
    16
 71
     2
 72
     2
 73
     3
 90
        0
 40
-0.6
 41
-30.0
 62
     5
 63
     8
 74
     1
 91
        4
 64
     7
 65
   257
 75
     1
175
     1
 42
1.0
 92
        8
 66
     8
 43
1.0
 76
     1
 77
     6
 78
     2
 67
     7
 79
     5
170
     0
171
     0
290
     0
174
     0
 93
        1
 44
0.0
173
     0
291
     1
 45
0.0
1001
ACAD
1000
AcDbSavedByObjectVersion
1070
     0
  0
VISUALSTYLE
  5
F8
102
{ACAD_REACTORS
330
EF
102
}
330
EF
100
AcDbVisualStyle
  2
Conceptual
 70
     9
 71
     3
 72
     2
 73
     1
 90
        0
 40
-0.6
 41
-30.0
 62
     5
 63
     7
 74
     2
 91
        2
 64
     7
 65
   257
 75
     1
175
     1
 42
40.0
 92
        8
 66
     7
 43
1.0
 76
     1
 77
     6
 78
     2
 67
     7
 79
     3
170
     0
171
     0
290
     0
174
     0
 93
        1
 44
0.0
173
     0
291
     0
 45
0.0
1001
ACAD
1000
AcDbSavedByObjectVersion
1070
     0
  0
VISUALSTYLE
  5
FA
102
{ACAD_REACTORS
330
EF
102
}
330
EF
100
AcDbVisualStyle
  2
Dim
 70
    11
 71
     2
 72
     2
 73
     1
 90
        0
 40
-0.6
 41
-30.0
 62
     5
 63
     7
 74
     1
 91
        4
 64
     7
 65
   257
 75
     1
175
     1
 42
1.0
 92
        8
 66
     7
 43
1.0
 76
     1
 77
     6
 78
     2
 67
     7
 79
     5
170
     0
171
     0
290
     0
174
     0
 93
        1
 44
-50.0
173
     0
291
     1
 45
0.0
1001
ACAD
1000
AcDbSavedByObjectVersion
1070
     0
  0
VISUALSTYLE
  5
FE
102
{ACAD_REACTORS
330
EF
102
}
330
EF
100
AcDbVisualStyle
  2
Facepattern
 70
    15
 71
     2
 72
     2
 73
     1
 90
        0
 40
-0.6
 41
-30.0
 62
     5
 63
     7
 74
     1
 91
        4
 64
     7
 65
   257
 75
     1
175
     1
 42
1.0
 92
        8
 66
     7
 43
1.0
 76
     1
 77
     6
 78
     2
 67
     7
 79
     5
170
     0
171
     0
290
     0
174
     0
 93
        1
 44
0.0
173
     0
291
     1
 45
0.0
1001
ACAD
1000
AcDbSavedByObjectVersion
1070
     0
  0
VISUALSTYLE
  5
F0
102
{ACAD_REACTORS
330
EF
102
}
330
EF
100
AcDbVisualStyle
  2
Flat
 70
     0
 71
     2
 72
     1
 73
     1
 90
        2
 40
-0.6
 41
30.0
 62
     5
 63
     7
 74
     0
 91
        4
 64
     7
 65
   257
 75
     1
175
     1
 42
1.0
 92
        8
 66
     7
 43
1.0
 76
     1
 77
     6
 78
     2
 67
     7
 79
     5
170
     0
171
     0
290
     0
174
     0
 93
        1
 44
0.0
173
     0
291
     1
 45
0.0
1001
ACAD
1000
AcDbSavedByObjectVersion
1070
     0
  0
VISUALSTYLE
  5
F1
102
{ACAD_REACTORS
330
EF
102
}
330
EF
100
AcDbVisualStyle
  2
FlatWithEdges
 70
     1
 71
     2
 72
     1
 73
     1
 90
        2
 40
-0.6
 41
30.0
 62
     5
 63
     7
 74
     1
 91
        4
 64
     7
 65
   257
 75
     1
175
     1
 42
1.0
 92
        0
 66
   257
 43
1.0
 76
     1
 77
     6
 78
     2
 67
     7
 79
     5
170
     0
171
     0
290
     0
174
     0
 93
        1
 44
0.0
173
     0
291
     1
 45
0.0
1001
ACAD
1000
AcDbSavedByObjectVersion
1070
     0
  0
VISUALSTYLE
  5
F2
102
{ACAD_REACTORS
330
EF
102
}
330
EF
100
AcDbVisualStyle
  2
Gouraud
 70
     2
 71
     2
 72
     2
 73
     1
 90
        2
 40
-0.6
 41
30.0
 62
     5
 63
     7
 74
     0
 91
        4
 64
     7
 65
   257
 75
     1
175
     1
 42
1.0
 92
        0
 66
     7
 43
1.0
 76
     1
 77
     6
 78
     2
 67
     7
 79
     5
170
     0
171
     0
290
     0
174
     0
 93
        1
 44
0.0
173
     0
291
     1
 45
0.0
1001
ACAD
1000
AcDbSavedByObjectVersion
1070
     0
  0
VISUALSTYLE
  5
F3
102
{ACAD_REACTORS
330
EF
102
}
330
EF
100
AcDbVisualStyle
  2
GouraudWithEdges
 70
     3
 71
     2
 72
     2
 73
     1
 90
        2
 40
-0.6
 41
30.0
 62
     5
 63
     7
 74
     1
 91
        4
 64
     7
 65
   257
 75
     1
175
     1
 42
1.0
 92
        0
 66
   257
 43
1.0
 76
     1
 77
     6
 78
     2
 67
     7
 79
     5
170
     0
171
     0
290
     0
174
     0
 93
        1
 44
0.0
173
     0
291
     1
 45
0.0
1001
ACAD
1000
AcDbSavedByObjectVersion
1070
     0
  0
VISUALSTYLE
  5
FD
102
{ACAD_REACTORS
330
EF
102
}
330
EF
100
AcDbVisualStyle
  2
Linepattern
 70
    14
 71
     2
 72
     2
 73
     1
 90
        0
 40
-0.6
 41
-30.0
 62
     5
 63
     7
 74
     1
 91
        4
 64
     7
 65
   257
 75
     7
175
     7
 42
1.0
 92
        8
 66
     7
 43
1.0
 76
     1
 77
     6
 78
     2
 67
     7
 79
     5
170
     0
171
     0
290
     0
174
     0
 93
        1
 44
0.0
173
     0
291
     1
 45
0.0
1001
ACAD
1000
AcDbSavedByObjectVersion
1070
     0
  0
VISUALSTYLE
  5
F9
102
{ACAD_REACTORS
330
EF
102
}
330
EF
100
AcDbVisualStyle
  2
Realistic
 70
     8
 71
     2
 72
     2
 73
     1
 90
        0
 40
-0.6
 41
-30.0
 62
     5
 63
     7
 74
     1
 91
        0
 64
     7
 65
   257
 75
     1
175
     1
 42
1.0
 92
        8
 66
     8
 43
1.0
 76
     1
 77
     6
 78
     2
 67
     7
 79
     5
170
     0
171
     0
290
     0
174
     0
 93
       13
 44
0.0
173
     0
291
     0
 45
0.0
1001
ACAD
1000
AcDbSavedByObjectVersion
1070
     0
  0
VISUALSTYLE
  5
FC
102
{ACAD_REACTORS
330
EF
102
}
330
EF
100
AcDbVisualStyle
  2
Thicken
 70
    13
 71
     2
 72
     2
 73
     1
 90
        0
 40
-0.6
 41
-30.0
 62
     5
 63
     7
 74
     1
 91
        4
 64
     7
 65
   257
 75
     1
175
     1
 42
1.0
 92
       12
 66
     7
 43
1.0
 76
     1
 77
     6
 78
     2
 67
     7
 79
     5
170
     0
171
     0
290
     0
174
     0
 93
        1
 44
0.0
173
     0
291
     1
 45
0.0
1001
ACAD
1000
AcDbSavedByObjectVersion
1070
     0
  0
DICTIONARYVAR
  5
146
102
{ACAD_REACTORS
330
5E
102
}
330
5E
100
DictionaryVariables
280
     0
  1
1:1
  0
DICTIONARYVAR
  5
145
102
{ACAD_REACTORS
330
5E
102
}
330
5E
100
DictionaryVariables
280
     0
  1
STANDARD
  0
DICTIONARYVAR
  5
84
102
{ACAD_REACTORS
330
5E
102
}
330
5E
100
DictionaryVariables
280
     0
  1
STANDARD
  0
DICTIONARYVAR
  5
5F
102
{ACAD_REACTORS
330
5E
102
}
330
5E
100
DictionaryVariables
280
     0
  1
2
  0
DICTIONARYVAR
  5
63
102
{ACAD_REACTORS
330
5E
102
}
330
5E
100
DictionaryVariables
280
     0
  1
1
  0
DICTIONARYVAR
  5
D1C
102
{ACAD_REACTORS
330
5E
102
}
330
5E
100
DictionaryVariables
280
     0
  1
0
  0
DICTIONARYVAR
  5
D1A
102
{ACAD_REACTORS
330
5E
102
}
330
5E
100
DictionaryVariables
280
     0
  1
2
  0
DICTIONARYVAR
  5
D19
102
{ACAD_REACTORS
330
5E
102
}
330
5E
100
DictionaryVariables
280
     0
  1
1
  0
DICTIONARYVAR
  5
D1E
102
{ACAD_REACTORS
330
5E
102
}
330
5E
100
DictionaryVariables
280
     0
  1
80.000000
  0
DICTIONARYVAR
  5
D1D
102
{ACAD_REACTORS
330
5E
102
}
330
5E
100
DictionaryVariables
280
     0
  1
5.000000
  0
DICTIONARYVAR
  5
D1B
102
{ACAD_REACTORS
330
5E
102
}
330
5E
100
DictionaryVariables
280
     0
  1
127
  0
DICTIONARY
  5
D24
330
D3
100
AcDbDictionary
280
     1
281
     1
  3
ACAD_XREC_ROUNDTRIP
360
D25
  0
DICTIONARY
  5
D26
330
D7
100
AcDbDictionary
280
     1
281
     1
  3
ACAD_XREC_ROUNDTRIP
360
D27
  0
DICTIONARY
  5
D21
330
22
100
AcDbDictionary
280
     1
281
     1
  3
ACAD_XREC_ROUNDTRIP
360
D22
  0
DICTIONARY
  5
D2A
330
ED
100
AcDbDictionary
280
     1
281
     1
  3
ACAD_XREC_ROUNDTRIP
360
D2B
  0
DICTIONARY
  5
D28
330
EC
100
AcDbDictionary
280
     1
281
     1
  3
ACAD_XREC_ROUNDTRIP
360
D29
  0
DICTIONARY
  5
173
330
EE
100
AcDbDictionary
280
     1
281
     1
  3
ACAD_XREC_ROUNDTRIP
360
D2C
  3
BUMPTILE
360
175
  3
DIFFUSETILE
360
174
  3
OPACITYTILE
360
176
  3
REFLECTIONTILE
360
177
  0
DICTIONARY
  5
162
330
7F
100
AcDbDictionary
280
     1
281
     1
  3
ACAD_ROUNDTRIP_2008_TABLESTYLE_CELLSTYLEMAP
360
D1F
  3
ACAD_XREC_ROUNDTRIP
360
D23
  0
XRECORD
  5
D25
102
{ACAD_REACTORS
330
D24
102
}
330
D24
100
AcDbXrecord
280
     1
102
SHADEPLOT
 70
     0
102
SHADEPLOTRESLEVEL
 70
     2
102
SHADEPLOTCUSTOMDPI
 70
   300
  0
XRECORD
  5
D27
102
{ACAD_REACTORS
330
D26
102
}
330
D26
100
AcDbXrecord
280
     1
102
SHADEPLOT
 70
     0
102
SHADEPLOTRESLEVEL
 70
     2
102
SHADEPLOTCUSTOMDPI
 70
   300
  0
XRECORD
  5
D22
102
{ACAD_REACTORS
330
D21
102
}
330
D21
100
AcDbXrecord
280
     1
102
SHADEPLOT
 70
     0
102
SHADEPLOTRESLEVEL
 70
     2
102
SHADEPLOTCUSTOMDPI
 70
   300
  0
XRECORD
  5
D2B
102
{ACAD_REACTORS
330
D2A
102
}
330
D2A
100
AcDbXrecord
280
     1
102
MATERIAL
148
0.0
149
0.0
149
0.0
 93
        0
 94
       63
282
     0
 72
     1
 77
     1
171
     1
175
     1
179
     1
273
     0
  0
XRECORD
  5
D29
102
{ACAD_REACTORS
330
D28
102
}
330
D28
100
AcDbXrecord
280
     1
102
MATERIAL
148
0.0
149
0.0
149
0.0
 93
        0
 94
       63
282
     0
 72
     1
 77
     1
171
     1
175
     1
179
     1
273
     0
  0
XRECORD
  5
D2C
102
{ACAD_REACTORS
330
173
102
}
330
173
100
AcDbXrecord
280
     1
102
MATERIAL
148
0.0
149
0.0
149
0.0
 93
        0
 94
       63
282
     0
 72
     1
 77
     1
171
     1
175
     1
179
     1
273
     0
  0
XRECORD
  5
175
102
{ACAD_REACTORS
330
173
102
}
330
173
100
AcDbXrecord
280
     1
270
     1
271
     1
  0
XRECORD
  5
174
102
{ACAD_REACTORS
330
173
102
}
330
173
100
AcDbXrecord
280
     1
270
     1
271
     1
  0
XRECORD
  5
176
102
{ACAD_REACTORS
330
173
102
}
330
173
100
AcDbXrecord
280
     1
270
     1
271
     1
  0
XRECORD
  5
177
102
{ACAD_REACTORS
330
173
102
}
330
173
100
AcDbXrecord
280
     1
270
     1
271
     1
  0
CELLSTYLEMAP
  5
D1F
102
{ACAD_REACTORS
330
162
102
}
330
162
100
AcDbCellStyleMap
 90
        3
300
CELLSTYLE
  1
TABLEFORMAT_BEGIN
 90
        5
170
     1
 91
        0
 92
    32768
 62
   257
 93
        1
300
CONTENTFORMAT
  1
CONTENTFORMAT_BEGIN
 90
        0
 91
        0
 92
      512
 93
        0
300

 40
0.0
140
1.0
 94
        5
 62
     0
340
11
144
6.0
309
CONTENTFORMAT_END
171
     1
301
MARGIN
  1
CELLMARGIN_BEGIN
 40
1.5
 40
1.5
 40
1.5
 40
1.5
 40
4.5
 40
4.5
309
CELLMARGIN_END
 94
        6
 95
        1
302
GRIDFORMAT
  1
GRIDFORMAT_BEGIN
 90
        0
 91
        1
 62
     0
 92
       -2
340
14
 93
        0
 40
1.125
309
GRIDFORMAT_END
 95
        2
302
GRIDFORMAT
  1
GRIDFORMAT_BEGIN
 90
        0
 91
        1
 62
     0
 92
       -2
340
14
 93
        0
 40
1.125
309
GRIDFORMAT_END
 95
        4
302
GRIDFORMAT
  1
GRIDFORMAT_BEGIN
 90
        0
 91
        1
 62
     0
 92
       -2
340
14
 93
        0
 40
1.125
309
GRIDFORMAT_END
 95
        8
302
GRIDFORMAT
  1
GRIDFORMAT_BEGIN
 90
        0
 91
        1
 62
     0
 92
       -2
340
14
 93
        0
 40
1.125
309
GRIDFORMAT_END
 95
       16
302
GRIDFORMAT
  1
GRIDFORMAT_BEGIN
 90
        0
 91
        1
 62
     0
 92
       -2
340
14
 93
        0
 40
1.125
309
GRIDFORMAT_END
 95
       32
302
GRIDFORMAT
  1
GRIDFORMAT_BEGIN
 90
        0
 91
        1
 62
     0
 92
       -2
340
14
 93
        0
 40
1.125
309
GRIDFORMAT_END
309
TABLEFORMAT_END
  1
CELLSTYLE_BEGIN
 90
        1
 91
        1
300
_TITLE
309
CELLSTYLE_END
300
CELLSTYLE
  1
TABLEFORMAT_BEGIN
 90
        5
170
     1
 91
        0
 92
        0
 62
   257
 93
        1
300
CONTENTFORMAT
  1
CONTENTFORMAT_BEGIN
 90
        0
 91
        0
 92
      512
 93
        0
300

 40
0.0
140
1.0
 94
        5
 62
     0
340
11
144
4.5
309
CONTENTFORMAT_END
171
     1
301
MARGIN
  1
CELLMARGIN_BEGIN
 40
1.5
 40
1.5
 40
1.5
 40
1.5
 40
4.5
 40
4.5
309
CELLMARGIN_END
 94
        6
 95
        1
302
GRIDFORMAT
  1
GRIDFORMAT_BEGIN
 90
        0
 91
        1
 62
     0
 92
       -2
340
14
 93
        0
 40
1.125
309
GRIDFORMAT_END
 95
        2
302
GRIDFORMAT
  1
GRIDFORMAT_BEGIN
 90
        0
 91
        1
 62
     0
 92
       -2
340
14
 93
        0
 40
1.125
309
GRIDFORMAT_END
 95
        4
302
GRIDFORMAT
  1
GRIDFORMAT_BEGIN
 90
        0
 91
        1
 62
     0
 92
       -2
340
14
 93
        0
 40
1.125
309
GRIDFORMAT_END
 95
        8
302
GRIDFORMAT
  1
GRIDFORMAT_BEGIN
 90
        0
 91
        1
 62
     0
 92
       -2
340
14
 93
        0
 40
1.125
309
GRIDFORMAT_END
 95
       16
302
GRIDFORMAT
  1
GRIDFORMAT_BEGIN
 90
        0
 91
        1
 62
     0
 92
       -2
340
14
 93
        0
 40
1.125
309
GRIDFORMAT_END
 95
       32
302
GRIDFORMAT
  1
GRIDFORMAT_BEGIN
 90
        0
 91
        1
 62
     0
 92
       -2
340
14
 93
        0
 40
1.125
309
GRIDFORMAT_END
309
TABLEFORMAT_END
  1
CELLSTYLE_BEGIN
 90
        2
 91
        1
300
_HEADER
309
CELLSTYLE_END
300
CELLSTYLE
  1
TABLEFORMAT_BEGIN
 90
        5
170
     1
 91
        0
 92
        0
 62
   257
 93
        1
300
CONTENTFORMAT
  1
CONTENTFORMAT_BEGIN
 90
        0
 91
        0
 92
      512
 93
        0
300

 40
0.0
140
1.0
 94
        2
 62
     0
340
11
144
4.5
309
CONTENTFORMAT_END
171
     1
301
MARGIN
  1
CELLMARGIN_BEGIN
 40
1.5
 40
1.5
 40
1.5
 40
1.5
 40
4.5
 40
4.5
309
CELLMARGIN_END
 94
        6
 95
        1
302
GRIDFORMAT
  1
GRIDFORMAT_BEGIN
 90
        0
 91
        1
 62
     0
 92
       -2
340
14
 93
        0
 40
1.125
309
GRIDFORMAT_END
 95
        2
302
GRIDFORMAT
  1
GRIDFORMAT_BEGIN
 90
        0
 91
        1
 62
     0
 92
       -2
340
14
 93
        0
 40
1.125
309
GRIDFORMAT_END
 95
        4
302
GRIDFORMAT
  1
GRIDFORMAT_BEGIN
 90
        0
 91
        1
 62
     0
 92
       -2
340
14
 93
        0
 40
1.125
309
GRIDFORMAT_END
 95
        8
302
GRIDFORMAT
  1
GRIDFORMAT_BEGIN
 90
        0
 91
        1
 62
     0
 92
       -2
340
14
 93
        0
 40
1.125
309
GRIDFORMAT_END
 95
       16
302
GRIDFORMAT
  1
GRIDFORMAT_BEGIN
 90
        0
 91
        1
 62
     0
 92
       -2
340
14
 93
        0
 40
1.125
309
GRIDFORMAT_END
 95
       32
302
GRIDFORMAT
  1
GRIDFORMAT_BEGIN
 90
        0
 91
        1
 62
     0
 92
       -2
340
14
 93
        0
 40
1.125
309
GRIDFORMAT_END
309
TABLEFORMAT_END
  1
CELLSTYLE_BEGIN
 90
        3
 91
        2
300
_DATA
309
CELLSTYLE_END
  0
XRECORD
  5
D23
102
{ACAD_REACTORS
330
162
102
}
330
162
100
AcDbXrecord
280
     1
102
ACAD_ROUNDTRIP_PRE2007_TABLESTYLE
 90
      512
 91
        0
  1

 92
      512
 93
        0
  2

 94
      512
 95
        0
  3

  0
ENDSEC
  0
EOF
