  0
SECTION
  2
HEADER
  9
$ACADVER
  1
AC1015
  9
$ACADMAINTVER
 70
    20
  9
$DWGCODEPAGE
  3
ANSI_1254
  9
$INSBASE
 10
0.0
 20
0.0
 30
0.0
  9
$EXTMIN
 10
1894.811390463617
 20
1092.835990655532
 30
0.0
  9
$EXTMAX
 10
2071.020259134133
 20
1133.898047654015
 30
0.0
  9
$LIMMIN
 10
0.0
 20
0.0
  9
$LIMMAX
 10
420.0
 20
297.0
  9
$ORTHOMODE
 70
     0
  9
$REGENMODE
 70
     1
  9
$FILLMODE
 70
     1
  9
$QTEXTMODE
 70
     0
  9
$MIRRTEXT
 70
     0
  9
$LTSCALE
 40
1.0
  9
$ATTMODE
 70
     1
  9
$TEXTSIZE
 40
2.5
  9
$TRACEWID
 40
1.0
  9
$TEXTSTYLE
  7
Standard
  9
$CLAYER
  8
0
  9
$CELTYPE
  6
ByLayer
  9
$CECOLOR
 62
   256
  9
$CELTSCALE
 40
1.0
  9
$DISPSILH
 70
     0
  9
$DIMSCALE
 40
1.0
  9
$DIMASZ
 40
2.5
  9
$DIMEXO
 40
0.625
  9
$DIMDLI
 40
3.75
  9
$DIMRND
 40
0.0
  9
$DIMDLE
 40
0.0
  9
$DIMEXE
 40
1.25
  9
$DIMTP
 40
0.0
  9
$DIMTM
 40
0.0
  9
$DIMTXT
 40
2.5
  9
$DIMCEN
 40
2.5
  9
$DIMTSZ
 40
0.0
  9
$DIMTOL
 70
     0
  9
$DIMLIM
 70
     0
  9
$DIMTIH
 70
     0
  9
$DIMTOH
 70
     0
  9
$DIMSE1
 70
     0
  9
$DIMSE2
 70
     0
  9
$DIMTAD
 70
     1
  9
$DIMZIN
 70
     8
  9
$DIMBLK
  1

  9
$DIMASO
 70
     1
  9
$DIMSHO
 70
     1
  9
$DIMPOST
  1

  9
$DIMAPOST
  1

  9
$DIMALT
 70
     0
  9
$DIMALTD
 70
     3
  9
$DIMALTF
 40
0.03937007874016
  9
$DIMLFAC
 40
1.0
  9
$DIMTOFL
 70
     1
  9
$DIMTVP
 40
0.0
  9
$DIMTIX
 70
     0
  9
$DIMSOXD
 70
     0
  9
$DIMSAH
 70
     0
  9
$DIMBLK1
  1

  9
$DIMBLK2
  1

  9
$DIMSTYLE
  2
ISO-25
  9
$DIMCLRD
 70
     0
  9
$DIMCLRE
 70
     0
  9
$DIMCLRT
 70
     0
  9
$DIMTFAC
 40
1.0
  9
$DIMGAP
 40
0.625
  9
$DIMJUST
 70
     0
  9
$DIMSD1
 70
     0
  9
$DIMSD2
 70
     0
  9
$DIMTOLJ
 70
     0
  9
$DIMTZIN
 70
     8
  9
$DIMALTZ
 70
     0
  9
$DIMALTTZ
 70
     0
  9
$DIMUPT
 70
     0
  9
$DIMDEC
 70
     2
  9
$DIMTDEC
 70
     2
  9
$DIMALTU
 70
     2
  9
$DIMALTTD
 70
     3
  9
$DIMTXSTY
  7
Standard
  9
$DIMAUNIT
 70
     0
  9
$DIMADEC
 70
     0
  9
$DIMALTRND
 40
0.0
  9
$DIMAZIN
 70
     0
  9
$DIMDSEP
 70
    44
  9
$DIMATFIT
 70
     3
  9
$DIMFRAC
 70
     0
  9
$DIMLDRBLK
  1

  9
$DIMLUNIT
 70
     2
  9
$DIMLWD
 70
    -2
  9
$DIMLWE
 70
    -2
  9
$DIMTMOVE
 70
     0
  9
$LUNITS
 70
     2
  9
$LUPREC
 70
     4
  9
$SKETCHINC
 40
1.0
  9
$FILLETRAD
 40
0.0
  9
$AUNITS
 70
     0
  9
$AUPREC
 70
     0
  9
$MENU
  1
.
  9
$ELEVATION
 40
0.0
  9
$PELEVATION
 40
0.0
  9
$THICKNESS
 40
0.0
  9
$LIMCHECK
 70
     0
  9
$CHAMFERA
 40
0.0
  9
$CHAMFERB
 40
0.0
  9
$CHAMFERC
 40
0.0
  9
$CHAMFERD
 40
0.0
  9
$SKPOLY
 70
     0
  9
$TDCREATE
 40
2458453.445720232
  9
$TDUCREATE
 40
2458453.320720232
  9
$TDUPDATE
 40
2458983.555892604
  9
$TDUUPDATE
 40
2458983.430892604
  9
$TDINDWG
 40
0.0006057870
  9
$TDUSRTIMER
 40
0.0006057870
  9
$USRTIMER
 70
     1
  9
$ANGBASE
 50
0.0
  9
$ANGDIR
 70
     0
  9
$PDMODE
 70
     0
  9
$PDSIZE
 40
0.0
  9
$PLINEWID
 40
0.0
  9
$SPLFRAME
 70
     0
  9
$SPLINETYPE
 70
     6
  9
$SPLINESEGS
 70
     8
  9
$HANDSEED
  5
B65
  9
$SURFTAB1
 70
     6
  9
$SURFTAB2
 70
     6
  9
$SURFTYPE
 70
     6
  9
$SURFU
 70
     6
  9
$SURFV
 70
     6
  9
$UCSBASE
  2

  9
$UCSNAME
  2

  9
$UCSORG
 10
0.0
 20
0.0
 30
0.0
  9
$UCSXDIR
 10
1.0
 20
0.0
 30
0.0
  9
$UCSYDIR
 10
0.0
 20
1.0
 30
0.0
  9
$UCSORTHOREF
  2

  9
$UCSORTHOVIEW
 70
     0
  9
$UCSORGTOP
 10
0.0
 20
0.0
 30
0.0
  9
$UCSORGBOTTOM
 10
0.0
 20
0.0
 30
0.0
  9
$UCSORGLEFT
 10
0.0
 20
0.0
 30
0.0
  9
$UCSORGRIGHT
 10
0.0
 20
0.0
 30
0.0
  9
$UCSORGFRONT
 10
0.0
 20
0.0
 30
0.0
  9
$UCSORGBACK
 10
0.0
 20
0.0
 30
0.0
  9
$PUCSBASE
  2

  9
$PUCSNAME
  2

  9
$PUCSORG
 10
0.0
 20
0.0
 30
0.0
  9
$PUCSXDIR
 10
1.0
 20
0.0
 30
0.0
  9
$PUCSYDIR
 10
0.0
 20
1.0
 30
0.0
  9
$PUCSORTHOREF
  2

  9
$PUCSORTHOVIEW
 70
     0
  9
$PUCSORGTOP
 10
0.0
 20
0.0
 30
0.0
  9
$PUCSORGBOTTOM
 10
0.0
 20
0.0
 30
0.0
  9
$PUCSORGLEFT
 10
0.0
 20
0.0
 30
0.0
  9
$PUCSORGRIGHT
 10
0.0
 20
0.0
 30
0.0
  9
$PUCSORGFRONT
 10
0.0
 20
0.0
 30
0.0
  9
$PUCSORGBACK
 10
0.0
 20
0.0
 30
0.0
  9
$USERI1
 70
     0
  9
$USERI2
 70
     0
  9
$USERI3
 70
     0
  9
$USERI4
 70
     0
  9
$USERI5
 70
     0
  9
$USERR1
 40
0.0
  9
$USERR2
 40
0.0
  9
$USERR3
 40
0.0
  9
$USERR4
 40
0.0
  9
$USERR5
 40
0.0
  9
$WORLDVIEW
 70
     1
  9
$SHADEDGE
 70
     3
  9
$SHADEDIF
 70
    70
  9
$TILEMODE
 70
     1
  9
$MAXACTVP
 70
    64
  9
$PINSBASE
 10
0.0
 20
0.0
 30
0.0
  9
$PLIMCHECK
 70
     0
  9
$PEXTMIN
 10
0.0
 20
0.0
 30
0.0
  9
$PEXTMAX
 10
0.0
 20
0.0
 30
0.0
  9
$PLIMMIN
 10
0.0
 20
0.0
  9
$PLIMMAX
 10
12.0
 20
9.0
  9
$UNITMODE
 70
     0
  9
$VISRETAIN
 70
     1
  9
$PLINEGEN
 70
     0
  9
$PSLTSCALE
 70
     1
  9
$TREEDEPTH
 70
  3020
  9
$CMLSTYLE
  2
Standard
  9
$CMLJUST
 70
     0
  9
$CMLSCALE
 40
20.0
  9
$PROXYGRAPHICS
 70
     1
  9
$MEASUREMENT
 70
     1
  9
$CELWEIGHT
370
    -1
  9
$ENDCAPS
280
     0
  9
$JOINSTYLE
280
     0
  9
$LWDISPLAY
290
     0
  9
$INSUNITS
 70
     4
  9
$HYPERLINKBASE
  1

  9
$STYLESHEET
  1

  9
$XEDIT
290
     1
  9
$CEPSNTYPE
380
     0
  9
$PSTYLEMODE
290
     1
  9
$FINGERPRINTGUID
  2
{A9118C36-098F-4BCC-BFCC-3643C903194A}
  9
$VERSIONGUID
  2
{0865E764-37D6-4AAA-8CA6-BA3716A8B468}
  9
$EXTNAMES
290
     1
  9
$PSVPSCALE
 40
0.0
  9
$OLESTARTUP
290
     0
  0
ENDSEC
  0
SECTION
  2
CLASSES
  0
CLASS
  1
ACDBDICTIONARYWDFLT
  2
AcDbDictionaryWithDefault
  3
ObjectDBX Classes
 90
        0
280
     0
281
     0
  0
CLASS
  1
ACDBPLACEHOLDER
  2
AcDbPlaceHolder
  3
ObjectDBX Classes
 90
        0
280
     0
281
     0
  0
CLASS
  1
LAYOUT
  2
AcDbLayout
  3
ObjectDBX Classes
 90
        0
280
     0
281
     0
  0
CLASS
  1
DICTIONARYVAR
  2
AcDbDictionaryVar
  3
ObjectDBX Classes
 90
        0
280
     0
281
     0
  0
CLASS
  1
TABLESTYLE
  2
AcDbTableStyle
  3
ObjectDBX Classes
 90
     4095
280
     0
281
     0
  0
CLASS
  1
MATERIAL
  2
AcDbMaterial
  3
ObjectDBX Classes
 90
     1153
280
     0
281
     0
  0
CLASS
  1
VISUALSTYLE
  2
AcDbVisualStyle
  3
ObjectDBX Classes
 90
     4095
280
     0
281
     0
  0
CLASS
  1
SCALE
  2
AcDbScale
  3
ObjectDBX Classes
 90
     1153
280
     0
281
     0
  0
CLASS
  1
MLEADERSTYLE
  2
AcDbMLeaderStyle
  3
ACDB_MLEADERSTYLE_CLASS
 90
     4095
280
     0
281
     0
  0
CLASS
  1
CELLSTYLEMAP
  2
AcDbCellStyleMap
  3
ObjectDBX Classes
 90
     1152
280
     0
281
     0
  0
ENDSEC
  0
SECTION
  2
TABLES
  0
TABLE
  2
VPORT
  5
8
330
0
100
AcDbSymbolTable
 70
     1
  0
VPORT
  5
EA
330
8
100
AcDbSymbolTableRecord
100
AcDbViewportTableRecord
  2
*Active
 70
     0
 10
0.0
 20
0.0
 11
1.0
 21
1.0
 12
1961.999821918609
 22
1135.079942574445
 13
0.0
 23
0.0
 14
10.0
 24
10.0
 15
10.0
 25
10.0
 16
0.0
 26
0.0
 36
1.0
 17
0.0
 27
0.0
 37
0.0
 40
208.9726966213993
 41
1.903110047846889
 42
50.0
 43
0.0
 44
0.0
 50
0.0
 51
0.0
 71
     0
 72
  1000
 73
     1
 74
     3
 75
     0
 76
     0
 77
     0
 78
     0
281
     0
 65
     1
110
0.0
120
0.0
130
0.0
111
1.0
121
0.0
131
0.0
112
0.0
122
1.0
132
0.0
 79
     0
146
0.0
  0
ENDTAB
  0
TABLE
  2
LTYPE
  5
5
330
0
100
AcDbSymbolTable
 70
     1
  0
LTYPE
  5
14
330
5
100
AcDbSymbolTableRecord
100
AcDbLinetypeTableRecord
  2
ByBlock
 70
     0
  3

 72
    65
 73
     0
 40
0.0
  0
LTYPE
  5
15
330
5
100
AcDbSymbolTableRecord
100
AcDbLinetypeTableRecord
  2
ByLayer
 70
     0
  3

 72
    65
 73
     0
 40
0.0
  0
LTYPE
  5
16
330
5
100
AcDbSymbolTableRecord
100
AcDbLinetypeTableRecord
  2
Continuous
 70
     0
  3
Solid line
 72
    65
 73
     0
 40
0.0
  0
ENDTAB
  0
TABLE
  2
LAYER
  5
2
330
0
100
AcDbSymbolTable
 70
     1
  0
LAYER
  5
10
102
{ACAD_XDICTIONARY
360
13C
102
}
330
2
100
AcDbSymbolTableRecord
100
AcDbLayerTableRecord
  2
0
 70
     0
 62
     7
  6
Continuous
370
    -3
390
F
  0
ENDTAB
  0
TABLE
  2
STYLE
  5
3
330
0
100
AcDbSymbolTable
 70
     2
  0
STYLE
  5
11
330
3
100
AcDbSymbolTableRecord
100
AcDbTextStyleTableRecord
  2
Standard
 70
     0
 40
0.0
 41
1.0
 50
0.0
 71
     0
 42
2.5
  3
txt
  4

  0
STYLE
  5
132
330
3
100
AcDbSymbolTableRecord
100
AcDbTextStyleTableRecord
  2
Annotative
 70
     0
 40
0.0
 41
1.0
 50
0.0
 71
     0
 42
2.5
  3
txt.shx
  4

1001
AcadAnnotative
1000
AnnotativeData
1002
{
1070
     1
1070
     1
1002
}
  0
ENDTAB
  0
TABLE
  2
VIEW
  5
6
330
0
100
AcDbSymbolTable
 70
     0
  0
ENDTAB
  0
TABLE
  2
UCS
  5
7
330
0
100
AcDbSymbolTable
 70
     0
  0
ENDTAB
  0
TABLE
  2
APPID
  5
9
330
0
100
AcDbSymbolTable
 70
     7
  0
APPID
  5
12
330
9
100
AcDbSymbolTableRecord
100
AcDbRegAppTableRecord
  2
ACAD
 70
     0
  0
APPID
  5
9E
330
9
100
AcDbSymbolTableRecord
100
AcDbRegAppTableRecord
  2
ACAD_PSEXT
 70
     0
  0
APPID
  5
133
330
9
100
AcDbSymbolTableRecord
100
AcDbRegAppTableRecord
  2
AcadAnnoPO
 70
     0
  0
APPID
  5
134
330
9
100
AcDbSymbolTableRecord
100
AcDbRegAppTableRecord
  2
AcadAnnotative
 70
     0
  0
APPID
  5
135
330
9
100
AcDbSymbolTableRecord
100
AcDbRegAppTableRecord
  2
ACAD_DSTYLE_DIMJAG
 70
     0
  0
APPID
  5
136
330
9
100
AcDbSymbolTableRecord
100
AcDbRegAppTableRecord
  2
ACAD_DSTYLE_DIMTALN
 70
     0
  0
APPID
  5
165
330
9
100
AcDbSymbolTableRecord
100
AcDbRegAppTableRecord
  2
ACAD_MLEADERVER
 70
     0
  0
ENDTAB
  0
TABLE
  2
DIMSTYLE
  5
A
330
0
100
AcDbSymbolTable
 70
     2
100
AcDbDimStyleTable
 71
     2
340
27
340
137
  0
DIMSTYLE
105
27
330
A
100
AcDbSymbolTableRecord
100
AcDbDimStyleTableRecord
  2
ISO-25
 70
     0
 41
2.5
 42
0.625
 43
3.75
 44
1.25
 73
     0
 74
     0
 77
     1
 78
     8
140
2.5
141
2.5
143
0.03937007874016
147
0.625
171
     3
172
     1
271
     2
272
     2
274
     3
278
    44
283
     0
284
     8
340
11
  0
DIMSTYLE
105
137
330
A
100
AcDbSymbolTableRecord
100
AcDbDimStyleTableRecord
  2
Annotative
 70
     0
 40
0.0
 41
2.5
 42
0.625
 43
3.75
 44
1.25
 73
     0
 74
     0
 77
     1
 78
     8
140
2.5
141
2.5
143
0.03937007874016
147
0.625
171
     3
172
     1
271
     2
272
     2
274
     3
278
    44
283
     0
284
     8
340
11
1001
AcadAnnotative
1000
AnnotativeData
1002
{
1070
     1
1070
     1
1002
}
1001
ACAD_DSTYLE_DIMJAG
1070
   388
1040
1.5
1001
ACAD_DSTYLE_DIMTALN
1070
   392
1070
     0
  0
ENDTAB
  0
TABLE
  2
BLOCK_RECORD
  5
1
330
0
100
AcDbSymbolTable
 70
     5
  0
BLOCK_RECORD
  5
1F
330
1
100
AcDbSymbolTableRecord
100
AcDbBlockTableRecord
  2
*Model_Space
340
22
  0
BLOCK_RECORD
  5
D2
330
1
100
AcDbSymbolTableRecord
100
AcDbBlockTableRecord
  2
*Paper_Space
340
D3
  0
BLOCK_RECORD
  5
D6
330
1
100
AcDbSymbolTableRecord
100
AcDbBlockTableRecord
  2
*Paper_Space0
340
D7
  0
BLOCK_RECORD
  5
80D
330
1
100
AcDbSymbolTableRecord
100
AcDbBlockTableRecord
  2
1
340
0
310
2800000020000000200000000100080000000000000400000000000000000000000000000000000000000000000080000080000000808000800000008000800080800000C0C0C000C0DCC000F0CAA6000020400000206000002080000020A0000020C0000020E00000400000004020000040400000406000004080000040A0
310
000040C0000040E00000600000006020000060400000606000006080000060A0000060C0000060E00000800000008020000080400000806000008080000080A0000080C0000080E00000A0000000A0200000A0400000A0600000A0800000A0A00000A0C00000A0E00000C0000000C0200000C0400000C0600000C0800000C0
310
A00000C0C00000C0E00000E0000000E0200000E0400000E0600000E0800000E0A00000E0C00000E0E00040000000400020004000400040006000400080004000A0004000C0004000E00040200000402020004020400040206000402080004020A0004020C0004020E000404000004040200040404000404060004040800040
310
40A0004040C0004040E00040600000406020004060400040606000406080004060A0004060C0004060E00040800000408020004080400040806000408080004080A0004080C0004080E00040A0000040A0200040A0400040A0600040A0800040A0A00040A0C00040A0E00040C0000040C0200040C0400040C0600040C08000
310
40C0A00040C0C00040C0E00040E0000040E0200040E0400040E0600040E0800040E0A00040E0C00040E0E00080000000800020008000400080006000800080008000A0008000C0008000E00080200000802020008020400080206000802080008020A0008020C0008020E00080400000804020008040400080406000804080
310
008040A0008040C0008040E00080600000806020008060400080606000806080008060A0008060C0008060E00080800000808020008080400080806000808080008080A0008080C0008080E00080A0000080A0200080A0400080A0600080A0800080A0A00080A0C00080A0E00080C0000080C0200080C0400080C0600080C0
310
800080C0A00080C0C00080C0E00080E0000080E0200080E0400080E0600080E0800080E0A00080E0C00080E0E000C0000000C0002000C0004000C0006000C0008000C000A000C000C000C000E000C0200000C0202000C0204000C0206000C0208000C020A000C020C000C020E000C0400000C0402000C0404000C0406000C0
310
408000C040A000C040C000C040E000C0600000C0602000C0604000C0606000C0608000C060A000C060C000C060E000C0800000C0802000C0804000C0806000C0808000C080A000C080C000C080E000C0A00000C0A02000C0A04000C0A06000C0A08000C0A0A000C0A0C000C0A0E000C0C00000C0C02000C0C04000C0C06000
310
C0C08000C0C0A000F0FBFF00A4A0A000808080000000FF0000FF000000FFFF00FF000000FF00FF00FFFF0000FFFFFF0000000000000000000000000000000000000000000000000000000000000000000000000000000000000000000000000000000000000000000000000000000000000000000000000000000000000000
310
00000000000000000000000000000000000000000000000000000000000000000000000000000000000000000000000000000000000000000000000000000000000000000000000000000000000000000000000000000000000000000000000000000000000000000000000000000000000000000000000000000000000000
310
00000000000000000000000000000000000000000000000000000000000000000000000000000000000000000000000000000000000000000000000000000000000000000000000000000000000000000000000000000000000000000000000000000000000000000000000000000000000000000000000000000000000000
310
000000000000000000000000000000000000000000000000000000000000000000000000000000000000000000000000000000000000000000000000000000000000000000000000000000000000000000000000FFFFFFFFFFFFFFFFFFFFFFFFFFFFFFFFFFFFFFFFFFFFFFFFFFFFFFFFFFFF0000FF00FF00FF00000000FF00
310
00FF00FF00FF0000FF00FF0000FF00FF0000FF0000FF00FFFFFFFFFF0000FFFFFFFFFFFFFFFFFFFFFFFFFFFFFFFFFFFFFFFFFF0000FF00FF00FFFF000000FFFF00FF00FF00FFFF00FF00FFFF00FF00FFFF00FF0000FFFFFFFFFFFFFFFFFFFFFFFFFFFFFFFFFFFFFFFFFFFFFFFFFFFFFFFFFFFF000000FFFFFFFFFFFF0000FF
310
FFFFFFFFFFFFFFFFFFFFFFFFFFFFFFFFFFFF00000000000000000000000000000000000000000000000000000000000000000000000000000000000000000000000000000000000000000000000000000000000000000000000000000000000000000000000000000000000000000000000000000000000000000000000000
310
00000000000000000000000000000000000000000000000000000000000000000000000000000000000000000000000000000000000000000000000000000000000000000000000000000000000000000000000000000000000000000000000000000000000000000000000000000000000000000000000000000000000000
310
00000000000000000000000000000000000000000000000000000000000000000000000000000000000000000000000000000000000000000000000000000000000000000000000000000000000000000000000000000000000000000000000000000000000000000000000000000000000000000000000000000000000000
310
0000000000000000000000000000000000000000000000000000000000000000000000000000000000000000000000000000000000000000
102
{BLKREFS
331
878
102
}
1001
ACAD
1000
DesignCenter Data
1002
{
1070
     1
1070
     4
1002
}
  0
BLOCK_RECORD
  5
879
330
1
100
AcDbSymbolTableRecord
100
AcDbBlockTableRecord
  2
2
340
0
310
2800000020000000200000000100080000000000000400000000000000000000000000000000000000000000000080000080000000808000800000008000800080800000C0C0C000C0DCC000F0CAA6000020400000206000002080000020A0000020C0000020E00000400000004020000040400000406000004080000040A0
310
000040C0000040E00000600000006020000060400000606000006080000060A0000060C0000060E00000800000008020000080400000806000008080000080A0000080C0000080E00000A0000000A0200000A0400000A0600000A0800000A0A00000A0C00000A0E00000C0000000C0200000C0400000C0600000C0800000C0
310
A00000C0C00000C0E00000E0000000E0200000E0400000E0600000E0800000E0A00000E0C00000E0E00040000000400020004000400040006000400080004000A0004000C0004000E00040200000402020004020400040206000402080004020A0004020C0004020E000404000004040200040404000404060004040800040
310
40A0004040C0004040E00040600000406020004060400040606000406080004060A0004060C0004060E00040800000408020004080400040806000408080004080A0004080C0004080E00040A0000040A0200040A0400040A0600040A0800040A0A00040A0C00040A0E00040C0000040C0200040C0400040C0600040C08000
310
40C0A00040C0C00040C0E00040E0000040E0200040E0400040E0600040E0800040E0A00040E0C00040E0E00080000000800020008000400080006000800080008000A0008000C0008000E00080200000802020008020400080206000802080008020A0008020C0008020E00080400000804020008040400080406000804080
310
008040A0008040C0008040E00080600000806020008060400080606000806080008060A0008060C0008060E00080800000808020008080400080806000808080008080A0008080C0008080E00080A0000080A0200080A0400080A0600080A0800080A0A00080A0C00080A0E00080C0000080C0200080C0400080C0600080C0
310
800080C0A00080C0C00080C0E00080E0000080E0200080E0400080E0600080E0800080E0A00080E0C00080E0E000C0000000C0002000C0004000C0006000C0008000C000A000C000C000C000E000C0200000C0202000C0204000C0206000C0208000C020A000C020C000C020E000C0400000C0402000C0404000C0406000C0
310
408000C040A000C040C000C040E000C0600000C0602000C0604000C0606000C0608000C060A000C060C000C060E000C0800000C0802000C0804000C0806000C0808000C080A000C080C000C080E000C0A00000C0A02000C0A04000C0A06000C0A08000C0A0A000C0A0C000C0A0E000C0C00000C0C02000C0C04000C0C06000
310
C0C08000C0C0A000F0FBFF00A4A0A000808080000000FF0000FF000000FFFF00FF000000FF00FF00FFFF0000FFFFFF0000000000000000000000000000000000000000000000000000000000000000000000000000000000000000000000000000000000000000000000000000000000000000000000000000000000000000
310
00000000000000000000000000000000000000000000000000000000000000000000000000000000000000000000000000000000000000000000000000000000000000000000000000000000000000000000000000000000000000000000000000000000000000000000000000000000000000000000000000000000000000
310
00000000000000000000000000000000000000000000000000000000000000000000000000000000000000000000000000000000000000000000000000000000000000000000000000000000000000000000000000000000000000000000000000000000000000000000000000000000000000000000000000000000000000
310
0000000000000000000000000000000000000000000000000000000000000000000000000000000000000000000000000000000000000000000000000000000000000000000000000000000000000000000000000000000000000000000000000000000000000000000000000000000000000000FFFFFFFFFFFFFFFFFFFFFF
310
FFFFFFFFFFFFFFFFFFFFFFFFFFFFFFFFFFFFFF0000FFFFFFFFFFFFFFFFFFFFFFFFFFFFFFFFFFFFFFFFFFFFFFFFFFFFFFFF00FF0000FFFFFFFFFFFFFFFF00FFFFFFFFFFFFFFFFFFFFFFFFFFFFFFFFFFFFFF00FF0000FFFFFFFFFFFFFFFFFFFFFFFFFFFFFFFFFFFFFFFFFFFFFFFFFFFFFFFFFFFF000000000000000000000000
310
00000000000000000000000000000000000000000000000000000000000000000000000000000000000000000000000000000000000000000000000000000000000000000000000000000000000000000000000000000000000000000000000000000000000000000000000000000000000000000000000000000000000000
310
00000000000000000000000000000000000000000000000000000000000000000000000000000000000000000000000000000000000000000000000000000000000000000000000000000000000000000000000000000000000000000000000000000000000000000000000000000000000000000000000000000000000000
310
00000000000000000000000000000000000000000000000000000000000000000000000000000000000000000000000000000000000000000000000000000000000000000000000000000000000000000000000000000000000000000000000000000000000000000000000000000000000000000000000000000000000000
310
0000000000000000000000000000000000000000000000000000000000000000000000000000000000000000000000000000000000000000
102
{BLKREFS
331
9E9
102
}
1001
ACAD
1000
DesignCenter Data
1002
{
1070
     1
1070
     4
1002
}
  0
BLOCK_RECORD
  5
9EA
330
1
100
AcDbSymbolTableRecord
100
AcDbBlockTableRecord
  2
3
340
0
310
2800000020000000200000000100080000000000000400000000000000000000000000000000000000000000000080000080000000808000800000008000800080800000C0C0C000C0DCC000F0CAA6000020400000206000002080000020A0000020C0000020E00000400000004020000040400000406000004080000040A0
310
000040C0000040E00000600000006020000060400000606000006080000060A0000060C0000060E00000800000008020000080400000806000008080000080A0000080C0000080E00000A0000000A0200000A0400000A0600000A0800000A0A00000A0C00000A0E00000C0000000C0200000C0400000C0600000C0800000C0
310
A00000C0C00000C0E00000E0000000E0200000E0400000E0600000E0800000E0A00000E0C00000E0E00040000000400020004000400040006000400080004000A0004000C0004000E00040200000402020004020400040206000402080004020A0004020C0004020E000404000004040200040404000404060004040800040
310
40A0004040C0004040E00040600000406020004060400040606000406080004060A0004060C0004060E00040800000408020004080400040806000408080004080A0004080C0004080E00040A0000040A0200040A0400040A0600040A0800040A0A00040A0C00040A0E00040C0000040C0200040C0400040C0600040C08000
310
40C0A00040C0C00040C0E00040E0000040E0200040E0400040E0600040E0800040E0A00040E0C00040E0E00080000000800020008000400080006000800080008000A0008000C0008000E00080200000802020008020400080206000802080008020A0008020C0008020E00080400000804020008040400080406000804080
310
008040A0008040C0008040E00080600000806020008060400080606000806080008060A0008060C0008060E00080800000808020008080400080806000808080008080A0008080C0008080E00080A0000080A0200080A0400080A0600080A0800080A0A00080A0C00080A0E00080C0000080C0200080C0400080C0600080C0
310
800080C0A00080C0C00080C0E00080E0000080E0200080E0400080E0600080E0800080E0A00080E0C00080E0E000C0000000C0002000C0004000C0006000C0008000C000A000C000C000C000E000C0200000C0202000C0204000C0206000C0208000C020A000C020C000C020E000C0400000C0402000C0404000C0406000C0
310
408000C040A000C040C000C040E000C0600000C0602000C0604000C0606000C0608000C060A000C060C000C060E000C0800000C0802000C0804000C0806000C0808000C080A000C080C000C080E000C0A00000C0A02000C0A04000C0A06000C0A08000C0A0A000C0A0C000C0A0E000C0C00000C0C02000C0C04000C0C06000
310
C0C08000C0C0A000F0FBFF00A4A0A000808080000000FF0000FF000000FFFF00FF000000FF00FF00FFFF0000FFFFFF0000000000000000000000000000000000000000000000000000000000000000000000000000000000FFFFFFFFFFFFFFFFFFFFFFFFFFFFFFFF00000000000000000000000000000000FF000000000000
310
0000000000000000FF00000000000000000000000000000000FF0000000000000000000000000000FF00000000000000000000000000000000FF0000000000000000000000000000FF00000000000000000000000000000000FF0000000000000000000000000000FF00000000000000000000000000000000FF0000000000
310
000000000000000000FF00000000000000000000000000000000FF0000000000000000000000000000FF00000000000000000000000000000000FF0000000000000000000000000000FF00000000000000000000000000000000FF0000000000000000000000000000FF00000000000000000000000000000000FF00000000
310
00000000000000000000FF00000000000000000000000000000000FF0000000000000000000000000000FF00000000000000000000000000000000FF0000000000000000000000000000FF00000000000000000000000000000000FF0000000000000000000000000000FF00000000000000000000000000000000FF000000
310
0000000000000000000000FF00000000000000000000000000000000FF0000000000000000000000000000FF00000000000000000000000000000000FF0000000000000000000000000000FF00000000000000000000000000000000FF0000000000000000000000000000FF00000000000000000000000000000000FF0000
310
000000000000000000000000FF00000000000000000000000000000000FF0000000000000000000000000000FF00000000000000000000000000000000FF0000000000000000000000000000FF00000000000000000000000000000000FF0000000000000000000000000000FF00000000000000000000000000000000FF00
310
00000000000000000000000000FF00000000000000000000000000000000FFFFFFFFFFFFFFFFFFFFFFFFFFFFFFFF0000000000000000000000000000000000FFFF00000000000000000000FFFF000000000000000000000000000000000000FFFF00000000000000000000FFFF000000000000000000000000000000000000
310
FFFF000000FFFFFFFF000000FFFF000000000000000000000000000000000000FFFF000000FFFFFFFF000000FFFF000000000000000000000000000000000000FFFF000000FF0000FF000000FFFF000000000000000000000000000000000000FFFFFFFFFFFF0000FFFFFFFFFFFF0000000000000000000000000000000000
310
00FFFFFFFFFFFF0000FFFFFFFFFFFF0000000000000000000000000000000000000000000000000000000000000000000000000000000000
102
{BLKREFS
331
A07
102
}
1001
ACAD
1000
DesignCenter Data
1002
{
1070
     1
1070
     4
1002
}
  0
BLOCK_RECORD
  5
A08
330
1
100
AcDbSymbolTableRecord
100
AcDbBlockTableRecord
  2
4
340
0
310
2800000020000000200000000100080000000000000400000000000000000000000000000000000000000000000080000080000000808000800000008000800080800000C0C0C000C0DCC000F0CAA6000020400000206000002080000020A0000020C0000020E00000400000004020000040400000406000004080000040A0
310
000040C0000040E00000600000006020000060400000606000006080000060A0000060C0000060E00000800000008020000080400000806000008080000080A0000080C0000080E00000A0000000A0200000A0400000A0600000A0800000A0A00000A0C00000A0E00000C0000000C0200000C0400000C0600000C0800000C0
310
A00000C0C00000C0E00000E0000000E0200000E0400000E0600000E0800000E0A00000E0C00000E0E00040000000400020004000400040006000400080004000A0004000C0004000E00040200000402020004020400040206000402080004020A0004020C0004020E000404000004040200040404000404060004040800040
310
40A0004040C0004040E00040600000406020004060400040606000406080004060A0004060C0004060E00040800000408020004080400040806000408080004080A0004080C0004080E00040A0000040A0200040A0400040A0600040A0800040A0A00040A0C00040A0E00040C0000040C0200040C0400040C0600040C08000
310
40C0A00040C0C00040C0E00040E0000040E0200040E0400040E0600040E0800040E0A00040E0C00040E0E00080000000800020008000400080006000800080008000A0008000C0008000E00080200000802020008020400080206000802080008020A0008020C0008020E00080400000804020008040400080406000804080
310
008040A0008040C0008040E00080600000806020008060400080606000806080008060A0008060C0008060E00080800000808020008080400080806000808080008080A0008080C0008080E00080A0000080A0200080A0400080A0600080A0800080A0A00080A0C00080A0E00080C0000080C0200080C0400080C0600080C0
310
800080C0A00080C0C00080C0E00080E0000080E0200080E0400080E0600080E0800080E0A00080E0C00080E0E000C0000000C0002000C0004000C0006000C0008000C000A000C000C000C000E000C0200000C0202000C0204000C0206000C0208000C020A000C020C000C020E000C0400000C0402000C0404000C0406000C0
310
408000C040A000C040C000C040E000C0600000C0602000C0604000C0606000C0608000C060A000C060C000C060E000C0800000C0802000C0804000C0806000C0808000C080A000C080C000C080E000C0A00000C0A02000C0A04000C0A06000C0A08000C0A0A000C0A0C000C0A0E000C0C00000C0C02000C0C04000C0C06000
310
C0C08000C0C0A000F0FBFF00A4A0A000808080000000FF0000FF000000FFFF00FF000000FF00FF00FFFF0000FFFFFF0000000000000000000000000000000000000000000000000000000000000000000000000000000000000000000000000000000000000000000000000000000000000000000000000000000000000000
310
00000000000000000000000000000000000000000000000000000000000000000000000000000000000000000000000000000000000000000000000000000000000000000000000000000000000000000000000000000000000000000000000000000000000000000000000000000000000000000000000000000000000000
310
00000000000000000000000000FFFF00000000000000000000000000000000000000000000000000000000FFFFFF00FFFF000000000000000000000000000000000000000000000000FFFFFFFFFF0000FF00000000000000000000000000000000000000000000FFFFFFFFFFFFFF0000FF0000000000000000000000000000
310
000000000000FFFFFFFFFFFFFFFFFFFF00FF000000000000000000000000000000000000FFFFFFFFFFFFFFFFFFFFFF00FFFF00000000000000000000000000000000FFFFFFFFFFFFFFFFFFFFFFFFFFFFFF000000000000000000000000000000FFFFFFFFFFFFFFFFFFFFFFFFFFFFFFFF0000000000000000000000000000FF
310
FF00FFFFFFFF00FFFFFFFFFFFFFFFF0000000000000000000000000000FFFF00FFFFFFFFFFFFFFFFFFFFFFFF000000000000000000000000000000FFFFFFFFFFFFFFFFFFFFFFFFFFFFFF000000000000000000000000000000FFFF0000FFFFFFFFFFFFFFFFFFFFFFFFFF00000000000000000000000000FFFFFFFF0000FFFF
310
FFFFFFFFFFFFFFFFFF00000000000000000000000000FFFFFFFFFFFF0000FFFFFFFFFFFFFFFF00000000000000000000000000000000FFFFFFFFFFFFFFFFFFFFFFFFFFFF000000000000000000000000000000000000FFFFFFFFFFFFFFFFFFFFFFFF0000000000000000000000000000000000000000FF00FFFFFFFFFFFFFF
310
0000000000000000000000000000000000000000000000FFFFFFFFFFFFFFFF00000000000000000000000000000000000000000000000000FFFFFFFFFFFF00000000000000000000000000000000000000000000000000000000FFFFFF00000000000000000000000000000000000000000000000000000000000000000000
310
00000000000000000000000000000000000000000000000000000000000000000000000000000000000000000000000000000000000000000000000000000000000000000000000000000000000000000000000000000000000000000000000000000000000000000000000000000000000000000000000000000000000000
310
0000000000000000000000000000000000000000000000000000000000000000000000000000000000000000000000000000000000000000
102
{BLKREFS
331
B4A
102
}
1001
ACAD
1000
DesignCenter Data
1002
{
1070
     1
1070
     4
1002
}
  0
ENDTAB
  0
ENDSEC
  0
SECTION
  2
BLOCKS
  0
BLOCK
  5
20
330
1F
100
AcDbEntity
  8
0
100
AcDbBlockBegin
  2
*Model_Space
 70
     0
 10
0.0
 20
0.0
 30
0.0
  3
*Model_Space
  1

  0
ENDBLK
  5
21
330
1F
100
AcDbEntity
  8
0
100
AcDbBlockEnd
  0
BLOCK
  5
D4
330
D2
100
AcDbEntity
 67
     1
  8
0
100
AcDbBlockBegin
  2
*Paper_Space
 70
     0
 10
0.0
 20
0.0
 30
0.0
  3
*Paper_Space
  1

  0
ENDBLK
  5
D5
330
D2
100
AcDbEntity
 67
     1
  8
0
100
AcDbBlockEnd
  0
BLOCK
  5
D8
330
D6
100
AcDbEntity
 67
     1
  8
0
100
AcDbBlockBegin
  2
*Paper_Space0
 70
     0
 10
0.0
 20
0.0
 30
0.0
  3
*Paper_Space0
  1

  0
ENDBLK
  5
D9
330
D6
100
AcDbEntity
 67
     1
  8
0
100
AcDbBlockEnd
  0
BLOCK
  5
80E
330
80D
100
AcDbEntity
  8
0
100
AcDbBlockBegin
  2
1
 70
     0
 10
0.0
 20
0.0
 30
0.0
  3
1
  1

  0
LINE
  5
810
330
80D
100
AcDbEntity
  8
0
  6
Continuous
 62
     7
370
    15
100
AcDbLine
 10
1922.620692789198
 20
1132.698047653489
 30
0.0
 11
1922.620692789198
 21
1130.898047653489
 31
0.0
  0
LINE
  5
811
330
80D
100
AcDbEntity
  8
0
  6
Continuous
 62
     7
370
    15
100
AcDbLine
 10
1928.420692789199
 20
1130.898047653489
 30
0.0
 11
1928.420692789199
 21
1132.698047653489
 31
0.0
  0
LINE
  5
812
330
80D
100
AcDbEntity
  8
0
  6
Continuous
 62
     7
370
    15
100
AcDbLine
 10
1928.870692789199
 20
1132.698047653489
 30
0.0
 11
1928.870692789199
 21
1130.898047653489
 31
0.0
  0
LINE
  5
813
330
80D
100
AcDbEntity
  8
0
  6
Continuous
 62
     7
370
    15
100
AcDbLine
 10
1934.670692789199
 20
1130.898047653489
 30
0.0
 11
1934.670692789199
 21
1132.698047653489
 31
0.0
  0
LINE
  5
814
330
80D
100
AcDbEntity
  8
0
  6
Continuous
 62
     7
370
    15
100
AcDbLine
 10
1948.120692789199
 20
1132.268047653489
 30
0.0
 11
1948.120692789199
 21
1130.898047653489
 31
0.0
  0
LINE
  5
815
330
80D
100
AcDbEntity
  8
0
  6
Continuous
 62
     7
370
    15
100
AcDbLine
 10
1952.920692789199
 20
1130.898047653489
 30
0.0
 11
1952.920692789199
 21
1132.268047653489
 31
0.0
  0
LINE
  5
816
330
80D
100
AcDbEntity
  8
0
  6
Continuous
 62
     7
370
    15
100
AcDbLine
 10
1954.370692789199
 20
1132.268047653489
 30
0.0
 11
1954.370692789199
 21
1130.898047653489
 31
0.0
  0
LINE
  5
817
330
80D
100
AcDbEntity
  8
0
  6
Continuous
 62
     7
370
    15
100
AcDbLine
 10
1959.170692789198
 20
1130.898047653489
 30
0.0
 11
1959.170692789198
 21
1132.268047653489
 31
0.0
  0
LINE
  5
818
330
80D
100
AcDbEntity
  8
0
  6
Continuous
 62
     7
370
    15
100
AcDbLine
 10
1941.870692789199
 20
1132.268047653489
 30
0.0
 11
1941.870692789199
 21
1130.898047653489
 31
0.0
  0
LINE
  5
819
330
80D
100
AcDbEntity
  8
0
  6
Continuous
 62
     7
370
    15
100
AcDbLine
 10
1946.670692789199
 20
1130.898047653489
 30
0.0
 11
1946.670692789199
 21
1132.268047653489
 31
0.0
  0
LINE
  5
81A
330
80D
100
AcDbEntity
  8
0
  6
Continuous
 62
     7
370
    15
100
AcDbLine
 10
1960.620692789199
 20
1132.268047653489
 30
0.0
 11
1960.620692789199
 21
1130.898047653489
 31
0.0
  0
LINE
  5
81B
330
80D
100
AcDbEntity
  8
0
  6
Continuous
 62
     7
370
    15
100
AcDbLine
 10
1965.420692789199
 20
1130.898047653489
 30
0.0
 11
1965.420692789199
 21
1132.268047653489
 31
0.0
  0
LINE
  5
81C
330
80D
100
AcDbEntity
  8
0
  6
Continuous
 62
     7
370
    15
100
AcDbLine
 10
1966.870692789199
 20
1132.268047653489
 30
0.0
 11
1966.870692789199
 21
1130.898047653489
 31
0.0
  0
LINE
  5
81D
330
80D
100
AcDbEntity
  8
0
  6
Continuous
 62
     7
370
    15
100
AcDbLine
 10
1971.670692789199
 20
1130.898047653489
 30
0.0
 11
1971.670692789199
 21
1132.268047653489
 31
0.0
  0
LINE
  5
81E
330
80D
100
AcDbEntity
  8
0
  6
Continuous
 62
     7
370
    15
100
AcDbLine
 10
1979.370692789199
 20
1132.268047653489
 30
0.0
 11
1979.370692789199
 21
1130.898047653489
 31
0.0
  0
LINE
  5
81F
330
80D
100
AcDbEntity
  8
0
  6
Continuous
 62
     7
370
    15
100
AcDbLine
 10
1984.170692789199
 20
1130.898047653489
 30
0.0
 11
1984.170692789199
 21
1132.268047653489
 31
0.0
  0
LINE
  5
820
330
80D
100
AcDbEntity
  8
0
  6
Continuous
 62
     7
370
    15
100
AcDbLine
 10
1973.120692789199
 20
1132.268047653489
 30
0.0
 11
1973.120692789199
 21
1130.898047653489
 31
0.0
  0
LINE
  5
821
330
80D
100
AcDbEntity
  8
0
  6
Continuous
 62
     7
370
    15
100
AcDbLine
 10
1977.920692789199
 20
1130.898047653489
 30
0.0
 11
1977.920692789199
 21
1132.268047653489
 31
0.0
  0
LINE
  5
822
330
80D
100
AcDbEntity
  8
0
  6
Continuous
 62
     7
370
    15
100
AcDbLine
 10
1985.620692789199
 20
1132.268047653489
 30
0.0
 11
1985.620692789199
 21
1130.898047653489
 31
0.0
  0
LINE
  5
823
330
80D
100
AcDbEntity
  8
0
  6
Continuous
 62
     7
370
    15
100
AcDbLine
 10
1990.420692789198
 20
1130.898047653489
 30
0.0
 11
1990.420692789198
 21
1132.268047653489
 31
0.0
  0
CIRCLE
  5
824
330
80D
100
AcDbEntity
  8
0
  6
Continuous
 62
     7
370
    15
100
AcDbCircle
 10
1944.370692789198
 20
1126.298047653489
 30
0.0
 40
2.400000000000005
  0
CIRCLE
  5
825
330
80D
100
AcDbEntity
  8
0
  6
Continuous
 62
     7
370
    15
100
AcDbCircle
 10
1950.620692789198
 20
1126.298047653489
 30
0.0
 40
2.399999999999977
  0
CIRCLE
  5
826
330
80D
100
AcDbEntity
  8
0
  6
Continuous
 62
     7
370
    15
100
AcDbCircle
 10
1956.870692789198
 20
1126.298047653489
 30
0.0
 40
2.400000000000005
  0
CIRCLE
  5
827
330
80D
100
AcDbEntity
  8
0
  6
Continuous
 62
     7
370
    15
100
AcDbCircle
 10
1963.120692789199
 20
1126.298047653489
 30
0.0
 40
2.399999999999977
  0
CIRCLE
  5
828
330
80D
100
AcDbEntity
  8
0
  6
Continuous
 62
     7
370
    15
100
AcDbCircle
 10
1969.370692789199
 20
1126.298047653489
 30
0.0
 40
2.400000000000005
  0
CIRCLE
  5
829
330
80D
100
AcDbEntity
  8
0
  6
Continuous
 62
     7
370
    15
100
AcDbCircle
 10
1975.620692789199
 20
1126.298047653489
 30
0.0
 40
2.399999999999977
  0
CIRCLE
  5
82A
330
80D
100
AcDbEntity
  8
0
  6
Continuous
 62
     7
370
    15
100
AcDbCircle
 10
1981.870692789199
 20
1126.298047653489
 30
0.0
 40
2.400000000000005
  0
CIRCLE
  5
82B
330
80D
100
AcDbEntity
  8
0
  6
Continuous
 62
     7
370
    15
100
AcDbCircle
 10
1988.120692789198
 20
1126.298047653489
 30
0.0
 40
2.399999999999977
  0
CIRCLE
  5
82C
330
80D
100
AcDbEntity
  8
0
  6
Continuous
 62
     7
370
    15
100
AcDbCircle
 10
1931.690692789199
 20
1126.298047653489
 30
0.0
 40
2.749999999999971
  0
CIRCLE
  5
82D
330
80D
100
AcDbEntity
  8
0
  6
Continuous
 62
     7
370
    15
100
AcDbCircle
 10
1925.440692789199
 20
1126.298047653489
 30
0.0
 40
2.749999999999971
  0
LINE
  5
82E
330
80D
100
AcDbEntity
  8
0
  6
Continuous
 62
     7
370
    15
100
AcDbLine
 10
1993.270692789198
 20
1121.898047653489
 30
0.0
 11
1920.270692789198
 21
1121.898047653489
 31
0.0
  0
LINE
  5
82F
330
80D
100
AcDbEntity
  8
0
  6
Continuous
 62
     7
370
    15
100
AcDbLine
 10
1920.270692789198
 20
1121.898047653489
 30
0.0
 11
1920.270692789198
 21
1130.898047653489
 31
0.0
  0
LINE
  5
830
330
80D
100
AcDbEntity
  8
0
  6
Continuous
 62
     7
370
    15
100
AcDbLine
 10
1920.270692789198
 20
1130.898047653489
 30
0.0
 11
1993.270692789198
 21
1130.898047653489
 31
0.0
  0
LINE
  5
831
330
80D
100
AcDbEntity
  8
0
  6
Continuous
 62
     7
370
    15
100
AcDbLine
 10
1993.270692789198
 20
1130.898047653489
 30
0.0
 11
1993.270692789198
 21
1121.898047653489
 31
0.0
  0
LINE
  5
832
330
80D
100
AcDbEntity
  8
0
  6
Continuous
 62
     7
370
    15
100
AcDbLine
 10
1928.420692789199
 20
1132.698047653489
 30
0.0
 11
1928.370026311616
 21
1132.698047653489
 31
0.0
  0
ELLIPSE
  5
833
330
80D
100
AcDbEntity
  8
0
  6
Continuous
 62
     7
370
    15
100
AcDbEllipse
 10
1925.520692789199
 20
1122.449365640852
 30
0.0
 11
0.0026635732168074
 21
55.3352963942357
 31
0.0
210
0.0
220
0.0
230
1.0
 40
0.0524077571777694
 41
4.898677642449124
 42
4.920793309632104
  0
LINE
  5
834
330
80D
100
AcDbEntity
  8
0
  6
Continuous
 62
     7
370
    15
100
AcDbLine
 10
1922.670375332821
 20
1132.698047653489
 30
0.0
 11
1922.620692789198
 21
1132.698047653489
 31
0.0
  0
ELLIPSE
  5
835
330
80D
100
AcDbEntity
  8
0
  6
Continuous
 62
     7
370
    15
100
AcDbEllipse
 10
1925.520692789199
 20
1122.449365640852
 30
0.0
 11
-0.0026635732168074
 21
55.33529639423566
 31
0.0
210
0.0
220
0.0
230
1.0
 40
0.0524077571777695
 41
1.362391997547494
 42
1.384507664730474
  0
LINE
  5
836
330
80D
100
AcDbEntity
  8
0
  6
Continuous
 62
     7
370
    15
100
AcDbLine
 10
1928.357394220321
 20
1133.898047653489
 30
0.0
 11
1922.682892217035
 21
1133.898047653489
 31
0.0
  0
ELLIPSE
  5
837
330
80D
100
AcDbEntity
  8
0
  6
Continuous
 62
     7
370
    15
100
AcDbEllipse
 10
1925.520692789199
 20
1122.449365640852
 30
0.0
 11
-0.0026635732168074
 21
55.33529639423566
 31
0.0
210
0.0
220
0.0
230
1.0
 40
0.0524077571777695
 41
4.898672597137812
 42
4.920788264320792
  0
LINE
  5
838
330
80D
100
AcDbEntity
  8
0
  6
Continuous
 62
     7
370
    15
100
AcDbLine
 10
1934.670692789199
 20
1132.698047653489
 30
0.0
 11
1934.620026311616
 21
1132.698047653489
 31
0.0
  0
ELLIPSE
  5
839
330
80D
100
AcDbEntity
  8
0
  6
Continuous
 62
     7
370
    15
100
AcDbEllipse
 10
1931.770692789198
 20
1122.449365640852
 30
0.0
 11
0.0026635732168074
 21
55.3352963942357
 31
0.0
210
0.0
220
0.0
230
1.0
 40
0.0524077571777694
 41
4.898677642449124
 42
4.920793309632104
  0
LINE
  5
83A
330
80D
100
AcDbEntity
  8
0
  6
Continuous
 62
     7
370
    15
100
AcDbLine
 10
1928.920375332821
 20
1132.698047653489
 30
0.0
 11
1928.870692789199
 21
1132.698047653489
 31
0.0
  0
ELLIPSE
  5
83B
330
80D
100
AcDbEntity
  8
0
  6
Continuous
 62
     7
370
    15
100
AcDbEllipse
 10
1931.770692789198
 20
1122.449365640852
 30
0.0
 11
-0.002663573216779
 21
55.33529639423566
 31
0.0
210
0.0
220
0.0
230
1.0
 40
0.0524077571777695
 41
1.362391997547494
 42
1.384507664730473
  0
ELLIPSE
  5
83C
330
80D
100
AcDbEntity
  8
0
  6
Continuous
 62
     7
370
    15
100
AcDbEllipse
 10
1931.770692789198
 20
1122.449365640852
 30
0.0
 11
-0.002663573216779
 21
55.33529639423566
 31
0.0
210
0.0
220
0.0
230
1.0
 40
0.0524077571777695
 41
4.898672597137812
 42
4.920788264320793
  0
LINE
  5
83D
330
80D
100
AcDbEntity
  8
0
  6
Continuous
 62
     7
370
    15
100
AcDbLine
 10
1934.607394220321
 20
1133.898047653489
 30
0.0
 11
1928.932892217035
 21
1133.898047653489
 31
0.0
  0
LINE
  5
83E
330
80D
100
AcDbEntity
  8
0
  6
Continuous
 62
     7
370
    15
100
AcDbLine
 10
1952.920692789199
 20
1132.268047653489
 30
0.0
 11
1952.859326202202
 21
1132.268047653489
 31
0.0
  0
ELLIPSE
  5
83F
330
80D
100
AcDbEntity
  8
0
  6
Continuous
 62
     7
370
    15
100
AcDbEllipse
 10
1950.520692789199
 20
1122.019365640852
 30
0.0
 11
0.0022043364552644
 21
45.79472805040194
 31
0.0
210
0.0
220
0.0
230
1.0
 40
0.0524077571777692
 41
4.938099143905416
 42
4.965071758182438
  0
LINE
  5
840
330
80D
100
AcDbEntity
  8
0
  6
Continuous
 62
     7
370
    15
100
AcDbLine
 10
1948.181075442236
 20
1132.268047653489
 30
0.0
 11
1948.120692789199
 21
1132.268047653489
 31
0.0
  0
ELLIPSE
  5
841
330
80D
100
AcDbEntity
  8
0
  6
Continuous
 62
     7
370
    15
100
AcDbEllipse
 10
1950.520692789199
 20
1122.019365640852
 30
0.0
 11
-0.0022043364552928
 21
45.79472805040194
 31
0.0
210
0.0
220
0.0
230
1.0
 40
0.0524077571777698
 41
1.318113548997154
 42
1.345086163274173
  0
LINE
  5
842
330
80D
100
AcDbEntity
  8
0
  6
Continuous
 62
     7
370
    15
100
AcDbLine
 10
1952.843932251611
 20
1133.468047653489
 30
0.0
 11
1948.196354185744
 21
1133.468047653489
 31
0.0
  0
ELLIPSE
  5
843
330
80D
100
AcDbEntity
  8
0
  6
Continuous
 62
     7
370
    15
100
AcDbEllipse
 10
1950.520692789199
 20
1122.019365640852
 30
0.0
 11
-0.0022043364552928
 21
45.79472805040194
 31
0.0
210
0.0
220
0.0
230
1.0
 40
0.0524077571777698
 41
4.938094098594118
 42
4.96506671287114
  0
LINE
  5
844
330
80D
100
AcDbEntity
  8
0
  6
Continuous
 62
     7
370
    15
100
AcDbLine
 10
1959.170692789198
 20
1132.268047653489
 30
0.0
 11
1959.109326202202
 21
1132.268047653489
 31
0.0
  0
ELLIPSE
  5
845
330
80D
100
AcDbEntity
  8
0
  6
Continuous
 62
     7
370
    15
100
AcDbEllipse
 10
1956.770692789199
 20
1122.019365640852
 30
0.0
 11
0.0022043364552928
 21
45.79472805040194
 31
0.0
210
0.0
220
0.0
230
1.0
 40
0.0524077571777692
 41
4.938099143905417
 42
4.965071758182442
  0
LINE
  5
846
330
80D
100
AcDbEntity
  8
0
  6
Continuous
 62
     7
370
    15
100
AcDbLine
 10
1954.431075442236
 20
1132.268047653489
 30
0.0
 11
1954.370692789199
 21
1132.268047653489
 31
0.0
  0
ELLIPSE
  5
847
330
80D
100
AcDbEntity
  8
0
  6
Continuous
 62
     7
370
    15
100
AcDbEllipse
 10
1956.770692789199
 20
1122.019365640852
 30
0.0
 11
-0.0022043364552928
 21
45.79472805040194
 31
0.0
210
0.0
220
0.0
230
1.0
 40
0.0524077571777692
 41
1.318113548997157
 42
1.345086163274175
  0
LINE
  5
848
330
80D
100
AcDbEntity
  8
0
  6
Continuous
 62
     7
370
    15
100
AcDbLine
 10
1959.093932251611
 20
1133.468047653489
 30
0.0
 11
1954.446354185744
 21
1133.468047653489
 31
0.0
  0
ELLIPSE
  5
849
330
80D
100
AcDbEntity
  8
0
  6
Continuous
 62
     7
370
    15
100
AcDbEllipse
 10
1956.770692789199
 20
1122.019365640852
 30
0.0
 11
-0.0022043364552928
 21
45.79472805040194
 31
0.0
210
0.0
220
0.0
230
1.0
 40
0.0524077571777692
 41
4.938094098594115
 42
4.965066712871137
  0
LINE
  5
84A
330
80D
100
AcDbEntity
  8
0
  6
Continuous
 62
     7
370
    15
100
AcDbLine
 10
1946.670692789199
 20
1132.268047653489
 30
0.0
 11
1946.609326202201
 21
1132.268047653489
 31
0.0
  0
ELLIPSE
  5
84B
330
80D
100
AcDbEntity
  8
0
  6
Continuous
 62
     7
370
    15
100
AcDbEllipse
 10
1944.270692789199
 20
1122.019365640852
 30
0.0
 11
0.0022043364552928
 21
45.79472805040194
 31
0.0
210
0.0
220
0.0
230
1.0
 40
0.0524077571777698
 41
4.938099143905417
 42
4.965071758182441
  0
LINE
  5
84C
330
80D
100
AcDbEntity
  8
0
  6
Continuous
 62
     7
370
    15
100
AcDbLine
 10
1941.931075442236
 20
1132.268047653489
 30
0.0
 11
1941.870692789199
 21
1132.268047653489
 31
0.0
  0
ELLIPSE
  5
84D
330
80D
100
AcDbEntity
  8
0
  6
Continuous
 62
     7
370
    15
100
AcDbEllipse
 10
1944.270692789199
 20
1122.019365640852
 30
0.0
 11
-0.0022043364552644
 21
45.79472805040194
 31
0.0
210
0.0
220
0.0
230
1.0
 40
0.0524077571777692
 41
1.318113548997155
 42
1.345086163274173
  0
LINE
  5
84E
330
80D
100
AcDbEntity
  8
0
  6
Continuous
 62
     7
370
    15
100
AcDbLine
 10
1946.593932251611
 20
1133.468047653489
 30
0.0
 11
1941.946354185744
 21
1133.468047653489
 31
0.0
  0
ELLIPSE
  5
84F
330
80D
100
AcDbEntity
  8
0
  6
Continuous
 62
     7
370
    15
100
AcDbEllipse
 10
1944.270692789199
 20
1122.019365640852
 30
0.0
 11
-0.0022043364552644
 21
45.79472805040194
 31
0.0
210
0.0
220
0.0
230
1.0
 40
0.0524077571777692
 41
4.938094098594113
 42
4.965066712871134
  0
LINE
  5
850
330
80D
100
AcDbEntity
  8
0
  6
Continuous
 62
     7
370
    15
100
AcDbLine
 10
1965.420692789199
 20
1132.268047653489
 30
0.0
 11
1965.359326202202
 21
1132.268047653489
 31
0.0
  0
ELLIPSE
  5
851
330
80D
100
AcDbEntity
  8
0
  6
Continuous
 62
     7
370
    15
100
AcDbEllipse
 10
1963.020692789198
 20
1122.019365640852
 30
0.0
 11
0.0022043364552928
 21
45.79472805040194
 31
0.0
210
0.0
220
0.0
230
1.0
 40
0.0524077571777692
 41
4.93809914390542
 42
4.965071758182438
  0
LINE
  5
852
330
80D
100
AcDbEntity
  8
0
  6
Continuous
 62
     7
370
    15
100
AcDbLine
 10
1960.681075442236
 20
1132.268047653489
 30
0.0
 11
1960.620692789199
 21
1132.268047653489
 31
0.0
  0
ELLIPSE
  5
853
330
80D
100
AcDbEntity
  8
0
  6
Continuous
 62
     7
370
    15
100
AcDbEllipse
 10
1963.020692789198
 20
1122.019365640852
 30
0.0
 11
-0.0022043364552928
 21
45.79472805040194
 31
0.0
210
0.0
220
0.0
230
1.0
 40
0.0524077571777692
 41
1.31811354899716
 42
1.345086163274175
  0
LINE
  5
854
330
80D
100
AcDbEntity
  8
0
  6
Continuous
 62
     7
370
    15
100
AcDbLine
 10
1965.343932251611
 20
1133.468047653489
 30
0.0
 11
1960.696354185744
 21
1133.468047653489
 31
0.0
  0
ELLIPSE
  5
855
330
80D
100
AcDbEntity
  8
0
  6
Continuous
 62
     7
370
    15
100
AcDbEllipse
 10
1963.020692789198
 20
1122.019365640852
 30
0.0
 11
-0.0022043364552928
 21
45.79472805040194
 31
0.0
210
0.0
220
0.0
230
1.0
 40
0.0524077571777692
 41
4.938094098594115
 42
4.965066712871137
  0
LINE
  5
856
330
80D
100
AcDbEntity
  8
0
  6
Continuous
 62
     7
370
    15
100
AcDbLine
 10
1971.670692789199
 20
1132.268047653489
 30
0.0
 11
1971.609326202202
 21
1132.268047653489
 31
0.0
  0
ELLIPSE
  5
857
330
80D
100
AcDbEntity
  8
0
  6
Continuous
 62
     7
370
    15
100
AcDbEllipse
 10
1969.270692789199
 20
1122.019365640852
 30
0.0
 11
0.0022043364553213
 21
45.79472805040194
 31
0.0
210
0.0
220
0.0
230
1.0
 40
0.0524077571777698
 41
4.93809914390542
 42
4.965071758182439
  0
LINE
  5
858
330
80D
100
AcDbEntity
  8
0
  6
Continuous
 62
     7
370
    15
100
AcDbLine
 10
1966.931075442236
 20
1132.268047653489
 30
0.0
 11
1966.870692789199
 21
1132.268047653489
 31
0.0
  0
ELLIPSE
  5
859
330
80D
100
AcDbEntity
  8
0
  6
Continuous
 62
     7
370
    15
100
AcDbEllipse
 10
1969.270692789199
 20
1122.019365640852
 30
0.0
 11
-0.0022043364552928
 21
45.79472805040194
 31
0.0
210
0.0
220
0.0
230
1.0
 40
0.0524077571777692
 41
1.318113548997151
 42
1.345086163274173
  0
LINE
  5
85A
330
80D
100
AcDbEntity
  8
0
  6
Continuous
 62
     7
370
    15
100
AcDbLine
 10
1971.593932251611
 20
1133.468047653489
 30
0.0
 11
1966.946354185744
 21
1133.468047653489
 31
0.0
  0
ELLIPSE
  5
85B
330
80D
100
AcDbEntity
  8
0
  6
Continuous
 62
     7
370
    15
100
AcDbEllipse
 10
1969.270692789199
 20
1122.019365640852
 30
0.0
 11
-0.0022043364552928
 21
45.79472805040194
 31
0.0
210
0.0
220
0.0
230
1.0
 40
0.0524077571777692
 41
4.93809409859411
 42
4.965066712871134
  0
LINE
  5
85C
330
80D
100
AcDbEntity
  8
0
  6
Continuous
 62
     7
370
    15
100
AcDbLine
 10
1984.170692789199
 20
1132.268047653489
 30
0.0
 11
1984.109326202202
 21
1132.268047653489
 31
0.0
  0
ELLIPSE
  5
85D
330
80D
100
AcDbEntity
  8
0
  6
Continuous
 62
     7
370
    15
100
AcDbEllipse
 10
1981.770692789199
 20
1122.019365640852
 30
0.0
 11
0.0022043364552644
 21
45.79472805040194
 31
0.0
210
0.0
220
0.0
230
1.0
 40
0.0524077571777692
 41
4.938099143905416
 42
4.965071758182438
  0
LINE
  5
85E
330
80D
100
AcDbEntity
  8
0
  6
Continuous
 62
     7
370
    15
100
AcDbLine
 10
1979.431075442236
 20
1132.268047653489
 30
0.0
 11
1979.370692789199
 21
1132.268047653489
 31
0.0
  0
ELLIPSE
  5
85F
330
80D
100
AcDbEntity
  8
0
  6
Continuous
 62
     7
370
    15
100
AcDbEllipse
 10
1981.770692789199
 20
1122.019365640852
 30
0.0
 11
-0.0022043364552928
 21
45.79472805040191
 31
0.0
210
0.0
220
0.0
230
0.9999999999999998
 40
0.0524077571777698
 41
1.318113548997154
 42
1.345086163274173
  0
LINE
  5
860
330
80D
100
AcDbEntity
  8
0
  6
Continuous
 62
     7
370
    15
100
AcDbLine
 10
1984.093932251611
 20
1133.468047653489
 30
0.0
 11
1979.446354185744
 21
1133.468047653489
 31
0.0
  0
ELLIPSE
  5
861
330
80D
100
AcDbEntity
  8
0
  6
Continuous
 62
     7
370
    15
100
AcDbEllipse
 10
1981.770692789199
 20
1122.019365640852
 30
0.0
 11
-0.0022043364552928
 21
45.79472805040191
 31
0.0
210
0.0
220
0.0
230
0.9999999999999998
 40
0.0524077571777698
 41
4.938094098594118
 42
4.96506671287114
  0
LINE
  5
862
330
80D
100
AcDbEntity
  8
0
  6
Continuous
 62
     7
370
    15
100
AcDbLine
 10
1977.920692789199
 20
1132.268047653489
 30
0.0
 11
1977.859326202201
 21
1132.268047653489
 31
0.0
  0
ELLIPSE
  5
863
330
80D
100
AcDbEntity
  8
0
  6
Continuous
 62
     7
370
    15
100
AcDbEllipse
 10
1975.520692789199
 20
1122.019365640852
 30
0.0
 11
0.0022043364552928
 21
45.79472805040194
 31
0.0
210
0.0
220
0.0
230
1.0
 40
0.0524077571777698
 41
4.93809914390542
 42
4.965071758182441
  0
LINE
  5
864
330
80D
100
AcDbEntity
  8
0
  6
Continuous
 62
     7
370
    15
100
AcDbLine
 10
1973.181075442236
 20
1132.268047653489
 30
0.0
 11
1973.120692789199
 21
1132.268047653489
 31
0.0
  0
ELLIPSE
  5
865
330
80D
100
AcDbEntity
  8
0
  6
Continuous
 62
     7
370
    15
100
AcDbEllipse
 10
1975.520692789199
 20
1122.019365640852
 30
0.0
 11
-0.0022043364552644
 21
45.79472805040191
 31
0.0
210
0.0
220
0.0
230
0.9999999999999998
 40
0.0524077571777692
 41
1.318113548997158
 42
1.345086163274177
  0
ELLIPSE
  5
866
330
80D
100
AcDbEntity
  8
0
  6
Continuous
 62
     7
370
    15
100
AcDbEllipse
 10
1975.520692789199
 20
1122.019365640852
 30
0.0
 11
-0.0022043364552644
 21
45.79472805040191
 31
0.0
210
0.0
220
0.0
230
0.9999999999999998
 40
0.0524077571777692
 41
4.938094098594115
 42
4.965066712871135
  0
LINE
  5
867
330
80D
100
AcDbEntity
  8
0
  6
Continuous
 62
     7
370
    15
100
AcDbLine
 10
1977.843932251611
 20
1133.468047653489
 30
0.0
 11
1973.196354185744
 21
1133.468047653489
 31
0.0
  0
LINE
  5
868
330
80D
100
AcDbEntity
  8
0
  6
Continuous
 62
     7
370
    15
100
AcDbLine
 10
1990.420692789198
 20
1132.268047653489
 30
0.0
 11
1990.359326202202
 21
1132.268047653489
 31
0.0
  0
ELLIPSE
  5
869
330
80D
100
AcDbEntity
  8
0
  6
Continuous
 62
     7
370
    15
100
AcDbEllipse
 10
1988.020692789199
 20
1122.019365640852
 30
0.0
 11
0.0022043364552928
 21
45.79472805040194
 31
0.0
210
0.0
220
0.0
230
1.0
 40
0.0524077571777692
 41
4.938099143905417
 42
4.965071758182442
  0
LINE
  5
86A
330
80D
100
AcDbEntity
  8
0
  6
Continuous
 62
     7
370
    15
100
AcDbLine
 10
1985.681075442236
 20
1132.268047653489
 30
0.0
 11
1985.620692789199
 21
1132.268047653489
 31
0.0
  0
ELLIPSE
  5
86B
330
80D
100
AcDbEntity
  8
0
  6
Continuous
 62
     7
370
    15
100
AcDbEllipse
 10
1988.020692789199
 20
1122.019365640852
 30
0.0
 11
-0.0022043364552928
 21
45.79472805040191
 31
0.0
210
0.0
220
0.0
230
0.9999999999999998
 40
0.0524077571777692
 41
1.318113548997157
 42
1.345086163274176
  0
ELLIPSE
  5
86C
330
80D
100
AcDbEntity
  8
0
  6
Continuous
 62
     7
370
    15
100
AcDbEllipse
 10
1988.020692789199
 20
1122.019365640852
 30
0.0
 11
-0.0022043364552928
 21
45.79472805040191
 31
0.0
210
0.0
220
0.0
230
0.9999999999999998
 40
0.0524077571777692
 41
4.938094098594115
 42
4.965066712871137
  0
LINE
  5
86D
330
80D
100
AcDbEntity
  8
0
  6
Continuous
 62
     7
370
    15
100
AcDbLine
 10
1990.343932251611
 20
1133.468047653489
 30
0.0
 11
1985.696354185744
 21
1133.468047653489
 31
0.0
  0
LINE
  5
86E
330
80D
100
AcDbEntity
  8
0
  6
Continuous
 62
     7
370
    15
100
AcDbLine
 10
1928.358493361363
 20
1133.898047653489
 30
0.0
 11
1928.357394220321
 21
1133.898047653489
 31
0.0
  0
LINE
  5
86F
330
80D
100
AcDbEntity
  8
0
  6
Continuous
 62
     7
370
    15
100
AcDbLine
 10
1934.608493361363
 20
1133.898047653489
 30
0.0
 11
1934.607394220321
 21
1133.898047653489
 31
0.0
  0
LINE
  5
870
330
80D
100
AcDbEntity
  8
0
  6
Continuous
 62
     7
370
    15
100
AcDbLine
 10
1946.595031392654
 20
1133.468047653489
 30
0.0
 11
1946.593932251611
 21
1133.468047653489
 31
0.0
  0
LINE
  5
871
330
80D
100
AcDbEntity
  8
0
  6
Continuous
 62
     7
370
    15
100
AcDbLine
 10
1990.345031392654
 20
1133.468047653489
 30
0.0
 11
1990.343932251611
 21
1133.468047653489
 31
0.0
  0
LINE
  5
872
330
80D
100
AcDbEntity
  8
0
  6
Continuous
 62
     7
370
    15
100
AcDbLine
 10
1959.095031392654
 20
1133.468047653489
 30
0.0
 11
1959.093932251611
 21
1133.468047653489
 31
0.0
  0
LINE
  5
873
330
80D
100
AcDbEntity
  8
0
  6
Continuous
 62
     7
370
    15
100
AcDbLine
 10
1965.345031392654
 20
1133.468047653489
 30
0.0
 11
1965.343932251611
 21
1133.468047653489
 31
0.0
  0
LINE
  5
874
330
80D
100
AcDbEntity
  8
0
  6
Continuous
 62
     7
370
    15
100
AcDbLine
 10
1952.845031392653
 20
1133.468047653489
 30
0.0
 11
1952.843932251611
 21
1133.468047653489
 31
0.0
  0
LINE
  5
875
330
80D
100
AcDbEntity
  8
0
  6
Continuous
 62
     7
370
    15
100
AcDbLine
 10
1977.845031392654
 20
1133.468047653489
 30
0.0
 11
1977.843932251611
 21
1133.468047653489
 31
0.0
  0
LINE
  5
876
330
80D
100
AcDbEntity
  8
0
  6
Continuous
 62
     7
370
    15
100
AcDbLine
 10
1984.095031392653
 20
1133.468047653489
 30
0.0
 11
1984.093932251611
 21
1133.468047653489
 31
0.0
  0
LINE
  5
877
330
80D
100
AcDbEntity
  8
0
  6
Continuous
 62
     7
370
    15
100
AcDbLine
 10
1971.595031392654
 20
1133.468047653489
 30
0.0
 11
1971.593932251611
 21
1133.468047653489
 31
0.0
  0
ENDBLK
  5
80F
330
80D
100
AcDbEntity
  8
0
100
AcDbBlockEnd
  0
BLOCK
  5
87A
330
879
100
AcDbEntity
  8
0
100
AcDbBlockBegin
  2
2
 70
     0
 10
0.0
 20
0.0
 30
0.0
  3
2
  1

  0
LINE
  5
87C
330
879
100
AcDbEntity
  8
0
  6
Continuous
 62
     7
370
    15
100
AcDbLine
 10
1925.021242569461
 20
1099.647128344625
 30
0.0
 11
1922.683991358077
 21
1099.6492691528
 31
0.0
  0
ARC
  5
87D
330
879
100
AcDbEntity
  8
0
  6
Continuous
 62
     7
370
    15
100
AcDbCircle
 10
1925.520692789199
 20
1099.046670620881
 30
0.0
 40
2.900000000000015
100
AcDbArc
 50
11.88806383426837
 51
168.006975913052
  0
LINE
  5
87E
330
879
100
AcDbEntity
  8
0
  6
Continuous
 62
     7
370
    15
100
AcDbLine
 10
1928.358493361363
 20
1099.644071585582
 30
0.0
 11
1926.021242149978
 21
1099.646212393757
 31
0.0
  0
LINE
  5
87F
330
879
100
AcDbEntity
  8
0
  6
Continuous
 62
     7
370
    15
100
AcDbLine
 10
1926.021242149978
 20
1099.646212393757
 30
0.0
 11
1926.022524481194
 21
1101.04621180648
 31
0.0
  0
LINE
  5
880
330
879
100
AcDbEntity
  8
0
  6
Continuous
 62
     7
370
    15
100
AcDbLine
 10
1926.022524481194
 20
1101.04621180648
 30
0.0
 11
1925.022524900677
 21
1101.047127757349
 31
0.0
  0
LINE
  5
881
330
879
100
AcDbEntity
  8
0
  6
Continuous
 62
     7
370
    15
100
AcDbLine
 10
1925.022524900677
 20
1101.047127757349
 30
0.0
 11
1925.021242569461
 21
1099.647128344625
 31
0.0
  0
ARC
  5
882
330
879
100
AcDbEntity
  8
0
  6
Continuous
 62
     7
370
    15
100
AcDbCircle
 10
1925.520692789199
 20
1099.046670620881
 30
0.0
 40
2.900000000000003
100
AcDbArc
 50
10.62092944356651
 51
11.88806383426837
  0
LINE
  5
883
330
879
100
AcDbEntity
  8
0
  6
Continuous
 62
     7
370
    15
100
AcDbLine
 10
1928.371010245576
 20
1099.581170759205
 30
0.0
 11
1925.958295237678
 21
1099.583380688539
 31
0.0
  0
LINE
  5
884
330
879
100
AcDbEntity
  8
0
  6
Continuous
 62
     7
370
    15
100
AcDbLine
 10
1926.021242149978
 20
1099.646212393757
 30
0.0
 11
1925.958295237678
 21
1099.583380688539
 31
0.0
  0
LINE
  5
885
330
879
100
AcDbEntity
  8
0
  6
Continuous
 62
     7
370
    15
100
AcDbLine
 10
1925.958295237678
 20
1099.583380688539
 30
0.0
 11
1925.959577568894
 21
1100.983380101263
 31
0.0
  0
LINE
  5
886
330
879
100
AcDbEntity
  8
0
  6
Continuous
 62
     7
370
    15
100
AcDbLine
 10
1926.022524481194
 20
1101.04621180648
 30
0.0
 11
1925.959577568894
 21
1100.983380101263
 31
0.0
  0
LINE
  5
887
330
879
100
AcDbEntity
  8
0
  6
Continuous
 62
     7
370
    15
100
AcDbLine
 10
1925.957311303719
 20
1098.509159809436
 30
0.0
 11
1928.370026311616
 21
1098.506949880103
 31
0.0
  0
ARC
  5
888
330
879
100
AcDbEntity
  8
0
  6
Continuous
 62
     7
370
    15
100
AcDbCircle
 10
1925.520692789199
 20
1099.046670620881
 30
0.0
 40
2.900000000000009
100
AcDbArc
 50
348.006975913052
 51
349.2741103037507
  0
LINE
  5
889
330
879
100
AcDbEntity
  8
0
  6
Continuous
 62
     7
370
    15
100
AcDbLine
 10
1926.020143008936
 20
1098.446212897137
 30
0.0
 11
1928.357394220321
 21
1098.444072088962
 31
0.0
  0
LINE
  5
88A
330
879
100
AcDbEntity
  8
0
  6
Continuous
 62
     7
370
    15
100
AcDbLine
 10
1926.020143008936
 20
1098.446212897137
 30
0.0
 11
1925.957311303719
 21
1098.509159809436
 31
0.0
  0
LINE
  5
88B
330
879
100
AcDbEntity
  8
0
  6
Continuous
 62
     7
370
    15
100
AcDbLine
 10
1925.085356605895
 20
1100.984180845049
 30
0.0
 11
1925.084074274679
 21
1099.584181432326
 31
0.0
  0
LINE
  5
88C
330
879
100
AcDbEntity
  8
0
  6
Continuous
 62
     7
370
    15
100
AcDbLine
 10
1925.021242569461
 20
1099.647128344625
 30
0.0
 11
1925.084074274679
 21
1099.584181432326
 31
0.0
  0
LINE
  5
88D
330
879
100
AcDbEntity
  8
0
  6
Continuous
 62
     7
370
    15
100
AcDbLine
 10
1925.022524900677
 20
1101.047127757349
 30
0.0
 11
1925.085356605895
 21
1100.984180845049
 31
0.0
  0
LINE
  5
88E
330
879
100
AcDbEntity
  8
0
  6
Continuous
 62
     7
370
    15
100
AcDbLine
 10
1931.335356605895
 20
1100.984180845049
 30
0.0
 11
1931.334074274679
 21
1099.584181432326
 31
0.0
  0
LINE
  5
88F
330
879
100
AcDbEntity
  8
0
  6
Continuous
 62
     7
370
    15
100
AcDbLine
 10
1931.271242569461
 20
1099.647128344625
 30
0.0
 11
1931.334074274679
 21
1099.584181432326
 31
0.0
  0
LINE
  5
890
330
879
100
AcDbEntity
  8
0
  6
Continuous
 62
     7
370
    15
100
AcDbLine
 10
1931.272524900677
 20
1101.047127757349
 30
0.0
 11
1931.271242569461
 21
1099.647128344625
 31
0.0
  0
LINE
  5
891
330
879
100
AcDbEntity
  8
0
  6
Continuous
 62
     7
370
    15
100
AcDbLine
 10
1931.272524900677
 20
1101.047127757349
 30
0.0
 11
1931.335356605895
 21
1100.984180845049
 31
0.0
  0
LINE
  5
892
330
879
100
AcDbEntity
  8
0
  6
Continuous
 62
     7
370
    15
100
AcDbLine
 10
1931.334074274679
 20
1099.584181432326
 30
0.0
 11
1928.921359266781
 21
1099.586391361659
 31
0.0
  0
ARC
  5
893
330
879
100
AcDbEntity
  8
0
  6
Continuous
 62
     7
370
    15
100
AcDbCircle
 10
1931.770692789198
 20
1099.046670620881
 30
0.0
 40
2.900000000000015
100
AcDbArc
 50
168.006975913052
 51
169.2741103037507
  0
LINE
  5
894
330
879
100
AcDbEntity
  8
0
  6
Continuous
 62
     7
370
    15
100
AcDbLine
 10
1931.271242569461
 20
1099.647128344625
 30
0.0
 11
1928.933991358077
 21
1099.6492691528
 31
0.0
  0
LINE
  5
895
330
879
100
AcDbEntity
  8
0
  6
Continuous
 62
     7
370
    15
100
AcDbLine
 10
1925.956028972503
 20
1097.109160396712
 30
0.0
 11
1925.957311303719
 21
1098.509159809436
 31
0.0
  0
LINE
  5
896
330
879
100
AcDbEntity
  8
0
  6
Continuous
 62
     7
370
    15
100
AcDbLine
 10
1926.01886067772
 20
1097.046213484413
 30
0.0
 11
1926.020143008936
 21
1098.446212897137
 31
0.0
  0
LINE
  5
897
330
879
100
AcDbEntity
  8
0
  6
Continuous
 62
     7
370
    15
100
AcDbLine
 10
1925.956028972503
 20
1097.109160396712
 30
0.0
 11
1926.01886067772
 21
1097.046213484413
 31
0.0
  0
LINE
  5
898
330
879
100
AcDbEntity
  8
0
  6
Continuous
 62
     7
370
    15
100
AcDbLine
 10
1932.206028972503
 20
1097.109160396712
 30
0.0
 11
1932.207311303718
 21
1098.509159809436
 31
0.0
  0
LINE
  5
899
330
879
100
AcDbEntity
  8
0
  6
Continuous
 62
     7
370
    15
100
AcDbLine
 10
1932.270143008936
 20
1098.446212897137
 30
0.0
 11
1932.207311303718
 21
1098.509159809436
 31
0.0
  0
LINE
  5
89A
330
879
100
AcDbEntity
  8
0
  6
Continuous
 62
     7
370
    15
100
AcDbLine
 10
1932.26886067772
 20
1097.046213484413
 30
0.0
 11
1932.270143008936
 21
1098.446212897137
 31
0.0
  0
LINE
  5
89B
330
879
100
AcDbEntity
  8
0
  6
Continuous
 62
     7
370
    15
100
AcDbLine
 10
1932.206028972503
 20
1097.109160396712
 30
0.0
 11
1932.26886067772
 21
1097.046213484413
 31
0.0
  0
LINE
  5
89C
330
879
100
AcDbEntity
  8
0
  6
Continuous
 62
     7
370
    15
100
AcDbLine
 10
1922.682892217035
 20
1098.44926965618
 30
0.0
 11
1925.020143428419
 21
1098.447128848005
 31
0.0
  0
ARC
  5
89D
330
879
100
AcDbEntity
  8
0
  6
Continuous
 62
     7
370
    15
100
AcDbCircle
 10
1925.520692789199
 20
1099.046670620881
 30
0.0
 40
2.900000000000019
100
AcDbArc
 50
190.6209294435665
 51
191.8880638342684
  0
LINE
  5
89E
330
879
100
AcDbEntity
  8
0
  6
Continuous
 62
     7
370
    15
100
AcDbLine
 10
1922.670375332821
 20
1098.512170482556
 30
0.0
 11
1925.083090340718
 21
1098.509960553222
 31
0.0
  0
LINE
  5
89F
330
879
100
AcDbEntity
  8
0
  6
Continuous
 62
     7
370
    15
100
AcDbLine
 10
1925.020143428419
 20
1098.447128848005
 30
0.0
 11
1925.083090340718
 21
1098.509960553222
 31
0.0
  0
LINE
  5
8A0
330
879
100
AcDbEntity
  8
0
  6
Continuous
 62
     7
370
    15
100
AcDbLine
 10
1925.020143428419
 20
1098.447128848005
 30
0.0
 11
1925.018861097203
 21
1097.047129435281
 31
0.0
  0
LINE
  5
8A1
330
879
100
AcDbEntity
  8
0
  6
Continuous
 62
     7
370
    15
100
AcDbLine
 10
1925.083090340718
 20
1098.509960553222
 30
0.0
 11
1925.081808009503
 21
1097.109961140499
 31
0.0
  0
LINE
  5
8A2
330
879
100
AcDbEntity
  8
0
  6
Continuous
 62
     7
370
    15
100
AcDbLine
 10
1925.018861097203
 20
1097.047129435281
 30
0.0
 11
1925.081808009503
 21
1097.109961140499
 31
0.0
  0
LINE
  5
8A3
330
879
100
AcDbEntity
  8
0
  6
Continuous
 62
     7
370
    15
100
AcDbLine
 10
1925.018861097203
 20
1097.047129435281
 30
0.0
 11
1926.01886067772
 21
1097.046213484413
 31
0.0
  0
LINE
  5
8A4
330
879
100
AcDbEntity
  8
0
  6
Continuous
 62
     7
370
    15
100
AcDbLine
 10
1925.081808009503
 20
1097.109961140499
 30
0.0
 11
1925.956028972503
 21
1097.109160396712
 31
0.0
  0
LINE
  5
8A5
330
879
100
AcDbEntity
  8
0
  6
Continuous
 62
     7
370
    15
100
AcDbLine
 10
1932.207311303718
 20
1098.509159809436
 30
0.0
 11
1934.620026311616
 21
1098.506949880103
 31
0.0
  0
ARC
  5
8A6
330
879
100
AcDbEntity
  8
0
  6
Continuous
 62
     7
370
    15
100
AcDbCircle
 10
1931.770692789198
 20
1099.046670620881
 30
0.0
 40
2.900000000000009
100
AcDbArc
 50
348.006975913052
 51
349.2741103037507
  0
LINE
  5
8A7
330
879
100
AcDbEntity
  8
0
  6
Continuous
 62
     7
370
    15
100
AcDbLine
 10
1932.270143008936
 20
1098.446212897137
 30
0.0
 11
1934.607394220321
 21
1098.444072088962
 31
0.0
  0
LINE
  5
8A8
330
879
100
AcDbEntity
  8
0
  6
Continuous
 62
     7
370
    15
100
AcDbLine
 10
1931.268861097203
 20
1097.047129435281
 30
0.0
 11
1932.26886067772
 21
1097.046213484413
 31
0.0
  0
ARC
  5
8A9
330
879
100
AcDbEntity
  8
0
  6
Continuous
 62
     7
370
    15
100
AcDbCircle
 10
1931.770692789198
 20
1099.046670620881
 30
0.0
 40
2.900000000000009
100
AcDbArc
 50
191.8880638342684
 51
348.006975913052
  0
LINE
  5
8AA
330
879
100
AcDbEntity
  8
0
  6
Continuous
 62
     7
370
    15
100
AcDbLine
 10
1928.932892217035
 20
1098.44926965618
 30
0.0
 11
1931.270143428419
 21
1098.447128848005
 31
0.0
  0
LINE
  5
8AB
330
879
100
AcDbEntity
  8
0
  6
Continuous
 62
     7
370
    15
100
AcDbLine
 10
1931.270143428419
 20
1098.447128848005
 30
0.0
 11
1931.268861097203
 21
1097.047129435281
 31
0.0
  0
LINE
  5
8AC
330
879
100
AcDbEntity
  8
0
  6
Continuous
 62
     7
370
    15
100
AcDbLine
 10
1925.084074274679
 20
1099.584181432326
 30
0.0
 11
1922.671359266781
 21
1099.586391361659
 31
0.0
  0
ARC
  5
8AD
330
879
100
AcDbEntity
  8
0
  6
Continuous
 62
     7
370
    15
100
AcDbCircle
 10
1925.520692789199
 20
1099.046670620881
 30
0.0
 40
2.900000000000015
100
AcDbArc
 50
168.006975913052
 51
169.2741103037507
  0
ARC
  5
8AE
330
879
100
AcDbEntity
  8
0
  6
Continuous
 62
     7
370
    15
100
AcDbCircle
 10
1925.520692789199
 20
1099.046670620881
 30
0.0
 40
2.900000000000009
100
AcDbArc
 50
191.8880638342684
 51
348.006975913052
  0
ARC
  5
8AF
330
879
100
AcDbEntity
  8
0
  6
Continuous
 62
     7
370
    15
100
AcDbCircle
 10
1931.770692789198
 20
1099.046670620881
 30
0.0
 40
2.900000000000015
100
AcDbArc
 50
11.88806383426837
 51
168.006975913052
  0
LINE
  5
8B0
330
879
100
AcDbEntity
  8
0
  6
Continuous
 62
     7
370
    15
100
AcDbLine
 10
1934.608493361363
 20
1099.644071585582
 30
0.0
 11
1932.271242149978
 21
1099.646212393757
 31
0.0
  0
LINE
  5
8B1
330
879
100
AcDbEntity
  8
0
  6
Continuous
 62
     7
370
    15
100
AcDbLine
 10
1932.271242149978
 20
1099.646212393757
 30
0.0
 11
1932.272524481194
 21
1101.04621180648
 31
0.0
  0
LINE
  5
8B2
330
879
100
AcDbEntity
  8
0
  6
Continuous
 62
     7
370
    15
100
AcDbLine
 10
1932.272524481194
 20
1101.04621180648
 30
0.0
 11
1931.272524900677
 21
1101.047127757349
 31
0.0
  0
LINE
  5
8B3
330
879
100
AcDbEntity
  8
0
  6
Continuous
 62
     7
370
    15
100
AcDbLine
 10
1925.959577568894
 20
1100.983380101263
 30
0.0
 11
1925.085356605895
 21
1100.984180845049
 31
0.0
  0
ARC
  5
8B4
330
879
100
AcDbEntity
  8
0
  6
Continuous
 62
     7
370
    15
100
AcDbCircle
 10
1931.770692789198
 20
1099.046670620881
 30
0.0
 40
2.900000000000003
100
AcDbArc
 50
10.62092944356651
 51
11.88806383426837
  0
LINE
  5
8B5
330
879
100
AcDbEntity
  8
0
  6
Continuous
 62
     7
370
    15
100
AcDbLine
 10
1934.621010245576
 20
1099.581170759205
 30
0.0
 11
1932.208295237678
 21
1099.583380688539
 31
0.0
  0
LINE
  5
8B6
330
879
100
AcDbEntity
  8
0
  6
Continuous
 62
     7
370
    15
100
AcDbLine
 10
1932.271242149978
 20
1099.646212393757
 30
0.0
 11
1932.208295237678
 21
1099.583380688539
 31
0.0
  0
LINE
  5
8B7
330
879
100
AcDbEntity
  8
0
  6
Continuous
 62
     7
370
    15
100
AcDbLine
 10
1932.208295237678
 20
1099.583380688539
 30
0.0
 11
1932.209577568894
 21
1100.983380101263
 31
0.0
  0
LINE
  5
8B8
330
879
100
AcDbEntity
  8
0
  6
Continuous
 62
     7
370
    15
100
AcDbLine
 10
1932.272524481194
 20
1101.04621180648
 30
0.0
 11
1932.209577568894
 21
1100.983380101263
 31
0.0
  0
LINE
  5
8B9
330
879
100
AcDbEntity
  8
0
  6
Continuous
 62
     7
370
    15
100
AcDbLine
 10
1932.209577568894
 20
1100.983380101263
 30
0.0
 11
1931.335356605895
 21
1100.984180845049
 31
0.0
  0
ARC
  5
8BA
330
879
100
AcDbEntity
  8
0
  6
Continuous
 62
     7
370
    15
100
AcDbCircle
 10
1931.770692789198
 20
1099.046670620881
 30
0.0
 40
2.899999999999998
100
AcDbArc
 50
190.6209294435665
 51
191.8880638342684
  0
LINE
  5
8BB
330
879
100
AcDbEntity
  8
0
  6
Continuous
 62
     7
370
    15
100
AcDbLine
 10
1928.920375332821
 20
1098.512170482556
 30
0.0
 11
1931.333090340719
 21
1098.509960553222
 31
0.0
  0
LINE
  5
8BC
330
879
100
AcDbEntity
  8
0
  6
Continuous
 62
     7
370
    15
100
AcDbLine
 10
1931.270143428419
 20
1098.447128848005
 30
0.0
 11
1931.333090340719
 21
1098.509960553222
 31
0.0
  0
LINE
  5
8BD
330
879
100
AcDbEntity
  8
0
  6
Continuous
 62
     7
370
    15
100
AcDbLine
 10
1931.333090340719
 20
1098.509960553222
 30
0.0
 11
1931.331808009503
 21
1097.109961140499
 31
0.0
  0
LINE
  5
8BE
330
879
100
AcDbEntity
  8
0
  6
Continuous
 62
     7
370
    15
100
AcDbLine
 10
1931.268861097203
 20
1097.047129435281
 30
0.0
 11
1931.331808009503
 21
1097.109961140499
 31
0.0
  0
LINE
  5
8BF
330
879
100
AcDbEntity
  8
0
  6
Continuous
 62
     7
370
    15
100
AcDbLine
 10
1931.331808009503
 20
1097.109961140499
 30
0.0
 11
1932.206028972503
 21
1097.109160396712
 31
0.0
  0
LINE
  5
8C0
330
879
100
AcDbEntity
  8
0
  6
Continuous
 62
     7
370
    15
100
AcDbLine
 10
1988.421242191926
 20
1099.646303988843
 30
0.0
 11
1988.422066547708
 21
1100.546303611309
 31
0.0
  0
LINE
  5
8C1
330
879
100
AcDbEntity
  8
0
  6
Continuous
 62
     7
370
    15
100
AcDbLine
 10
1988.421242191926
 20
1099.646303988843
 30
0.0
 11
1988.358295279627
 21
1099.583472283626
 31
0.0
  0
LINE
  5
8C2
330
879
100
AcDbEntity
  8
0
  6
Continuous
 62
     7
370
    15
100
AcDbLine
 10
1988.358295279627
 20
1099.583472283626
 30
0.0
 11
1988.359119635408
 21
1100.483471906091
 31
0.0
  0
LINE
  5
8C3
330
879
100
AcDbEntity
  8
0
  6
Continuous
 62
     7
370
    15
100
AcDbLine
 10
1988.422066547708
 20
1100.546303611309
 30
0.0
 11
1988.359119635408
 21
1100.483471906091
 31
0.0
  0
LINE
  5
8C4
330
879
100
AcDbEntity
  8
0
  6
Continuous
 62
     7
370
    15
100
AcDbLine
 10
1975.921242191926
 20
1099.646303988843
 30
0.0
 11
1975.922066547708
 21
1100.546303611309
 31
0.0
  0
LINE
  5
8C5
330
879
100
AcDbEntity
  8
0
  6
Continuous
 62
     7
370
    15
100
AcDbLine
 10
1975.921242191926
 20
1099.646303988843
 30
0.0
 11
1975.858295279627
 21
1099.583472283626
 31
0.0
  0
LINE
  5
8C6
330
879
100
AcDbEntity
  8
0
  6
Continuous
 62
     7
370
    15
100
AcDbLine
 10
1975.858295279627
 20
1099.583472283626
 30
0.0
 11
1975.859119635408
 21
1100.483471906091
 31
0.0
  0
LINE
  5
8C7
330
879
100
AcDbEntity
  8
0
  6
Continuous
 62
     7
370
    15
100
AcDbLine
 10
1975.922066547708
 20
1100.546303611309
 30
0.0
 11
1975.859119635408
 21
1100.483471906091
 31
0.0
  0
LINE
  5
8C8
330
879
100
AcDbEntity
  8
0
  6
Continuous
 62
     7
370
    15
100
AcDbLine
 10
1987.620143386471
 20
1098.447037252918
 30
0.0
 11
1987.619319030689
 21
1097.547037630453
 31
0.0
  0
LINE
  5
8C9
330
879
100
AcDbEntity
  8
0
  6
Continuous
 62
     7
370
    15
100
AcDbLine
 10
1987.620143386471
 20
1098.447037252918
 30
0.0
 11
1987.68309029877
 21
1098.509868958136
 31
0.0
  0
LINE
  5
8CA
330
879
100
AcDbEntity
  8
0
  6
Continuous
 62
     7
370
    15
100
AcDbLine
 10
1987.68309029877
 20
1098.509868958136
 30
0.0
 11
1987.682265942989
 21
1097.60986933567
 31
0.0
  0
LINE
  5
8CB
330
879
100
AcDbEntity
  8
0
  6
Continuous
 62
     7
370
    15
100
AcDbLine
 10
1987.619319030689
 20
1097.547037630453
 30
0.0
 11
1987.682265942989
 21
1097.60986933567
 31
0.0
  0
LINE
  5
8CC
330
879
100
AcDbEntity
  8
0
  6
Continuous
 62
     7
370
    15
100
AcDbLine
 10
1987.619319030689
 20
1097.547037630453
 30
0.0
 11
1988.419318695103
 21
1097.546304869758
 31
0.0
  0
LINE
  5
8CD
330
879
100
AcDbEntity
  8
0
  6
Continuous
 62
     7
370
    15
100
AcDbLine
 10
1988.419318695103
 20
1097.546304869758
 30
0.0
 11
1988.420143050884
 21
1098.446304492223
 31
0.0
  0
LINE
  5
8CE
330
879
100
AcDbEntity
  8
0
  6
Continuous
 62
     7
370
    15
100
AcDbLine
 10
1988.420143050884
 20
1098.446304492223
 30
0.0
 11
1990.343932251611
 21
1098.444542395095
 31
0.0
  0
ARC
  5
8CF
330
879
100
AcDbEntity
  8
0
  6
Continuous
 62
     7
370
    15
100
AcDbCircle
 10
1988.020692789199
 20
1099.046670620881
 30
0.0
 40
2.400000000000005
100
AcDbArc
 50
194.425032059584
 51
345.4700076877255
  0
LINE
  5
8D0
330
879
100
AcDbEntity
  8
0
  6
Continuous
 62
     7
370
    15
100
AcDbLine
 10
1985.696354185744
 20
1098.448799350046
 30
0.0
 11
1987.620143386471
 21
1098.447037252918
 31
0.0
  0
LINE
  5
8D1
330
879
100
AcDbEntity
  8
0
  6
Continuous
 62
     7
370
    15
100
AcDbLine
 10
1960.696354185744
 20
1098.448799350046
 30
0.0
 11
1962.620143386471
 21
1098.447037252918
 31
0.0
  0
ARC
  5
8D2
330
879
100
AcDbEntity
  8
0
  6
Continuous
 62
     7
370
    15
100
AcDbCircle
 10
1963.020692789198
 20
1099.046670620881
 30
0.0
 40
2.400000000000032
100
AcDbArc
 50
192.8796150990897
 51
194.425032059584
  0
LINE
  5
8D3
330
879
100
AcDbEntity
  8
0
  6
Continuous
 62
     7
370
    15
100
AcDbLine
 10
1960.681075442236
 20
1098.511702706151
 30
0.0
 11
1962.68309029877
 21
1098.509868958136
 31
0.0
  0
LINE
  5
8D4
330
879
100
AcDbEntity
  8
0
  6
Continuous
 62
     7
370
    15
100
AcDbLine
 10
1962.620143386471
 20
1098.447037252918
 30
0.0
 11
1962.68309029877
 21
1098.509868958136
 31
0.0
  0
LINE
  5
8D5
330
879
100
AcDbEntity
  8
0
  6
Continuous
 62
     7
370
    15
100
AcDbLine
 10
1962.620143386471
 20
1098.447037252918
 30
0.0
 11
1962.619319030689
 21
1097.547037630453
 31
0.0
  0
LINE
  5
8D6
330
879
100
AcDbEntity
  8
0
  6
Continuous
 62
     7
370
    15
100
AcDbLine
 10
1962.68309029877
 20
1098.509868958136
 30
0.0
 11
1962.682265942989
 21
1097.60986933567
 31
0.0
  0
LINE
  5
8D7
330
879
100
AcDbEntity
  8
0
  6
Continuous
 62
     7
370
    15
100
AcDbLine
 10
1962.619319030689
 20
1097.547037630453
 30
0.0
 11
1962.682265942989
 21
1097.60986933567
 31
0.0
  0
LINE
  5
8D8
330
879
100
AcDbEntity
  8
0
  6
Continuous
 62
     7
370
    15
100
AcDbLine
 10
1975.121242527513
 20
1099.647036749538
 30
0.0
 11
1973.197453326786
 21
1099.648798846667
 31
0.0
  0
ARC
  5
8D9
330
879
100
AcDbEntity
  8
0
  6
Continuous
 62
     7
370
    15
100
AcDbCircle
 10
1975.520692789199
 20
1099.046670620881
 30
0.0
 40
2.400000000000023
100
AcDbArc
 50
14.42503205958408
 51
165.4700076877255
  0
LINE
  5
8DA
330
879
100
AcDbEntity
  8
0
  6
Continuous
 62
     7
370
    15
100
AcDbLine
 10
1977.845031392654
 20
1099.644541891716
 30
0.0
 11
1975.921242191926
 21
1099.646303988843
 31
0.0
  0
LINE
  5
8DB
330
879
100
AcDbEntity
  8
0
  6
Continuous
 62
     7
370
    15
100
AcDbLine
 10
1975.922066547708
 20
1100.546303611309
 30
0.0
 11
1975.122066883294
 21
1100.547036372004
 31
0.0
  0
LINE
  5
8DC
330
879
100
AcDbEntity
  8
0
  6
Continuous
 62
     7
370
    15
100
AcDbLine
 10
1975.122066883294
 20
1100.547036372004
 30
0.0
 11
1975.121242527513
 21
1099.647036749538
 31
0.0
  0
LINE
  5
8DD
330
879
100
AcDbEntity
  8
0
  6
Continuous
 62
     7
370
    15
100
AcDbLine
 10
1987.621242527513
 20
1099.647036749538
 30
0.0
 11
1985.697453326786
 21
1099.648798846667
 31
0.0
  0
ARC
  5
8DE
330
879
100
AcDbEntity
  8
0
  6
Continuous
 62
     7
370
    15
100
AcDbCircle
 10
1988.020692789199
 20
1099.046670620881
 30
0.0
 40
2.399999999999996
100
AcDbArc
 50
14.42503205958408
 51
165.4700076877255
  0
LINE
  5
8DF
330
879
100
AcDbEntity
  8
0
  6
Continuous
 62
     7
370
    15
100
AcDbLine
 10
1990.345031392654
 20
1099.644541891716
 30
0.0
 11
1988.421242191926
 21
1099.646303988843
 31
0.0
  0
LINE
  5
8E0
330
879
100
AcDbEntity
  8
0
  6
Continuous
 62
     7
370
    15
100
AcDbLine
 10
1988.422066547708
 20
1100.546303611309
 30
0.0
 11
1987.622066883294
 21
1100.547036372004
 31
0.0
  0
LINE
  5
8E1
330
879
100
AcDbEntity
  8
0
  6
Continuous
 62
     7
370
    15
100
AcDbLine
 10
1987.622066883294
 20
1100.547036372004
 30
0.0
 11
1987.621242527513
 21
1099.647036749538
 31
0.0
  0
ARC
  5
8E2
330
879
100
AcDbEntity
  8
0
  6
Continuous
 62
     7
370
    15
100
AcDbCircle
 10
1988.020692789199
 20
1099.046670620881
 30
0.0
 40
2.400000000000002
100
AcDbArc
 50
12.879615099077
 51
14.42503205958408
  0
LINE
  5
8E3
330
879
100
AcDbEntity
  8
0
  6
Continuous
 62
     7
370
    15
100
AcDbLine
 10
1990.360310136162
 20
1099.58163853561
 30
0.0
 11
1988.358295279627
 21
1099.583472283626
 31
0.0
  0
ARC
  5
8E4
330
879
100
AcDbEntity
  8
0
  6
Continuous
 62
     7
370
    15
100
AcDbCircle
 10
1975.520692789199
 20
1099.046670620881
 30
0.0
 40
2.400000000000005
100
AcDbArc
 50
12.879615099077
 51
14.42503205958408
  0
LINE
  5
8E5
330
879
100
AcDbEntity
  8
0
  6
Continuous
 62
     7
370
    15
100
AcDbLine
 10
1977.860310136161
 20
1099.58163853561
 30
0.0
 11
1975.858295279627
 21
1099.583472283626
 31
0.0
  0
LINE
  5
8E6
330
879
100
AcDbEntity
  8
0
  6
Continuous
 62
     7
370
    15
100
AcDbLine
 10
1987.682265942989
 20
1097.60986933567
 30
0.0
 11
1988.356486989885
 21
1097.609251782058
 31
0.0
  0
LINE
  5
8E7
330
879
100
AcDbEntity
  8
0
  6
Continuous
 62
     7
370
    15
100
AcDbLine
 10
1988.356486989885
 20
1097.609251782058
 30
0.0
 11
1988.419318695103
 21
1097.546304869758
 31
0.0
  0
ARC
  5
8E8
330
879
100
AcDbEntity
  8
0
  6
Continuous
 62
     7
370
    15
100
AcDbCircle
 10
1988.020692789199
 20
1099.046670620881
 30
0.0
 40
2.400000000000005
100
AcDbArc
 50
192.879615099077
 51
194.425032059584
  0
LINE
  5
8E9
330
879
100
AcDbEntity
  8
0
  6
Continuous
 62
     7
370
    15
100
AcDbLine
 10
1985.681075442236
 20
1098.511702706151
 30
0.0
 11
1987.68309029877
 21
1098.509868958136
 31
0.0
  0
LINE
  5
8EA
330
879
100
AcDbEntity
  8
0
  6
Continuous
 62
     7
370
    15
100
AcDbLine
 10
1962.619319030689
 20
1097.547037630453
 30
0.0
 11
1963.419318695103
 21
1097.546304869758
 31
0.0
  0
LINE
  5
8EB
330
879
100
AcDbEntity
  8
0
  6
Continuous
 62
     7
370
    15
100
AcDbLine
 10
1963.419318695103
 20
1097.546304869758
 30
0.0
 11
1963.420143050884
 21
1098.446304492223
 31
0.0
  0
LINE
  5
8EC
330
879
100
AcDbEntity
  8
0
  6
Continuous
 62
     7
370
    15
100
AcDbLine
 10
1963.420143050884
 20
1098.446304492223
 30
0.0
 11
1965.343932251611
 21
1098.444542395095
 31
0.0
  0
ARC
  5
8ED
330
879
100
AcDbEntity
  8
0
  6
Continuous
 62
     7
370
    15
100
AcDbCircle
 10
1963.020692789198
 20
1099.046670620881
 30
0.0
 40
2.400000000000032
100
AcDbArc
 50
194.425032059584
 51
345.4700076877255
  0
LINE
  5
8EE
330
879
100
AcDbEntity
  8
0
  6
Continuous
 62
     7
370
    15
100
AcDbLine
 10
1975.184898588512
 20
1100.484089459704
 30
0.0
 11
1975.18407423273
 21
1099.584089837239
 31
0.0
  0
LINE
  5
8EF
330
879
100
AcDbEntity
  8
0
  6
Continuous
 62
     7
370
    15
100
AcDbLine
 10
1975.121242527513
 20
1099.647036749538
 30
0.0
 11
1975.18407423273
 21
1099.584089837239
 31
0.0
  0
LINE
  5
8F0
330
879
100
AcDbEntity
  8
0
  6
Continuous
 62
     7
370
    15
100
AcDbLine
 10
1975.122066883294
 20
1100.547036372004
 30
0.0
 11
1975.184898588512
 21
1100.484089459704
 31
0.0
  0
LINE
  5
8F1
330
879
100
AcDbEntity
  8
0
  6
Continuous
 62
     7
370
    15
100
AcDbLine
 10
1975.18407423273
 20
1099.584089837239
 30
0.0
 11
1973.182059376195
 21
1099.585923585254
 31
0.0
  0
ARC
  5
8F2
330
879
100
AcDbEntity
  8
0
  6
Continuous
 62
     7
370
    15
100
AcDbCircle
 10
1975.520692789199
 20
1099.046670620881
 30
0.0
 40
2.400000000000023
100
AcDbArc
 50
165.4700076877255
 51
167.0154246482309
  0
LINE
  5
8F3
330
879
100
AcDbEntity
  8
0
  6
Continuous
 62
     7
370
    15
100
AcDbLine
 10
1968.93407423273
 20
1099.584089837239
 30
0.0
 11
1966.932059376195
 21
1099.585923585254
 31
0.0
  0
ARC
  5
8F4
330
879
100
AcDbEntity
  8
0
  6
Continuous
 62
     7
370
    15
100
AcDbCircle
 10
1969.270692789199
 20
1099.046670620881
 30
0.0
 40
2.399999999999996
100
AcDbArc
 50
165.4700076877255
 51
167.0154246482309
  0
LINE
  5
8F5
330
879
100
AcDbEntity
  8
0
  6
Continuous
 62
     7
370
    15
100
AcDbLine
 10
1968.871242527513
 20
1099.647036749538
 30
0.0
 11
1966.947453326786
 21
1099.648798846667
 31
0.0
  0
LINE
  5
8F6
330
879
100
AcDbEntity
  8
0
  6
Continuous
 62
     7
370
    15
100
AcDbLine
 10
1968.871242527513
 20
1099.647036749538
 30
0.0
 11
1968.93407423273
 21
1099.584089837239
 31
0.0
  0
LINE
  5
8F7
330
879
100
AcDbEntity
  8
0
  6
Continuous
 62
     7
370
    15
100
AcDbLine
 10
1968.934898588512
 20
1100.484089459704
 30
0.0
 11
1968.93407423273
 21
1099.584089837239
 31
0.0
  0
LINE
  5
8F8
330
879
100
AcDbEntity
  8
0
  6
Continuous
 62
     7
370
    15
100
AcDbLine
 10
1968.872066883294
 20
1100.547036372004
 30
0.0
 11
1968.871242527513
 21
1099.647036749538
 31
0.0
  0
LINE
  5
8F9
330
879
100
AcDbEntity
  8
0
  6
Continuous
 62
     7
370
    15
100
AcDbLine
 10
1968.872066883294
 20
1100.547036372004
 30
0.0
 11
1968.934898588512
 21
1100.484089459704
 31
0.0
  0
ARC
  5
8FA
330
879
100
AcDbEntity
  8
0
  6
Continuous
 62
     7
370
    15
100
AcDbCircle
 10
1969.270692789199
 20
1099.046670620881
 30
0.0
 40
2.400000000000032
100
AcDbArc
 50
14.42503205958408
 51
165.4700076877255
  0
LINE
  5
8FB
330
879
100
AcDbEntity
  8
0
  6
Continuous
 62
     7
370
    15
100
AcDbLine
 10
1971.595031392654
 20
1099.644541891716
 30
0.0
 11
1969.671242191926
 21
1099.646303988843
 31
0.0
  0
LINE
  5
8FC
330
879
100
AcDbEntity
  8
0
  6
Continuous
 62
     7
370
    15
100
AcDbLine
 10
1969.671242191926
 20
1099.646303988843
 30
0.0
 11
1969.672066547708
 21
1100.546303611309
 31
0.0
  0
LINE
  5
8FD
330
879
100
AcDbEntity
  8
0
  6
Continuous
 62
     7
370
    15
100
AcDbLine
 10
1969.672066547708
 20
1100.546303611309
 30
0.0
 11
1968.872066883294
 21
1100.547036372004
 31
0.0
  0
LINE
  5
8FE
330
879
100
AcDbEntity
  8
0
  6
Continuous
 62
     7
370
    15
100
AcDbLine
 10
1944.607311345667
 20
1098.509251404523
 30
0.0
 11
1946.609326202201
 21
1098.507417656507
 31
0.0
  0
ARC
  5
8FF
330
879
100
AcDbEntity
  8
0
  6
Continuous
 62
     7
370
    15
100
AcDbCircle
 10
1944.270692789199
 20
1099.046670620881
 30
0.0
 40
2.400000000000016
100
AcDbArc
 50
345.4700076877255
 51
347.0154246482436
  0
LINE
  5
900
330
879
100
AcDbEntity
  8
0
  6
Continuous
 62
     7
370
    15
100
AcDbLine
 10
1944.670143050884
 20
1098.446304492223
 30
0.0
 11
1946.593932251611
 21
1098.444542395095
 31
0.0
  0
LINE
  5
901
330
879
100
AcDbEntity
  8
0
  6
Continuous
 62
     7
370
    15
100
AcDbLine
 10
1944.670143050884
 20
1098.446304492223
 30
0.0
 11
1944.607311345667
 21
1098.509251404523
 31
0.0
  0
LINE
  5
902
330
879
100
AcDbEntity
  8
0
  6
Continuous
 62
     7
370
    15
100
AcDbLine
 10
1944.606486989885
 20
1097.609251782058
 30
0.0
 11
1944.607311345667
 21
1098.509251404523
 31
0.0
  0
LINE
  5
903
330
879
100
AcDbEntity
  8
0
  6
Continuous
 62
     7
370
    15
100
AcDbLine
 10
1944.669318695103
 20
1097.546304869758
 30
0.0
 11
1944.670143050884
 21
1098.446304492223
 31
0.0
  0
LINE
  5
904
330
879
100
AcDbEntity
  8
0
  6
Continuous
 62
     7
370
    15
100
AcDbLine
 10
1944.606486989885
 20
1097.609251782058
 30
0.0
 11
1944.669318695103
 21
1097.546304869758
 31
0.0
  0
LINE
  5
905
330
879
100
AcDbEntity
  8
0
  6
Continuous
 62
     7
370
    15
100
AcDbLine
 10
1943.869319030689
 20
1097.547037630453
 30
0.0
 11
1944.669318695103
 21
1097.546304869758
 31
0.0
  0
ARC
  5
906
330
879
100
AcDbEntity
  8
0
  6
Continuous
 62
     7
370
    15
100
AcDbCircle
 10
1944.270692789199
 20
1099.046670620881
 30
0.0
 40
2.400000000000016
100
AcDbArc
 50
194.4250320595873
 51
345.4700076877255
  0
LINE
  5
907
330
879
100
AcDbEntity
  8
0
  6
Continuous
 62
     7
370
    15
100
AcDbLine
 10
1941.946354185744
 20
1098.448799350046
 30
0.0
 11
1943.870143386471
 21
1098.447037252918
 31
0.0
  0
LINE
  5
908
330
879
100
AcDbEntity
  8
0
  6
Continuous
 62
     7
370
    15
100
AcDbLine
 10
1943.870143386471
 20
1098.447037252918
 30
0.0
 11
1943.869319030689
 21
1097.547037630453
 31
0.0
  0
LINE
  5
909
330
879
100
AcDbEntity
  8
0
  6
Continuous
 62
     7
370
    15
100
AcDbLine
 10
1969.607311345667
 20
1098.509251404523
 30
0.0
 11
1971.609326202202
 21
1098.507417656507
 31
0.0
  0
ARC
  5
90A
330
879
100
AcDbEntity
  8
0
  6
Continuous
 62
     7
370
    15
100
AcDbCircle
 10
1969.270692789199
 20
1099.046670620881
 30
0.0
 40
2.400000000000038
100
AcDbArc
 50
345.4700076877255
 51
347.0154246482436
  0
LINE
  5
90B
330
879
100
AcDbEntity
  8
0
  6
Continuous
 62
     7
370
    15
100
AcDbLine
 10
1969.670143050884
 20
1098.446304492223
 30
0.0
 11
1971.593932251611
 21
1098.444542395095
 31
0.0
  0
LINE
  5
90C
330
879
100
AcDbEntity
  8
0
  6
Continuous
 62
     7
370
    15
100
AcDbLine
 10
1969.670143050884
 20
1098.446304492223
 30
0.0
 11
1969.607311345667
 21
1098.509251404523
 31
0.0
  0
LINE
  5
90D
330
879
100
AcDbEntity
  8
0
  6
Continuous
 62
     7
370
    15
100
AcDbLine
 10
1987.68407423273
 20
1099.584089837239
 30
0.0
 11
1985.682059376195
 21
1099.585923585254
 31
0.0
  0
ARC
  5
90E
330
879
100
AcDbEntity
  8
0
  6
Continuous
 62
     7
370
    15
100
AcDbCircle
 10
1988.020692789199
 20
1099.046670620881
 30
0.0
 40
2.400000000000017
100
AcDbArc
 50
165.4700076877255
 51
167.0154246482309
  0
LINE
  5
90F
330
879
100
AcDbEntity
  8
0
  6
Continuous
 62
     7
370
    15
100
AcDbLine
 10
1987.621242527513
 20
1099.647036749538
 30
0.0
 11
1987.68407423273
 21
1099.584089837239
 31
0.0
  0
LINE
  5
910
330
879
100
AcDbEntity
  8
0
  6
Continuous
 62
     7
370
    15
100
AcDbLine
 10
1968.869319030689
 20
1097.547037630453
 30
0.0
 11
1969.669318695103
 21
1097.546304869758
 31
0.0
  0
LINE
  5
911
330
879
100
AcDbEntity
  8
0
  6
Continuous
 62
     7
370
    15
100
AcDbLine
 10
1969.669318695103
 20
1097.546304869758
 30
0.0
 11
1969.670143050884
 21
1098.446304492223
 31
0.0
  0
ARC
  5
912
330
879
100
AcDbEntity
  8
0
  6
Continuous
 62
     7
370
    15
100
AcDbCircle
 10
1969.270692789199
 20
1099.046670620881
 30
0.0
 40
2.400000000000016
100
AcDbArc
 50
194.4250320595873
 51
345.4700076877255
  0
LINE
  5
913
330
879
100
AcDbEntity
  8
0
  6
Continuous
 62
     7
370
    15
100
AcDbLine
 10
1966.946354185744
 20
1098.448799350046
 30
0.0
 11
1968.870143386471
 21
1098.447037252918
 31
0.0
  0
LINE
  5
914
330
879
100
AcDbEntity
  8
0
  6
Continuous
 62
     7
370
    15
100
AcDbLine
 10
1968.870143386471
 20
1098.447037252918
 30
0.0
 11
1968.869319030689
 21
1097.547037630453
 31
0.0
  0
LINE
  5
915
330
879
100
AcDbEntity
  8
0
  6
Continuous
 62
     7
370
    15
100
AcDbLine
 10
1981.371242527513
 20
1099.647036749538
 30
0.0
 11
1979.447453326786
 21
1099.648798846667
 31
0.0
  0
ARC
  5
916
330
879
100
AcDbEntity
  8
0
  6
Continuous
 62
     7
370
    15
100
AcDbCircle
 10
1981.770692789199
 20
1099.046670620881
 30
0.0
 40
2.400000000000023
100
AcDbArc
 50
14.42503205958408
 51
165.4700076877255
  0
LINE
  5
917
330
879
100
AcDbEntity
  8
0
  6
Continuous
 62
     7
370
    15
100
AcDbLine
 10
1984.095031392653
 20
1099.644541891716
 30
0.0
 11
1982.171242191926
 21
1099.646303988843
 31
0.0
  0
LINE
  5
918
330
879
100
AcDbEntity
  8
0
  6
Continuous
 62
     7
370
    15
100
AcDbLine
 10
1982.171242191926
 20
1099.646303988843
 30
0.0
 11
1982.172066547708
 21
1100.546303611309
 31
0.0
  0
LINE
  5
919
330
879
100
AcDbEntity
  8
0
  6
Continuous
 62
     7
370
    15
100
AcDbLine
 10
1982.172066547708
 20
1100.546303611309
 30
0.0
 11
1981.372066883294
 21
1100.547036372004
 31
0.0
  0
LINE
  5
91A
330
879
100
AcDbEntity
  8
0
  6
Continuous
 62
     7
370
    15
100
AcDbLine
 10
1981.372066883294
 20
1100.547036372004
 30
0.0
 11
1981.371242527513
 21
1099.647036749538
 31
0.0
  0
LINE
  5
91B
330
879
100
AcDbEntity
  8
0
  6
Continuous
 62
     7
370
    15
100
AcDbLine
 10
1969.606486989885
 20
1097.609251782058
 30
0.0
 11
1969.607311345667
 21
1098.509251404523
 31
0.0
  0
LINE
  5
91C
330
879
100
AcDbEntity
  8
0
  6
Continuous
 62
     7
370
    15
100
AcDbLine
 10
1969.606486989885
 20
1097.609251782058
 30
0.0
 11
1969.669318695103
 21
1097.546304869758
 31
0.0
  0
LINE
  5
91D
330
879
100
AcDbEntity
  8
0
  6
Continuous
 62
     7
370
    15
100
AcDbLine
 10
1987.684898588512
 20
1100.484089459704
 30
0.0
 11
1987.68407423273
 21
1099.584089837239
 31
0.0
  0
LINE
  5
91E
330
879
100
AcDbEntity
  8
0
  6
Continuous
 62
     7
370
    15
100
AcDbLine
 10
1987.622066883294
 20
1100.547036372004
 30
0.0
 11
1987.684898588512
 21
1100.484089459704
 31
0.0
  0
LINE
  5
91F
330
879
100
AcDbEntity
  8
0
  6
Continuous
 62
     7
370
    15
100
AcDbLine
 10
1981.43407423273
 20
1099.584089837239
 30
0.0
 11
1979.432059376195
 21
1099.585923585254
 31
0.0
  0
ARC
  5
920
330
879
100
AcDbEntity
  8
0
  6
Continuous
 62
     7
370
    15
100
AcDbCircle
 10
1981.770692789199
 20
1099.046670620881
 30
0.0
 40
2.400000000000023
100
AcDbArc
 50
165.4700076877255
 51
167.0154246482309
  0
LINE
  5
921
330
879
100
AcDbEntity
  8
0
  6
Continuous
 62
     7
370
    15
100
AcDbLine
 10
1981.371242527513
 20
1099.647036749538
 30
0.0
 11
1981.43407423273
 21
1099.584089837239
 31
0.0
  0
LINE
  5
922
330
879
100
AcDbEntity
  8
0
  6
Continuous
 62
     7
370
    15
100
AcDbLine
 10
1981.434898588512
 20
1100.484089459704
 30
0.0
 11
1981.43407423273
 21
1099.584089837239
 31
0.0
  0
LINE
  5
923
330
879
100
AcDbEntity
  8
0
  6
Continuous
 62
     7
370
    15
100
AcDbLine
 10
1981.372066883294
 20
1100.547036372004
 30
0.0
 11
1981.434898588512
 21
1100.484089459704
 31
0.0
  0
LINE
  5
924
330
879
100
AcDbEntity
  8
0
  6
Continuous
 62
     7
370
    15
100
AcDbLine
 10
1956.369319030689
 20
1097.547037630453
 30
0.0
 11
1957.169318695103
 21
1097.546304869758
 31
0.0
  0
LINE
  5
925
330
879
100
AcDbEntity
  8
0
  6
Continuous
 62
     7
370
    15
100
AcDbLine
 10
1957.169318695103
 20
1097.546304869758
 30
0.0
 11
1957.170143050884
 21
1098.446304492223
 31
0.0
  0
LINE
  5
926
330
879
100
AcDbEntity
  8
0
  6
Continuous
 62
     7
370
    15
100
AcDbLine
 10
1957.170143050884
 20
1098.446304492223
 30
0.0
 11
1959.093932251611
 21
1098.444542395095
 31
0.0
  0
ARC
  5
927
330
879
100
AcDbEntity
  8
0
  6
Continuous
 62
     7
370
    15
100
AcDbCircle
 10
1956.770692789199
 20
1099.046670620881
 30
0.0
 40
2.400000000000005
100
AcDbArc
 50
194.425032059584
 51
345.4700076877255
  0
LINE
  5
928
330
879
100
AcDbEntity
  8
0
  6
Continuous
 62
     7
370
    15
100
AcDbLine
 10
1954.446354185744
 20
1098.448799350046
 30
0.0
 11
1956.370143386471
 21
1098.447037252918
 31
0.0
  0
LINE
  5
929
330
879
100
AcDbEntity
  8
0
  6
Continuous
 62
     7
370
    15
100
AcDbLine
 10
1956.370143386471
 20
1098.447037252918
 30
0.0
 11
1956.369319030689
 21
1097.547037630453
 31
0.0
  0
LINE
  5
92A
330
879
100
AcDbEntity
  8
0
  6
Continuous
 62
     7
370
    15
100
AcDbLine
 10
1963.356486989885
 20
1097.609251782058
 30
0.0
 11
1963.357311345667
 21
1098.509251404523
 31
0.0
  0
LINE
  5
92B
330
879
100
AcDbEntity
  8
0
  6
Continuous
 62
     7
370
    15
100
AcDbLine
 10
1963.420143050884
 20
1098.446304492223
 30
0.0
 11
1963.357311345667
 21
1098.509251404523
 31
0.0
  0
LINE
  5
92C
330
879
100
AcDbEntity
  8
0
  6
Continuous
 62
     7
370
    15
100
AcDbLine
 10
1963.356486989885
 20
1097.609251782058
 30
0.0
 11
1963.419318695103
 21
1097.546304869758
 31
0.0
  0
LINE
  5
92D
330
879
100
AcDbEntity
  8
0
  6
Continuous
 62
     7
370
    15
100
AcDbLine
 10
1950.856486989885
 20
1097.609251782058
 30
0.0
 11
1950.857311345667
 21
1098.509251404523
 31
0.0
  0
LINE
  5
92E
330
879
100
AcDbEntity
  8
0
  6
Continuous
 62
     7
370
    15
100
AcDbLine
 10
1950.920143050884
 20
1098.446304492223
 30
0.0
 11
1950.857311345667
 21
1098.509251404523
 31
0.0
  0
LINE
  5
92F
330
879
100
AcDbEntity
  8
0
  6
Continuous
 62
     7
370
    15
100
AcDbLine
 10
1950.919318695103
 20
1097.546304869758
 30
0.0
 11
1950.920143050884
 21
1098.446304492223
 31
0.0
  0
LINE
  5
930
330
879
100
AcDbEntity
  8
0
  6
Continuous
 62
     7
370
    15
100
AcDbLine
 10
1950.856486989885
 20
1097.609251782058
 30
0.0
 11
1950.919318695103
 21
1097.546304869758
 31
0.0
  0
LINE
  5
931
330
879
100
AcDbEntity
  8
0
  6
Continuous
 62
     7
370
    15
100
AcDbLine
 10
1950.119319030689
 20
1097.547037630453
 30
0.0
 11
1950.919318695103
 21
1097.546304869758
 31
0.0
  0
LINE
  5
932
330
879
100
AcDbEntity
  8
0
  6
Continuous
 62
     7
370
    15
100
AcDbLine
 10
1950.920143050884
 20
1098.446304492223
 30
0.0
 11
1952.843932251611
 21
1098.444542395095
 31
0.0
  0
ARC
  5
933
330
879
100
AcDbEntity
  8
0
  6
Continuous
 62
     7
370
    15
100
AcDbCircle
 10
1950.520692789199
 20
1099.046670620881
 30
0.0
 40
2.400000000000005
100
AcDbArc
 50
194.425032059584
 51
345.4700076877255
  0
LINE
  5
934
330
879
100
AcDbEntity
  8
0
  6
Continuous
 62
     7
370
    15
100
AcDbLine
 10
1948.196354185744
 20
1098.448799350046
 30
0.0
 11
1950.12014338647
 21
1098.447037252918
 31
0.0
  0
LINE
  5
935
330
879
100
AcDbEntity
  8
0
  6
Continuous
 62
     7
370
    15
100
AcDbLine
 10
1950.12014338647
 20
1098.447037252918
 30
0.0
 11
1950.119319030689
 21
1097.547037630453
 31
0.0
  0
LINE
  5
936
330
879
100
AcDbEntity
  8
0
  6
Continuous
 62
     7
370
    15
100
AcDbLine
 10
1950.857311345667
 20
1098.509251404523
 30
0.0
 11
1952.859326202202
 21
1098.507417656507
 31
0.0
  0
ARC
  5
937
330
879
100
AcDbEntity
  8
0
  6
Continuous
 62
     7
370
    15
100
AcDbCircle
 10
1950.520692789199
 20
1099.046670620881
 30
0.0
 40
2.399999999999989
100
AcDbArc
 50
345.4700076877255
 51
347.0154246482436
  0
LINE
  5
938
330
879
100
AcDbEntity
  8
0
  6
Continuous
 62
     7
370
    15
100
AcDbLine
 10
1963.357311345667
 20
1098.509251404523
 30
0.0
 11
1965.359326202202
 21
1098.507417656507
 31
0.0
  0
ARC
  5
939
330
879
100
AcDbEntity
  8
0
  6
Continuous
 62
     7
370
    15
100
AcDbCircle
 10
1963.020692789198
 20
1099.046670620881
 30
0.0
 40
2.399999999999989
100
AcDbArc
 50
345.4700076877255
 51
347.0154246482436
  0
LINE
  5
93A
330
879
100
AcDbEntity
  8
0
  6
Continuous
 62
     7
370
    15
100
AcDbLine
 10
1957.107311345667
 20
1098.509251404523
 30
0.0
 11
1959.109326202202
 21
1098.507417656507
 31
0.0
  0
ARC
  5
93B
330
879
100
AcDbEntity
  8
0
  6
Continuous
 62
     7
370
    15
100
AcDbCircle
 10
1956.770692789199
 20
1099.046670620881
 30
0.0
 40
2.399999999999989
100
AcDbArc
 50
345.4700076877255
 51
347.0154246482436
  0
LINE
  5
93C
330
879
100
AcDbEntity
  8
0
  6
Continuous
 62
     7
370
    15
100
AcDbLine
 10
1957.170143050884
 20
1098.446304492223
 30
0.0
 11
1957.107311345667
 21
1098.509251404523
 31
0.0
  0
LINE
  5
93D
330
879
100
AcDbEntity
  8
0
  6
Continuous
 62
     7
370
    15
100
AcDbLine
 10
1957.106486989885
 20
1097.609251782058
 30
0.0
 11
1957.107311345667
 21
1098.509251404523
 31
0.0
  0
LINE
  5
93E
330
879
100
AcDbEntity
  8
0
  6
Continuous
 62
     7
370
    15
100
AcDbLine
 10
1957.106486989885
 20
1097.609251782058
 30
0.0
 11
1957.169318695103
 21
1097.546304869758
 31
0.0
  0
LINE
  5
93F
330
879
100
AcDbEntity
  8
0
  6
Continuous
 62
     7
370
    15
100
AcDbLine
 10
1950.184898588512
 20
1100.484089459704
 30
0.0
 11
1950.18407423273
 21
1099.584089837239
 31
0.0
  0
LINE
  5
940
330
879
100
AcDbEntity
  8
0
  6
Continuous
 62
     7
370
    15
100
AcDbLine
 10
1950.121242527513
 20
1099.647036749538
 30
0.0
 11
1950.18407423273
 21
1099.584089837239
 31
0.0
  0
LINE
  5
941
330
879
100
AcDbEntity
  8
0
  6
Continuous
 62
     7
370
    15
100
AcDbLine
 10
1950.122066883294
 20
1100.547036372004
 30
0.0
 11
1950.121242527513
 21
1099.647036749538
 31
0.0
  0
LINE
  5
942
330
879
100
AcDbEntity
  8
0
  6
Continuous
 62
     7
370
    15
100
AcDbLine
 10
1950.122066883294
 20
1100.547036372004
 30
0.0
 11
1950.184898588512
 21
1100.484089459704
 31
0.0
  0
LINE
  5
943
330
879
100
AcDbEntity
  8
0
  6
Continuous
 62
     7
370
    15
100
AcDbLine
 10
1975.857311345667
 20
1098.509251404523
 30
0.0
 11
1977.859326202201
 21
1098.507417656507
 31
0.0
  0
ARC
  5
944
330
879
100
AcDbEntity
  8
0
  6
Continuous
 62
     7
370
    15
100
AcDbCircle
 10
1975.520692789199
 20
1099.046670620881
 30
0.0
 40
2.400000000000016
100
AcDbArc
 50
345.4700076877255
 51
347.0154246482436
  0
LINE
  5
945
330
879
100
AcDbEntity
  8
0
  6
Continuous
 62
     7
370
    15
100
AcDbLine
 10
1975.920143050884
 20
1098.446304492223
 30
0.0
 11
1977.843932251611
 21
1098.444542395095
 31
0.0
  0
LINE
  5
946
330
879
100
AcDbEntity
  8
0
  6
Continuous
 62
     7
370
    15
100
AcDbLine
 10
1975.920143050884
 20
1098.446304492223
 30
0.0
 11
1975.857311345667
 21
1098.509251404523
 31
0.0
  0
LINE
  5
947
330
879
100
AcDbEntity
  8
0
  6
Continuous
 62
     7
370
    15
100
AcDbLine
 10
1950.18407423273
 20
1099.584089837239
 30
0.0
 11
1948.182059376195
 21
1099.585923585254
 31
0.0
  0
ARC
  5
948
330
879
100
AcDbEntity
  8
0
  6
Continuous
 62
     7
370
    15
100
AcDbCircle
 10
1950.520692789199
 20
1099.046670620881
 30
0.0
 40
2.400000000000023
100
AcDbArc
 50
165.4700076877255
 51
167.0154246482309
  0
LINE
  5
949
330
879
100
AcDbEntity
  8
0
  6
Continuous
 62
     7
370
    15
100
AcDbLine
 10
1950.121242527513
 20
1099.647036749538
 30
0.0
 11
1948.197453326786
 21
1099.648798846667
 31
0.0
  0
LINE
  5
94A
330
879
100
AcDbEntity
  8
0
  6
Continuous
 62
     7
370
    15
100
AcDbLine
 10
1943.93407423273
 20
1099.584089837239
 30
0.0
 11
1941.932059376195
 21
1099.585923585254
 31
0.0
  0
ARC
  5
94B
330
879
100
AcDbEntity
  8
0
  6
Continuous
 62
     7
370
    15
100
AcDbCircle
 10
1944.270692789199
 20
1099.046670620881
 30
0.0
 40
2.399999999999996
100
AcDbArc
 50
165.4700076877255
 51
167.0154246482309
  0
LINE
  5
94C
330
879
100
AcDbEntity
  8
0
  6
Continuous
 62
     7
370
    15
100
AcDbLine
 10
1943.871242527513
 20
1099.647036749538
 30
0.0
 11
1941.947453326786
 21
1099.648798846667
 31
0.0
  0
LINE
  5
94D
330
879
100
AcDbEntity
  8
0
  6
Continuous
 62
     7
370
    15
100
AcDbLine
 10
1943.871242527513
 20
1099.647036749538
 30
0.0
 11
1943.93407423273
 21
1099.584089837239
 31
0.0
  0
LINE
  5
94E
330
879
100
AcDbEntity
  8
0
  6
Continuous
 62
     7
370
    15
100
AcDbLine
 10
1982.106486989885
 20
1097.609251782058
 30
0.0
 11
1982.107311345667
 21
1098.509251404523
 31
0.0
  0
LINE
  5
94F
330
879
100
AcDbEntity
  8
0
  6
Continuous
 62
     7
370
    15
100
AcDbLine
 10
1982.170143050884
 20
1098.446304492223
 30
0.0
 11
1982.107311345667
 21
1098.509251404523
 31
0.0
  0
LINE
  5
950
330
879
100
AcDbEntity
  8
0
  6
Continuous
 62
     7
370
    15
100
AcDbLine
 10
1982.169318695103
 20
1097.546304869758
 30
0.0
 11
1982.170143050884
 21
1098.446304492223
 31
0.0
  0
LINE
  5
951
330
879
100
AcDbEntity
  8
0
  6
Continuous
 62
     7
370
    15
100
AcDbLine
 10
1982.106486989885
 20
1097.609251782058
 30
0.0
 11
1982.169318695103
 21
1097.546304869758
 31
0.0
  0
LINE
  5
952
330
879
100
AcDbEntity
  8
0
  6
Continuous
 62
     7
370
    15
100
AcDbLine
 10
1956.43407423273
 20
1099.584089837239
 30
0.0
 11
1954.432059376195
 21
1099.585923585254
 31
0.0
  0
ARC
  5
953
330
879
100
AcDbEntity
  8
0
  6
Continuous
 62
     7
370
    15
100
AcDbCircle
 10
1956.770692789199
 20
1099.046670620881
 30
0.0
 40
2.400000000000017
100
AcDbArc
 50
165.4700076877255
 51
167.0154246482309
  0
LINE
  5
954
330
879
100
AcDbEntity
  8
0
  6
Continuous
 62
     7
370
    15
100
AcDbLine
 10
1956.371242527513
 20
1099.647036749538
 30
0.0
 11
1954.447453326786
 21
1099.648798846667
 31
0.0
  0
LINE
  5
955
330
879
100
AcDbEntity
  8
0
  6
Continuous
 62
     7
370
    15
100
AcDbLine
 10
1956.371242527513
 20
1099.647036749538
 30
0.0
 11
1956.43407423273
 21
1099.584089837239
 31
0.0
  0
LINE
  5
956
330
879
100
AcDbEntity
  8
0
  6
Continuous
 62
     7
370
    15
100
AcDbLine
 10
1988.356486989885
 20
1097.609251782058
 30
0.0
 11
1988.357311345667
 21
1098.509251404523
 31
0.0
  0
LINE
  5
957
330
879
100
AcDbEntity
  8
0
  6
Continuous
 62
     7
370
    15
100
AcDbLine
 10
1988.420143050884
 20
1098.446304492223
 30
0.0
 11
1988.357311345667
 21
1098.509251404523
 31
0.0
  0
LINE
  5
958
330
879
100
AcDbEntity
  8
0
  6
Continuous
 62
     7
370
    15
100
AcDbLine
 10
1962.684898588512
 20
1100.484089459704
 30
0.0
 11
1962.68407423273
 21
1099.584089837239
 31
0.0
  0
LINE
  5
959
330
879
100
AcDbEntity
  8
0
  6
Continuous
 62
     7
370
    15
100
AcDbLine
 10
1962.621242527513
 20
1099.647036749538
 30
0.0
 11
1962.68407423273
 21
1099.584089837239
 31
0.0
  0
LINE
  5
95A
330
879
100
AcDbEntity
  8
0
  6
Continuous
 62
     7
370
    15
100
AcDbLine
 10
1962.622066883294
 20
1100.547036372004
 30
0.0
 11
1962.621242527513
 21
1099.647036749538
 31
0.0
  0
LINE
  5
95B
330
879
100
AcDbEntity
  8
0
  6
Continuous
 62
     7
370
    15
100
AcDbLine
 10
1962.622066883294
 20
1100.547036372004
 30
0.0
 11
1962.684898588512
 21
1100.484089459704
 31
0.0
  0
LINE
  5
95C
330
879
100
AcDbEntity
  8
0
  6
Continuous
 62
     7
370
    15
100
AcDbLine
 10
1988.357311345667
 20
1098.509251404523
 30
0.0
 11
1990.359326202202
 21
1098.507417656507
 31
0.0
  0
ARC
  5
95D
330
879
100
AcDbEntity
  8
0
  6
Continuous
 62
     7
370
    15
100
AcDbCircle
 10
1988.020692789199
 20
1099.046670620881
 30
0.0
 40
2.399999999999989
100
AcDbArc
 50
345.4700076877255
 51
347.0154246482436
  0
LINE
  5
95E
330
879
100
AcDbEntity
  8
0
  6
Continuous
 62
     7
370
    15
100
AcDbLine
 10
1982.107311345667
 20
1098.509251404523
 30
0.0
 11
1984.109326202202
 21
1098.507417656507
 31
0.0
  0
ARC
  5
95F
330
879
100
AcDbEntity
  8
0
  6
Continuous
 62
     7
370
    15
100
AcDbCircle
 10
1981.770692789199
 20
1099.046670620881
 30
0.0
 40
2.399999999999989
100
AcDbArc
 50
345.4700076877255
 51
347.0154246482436
  0
LINE
  5
960
330
879
100
AcDbEntity
  8
0
  6
Continuous
 62
     7
370
    15
100
AcDbLine
 10
1982.170143050884
 20
1098.446304492223
 30
0.0
 11
1984.093932251611
 21
1098.444542395095
 31
0.0
  0
LINE
  5
961
330
879
100
AcDbEntity
  8
0
  6
Continuous
 62
     7
370
    15
100
AcDbLine
 10
1956.434898588512
 20
1100.484089459704
 30
0.0
 11
1956.43407423273
 21
1099.584089837239
 31
0.0
  0
LINE
  5
962
330
879
100
AcDbEntity
  8
0
  6
Continuous
 62
     7
370
    15
100
AcDbLine
 10
1956.372066883294
 20
1100.547036372004
 30
0.0
 11
1956.371242527513
 21
1099.647036749538
 31
0.0
  0
LINE
  5
963
330
879
100
AcDbEntity
  8
0
  6
Continuous
 62
     7
370
    15
100
AcDbLine
 10
1956.372066883294
 20
1100.547036372004
 30
0.0
 11
1956.434898588512
 21
1100.484089459704
 31
0.0
  0
ARC
  5
964
330
879
100
AcDbEntity
  8
0
  6
Continuous
 62
     7
370
    15
100
AcDbCircle
 10
1956.770692789199
 20
1099.046670620881
 30
0.0
 40
2.399999999999996
100
AcDbArc
 50
14.42503205958408
 51
165.4700076877255
  0
LINE
  5
965
330
879
100
AcDbEntity
  8
0
  6
Continuous
 62
     7
370
    15
100
AcDbLine
 10
1959.095031392654
 20
1099.644541891716
 30
0.0
 11
1957.171242191926
 21
1099.646303988843
 31
0.0
  0
LINE
  5
966
330
879
100
AcDbEntity
  8
0
  6
Continuous
 62
     7
370
    15
100
AcDbLine
 10
1957.171242191926
 20
1099.646303988843
 30
0.0
 11
1957.172066547708
 21
1100.546303611309
 31
0.0
  0
LINE
  5
967
330
879
100
AcDbEntity
  8
0
  6
Continuous
 62
     7
370
    15
100
AcDbLine
 10
1957.172066547708
 20
1100.546303611309
 30
0.0
 11
1956.372066883294
 21
1100.547036372004
 31
0.0
  0
ARC
  5
968
330
879
100
AcDbEntity
  8
0
  6
Continuous
 62
     7
370
    15
100
AcDbCircle
 10
1950.520692789199
 20
1099.046670620881
 30
0.0
 40
2.400000000000023
100
AcDbArc
 50
14.42503205958408
 51
165.4700076877255
  0
LINE
  5
969
330
879
100
AcDbEntity
  8
0
  6
Continuous
 62
     7
370
    15
100
AcDbLine
 10
1952.845031392653
 20
1099.644541891716
 30
0.0
 11
1950.921242191926
 21
1099.646303988843
 31
0.0
  0
LINE
  5
96A
330
879
100
AcDbEntity
  8
0
  6
Continuous
 62
     7
370
    15
100
AcDbLine
 10
1950.921242191926
 20
1099.646303988843
 30
0.0
 11
1950.922066547708
 21
1100.546303611309
 31
0.0
  0
LINE
  5
96B
330
879
100
AcDbEntity
  8
0
  6
Continuous
 62
     7
370
    15
100
AcDbLine
 10
1950.922066547708
 20
1100.546303611309
 30
0.0
 11
1950.122066883294
 21
1100.547036372004
 31
0.0
  0
LINE
  5
96C
330
879
100
AcDbEntity
  8
0
  6
Continuous
 62
     7
370
    15
100
AcDbLine
 10
1975.856486989885
 20
1097.609251782058
 30
0.0
 11
1975.857311345667
 21
1098.509251404523
 31
0.0
  0
LINE
  5
96D
330
879
100
AcDbEntity
  8
0
  6
Continuous
 62
     7
370
    15
100
AcDbLine
 10
1975.919318695103
 20
1097.546304869758
 30
0.0
 11
1975.920143050884
 21
1098.446304492223
 31
0.0
  0
LINE
  5
96E
330
879
100
AcDbEntity
  8
0
  6
Continuous
 62
     7
370
    15
100
AcDbLine
 10
1975.856486989885
 20
1097.609251782058
 30
0.0
 11
1975.919318695103
 21
1097.546304869758
 31
0.0
  0
LINE
  5
96F
330
879
100
AcDbEntity
  8
0
  6
Continuous
 62
     7
370
    15
100
AcDbLine
 10
1943.934898588512
 20
1100.484089459704
 30
0.0
 11
1943.93407423273
 21
1099.584089837239
 31
0.0
  0
LINE
  5
970
330
879
100
AcDbEntity
  8
0
  6
Continuous
 62
     7
370
    15
100
AcDbLine
 10
1943.872066883294
 20
1100.547036372004
 30
0.0
 11
1943.871242527513
 21
1099.647036749538
 31
0.0
  0
LINE
  5
971
330
879
100
AcDbEntity
  8
0
  6
Continuous
 62
     7
370
    15
100
AcDbLine
 10
1943.872066883294
 20
1100.547036372004
 30
0.0
 11
1943.934898588512
 21
1100.484089459704
 31
0.0
  0
LINE
  5
972
330
879
100
AcDbEntity
  8
0
  6
Continuous
 62
     7
370
    15
100
AcDbLine
 10
1975.119319030689
 20
1097.547037630453
 30
0.0
 11
1975.919318695103
 21
1097.546304869758
 31
0.0
  0
ARC
  5
973
330
879
100
AcDbEntity
  8
0
  6
Continuous
 62
     7
370
    15
100
AcDbCircle
 10
1975.520692789199
 20
1099.046670620881
 30
0.0
 40
2.400000000000016
100
AcDbArc
 50
194.425032059584
 51
345.4700076877255
  0
LINE
  5
974
330
879
100
AcDbEntity
  8
0
  6
Continuous
 62
     7
370
    15
100
AcDbLine
 10
1973.196354185744
 20
1098.448799350046
 30
0.0
 11
1975.120143386471
 21
1098.447037252918
 31
0.0
  0
LINE
  5
975
330
879
100
AcDbEntity
  8
0
  6
Continuous
 62
     7
370
    15
100
AcDbLine
 10
1975.120143386471
 20
1098.447037252918
 30
0.0
 11
1975.119319030689
 21
1097.547037630453
 31
0.0
  0
LINE
  5
976
330
879
100
AcDbEntity
  8
0
  6
Continuous
 62
     7
370
    15
100
AcDbLine
 10
1962.621242527513
 20
1099.647036749538
 30
0.0
 11
1960.697453326786
 21
1099.648798846667
 31
0.0
  0
ARC
  5
977
330
879
100
AcDbEntity
  8
0
  6
Continuous
 62
     7
370
    15
100
AcDbCircle
 10
1963.020692789198
 20
1099.046670620881
 30
0.0
 40
2.400000000000023
100
AcDbArc
 50
14.42503205958408
 51
165.4700076877255
  0
LINE
  5
978
330
879
100
AcDbEntity
  8
0
  6
Continuous
 62
     7
370
    15
100
AcDbLine
 10
1965.345031392654
 20
1099.644541891716
 30
0.0
 11
1963.421242191926
 21
1099.646303988843
 31
0.0
  0
LINE
  5
979
330
879
100
AcDbEntity
  8
0
  6
Continuous
 62
     7
370
    15
100
AcDbLine
 10
1963.421242191926
 20
1099.646303988843
 30
0.0
 11
1963.422066547708
 21
1100.546303611309
 31
0.0
  0
LINE
  5
97A
330
879
100
AcDbEntity
  8
0
  6
Continuous
 62
     7
370
    15
100
AcDbLine
 10
1963.422066547708
 20
1100.546303611309
 30
0.0
 11
1962.622066883294
 21
1100.547036372004
 31
0.0
  0
ARC
  5
97B
330
879
100
AcDbEntity
  8
0
  6
Continuous
 62
     7
370
    15
100
AcDbCircle
 10
1944.270692789199
 20
1099.046670620881
 30
0.0
 40
2.400000000000005
100
AcDbArc
 50
14.42503205958408
 51
165.4700076877255
  0
LINE
  5
97C
330
879
100
AcDbEntity
  8
0
  6
Continuous
 62
     7
370
    15
100
AcDbLine
 10
1946.595031392654
 20
1099.644541891716
 30
0.0
 11
1944.671242191926
 21
1099.646303988843
 31
0.0
  0
LINE
  5
97D
330
879
100
AcDbEntity
  8
0
  6
Continuous
 62
     7
370
    15
100
AcDbLine
 10
1944.671242191926
 20
1099.646303988843
 30
0.0
 11
1944.672066547708
 21
1100.546303611309
 31
0.0
  0
LINE
  5
97E
330
879
100
AcDbEntity
  8
0
  6
Continuous
 62
     7
370
    15
100
AcDbLine
 10
1944.672066547708
 20
1100.546303611309
 30
0.0
 11
1943.872066883294
 21
1100.547036372004
 31
0.0
  0
LINE
  5
97F
330
879
100
AcDbEntity
  8
0
  6
Continuous
 62
     7
370
    15
100
AcDbLine
 10
1962.68407423273
 20
1099.584089837239
 30
0.0
 11
1960.682059376195
 21
1099.585923585254
 31
0.0
  0
ARC
  5
980
330
879
100
AcDbEntity
  8
0
  6
Continuous
 62
     7
370
    15
100
AcDbCircle
 10
1963.020692789198
 20
1099.046670620881
 30
0.0
 40
2.400000000000023
100
AcDbArc
 50
165.4700076877255
 51
167.0154246482309
  0
LINE
  5
981
330
879
100
AcDbEntity
  8
0
  6
Continuous
 62
     7
370
    15
100
AcDbLine
 10
1981.369319030689
 20
1097.547037630453
 30
0.0
 11
1982.169318695103
 21
1097.546304869758
 31
0.0
  0
ARC
  5
982
330
879
100
AcDbEntity
  8
0
  6
Continuous
 62
     7
370
    15
100
AcDbCircle
 10
1981.770692789199
 20
1099.046670620881
 30
0.0
 40
2.400000000000005
100
AcDbArc
 50
194.425032059584
 51
345.4700076877255
  0
LINE
  5
983
330
879
100
AcDbEntity
  8
0
  6
Continuous
 62
     7
370
    15
100
AcDbLine
 10
1979.446354185744
 20
1098.448799350046
 30
0.0
 11
1981.37014338647
 21
1098.447037252918
 31
0.0
  0
LINE
  5
984
330
879
100
AcDbEntity
  8
0
  6
Continuous
 62
     7
370
    15
100
AcDbLine
 10
1981.37014338647
 20
1098.447037252918
 30
0.0
 11
1981.369319030689
 21
1097.547037630453
 31
0.0
  0
LINE
  5
985
330
879
100
AcDbEntity
  8
0
  6
Continuous
 62
     7
370
    15
100
AcDbLine
 10
1962.682265942989
 20
1097.60986933567
 30
0.0
 11
1963.356486989885
 21
1097.609251782058
 31
0.0
  0
LINE
  5
986
330
879
100
AcDbEntity
  8
0
  6
Continuous
 62
     7
370
    15
100
AcDbLine
 10
1981.369319030689
 20
1097.547037630453
 30
0.0
 11
1981.432265942989
 21
1097.60986933567
 31
0.0
  0
LINE
  5
987
330
879
100
AcDbEntity
  8
0
  6
Continuous
 62
     7
370
    15
100
AcDbLine
 10
1981.432265942989
 20
1097.60986933567
 30
0.0
 11
1982.106486989885
 21
1097.609251782058
 31
0.0
  0
LINE
  5
988
330
879
100
AcDbEntity
  8
0
  6
Continuous
 62
     7
370
    15
100
AcDbLine
 10
1975.859119635408
 20
1100.483471906091
 30
0.0
 11
1975.184898588512
 21
1100.484089459704
 31
0.0
  0
LINE
  5
989
330
879
100
AcDbEntity
  8
0
  6
Continuous
 62
     7
370
    15
100
AcDbLine
 10
1969.672066547708
 20
1100.546303611309
 30
0.0
 11
1969.609119635408
 21
1100.483471906091
 31
0.0
  0
LINE
  5
98A
330
879
100
AcDbEntity
  8
0
  6
Continuous
 62
     7
370
    15
100
AcDbLine
 10
1969.609119635408
 20
1100.483471906091
 30
0.0
 11
1968.934898588512
 21
1100.484089459704
 31
0.0
  0
LINE
  5
98B
330
879
100
AcDbEntity
  8
0
  6
Continuous
 62
     7
370
    15
100
AcDbLine
 10
1982.171242191926
 20
1099.646303988843
 30
0.0
 11
1982.108295279627
 21
1099.583472283626
 31
0.0
  0
LINE
  5
98C
330
879
100
AcDbEntity
  8
0
  6
Continuous
 62
     7
370
    15
100
AcDbLine
 10
1982.108295279627
 20
1099.583472283626
 30
0.0
 11
1982.109119635408
 21
1100.483471906091
 31
0.0
  0
LINE
  5
98D
330
879
100
AcDbEntity
  8
0
  6
Continuous
 62
     7
370
    15
100
AcDbLine
 10
1982.172066547708
 20
1100.546303611309
 30
0.0
 11
1982.109119635408
 21
1100.483471906091
 31
0.0
  0
LINE
  5
98E
330
879
100
AcDbEntity
  8
0
  6
Continuous
 62
     7
370
    15
100
AcDbLine
 10
1956.370143386471
 20
1098.447037252918
 30
0.0
 11
1956.43309029877
 21
1098.509868958136
 31
0.0
  0
LINE
  5
98F
330
879
100
AcDbEntity
  8
0
  6
Continuous
 62
     7
370
    15
100
AcDbLine
 10
1956.43309029877
 20
1098.509868958136
 30
0.0
 11
1956.432265942989
 21
1097.60986933567
 31
0.0
  0
LINE
  5
990
330
879
100
AcDbEntity
  8
0
  6
Continuous
 62
     7
370
    15
100
AcDbLine
 10
1956.369319030689
 20
1097.547037630453
 30
0.0
 11
1956.432265942989
 21
1097.60986933567
 31
0.0
  0
LINE
  5
991
330
879
100
AcDbEntity
  8
0
  6
Continuous
 62
     7
370
    15
100
AcDbLine
 10
1963.421242191926
 20
1099.646303988843
 30
0.0
 11
1963.358295279627
 21
1099.583472283626
 31
0.0
  0
LINE
  5
992
330
879
100
AcDbEntity
  8
0
  6
Continuous
 62
     7
370
    15
100
AcDbLine
 10
1963.358295279627
 20
1099.583472283626
 30
0.0
 11
1963.359119635408
 21
1100.483471906091
 31
0.0
  0
LINE
  5
993
330
879
100
AcDbEntity
  8
0
  6
Continuous
 62
     7
370
    15
100
AcDbLine
 10
1963.422066547708
 20
1100.546303611309
 30
0.0
 11
1963.359119635408
 21
1100.483471906091
 31
0.0
  0
LINE
  5
994
330
879
100
AcDbEntity
  8
0
  6
Continuous
 62
     7
370
    15
100
AcDbLine
 10
1968.870143386471
 20
1098.447037252918
 30
0.0
 11
1968.93309029877
 21
1098.509868958136
 31
0.0
  0
LINE
  5
995
330
879
100
AcDbEntity
  8
0
  6
Continuous
 62
     7
370
    15
100
AcDbLine
 10
1968.93309029877
 20
1098.509868958136
 30
0.0
 11
1968.932265942989
 21
1097.60986933567
 31
0.0
  0
LINE
  5
996
330
879
100
AcDbEntity
  8
0
  6
Continuous
 62
     7
370
    15
100
AcDbLine
 10
1968.869319030689
 20
1097.547037630453
 30
0.0
 11
1968.932265942989
 21
1097.60986933567
 31
0.0
  0
ARC
  5
997
330
879
100
AcDbEntity
  8
0
  6
Continuous
 62
     7
370
    15
100
AcDbCircle
 10
1981.770692789199
 20
1099.046670620881
 30
0.0
 40
2.400000000000005
100
AcDbArc
 50
192.879615099077
 51
194.425032059584
  0
LINE
  5
998
330
879
100
AcDbEntity
  8
0
  6
Continuous
 62
     7
370
    15
100
AcDbLine
 10
1979.431075442236
 20
1098.511702706151
 30
0.0
 11
1981.43309029877
 21
1098.509868958136
 31
0.0
  0
LINE
  5
999
330
879
100
AcDbEntity
  8
0
  6
Continuous
 62
     7
370
    15
100
AcDbLine
 10
1981.37014338647
 20
1098.447037252918
 30
0.0
 11
1981.43309029877
 21
1098.509868958136
 31
0.0
  0
LINE
  5
99A
330
879
100
AcDbEntity
  8
0
  6
Continuous
 62
     7
370
    15
100
AcDbLine
 10
1981.43309029877
 20
1098.509868958136
 30
0.0
 11
1981.432265942989
 21
1097.60986933567
 31
0.0
  0
ARC
  5
99B
330
879
100
AcDbEntity
  8
0
  6
Continuous
 62
     7
370
    15
100
AcDbCircle
 10
1981.770692789199
 20
1099.046670620881
 30
0.0
 40
2.400000000000005
100
AcDbArc
 50
12.879615099077
 51
14.42503205958408
  0
LINE
  5
99C
330
879
100
AcDbEntity
  8
0
  6
Continuous
 62
     7
370
    15
100
AcDbLine
 10
1984.110310136162
 20
1099.58163853561
 30
0.0
 11
1982.108295279627
 21
1099.583472283626
 31
0.0
  0
LINE
  5
99D
330
879
100
AcDbEntity
  8
0
  6
Continuous
 62
     7
370
    15
100
AcDbLine
 10
1957.171242191926
 20
1099.646303988843
 30
0.0
 11
1957.108295279627
 21
1099.583472283626
 31
0.0
  0
LINE
  5
99E
330
879
100
AcDbEntity
  8
0
  6
Continuous
 62
     7
370
    15
100
AcDbLine
 10
1957.108295279627
 20
1099.583472283626
 30
0.0
 11
1957.109119635408
 21
1100.483471906091
 31
0.0
  0
LINE
  5
99F
330
879
100
AcDbEntity
  8
0
  6
Continuous
 62
     7
370
    15
100
AcDbLine
 10
1957.172066547708
 20
1100.546303611309
 30
0.0
 11
1957.109119635408
 21
1100.483471906091
 31
0.0
  0
LINE
  5
9A0
330
879
100
AcDbEntity
  8
0
  6
Continuous
 62
     7
370
    15
100
AcDbLine
 10
1950.921242191926
 20
1099.646303988843
 30
0.0
 11
1950.858295279626
 21
1099.583472283626
 31
0.0
  0
LINE
  5
9A1
330
879
100
AcDbEntity
  8
0
  6
Continuous
 62
     7
370
    15
100
AcDbLine
 10
1950.858295279626
 20
1099.583472283626
 30
0.0
 11
1950.859119635408
 21
1100.483471906091
 31
0.0
  0
LINE
  5
9A2
330
879
100
AcDbEntity
  8
0
  6
Continuous
 62
     7
370
    15
100
AcDbLine
 10
1950.922066547708
 20
1100.546303611309
 30
0.0
 11
1950.859119635408
 21
1100.483471906091
 31
0.0
  0
ARC
  5
9A3
330
879
100
AcDbEntity
  8
0
  6
Continuous
 62
     7
370
    15
100
AcDbCircle
 10
1963.020692789198
 20
1099.046670620881
 30
0.0
 40
2.400000000000005
100
AcDbArc
 50
12.879615099077
 51
14.42503205958408
  0
LINE
  5
9A4
330
879
100
AcDbEntity
  8
0
  6
Continuous
 62
     7
370
    15
100
AcDbLine
 10
1965.360310136162
 20
1099.58163853561
 30
0.0
 11
1963.358295279627
 21
1099.583472283626
 31
0.0
  0
ARC
  5
9A5
330
879
100
AcDbEntity
  8
0
  6
Continuous
 62
     7
370
    15
100
AcDbCircle
 10
1956.770692789199
 20
1099.046670620881
 30
0.0
 40
2.400000000000005
100
AcDbArc
 50
192.8796150990897
 51
194.425032059584
  0
LINE
  5
9A6
330
879
100
AcDbEntity
  8
0
  6
Continuous
 62
     7
370
    15
100
AcDbLine
 10
1954.431075442236
 20
1098.511702706151
 30
0.0
 11
1956.43309029877
 21
1098.509868958136
 31
0.0
  0
LINE
  5
9A7
330
879
100
AcDbEntity
  8
0
  6
Continuous
 62
     7
370
    15
100
AcDbLine
 10
1963.359119635408
 20
1100.483471906091
 30
0.0
 11
1962.684898588512
 21
1100.484089459704
 31
0.0
  0
LINE
  5
9A8
330
879
100
AcDbEntity
  8
0
  6
Continuous
 62
     7
370
    15
100
AcDbLine
 10
1969.671242191926
 20
1099.646303988843
 30
0.0
 11
1969.608295279627
 21
1099.583472283626
 31
0.0
  0
LINE
  5
9A9
330
879
100
AcDbEntity
  8
0
  6
Continuous
 62
     7
370
    15
100
AcDbLine
 10
1969.608295279627
 20
1099.583472283626
 30
0.0
 11
1969.609119635408
 21
1100.483471906091
 31
0.0
  0
LINE
  5
9AA
330
879
100
AcDbEntity
  8
0
  6
Continuous
 62
     7
370
    15
100
AcDbLine
 10
1975.120143386471
 20
1098.447037252918
 30
0.0
 11
1975.18309029877
 21
1098.509868958136
 31
0.0
  0
LINE
  5
9AB
330
879
100
AcDbEntity
  8
0
  6
Continuous
 62
     7
370
    15
100
AcDbLine
 10
1975.18309029877
 20
1098.509868958136
 30
0.0
 11
1975.182265942989
 21
1097.60986933567
 31
0.0
  0
LINE
  5
9AC
330
879
100
AcDbEntity
  8
0
  6
Continuous
 62
     7
370
    15
100
AcDbLine
 10
1975.119319030689
 20
1097.547037630453
 30
0.0
 11
1975.182265942989
 21
1097.60986933567
 31
0.0
  0
ARC
  5
9AD
330
879
100
AcDbEntity
  8
0
  6
Continuous
 62
     7
370
    15
100
AcDbCircle
 10
1956.770692789199
 20
1099.046670620881
 30
0.0
 40
2.400000000000002
100
AcDbArc
 50
12.879615099077
 51
14.42503205958408
  0
LINE
  5
9AE
330
879
100
AcDbEntity
  8
0
  6
Continuous
 62
     7
370
    15
100
AcDbLine
 10
1959.110310136162
 20
1099.58163853561
 30
0.0
 11
1957.108295279627
 21
1099.583472283626
 31
0.0
  0
ARC
  5
9AF
330
879
100
AcDbEntity
  8
0
  6
Continuous
 62
     7
370
    15
100
AcDbCircle
 10
1975.520692789199
 20
1099.046670620881
 30
0.0
 40
2.400000000000005
100
AcDbArc
 50
192.879615099077
 51
194.425032059584
  0
LINE
  5
9B0
330
879
100
AcDbEntity
  8
0
  6
Continuous
 62
     7
370
    15
100
AcDbLine
 10
1973.181075442236
 20
1098.511702706151
 30
0.0
 11
1975.18309029877
 21
1098.509868958136
 31
0.0
  0
ARC
  5
9B1
330
879
100
AcDbEntity
  8
0
  6
Continuous
 62
     7
370
    15
100
AcDbCircle
 10
1969.270692789199
 20
1099.046670620881
 30
0.0
 40
2.399999999999975
100
AcDbArc
 50
192.8796150990897
 51
194.4250320595873
  0
LINE
  5
9B2
330
879
100
AcDbEntity
  8
0
  6
Continuous
 62
     7
370
    15
100
AcDbLine
 10
1966.931075442236
 20
1098.511702706151
 30
0.0
 11
1968.93309029877
 21
1098.509868958136
 31
0.0
  0
ARC
  5
9B3
330
879
100
AcDbEntity
  8
0
  6
Continuous
 62
     7
370
    15
100
AcDbCircle
 10
1950.520692789199
 20
1099.046670620881
 30
0.0
 40
2.400000000000005
100
AcDbArc
 50
12.879615099077
 51
14.42503205958408
  0
LINE
  5
9B4
330
879
100
AcDbEntity
  8
0
  6
Continuous
 62
     7
370
    15
100
AcDbLine
 10
1952.860310136162
 20
1099.58163853561
 30
0.0
 11
1950.858295279626
 21
1099.583472283626
 31
0.0
  0
LINE
  5
9B5
330
879
100
AcDbEntity
  8
0
  6
Continuous
 62
     7
370
    15
100
AcDbLine
 10
1943.869319030689
 20
1097.547037630453
 30
0.0
 11
1943.932265942989
 21
1097.60986933567
 31
0.0
  0
LINE
  5
9B6
330
879
100
AcDbEntity
  8
0
  6
Continuous
 62
     7
370
    15
100
AcDbLine
 10
1943.932265942989
 20
1097.60986933567
 30
0.0
 11
1944.606486989885
 21
1097.609251782058
 31
0.0
  0
LINE
  5
9B7
330
879
100
AcDbEntity
  8
0
  6
Continuous
 62
     7
370
    15
100
AcDbLine
 10
1975.182265942989
 20
1097.60986933567
 30
0.0
 11
1975.856486989885
 21
1097.609251782058
 31
0.0
  0
LINE
  5
9B8
330
879
100
AcDbEntity
  8
0
  6
Continuous
 62
     7
370
    15
100
AcDbLine
 10
1968.932265942989
 20
1097.60986933567
 30
0.0
 11
1969.606486989885
 21
1097.609251782058
 31
0.0
  0
LINE
  5
9B9
330
879
100
AcDbEntity
  8
0
  6
Continuous
 62
     7
370
    15
100
AcDbLine
 10
1950.119319030689
 20
1097.547037630453
 30
0.0
 11
1950.182265942989
 21
1097.60986933567
 31
0.0
  0
LINE
  5
9BA
330
879
100
AcDbEntity
  8
0
  6
Continuous
 62
     7
370
    15
100
AcDbLine
 10
1950.182265942989
 20
1097.60986933567
 30
0.0
 11
1950.856486989885
 21
1097.609251782058
 31
0.0
  0
LINE
  5
9BB
330
879
100
AcDbEntity
  8
0
  6
Continuous
 62
     7
370
    15
100
AcDbLine
 10
1956.432265942989
 20
1097.60986933567
 30
0.0
 11
1957.106486989885
 21
1097.609251782058
 31
0.0
  0
LINE
  5
9BC
330
879
100
AcDbEntity
  8
0
  6
Continuous
 62
     7
370
    15
100
AcDbLine
 10
1950.12014338647
 20
1098.447037252918
 30
0.0
 11
1950.18309029877
 21
1098.509868958136
 31
0.0
  0
LINE
  5
9BD
330
879
100
AcDbEntity
  8
0
  6
Continuous
 62
     7
370
    15
100
AcDbLine
 10
1950.18309029877
 20
1098.509868958136
 30
0.0
 11
1950.182265942989
 21
1097.60986933567
 31
0.0
  0
ARC
  5
9BE
330
879
100
AcDbEntity
  8
0
  6
Continuous
 62
     7
370
    15
100
AcDbCircle
 10
1944.270692789199
 20
1099.046670620881
 30
0.0
 40
2.399999999999978
100
AcDbArc
 50
192.8796150990897
 51
194.4250320595873
  0
LINE
  5
9BF
330
879
100
AcDbEntity
  8
0
  6
Continuous
 62
     7
370
    15
100
AcDbLine
 10
1941.931075442236
 20
1098.511702706151
 30
0.0
 11
1943.93309029877
 21
1098.509868958136
 31
0.0
  0
LINE
  5
9C0
330
879
100
AcDbEntity
  8
0
  6
Continuous
 62
     7
370
    15
100
AcDbLine
 10
1943.870143386471
 20
1098.447037252918
 30
0.0
 11
1943.93309029877
 21
1098.509868958136
 31
0.0
  0
ARC
  5
9C1
330
879
100
AcDbEntity
  8
0
  6
Continuous
 62
     7
370
    15
100
AcDbCircle
 10
1950.520692789199
 20
1099.046670620881
 30
0.0
 40
2.400000000000005
100
AcDbArc
 50
192.8796150990897
 51
194.425032059584
  0
LINE
  5
9C2
330
879
100
AcDbEntity
  8
0
  6
Continuous
 62
     7
370
    15
100
AcDbLine
 10
1948.181075442236
 20
1098.511702706151
 30
0.0
 11
1950.18309029877
 21
1098.509868958136
 31
0.0
  0
LINE
  5
9C3
330
879
100
AcDbEntity
  8
0
  6
Continuous
 62
     7
370
    15
100
AcDbLine
 10
1944.672066547708
 20
1100.546303611309
 30
0.0
 11
1944.609119635408
 21
1100.483471906091
 31
0.0
  0
LINE
  5
9C4
330
879
100
AcDbEntity
  8
0
  6
Continuous
 62
     7
370
    15
100
AcDbLine
 10
1944.609119635408
 20
1100.483471906091
 30
0.0
 11
1943.934898588512
 21
1100.484089459704
 31
0.0
  0
LINE
  5
9C5
330
879
100
AcDbEntity
  8
0
  6
Continuous
 62
     7
370
    15
100
AcDbLine
 10
1944.671242191926
 20
1099.646303988843
 30
0.0
 11
1944.608295279627
 21
1099.583472283626
 31
0.0
  0
LINE
  5
9C6
330
879
100
AcDbEntity
  8
0
  6
Continuous
 62
     7
370
    15
100
AcDbLine
 10
1944.608295279627
 20
1099.583472283626
 30
0.0
 11
1944.609119635408
 21
1100.483471906091
 31
0.0
  0
LINE
  5
9C7
330
879
100
AcDbEntity
  8
0
  6
Continuous
 62
     7
370
    15
100
AcDbLine
 10
1943.93309029877
 20
1098.509868958136
 30
0.0
 11
1943.932265942989
 21
1097.60986933567
 31
0.0
  0
ARC
  5
9C8
330
879
100
AcDbEntity
  8
0
  6
Continuous
 62
     7
370
    15
100
AcDbCircle
 10
1944.270692789199
 20
1099.046670620881
 30
0.0
 40
2.40000000000003
100
AcDbArc
 50
12.879615099077
 51
14.42503205958408
  0
LINE
  5
9C9
330
879
100
AcDbEntity
  8
0
  6
Continuous
 62
     7
370
    15
100
AcDbLine
 10
1946.610310136161
 20
1099.58163853561
 30
0.0
 11
1944.608295279627
 21
1099.583472283626
 31
0.0
  0
LINE
  5
9CA
330
879
100
AcDbEntity
  8
0
  6
Continuous
 62
     7
370
    15
100
AcDbLine
 10
1950.859119635408
 20
1100.483471906091
 30
0.0
 11
1950.184898588512
 21
1100.484089459704
 31
0.0
  0
LINE
  5
9CB
330
879
100
AcDbEntity
  8
0
  6
Continuous
 62
     7
370
    15
100
AcDbLine
 10
1988.359119635408
 20
1100.483471906091
 30
0.0
 11
1987.684898588512
 21
1100.484089459704
 31
0.0
  0
LINE
  5
9CC
330
879
100
AcDbEntity
  8
0
  6
Continuous
 62
     7
370
    15
100
AcDbLine
 10
1982.109119635408
 20
1100.483471906091
 30
0.0
 11
1981.434898588512
 21
1100.484089459704
 31
0.0
  0
LINE
  5
9CD
330
879
100
AcDbEntity
  8
0
  6
Continuous
 62
     7
370
    15
100
AcDbLine
 10
1957.109119635408
 20
1100.483471906091
 30
0.0
 11
1956.434898588512
 21
1100.484089459704
 31
0.0
  0
ARC
  5
9CE
330
879
100
AcDbEntity
  8
0
  6
Continuous
 62
     7
370
    15
100
AcDbCircle
 10
1969.270692789199
 20
1099.046670620881
 30
0.0
 40
2.400000000000032
100
AcDbArc
 50
12.879615099077
 51
14.42503205958408
  0
LINE
  5
9CF
330
879
100
AcDbEntity
  8
0
  6
Continuous
 62
     7
370
    15
100
AcDbLine
 10
1971.610310136162
 20
1099.58163853561
 30
0.0
 11
1969.608295279627
 21
1099.583472283626
 31
0.0
  0
ARC
  5
9D0
330
879
100
AcDbEntity
  8
0
  6
Continuous
 62
     7
370
    15
100
AcDbCircle
 10
1931.770692789198
 20
1099.046670620881
 30
0.0
 40
2.900000000000001
100
AcDbArc
 50
349.2741103037507
 51
10.62092944356651
  0
ARC
  5
9D1
330
879
100
AcDbEntity
  8
0
  6
Continuous
 62
     7
370
    15
100
AcDbCircle
 10
1931.770692789198
 20
1099.046670620881
 30
0.0
 40
2.900000000000006
100
AcDbArc
 50
169.2741103037507
 51
190.6209294435665
  0
ARC
  5
9D2
330
879
100
AcDbEntity
  8
0
  6
Continuous
 62
     7
370
    15
100
AcDbCircle
 10
1925.520692789199
 20
1099.046670620881
 30
0.0
 40
2.900000000000001
100
AcDbArc
 50
349.2741103037507
 51
10.62092944356651
  0
ARC
  5
9D3
330
879
100
AcDbEntity
  8
0
  6
Continuous
 62
     7
370
    15
100
AcDbCircle
 10
1925.520692789199
 20
1099.046670620881
 30
0.0
 40
2.900000000000019
100
AcDbArc
 50
169.2741103037507
 51
190.6209294435665
  0
ARC
  5
9D4
330
879
100
AcDbEntity
  8
0
  6
Continuous
 62
     7
370
    15
100
AcDbCircle
 10
1988.020692789199
 20
1099.046670620881
 30
0.0
 40
2.400000000000002
100
AcDbArc
 50
347.0154246482436
 51
12.879615099077
  0
ARC
  5
9D5
330
879
100
AcDbEntity
  8
0
  6
Continuous
 62
     7
370
    15
100
AcDbCircle
 10
1988.020692789199
 20
1099.046670620881
 30
0.0
 40
2.400000000000017
100
AcDbArc
 50
167.0154246482309
 51
192.879615099077
  0
ARC
  5
9D6
330
879
100
AcDbEntity
  8
0
  6
Continuous
 62
     7
370
    15
100
AcDbCircle
 10
1969.270692789199
 20
1099.046670620881
 30
0.0
 40
2.400000000000038
100
AcDbArc
 50
347.0154246482436
 51
12.879615099077
  0
ARC
  5
9D7
330
879
100
AcDbEntity
  8
0
  6
Continuous
 62
     7
370
    15
100
AcDbCircle
 10
1969.270692789199
 20
1099.046670620881
 30
0.0
 40
2.399999999999975
100
AcDbArc
 50
167.0154246482309
 51
192.8796150990897
  0
ARC
  5
9D8
330
879
100
AcDbEntity
  8
0
  6
Continuous
 62
     7
370
    15
100
AcDbCircle
 10
1956.770692789199
 20
1099.046670620881
 30
0.0
 40
2.400000000000002
100
AcDbArc
 50
347.0154246482436
 51
12.879615099077
  0
ARC
  5
9D9
330
879
100
AcDbEntity
  8
0
  6
Continuous
 62
     7
370
    15
100
AcDbCircle
 10
1956.770692789199
 20
1099.046670620881
 30
0.0
 40
2.400000000000017
100
AcDbArc
 50
167.0154246482309
 51
192.8796150990897
  0
ARC
  5
9DA
330
879
100
AcDbEntity
  8
0
  6
Continuous
 62
     7
370
    15
100
AcDbCircle
 10
1975.520692789199
 20
1099.046670620881
 30
0.0
 40
2.400000000000002
100
AcDbArc
 50
347.0154246482436
 51
12.879615099077
  0
ARC
  5
9DB
330
879
100
AcDbEntity
  8
0
  6
Continuous
 62
     7
370
    15
100
AcDbCircle
 10
1975.520692789199
 20
1099.046670620881
 30
0.0
 40
2.399999999999996
100
AcDbArc
 50
167.0154246482309
 51
192.879615099077
  0
ARC
  5
9DC
330
879
100
AcDbEntity
  8
0
  6
Continuous
 62
     7
370
    15
100
AcDbCircle
 10
1950.520692789199
 20
1099.046670620881
 30
0.0
 40
2.400000000000002
100
AcDbArc
 50
347.0154246482436
 51
12.879615099077
  0
ARC
  5
9DD
330
879
100
AcDbEntity
  8
0
  6
Continuous
 62
     7
370
    15
100
AcDbCircle
 10
1950.520692789199
 20
1099.046670620881
 30
0.0
 40
2.400000000000017
100
AcDbArc
 50
167.0154246482309
 51
192.8796150990897
  0
ARC
  5
9DE
330
879
100
AcDbEntity
  8
0
  6
Continuous
 62
     7
370
    15
100
AcDbCircle
 10
1981.770692789199
 20
1099.046670620881
 30
0.0
 40
2.400000000000002
100
AcDbArc
 50
347.0154246482436
 51
12.879615099077
  0
ARC
  5
9DF
330
879
100
AcDbEntity
  8
0
  6
Continuous
 62
     7
370
    15
100
AcDbCircle
 10
1981.770692789199
 20
1099.046670620881
 30
0.0
 40
2.399999999999996
100
AcDbArc
 50
167.0154246482309
 51
192.879615099077
  0
ARC
  5
9E0
330
879
100
AcDbEntity
  8
0
  6
Continuous
 62
     7
370
    15
100
AcDbCircle
 10
1944.270692789199
 20
1099.046670620881
 30
0.0
 40
2.40000000000003
100
AcDbArc
 50
347.0154246482436
 51
12.879615099077
  0
ARC
  5
9E1
330
879
100
AcDbEntity
  8
0
  6
Continuous
 62
     7
370
    15
100
AcDbCircle
 10
1944.270692789199
 20
1099.046670620881
 30
0.0
 40
2.399999999999989
100
AcDbArc
 50
167.0154246482309
 51
192.8796150990897
  0
ARC
  5
9E2
330
879
100
AcDbEntity
  8
0
  6
Continuous
 62
     7
370
    15
100
AcDbCircle
 10
1963.020692789198
 20
1099.046670620881
 30
0.0
 40
2.399999999999983
100
AcDbArc
 50
347.0154246482436
 51
12.879615099077
  0
ARC
  5
9E3
330
879
100
AcDbEntity
  8
0
  6
Continuous
 62
     7
370
    15
100
AcDbCircle
 10
1963.020692789198
 20
1099.046670620881
 30
0.0
 40
2.400000000000017
100
AcDbArc
 50
167.0154246482309
 51
192.8796150990897
  0
LINE
  5
9E4
330
879
100
AcDbEntity
  8
0
  6
Continuous
 62
     7
370
    15
100
AcDbLine
 10
1920.270692789198
 20
1102.296670620881
 30
0.0
 11
1993.270692789198
 21
1102.296670620881
 31
0.0
  0
LINE
  5
9E5
330
879
100
AcDbEntity
  8
0
  6
Continuous
 62
     7
370
    15
100
AcDbLine
 10
1993.270692789198
 20
1095.796670620881
 30
0.0
 11
1993.270692789198
 21
1102.296670620881
 31
0.0
  0
CIRCLE
  5
9E6
330
879
100
AcDbEntity
  8
0
  6
Continuous
 62
     7
370
    15
100
AcDbCircle
 10
1938.020692789199
 20
1099.046670620881
 30
0.0
 40
2.099999999999994
  0
LINE
  5
9E7
330
879
100
AcDbEntity
  8
0
  6
Continuous
 62
     7
370
    15
100
AcDbLine
 10
1920.270692789198
 20
1095.796670620881
 30
0.0
 11
1993.270692789198
 21
1095.796670620881
 31
0.0
  0
LINE
  5
9E8
330
879
100
AcDbEntity
  8
0
  6
Continuous
 62
     7
370
    15
100
AcDbLine
 10
1920.270692789198
 20
1095.796670620881
 30
0.0
 11
1920.270692789198
 21
1102.296670620881
 31
0.0
  0
ENDBLK
  5
87B
330
879
100
AcDbEntity
  8
0
100
AcDbBlockEnd
  0
BLOCK
  5
9EB
330
9EA
100
AcDbEntity
  8
0
100
AcDbBlockBegin
  2
3
 70
     0
 10
0.0
 20
0.0
 30
0.0
  3
3
  1

  0
LINE
  5
9ED
330
9EA
100
AcDbEntity
  8
0
  6
Continuous
 62
     7
370
    15
100
AcDbLine
 10
1895.661390463617
 20
1133.468047653489
 30
0.0
 11
1895.661390463617
 21
1130.898047653489
 31
0.0
  0
LINE
  5
9EE
330
9EA
100
AcDbEntity
  8
0
  6
Continuous
 62
     7
370
    15
100
AcDbLine
 10
1900.461390463617
 20
1130.898047653489
 30
0.0
 11
1900.461390463617
 21
1133.468047653489
 31
0.0
  0
LINE
  5
9EF
330
9EA
100
AcDbEntity
  8
0
  6
Continuous
 62
     7
370
    15
100
AcDbLine
 10
1895.161390463617
 20
1133.898047653489
 30
0.0
 11
1895.161390463617
 21
1130.898047653489
 31
0.0
  0
LINE
  5
9F0
330
9EA
100
AcDbEntity
  8
0
  6
Continuous
 62
     7
370
    15
100
AcDbLine
 10
1900.961390463617
 20
1130.898047653489
 30
0.0
 11
1900.961390463617
 21
1133.898047653489
 31
0.0
  0
LINE
  5
9F1
330
9EA
100
AcDbEntity
  8
0
  6
Continuous
 62
     7
370
    15
100
AcDbLine
 10
1894.811390463617
 20
1130.898047653489
 30
0.0
 11
1894.811390463617
 21
1121.898047653489
 31
0.0
  0
LINE
  5
9F2
330
9EA
100
AcDbEntity
  8
0
  6
Continuous
 62
     7
370
    15
100
AcDbLine
 10
1894.811390463617
 20
1130.898047653489
 30
0.0
 11
1901.311390463617
 21
1130.898047653489
 31
0.0
  0
LINE
  5
9F3
330
9EA
100
AcDbEntity
  8
0
  6
Continuous
 62
     7
370
    15
100
AcDbLine
 10
1901.311390463617
 20
1130.898047653489
 30
0.0
 11
1901.311390463617
 21
1121.898047653489
 31
0.0
  0
LINE
  5
9F4
330
9EA
100
AcDbEntity
  8
0
  6
Continuous
 62
     7
370
    15
100
AcDbLine
 10
1901.311390463617
 20
1121.898047653489
 30
0.0
 11
1894.811390463617
 21
1121.898047653489
 31
0.0
  0
ELLIPSE
  5
9F5
330
9EA
100
AcDbEntity
  8
0
  6
Continuous
 62
     7
370
    15
100
AcDbEllipse
 10
1898.061390463617
 20
1122.019365640852
 30
0.0
 11
2.399998998876355
 21
45.79472805284939
 31
0.0
210
0.0
220
0.0
230
1.0
 40
0.0000478714684599
 41
1.318118580505063
 42
1.345091194785917
  0
LINE
  5
9F6
330
9EA
100
AcDbEntity
  8
0
  6
Continuous
 62
     7
370
    15
100
AcDbLine
 10
1900.461390463617
 20
1133.468047653489
 30
0.0
 11
1898.659261734452
 21
1133.468047653489
 31
0.0
  0
ELLIPSE
  5
9F7
330
9EA
100
AcDbEntity
  8
0
  6
Continuous
 62
     7
370
    15
100
AcDbEllipse
 10
1898.061390463617
 20
1122.019365640852
 30
0.0
 11
-2.39999899861749
 21
45.79472804790968
 31
0.0
210
0.0
220
0.0
230
0.9999999999999998
 40
0.0000478714684662
 41
4.938094112440976
 42
4.965066726722688
  0
LINE
  5
9F8
330
9EA
100
AcDbEntity
  8
0
  6
Continuous
 62
     7
370
    15
100
AcDbLine
 10
1897.459262237832
 20
1133.468047653489
 30
0.0
 11
1895.661390463617
 21
1133.468047653489
 31
0.0
  0
ELLIPSE
  5
9F9
330
9EA
100
AcDbEntity
  8
0
  6
Continuous
 62
     7
370
    15
100
AcDbEllipse
 10
1898.061390463617
 20
1122.019365640852
 30
0.0
 11
-2.39999899861749
 21
45.79472804790968
 31
0.0
210
0.0
220
0.0
230
0.9999999999999998
 40
0.0000478714684662
 41
1.318113562799131
 42
1.34508617707965
  0
LINE
  5
9FA
330
9EA
100
AcDbEntity
  8
0
  6
Continuous
 62
     7
370
    15
100
AcDbLine
 10
1898.596358378347
 20
1132.268047653489
 30
0.0
 11
1897.522137499244
 21
1132.268047653489
 31
0.0
  0
LINE
  5
9FB
330
9EA
100
AcDbEntity
  8
0
  6
Continuous
 62
     7
370
    15
100
AcDbLine
 10
1897.46102433496
 20
1133.468047653489
 30
0.0
 11
1897.459262237832
 21
1133.468047653489
 31
0.0
  0
LINE
  5
9FC
330
9EA
100
AcDbEntity
  8
0
  6
Continuous
 62
     7
370
    15
100
AcDbLine
 10
1897.46102433496
 20
1133.468047653489
 30
0.0
 11
1897.52397124726
 21
1132.268047653489
 31
0.0
  0
LINE
  5
9FD
330
9EA
100
AcDbEntity
  8
0
  6
Continuous
 62
     7
370
    15
100
AcDbLine
 10
1897.461757095655
 20
1133.468047653489
 30
0.0
 11
1897.524588800872
 21
1132.268047653489
 31
0.0
  0
LINE
  5
9FE
330
9EA
100
AcDbEntity
  8
0
  6
Continuous
 62
     7
370
    15
100
AcDbLine
 10
1898.595890601942
 20
1132.698047653489
 30
0.0
 11
1897.521669722839
 21
1132.698047653489
 31
0.0
  0
ELLIPSE
  5
9FF
330
9EA
100
AcDbEntity
  8
0
  6
Continuous
 62
     7
370
    15
100
AcDbEllipse
 10
1898.061390463617
 20
1122.449365640852
 30
0.0
 11
2.899998790065183
 21
55.33529639254195
 31
0.0
210
0.0
220
0.0
230
1.0
 40
0.0000478714684648
 41
1.362397029035816
 42
1.384512696215299
  0
LINE
  5
A00
330
9EA
100
AcDbEntity
  8
0
  6
Continuous
 62
     7
370
    15
100
AcDbLine
 10
1900.961390463617
 20
1133.898047653489
 30
0.0
 11
1898.658791428318
 21
1133.898047653489
 31
0.0
  0
ELLIPSE
  5
A01
330
9EA
100
AcDbEntity
  8
0
  6
Continuous
 62
     7
370
    15
100
AcDbEllipse
 10
1898.061390463617
 20
1122.449365640852
 30
0.0
 11
-2.899998790065183
 21
55.33529639254195
 31
0.0
210
0.0
220
0.0
230
1.0
 40
0.0000478714684637
 41
4.898672610970891
 42
4.920788278156322
  0
LINE
  5
A02
330
9EA
100
AcDbEntity
  8
0
  6
Continuous
 62
     7
370
    15
100
AcDbLine
 10
1897.458791931698
 20
1133.898047653489
 30
0.0
 11
1895.161390463617
 21
1133.898047653489
 31
0.0
  0
ELLIPSE
  5
A03
330
9EA
100
AcDbEntity
  8
0
  6
Continuous
 62
     7
370
    15
100
AcDbEllipse
 10
1898.061390463617
 20
1122.449365640852
 30
0.0
 11
-2.899998790065183
 21
55.33529639254195
 31
0.0
210
0.0
220
0.0
230
1.0
 40
0.0000478714684637
 41
1.36239201136812
 42
1.384507678548358
  0
LINE
  5
A04
330
9EA
100
AcDbEntity
  8
0
  6
Continuous
 62
     7
370
    15
100
AcDbLine
 10
1897.460932739873
 20
1133.898047653489
 30
0.0
 11
1897.458791931698
 21
1133.898047653489
 31
0.0
  0
LINE
  5
A05
330
9EA
100
AcDbEntity
  8
0
  6
Continuous
 62
     7
370
    15
100
AcDbLine
 10
1897.460932739873
 20
1133.898047653489
 30
0.0
 11
1897.523879652173
 21
1132.698047653489
 31
0.0
  0
LINE
  5
A06
330
9EA
100
AcDbEntity
  8
0
  6
Continuous
 62
     7
370
    15
100
AcDbLine
 10
1897.461848690742
 20
1133.898047653489
 30
0.0
 11
1897.524680395959
 21
1132.698047653489
 31
0.0
  0
ENDBLK
  5
9EC
330
9EA
100
AcDbEntity
  8
0
100
AcDbBlockEnd
  0
BLOCK
  5
A09
330
A08
100
AcDbEntity
  8
0
100
AcDbBlockBegin
  2
4
 70
     0
 10
0.0
 20
0.0
 30
0.0
  3
4
  1

  0
LINE
  5
A0B
330
A08
100
AcDbEntity
  8
0
  6
Continuous
 62
     7
370
    15
100
AcDbLine
 10
2062.447805925401
 20
1105.765189142236
 30
0.0
 11
2062.479333483393
 21
1103.591949220017
 31
0.0
  0
LINE
  5
A0C
330
A08
100
AcDbEntity
  8
0
  6
Continuous
 62
     7
370
    15
100
AcDbLine
 10
2067.278828464047
 20
1103.661576302966
 30
0.0
 11
2067.247300906055
 21
1105.834816225187
 31
0.0
  0
LINE
  5
A0D
330
A08
100
AcDbEntity
  8
0
  6
Continuous
 62
     7
370
    15
100
AcDbLine
 10
2057.962012547752
 20
1108.041082360688
 30
0.0
 11
2057.993540105744
 21
1105.867842438468
 31
0.0
  0
LINE
  5
A0E
330
A08
100
AcDbEntity
  8
0
  6
Continuous
 62
     7
370
    15
100
AcDbLine
 10
2062.786307166057
 20
1106.40123474809
 30
0.0
 11
2062.761507528405
 21
1108.110709443638
 31
0.0
  0
LINE
  5
A0F
330
A08
100
AcDbEntity
  8
0
  6
Continuous
 62
     7
370
    15
100
AcDbLine
 10
2053.476219170102
 20
1110.316975579139
 30
0.0
 11
2053.507746728095
 21
1108.143735656919
 31
0.0
  0
LINE
  5
A10
330
A08
100
AcDbEntity
  8
0
  6
Continuous
 62
     7
370
    15
100
AcDbLine
 10
2058.300513788408
 20
1108.677127966541
 30
0.0
 11
2058.275714150756
 21
1110.38660266209
 31
0.0
  0
LINE
  5
A11
330
A08
100
AcDbEntity
  8
0
  6
Continuous
 62
     7
370
    15
100
AcDbLine
 10
2048.990425792454
 20
1112.592868797591
 30
0.0
 11
2049.021953350445
 21
1110.419628875371
 31
0.0
  0
LINE
  5
A12
330
A08
100
AcDbEntity
  8
0
  6
Continuous
 62
     7
370
    15
100
AcDbLine
 10
2053.814720410758
 20
1110.953021184992
 30
0.0
 11
2053.789920773107
 21
1112.662495880541
 31
0.0
  0
LINE
  5
A13
330
A08
100
AcDbEntity
  8
0
  6
Continuous
 62
     7
370
    15
100
AcDbLine
 10
2044.504632414804
 20
1114.868762016042
 30
0.0
 11
2044.536159972796
 21
1112.695522093822
 31
0.0
  0
LINE
  5
A14
330
A08
100
AcDbEntity
  8
0
  6
Continuous
 62
     7
370
    15
100
AcDbLine
 10
2049.328927033109
 20
1113.228914403443
 30
0.0
 11
2049.304127395458
 21
1114.938389098992
 31
0.0
  0
LINE
  5
A15
330
A08
100
AcDbEntity
  8
0
  6
Continuous
 62
     7
370
    15
100
AcDbLine
 10
2040.018839037156
 20
1117.144655234493
 30
0.0
 11
2040.050366595147
 21
1114.971415312273
 31
0.0
  0
LINE
  5
A16
330
A08
100
AcDbEntity
  8
0
  6
Continuous
 62
     7
370
    15
100
AcDbLine
 10
2044.84313365546
 20
1115.504807621895
 30
0.0
 11
2044.818334017809
 21
1117.214282317443
 31
0.0
  0
LINE
  5
A17
330
A08
100
AcDbEntity
  8
0
  6
Continuous
 62
     7
370
    15
100
AcDbLine
 10
2035.533045659506
 20
1119.420548452945
 30
0.0
 11
2035.564573217498
 21
1117.247308530725
 31
0.0
  0
LINE
  5
A18
330
A08
100
AcDbEntity
  8
0
  6
Continuous
 62
     7
370
    15
100
AcDbLine
 10
2040.357340277811
 20
1117.780700840346
 30
0.0
 11
2040.33254064016
 21
1119.490175535895
 31
0.0
  0
LINE
  5
A19
330
A08
100
AcDbEntity
  8
0
  6
Continuous
 62
     7
370
    15
100
AcDbLine
 10
2031.047252281857
 20
1121.696441671396
 30
0.0
 11
2031.078779839849
 21
1119.523201749176
 31
0.0
  0
LINE
  5
A1A
330
A08
100
AcDbEntity
  8
0
  6
Continuous
 62
     7
370
    15
100
AcDbLine
 10
2035.871546900162
 20
1120.056594058798
 30
0.0
 11
2035.846747262511
 21
1121.766068754346
 31
0.0
  0
LINE
  5
A1B
330
A08
100
AcDbEntity
  8
0
  6
Continuous
 62
     7
370
    15
100
AcDbLine
 10
2021.570443093855
 20
1126.604591305273
 30
0.0
 11
2021.607245690733
 21
1124.067735364938
 31
0.0
  0
LINE
  5
A1C
330
A08
100
AcDbEntity
  8
0
  6
Continuous
 62
     7
370
    15
100
AcDbLine
 10
2027.406635459023
 20
1124.151868090169
 30
0.0
 11
2027.369832862145
 21
1126.688724030504
 31
0.0
  0
LINE
  5
A1D
330
A08
100
AcDbEntity
  8
0
  6
Continuous
 62
     7
370
    15
100
AcDbLine
 10
2017.084649716206
 20
1128.880484523724
 30
0.0
 11
2017.121452313084
 21
1126.343628583389
 31
0.0
  0
LINE
  5
A1E
330
A08
100
AcDbEntity
  8
0
  6
Continuous
 62
     7
370
    15
100
AcDbLine
 10
2022.899031419952
 20
1127.931201573293
 30
0.0
 11
2022.884039484496
 21
1128.964617248955
 31
0.0
  0
LWPOLYLINE
  5
A1F
330
A08
100
AcDbEntity
  8
0
  6
Continuous
 62
     7
370
    15
100
AcDbPolyline
 90
       44
 70
   128
 43
0.0
 10
2031.373468817712
 20
1112.333816490252
 10
2031.623959577867
 20
1112.228196841519
 10
2031.868484055592
 20
1112.168083236231
 10
2032.101830636176
 20
1112.15475689152
 10
2032.31902594238
 20
1112.188501835285
 10
2032.515440833334
 20
1112.268598852637
 10
2032.686889066644
 20
1112.393340814712
 10
2032.829716520876
 20
1112.560069063158
 10
2032.940879076815
 20
1112.765230074825
 10
2033.018007497575
 20
1113.004451198939
 10
2033.059457924773
 20
1113.272633852565
 10
2033.064346914518
 20
1113.564062188046
 10
2033.032570266483
 20
1113.872524916373
 10
2032.96480524475
 20
1114.191447690031
 10
2032.862496143108
 20
1114.514033223796
 10
2032.727823502433
 20
1114.833406167074
 10
2032.563657636252
 20
1115.142759640058
 10
2032.373497454983
 20
1115.435500310555
 10
2032.161395892745
 20
1115.705388919415
 10
2031.931873526096
 20
1115.946673259509
 10
2031.689822225797
 20
1116.154210774032
 10
2031.440400895075
 20
1116.323578161178
 10
2031.188925516562
 20
1116.451165649139
 10
2030.940755851352
 20
1116.534253932119
 10
2030.701181204999
 20
1116.57107212762
 10
2030.475307695153
 20
1116.560835519727
 10
2030.267949423526
 20
1116.503762283965
 10
2030.083525871672
 20
1116.401068837266
 10
2029.925967707411
 20
1116.254943912156
 10
2029.798633009472
 20
1116.068501907719
 10
2029.704235695867
 20
1115.845716511587
 10
2029.644787681449
 20
1115.591336007691
 10
2029.621555997434
 20
1115.310782074828
 10
2029.635035786834
 20
1115.010034232993
 10
2029.684939751339
 20
1114.695502400292
 10
2029.770204274589
 20
1114.373890276665
 10
2029.8890120913
 20
1114.052052466158
 10
2030.03883101913
 20
1113.736848382945
 10
2030.216467927738
 20
1113.434996054818
 10
2030.418136794822
 20
1113.152928940089
 10
2030.639539398609
 20
1112.896658809598
 10
2030.875956926986
 20
1112.671647616254
 10
2031.122350550791
 20
1112.482691082989
 10
2031.373468817712
 20
1112.333816490252
  0
LWPOLYLINE
  5
A20
330
A08
100
AcDbEntity
  8
0
  6
Continuous
 62
     7
370
    15
100
AcDbPolyline
 90
       44
 70
   128
 43
0.0
 10
2035.859262195361
 20
1110.0579232718
 10
2036.109752955516
 20
1109.952303623068
 10
2036.354277433241
 20
1109.89219001778
 10
2036.587624013825
 20
1109.878863673069
 10
2036.804819320028
 20
1109.912608616834
 10
2037.001234210983
 20
1109.992705634186
 10
2037.172682444293
 20
1110.11744759626
 10
2037.315509898526
 20
1110.284175844706
 10
2037.426672454464
 20
1110.489336856373
 10
2037.503800875223
 20
1110.728557980488
 10
2037.545251302422
 20
1110.996740634114
 10
2037.550140292168
 20
1111.288168969594
 10
2037.518363644132
 20
1111.596631697921
 10
2037.450598622399
 20
1111.915554471579
 10
2037.348289520757
 20
1112.238140005345
 10
2037.213616880082
 20
1112.557512948623
 10
2037.049451013901
 20
1112.866866421606
 10
2036.859290832632
 20
1113.159607092103
 10
2036.647189270394
 20
1113.429495700964
 10
2036.417666903746
 20
1113.670780041057
 10
2036.175615603446
 20
1113.87831755558
 10
2035.926194272724
 20
1114.047684942727
 10
2035.674718894211
 20
1114.175272430688
 10
2035.426549229001
 20
1114.258360713668
 10
2035.186974582649
 20
1114.295178909169
 10
2034.961101072803
 20
1114.284942301276
 10
2034.753742801175
 20
1114.227869065514
 10
2034.569319249321
 20
1114.125175618815
 10
2034.411761085061
 20
1113.979050693705
 10
2034.284426387121
 20
1113.792608689267
 10
2034.190029073516
 20
1113.569823293136
 10
2034.130581059098
 20
1113.31544278924
 10
2034.107349375084
 20
1113.034888856377
 10
2034.120829164483
 20
1112.734141014542
 10
2034.170733128989
 20
1112.419609181841
 10
2034.255997652238
 20
1112.097997058213
 10
2034.374805468949
 20
1111.776159247707
 10
2034.524624396778
 20
1111.460955164494
 10
2034.702261305387
 20
1111.159102836366
 10
2034.903930172471
 20
1110.877035721638
 10
2035.125332776258
 20
1110.620765591147
 10
2035.361750304634
 20
1110.395754397802
 10
2035.608143928441
 20
1110.206797864537
 10
2035.859262195361
 20
1110.0579232718
  0
LWPOLYLINE
  5
A21
330
A08
100
AcDbEntity
  8
0
  6
Continuous
 62
     7
370
    15
100
AcDbPolyline
 90
       44
 70
   128
 43
0.0
 10
2040.34505557301
 20
1107.782030053349
 10
2040.595546333165
 20
1107.676410404616
 10
2040.84007081089
 20
1107.616296799329
 10
2041.073417391475
 20
1107.602970454617
 10
2041.290612697678
 20
1107.636715398383
 10
2041.487027588632
 20
1107.716812415735
 10
2041.658475821942
 20
1107.841554377809
 10
2041.801303276175
 20
1108.008282626255
 10
2041.912465832114
 20
1108.213443637922
 10
2041.989594252873
 20
1108.452664762037
 10
2042.031044680071
 20
1108.720847415662
 10
2042.035933669817
 20
1109.012275751143
 10
2042.004157021781
 20
1109.32073847947
 10
2041.936392000048
 20
1109.639661253128
 10
2041.834082898406
 20
1109.962246786893
 10
2041.699410257732
 20
1110.281619730171
 10
2041.53524439155
 20
1110.590973203155
 10
2041.345084210282
 20
1110.883713873652
 10
2041.132982648043
 20
1111.153602482513
 10
2040.903460281395
 20
1111.394886822606
 10
2040.661408981095
 20
1111.602424337129
 10
2040.411987650373
 20
1111.771791724276
 10
2040.16051227186
 20
1111.899379212236
 10
2039.91234260665
 20
1111.982467495216
 10
2039.672767960298
 20
1112.019285690717
 10
2039.446894450452
 20
1112.009049082824
 10
2039.239536178824
 20
1111.951975847062
 10
2039.05511262697
 20
1111.849282400364
 10
2038.89755446271
 20
1111.703157475254
 10
2038.77021976477
 20
1111.516715470816
 10
2038.675822451166
 20
1111.293930074685
 10
2038.616374436747
 20
1111.039549570788
 10
2038.593142752732
 20
1110.758995637925
 10
2038.606622542132
 20
1110.45824779609
 10
2038.656526506638
 20
1110.14371596339
 10
2038.741791029887
 20
1109.822103839762
 10
2038.860598846599
 20
1109.500266029256
 10
2039.010417774428
 20
1109.185061946043
 10
2039.188054683036
 20
1108.883209617915
 10
2039.389723550121
 20
1108.601142503186
 10
2039.611126153907
 20
1108.344872372696
 10
2039.847543682284
 20
1108.119861179351
 10
2040.09393730609
 20
1107.930904646086
 10
2040.34505557301
 20
1107.782030053349
  0
LWPOLYLINE
  5
A22
330
A08
100
AcDbEntity
  8
0
  6
Continuous
 62
     7
370
    15
100
AcDbPolyline
 90
       44
 70
   128
 43
0.0
 10
2044.83084895066
 20
1105.506136834897
 10
2045.081339710813
 20
1105.400517186165
 10
2045.325864188539
 20
1105.340403580878
 10
2045.559210769123
 20
1105.327077236166
 10
2045.776406075327
 20
1105.360822179931
 10
2045.972820966281
 20
1105.440919197283
 10
2046.144269199591
 20
1105.565661159358
 10
2046.287096653824
 20
1105.732389407804
 10
2046.398259209762
 20
1105.93755041947
 10
2046.475387630522
 20
1106.176771543585
 10
2046.51683805772
 20
1106.444954197211
 10
2046.521727047466
 20
1106.736382532691
 10
2046.48995039943
 20
1107.044845261019
 10
2046.422185377697
 20
1107.363768034677
 10
2046.319876276055
 20
1107.686353568442
 10
2046.185203635381
 20
1108.00572651172
 10
2046.021037769199
 20
1108.315079984704
 10
2045.830877587931
 20
1108.607820655201
 10
2045.618776025693
 20
1108.877709264062
 10
2045.389253659044
 20
1109.118993604155
 10
2045.147202358744
 20
1109.326531118678
 10
2044.897781028022
 20
1109.495898505824
 10
2044.646305649509
 20
1109.623485993785
 10
2044.3981359843
 20
1109.706574276765
 10
2044.158561337947
 20
1109.743392472266
 10
2043.932687828101
 20
1109.733155864373
 10
2043.725329556473
 20
1109.676082628611
 10
2043.540906004619
 20
1109.573389181912
 10
2043.383347840359
 20
1109.427264256802
 10
2043.25601314242
 20
1109.240822252365
 10
2043.161615828815
 20
1109.018036856233
 10
2043.102167814397
 20
1108.763656352337
 10
2043.078936130382
 20
1108.483102419474
 10
2043.092415919781
 20
1108.182354577639
 10
2043.142319884287
 20
1107.867822744938
 10
2043.227584407536
 20
1107.54621062131
 10
2043.346392224248
 20
1107.224372810804
 10
2043.496211152077
 20
1106.909168727591
 10
2043.673848060685
 20
1106.607316399464
 10
2043.875516927769
 20
1106.325249284735
 10
2044.096919531556
 20
1106.068979154244
 10
2044.333337059933
 20
1105.8439679609
 10
2044.579730683739
 20
1105.655011427634
 10
2044.83084895066
 20
1105.506136834897
  0
LWPOLYLINE
  5
A23
330
A08
100
AcDbEntity
  8
0
  6
Continuous
 62
     7
370
    15
100
AcDbPolyline
 90
       44
 70
   128
 43
0.0
 10
2049.316642328308
 20
1103.230243616446
 10
2049.567133088463
 20
1103.124623967713
 10
2049.811657566188
 20
1103.064510362426
 10
2050.045004146773
 20
1103.051184017715
 10
2050.262199452976
 20
1103.08492896148
 10
2050.45861434393
 20
1103.165025978832
 10
2050.63006257724
 20
1103.289767940906
 10
2050.772890031473
 20
1103.456496189352
 10
2050.884052587412
 20
1103.661657201019
 10
2050.961181008171
 20
1103.900878325134
 10
2051.002631435369
 20
1104.16906097876
 10
2051.007520425115
 20
1104.46048931424
 10
2050.975743777079
 20
1104.768952042567
 10
2050.907978755346
 20
1105.087874816225
 10
2050.805669653704
 20
1105.410460349991
 10
2050.67099701303
 20
1105.729833293269
 10
2050.506831146848
 20
1106.039186766252
 10
2050.31667096558
 20
1106.33192743675
 10
2050.104569403341
 20
1106.60181604561
 10
2049.875047036693
 20
1106.843100385703
 10
2049.632995736393
 20
1107.050637900226
 10
2049.383574405672
 20
1107.220005287373
 10
2049.132099027159
 20
1107.347592775334
 10
2048.883929361949
 20
1107.430681058314
 10
2048.644354715596
 20
1107.467499253814
 10
2048.41848120575
 20
1107.457262645922
 10
2048.211122934122
 20
1107.400189410159
 10
2048.026699382268
 20
1107.297495963461
 10
2047.869141218008
 20
1107.151371038351
 10
2047.741806520068
 20
1106.964929033914
 10
2047.647409206464
 20
1106.742143637782
 10
2047.587961192046
 20
1106.487763133886
 10
2047.564729508031
 20
1106.207209201023
 10
2047.57820929743
 20
1105.906461359188
 10
2047.628113261936
 20
1105.591929526487
 10
2047.713377785185
 20
1105.270317402859
 10
2047.832185601897
 20
1104.948479592353
 10
2047.982004529726
 20
1104.63327550914
 10
2048.159641438334
 20
1104.331423181013
 10
2048.361310305419
 20
1104.049356066283
 10
2048.582712909205
 20
1103.793085935793
 10
2048.819130437582
 20
1103.568074742448
 10
2049.065524061388
 20
1103.379118209183
 10
2049.316642328308
 20
1103.230243616446
  0
LWPOLYLINE
  5
A24
330
A08
100
AcDbEntity
  8
0
  6
Continuous
 62
     7
370
    15
100
AcDbPolyline
 90
       44
 70
   128
 43
0.0
 10
2053.802435705958
 20
1100.954350397995
 10
2054.052926466112
 20
1100.848730749262
 10
2054.297450943837
 20
1100.788617143975
 10
2054.530797524421
 20
1100.775290799263
 10
2054.747992830625
 20
1100.809035743029
 10
2054.944407721579
 20
1100.88913276038
 10
2055.115855954889
 20
1101.013874722455
 10
2055.258683409122
 20
1101.180602970901
 10
2055.369845965061
 20
1101.385763982568
 10
2055.44697438582
 20
1101.624985106683
 10
2055.488424813018
 20
1101.893167760308
 10
2055.493313802764
 20
1102.184596095789
 10
2055.461537154728
 20
1102.493058824116
 10
2055.393772132996
 20
1102.811981597774
 10
2055.291463031353
 20
1103.134567131539
 10
2055.156790390679
 20
1103.453940074817
 10
2054.992624524498
 20
1103.763293547801
 10
2054.802464343229
 20
1104.056034218298
 10
2054.590362780991
 20
1104.325922827159
 10
2054.360840414342
 20
1104.567207167252
 10
2054.118789114042
 20
1104.774744681775
 10
2053.869367783321
 20
1104.944112068922
 10
2053.617892404808
 20
1105.071699556882
 10
2053.369722739598
 20
1105.154787839862
 10
2053.130148093245
 20
1105.191606035363
 10
2052.904274583399
 20
1105.18136942747
 10
2052.696916311772
 20
1105.124296191708
 10
2052.512492759917
 20
1105.02160274501
 10
2052.354934595657
 20
1104.8754778199
 10
2052.227599897717
 20
1104.689035815462
 10
2052.133202584113
 20
1104.466250419331
 10
2052.073754569695
 20
1104.211869915434
 10
2052.05052288568
 20
1103.931315982571
 10
2052.064002675079
 20
1103.630568140737
 10
2052.113906639585
 20
1103.316036308036
 10
2052.199171162834
 20
1102.994424184408
 10
2052.317978979546
 20
1102.672586373901
 10
2052.467797907375
 20
1102.357382290689
 10
2052.645434815983
 20
1102.055529962561
 10
2052.847103683068
 20
1101.773462847832
 10
2053.068506286854
 20
1101.517192717342
 10
2053.304923815231
 20
1101.292181523997
 10
2053.551317439037
 20
1101.103224990731
 10
2053.802435705958
 20
1100.954350397995
  0
LWPOLYLINE
  5
A25
330
A08
100
AcDbEntity
  8
0
  6
Continuous
 62
     7
370
    15
100
AcDbPolyline
 90
       44
 70
   128
 43
0.0
 10
2058.288229083606
 20
1098.678457179544
 10
2058.538719843761
 20
1098.572837530811
 10
2058.783244321486
 20
1098.512723925523
 10
2059.016590902071
 20
1098.499397580812
 10
2059.233786208274
 20
1098.533142524577
 10
2059.430201099228
 20
1098.613239541929
 10
2059.601649332538
 20
1098.737981504004
 10
2059.744476786771
 20
1098.904709752449
 10
2059.85563934271
 20
1099.109870764117
 10
2059.93276776347
 20
1099.349091888231
 10
2059.974218190668
 20
1099.617274541857
 10
2059.979107180413
 20
1099.908702877337
 10
2059.947330532377
 20
1100.217165605665
 10
2059.879565510644
 20
1100.536088379323
 10
2059.777256409002
 20
1100.858673913088
 10
2059.642583768328
 20
1101.178046856366
 10
2059.478417902147
 20
1101.487400329349
 10
2059.288257720878
 20
1101.780140999847
 10
2059.07615615864
 20
1102.050029608707
 10
2058.846633791992
 20
1102.291313948801
 10
2058.604582491692
 20
1102.498851463324
 10
2058.35516116097
 20
1102.66821885047
 10
2058.103685782457
 20
1102.795806338431
 10
2057.855516117247
 20
1102.878894621411
 10
2057.615941470894
 20
1102.915712816912
 10
2057.390067961048
 20
1102.905476209019
 10
2057.182709689421
 20
1102.848402973257
 10
2056.998286137566
 20
1102.745709526558
 10
2056.840727973306
 20
1102.599584601448
 10
2056.713393275366
 20
1102.413142597011
 10
2056.618995961762
 20
1102.190357200879
 10
2056.559547947344
 20
1101.935976696983
 10
2056.536316263329
 20
1101.65542276412
 10
2056.549796052728
 20
1101.354674922285
 10
2056.599700017234
 20
1101.040143089584
 10
2056.684964540483
 20
1100.718530965957
 10
2056.803772357195
 20
1100.39669315545
 10
2056.953591285024
 20
1100.081489072237
 10
2057.131228193632
 20
1099.77963674411
 10
2057.332897060717
 20
1099.497569629381
 10
2057.554299664503
 20
1099.24129949889
 10
2057.79071719288
 20
1099.016288305546
 10
2058.037110816687
 20
1098.82733177228
 10
2058.288229083606
 20
1098.678457179544
  0
LWPOLYLINE
  5
A26
330
A08
100
AcDbEntity
  8
0
  6
Continuous
 62
     7
370
    15
100
AcDbPolyline
 90
       44
 70
   128
 43
0.0
 10
2062.774022461256
 20
1096.402563961092
 10
2063.02451322141
 20
1096.29694431236
 10
2063.269037699136
 20
1096.236830707072
 10
2063.50238427972
 20
1096.223504362361
 10
2063.719579585923
 20
1096.257249306126
 10
2063.915994476877
 20
1096.337346323478
 10
2064.087442710188
 20
1096.462088285552
 10
2064.23027016442
 20
1096.628816533998
 10
2064.341432720359
 20
1096.833977545665
 10
2064.418561141119
 20
1097.07319866978
 10
2064.460011568316
 20
1097.341381323406
 10
2064.464900558062
 20
1097.632809658886
 10
2064.433123910026
 20
1097.941272387213
 10
2064.365358888293
 20
1098.260195160871
 10
2064.263049786651
 20
1098.582780694637
 10
2064.128377145977
 20
1098.902153637915
 10
2063.964211279795
 20
1099.211507110898
 10
2063.774051098527
 20
1099.504247781395
 10
2063.561949536289
 20
1099.774136390256
 10
2063.33242716964
 20
1100.01542073035
 10
2063.090375869341
 20
1100.222958244873
 10
2062.840954538618
 20
1100.392325632019
 10
2062.589479160106
 20
1100.51991311998
 10
2062.341309494896
 20
1100.603001402959
 10
2062.101734848543
 20
1100.639819598461
 10
2061.875861338697
 20
1100.629582990568
 10
2061.66850306707
 20
1100.572509754806
 10
2061.484079515215
 20
1100.469816308107
 10
2061.326521350955
 20
1100.323691382997
 10
2061.199186653016
 20
1100.137249378559
 10
2061.104789339411
 20
1099.914463982428
 10
2061.045341324993
 20
1099.660083478532
 10
2061.022109640978
 20
1099.379529545669
 10
2061.035589430378
 20
1099.078781703834
 10
2061.085493394883
 20
1098.764249871133
 10
2061.170757918132
 20
1098.442637747505
 10
2061.289565734844
 20
1098.120799936999
 10
2061.439384662673
 20
1097.805595853786
 10
2061.617021571281
 20
1097.503743525658
 10
2061.818690438366
 20
1097.22167641093
 10
2062.040093042153
 20
1096.965406280439
 10
2062.27651057053
 20
1096.740395087094
 10
2062.522904194335
 20
1096.551438553829
 10
2062.774022461256
 20
1096.402563961092
  0
LWPOLYLINE
  5
A27
330
A08
100
AcDbEntity
  8
0
  6
Continuous
 62
     7
370
    15
100
AcDbPolyline
 90
       47
 70
   128
 43
0.0
 10
2022.27698484944
 20
1116.655182125473
 10
2022.545429432401
 20
1116.540485172739
 10
2022.80824496818
 20
1116.471243564618
 10
2023.060535700613
 20
1116.448747141258
 10
2023.297601930705
 20
1116.473414968463
 10
2023.515027563137
 20
1116.544787531285
 10
2023.708762369762
 20
1116.661535293919
 10
2023.875197437693
 20
1116.821483466445
 10
2024.011232396521
 20
1117.021652517041
 10
2024.114333172352
 20
1117.258313675029
 10
2024.182579192806
 20
1117.527058390815
 10
2024.214699163648
 20
1117.82288045883
 10
2024.210094750594
 20
1118.140269273663
 10
2024.168851725149
 20
1118.473312482216
 10
2024.091738366842
 20
1118.815806119656
 10
2023.980191151633
 20
1119.16137017754
 10
2023.836287993086
 20
1119.503567451302
 10
2023.66270953477
 20
1119.836023453195
 10
2023.462689214941
 20
1120.152545156933
 10
2023.239953033703
 20
1120.447236362058
 10
2022.998650144681
 20
1120.714607528996
 10
2022.743275564133
 20
1120.949678038793
 10
2022.478586437309
 20
1121.148068972621
 10
2022.20951342183
 20
1121.306084682754
 10
2021.94106883887
 20
1121.420781635488
 10
2021.67825330309
 20
1121.490023243609
 10
2021.425962570658
 20
1121.512519666969
 10
2021.188896340566
 20
1121.487851839764
 10
2020.971470708133
 20
1121.416479276942
 10
2020.777735901508
 20
1121.299731514308
 10
2020.611300833577
 20
1121.139783341782
 10
2020.475265874749
 20
1120.939614291186
 10
2020.372165098919
 20
1120.702953133198
 10
2020.303919078465
 20
1120.434208417412
 10
2020.271799107623
 20
1120.138386349397
 10
2020.276403520676
 20
1119.820997534564
 10
2020.317646546121
 20
1119.487954326011
 10
2020.394759904429
 20
1119.145460688571
 10
2020.506307119638
 20
1118.799896630687
 10
2020.650210278185
 20
1118.457699356925
 10
2020.823788736501
 20
1118.125243355032
 10
2021.02380905633
 20
1117.808721651294
 10
2021.246545237568
 20
1117.514030446169
 10
2021.48784812659
 20
1117.24665927923
 10
2021.743222707137
 20
1117.011588769434
 10
2022.007911833961
 20
1116.813197835606
 10
2022.27698484944
 20
1116.655182125473
  0
LWPOLYLINE
  5
A28
330
A08
100
AcDbEntity
  8
0
  6
Continuous
 62
     7
370
    15
100
AcDbPolyline
 90
       47
 70
   128
 43
0.0
 10
2017.791191471791
 20
1118.931075343925
 10
2018.059636054752
 20
1118.816378391191
 10
2018.322451590531
 20
1118.747136783069
 10
2018.574742322964
 20
1118.72464035971
 10
2018.811808553056
 20
1118.749308186915
 10
2019.029234185488
 20
1118.820680749736
 10
2019.222968992113
 20
1118.937428512371
 10
2019.389404060044
 20
1119.097376684896
 10
2019.525439018872
 20
1119.297545735492
 10
2019.628539794703
 20
1119.53420689348
 10
2019.696785815157
 20
1119.802951609266
 10
2019.728905785999
 20
1120.098773677281
 10
2019.724301372946
 20
1120.416162492114
 10
2019.6830583475
 20
1120.749205700667
 10
2019.605944989192
 20
1121.091699338107
 10
2019.494397773983
 20
1121.437263395991
 10
2019.350494615437
 20
1121.779460669753
 10
2019.176916157121
 20
1122.111916671646
 10
2018.976895837292
 20
1122.428438375384
 10
2018.754159656054
 20
1122.72312958051
 10
2018.512856767031
 20
1122.990500747448
 10
2018.257482186484
 20
1123.225571257244
 10
2017.99279305966
 20
1123.423962191072
 10
2017.723720044182
 20
1123.581977901205
 10
2017.45527546122
 20
1123.696674853939
 10
2017.192459925441
 20
1123.765916462061
 10
2016.940169193009
 20
1123.78841288542
 10
2016.703102962916
 20
1123.763745058215
 10
2016.485677330484
 20
1123.692372495394
 10
2016.291942523859
 20
1123.575624732759
 10
2016.125507455928
 20
1123.415676560233
 10
2015.9894724971
 20
1123.215507509637
 10
2015.886371721269
 20
1122.978846351649
 10
2015.818125700816
 20
1122.710101635863
 10
2015.786005729974
 20
1122.414279567848
 10
2015.790610143027
 20
1122.096890753015
 10
2015.831853168472
 20
1121.763847544462
 10
2015.908966526779
 20
1121.421353907023
 10
2016.020513741989
 20
1121.075789849138
 10
2016.164416900536
 20
1120.733592575376
 10
2016.337995358851
 20
1120.401136573484
 10
2016.538015678681
 20
1120.084614869745
 10
2016.760751859918
 20
1119.78992366462
 10
2017.002054748941
 20
1119.522552497682
 10
2017.257429329488
 20
1119.287481987885
 10
2017.522118456312
 20
1119.089091054057
 10
2017.791191471791
 20
1118.931075343925
  0
LINE
  5
A29
330
A08
100
AcDbEntity
  8
0
  6
Continuous
 62
     7
370
    15
100
AcDbLine
 10
2066.494851269024
 20
1092.835990655532
 30
0.0
 11
2014.100784618082
 21
1119.418423447044
 31
0.0
  0
LINE
  5
A2A
330
A08
100
AcDbEntity
  8
0
  6
Continuous
 62
     7
370
    15
100
AcDbLine
 10
2014.100784618082
 20
1119.418423447044
 30
0.0
 11
2013.990376827448
 21
1127.028991268048
 31
0.0
  0
LINE
  5
A2B
330
A08
100
AcDbEntity
  8
0
  6
Continuous
 62
     7
370
    15
100
AcDbLine
 10
2013.990376827448
 20
1127.028991268048
 30
0.0
 11
2066.38444347839
 21
1100.446558476536
 31
0.0
  0
LINE
  5
A2C
330
A08
100
AcDbEntity
  8
0
  6
Continuous
 62
     7
370
    15
100
AcDbLine
 10
2066.38444347839
 20
1100.446558476536
 30
0.0
 11
2066.494851269024
 21
1092.835990655532
 31
0.0
  0
LINE
  5
A2D
330
A08
100
AcDbEntity
  8
0
  6
Continuous
 62
     7
370
    15
100
AcDbLine
 10
2071.020259134133
 20
1095.372898618445
 30
0.0
 11
2066.494851269024
 21
1092.835990655532
 31
0.0
  0
LINE
  5
A2E
330
A08
100
AcDbEntity
  8
0
  6
Continuous
 62
     7
370
    15
100
AcDbLine
 10
2066.38444347839
 20
1100.446558476536
 30
0.0
 11
2070.9098513435
 21
1102.983466439449
 31
0.0
  0
LINE
  5
A2F
330
A08
100
AcDbEntity
  8
0
  6
Continuous
 62
     7
370
    15
100
AcDbLine
 10
2070.9098513435
 20
1102.983466439449
 30
0.0
 11
2071.020259134133
 21
1095.372898618445
 31
0.0
  0
ARC
  5
A30
330
A08
100
AcDbEntity
  8
0
  6
Continuous
 62
     7
370
    15
100
AcDbCircle
 10
2029.999298411057
 20
1122.110421741727
 30
0.0
 40
1.155330170712096
100
AcDbArc
 50
295.680336477224
 51
335.2224472220596
  0
LWPOLYLINE
  5
A31
330
A08
100
AcDbEntity
  8
0
  6
Continuous
 62
     7
370
    15
100
AcDbPolyline
 90
       36
 70
   128
 43
0.0
 10
2031.086815361262
 20
1121.938593759243
 10
2031.061486724439
 20
1122.047512666985
 10
2030.979700907419
 20
1122.217025495309
 10
2030.848989369605
 20
1122.377104711939
 10
2030.672570662863
 20
1122.523808635291
 10
2030.454788801254
 20
1122.65352492789
 10
2030.201006296988
 20
1122.763059544106
 10
2029.917472117576
 20
1122.849715378166
 10
2029.611167815509
 20
1122.911358675839
 10
2029.289635619272
 20
1122.946471574555
 10
2028.96079271864
 20
1122.954189478215
 10
2028.632736317192
 20
1122.934322346415
 10
2028.31354425229
 20
1122.887359373877
 10
2028.011076091909
 20
1122.814456944845
 10
2027.732779605993
 20
1122.717410159072
 10
2027.485507377637
 20
1122.598608630502
 10
2027.275348069752
 20
1122.460977647049
 10
2027.107476501979
 20
1122.307906140297
 10
2026.986026229449
 20
1122.143163238757
 10
2026.913987760942
 20
1121.970805459415
 10
2026.893134922636
 20
1121.795076822822
 10
2026.923981180614
 20
1121.62030435122
 10
2027.005766997634
 20
1121.450791522896
 10
2027.136478535449
 20
1121.290712306265
 10
2027.31289724219
 20
1121.144008382913
 10
2027.530679103799
 20
1121.014292090315
 10
2027.784461608066
 20
1120.904757474098
 10
2028.067995787478
 20
1120.818101640039
 10
2028.374300089544
 20
1120.756458342366
 10
2028.695832285782
 20
1120.72134544365
 10
2029.024675186414
 20
1120.71362753999
 10
2029.352731587862
 20
1120.733494671789
 10
2029.671923652764
 20
1120.780457644328
 10
2029.974391813144
 20
1120.853360073359
 10
2030.252688299061
 20
1120.950406859133
 10
2030.499960527417
 20
1121.069208387703
  0
LINE
  5
A32
330
A08
100
AcDbEntity
  8
0
  6
Continuous
 62
     7
370
    15
100
AcDbLine
 10
2013.990376827448
 20
1127.028991268048
 30
0.0
 11
2017.086331466963
 21
1128.764559025013
 31
0.0
  0
LINE
  5
A33
330
A08
100
AcDbEntity
  8
0
  6
Continuous
 62
     7
370
    15
100
AcDbLine
 10
2018.19453595641
 20
1129.385809722766
 30
0.0
 11
2018.341168484212
 21
1129.468010761543
 31
0.0
  0
LINE
  5
A34
330
A08
100
AcDbEntity
  8
0
  6
Continuous
 62
     7
370
    15
100
AcDbLine
 10
2027.393435332107
 20
1125.061771825762
 30
0.0
 11
2032.191493551104
 21
1122.627449233741
 31
0.0
  0
LINE
  5
A35
330
A08
100
AcDbEntity
  8
0
  6
Continuous
 62
     7
370
    15
100
AcDbLine
 10
2035.861261649797
 20
1120.765571160907
 30
0.0
 11
2036.677286928753
 21
1120.351556015289
 31
0.0
  0
LINE
  5
A36
330
A08
100
AcDbEntity
  8
0
  6
Continuous
 62
     7
370
    15
100
AcDbLine
 10
2040.347055027447
 20
1118.489677942456
 30
0.0
 11
2041.163080306402
 21
1118.075662796838
 31
0.0
  0
LINE
  5
A37
330
A08
100
AcDbEntity
  8
0
  6
Continuous
 62
     7
370
    15
100
AcDbLine
 10
2044.832848405096
 20
1116.213784724005
 30
0.0
 11
2045.648873684051
 21
1115.799769578387
 31
0.0
  0
LINE
  5
A38
330
A08
100
AcDbEntity
  8
0
  6
Continuous
 62
     7
370
    15
100
AcDbLine
 10
2049.318641782745
 20
1113.937891505553
 30
0.0
 11
2050.1346670617
 21
1113.523876359935
 31
0.0
  0
LINE
  5
A39
330
A08
100
AcDbEntity
  8
0
  6
Continuous
 62
     7
370
    15
100
AcDbLine
 10
2053.804435160394
 20
1111.661998287102
 30
0.0
 11
2054.620460439349
 21
1111.247983141484
 31
0.0
  0
LINE
  5
A3A
330
A08
100
AcDbEntity
  8
0
  6
Continuous
 62
     7
370
    15
100
AcDbLine
 10
2058.290228538043
 20
1109.386105068651
 30
0.0
 11
2059.106253816999
 21
1108.972089923033
 31
0.0
  0
LINE
  5
A3B
330
A08
100
AcDbEntity
  8
0
  6
Continuous
 62
     7
370
    15
100
AcDbLine
 10
2062.776021915692
 20
1107.110211850199
 30
0.0
 11
2063.592047194648
 21
1106.696196704581
 31
0.0
  0
LINE
  5
A3C
330
A08
100
AcDbEntity
  8
0
  6
Continuous
 62
     7
370
    15
100
AcDbLine
 10
2067.261815293341
 20
1104.834318631748
 30
0.0
 11
2070.9098513435
 21
1102.983466439449
 31
0.0
  0
ARC
  5
A3D
330
A08
100
AcDbEntity
  8
0
  6
Continuous
 62
     7
370
    15
100
AcDbCircle
 10
2066.187817960466
 20
1103.76789118424
 30
0.0
 40
1.096178257813265
100
AcDbArc
 50
292.1789339577527
 51
354.4343136383686
  0
LWPOLYLINE
  5
A3E
330
A08
100
AcDbEntity
  8
0
  6
Continuous
 62
     7
370
    15
100
AcDbPolyline
 90
       18
 70
   128
 43
0.0
 10
2062.479333483393
 20
1103.591949220017
 10
2062.480606189256
 20
1103.55900723499
 10
2062.517861054601
 20
1103.373462142779
 10
2062.60544122309
 20
1103.193315713487
 10
2062.741480075484
 20
1103.022407455495
 10
2062.923078179827
 20
1102.864379981598
 10
2063.146365087807
 20
1102.722601373044
 10
2063.40658182664
 20
1102.600093394724
 10
2063.698182328314
 20
1102.499467091505
 10
2064.014951634397
 20
1102.422867138337
 10
2064.350138357089
 20
1102.371926130233
 10
2064.696598573331
 20
1102.347729786339
 10
2065.046948085121
 20
1102.350793809717
 10
2065.393719800873
 20
1102.381052896028
 10
2065.729522883515
 20
1102.437862125383
 10
2066.047200273345
 20
1102.520010707686
 10
2066.339981228333
 20
1102.625747788528
 10
2066.601625630737
 20
1102.752819765606
  0
LWPOLYLINE
  5
A3F
330
A08
100
AcDbEntity
  8
0
  6
Continuous
 62
     7
370
    15
100
AcDbPolyline
 90
        3
 70
   128
 43
0.0
 10
2062.115832253088
 20
1105.028712984058
 10
2062.340763606724
 20
1105.174411538797
 10
2062.45501099446
 20
1105.268533368074
  0
LWPOLYLINE
  5
A40
330
A08
100
AcDbEntity
  8
0
  6
Continuous
 62
     7
370
    15
100
AcDbPolyline
 90
       18
 70
   128
 43
0.0
 10
2057.993540105744
 20
1105.867842438468
 10
2057.994812811607
 20
1105.834900453442
 10
2058.032067676952
 20
1105.64935536123
 10
2058.119647845441
 20
1105.469208931939
 10
2058.255686697834
 20
1105.298300673946
 10
2058.437284802177
 20
1105.140273200049
 10
2058.660571710158
 20
1104.998494591495
 10
2058.920788448991
 20
1104.875986613175
 10
2059.212388950665
 20
1104.775360309956
 10
2059.529158256748
 20
1104.698760356788
 10
2059.86434497944
 20
1104.647819348684
 10
2060.210805195682
 20
1104.62362300479
 10
2060.561154707471
 20
1104.626687028168
 10
2060.907926423224
 20
1104.65694611448
 10
2061.243729505866
 20
1104.713755343834
 10
2061.561406895695
 20
1104.795903926137
 10
2061.854187850684
 20
1104.901641006979
 10
2062.115832253088
 20
1105.028712984058
  0
LWPOLYLINE
  5
A41
330
A08
100
AcDbEntity
  8
0
  6
Continuous
 62
     7
370
    15
100
AcDbPolyline
 90
        3
 70
   128
 43
0.0
 10
2057.630038875439
 20
1107.304606202509
 10
2057.854970229075
 20
1107.450304757248
 10
2057.969217616811
 20
1107.544426586525
  0
LWPOLYLINE
  5
A42
330
A08
100
AcDbEntity
  8
0
  6
Continuous
 62
     7
370
    15
100
AcDbPolyline
 90
       18
 70
   128
 43
0.0
 10
2053.507746728095
 20
1108.143735656919
 10
2053.509019433958
 20
1108.110793671893
 10
2053.546274299304
 20
1107.925248579682
 10
2053.633854467792
 20
1107.74510215039
 10
2053.769893320186
 20
1107.574193892397
 10
2053.951491424529
 20
1107.416166418501
 10
2054.174778332509
 20
1107.274387809946
 10
2054.434995071342
 20
1107.151879831627
 10
2054.726595573015
 20
1107.051253528408
 10
2055.043364879098
 20
1106.97465357524
 10
2055.378551601791
 20
1106.923712567136
 10
2055.725011818033
 20
1106.899516223242
 10
2056.075361329822
 20
1106.90258024662
 10
2056.422133045575
 20
1106.932839332931
 10
2056.757936128216
 20
1106.989648562286
 10
2057.075613518046
 20
1107.071797144588
 10
2057.368394473035
 20
1107.177534225431
 10
2057.630038875439
 20
1107.304606202509
  0
LWPOLYLINE
  5
A43
330
A08
100
AcDbEntity
  8
0
  6
Continuous
 62
     7
370
    15
100
AcDbPolyline
 90
        3
 70
   128
 43
0.0
 10
2053.14424549779
 20
1109.58049942096
 10
2053.369176851425
 20
1109.7261979757
 10
2053.483424239162
 20
1109.820319804977
  0
LWPOLYLINE
  5
A44
330
A08
100
AcDbEntity
  8
0
  6
Continuous
 62
     7
370
    15
100
AcDbPolyline
 90
       18
 70
   128
 43
0.0
 10
2049.021953350445
 20
1110.419628875371
 10
2049.023226056309
 20
1110.386686890344
 10
2049.060480921654
 20
1110.201141798133
 10
2049.148061090143
 20
1110.020995368842
 10
2049.284099942536
 20
1109.850087110849
 10
2049.465698046879
 20
1109.692059636952
 10
2049.68898495486
 20
1109.550281028398
 10
2049.949201693693
 20
1109.427773050078
 10
2050.240802195367
 20
1109.327146746859
 10
2050.55757150145
 20
1109.250546793691
 10
2050.892758224142
 20
1109.199605785587
 10
2051.239218440384
 20
1109.175409441693
 10
2051.589567952174
 20
1109.178473465071
 10
2051.936339667926
 20
1109.208732551383
 10
2052.272142750568
 20
1109.265541780737
 10
2052.589820140397
 20
1109.34769036304
 10
2052.882601095386
 20
1109.453427443882
 10
2053.14424549779
 20
1109.58049942096
  0
LWPOLYLINE
  5
A45
330
A08
100
AcDbEntity
  8
0
  6
Continuous
 62
     7
370
    15
100
AcDbPolyline
 90
        3
 70
   128
 43
0.0
 10
2048.65845212014
 20
1111.856392639412
 10
2048.883383473776
 20
1112.002091194151
 10
2048.997630861513
 20
1112.096213023428
  0
LWPOLYLINE
  5
A46
330
A08
100
AcDbEntity
  8
0
  6
Continuous
 62
     7
370
    15
100
AcDbPolyline
 90
       18
 70
   128
 43
0.0
 10
2044.536159972796
 20
1112.695522093822
 10
2044.53743267866
 20
1112.662580108796
 10
2044.574687544005
 20
1112.477035016584
 10
2044.662267712494
 20
1112.296888587293
 10
2044.798306564887
 20
1112.1259803293
 10
2044.97990466923
 20
1111.967952855403
 10
2045.20319157721
 20
1111.826174246849
 10
2045.463408316044
 20
1111.70366626853
 10
2045.755008817717
 20
1111.60303996531
 10
2046.0717781238
 20
1111.526440012142
 10
2046.406964846493
 20
1111.475499004038
 10
2046.753425062735
 20
1111.451302660144
 10
2047.103774574524
 20
1111.454366683523
 10
2047.450546290277
 20
1111.484625769834
 10
2047.786349372918
 20
1111.541434999188
 10
2048.104026762748
 20
1111.623583581491
 10
2048.396807717737
 20
1111.729320662333
 10
2048.65845212014
 20
1111.856392639412
  0
LWPOLYLINE
  5
A47
330
A08
100
AcDbEntity
  8
0
  6
Continuous
 62
     7
370
    15
100
AcDbPolyline
 90
        3
 70
   128
 43
0.0
 10
2044.172658742491
 20
1114.132285857863
 10
2044.397590096127
 20
1114.277984412602
 10
2044.511837483864
 20
1114.37210624188
  0
LWPOLYLINE
  5
A48
330
A08
100
AcDbEntity
  8
0
  6
Continuous
 62
     7
370
    15
100
AcDbPolyline
 90
       18
 70
   128
 43
0.0
 10
2040.050366595147
 20
1114.971415312273
 10
2040.05163930101
 20
1114.938473327247
 10
2040.088894166355
 20
1114.752928235036
 10
2040.176474334845
 20
1114.572781805744
 10
2040.312513187238
 20
1114.401873547752
 10
2040.494111291581
 20
1114.243846073855
 10
2040.717398199561
 20
1114.1020674653
 10
2040.977614938395
 20
1113.979559486981
 10
2041.269215440069
 20
1113.878933183761
 10
2041.585984746152
 20
1113.802333230593
 10
2041.921171468844
 20
1113.751392222489
 10
2042.267631685086
 20
1113.727195878596
 10
2042.617981196875
 20
1113.730259901974
 10
2042.964752912627
 20
1113.760518988285
 10
2043.300555995269
 20
1113.81732821764
 10
2043.618233385099
 20
1113.899476799943
 10
2043.911014340088
 20
1114.005213880784
 10
2044.172658742491
 20
1114.132285857863
  0
LWPOLYLINE
  5
A49
330
A08
100
AcDbEntity
  8
0
  6
Continuous
 62
     7
370
    15
100
AcDbPolyline
 90
        3
 70
   128
 43
0.0
 10
2039.686865364842
 20
1116.408179076314
 10
2039.911796718478
 20
1116.553877631054
 10
2040.026044106215
 20
1116.647999460331
  0
LWPOLYLINE
  5
A4A
330
A08
100
AcDbEntity
  8
0
  6
Continuous
 62
     7
370
    15
100
AcDbPolyline
 90
       18
 70
   128
 43
0.0
 10
2035.564573217498
 20
1117.247308530725
 10
2035.565845923361
 20
1117.214366545698
 10
2035.603100788707
 20
1117.028821453487
 10
2035.690680957196
 20
1116.848675024195
 10
2035.826719809589
 20
1116.677766766203
 10
2036.008317913932
 20
1116.519739292306
 10
2036.231604821912
 20
1116.377960683752
 10
2036.491821560745
 20
1116.255452705432
 10
2036.783422062419
 20
1116.154826402213
 10
2037.100191368502
 20
1116.078226449045
 10
2037.435378091195
 20
1116.027285440941
 10
2037.781838307436
 20
1116.003089097047
 10
2038.132187819226
 20
1116.006153120425
 10
2038.478959534979
 20
1116.036412206737
 10
2038.81476261762
 20
1116.093221436091
 10
2039.13244000745
 20
1116.175370018394
 10
2039.425220962439
 20
1116.281107099236
 10
2039.686865364842
 20
1116.408179076314
  0
LWPOLYLINE
  5
A4B
330
A08
100
AcDbEntity
  8
0
  6
Continuous
 62
     7
370
    15
100
AcDbPolyline
 90
        3
 70
   128
 43
0.0
 10
2035.201071987193
 20
1118.684072294766
 10
2035.426003340829
 20
1118.829770849505
 10
2035.540250728566
 20
1118.923892678782
  0
LWPOLYLINE
  5
A4C
330
A08
100
AcDbEntity
  8
0
  6
Continuous
 62
     7
370
    15
100
AcDbPolyline
 90
       18
 70
   128
 43
0.0
 10
2031.078779839849
 20
1119.523201749176
 10
2031.080052545712
 20
1119.49025976415
 10
2031.117307411058
 20
1119.304714671939
 10
2031.204887579546
 20
1119.124568242647
 10
2031.34092643194
 20
1118.953659984654
 10
2031.522524536283
 20
1118.795632510757
 10
2031.745811444263
 20
1118.653853902203
 10
2032.006028183097
 20
1118.531345923884
 10
2032.29762868477
 20
1118.430719620664
 10
2032.614397990853
 20
1118.354119667496
 10
2032.949584713545
 20
1118.303178659392
 10
2033.296044929787
 20
1118.278982315498
 10
2033.646394441577
 20
1118.282046338876
 10
2033.993166157329
 20
1118.312305425188
 10
2034.328969239971
 20
1118.369114654543
 10
2034.646646629801
 20
1118.451263236845
 10
2034.93942758479
 20
1118.557000317687
 10
2035.201071987193
 20
1118.684072294766
  0
LWPOLYLINE
  5
A4D
330
A08
100
AcDbEntity
  8
0
  6
Continuous
 62
     7
370
    15
100
AcDbPolyline
 90
       19
 70
   128
 43
0.0
 10
2022.487912450444
 20
1122.977950482562
 10
2022.783351804969
 20
1122.847296487383
 10
2023.109548641925
 20
1122.739171928124
 10
2023.46068197103
 20
1122.655506290107
 10
2023.830485809707
 20
1122.597792588624
 10
2024.212360999694
 20
1122.567060726046
 10
2024.599492969178
 20
1122.563859113187
 10
2024.984973338993
 20
1122.588244882907
 10
2025.361923202809
 20
1122.639782870565
 10
2025.723615881374
 20
1122.717553379551
 10
2026.06359696027
 20
1122.820168593291
 10
2026.375799469092
 20
1122.945797340863
 10
2026.654652146672
 20
1123.092197774292
 10
2026.895178860374
 20
1123.256757374374
 10
2027.093087405292
 20
1123.436539571148
 10
2027.244846098755
 20
1123.628336147052
 10
2027.347746803281
 20
1123.828724487647
 10
2027.399953253362
 20
1124.034128658247
 10
2027.406635459023
 20
1124.151868090169
  0
ARC
  5
A4E
330
A08
100
AcDbEntity
  8
0
  6
Continuous
 62
     7
370
    15
100
AcDbCircle
 10
2022.963570532565
 20
1124.263065371122
 30
0.0
 40
1.370317805433371
100
AcDbArc
 50
188.1950591282062
 51
249.6890335106954
  0
ARC
  5
A4F
330
A08
100
AcDbEntity
  8
0
  6
Continuous
 62
     7
370
    15
100
AcDbCircle
 10
2019.990489778594
 20
1129.722477538585
 30
0.0
 40
4.891043491727781
100
AcDbArc
 50
246.0127698967556
 51
289.1164515109346
  0
ARC
  5
A50
330
A08
100
AcDbEntity
  8
0
  6
Continuous
 62
     7
370
    15
100
AcDbCircle
 10
2018.477777154916
 20
1126.538958589574
 30
0.0
 40
1.370317805433231
100
AcDbArc
 50
188.1950591281933
 51
249.6890335106954
  0
ARC
  5
A51
330
A08
100
AcDbEntity
  8
0
  6
Continuous
 62
     7
370
    15
100
AcDbCircle
 10
2065.449782386373
 20
1105.88026001601
 30
0.0
 40
2.272650926332621
100
AcDbArc
 50
288.3520579106829
 51
310.1093558468002
  0
ELLIPSE
  5
A52
330
A08
100
AcDbEntity
  8
0
  6
Continuous
 62
     7
370
    15
100
AcDbEllipse
 10
2064.988000492026
 20
1096.118783692791
 30
0.0
 11
1.07456430956914
 21
39.67039803543475
 31
0.0
210
0.0
220
0.0
230
1.0
 40
0.0439574551603158
 41
4.917233815477376
 42
4.944206429754399
  0
LWPOLYLINE
  5
A53
330
A08
100
AcDbEntity
  8
0
  6
Continuous
 62
     7
370
    15
100
AcDbPolyline
 90
       19
 70
   128
 43
0.0
 10
2063.599313527387
 20
1106.881000626101
 10
2063.911789881899
 20
1106.969755366742
 10
2064.244302280451
 20
1107.033464018897
 10
2064.589731154027
 20
1107.070762488629
 10
2064.940680373291
 20
1107.080852162021
 10
2065.289635610364
 20
1107.063517004645
 10
2065.62912523139
 20
1107.019128187168
 10
2065.951880274981
 20
1106.94863613806
 10
2066.250990091134
 20
1106.853550193546
 10
2066.520050308197
 20
1106.735906280548
 10
2066.753299959684
 20
1106.59822332456
 10
2066.945744834855
 20
1106.443449315829
 10
2067.093264411961
 20
1106.274898188635
 10
2067.192700084541
 20
1106.096178865197
 10
2067.241922791735
 20
1105.911117983447
 10
2067.239878604538
 20
1105.723677963209
 10
2067.186611291941
 20
1105.537872165086
 10
2067.083261383769
 20
1105.357678958634
 10
2066.932041750303
 20
1105.186956539741
  0
ELLIPSE
  5
A54
330
A08
100
AcDbEntity
  8
0
  6
Continuous
 62
     7
370
    15
100
AcDbEllipse
 10
2064.988000492026
 20
1096.118783692791
 30
0.0
 11
1.07456430956914
 21
39.67039803543475
 31
0.0
210
0.0
220
0.0
230
1.0
 40
0.0439574551603158
 41
1.297253265880431
 42
1.320116314693251
  0
LWPOLYLINE
  5
A55
330
A08
100
AcDbEntity
  8
0
  6
Continuous
 62
     7
370
    15
100
AcDbPolyline
 90
       19
 70
   128
 43
0.0
 10
2066.095793304069
 20
1104.719004741323
 10
2065.783316949556
 20
1104.630250000681
 10
2065.450804551004
 20
1104.566541348527
 10
2065.105375677428
 20
1104.529242878794
 10
2064.754426458164
 20
1104.519153205402
 10
2064.405471221092
 20
1104.536488362778
 10
2064.065981600066
 20
1104.580877180255
 10
2063.743226556475
 20
1104.651369229363
 10
2063.444116740322
 20
1104.746455173877
 10
2063.175056523258
 20
1104.864099086875
 10
2062.941806871772
 20
1105.001782042863
 10
2062.749361996601
 20
1105.156556051595
 10
2062.601842419494
 20
1105.325107178788
 10
2062.502406746915
 20
1105.503826502227
 10
2062.45318403972
 20
1105.688887383976
 10
2062.455228226918
 20
1105.876327404214
 10
2062.508495539514
 20
1106.062133202337
 10
2062.611845447686
 20
1106.242326408789
 10
2062.763065081152
 20
1106.413048827682
  0
ELLIPSE
  5
A56
330
A08
100
AcDbEntity
  8
0
  6
Continuous
 62
     7
370
    15
100
AcDbEllipse
 10
2064.988000492026
 20
1096.118783692791
 30
0.0
 11
-2.277933147015972
 21
37.79896383410239
 31
0.0
210
0.0
220
0.0
230
0.9999999999999998
 40
0.0439908974369746
 41
4.912300048224405
 42
4.939272662501426
  0
LINE
  5
A57
330
A08
100
AcDbEntity
  8
0
  6
Continuous
 62
     7
370
    15
100
AcDbLine
 10
2063.515407282273
 20
1105.360863036449
 30
0.0
 11
2064.089078433596
 21
1105.069262834929
 31
0.0
  0
LINE
  5
A58
330
A08
100
AcDbEntity
  8
0
  6
Continuous
 62
     7
370
    15
100
AcDbLine
 10
2064.089078433596
 20
1105.069262834929
 30
0.0
 11
2064.716264768272
 21
1105.420226683742
 31
0.0
  0
LINE
  5
A59
330
A08
100
AcDbEntity
  8
0
  6
Continuous
 62
     7
370
    15
100
AcDbLine
 10
2064.716264768272
 20
1105.420226683742
 30
0.0
 11
2066.095793304069
 21
1104.719004741323
 31
0.0
  0
LINE
  5
A5A
330
A08
100
AcDbEntity
  8
0
  6
Continuous
 62
     7
370
    15
100
AcDbLine
 10
2062.763065081152
 20
1106.413048827682
 30
0.0
 11
2064.142593616948
 21
1105.711826885263
 31
0.0
  0
LINE
  5
A5B
330
A08
100
AcDbEntity
  8
0
  6
Continuous
 62
     7
370
    15
100
AcDbLine
 10
2064.142593616948
 20
1105.711826885263
 30
0.0
 11
2063.515407282273
 21
1105.360863036449
 31
0.0
  0
LINE
  5
A5C
330
A08
100
AcDbEntity
  8
0
  6
Continuous
 62
     7
370
    15
100
AcDbLine
 10
2066.913934394507
 20
1104.142099744333
 30
0.0
 11
2066.107543906004
 21
1104.551992464943
 31
0.0
  0
LINE
  5
A5D
330
A08
100
AcDbEntity
  8
0
  6
Continuous
 62
     7
370
    15
100
AcDbLine
 10
2064.56546332116
 20
1105.335840507962
 30
0.0
 11
2064.159971569722
 21
1105.5419541955
 31
0.0
  0
LINE
  5
A5E
330
A08
100
AcDbEntity
  8
0
  6
Continuous
 62
     7
370
    15
100
AcDbLine
 10
2065.517611172154
 20
1105.410126660512
 30
0.0
 11
2065.14563587167
 21
1105.201974990261
 31
0.0
  0
LINE
  5
A5F
330
A08
100
AcDbEntity
  8
0
  6
Continuous
 62
     7
370
    15
100
AcDbLine
 10
2066.932041750303
 20
1105.186956539741
 30
0.0
 11
2065.552513214507
 21
1105.88817848216
 31
0.0
  0
LINE
  5
A60
330
A08
100
AcDbEntity
  8
0
  6
Continuous
 62
     7
370
    15
100
AcDbLine
 10
2065.552513214507
 20
1105.88817848216
 30
0.0
 11
2065.489647681673
 21
1105.027111895105
 31
0.0
  0
LINE
  5
A61
330
A08
100
AcDbEntity
  8
0
  6
Continuous
 62
     7
370
    15
100
AcDbLine
 10
2064.978842063183
 20
1106.179778683681
 30
0.0
 11
2063.599313527387
 21
1106.881000626101
 31
0.0
  0
LINE
  5
A62
330
A08
100
AcDbEntity
  8
0
  6
Continuous
 62
     7
370
    15
100
AcDbLine
 10
2065.552513214507
 20
1105.88817848216
 30
0.0
 11
2066.179699549183
 21
1106.239142330974
 31
0.0
  0
LINE
  5
A63
330
A08
100
AcDbEntity
  8
0
  6
Continuous
 62
     7
370
    15
100
AcDbLine
 10
2066.179699549183
 20
1106.239142330974
 30
0.0
 11
2065.606028397859
 21
1106.530742532495
 31
0.0
  0
LINE
  5
A64
330
A08
100
AcDbEntity
  8
0
  6
Continuous
 62
     7
370
    15
100
AcDbLine
 10
2065.606028397859
 20
1106.530742532495
 30
0.0
 11
2064.978842063183
 21
1106.179778683681
 31
0.0
  0
ARC
  5
A65
330
A08
100
AcDbEntity
  8
0
  6
Continuous
 62
     7
370
    15
100
AcDbCircle
 10
2063.773575054531
 20
1097.692204114631
 30
0.0
 40
1.273693623001706
100
AcDbArc
 50
239.2388213484095
 51
283.9669726328831
  0
LWPOLYLINE
  5
A66
330
A08
100
AcDbEntity
  8
0
  6
Continuous
 62
     7
370
    15
100
AcDbPolyline
 90
       17
 70
   128
 43
0.0
 10
2061.75627208002
 20
1100.603076971954
 10
2061.674629648271
 20
1100.518838149375
 10
2061.547294950332
 20
1100.332396144938
 10
2061.452897636727
 20
1100.109610748806
 10
2061.393449622309
 20
1099.85523024491
 10
2061.370217938294
 20
1099.574676312046
 10
2061.383697727694
 20
1099.273928470212
 10
2061.433601692199
 20
1098.959396637511
 10
2061.518866215449
 20
1098.637784513883
 10
2061.63767403216
 20
1098.315946703377
 10
2061.787492959989
 20
1098.000742620164
 10
2061.965129868598
 20
1097.698890292036
 10
2062.166798735682
 20
1097.416823177308
 10
2062.388201339469
 20
1097.160553046817
 10
2062.624618867845
 20
1096.935541853472
 10
2062.871012491652
 20
1096.746585320207
 10
2063.122130758572
 20
1096.59771072747
  0
LINE
  5
A67
330
A08
100
AcDbEntity
  8
0
  6
Continuous
 62
     7
370
    15
100
AcDbLine
 10
2064.142593616948
 20
1105.711826885263
 30
0.0
 11
2064.201870973048
 21
1105.132379809222
 31
0.0
  0
LINE
  5
A68
330
A08
100
AcDbEntity
  8
0
  6
Continuous
 62
     7
370
    15
100
AcDbLine
 10
2064.978842063183
 20
1106.179778683681
 30
0.0
 11
2064.992391112163
 21
1105.279870144394
 31
0.0
  0
LINE
  5
A69
330
A08
100
AcDbEntity
  8
0
  6
Continuous
 62
     7
370
    15
100
AcDbLine
 10
2065.606028397859
 20
1106.530742532495
 30
0.0
 11
2065.615174928146
 21
1105.923243015579
 31
0.0
  0
ARC
  5
A6A
330
A08
100
AcDbEntity
  8
0
  6
Continuous
 62
     7
370
    15
100
AcDbCircle
 10
2060.963989008724
 20
1108.156153234461
 30
0.0
 40
2.272650926332873
100
AcDbArc
 50
288.3520579106953
 51
310.1093558468002
  0
ELLIPSE
  5
A6B
330
A08
100
AcDbEntity
  8
0
  6
Continuous
 62
     7
370
    15
100
AcDbEllipse
 10
2060.502207114377
 20
1098.394676911243
 30
0.0
 11
1.074564309569126
 21
39.6703980354348
 31
0.0
210
0.0
220
0.0
230
1.0
 40
0.0439574551603157
 41
4.917233815477378
 42
4.9442064297544
  0
LWPOLYLINE
  5
A6C
330
A08
100
AcDbEntity
  8
0
  6
Continuous
 62
     7
370
    15
100
AcDbPolyline
 90
       19
 70
   128
 43
0.0
 10
2059.113520149738
 20
1109.156893844552
 10
2059.42599650425
 20
1109.245648585194
 10
2059.758508902802
 20
1109.309357237348
 10
2060.103937776379
 20
1109.34665570708
 10
2060.454886995643
 20
1109.356745380472
 10
2060.803842232714
 20
1109.339410223096
 10
2061.143331853741
 20
1109.29502140562
 10
2061.466086897331
 20
1109.224529356512
 10
2061.765196713484
 20
1109.129443411997
 10
2062.034256930548
 20
1109.011799498999
 10
2062.267506582034
 20
1108.874116543012
 10
2062.459951457205
 20
1108.71934253428
 10
2062.607471034311
 20
1108.550791407086
 10
2062.706906706892
 20
1108.372072083648
 10
2062.756129414086
 20
1108.187011201898
 10
2062.754085226889
 20
1107.999571181661
 10
2062.700817914292
 20
1107.813765383538
 10
2062.597468006121
 20
1107.633572177085
 10
2062.446248372654
 20
1107.462849758192
  0
ELLIPSE
  5
A6D
330
A08
100
AcDbEntity
  8
0
  6
Continuous
 62
     7
370
    15
100
AcDbEllipse
 10
2060.502207114377
 20
1098.394676911243
 30
0.0
 11
1.074564309569126
 21
39.6703980354348
 31
0.0
210
0.0
220
0.0
230
1.0
 40
0.0439574551603157
 41
1.297253265880433
 42
1.320116314693251
  0
LWPOLYLINE
  5
A6E
330
A08
100
AcDbEntity
  8
0
  6
Continuous
 62
     7
370
    15
100
AcDbPolyline
 90
       19
 70
   128
 43
0.0
 10
2061.609999926419
 20
1106.994897959774
 10
2061.297523571907
 20
1106.906143219132
 10
2060.965011173355
 20
1106.842434566978
 10
2060.619582299779
 20
1106.805136097246
 10
2060.268633080514
 20
1106.795046423854
 10
2059.919677843443
 20
1106.81238158123
 10
2059.580188222417
 20
1106.856770398706
 10
2059.257433178826
 20
1106.927262447814
 10
2058.958323362673
 20
1107.022348392328
 10
2058.689263145609
 20
1107.139992305327
 10
2058.456013494123
 20
1107.277675261314
 10
2058.263568618952
 20
1107.432449270046
 10
2058.116049041846
 20
1107.60100039724
 10
2058.016613369265
 20
1107.779719720678
 10
2057.967390662072
 20
1107.964780602427
 10
2057.969434849268
 20
1108.152220622665
 10
2058.022702161865
 20
1108.338026420788
 10
2058.126052070036
 20
1108.518219627241
 10
2058.277271703503
 20
1108.688942046134
  0
ELLIPSE
  5
A6F
330
A08
100
AcDbEntity
  8
0
  6
Continuous
 62
     7
370
    15
100
AcDbEllipse
 10
2060.502207114377
 20
1098.394676911242
 30
0.0
 11
-2.277933147015971
 21
37.79896383410243
 31
0.0
210
0.0
220
0.0
230
1.0
 40
0.0439908974369745
 41
4.912300048224406
 42
4.93927266250143
  0
LINE
  5
A70
330
A08
100
AcDbEntity
  8
0
  6
Continuous
 62
     7
370
    15
100
AcDbLine
 10
2059.029613904623
 20
1107.6367562549
 30
0.0
 11
2059.603285055947
 21
1107.34515605338
 31
0.0
  0
LINE
  5
A71
330
A08
100
AcDbEntity
  8
0
  6
Continuous
 62
     7
370
    15
100
AcDbLine
 10
2059.603285055947
 20
1107.34515605338
 30
0.0
 11
2060.230471390623
 21
1107.696119902193
 31
0.0
  0
LINE
  5
A72
330
A08
100
AcDbEntity
  8
0
  6
Continuous
 62
     7
370
    15
100
AcDbLine
 10
2060.230471390623
 20
1107.696119902193
 30
0.0
 11
2061.609999926419
 21
1106.994897959774
 31
0.0
  0
LINE
  5
A73
330
A08
100
AcDbEntity
  8
0
  6
Continuous
 62
     7
370
    15
100
AcDbLine
 10
2058.277271703503
 20
1108.688942046134
 30
0.0
 11
2059.656800239299
 21
1107.987720103714
 31
0.0
  0
LINE
  5
A74
330
A08
100
AcDbEntity
  8
0
  6
Continuous
 62
     7
370
    15
100
AcDbLine
 10
2059.656800239299
 20
1107.987720103714
 30
0.0
 11
2059.029613904623
 21
1107.6367562549
 31
0.0
  0
LINE
  5
A75
330
A08
100
AcDbEntity
  8
0
  6
Continuous
 62
     7
370
    15
100
AcDbLine
 10
2062.428141016858
 20
1106.417992962784
 30
0.0
 11
2061.621750528355
 21
1106.827885683395
 31
0.0
  0
LINE
  5
A76
330
A08
100
AcDbEntity
  8
0
  6
Continuous
 62
     7
370
    15
100
AcDbLine
 10
2060.079669943511
 20
1107.611733726413
 30
0.0
 11
2059.674178192073
 21
1107.817847413952
 31
0.0
  0
LINE
  5
A77
330
A08
100
AcDbEntity
  8
0
  6
Continuous
 62
     7
370
    15
100
AcDbLine
 10
2061.031817794505
 20
1107.686019878963
 30
0.0
 11
2060.659842494021
 21
1107.477868208712
 31
0.0
  0
LINE
  5
A78
330
A08
100
AcDbEntity
  8
0
  6
Continuous
 62
     7
370
    15
100
AcDbLine
 10
2062.446248372654
 20
1107.462849758192
 30
0.0
 11
2061.066719836858
 21
1108.164071700612
 31
0.0
  0
LINE
  5
A79
330
A08
100
AcDbEntity
  8
0
  6
Continuous
 62
     7
370
    15
100
AcDbLine
 10
2061.066719836858
 20
1108.164071700612
 30
0.0
 11
2061.003854304024
 21
1107.303005113556
 31
0.0
  0
LINE
  5
A7A
330
A08
100
AcDbEntity
  8
0
  6
Continuous
 62
     7
370
    15
100
AcDbLine
 10
2060.493048685534
 20
1108.455671902132
 30
0.0
 11
2059.113520149738
 21
1109.156893844552
 31
0.0
  0
LINE
  5
A7B
330
A08
100
AcDbEntity
  8
0
  6
Continuous
 62
     7
370
    15
100
AcDbLine
 10
2061.066719836858
 20
1108.164071700612
 30
0.0
 11
2061.693906171534
 21
1108.515035549425
 31
0.0
  0
LINE
  5
A7C
330
A08
100
AcDbEntity
  8
0
  6
Continuous
 62
     7
370
    15
100
AcDbLine
 10
2061.693906171534
 20
1108.515035549425
 30
0.0
 11
2061.12023502021
 21
1108.806635750946
 31
0.0
  0
LINE
  5
A7D
330
A08
100
AcDbEntity
  8
0
  6
Continuous
 62
     7
370
    15
100
AcDbLine
 10
2061.12023502021
 20
1108.806635750946
 30
0.0
 11
2060.493048685534
 21
1108.455671902132
 31
0.0
  0
ARC
  5
A7E
330
A08
100
AcDbEntity
  8
0
  6
Continuous
 62
     7
370
    15
100
AcDbCircle
 10
2059.287781676882
 20
1099.96809733308
 30
0.0
 40
1.273693623000288
100
AcDbArc
 50
239.2388213483916
 51
283.9669726329368
  0
LWPOLYLINE
  5
A7F
330
A08
100
AcDbEntity
  8
0
  6
Continuous
 62
     7
370
    15
100
AcDbPolyline
 90
       17
 70
   128
 43
0.0
 10
2057.270478702371
 20
1102.878970190406
 10
2057.188836270622
 20
1102.794731367826
 10
2057.061501572682
 20
1102.608289363389
 10
2056.967104259078
 20
1102.385503967257
 10
2056.90765624466
 20
1102.131123463361
 10
2056.884424560645
 20
1101.850569530498
 10
2056.897904350044
 20
1101.549821688663
 10
2056.94780831455
 20
1101.235289855962
 10
2057.033072837799
 20
1100.913677732334
 10
2057.151880654511
 20
1100.591839921828
 10
2057.30169958234
 20
1100.276635838615
 10
2057.479336490948
 20
1099.974783510488
 10
2057.681005358033
 20
1099.692716395759
 10
2057.902407961819
 20
1099.436446265268
 10
2058.138825490196
 20
1099.211435071924
 10
2058.385219114002
 20
1099.022478538658
 10
2058.636337380923
 20
1098.873603945921
  0
LINE
  5
A80
330
A08
100
AcDbEntity
  8
0
  6
Continuous
 62
     7
370
    15
100
AcDbLine
 10
2059.656800239299
 20
1107.987720103714
 30
0.0
 11
2059.716077595398
 21
1107.408273027674
 31
0.0
  0
LINE
  5
A81
330
A08
100
AcDbEntity
  8
0
  6
Continuous
 62
     7
370
    15
100
AcDbLine
 10
2060.493048685534
 20
1108.455671902132
 30
0.0
 11
2060.506597734514
 21
1107.555763362845
 31
0.0
  0
LINE
  5
A82
330
A08
100
AcDbEntity
  8
0
  6
Continuous
 62
     7
370
    15
100
AcDbLine
 10
2061.12023502021
 20
1108.806635750946
 30
0.0
 11
2061.129381550497
 21
1108.199136234031
 31
0.0
  0
ARC
  5
A83
330
A08
100
AcDbEntity
  8
0
  6
Continuous
 62
     7
370
    15
100
AcDbCircle
 10
2056.478195631075
 20
1110.432046452912
 30
0.0
 40
2.272650926332729
100
AcDbArc
 50
288.3520579106953
 51
310.1093558468002
  0
ELLIPSE
  5
A84
330
A08
100
AcDbEntity
  8
0
  6
Continuous
 62
     7
370
    15
100
AcDbEllipse
 10
2056.016413736728
 20
1100.670570129694
 30
0.0
 11
1.074564309569126
 21
39.6703980354348
 31
0.0
210
0.0
220
0.0
230
1.0
 40
0.0439574551603157
 41
4.917233815477377
 42
4.9442064297544
  0
LWPOLYLINE
  5
A85
330
A08
100
AcDbEntity
  8
0
  6
Continuous
 62
     7
370
    15
100
AcDbPolyline
 90
       19
 70
   128
 43
0.0
 10
2054.627726772089
 20
1111.432787063003
 10
2054.940203126601
 20
1111.521541803645
 10
2055.272715525153
 20
1111.585250455799
 10
2055.618144398729
 20
1111.622548925532
 10
2055.969093617993
 20
1111.632638598924
 10
2056.318048855065
 20
1111.615303441547
 10
2056.657538476091
 20
1111.570914624071
 10
2056.980293519682
 20
1111.500422574963
 10
2057.279403335836
 20
1111.405336630449
 10
2057.548463552899
 20
1111.287692717451
 10
2057.781713204385
 20
1111.150009761463
 10
2057.974158079556
 20
1110.995235752731
 10
2058.121677656663
 20
1110.826684625538
 10
2058.221113329243
 20
1110.647965302099
 10
2058.270336036437
 20
1110.46290442035
 10
2058.268291849239
 20
1110.275464400112
 10
2058.215024536643
 20
1110.089658601989
 10
2058.111674628472
 20
1109.909465395537
 10
2057.960454995005
 20
1109.738742976643
  0
ELLIPSE
  5
A86
330
A08
100
AcDbEntity
  8
0
  6
Continuous
 62
     7
370
    15
100
AcDbEllipse
 10
2056.016413736728
 20
1100.670570129694
 30
0.0
 11
1.074564309569126
 21
39.6703980354348
 31
0.0
210
0.0
220
0.0
230
1.0
 40
0.0439574551603157
 41
1.297253265880432
 42
1.32011631469325
  0
LWPOLYLINE
  5
A87
330
A08
100
AcDbEntity
  8
0
  6
Continuous
 62
     7
370
    15
100
AcDbPolyline
 90
       19
 70
   128
 43
0.0
 10
2057.12420654877
 20
1109.270791178225
 10
2056.811730194258
 20
1109.182036437583
 10
2056.479217795706
 20
1109.118327785429
 10
2056.13378892213
 20
1109.081029315697
 10
2055.782839702866
 20
1109.070939642305
 10
2055.433884465794
 20
1109.088274799681
 10
2055.094394844767
 20
1109.132663617157
 10
2054.771639801177
 20
1109.203155666266
 10
2054.472529985023
 20
1109.29824161078
 10
2054.20346976796
 20
1109.415885523778
 10
2053.970220116474
 20
1109.553568479765
 10
2053.777775241303
 20
1109.708342488497
 10
2053.630255664196
 20
1109.876893615691
 10
2053.530819991616
 20
1110.055612939129
 10
2053.481597284422
 20
1110.240673820879
 10
2053.483641471619
 20
1110.428113841116
 10
2053.536908784217
 20
1110.613919639239
 10
2053.640258692388
 20
1110.794112845692
 10
2053.791478325854
 20
1110.964835264585
  0
ELLIPSE
  5
A88
330
A08
100
AcDbEntity
  8
0
  6
Continuous
 62
     7
370
    15
100
AcDbEllipse
 10
2056.016413736728
 20
1100.670570129694
 30
0.0
 11
-2.277933147015943
 21
37.79896383410241
 31
0.0
210
0.0
220
0.0
230
1.0
 40
0.0439908974369742
 41
4.912300048224405
 42
4.939272662501425
  0
LINE
  5
A89
330
A08
100
AcDbEntity
  8
0
  6
Continuous
 62
     7
370
    15
100
AcDbLine
 10
2054.543820526975
 20
1109.912649473352
 30
0.0
 11
2055.117491678299
 21
1109.621049271831
 31
0.0
  0
LINE
  5
A8A
330
A08
100
AcDbEntity
  8
0
  6
Continuous
 62
     7
370
    15
100
AcDbLine
 10
2055.117491678299
 20
1109.621049271831
 30
0.0
 11
2055.744678012974
 21
1109.972013120645
 31
0.0
  0
LINE
  5
A8B
330
A08
100
AcDbEntity
  8
0
  6
Continuous
 62
     7
370
    15
100
AcDbLine
 10
2055.744678012974
 20
1109.972013120645
 30
0.0
 11
2057.12420654877
 21
1109.270791178225
 31
0.0
  0
LINE
  5
A8C
330
A08
100
AcDbEntity
  8
0
  6
Continuous
 62
     7
370
    15
100
AcDbLine
 10
2053.791478325854
 20
1110.964835264585
 30
0.0
 11
2055.17100686165
 21
1110.263613322165
 31
0.0
  0
LINE
  5
A8D
330
A08
100
AcDbEntity
  8
0
  6
Continuous
 62
     7
370
    15
100
AcDbLine
 10
2055.17100686165
 20
1110.263613322165
 30
0.0
 11
2054.543820526975
 21
1109.912649473352
 31
0.0
  0
LINE
  5
A8E
330
A08
100
AcDbEntity
  8
0
  6
Continuous
 62
     7
370
    15
100
AcDbLine
 10
2057.94234763921
 20
1108.693886181235
 30
0.0
 11
2057.135957150705
 21
1109.103778901846
 31
0.0
  0
LINE
  5
A8F
330
A08
100
AcDbEntity
  8
0
  6
Continuous
 62
     7
370
    15
100
AcDbLine
 10
2055.593876565862
 20
1109.887626944864
 30
0.0
 11
2055.188384814425
 21
1110.093740632403
 31
0.0
  0
LINE
  5
A90
330
A08
100
AcDbEntity
  8
0
  6
Continuous
 62
     7
370
    15
100
AcDbLine
 10
2056.546024416856
 20
1109.961913097415
 30
0.0
 11
2056.174049116371
 21
1109.753761427164
 31
0.0
  0
LINE
  5
A91
330
A08
100
AcDbEntity
  8
0
  6
Continuous
 62
     7
370
    15
100
AcDbLine
 10
2057.960454995005
 20
1109.738742976643
 30
0.0
 11
2056.580926459209
 21
1110.439964919063
 31
0.0
  0
LINE
  5
A92
330
A08
100
AcDbEntity
  8
0
  6
Continuous
 62
     7
370
    15
100
AcDbLine
 10
2056.580926459209
 20
1110.439964919063
 30
0.0
 11
2056.518060926375
 21
1109.578898332007
 31
0.0
  0
LINE
  5
A93
330
A08
100
AcDbEntity
  8
0
  6
Continuous
 62
     7
370
    15
100
AcDbLine
 10
2056.007255307884
 20
1110.731565120584
 30
0.0
 11
2054.627726772089
 21
1111.432787063003
 31
0.0
  0
LINE
  5
A94
330
A08
100
AcDbEntity
  8
0
  6
Continuous
 62
     7
370
    15
100
AcDbLine
 10
2056.580926459209
 20
1110.439964919063
 30
0.0
 11
2057.208112793885
 21
1110.790928767877
 31
0.0
  0
LINE
  5
A95
330
A08
100
AcDbEntity
  8
0
  6
Continuous
 62
     7
370
    15
100
AcDbLine
 10
2057.208112793885
 20
1110.790928767877
 30
0.0
 11
2056.634441642561
 21
1111.082528969397
 31
0.0
  0
LINE
  5
A96
330
A08
100
AcDbEntity
  8
0
  6
Continuous
 62
     7
370
    15
100
AcDbLine
 10
2056.634441642561
 20
1111.082528969397
 30
0.0
 11
2056.007255307884
 21
1110.731565120584
 31
0.0
  0
ARC
  5
A97
330
A08
100
AcDbEntity
  8
0
  6
Continuous
 62
     7
370
    15
100
AcDbCircle
 10
2054.801988299232
 20
1102.243990551531
 30
0.0
 40
1.273693622999666
100
AcDbArc
 50
239.2388213483804
 51
283.9669726329905
  0
LWPOLYLINE
  5
A98
330
A08
100
AcDbEntity
  8
0
  6
Continuous
 62
     7
370
    15
100
AcDbPolyline
 90
       17
 70
   128
 43
0.0
 10
2052.784685324723
 20
1105.154863408858
 10
2052.703042892973
 20
1105.070624586278
 10
2052.575708195033
 20
1104.88418258184
 10
2052.481310881429
 20
1104.661397185708
 10
2052.421862867011
 20
1104.407016681812
 10
2052.398631182996
 20
1104.126462748949
 10
2052.412110972396
 20
1103.825714907115
 10
2052.462014936901
 20
1103.511183074414
 10
2052.54727946015
 20
1103.189570950786
 10
2052.666087276862
 20
1102.867733140279
 10
2052.815906204691
 20
1102.552529057066
 10
2052.993543113299
 20
1102.250676728939
 10
2053.195211980384
 20
1101.96860961421
 10
2053.41661458417
 20
1101.71233948372
 10
2053.653032112547
 20
1101.487328290375
 10
2053.899425736354
 20
1101.29837175711
 10
2054.150544003274
 20
1101.149497164373
  0
LINE
  5
A99
330
A08
100
AcDbEntity
  8
0
  6
Continuous
 62
     7
370
    15
100
AcDbLine
 10
2055.17100686165
 20
1110.263613322165
 30
0.0
 11
2055.230284217749
 21
1109.684166246125
 31
0.0
  0
LINE
  5
A9A
330
A08
100
AcDbEntity
  8
0
  6
Continuous
 62
     7
370
    15
100
AcDbLine
 10
2056.007255307884
 20
1110.731565120584
 30
0.0
 11
2056.020804356865
 21
1109.831656581297
 31
0.0
  0
LINE
  5
A9B
330
A08
100
AcDbEntity
  8
0
  6
Continuous
 62
     7
370
    15
100
AcDbLine
 10
2056.634441642561
 20
1111.082528969397
 30
0.0
 11
2056.643588172848
 21
1110.475029452482
 31
0.0
  0
ARC
  5
A9C
330
A08
100
AcDbEntity
  8
0
  6
Continuous
 62
     7
370
    15
100
AcDbCircle
 10
2051.992402253425
 20
1112.707939671364
 30
0.0
 40
2.272650926332769
100
AcDbArc
 50
288.3520579106829
 51
310.1093558468002
  0
ELLIPSE
  5
A9D
330
A08
100
AcDbEntity
  8
0
  6
Continuous
 62
     7
370
    15
100
AcDbEllipse
 10
2051.530620359079
 20
1102.946463348145
 30
0.0
 11
1.074564309569126
 21
39.67039803543478
 31
0.0
210
0.0
220
0.0
230
1.0
 40
0.0439574551603157
 41
4.917233815477375
 42
4.9442064297544
  0
LWPOLYLINE
  5
A9E
330
A08
100
AcDbEntity
  8
0
  6
Continuous
 62
     7
370
    15
100
AcDbPolyline
 90
       19
 70
   128
 43
0.0
 10
2050.141933394439
 20
1113.708680281455
 10
2050.454409748952
 20
1113.797435022096
 10
2050.786922147504
 20
1113.861143674251
 10
2051.13235102108
 20
1113.898442143983
 10
2051.483300240344
 20
1113.908531817375
 10
2051.832255477416
 20
1113.891196659999
 10
2052.171745098442
 20
1113.846807842523
 10
2052.494500142033
 20
1113.776315793414
 10
2052.793609958186
 20
1113.6812298489
 10
2053.06267017525
 20
1113.563585935902
 10
2053.295919826736
 20
1113.425902979915
 10
2053.488364701907
 20
1113.271128971183
 10
2053.635884279013
 20
1113.102577843989
 10
2053.735319951594
 20
1112.923858520551
 10
2053.784542658787
 20
1112.738797638801
 10
2053.782498471591
 20
1112.551357618563
 10
2053.729231158994
 20
1112.36555182044
 10
2053.625881250822
 20
1112.185358613988
 10
2053.474661617356
 20
1112.014636195095
  0
ELLIPSE
  5
A9F
330
A08
100
AcDbEntity
  8
0
  6
Continuous
 62
     7
370
    15
100
AcDbEllipse
 10
2051.530620359079
 20
1102.946463348145
 30
0.0
 11
1.074564309569126
 21
39.67039803543478
 31
0.0
210
0.0
220
0.0
230
1.0
 40
0.0439574551603157
 41
1.297253265880433
 42
1.32011631469325
  0
LWPOLYLINE
  5
AA0
330
A08
100
AcDbEntity
  8
0
  6
Continuous
 62
     7
370
    15
100
AcDbPolyline
 90
       19
 70
   128
 43
0.0
 10
2052.638413171121
 20
1111.546684396677
 10
2052.325936816608
 20
1111.457929656035
 10
2051.993424418057
 20
1111.394221003881
 10
2051.647995544481
 20
1111.356922534149
 10
2051.297046325216
 20
1111.346832860756
 10
2050.948091088145
 20
1111.364168018132
 10
2050.608601467118
 20
1111.408556835609
 10
2050.285846423527
 20
1111.479048884717
 10
2049.986736607374
 20
1111.574134829231
 10
2049.717676390311
 20
1111.691778742229
 10
2049.484426738825
 20
1111.829461698217
 10
2049.291981863653
 20
1111.984235706948
 10
2049.144462286548
 20
1112.152786834142
 10
2049.045026613967
 20
1112.33150615758
 10
2048.995803906773
 20
1112.51656703933
 10
2048.99784809397
 20
1112.704007059568
 10
2049.051115406567
 20
1112.889812857691
 10
2049.154465314738
 20
1113.070006064143
 10
2049.305684948205
 20
1113.240728483037
  0
ELLIPSE
  5
AA1
330
A08
100
AcDbEntity
  8
0
  6
Continuous
 62
     7
370
    15
100
AcDbEllipse
 10
2051.530620359079
 20
1102.946463348145
 30
0.0
 11
-2.277933147015972
 21
37.79896383410241
 31
0.0
210
0.0
220
0.0
230
1.0
 40
0.0439908974369746
 41
4.912300048224408
 42
4.93927266250143
  0
LINE
  5
AA2
330
A08
100
AcDbEntity
  8
0
  6
Continuous
 62
     7
370
    15
100
AcDbLine
 10
2050.058027149325
 20
1112.188542691803
 30
0.0
 11
2050.631698300649
 21
1111.896942490282
 31
0.0
  0
LINE
  5
AA3
330
A08
100
AcDbEntity
  8
0
  6
Continuous
 62
     7
370
    15
100
AcDbLine
 10
2050.631698300649
 20
1111.896942490282
 30
0.0
 11
2051.258884635325
 21
1112.247906339096
 31
0.0
  0
LINE
  5
AA4
330
A08
100
AcDbEntity
  8
0
  6
Continuous
 62
     7
370
    15
100
AcDbLine
 10
2051.258884635325
 20
1112.247906339096
 30
0.0
 11
2052.638413171121
 21
1111.546684396677
 31
0.0
  0
LINE
  5
AA5
330
A08
100
AcDbEntity
  8
0
  6
Continuous
 62
     7
370
    15
100
AcDbLine
 10
2049.305684948205
 20
1113.240728483037
 30
0.0
 11
2050.685213484001
 21
1112.539506540617
 31
0.0
  0
LINE
  5
AA6
330
A08
100
AcDbEntity
  8
0
  6
Continuous
 62
     7
370
    15
100
AcDbLine
 10
2050.685213484001
 20
1112.539506540617
 30
0.0
 11
2050.058027149325
 21
1112.188542691803
 31
0.0
  0
LINE
  5
AA7
330
A08
100
AcDbEntity
  8
0
  6
Continuous
 62
     7
370
    15
100
AcDbLine
 10
2053.45655426156
 20
1110.969779399687
 30
0.0
 11
2052.650163773057
 21
1111.379672120297
 31
0.0
  0
LINE
  5
AA8
330
A08
100
AcDbEntity
  8
0
  6
Continuous
 62
     7
370
    15
100
AcDbLine
 10
2051.108083188213
 20
1112.163520163315
 30
0.0
 11
2050.702591436775
 21
1112.369633850854
 31
0.0
  0
LINE
  5
AA9
330
A08
100
AcDbEntity
  8
0
  6
Continuous
 62
     7
370
    15
100
AcDbLine
 10
2052.060231039207
 20
1112.237806315866
 30
0.0
 11
2051.688255738723
 21
1112.029654645615
 31
0.0
  0
LINE
  5
AAA
330
A08
100
AcDbEntity
  8
0
  6
Continuous
 62
     7
370
    15
100
AcDbLine
 10
2053.474661617356
 20
1112.014636195095
 30
0.0
 11
2052.095133081559
 21
1112.715858137514
 31
0.0
  0
LINE
  5
AAB
330
A08
100
AcDbEntity
  8
0
  6
Continuous
 62
     7
370
    15
100
AcDbLine
 10
2052.095133081559
 20
1112.715858137514
 30
0.0
 11
2052.032267548726
 21
1111.854791550459
 31
0.0
  0
LINE
  5
AAC
330
A08
100
AcDbEntity
  8
0
  6
Continuous
 62
     7
370
    15
100
AcDbLine
 10
2051.521461930235
 20
1113.007458339035
 30
0.0
 11
2050.141933394439
 21
1113.708680281455
 31
0.0
  0
LINE
  5
AAD
330
A08
100
AcDbEntity
  8
0
  6
Continuous
 62
     7
370
    15
100
AcDbLine
 10
2052.095133081559
 20
1112.715858137514
 30
0.0
 11
2052.722319416236
 21
1113.066821986328
 31
0.0
  0
LINE
  5
AAE
330
A08
100
AcDbEntity
  8
0
  6
Continuous
 62
     7
370
    15
100
AcDbLine
 10
2052.722319416236
 20
1113.066821986328
 30
0.0
 11
2052.148648264912
 21
1113.358422187849
 31
0.0
  0
LINE
  5
AAF
330
A08
100
AcDbEntity
  8
0
  6
Continuous
 62
     7
370
    15
100
AcDbLine
 10
2052.148648264912
 20
1113.358422187849
 30
0.0
 11
2051.521461930235
 21
1113.007458339035
 31
0.0
  0
ARC
  5
AB0
330
A08
100
AcDbEntity
  8
0
  6
Continuous
 62
     7
370
    15
100
AcDbCircle
 10
2050.316194921583
 20
1104.519883769983
 30
0.0
 40
1.273693622999943
100
AcDbArc
 50
239.2388213483804
 51
283.9669726329652
  0
LWPOLYLINE
  5
AB1
330
A08
100
AcDbEntity
  8
0
  6
Continuous
 62
     7
370
    15
100
AcDbPolyline
 90
       17
 70
   128
 43
0.0
 10
2048.298891947073
 20
1107.430756627309
 10
2048.217249515324
 20
1107.346517804729
 10
2048.089914817385
 20
1107.160075800291
 10
2047.99551750378
 20
1106.93729040416
 10
2047.936069489362
 20
1106.682909900264
 10
2047.912837805347
 20
1106.402355967401
 10
2047.926317594746
 20
1106.101608125566
 10
2047.976221559252
 20
1105.787076292865
 10
2048.061486082501
 20
1105.465464169237
 10
2048.180293899213
 20
1105.143626358731
 10
2048.330112827042
 20
1104.828422275518
 10
2048.50774973565
 20
1104.52656994739
 10
2048.709418602735
 20
1104.244502832662
 10
2048.930821206521
 20
1103.988232702171
 10
2049.167238734898
 20
1103.763221508826
 10
2049.413632358704
 20
1103.574264975561
 10
2049.664750625625
 20
1103.425390382824
  0
LINE
  5
AB2
330
A08
100
AcDbEntity
  8
0
  6
Continuous
 62
     7
370
    15
100
AcDbLine
 10
2050.685213484001
 20
1112.539506540617
 30
0.0
 11
2050.7444908401
 21
1111.960059464576
 31
0.0
  0
LINE
  5
AB3
330
A08
100
AcDbEntity
  8
0
  6
Continuous
 62
     7
370
    15
100
AcDbLine
 10
2051.521461930235
 20
1113.007458339035
 30
0.0
 11
2051.535010979216
 21
1112.107549799748
 31
0.0
  0
LINE
  5
AB4
330
A08
100
AcDbEntity
  8
0
  6
Continuous
 62
     7
370
    15
100
AcDbLine
 10
2052.148648264912
 20
1113.358422187849
 30
0.0
 11
2052.157794795199
 21
1112.750922670933
 31
0.0
  0
ARC
  5
AB5
330
A08
100
AcDbEntity
  8
0
  6
Continuous
 62
     7
370
    15
100
AcDbCircle
 10
2047.506608875776
 20
1114.983832889816
 30
0.0
 40
2.272650926333115
100
AcDbArc
 50
288.3520579106953
 51
310.1093558468002
  0
ELLIPSE
  5
AB6
330
A08
100
AcDbEntity
  8
0
  6
Continuous
 62
     7
370
    15
100
AcDbEllipse
 10
2047.044826981429
 20
1105.222356566597
 30
0.0
 11
1.07456430956914
 21
39.6703980354348
 31
0.0
210
0.0
220
0.0
230
1.0
 40
0.0439574551603157
 41
4.917233815477377
 42
4.944206429754399
  0
LWPOLYLINE
  5
AB7
330
A08
100
AcDbEntity
  8
0
  6
Continuous
 62
     7
370
    15
100
AcDbPolyline
 90
       19
 70
   128
 43
0.0
 10
2045.65614001679
 20
1115.984573499906
 10
2045.968616371303
 20
1116.073328240548
 10
2046.301128769855
 20
1116.137036892702
 10
2046.64655764343
 20
1116.174335362434
 10
2046.997506862695
 20
1116.184425035827
 10
2047.346462099767
 20
1116.16708987845
 10
2047.685951720794
 20
1116.122701060974
 10
2048.008706764384
 20
1116.052209011866
 10
2048.307816580537
 20
1115.957123067351
 10
2048.5768767976
 20
1115.839479154353
 10
2048.810126449087
 20
1115.701796198366
 10
2049.002571324258
 20
1115.547022189634
 10
2049.150090901365
 20
1115.378471062441
 10
2049.249526573944
 20
1115.199751739002
 10
2049.298749281138
 20
1115.014690857252
 10
2049.296705093942
 20
1114.827250837015
 10
2049.243437781344
 20
1114.641445038892
 10
2049.140087873174
 20
1114.461251832439
 10
2048.988868239707
 20
1114.290529413546
  0
ELLIPSE
  5
AB8
330
A08
100
AcDbEntity
  8
0
  6
Continuous
 62
     7
370
    15
100
AcDbEllipse
 10
2047.044826981429
 20
1105.222356566597
 30
0.0
 11
1.07456430956914
 21
39.6703980354348
 31
0.0
210
0.0
220
0.0
230
1.0
 40
0.0439574551603157
 41
1.297253265880431
 42
1.320116314693249
  0
LWPOLYLINE
  5
AB9
330
A08
100
AcDbEntity
  8
0
  6
Continuous
 62
     7
370
    15
100
AcDbPolyline
 90
       19
 70
   128
 43
0.0
 10
2048.152619793472
 20
1113.822577615128
 10
2047.840143438959
 20
1113.733822874486
 10
2047.507631040407
 20
1113.670114222332
 10
2047.162202166832
 20
1113.6328157526
 10
2046.811252947567
 20
1113.622726079207
 10
2046.462297710496
 20
1113.640061236584
 10
2046.122808089469
 20
1113.68445005406
 10
2045.800053045878
 20
1113.754942103168
 10
2045.500943229725
 20
1113.850028047683
 10
2045.231883012662
 20
1113.967671960681
 10
2044.998633361176
 20
1114.105354916668
 10
2044.806188486004
 20
1114.2601289254
 10
2044.658668908898
 20
1114.428680052593
 10
2044.559233236318
 20
1114.607399376032
 10
2044.510010529124
 20
1114.792460257782
 10
2044.512054716321
 20
1114.97990027802
 10
2044.565322028918
 20
1115.165706076142
 10
2044.668671937089
 20
1115.345899282595
 10
2044.819891570556
 20
1115.516621701488
  0
ELLIPSE
  5
ABA
330
A08
100
AcDbEntity
  8
0
  6
Continuous
 62
     7
370
    15
100
AcDbEllipse
 10
2047.044826981429
 20
1105.222356566597
 30
0.0
 11
-2.277933147015958
 21
37.79896383410241
 31
0.0
210
0.0
220
0.0
230
1.0
 40
0.0439908974369742
 41
4.912300048224404
 42
4.939272662501426
  0
LINE
  5
ABB
330
A08
100
AcDbEntity
  8
0
  6
Continuous
 62
     7
370
    15
100
AcDbLine
 10
2045.572233771676
 20
1114.464435910254
 30
0.0
 11
2046.145904923
 21
1114.172835708734
 31
0.0
  0
LINE
  5
ABC
330
A08
100
AcDbEntity
  8
0
  6
Continuous
 62
     7
370
    15
100
AcDbLine
 10
2046.145904923
 20
1114.172835708734
 30
0.0
 11
2046.773091257676
 21
1114.523799557548
 31
0.0
  0
LINE
  5
ABD
330
A08
100
AcDbEntity
  8
0
  6
Continuous
 62
     7
370
    15
100
AcDbLine
 10
2046.773091257676
 20
1114.523799557548
 30
0.0
 11
2048.152619793472
 21
1113.822577615128
 31
0.0
  0
LINE
  5
ABE
330
A08
100
AcDbEntity
  8
0
  6
Continuous
 62
     7
370
    15
100
AcDbLine
 10
2044.819891570556
 20
1115.516621701488
 30
0.0
 11
2046.199420106352
 21
1114.815399759068
 31
0.0
  0
LINE
  5
ABF
330
A08
100
AcDbEntity
  8
0
  6
Continuous
 62
     7
370
    15
100
AcDbLine
 10
2046.199420106352
 20
1114.815399759068
 30
0.0
 11
2045.572233771676
 21
1114.464435910254
 31
0.0
  0
LINE
  5
AC0
330
A08
100
AcDbEntity
  8
0
  6
Continuous
 62
     7
370
    15
100
AcDbLine
 10
2048.970760883911
 20
1113.245672618138
 30
0.0
 11
2048.164370395407
 21
1113.655565338748
 31
0.0
  0
LINE
  5
AC1
330
A08
100
AcDbEntity
  8
0
  6
Continuous
 62
     7
370
    15
100
AcDbLine
 10
2046.622289810564
 20
1114.439413381767
 30
0.0
 11
2046.216798059126
 21
1114.645527069306
 31
0.0
  0
LINE
  5
AC2
330
A08
100
AcDbEntity
  8
0
  6
Continuous
 62
     7
370
    15
100
AcDbLine
 10
2047.574437661558
 20
1114.513699534318
 30
0.0
 11
2047.202462361074
 21
1114.305547864066
 31
0.0
  0
LINE
  5
AC3
330
A08
100
AcDbEntity
  8
0
  6
Continuous
 62
     7
370
    15
100
AcDbLine
 10
2048.988868239707
 20
1114.290529413546
 30
0.0
 11
2047.60933970391
 21
1114.991751355966
 31
0.0
  0
LINE
  5
AC4
330
A08
100
AcDbEntity
  8
0
  6
Continuous
 62
     7
370
    15
100
AcDbLine
 10
2047.60933970391
 20
1114.991751355966
 30
0.0
 11
2047.546474171077
 21
1114.13068476891
 31
0.0
  0
LINE
  5
AC5
330
A08
100
AcDbEntity
  8
0
  6
Continuous
 62
     7
370
    15
100
AcDbLine
 10
2047.035668552586
 20
1115.283351557486
 30
0.0
 11
2045.65614001679
 21
1115.984573499906
 31
0.0
  0
LINE
  5
AC6
330
A08
100
AcDbEntity
  8
0
  6
Continuous
 62
     7
370
    15
100
AcDbLine
 10
2047.60933970391
 20
1114.991751355966
 30
0.0
 11
2048.236526038587
 21
1115.342715204779
 31
0.0
  0
LINE
  5
AC7
330
A08
100
AcDbEntity
  8
0
  6
Continuous
 62
     7
370
    15
100
AcDbLine
 10
2048.236526038587
 20
1115.342715204779
 30
0.0
 11
2047.662854887262
 21
1115.6343154063
 31
0.0
  0
LINE
  5
AC8
330
A08
100
AcDbEntity
  8
0
  6
Continuous
 62
     7
370
    15
100
AcDbLine
 10
2047.662854887262
 20
1115.6343154063
 30
0.0
 11
2047.035668552586
 21
1115.283351557486
 31
0.0
  0
ARC
  5
AC9
330
A08
100
AcDbEntity
  8
0
  6
Continuous
 62
     7
370
    15
100
AcDbCircle
 10
2045.830401543934
 20
1106.795776988435
 30
0.0
 40
1.273693623000736
100
AcDbArc
 50
239.2388213483916
 51
283.9669726329368
  0
LWPOLYLINE
  5
ACA
330
A08
100
AcDbEntity
  8
0
  6
Continuous
 62
     7
370
    15
100
AcDbPolyline
 90
       17
 70
   128
 43
0.0
 10
2043.813098569424
 20
1109.70664984576
 10
2043.731456137675
 20
1109.62241102318
 10
2043.604121439735
 20
1109.435969018743
 10
2043.509724126131
 20
1109.213183622611
 10
2043.450276111713
 20
1108.958803118715
 10
2043.427044427698
 20
1108.678249185852
 10
2043.440524217097
 20
1108.377501344017
 10
2043.490428181603
 20
1108.062969511316
 10
2043.575692704852
 20
1107.741357387688
 10
2043.694500521564
 20
1107.419519577182
 10
2043.844319449393
 20
1107.104315493969
 10
2044.021956358001
 20
1106.802463165841
 10
2044.223625225086
 20
1106.520396051113
 10
2044.445027828872
 20
1106.264125920622
 10
2044.681445357249
 20
1106.039114727278
 10
2044.927838981055
 20
1105.850158194012
 10
2045.178957247975
 20
1105.701283601276
  0
LINE
  5
ACB
330
A08
100
AcDbEntity
  8
0
  6
Continuous
 62
     7
370
    15
100
AcDbLine
 10
2046.199420106352
 20
1114.815399759068
 30
0.0
 11
2046.258697462451
 21
1114.235952683028
 31
0.0
  0
LINE
  5
ACC
330
A08
100
AcDbEntity
  8
0
  6
Continuous
 62
     7
370
    15
100
AcDbLine
 10
2047.035668552586
 20
1115.283351557486
 30
0.0
 11
2047.049217601567
 21
1114.3834430182
 31
0.0
  0
LINE
  5
ACD
330
A08
100
AcDbEntity
  8
0
  6
Continuous
 62
     7
370
    15
100
AcDbLine
 10
2047.662854887262
 20
1115.6343154063
 30
0.0
 11
2047.67200141755
 21
1115.026815889385
 31
0.0
  0
ARC
  5
ACE
330
A08
100
AcDbEntity
  8
0
  6
Continuous
 62
     7
370
    15
100
AcDbCircle
 10
2043.020815498128
 20
1117.259726108266
 30
0.0
 40
2.272650926332164
100
AcDbArc
 50
288.3520579106829
 51
310.1093558468002
  0
ELLIPSE
  5
ACF
330
A08
100
AcDbEntity
  8
0
  6
Continuous
 62
     7
370
    15
100
AcDbEllipse
 10
2042.55903360378
 20
1107.498249785048
 30
0.0
 11
1.074564309569126
 21
39.6703980354348
 31
0.0
210
0.0
220
0.0
230
1.0
 40
0.0439574551603157
 41
4.917233815477376
 42
4.9442064297544
  0
LWPOLYLINE
  5
AD0
330
A08
100
AcDbEntity
  8
0
  6
Continuous
 62
     7
370
    15
100
AcDbPolyline
 90
       19
 70
   128
 43
0.0
 10
2041.170346639141
 20
1118.260466718357
 10
2041.482822993654
 20
1118.349221458999
 10
2041.815335392206
 20
1118.412930111153
 10
2042.160764265782
 20
1118.450228580885
 10
2042.511713485046
 20
1118.460318254278
 10
2042.860668722118
 20
1118.442983096901
 10
2043.200158343144
 20
1118.398594279425
 10
2043.522913386735
 20
1118.328102230317
 10
2043.822023202888
 20
1118.233016285803
 10
2044.091083419951
 20
1118.115372372805
 10
2044.324333071438
 20
1117.977689416817
 10
2044.51677794661
 20
1117.822915408085
 10
2044.664297523715
 20
1117.654364280892
 10
2044.763733196296
 20
1117.475644957453
 10
2044.812955903489
 20
1117.290584075704
 10
2044.810911716293
 20
1117.103144055466
 10
2044.757644403695
 20
1116.917338257343
 10
2044.654294495524
 20
1116.73714505089
 10
2044.503074862058
 20
1116.566422631998
  0
ELLIPSE
  5
AD1
330
A08
100
AcDbEntity
  8
0
  6
Continuous
 62
     7
370
    15
100
AcDbEllipse
 10
2042.55903360378
 20
1107.498249785048
 30
0.0
 11
1.074564309569126
 21
39.6703980354348
 31
0.0
210
0.0
220
0.0
230
1.0
 40
0.0439574551603157
 41
1.297253265880433
 42
1.32011631469325
  0
LWPOLYLINE
  5
AD2
330
A08
100
AcDbEntity
  8
0
  6
Continuous
 62
     7
370
    15
100
AcDbPolyline
 90
       19
 70
   128
 43
0.0
 10
2043.666826415823
 20
1116.098470833579
 10
2043.35435006131
 20
1116.009716092937
 10
2043.021837662758
 20
1115.946007440784
 10
2042.676408789183
 20
1115.908708971051
 10
2042.325459569918
 20
1115.898619297659
 10
2041.976504332847
 20
1115.915954455035
 10
2041.63701471182
 20
1115.960343272512
 10
2041.314259668229
 20
1116.030835321619
 10
2041.015149852076
 20
1116.125921266134
 10
2040.746089635013
 20
1116.243565179132
 10
2040.512839983526
 20
1116.38124813512
 10
2040.320395108355
 20
1116.536022143851
 10
2040.172875531249
 20
1116.704573271045
 10
2040.073439858669
 20
1116.883292594483
 10
2040.024217151475
 20
1117.068353476233
 10
2040.026261338672
 20
1117.255793496471
 10
2040.079528651269
 20
1117.441599294593
 10
2040.18287855944
 20
1117.621792501046
 10
2040.334098192906
 20
1117.792514919939
  0
ELLIPSE
  5
AD3
330
A08
100
AcDbEntity
  8
0
  6
Continuous
 62
     7
370
    15
100
AcDbEllipse
 10
2042.55903360378
 20
1107.498249785048
 30
0.0
 11
-2.277933147015972
 21
37.79896383410239
 31
0.0
210
0.0
220
0.0
230
0.9999999999999998
 40
0.0439908974369746
 41
4.912300048224406
 42
4.939272662501428
  0
LINE
  5
AD4
330
A08
100
AcDbEntity
  8
0
  6
Continuous
 62
     7
370
    15
100
AcDbLine
 10
2041.086440394027
 20
1116.740329128706
 30
0.0
 11
2041.660111545351
 21
1116.448728927185
 31
0.0
  0
LINE
  5
AD5
330
A08
100
AcDbEntity
  8
0
  6
Continuous
 62
     7
370
    15
100
AcDbLine
 10
2041.660111545351
 20
1116.448728927185
 30
0.0
 11
2042.287297880027
 21
1116.799692775999
 31
0.0
  0
LINE
  5
AD6
330
A08
100
AcDbEntity
  8
0
  6
Continuous
 62
     7
370
    15
100
AcDbLine
 10
2042.287297880027
 20
1116.799692775999
 30
0.0
 11
2043.666826415823
 21
1116.098470833579
 31
0.0
  0
LINE
  5
AD7
330
A08
100
AcDbEntity
  8
0
  6
Continuous
 62
     7
370
    15
100
AcDbLine
 10
2040.334098192906
 20
1117.792514919939
 30
0.0
 11
2041.713626728703
 21
1117.091292977519
 31
0.0
  0
LINE
  5
AD8
330
A08
100
AcDbEntity
  8
0
  6
Continuous
 62
     7
370
    15
100
AcDbLine
 10
2041.713626728703
 20
1117.091292977519
 30
0.0
 11
2041.086440394027
 21
1116.740329128706
 31
0.0
  0
LINE
  5
AD9
330
A08
100
AcDbEntity
  8
0
  6
Continuous
 62
     7
370
    15
100
AcDbLine
 10
2044.484967506262
 20
1115.52156583659
 30
0.0
 11
2043.678577017758
 21
1115.9314585572
 31
0.0
  0
LINE
  5
ADA
330
A08
100
AcDbEntity
  8
0
  6
Continuous
 62
     7
370
    15
100
AcDbLine
 10
2042.136496432914
 20
1116.715306600218
 30
0.0
 11
2041.731004681477
 21
1116.921420287757
 31
0.0
  0
LINE
  5
ADB
330
A08
100
AcDbEntity
  8
0
  6
Continuous
 62
     7
370
    15
100
AcDbLine
 10
2043.088644283908
 20
1116.789592752769
 30
0.0
 11
2042.716668983425
 21
1116.581441082518
 31
0.0
  0
LINE
  5
ADC
330
A08
100
AcDbEntity
  8
0
  6
Continuous
 62
     7
370
    15
100
AcDbLine
 10
2044.503074862058
 20
1116.566422631998
 30
0.0
 11
2043.123546326262
 21
1117.267644574417
 31
0.0
  0
LINE
  5
ADD
330
A08
100
AcDbEntity
  8
0
  6
Continuous
 62
     7
370
    15
100
AcDbLine
 10
2043.123546326262
 20
1117.267644574417
 30
0.0
 11
2043.060680793427
 21
1116.406577987361
 31
0.0
  0
LINE
  5
ADE
330
A08
100
AcDbEntity
  8
0
  6
Continuous
 62
     7
370
    15
100
AcDbLine
 10
2042.549875174938
 20
1117.559244775938
 30
0.0
 11
2041.170346639141
 21
1118.260466718357
 31
0.0
  0
LINE
  5
ADF
330
A08
100
AcDbEntity
  8
0
  6
Continuous
 62
     7
370
    15
100
AcDbLine
 10
2043.123546326262
 20
1117.267644574417
 30
0.0
 11
2043.750732660937
 21
1117.618608423231
 31
0.0
  0
LINE
  5
AE0
330
A08
100
AcDbEntity
  8
0
  6
Continuous
 62
     7
370
    15
100
AcDbLine
 10
2043.750732660937
 20
1117.618608423231
 30
0.0
 11
2043.177061509613
 21
1117.910208624751
 31
0.0
  0
LINE
  5
AE1
330
A08
100
AcDbEntity
  8
0
  6
Continuous
 62
     7
370
    15
100
AcDbLine
 10
2043.177061509613
 20
1117.910208624751
 30
0.0
 11
2042.549875174938
 21
1117.559244775938
 31
0.0
  0
ARC
  5
AE2
330
A08
100
AcDbEntity
  8
0
  6
Continuous
 62
     7
370
    15
100
AcDbCircle
 10
2041.344608166284
 20
1109.071670206884
 30
0.0
 40
1.27369362299858
100
AcDbArc
 50
239.2388213483626
 51
283.9669726330032
  0
LWPOLYLINE
  5
AE3
330
A08
100
AcDbEntity
  8
0
  6
Continuous
 62
     7
370
    15
100
AcDbPolyline
 90
       17
 70
   128
 43
0.0
 10
2039.327305191775
 20
1111.982543064212
 10
2039.245662760026
 20
1111.898304241632
 10
2039.118328062086
 20
1111.711862237194
 10
2039.023930748482
 20
1111.489076841063
 10
2038.964482734064
 20
1111.234696337166
 10
2038.941251050049
 20
1110.954142404303
 10
2038.954730839448
 20
1110.653394562469
 10
2039.004634803954
 20
1110.338862729768
 10
2039.089899327203
 20
1110.01725060614
 10
2039.208707143915
 20
1109.695412795633
 10
2039.358526071744
 20
1109.38020871242
 10
2039.536162980352
 20
1109.078356384293
 10
2039.737831847436
 20
1108.796289269564
 10
2039.959234451223
 20
1108.540019139073
 10
2040.1956519796
 20
1108.315007945729
 10
2040.442045603406
 20
1108.126051412464
 10
2040.693163870326
 20
1107.977176819727
  0
LINE
  5
AE4
330
A08
100
AcDbEntity
  8
0
  6
Continuous
 62
     7
370
    15
100
AcDbLine
 10
2041.713626728703
 20
1117.091292977519
 30
0.0
 11
2041.772904084802
 21
1116.511845901479
 31
0.0
  0
LINE
  5
AE5
330
A08
100
AcDbEntity
  8
0
  6
Continuous
 62
     7
370
    15
100
AcDbLine
 10
2042.549875174938
 20
1117.559244775938
 30
0.0
 11
2042.563424223918
 21
1116.659336236651
 31
0.0
  0
LINE
  5
AE6
330
A08
100
AcDbEntity
  8
0
  6
Continuous
 62
     7
370
    15
100
AcDbLine
 10
2043.177061509613
 20
1117.910208624751
 30
0.0
 11
2043.186208039901
 21
1117.302709107836
 31
0.0
  0
ARC
  5
AE7
330
A08
100
AcDbEntity
  8
0
  6
Continuous
 62
     7
370
    15
100
AcDbCircle
 10
2038.535022120479
 20
1119.535619326717
 30
0.0
 40
2.272650926332212
100
AcDbArc
 50
288.3520579106829
 51
310.1093558468002
  0
ELLIPSE
  5
AE8
330
A08
100
AcDbEntity
  8
0
  6
Continuous
 62
     7
370
    15
100
AcDbEllipse
 10
2038.073240226131
 20
1109.7741430035
 30
0.0
 11
1.07456430956914
 21
39.6703980354348
 31
0.0
210
0.0
220
0.0
230
1.0
 40
0.0439574551603161
 41
4.917233815477379
 42
4.9442064297544
  0
LWPOLYLINE
  5
AE9
330
A08
100
AcDbEntity
  8
0
  6
Continuous
 62
     7
370
    15
100
AcDbPolyline
 90
       19
 70
   128
 43
0.0
 10
2036.684553261492
 20
1120.536359936809
 10
2036.997029616005
 20
1120.625114677451
 10
2037.329542014557
 20
1120.688823329604
 10
2037.674970888133
 20
1120.726121799337
 10
2038.025920107397
 20
1120.736211472729
 10
2038.374875344469
 20
1120.718876315353
 10
2038.714364965495
 20
1120.674487497876
 10
2039.037120009086
 20
1120.603995448768
 10
2039.336229825239
 20
1120.508909504254
 10
2039.605290042302
 20
1120.391265591256
 10
2039.838539693789
 20
1120.253582635268
 10
2040.03098456896
 20
1120.098808626537
 10
2040.178504146066
 20
1119.930257499343
 10
2040.277939818647
 20
1119.751538175905
 10
2040.32716252584
 20
1119.566477294155
 10
2040.325118338643
 20
1119.379037273917
 10
2040.271851026046
 20
1119.193231475795
 10
2040.168501117875
 20
1119.013038269342
 10
2040.017281484409
 20
1118.842315850449
  0
ELLIPSE
  5
AEA
330
A08
100
AcDbEntity
  8
0
  6
Continuous
 62
     7
370
    15
100
AcDbEllipse
 10
2038.073240226131
 20
1109.7741430035
 30
0.0
 11
1.07456430956914
 21
39.6703980354348
 31
0.0
210
0.0
220
0.0
230
1.0
 40
0.0439574551603161
 41
1.297253265880429
 42
1.320116314693247
  0
LWPOLYLINE
  5
AEB
330
A08
100
AcDbEntity
  8
0
  6
Continuous
 62
     7
370
    15
100
AcDbPolyline
 90
       19
 70
   128
 43
0.0
 10
2039.181033038174
 20
1118.374364052031
 10
2038.868556683661
 20
1118.285609311389
 10
2038.536044285109
 20
1118.221900659235
 10
2038.190615411534
 20
1118.184602189502
 10
2037.839666192269
 20
1118.17451251611
 10
2037.490710955197
 20
1118.191847673487
 10
2037.151221334171
 20
1118.236236490963
 10
2036.82846629058
 20
1118.306728540071
 10
2036.529356474427
 20
1118.401814484585
 10
2036.260296257364
 20
1118.519458397583
 10
2036.027046605878
 20
1118.657141353571
 10
2035.834601730706
 20
1118.811915362303
 10
2035.6870821536
 20
1118.980466489496
 10
2035.58764648102
 20
1119.159185812935
 10
2035.538423773826
 20
1119.344246694684
 10
2035.540467961023
 20
1119.531686714922
 10
2035.59373527362
 20
1119.717492513045
 10
2035.697085181791
 20
1119.897685719497
 10
2035.848304815258
 20
1120.06840813839
  0
ELLIPSE
  5
AEC
330
A08
100
AcDbEntity
  8
0
  6
Continuous
 62
     7
370
    15
100
AcDbEllipse
 10
2038.073240226131
 20
1109.774143003499
 30
0.0
 11
-2.277933147015957
 21
37.79896383410243
 31
0.0
210
0.0
220
0.0
230
1.0
 40
0.0439908974369741
 41
4.912300048224405
 42
4.939272662501426
  0
LINE
  5
AED
330
A08
100
AcDbEntity
  8
0
  6
Continuous
 62
     7
370
    15
100
AcDbLine
 10
2036.600647016378
 20
1119.016222347157
 30
0.0
 11
2037.174318167702
 21
1118.724622145637
 31
0.0
  0
LINE
  5
AEE
330
A08
100
AcDbEntity
  8
0
  6
Continuous
 62
     7
370
    15
100
AcDbLine
 10
2037.174318167702
 20
1118.724622145637
 30
0.0
 11
2037.801504502378
 21
1119.07558599445
 31
0.0
  0
LINE
  5
AEF
330
A08
100
AcDbEntity
  8
0
  6
Continuous
 62
     7
370
    15
100
AcDbLine
 10
2037.801504502378
 20
1119.07558599445
 30
0.0
 11
2039.181033038174
 21
1118.374364052031
 31
0.0
  0
LINE
  5
AF0
330
A08
100
AcDbEntity
  8
0
  6
Continuous
 62
     7
370
    15
100
AcDbLine
 10
2035.848304815258
 20
1120.06840813839
 30
0.0
 11
2037.227833351054
 21
1119.367186195971
 31
0.0
  0
LINE
  5
AF1
330
A08
100
AcDbEntity
  8
0
  6
Continuous
 62
     7
370
    15
100
AcDbLine
 10
2037.227833351054
 20
1119.367186195971
 30
0.0
 11
2036.600647016378
 21
1119.016222347157
 31
0.0
  0
LINE
  5
AF2
330
A08
100
AcDbEntity
  8
0
  6
Continuous
 62
     7
370
    15
100
AcDbLine
 10
2039.999174128613
 20
1117.797459055041
 30
0.0
 11
2039.192783640109
 21
1118.207351775651
 31
0.0
  0
LINE
  5
AF3
330
A08
100
AcDbEntity
  8
0
  6
Continuous
 62
     7
370
    15
100
AcDbLine
 10
2037.650703055265
 20
1118.99119981867
 30
0.0
 11
2037.245211303828
 21
1119.197313506208
 31
0.0
  0
LINE
  5
AF4
330
A08
100
AcDbEntity
  8
0
  6
Continuous
 62
     7
370
    15
100
AcDbLine
 10
2038.60285090626
 20
1119.06548597122
 30
0.0
 11
2038.230875605775
 21
1118.857334300969
 31
0.0
  0
LINE
  5
AF5
330
A08
100
AcDbEntity
  8
0
  6
Continuous
 62
     7
370
    15
100
AcDbLine
 10
2040.017281484409
 20
1118.842315850449
 30
0.0
 11
2038.637752948612
 21
1119.543537792869
 31
0.0
  0
LINE
  5
AF6
330
A08
100
AcDbEntity
  8
0
  6
Continuous
 62
     7
370
    15
100
AcDbLine
 10
2038.637752948612
 20
1119.543537792869
 30
0.0
 11
2038.574887415778
 21
1118.682471205813
 31
0.0
  0
LINE
  5
AF7
330
A08
100
AcDbEntity
  8
0
  6
Continuous
 62
     7
370
    15
100
AcDbLine
 10
2038.064081797288
 20
1119.835137994389
 30
0.0
 11
2036.684553261492
 21
1120.536359936809
 31
0.0
  0
LINE
  5
AF8
330
A08
100
AcDbEntity
  8
0
  6
Continuous
 62
     7
370
    15
100
AcDbLine
 10
2038.637752948612
 20
1119.543537792869
 30
0.0
 11
2039.264939283288
 21
1119.894501641682
 31
0.0
  0
LINE
  5
AF9
330
A08
100
AcDbEntity
  8
0
  6
Continuous
 62
     7
370
    15
100
AcDbLine
 10
2039.264939283288
 20
1119.894501641682
 30
0.0
 11
2038.691268131964
 21
1120.186101843203
 31
0.0
  0
LINE
  5
AFA
330
A08
100
AcDbEntity
  8
0
  6
Continuous
 62
     7
370
    15
100
AcDbLine
 10
2038.691268131964
 20
1120.186101843203
 30
0.0
 11
2038.064081797288
 21
1119.835137994389
 31
0.0
  0
ARC
  5
AFB
330
A08
100
AcDbEntity
  8
0
  6
Continuous
 62
     7
370
    15
100
AcDbCircle
 10
2036.858814788636
 20
1111.347563425336
 30
0.0
 40
1.273693622999282
100
AcDbArc
 50
239.2388213483626
 51
283.9669726329652
  0
LWPOLYLINE
  5
AFC
330
A08
100
AcDbEntity
  8
0
  6
Continuous
 62
     7
370
    15
100
AcDbPolyline
 90
       17
 70
   128
 43
0.0
 10
2034.841511814126
 20
1114.258436282663
 10
2034.759869382376
 20
1114.174197460083
 10
2034.632534684437
 20
1113.987755455646
 10
2034.538137370832
 20
1113.764970059514
 10
2034.478689356415
 20
1113.510589555618
 10
2034.455457672399
 20
1113.230035622755
 10
2034.468937461799
 20
1112.92928778092
 10
2034.518841426304
 20
1112.614755948219
 10
2034.604105949554
 20
1112.293143824591
 10
2034.722913766266
 20
1111.971306014085
 10
2034.872732694095
 20
1111.656101930872
 10
2035.050369602703
 20
1111.354249602745
 10
2035.252038469787
 20
1111.072182488015
 10
2035.473441073574
 20
1110.815912357525
 10
2035.709858601951
 20
1110.59090116418
 10
2035.956252225757
 20
1110.401944630915
 10
2036.207370492677
 20
1110.253070038178
  0
LINE
  5
AFD
330
A08
100
AcDbEntity
  8
0
  6
Continuous
 62
     7
370
    15
100
AcDbLine
 10
2037.227833351054
 20
1119.367186195971
 30
0.0
 11
2037.287110707152
 21
1118.78773911993
 31
0.0
  0
LINE
  5
AFE
330
A08
100
AcDbEntity
  8
0
  6
Continuous
 62
     7
370
    15
100
AcDbLine
 10
2038.064081797288
 20
1119.835137994389
 30
0.0
 11
2038.077630846268
 21
1118.935229455102
 31
0.0
  0
LINE
  5
AFF
330
A08
100
AcDbEntity
  8
0
  6
Continuous
 62
     7
370
    15
100
AcDbLine
 10
2038.691268131964
 20
1120.186101843203
 30
0.0
 11
2038.700414662252
 21
1119.578602326287
 31
0.0
  0
ARC
  5
B00
330
A08
100
AcDbEntity
  8
0
  6
Continuous
 62
     7
370
    15
100
AcDbCircle
 10
2034.049228742829
 20
1121.81151254517
 30
0.0
 40
2.272650926333664
100
AcDbArc
 50
288.3520579106953
 51
310.1093558467902
  0
ELLIPSE
  5
B01
330
A08
100
AcDbEntity
  8
0
  6
Continuous
 62
     7
370
    15
100
AcDbEllipse
 10
2033.587446848482
 20
1112.050036221951
 30
0.0
 11
1.07456430956914
 21
39.67039803543483
 31
0.0
210
0.0
220
0.0
230
1.0
 40
0.0439574551603156
 41
4.917233815477377
 42
4.9442064297544
  0
LWPOLYLINE
  5
B02
330
A08
100
AcDbEntity
  8
0
  6
Continuous
 62
     7
370
    15
100
AcDbPolyline
 90
       19
 70
   128
 43
0.0
 10
2032.198759883843
 20
1122.81225315526
 10
2032.511236238356
 20
1122.901007895902
 10
2032.843748636908
 20
1122.964716548056
 10
2033.189177510483
 20
1123.002015017788
 10
2033.540126729748
 20
1123.01210469118
 10
2033.889081966819
 20
1122.994769533804
 10
2034.228571587846
 20
1122.950380716328
 10
2034.551326631437
 20
1122.87988866722
 10
2034.85043644759
 20
1122.784802722705
 10
2035.119496664653
 20
1122.667158809707
 10
2035.35274631614
 20
1122.52947585372
 10
2035.545191191311
 20
1122.374701844988
 10
2035.692710768417
 20
1122.206150717794
 10
2035.792146440997
 20
1122.027431394356
 10
2035.841369148191
 20
1121.842370512606
 10
2035.839324960994
 20
1121.654930492369
 10
2035.786057648397
 20
1121.469124694246
 10
2035.682707740226
 20
1121.288931487793
 10
2035.531488106759
 20
1121.1182090689
  0
ELLIPSE
  5
B03
330
A08
100
AcDbEntity
  8
0
  6
Continuous
 62
     7
370
    15
100
AcDbEllipse
 10
2033.587446848482
 20
1112.050036221951
 30
0.0
 11
1.07456430956914
 21
39.67039803543483
 31
0.0
210
0.0
220
0.0
230
1.0
 40
0.0439574551603156
 41
1.297253265880433
 42
1.320116314693249
  0
LWPOLYLINE
  5
B04
330
A08
100
AcDbEntity
  8
0
  6
Continuous
 62
     7
370
    15
100
AcDbPolyline
 90
       19
 70
   128
 43
0.0
 10
2034.695239660525
 20
1120.650257270482
 10
2034.382763306012
 20
1120.56150252984
 10
2034.05025090746
 20
1120.497793877686
 10
2033.704822033884
 20
1120.460495407954
 10
2033.35387281462
 20
1120.450405734562
 10
2033.004917577548
 20
1120.467740891938
 10
2032.665427956522
 20
1120.512129709414
 10
2032.342672912931
 20
1120.582621758522
 10
2032.043563096778
 20
1120.677707703037
 10
2031.774502879715
 20
1120.795351616035
 10
2031.541253228228
 20
1120.933034572022
 10
2031.348808353057
 20
1121.087808580754
 10
2031.201288775951
 20
1121.256359707948
 10
2031.101853103371
 20
1121.435079031386
 10
2031.052630396177
 20
1121.620139913136
 10
2031.054674583374
 20
1121.807579933373
 10
2031.107941895971
 20
1121.993385731496
 10
2031.211291804142
 20
1122.173578937949
 10
2031.362511437608
 20
1122.344301356842
  0
ELLIPSE
  5
B05
330
A08
100
AcDbEntity
  8
0
  6
Continuous
 62
     7
370
    15
100
AcDbEllipse
 10
2033.587446848482
 20
1112.050036221951
 30
0.0
 11
-2.277933147015943
 21
37.79896383410239
 31
0.0
210
0.0
220
0.0
230
1.0
 40
0.0439908974369738
 41
4.9123000482244
 42
4.939272662501423
  0
LINE
  5
B06
330
A08
100
AcDbEntity
  8
0
  6
Continuous
 62
     7
370
    15
100
AcDbLine
 10
2032.114853638729
 20
1121.292115565609
 30
0.0
 11
2032.688524790053
 21
1121.000515364088
 31
0.0
  0
LINE
  5
B07
330
A08
100
AcDbEntity
  8
0
  6
Continuous
 62
     7
370
    15
100
AcDbLine
 10
2032.688524790053
 20
1121.000515364088
 30
0.0
 11
2033.315711124728
 21
1121.351479212902
 31
0.0
  0
LINE
  5
B08
330
A08
100
AcDbEntity
  8
0
  6
Continuous
 62
     7
370
    15
100
AcDbLine
 10
2033.315711124728
 20
1121.351479212902
 30
0.0
 11
2034.695239660525
 21
1120.650257270482
 31
0.0
  0
LINE
  5
B09
330
A08
100
AcDbEntity
  8
0
  6
Continuous
 62
     7
370
    15
100
AcDbLine
 10
2031.362511437608
 20
1122.344301356842
 30
0.0
 11
2032.742039973404
 21
1121.643079414422
 31
0.0
  0
LINE
  5
B0A
330
A08
100
AcDbEntity
  8
0
  6
Continuous
 62
     7
370
    15
100
AcDbLine
 10
2032.742039973404
 20
1121.643079414422
 30
0.0
 11
2032.114853638729
 21
1121.292115565609
 31
0.0
  0
LINE
  5
B0B
330
A08
100
AcDbEntity
  8
0
  6
Continuous
 62
     7
370
    15
100
AcDbLine
 10
2035.513380750964
 20
1120.073352273492
 30
0.0
 11
2034.70699026246
 21
1120.483244994103
 31
0.0
  0
LINE
  5
B0C
330
A08
100
AcDbEntity
  8
0
  6
Continuous
 62
     7
370
    15
100
AcDbLine
 10
2033.164909677616
 20
1121.267093037121
 30
0.0
 11
2032.759417926179
 21
1121.47320672466
 31
0.0
  0
LINE
  5
B0D
330
A08
100
AcDbEntity
  8
0
  6
Continuous
 62
     7
370
    15
100
AcDbLine
 10
2034.11705752861
 20
1121.341379189672
 30
0.0
 11
2033.745082228126
 21
1121.133227519421
 31
0.0
  0
LINE
  5
B0E
330
A08
100
AcDbEntity
  8
0
  6
Continuous
 62
     7
370
    15
100
AcDbLine
 10
2035.531488106759
 20
1121.1182090689
 30
0.0
 11
2034.151959570963
 21
1121.81943101132
 31
0.0
  0
LINE
  5
B0F
330
A08
100
AcDbEntity
  8
0
  6
Continuous
 62
     7
370
    15
100
AcDbLine
 10
2034.151959570963
 20
1121.81943101132
 30
0.0
 11
2034.089094038129
 21
1120.958364424264
 31
0.0
  0
LINE
  5
B10
330
A08
100
AcDbEntity
  8
0
  6
Continuous
 62
     7
370
    15
100
AcDbLine
 10
2033.578288419639
 20
1122.11103121284
 30
0.0
 11
2032.198759883843
 21
1122.81225315526
 31
0.0
  0
LINE
  5
B11
330
A08
100
AcDbEntity
  8
0
  6
Continuous
 62
     7
370
    15
100
AcDbLine
 10
2034.151959570963
 20
1121.81943101132
 30
0.0
 11
2034.779145905639
 21
1122.170394860134
 31
0.0
  0
LINE
  5
B12
330
A08
100
AcDbEntity
  8
0
  6
Continuous
 62
     7
370
    15
100
AcDbLine
 10
2034.779145905639
 20
1122.170394860134
 30
0.0
 11
2034.205474754315
 21
1122.461995061654
 31
0.0
  0
LINE
  5
B13
330
A08
100
AcDbEntity
  8
0
  6
Continuous
 62
     7
370
    15
100
AcDbLine
 10
2034.205474754315
 20
1122.461995061654
 30
0.0
 11
2033.578288419639
 21
1122.11103121284
 31
0.0
  0
ARC
  5
B14
330
A08
100
AcDbEntity
  8
0
  6
Continuous
 62
     7
370
    15
100
AcDbCircle
 10
2032.373021410986
 20
1113.623456643788
 30
0.0
 40
1.273693622999898
100
AcDbArc
 50
239.2388213483804
 51
283.9669726329494
  0
LWPOLYLINE
  5
B15
330
A08
100
AcDbEntity
  8
0
  6
Continuous
 62
     7
370
    15
100
AcDbPolyline
 90
       17
 70
   128
 43
0.0
 10
2030.355718436477
 20
1116.534329501114
 10
2030.274076004728
 20
1116.450090678534
 10
2030.146741306788
 20
1116.263648674097
 10
2030.052343993183
 20
1116.040863277965
 10
2029.992895978765
 20
1115.786482774069
 10
2029.969664294751
 20
1115.505928841206
 10
2029.98314408415
 20
1115.205180999371
 10
2030.033048048656
 20
1114.89064916667
 10
2030.118312571905
 20
1114.569037043042
 10
2030.237120388616
 20
1114.247199232536
 10
2030.386939316445
 20
1113.931995149323
 10
2030.564576225054
 20
1113.630142821196
 10
2030.766245092138
 20
1113.348075706467
 10
2030.987647695925
 20
1113.091805575976
 10
2031.224065224302
 20
1112.866794382632
 10
2031.470458848108
 20
1112.677837849366
 10
2031.721577115028
 20
1112.528963256629
  0
LINE
  5
B16
330
A08
100
AcDbEntity
  8
0
  6
Continuous
 62
     7
370
    15
100
AcDbLine
 10
2032.742039973404
 20
1121.643079414422
 30
0.0
 11
2032.801317329504
 21
1121.063632338382
 31
0.0
  0
LINE
  5
B17
330
A08
100
AcDbEntity
  8
0
  6
Continuous
 62
     7
370
    15
100
AcDbLine
 10
2033.578288419639
 20
1122.11103121284
 30
0.0
 11
2033.59183746862
 21
1121.211122673553
 31
0.0
  0
LINE
  5
B18
330
A08
100
AcDbEntity
  8
0
  6
Continuous
 62
     7
370
    15
100
AcDbLine
 10
2034.205474754315
 20
1122.461995061654
 30
0.0
 11
2034.214621284602
 21
1121.854495544738
 31
0.0
  0
ARC
  5
B19
330
A08
100
AcDbEntity
  8
0
  6
Continuous
 62
     7
370
    15
100
AcDbCircle
 10
2025.200568859494
 20
1126.966108008299
 30
0.0
 40
2.752839056055081
100
AcDbArc
 50
290.267005372315
 51
308.194408385163
  0
ELLIPSE
  5
B1A
330
A08
100
AcDbEntity
  8
0
  6
Continuous
 62
     7
370
    15
100
AcDbEllipse
 10
2024.610585054298
 20
1116.965438676968
 30
0.0
 11
1.298431874062714
 21
47.93506429281706
 31
0.0
210
0.0
220
0.0
230
1.0
 40
0.0439574551603159
 41
4.877812314021083
 42
4.899927981204063
  0
LWPOLYLINE
  5
B1B
330
A08
100
AcDbEntity
  8
0
  6
Continuous
 62
     7
370
    15
100
AcDbPolyline
 90
       21
 70
   128
 43
0.0
 10
2022.853700036768
 20
1127.914812705722
 10
2023.195655647979
 20
1128.023629577806
 10
2023.561230598172
 20
1128.106927723153
 10
2023.943649870959
 20
1128.1631634192
 10
2024.335826282607
 20
1128.191294478121
 10
2024.730491825245
 20
1128.190799561172
 10
2025.120332361189
 20
1128.1616878404
 10
2025.498123172175
 20
1128.104498828661
 10
2025.856862851421
 20
1128.020292381099
 10
2026.18990305717
 20
1127.910629053387
 10
2026.491071723067
 20
1127.777541180732
 10
2026.754787441942
 20
1127.623495213634
 10
2026.976162903229
 20
1127.451346008397
 10
2027.151095467026
 20
1127.26428391952
 10
2027.276343196252
 20
1127.06577567446
 10
2027.349584937837
 20
1126.859500126522
 10
2027.369463339481
 20
1126.64928007652
 10
2027.33561000478
 20
1126.43901142674
 10
2027.248652320533
 20
1126.232590980142
 10
2027.110201829695
 20
1126.033844222876
 10
2026.922824365466
 20
1125.846454428472
  0
ELLIPSE
  5
B1C
330
A08
100
AcDbEntity
  8
0
  6
Continuous
 62
     7
370
    15
100
AcDbEllipse
 10
2024.610585054298
 20
1116.965438676968
 30
0.0
 11
1.298431874062714
 21
47.93506429281706
 31
0.0
210
0.0
220
0.0
230
1.0
 40
0.0439574551603159
 41
1.341531714430763
 42
1.360274789423016
  0
LWPOLYLINE
  5
B1D
330
A08
100
AcDbEntity
  8
0
  6
Continuous
 62
     7
370
    15
100
AcDbPolyline
 90
       21
 70
   128
 43
0.0
 10
2026.086575919232
 20
1125.378502630054
 10
2025.744620308021
 20
1125.269685757971
 10
2025.379045357828
 20
1125.186387612624
 10
2024.996626085041
 20
1125.130151916577
 10
2024.604449673392
 20
1125.102020857656
 10
2024.209784130754
 20
1125.102515774605
 10
2023.81994359481
 20
1125.131627495377
 10
2023.442152783825
 20
1125.188816507116
 10
2023.083413104579
 20
1125.273022954678
 10
2022.750372898829
 20
1125.38268628239
 10
2022.449204232933
 20
1125.515774155045
 10
2022.185488514057
 20
1125.669820122143
 10
2021.96411305277
 20
1125.841969327379
 10
2021.789180488974
 20
1126.029031416257
 10
2021.663932759748
 20
1126.227539661316
 10
2021.590691018163
 20
1126.433815209255
 10
2021.570812616519
 20
1126.644035259257
 10
2021.604665951219
 20
1126.854303909037
 10
2021.691623635466
 20
1127.060724355634
 10
2021.830074126305
 20
1127.2594711129
 10
2022.017451590533
 20
1127.446860907304
  0
ELLIPSE
  5
B1E
330
A08
100
AcDbEntity
  8
0
  6
Continuous
 62
     7
370
    15
100
AcDbEllipse
 10
2024.610585054298
 20
1116.965438676968
 30
0.0
 11
-2.752502552644274
 21
45.67374796620703
 31
0.0
210
0.0
220
0.0
230
1.0
 40
0.0439908974369747
 41
4.872878546768103
 42
4.894994213951084
  0
LINE
  5
B1F
330
A08
100
AcDbEntity
  8
0
  6
Continuous
 62
     7
370
    15
100
AcDbLine
 10
2022.717846098031
 20
1126.048988129808
 30
0.0
 11
2023.434935037187
 21
1125.684487877908
 31
0.0
  0
LINE
  5
B20
330
A08
100
AcDbEntity
  8
0
  6
Continuous
 62
     7
370
    15
100
AcDbLine
 10
2023.434935037187
 20
1125.684487877908
 30
0.0
 11
2024.41055822446
 21
1126.230431642729
 31
0.0
  0
LINE
  5
B21
330
A08
100
AcDbEntity
  8
0
  6
Continuous
 62
     7
370
    15
100
AcDbLine
 10
2024.41055822446
 20
1126.230431642729
 30
0.0
 11
2026.086575919232
 21
1125.378502630054
 31
0.0
  0
LINE
  5
B22
330
A08
100
AcDbEntity
  8
0
  6
Continuous
 62
     7
370
    15
100
AcDbLine
 10
2022.017451590533
 20
1127.446860907304
 30
0.0
 11
2023.693469285305
 21
1126.59493189463
 31
0.0
  0
LINE
  5
B23
330
A08
100
AcDbEntity
  8
0
  6
Continuous
 62
     7
370
    15
100
AcDbLine
 10
2023.693469285305
 20
1126.59493189463
 30
0.0
 11
2022.717846098031
 21
1126.048988129808
 31
0.0
  0
LINE
  5
B24
330
A08
100
AcDbEntity
  8
0
  6
Continuous
 62
     7
370
    15
100
AcDbLine
 10
2026.902736510088
 20
1124.802604331895
 30
0.0
 11
2026.09797681114
 21
1125.211668113205
 31
0.0
  0
LINE
  5
B25
330
A08
100
AcDbEntity
  8
0
  6
Continuous
 62
     7
370
    15
100
AcDbLine
 10
2024.259756777348
 20
1126.146045466948
 30
0.0
 11
2023.71084723808
 21
1126.425059204867
 31
0.0
  0
LINE
  5
B26
330
A08
100
AcDbEntity
  8
0
  6
Continuous
 62
     7
370
    15
100
AcDbLine
 10
2025.223562547716
 20
1126.38000965602
 30
0.0
 11
2024.696511540026
 21
1126.085079999628
 31
0.0
  0
LINE
  5
B27
330
A08
100
AcDbEntity
  8
0
  6
Continuous
 62
     7
370
    15
100
AcDbLine
 10
2026.922824365466
 20
1125.846454428472
 30
0.0
 11
2025.246806670695
 21
1126.698383441147
 31
0.0
  0
LINE
  5
B28
330
A08
100
AcDbEntity
  8
0
  6
Continuous
 62
     7
370
    15
100
AcDbLine
 10
2025.246806670695
 20
1126.698383441147
 30
0.0
 11
2025.183941137861
 21
1125.837316854091
 31
0.0
  0
LINE
  5
B29
330
A08
100
AcDbEntity
  8
0
  6
Continuous
 62
     7
370
    15
100
AcDbLine
 10
2024.529717731539
 20
1127.062883693048
 30
0.0
 11
2022.853700036768
 21
1127.914812705722
 31
0.0
  0
LINE
  5
B2A
330
A08
100
AcDbEntity
  8
0
  6
Continuous
 62
     7
370
    15
100
AcDbLine
 10
2025.246806670695
 20
1126.698383441147
 30
0.0
 11
2026.222429857968
 21
1127.244327205968
 31
0.0
  0
LINE
  5
B2B
330
A08
100
AcDbEntity
  8
0
  6
Continuous
 62
     7
370
    15
100
AcDbLine
 10
2026.222429857968
 20
1127.244327205968
 30
0.0
 11
2025.505340918813
 21
1127.608827457869
 31
0.0
  0
LINE
  5
B2C
330
A08
100
AcDbEntity
  8
0
  6
Continuous
 62
     7
370
    15
100
AcDbLine
 10
2025.505340918813
 20
1127.608827457869
 30
0.0
 11
2024.529717731539
 21
1127.062883693048
 31
0.0
  0
ARC
  5
B2D
330
A08
100
AcDbEntity
  8
0
  6
Continuous
 62
     7
370
    15
100
AcDbCircle
 10
2023.370516611076
 20
1118.109354946349
 30
0.0
 40
1.463148231404978
100
AcDbArc
 50
239.3717701617971
 51
285.1235914514159
  0
LWPOLYLINE
  5
B2E
330
A08
100
AcDbEntity
  8
0
  6
Continuous
 62
     7
370
    15
100
AcDbPolyline
 90
       18
 70
   128
 43
0.0
 10
2021.082351630633
 20
1121.45953114015
 10
2020.959409130894
 20
1121.33493010816
 10
2020.823374172065
 20
1121.134761057564
 10
2020.720273396234
 20
1120.898099899576
 10
2020.652027375781
 20
1120.62935518379
 10
2020.619907404939
 20
1120.333533115775
 10
2020.624511817992
 20
1120.016144300942
 10
2020.665754843438
 20
1119.683101092389
 10
2020.742868201745
 20
1119.340607454949
 10
2020.854415416954
 20
1118.995043397065
 10
2020.998318575501
 20
1118.652846123303
 10
2021.171897033816
 20
1118.32039012141
 10
2021.371917353646
 20
1118.003868417672
 10
2021.594653534883
 20
1117.709177212547
 10
2021.835956423906
 20
1117.441806045609
 10
2022.091331004453
 20
1117.206735535812
 10
2022.356020131277
 20
1117.008344601984
 10
2022.625093146756
 20
1116.850328891851
  0
LINE
  5
B2F
330
A08
100
AcDbEntity
  8
0
  6
Continuous
 62
     7
370
    15
100
AcDbLine
 10
2023.693469285305
 20
1126.59493189463
 30
0.0
 11
2023.767565980429
 21
1125.870623049579
 31
0.0
  0
ELLIPSE
  5
B30
330
A08
100
AcDbEntity
  8
0
  6
Continuous
 62
     7
370
    15
100
AcDbEllipse
 10
2020.124791676649
 20
1119.24133189542
 30
0.0
 11
1.298431874062714
 21
47.93506429281701
 31
0.0
210
0.0
220
0.0
230
0.9999999999999998
 40
0.0439574551603154
 41
4.881274156177121
 42
4.899927981204061
  0
LWPOLYLINE
  5
B31
330
A08
100
AcDbEntity
  8
0
  6
Continuous
 62
     7
370
    15
100
AcDbPolyline
 90
       21
 70
   128
 43
0.0
 10
2018.367906659119
 20
1130.190705924174
 10
2018.70986227033
 20
1130.299522796257
 10
2019.075437220522
 20
1130.382820941604
 10
2019.45785649331
 20
1130.439056637651
 10
2019.850032904958
 20
1130.467187696572
 10
2020.244698447596
 20
1130.466692779623
 10
2020.63453898354
 20
1130.437581058852
 10
2021.012329794526
 20
1130.380392047112
 10
2021.371069473771
 20
1130.296185599551
 10
2021.704109679522
 20
1130.186522271839
 10
2022.005278345417
 20
1130.053434399184
 10
2022.268994064293
 20
1129.899388432086
 10
2022.49036952558
 20
1129.727239226849
 10
2022.665302089377
 20
1129.540177137972
 10
2022.790549818603
 20
1129.341668892912
 10
2022.863791560188
 20
1129.135393344973
 10
2022.883669961832
 20
1128.925173294971
 10
2022.849816627132
 20
1128.714904645192
 10
2022.762858942884
 20
1128.508484198594
 10
2022.624408452046
 20
1128.309737441328
 10
2022.437030987817
 20
1128.122347646924
  0
ELLIPSE
  5
B32
330
A08
100
AcDbEntity
  8
0
  6
Continuous
 62
     7
370
    15
100
AcDbEllipse
 10
2020.124791676649
 20
1119.24133189542
 30
0.0
 11
1.298431874062714
 21
47.93506429281701
 31
0.0
210
0.0
220
0.0
230
0.9999999999999998
 40
0.0439574551603154
 41
1.341531714430763
 42
1.360274789423019
  0
LWPOLYLINE
  5
B33
330
A08
100
AcDbEntity
  8
0
  6
Continuous
 62
     7
370
    15
100
AcDbPolyline
 90
       21
 70
   128
 43
0.0
 10
2021.600782541582
 20
1127.654395848506
 10
2021.258826930372
 20
1127.545578976422
 10
2020.893251980179
 20
1127.462280831075
 10
2020.510832707392
 20
1127.406045135028
 10
2020.118656295743
 20
1127.377914076107
 10
2019.723990753105
 20
1127.378408993056
 10
2019.334150217162
 20
1127.407520713828
 10
2018.956359406176
 20
1127.464709725567
 10
2018.59761972693
 20
1127.548916173129
 10
2018.26457952118
 20
1127.658579500841
 10
2017.963410855283
 20
1127.791667373496
 10
2017.699695136409
 20
1127.945713340594
 10
2017.478319675121
 20
1128.117862545831
 10
2017.303387111325
 20
1128.304924634708
 10
2017.178139382099
 20
1128.503432879768
 10
2017.104897640514
 20
1128.709708427706
 10
2017.085019238869
 20
1128.919928477708
 10
2017.11887257357
 20
1129.130197127488
 10
2017.205830257817
 20
1129.336617574085
 10
2017.344280748655
 20
1129.535364331352
 10
2017.531658212885
 20
1129.722754125755
  0
ELLIPSE
  5
B34
330
A08
100
AcDbEntity
  8
0
  6
Continuous
 62
     7
370
    15
100
AcDbEllipse
 10
2020.124791676649
 20
1119.24133189542
 30
0.0
 11
-2.752502552644274
 21
45.67374796620706
 31
0.0
210
0.0
220
0.0
230
1.0
 40
0.043990897436974
 41
4.879802755539756
 42
4.894994213951079
  0
LINE
  5
B35
330
A08
100
AcDbEntity
  8
0
  6
Continuous
 62
     7
370
    15
100
AcDbLine
 10
2018.232052720382
 20
1128.32488134826
 30
0.0
 11
2018.949141659537
 21
1127.960381096359
 31
0.0
  0
LINE
  5
B36
330
A08
100
AcDbEntity
  8
0
  6
Continuous
 62
     7
370
    15
100
AcDbLine
 10
2018.949141659537
 20
1127.960381096359
 30
0.0
 11
2019.924764846811
 21
1128.50632486118
 31
0.0
  0
LINE
  5
B37
330
A08
100
AcDbEntity
  8
0
  6
Continuous
 62
     7
370
    15
100
AcDbLine
 10
2019.924764846811
 20
1128.50632486118
 30
0.0
 11
2021.600782541582
 21
1127.654395848506
 31
0.0
  0
LINE
  5
B38
330
A08
100
AcDbEntity
  8
0
  6
Continuous
 62
     7
370
    15
100
AcDbLine
 10
2017.531658212885
 20
1129.722754125755
 30
0.0
 11
2019.207675907656
 21
1128.870825113081
 31
0.0
  0
LINE
  5
B39
330
A08
100
AcDbEntity
  8
0
  6
Continuous
 62
     7
370
    15
100
AcDbLine
 10
2019.207675907656
 20
1128.870825113081
 30
0.0
 11
2018.232052720382
 21
1128.32488134826
 31
0.0
  0
LINE
  5
B3A
330
A08
100
AcDbEntity
  8
0
  6
Continuous
 62
     7
370
    15
100
AcDbLine
 10
2024.529717731539
 20
1127.062883693048
 30
0.0
 11
2024.54326678052
 21
1126.162975153761
 31
0.0
  0
LINE
  5
B3B
330
A08
100
AcDbEntity
  8
0
  6
Continuous
 62
     7
370
    15
100
AcDbLine
 10
2025.505340918813
 20
1127.608827457869
 30
0.0
 11
2025.516774081673
 21
1126.849453061725
 31
0.0
  0
LINE
  5
B3C
330
A08
100
AcDbEntity
  8
0
  6
Continuous
 62
     7
370
    15
100
AcDbLine
 10
2021.902978627226
 20
1127.339748535251
 30
0.0
 11
2021.61218343349
 21
1127.487561331657
 31
0.0
  0
LINE
  5
B3D
330
A08
100
AcDbEntity
  8
0
  6
Continuous
 62
     7
370
    15
100
AcDbLine
 10
2019.773963399698
 20
1128.421938685399
 30
0.0
 11
2019.22505386043
 21
1128.700952423319
 31
0.0
  0
LINE
  5
B3E
330
A08
100
AcDbEntity
  8
0
  6
Continuous
 62
     7
370
    15
100
AcDbLine
 10
2020.737769170067
 20
1128.655902874471
 30
0.0
 11
2020.210718162378
 21
1128.360973218079
 31
0.0
  0
LINE
  5
B3F
330
A08
100
AcDbEntity
  8
0
  6
Continuous
 62
     7
370
    15
100
AcDbLine
 10
2022.437030987817
 20
1128.122347646924
 30
0.0
 11
2020.761013293046
 21
1128.974276659598
 31
0.0
  0
LINE
  5
B40
330
A08
100
AcDbEntity
  8
0
  6
Continuous
 62
     7
370
    15
100
AcDbLine
 10
2020.761013293046
 20
1128.974276659598
 30
0.0
 11
2020.698147760212
 21
1128.113210072543
 31
0.0
  0
LINE
  5
B41
330
A08
100
AcDbEntity
  8
0
  6
Continuous
 62
     7
370
    15
100
AcDbLine
 10
2020.043924353891
 20
1129.338776911499
 30
0.0
 11
2018.367906659119
 21
1130.190705924174
 31
0.0
  0
LINE
  5
B42
330
A08
100
AcDbEntity
  8
0
  6
Continuous
 62
     7
370
    15
100
AcDbLine
 10
2020.761013293046
 20
1128.974276659598
 30
0.0
 11
2021.736636480319
 21
1129.52022042442
 31
0.0
  0
LINE
  5
B43
330
A08
100
AcDbEntity
  8
0
  6
Continuous
 62
     7
370
    15
100
AcDbLine
 10
2021.736636480319
 20
1129.52022042442
 30
0.0
 11
2021.019547541164
 21
1129.88472067632
 31
0.0
  0
LINE
  5
B44
330
A08
100
AcDbEntity
  8
0
  6
Continuous
 62
     7
370
    15
100
AcDbLine
 10
2021.019547541164
 20
1129.88472067632
 30
0.0
 11
2020.043924353891
 21
1129.338776911499
 31
0.0
  0
ARC
  5
B45
330
A08
100
AcDbEntity
  8
0
  6
Continuous
 62
     7
370
    15
100
AcDbCircle
 10
2018.884723233427
 20
1120.385248164801
 30
0.0
 40
1.463148231405072
100
AcDbArc
 50
239.3717701617971
 51
285.1235914514159
  0
LWPOLYLINE
  5
B46
330
A08
100
AcDbEntity
  8
0
  6
Continuous
 62
     7
370
    15
100
AcDbPolyline
 90
       18
 70
   128
 43
0.0
 10
2016.596558252984
 20
1123.735424358601
 10
2016.473615753244
 20
1123.610823326611
 10
2016.337580794416
 20
1123.410654276015
 10
2016.234480018585
 20
1123.173993118028
 10
2016.166233998132
 20
1122.905248402241
 10
2016.13411402729
 20
1122.609426334226
 10
2016.138718440343
 20
1122.292037519393
 10
2016.179961465788
 20
1121.958994310841
 10
2016.257074824096
 20
1121.6165006734
 10
2016.368622039305
 20
1121.270936615516
 10
2016.512525197851
 20
1120.928739341754
 10
2016.686103656168
 20
1120.596283339861
 10
2016.886123975996
 20
1120.279761636123
 10
2017.108860157234
 20
1119.985070430998
 10
2017.350163046257
 20
1119.71769926406
 10
2017.605537626804
 20
1119.482628754263
 10
2017.870226753628
 20
1119.284237820435
 10
2018.139299769107
 20
1119.126222110303
  0
LINE
  5
B47
330
A08
100
AcDbEntity
  8
0
  6
Continuous
 62
     7
370
    15
100
AcDbLine
 10
2019.207675907656
 20
1128.870825113081
 30
0.0
 11
2019.281772602779
 21
1128.14651626803
 31
0.0
  0
LINE
  5
B48
330
A08
100
AcDbEntity
  8
0
  6
Continuous
 62
     7
370
    15
100
AcDbLine
 10
2020.043924353891
 20
1129.338776911499
 30
0.0
 11
2020.057473402871
 21
1128.438868372212
 31
0.0
  0
LINE
  5
B49
330
A08
100
AcDbEntity
  8
0
  6
Continuous
 62
     7
370
    15
100
AcDbLine
 10
2021.019547541164
 20
1129.88472067632
 30
0.0
 11
2021.030980704023
 21
1129.125346280176
 31
0.0
  0
ENDBLK
  5
A0A
330
A08
100
AcDbEntity
  8
0
100
AcDbBlockEnd
  0
ENDSEC
  0
SECTION
  2
ENTITIES
  0
INSERT
  5
878
330
1F
100
AcDbEntity
  8
0
100
AcDbBlockReference
  2
1
 10
0.0
 20
0.0
 30
0.0
  0
INSERT
  5
9E9
330
1F
100
AcDbEntity
  8
0
100
AcDbBlockReference
  2
2
 10
0.0
 20
0.0
 30
0.0
  0
INSERT
  5
A07
330
1F
100
AcDbEntity
  8
0
100
AcDbBlockReference
  2
3
 10
0.0
 20
0.0
 30
0.0
  0
INSERT
  5
B4A
330
1F
100
AcDbEntity
  8
0
100
AcDbBlockReference
  2
4
 10
0.0
 20
0.0
 30
0.0
  0
ENDSEC
  0
SECTION
  2
OBJECTS
  0
DICTIONARY
  5
C
330
0
100
AcDbDictionary
281
     1
  3
ACAD_COLOR
350
6B
  3
ACAD_GROUP
350
D
  3
ACAD_LAYOUT
350
1A
  3
ACAD_MATERIAL
350
6A
  3
ACAD_MLEADERSTYLE
350
12D
  3
ACAD_MLINESTYLE
350
17
  3
ACAD_PLOTSETTINGS
350
19
  3
ACAD_PLOTSTYLENAME
350
E
  3
ACAD_SCALELIST
350
10C
  3
ACAD_TABLESTYLE
350
7E
  3
ACAD_VISUALSTYLE
350
EF
  3
ACDB_RECOMPOSE_DATA
350
15D
  3
AcDbVariableDictionary
350
5E
  3
DWGPROPS
350
B58
  0
DICTIONARY
  5
13C
330
10
100
AcDbDictionary
280
     1
281
     1
  3
ADSK_XREC_LAYER_RECONCILED
360
B4B
  0
DICTIONARY
  5
6B
102
{ACAD_REACTORS
330
C
102
}
330
C
100
AcDbDictionary
281
     1
  0
DICTIONARY
  5
D
102
{ACAD_REACTORS
330
C
102
}
330
C
100
AcDbDictionary
281
     1
  0
DICTIONARY
  5
1A
102
{ACAD_REACTORS
330
C
102
}
330
C
100
AcDbDictionary
281
     1
  3
Layout1
350
D3
  3
Layout2
350
D7
  3
Model
350
22
  0
DICTIONARY
  5
6A
102
{ACAD_REACTORS
330
C
102
}
330
C
100
AcDbDictionary
281
     1
  3
ByBlock
350
ED
  3
ByLayer
350
EC
  3
Global
350
EE
  0
DICTIONARY
  5
12D
102
{ACAD_REACTORS
330
C
102
}
330
C
100
AcDbDictionary
281
     1
  3
Annotative
350
13B
  3
Standard
350
12E
  0
DICTIONARY
  5
17
102
{ACAD_REACTORS
330
C
102
}
330
C
100
AcDbDictionary
281
     1
  3
Standard
350
18
  0
DICTIONARY
  5
19
102
{ACAD_REACTORS
330
C
102
}
330
C
100
AcDbDictionary
281
     1
  0
ACDBDICTIONARYWDFLT
  5
E
102
{ACAD_REACTORS
330
C
102
}
330
C
100
AcDbDictionary
281
     1
  3
Normal
350
F
100
AcDbDictionaryWithDefault
340
F
  0
DICTIONARY
  5
10C
102
{ACAD_REACTORS
330
C
102
}
330
C
100
AcDbDictionary
281
     1
  3
A0
350
10D
  3
A1
350
188
  3
A2
350
189
  3
A3
350
18A
  3
A4
350
18B
  3
A5
350
18C
  3
A6
350
18D
  3
A7
350
18E
  3
A8
350
18F
  3
A9
350
190
  3
B0
350
191
  3
B1
350
192
  3
B2
350
193
  3
B3
350
194
  3
B4
350
195
  3
B5
350
196
  3
B6
350
197
  3
B7
350
198
  3
B8
350
199
  3
B9
350
19A
  3
C0
350
19B
  3
C1
350
19C
  3
C2
350
19D
  3
C3
350
19E
  3
C4
350
19F
  3
C5
350
1A0
  3
C6
350
1A1
  3
C7
350
1A2
  3
C8
350
1A3
  3
C9
350
1A4
  3
D0
350
1A5
  3
D1
350
1A6
  3
D2
350
1A7
  0
DICTIONARY
  5
7E
102
{ACAD_REACTORS
330
C
102
}
330
C
100
AcDbDictionary
281
     1
  3
Standard
350
7F
  0
DICTIONARY
  5
EF
102
{ACAD_REACTORS
330
C
102
}
330
C
100
AcDbDictionary
281
     1
  3
2dWireframe
350
F5
  3
3D Hidden
350
F7
  3
3dWireframe
350
F6
  3
Basic
350
F4
  3
Brighten
350
FB
  3
ColorChange
350
FF
  3
Conceptual
350
F8
  3
Dim
350
FA
  3
Facepattern
350
FE
  3
Flat
350
F0
  3
FlatWithEdges
350
F1
  3
Gouraud
350
F2
  3
GouraudWithEdges
350
F3
  3
Linepattern
350
FD
  3
Realistic
350
F9
  3
Thicken
350
FC
  0
XRECORD
  5
15D
102
{ACAD_REACTORS
330
C
102
}
330
C
100
AcDbXrecord
280
     1
 90
        1
330
7F
  0
DICTIONARY
  5
5E
102
{ACAD_REACTORS
330
C
102
}
330
C
100
AcDbDictionary
281
     1
  3
CANNOSCALE
350
146
  3
CMLEADERSTYLE
350
145
  3
CTABLESTYLE
350
84
  3
DIMASSOC
350
5F
  3
HIDETEXT
350
63
  3
INDEXCTL
350
B54
  3
LIGHTINGUNITS
350
B52
  3
MSLTSCALE
350
B51
  3
PSOLHEIGHT
350
B56
  3
PSOLWIDTH
350
B55
  3
SORTENTS
350
B53
  0
XRECORD
  5
B58
102
{ACAD_REACTORS
330
C
102
}
330
C
100
AcDbXrecord
280
     1
  1
DWGPROPS COOKIE
  2

  3

  4

  6

  7

  8
orhan kara
  9

300
=
301
=
302
=
303
=
304
=
305
=
306
=
307
=
308
=
309
=
 40
0.0006057638888889
 41
2458453.445720232
 42
2458983.555892604
  1

 90
        0
  0
XRECORD
  5
B4B
102
{ACAD_REACTORS
330
13C
102
}
330
13C
100
AcDbXrecord
280
     1
290
     1
  0
LAYOUT
  5
D3
102
{ACAD_XDICTIONARY
360
B5C
102
}
102
{ACAD_REACTORS
330
1A
102
}
330
1A
100
AcDbPlotSettings
  1

  2
C:\Documents and Settings\basas\Application Data\Autodesk\AutoCAD 2005\R16.1\enu\plotters\Default Windows System Printer.pc3
  4

  6

 40
0.0
 41
0.0
 42
0.0
 43
0.0
 44
0.0
 45
0.0
 46
0.0
 47
0.0
 48
0.0
 49
0.0
140
0.0
141
0.0
142
1.0
143
1.0
 70
   688
 72
     0
 73
     0
 74
     5
  7

 75
    16
147
1.0
148
0.0
149
0.0
100
AcDbLayout
  1
Layout1
 70
     1
 71
     1
 10
0.0
 20
0.0
 11
12.0
 21
9.0
 12
0.0
 22
0.0
 32
0.0
 14
0.0
 24
0.0
 34
0.0
 15
0.0
 25
0.0
 35
0.0
146
0.0
 13
0.0
 23
0.0
 33
0.0
 16
1.0
 26
0.0
 36
0.0
 17
0.0
 27
1.0
 37
0.0
 76
     0
330
D2
  0
LAYOUT
  5
D7
102
{ACAD_XDICTIONARY
360
B5E
102
}
102
{ACAD_REACTORS
330
1A
102
}
330
1A
100
AcDbPlotSettings
  1

  2
C:\Documents and Settings\basas\Application Data\Autodesk\AutoCAD 2005\R16.1\enu\plotters\Default Windows System Printer.pc3
  4

  6

 40
0.0
 41
0.0
 42
0.0
 43
0.0
 44
0.0
 45
0.0
 46
0.0
 47
0.0
 48
0.0
 49
0.0
140
0.0
141
0.0
142
1.0
143
1.0
 70
   688
 72
     0
 73
     0
 74
     5
  7

 75
    16
147
1.0
148
0.0
149
0.0
100
AcDbLayout
  1
Layout2
 70
     1
 71
     2
 10
0.0
 20
0.0
 11
12.0
 21
9.0
 12
0.0
 22
0.0
 32
0.0
 14
0.0
 24
0.0
 34
0.0
 15
0.0
 25
0.0
 35
0.0
146
0.0
 13
0.0
 23
0.0
 33
0.0
 16
1.0
 26
0.0
 36
0.0
 17
0.0
 27
1.0
 37
0.0
 76
     0
330
D6
  0
LAYOUT
  5
22
102
{ACAD_XDICTIONARY
360
B59
102
}
102
{ACAD_REACTORS
330
1A
102
}
330
1A
100
AcDbPlotSettings
  1

  2
none_device
  4
ISO_A4_(210.00_x_297.00_MM)
  6

 40
7.5
 41
20.0
 42
7.5
 43
20.0
 44
210.0
 45
297.0
 46
11.54999923706054
 47
-13.65000009536743
 48
0.0
 49
0.0
140
0.0
141
0.0
142
1.0
143
8.704084754739808
 70
 11952
 72
     1
 73
     0
 74
     0
  7

 75
     0
147
0.1148885871608098
148
0.0
149
0.0
100
AcDbLayout
  1
Model
 70
     1
 71
     0
 10
0.0
 20
0.0
 11
12.0
 21
9.0
 12
0.0
 22
0.0
 32
0.0
 14
0.0
 24
0.0
 34
0.0
 15
0.0
 25
0.0
 35
0.0
146
0.0
 13
0.0
 23
0.0
 33
0.0
 16
1.0
 26
0.0
 36
0.0
 17
0.0
 27
1.0
 37
0.0
 76
     0
330
1F
331
EA
1001
ACAD_PSEXT
1000
None
1000
None
1000
Not applicable
1000
The layout will not be plotted unless a new plotter configuration name is selected.
1070
     0
  0
MATERIAL
  5
ED
102
{ACAD_XDICTIONARY
360
B62
102
}
102
{ACAD_REACTORS
330
6A
102
}
330
6A
100
AcDbMaterial
  1
ByBlock
  0
MATERIAL
  5
EC
102
{ACAD_XDICTIONARY
360
B60
102
}
102
{ACAD_REACTORS
330
6A
102
}
330
6A
100
AcDbMaterial
  1
ByLayer
  0
MATERIAL
  5
EE
102
{ACAD_XDICTIONARY
360
173
102
}
102
{ACAD_REACTORS
330
6A
102
}
330
6A
100
AcDbMaterial
  1
Global
 43
0.0007999999797903
 43
0.0
 43
0.0
 43
0.0
 43
0.0
 43
0.0007999999797903
 43
0.0
 43
0.0
 43
0.0
 43
0.0
 43
1.0
 43
0.0
 43
0.0
 43
0.0
 43
0.0
 43
1.0
 49
0.0007999999797903
 49
0.0
 49
0.0
 49
0.0
 49
0.0
 49
0.0007999999797903
 49
0.0
 49
0.0
 49
0.0
 49
0.0
 49
1.0
 49
0.0
 49
0.0
 49
0.0
 49
0.0
 49
1.0
142
0.0007999999797903
142
0.0
142
0.0
142
0.0
142
0.0
142
0.0007999999797903
142
0.0
142
0.0
142
0.0
142
0.0
142
1.0
142
0.0
142
0.0
142
0.0
142
0.0
142
1.0
144
0.0007999999797903
144
0.0
144
0.0
144
0.0
144
0.0
144
0.0007999999797903
144
0.0
144
0.0
144
0.0
144
0.0
144
1.0
144
0.0
144
0.0
144
0.0
144
0.0
144
1.0
1001
ACAD
1070
    -1
1070
     3
1070
     0
1000

1071
        0
1070
     0
  0
MLEADERSTYLE
  5
13B
102
{ACAD_REACTORS
330
12D
102
}
330
12D
100
AcDbMLeaderStyle
170
     2
171
     1
172
     0
 90
        2
 40
0.0
 41
0.0
173
     1
 91
-1056964608
340
14
 92
       -2
290
     1
 42
2.0
291
     1
 43
8.0
  3
Standard
 44
4.0
300

342
11
174
     1
178
     1
175
     1
176
     0
 93
-1056964608
 45
4.0
292
     0
297
     0
 46
4.0
 94
-1056964608
 47
1.0
 49
1.0
140
1.0
293
     1
141
0.0
294
     1
177
     0
142
1.0
295
     0
296
     1
143
3.75
1001
ACAD_MLEADERVER
1070
     2
  0
MLEADERSTYLE
  5
12E
102
{ACAD_REACTORS
330
12D
102
}
330
12D
100
AcDbMLeaderStyle
170
     2
171
     1
172
     0
 90
        2
 40
0.0
 41
0.0
173
     1
 91
-1056964608
340
14
 92
       -2
290
     1
 42
2.0
291
     1
 43
8.0
  3
Standard
 44
4.0
300

342
11
174
     1
178
     1
175
     1
176
     0
 93
-1056964608
 45
4.0
292
     0
297
     0
 46
4.0
 94
-1056964608
 47
1.0
 49
1.0
140
1.0
293
     1
141
0.0
294
     1
177
     0
142
1.0
295
     0
296
     0
143
3.75
1001
ACAD_MLEADERVER
1070
     2
  0
MLINESTYLE
  5
18
102
{ACAD_REACTORS
330
17
102
}
330
17
100
AcDbMlineStyle
  2
STANDARD
 70
     0
  3

 62
   256
 51
90.0
 52
90.0
 71
     2
 49
0.5
 62
   256
  6
BYLAYER
 49
-0.5
 62
   256
  6
BYLAYER
  0
ACDBPLACEHOLDER
  5
F
102
{ACAD_REACTORS
330
E
102
}
330
E
  0
SCALE
  5
10D
102
{ACAD_REACTORS
330
10C
102
}
330
10C
100
AcDbScale
 70
     0
300
1:1
140
1.0
141
1.0
290
     1
  0
SCALE
  5
188
102
{ACAD_REACTORS
330
10C
102
}
330
10C
100
AcDbScale
 70
     0
300
1:2
140
1.0
141
2.0
290
     0
  0
SCALE
  5
189
102
{ACAD_REACTORS
330
10C
102
}
330
10C
100
AcDbScale
 70
     0
300
1:4
140
1.0
141
4.0
290
     0
  0
SCALE
  5
18A
102
{ACAD_REACTORS
330
10C
102
}
330
10C
100
AcDbScale
 70
     0
300
1:5
140
1.0
141
5.0
290
     0
  0
SCALE
  5
18B
102
{ACAD_REACTORS
330
10C
102
}
330
10C
100
AcDbScale
 70
     0
300
1:8
140
1.0
141
8.0
290
     0
  0
SCALE
  5
18C
102
{ACAD_REACTORS
330
10C
102
}
330
10C
100
AcDbScale
 70
     0
300
1:10
140
1.0
141
10.0
290
     0
  0
SCALE
  5
18D
102
{ACAD_REACTORS
330
10C
102
}
330
10C
100
AcDbScale
 70
     0
300
1:16
140
1.0
141
16.0
290
     0
  0
SCALE
  5
18E
102
{ACAD_REACTORS
330
10C
102
}
330
10C
100
AcDbScale
 70
     0
300
1:20
140
1.0
141
20.0
290
     0
  0
SCALE
  5
18F
102
{ACAD_REACTORS
330
10C
102
}
330
10C
100
AcDbScale
 70
     0
300
1:30
140
1.0
141
30.0
290
     0
  0
SCALE
  5
190
102
{ACAD_REACTORS
330
10C
102
}
330
10C
100
AcDbScale
 70
     0
300
1:40
140
1.0
141
40.0
290
     0
  0
SCALE
  5
191
102
{ACAD_REACTORS
330
10C
102
}
330
10C
100
AcDbScale
 70
     0
300
1:50
140
1.0
141
50.0
290
     0
  0
SCALE
  5
192
102
{ACAD_REACTORS
330
10C
102
}
330
10C
100
AcDbScale
 70
     0
300
1:100
140
1.0
141
100.0
290
     0
  0
SCALE
  5
193
102
{ACAD_REACTORS
330
10C
102
}
330
10C
100
AcDbScale
 70
     0
300
2:1
140
2.0
141
1.0
290
     0
  0
SCALE
  5
194
102
{ACAD_REACTORS
330
10C
102
}
330
10C
100
AcDbScale
 70
     0
300
4:1
140
4.0
141
1.0
290
     0
  0
SCALE
  5
195
102
{ACAD_REACTORS
330
10C
102
}
330
10C
100
AcDbScale
 70
     0
300
8:1
140
8.0
141
1.0
290
     0
  0
SCALE
  5
196
102
{ACAD_REACTORS
330
10C
102
}
330
10C
100
AcDbScale
 70
     0
300
10:1
140
10.0
141
1.0
290
     0
  0
SCALE
  5
197
102
{ACAD_REACTORS
330
10C
102
}
330
10C
100
AcDbScale
 70
     0
300
100:1
140
100.0
141
1.0
290
     0
  0
SCALE
  5
198
102
{ACAD_REACTORS
330
10C
102
}
330
10C
100
AcDbScale
 70
     0
300
1/128" = 1'-0"
140
0.0078125
141
12.0
290
     0
  0
SCALE
  5
199
102
{ACAD_REACTORS
330
10C
102
}
330
10C
100
AcDbScale
 70
     0
300
1/64" = 1'-0"
140
0.015625
141
12.0
290
     0
  0
SCALE
  5
19A
102
{ACAD_REACTORS
330
10C
102
}
330
10C
100
AcDbScale
 70
     0
300
1/32" = 1'-0"
140
0.03125
141
12.0
290
     0
  0
SCALE
  5
19B
102
{ACAD_REACTORS
330
10C
102
}
330
10C
100
AcDbScale
 70
     0
300
1/16" = 1'-0"
140
0.0625
141
12.0
290
     0
  0
SCALE
  5
19C
102
{ACAD_REACTORS
330
10C
102
}
330
10C
100
AcDbScale
 70
     0
300
3/32" = 1'-0"
140
0.09375
141
12.0
290
     0
  0
SCALE
  5
19D
102
{ACAD_REACTORS
330
10C
102
}
330
10C
100
AcDbScale
 70
     0
300
1/8" = 1'-0"
140
0.125
141
12.0
290
     0
  0
SCALE
  5
19E
102
{ACAD_REACTORS
330
10C
102
}
330
10C
100
AcDbScale
 70
     0
300
3/16" = 1'-0"
140
0.1875
141
12.0
290
     0
  0
SCALE
  5
19F
102
{ACAD_REACTORS
330
10C
102
}
330
10C
100
AcDbScale
 70
     0
300
1/4" = 1'-0"
140
0.25
141
12.0
290
     0
  0
SCALE
  5
1A0
102
{ACAD_REACTORS
330
10C
102
}
330
10C
100
AcDbScale
 70
     0
300
3/8" = 1'-0"
140
0.375
141
12.0
290
     0
  0
SCALE
  5
1A1
102
{ACAD_REACTORS
330
10C
102
}
330
10C
100
AcDbScale
 70
     0
300
1/2" = 1'-0"
140
0.5
141
12.0
290
     0
  0
SCALE
  5
1A2
102
{ACAD_REACTORS
330
10C
102
}
330
10C
100
AcDbScale
 70
     0
300
3/4" = 1'-0"
140
0.75
141
12.0
290
     0
  0
SCALE
  5
1A3
102
{ACAD_REACTORS
330
10C
102
}
330
10C
100
AcDbScale
 70
     0
300
1" = 1'-0"
140
1.0
141
12.0
290
     0
  0
SCALE
  5
1A4
102
{ACAD_REACTORS
330
10C
102
}
330
10C
100
AcDbScale
 70
     0
300
1-1/2" = 1'-0"
140
1.5
141
12.0
290
     0
  0
SCALE
  5
1A5
102
{ACAD_REACTORS
330
10C
102
}
330
10C
100
AcDbScale
 70
     0
300
3" = 1'-0"
140
3.0
141
12.0
290
     0
  0
SCALE
  5
1A6
102
{ACAD_REACTORS
330
10C
102
}
330
10C
100
AcDbScale
 70
     0
300
6" = 1'-0"
140
6.0
141
12.0
290
     0
  0
SCALE
  5
1A7
102
{ACAD_REACTORS
330
10C
102
}
330
10C
100
AcDbScale
 70
     0
300
1'-0" = 1'-0"
140
12.0
141
12.0
290
     0
  0
TABLESTYLE
  5
7F
102
{ACAD_XDICTIONARY
360
162
102
}
102
{ACAD_REACTORS
330
7E
102
}
330
7E
100
AcDbTableStyle
  3
Standard
 70
     0
 71
     0
 40
1.5
 41
1.5
280
     0
281
     0
  7
Standard
140
4.5
170
     2
 62
     0
 63
     7
283
     0
274
    -2
284
     1
 64
     0
275
    -2
285
     1
 65
     0
276
    -2
286
     1
 66
     0
277
    -2
287
     1
 67
     0
278
    -2
288
     1
 68
     0
279
    -2
289
     1
 69
     0
  7
Standard
140
6.0
170
     5
 62
     0
 63
     7
283
     0
274
    -2
284
     1
 64
     0
275
    -2
285
     1
 65
     0
276
    -2
286
     1
 66
     0
277
    -2
287
     1
 67
     0
278
    -2
288
     1
 68
     0
279
    -2
289
     1
 69
     0
  7
Standard
140
4.5
170
     5
 62
     0
 63
     7
283
     0
274
    -2
284
     1
 64
     0
275
    -2
285
     1
 65
     0
276
    -2
286
     1
 66
     0
277
    -2
287
     1
 67
     0
278
    -2
288
     1
 68
     0
279
    -2
289
     1
 69
     0
  0
VISUALSTYLE
  5
F5
102
{ACAD_REACTORS
330
EF
102
}
330
EF
100
AcDbVisualStyle
  2
2dWireframe
 70
     4
 71
     0
 72
     2
 73
     1
 90
        0
 40
-0.6
 41
-30.0
 62
     5
 63
     7
 74
     1
 91
        4
 64
     7
 65
   257
 75
     1
175
     1
 42
1.0
 92
        0
 66
   257
 43
1.0
 76
     1
 77
     6
 78
     2
 67
     7
 79
     5
170
     0
171
     0
290
     0
174
     0
 93
        1
 44
0.0
173
     0
291
     0
 45
0.0
1001
ACAD
1000
AcDbSavedByObjectVersion
1070
     0
  0
VISUALSTYLE
  5
F7
102
{ACAD_REACTORS
330
EF
102
}
330
EF
100
AcDbVisualStyle
  2
3D Hidden
 70
     6
 71
     1
 72
     2
 73
     2
 90
        0
 40
-0.6
 41
-30.0
 62
     5
 63
     7
 74
     2
 91
        2
 64
     7
 65
   257
 75
     2
175
     1
 42
40.0
 92
        0
 66
   257
 43
1.0
 76
     1
 77
     6
 78
     2
 67
     7
 79
     3
170
     0
171
     0
290
     0
174
     0
 93
        1
 44
0.0
173
     0
291
     0
 45
0.0
1001
ACAD
1000
AcDbSavedByObjectVersion
1070
     0
  0
VISUALSTYLE
  5
F6
102
{ACAD_REACTORS
330
EF
102
}
330
EF
100
AcDbVisualStyle
  2
3dWireframe
 70
     5
 71
     0
 72
     2
 73
     1
 90
        0
 40
-0.6
 41
-30.0
 62
     5
 63
     7
 74
     1
 91
        4
 64
     7
 65
   257
 75
     1
175
     1
 42
1.0
 92
        0
 66
   257
 43
1.0
 76
     1
 77
     6
 78
     2
 67
     7
 79
     5
170
     0
171
     0
290
     0
174
     0
 93
        1
 44
0.0
173
     0
291
     0
 45
0.0
1001
ACAD
1000
AcDbSavedByObjectVersion
1070
     0
  0
VISUALSTYLE
  5
F4
102
{ACAD_REACTORS
330
EF
102
}
330
EF
100
AcDbVisualStyle
  2
Basic
 70
     7
 71
     1
 72
     0
 73
     1
 90
        0
 40
-0.6
 41
-30.0
 62
     5
 63
     7
 74
     0
 91
        4
 64
     7
 65
   257
 75
     1
175
     1
 42
1.0
 92
        8
 66
     7
 43
1.0
 76
     1
 77
     6
 78
     2
 67
     7
 79
     5
170
     0
171
     0
290
     0
174
     0
 93
        1
 44
0.0
173
     0
291
     1
 45
0.0
1001
ACAD
1000
AcDbSavedByObjectVersion
1070
     0
  0
VISUALSTYLE
  5
FB
102
{ACAD_REACTORS
330
EF
102
}
330
EF
100
AcDbVisualStyle
  2
Brighten
 70
    12
 71
     2
 72
     2
 73
     1
 90
        0
 40
-0.6
 41
-30.0
 62
     5
 63
     7
 74
     1
 91
        4
 64
     7
 65
   257
 75
     1
175
     1
 42
1.0
 92
        8
 66
     7
 43
1.0
 76
     1
 77
     6
 78
     2
 67
     7
 79
     5
170
     0
171
     0
290
     0
174
     0
 93
        1
 44
50.0
173
     0
291
     1
 45
0.0
1001
ACAD
1000
AcDbSavedByObjectVersion
1070
     0
  0
VISUALSTYLE
  5
FF
102
{ACAD_REACTORS
330
EF
102
}
330
EF
100
AcDbVisualStyle
  2
ColorChange
 70
    16
 71
     2
 72
     2
 73
     3
 90
        0
 40
-0.6
 41
-30.0
 62
     5
 63
     8
 74
     1
 91
        4
 64
     7
 65
   257
 75
     1
175
     1
 42
1.0
 92
        8
 66
     8
 43
1.0
 76
     1
 77
     6
 78
     2
 67
     7
 79
     5
170
     0
171
     0
290
     0
174
     0
 93
        1
 44
0.0
173
     0
291
     1
 45
0.0
1001
ACAD
1000
AcDbSavedByObjectVersion
1070
     0
  0
VISUALSTYLE
  5
F8
102
{ACAD_REACTORS
330
EF
102
}
330
EF
100
AcDbVisualStyle
  2
Conceptual
 70
     9
 71
     3
 72
     2
 73
     1
 90
        0
 40
-0.6
 41
-30.0
 62
     5
 63
     7
 74
     2
 91
        2
 64
     7
 65
   257
 75
     1
175
     1
 42
40.0
 92
        8
 66
     7
 43
1.0
 76
     1
 77
     6
 78
     2
 67
     7
 79
     3
170
     0
171
     0
290
     0
174
     0
 93
        1
 44
0.0
173
     0
291
     0
 45
0.0
1001
ACAD
1000
AcDbSavedByObjectVersion
1070
     0
  0
VISUALSTYLE
  5
FA
102
{ACAD_REACTORS
330
EF
102
}
330
EF
100
AcDbVisualStyle
  2
Dim
 70
    11
 71
     2
 72
     2
 73
     1
 90
        0
 40
-0.6
 41
-30.0
 62
     5
 63
     7
 74
     1
 91
        4
 64
     7
 65
   257
 75
     1
175
     1
 42
1.0
 92
        8
 66
     7
 43
1.0
 76
     1
 77
     6
 78
     2
 67
     7
 79
     5
170
     0
171
     0
290
     0
174
     0
 93
        1
 44
-50.0
173
     0
291
     1
 45
0.0
1001
ACAD
1000
AcDbSavedByObjectVersion
1070
     0
  0
VISUALSTYLE
  5
FE
102
{ACAD_REACTORS
330
EF
102
}
330
EF
100
AcDbVisualStyle
  2
Facepattern
 70
    15
 71
     2
 72
     2
 73
     1
 90
        0
 40
-0.6
 41
-30.0
 62
     5
 63
     7
 74
     1
 91
        4
 64
     7
 65
   257
 75
     1
175
     1
 42
1.0
 92
        8
 66
     7
 43
1.0
 76
     1
 77
     6
 78
     2
 67
     7
 79
     5
170
     0
171
     0
290
     0
174
     0
 93
        1
 44
0.0
173
     0
291
     1
 45
0.0
1001
ACAD
1000
AcDbSavedByObjectVersion
1070
     0
  0
VISUALSTYLE
  5
F0
102
{ACAD_REACTORS
330
EF
102
}
330
EF
100
AcDbVisualStyle
  2
Flat
 70
     0
 71
     2
 72
     1
 73
     1
 90
        2
 40
-0.6
 41
30.0
 62
     5
 63
     7
 74
     0
 91
        4
 64
     7
 65
   257
 75
     1
175
     1
 42
1.0
 92
        8
 66
     7
 43
1.0
 76
     1
 77
     6
 78
     2
 67
     7
 79
     5
170
     0
171
     0
290
     0
174
     0
 93
        1
 44
0.0
173
     0
291
     1
 45
0.0
1001
ACAD
1000
AcDbSavedByObjectVersion
1070
     0
  0
VISUALSTYLE
  5
F1
102
{ACAD_REACTORS
330
EF
102
}
330
EF
100
AcDbVisualStyle
  2
FlatWithEdges
 70
     1
 71
     2
 72
     1
 73
     1
 90
        2
 40
-0.6
 41
30.0
 62
     5
 63
     7
 74
     1
 91
        4
 64
     7
 65
   257
 75
     1
175
     1
 42
1.0
 92
        0
 66
   257
 43
1.0
 76
     1
 77
     6
 78
     2
 67
     7
 79
     5
170
     0
171
     0
290
     0
174
     0
 93
        1
 44
0.0
173
     0
291
     1
 45
0.0
1001
ACAD
1000
AcDbSavedByObjectVersion
1070
     0
  0
VISUALSTYLE
  5
F2
102
{ACAD_REACTORS
330
EF
102
}
330
EF
100
AcDbVisualStyle
  2
Gouraud
 70
     2
 71
     2
 72
     2
 73
     1
 90
        2
 40
-0.6
 41
30.0
 62
     5
 63
     7
 74
     0
 91
        4
 64
     7
 65
   257
 75
     1
175
     1
 42
1.0
 92
        0
 66
     7
 43
1.0
 76
     1
 77
     6
 78
     2
 67
     7
 79
     5
170
     0
171
     0
290
     0
174
     0
 93
        1
 44
0.0
173
     0
291
     1
 45
0.0
1001
ACAD
1000
AcDbSavedByObjectVersion
1070
     0
  0
VISUALSTYLE
  5
F3
102
{ACAD_REACTORS
330
EF
102
}
330
EF
100
AcDbVisualStyle
  2
GouraudWithEdges
 70
     3
 71
     2
 72
     2
 73
     1
 90
        2
 40
-0.6
 41
30.0
 62
     5
 63
     7
 74
     1
 91
        4
 64
     7
 65
   257
 75
     1
175
     1
 42
1.0
 92
        0
 66
   257
 43
1.0
 76
     1
 77
     6
 78
     2
 67
     7
 79
     5
170
     0
171
     0
290
     0
174
     0
 93
        1
 44
0.0
173
     0
291
     1
 45
0.0
1001
ACAD
1000
AcDbSavedByObjectVersion
1070
     0
  0
VISUALSTYLE
  5
FD
102
{ACAD_REACTORS
330
EF
102
}
330
EF
100
AcDbVisualStyle
  2
Linepattern
 70
    14
 71
     2
 72
     2
 73
     1
 90
        0
 40
-0.6
 41
-30.0
 62
     5
 63
     7
 74
     1
 91
        4
 64
     7
 65
   257
 75
     7
175
     7
 42
1.0
 92
        8
 66
     7
 43
1.0
 76
     1
 77
     6
 78
     2
 67
     7
 79
     5
170
     0
171
     0
290
     0
174
     0
 93
        1
 44
0.0
173
     0
291
     1
 45
0.0
1001
ACAD
1000
AcDbSavedByObjectVersion
1070
     0
  0
VISUALSTYLE
  5
F9
102
{ACAD_REACTORS
330
EF
102
}
330
EF
100
AcDbVisualStyle
  2
Realistic
 70
     8
 71
     2
 72
     2
 73
     1
 90
        0
 40
-0.6
 41
-30.0
 62
     5
 63
     7
 74
     1
 91
        0
 64
     7
 65
   257
 75
     1
175
     1
 42
1.0
 92
        8
 66
     8
 43
1.0
 76
     1
 77
     6
 78
     2
 67
     7
 79
     5
170
     0
171
     0
290
     0
174
     0
 93
       13
 44
0.0
173
     0
291
     0
 45
0.0
1001
ACAD
1000
AcDbSavedByObjectVersion
1070
     0
  0
VISUALSTYLE
  5
FC
102
{ACAD_REACTORS
330
EF
102
}
330
EF
100
AcDbVisualStyle
  2
Thicken
 70
    13
 71
     2
 72
     2
 73
     1
 90
        0
 40
-0.6
 41
-30.0
 62
     5
 63
     7
 74
     1
 91
        4
 64
     7
 65
   257
 75
     1
175
     1
 42
1.0
 92
       12
 66
     7
 43
1.0
 76
     1
 77
     6
 78
     2
 67
     7
 79
     5
170
     0
171
     0
290
     0
174
     0
 93
        1
 44
0.0
173
     0
291
     1
 45
0.0
1001
ACAD
1000
AcDbSavedByObjectVersion
1070
     0
  0
DICTIONARYVAR
  5
146
102
{ACAD_REACTORS
330
5E
102
}
330
5E
100
DictionaryVariables
280
     0
  1
1:1
  0
DICTIONARYVAR
  5
145
102
{ACAD_REACTORS
330
5E
102
}
330
5E
100
DictionaryVariables
280
     0
  1
STANDARD
  0
DICTIONARYVAR
  5
84
102
{ACAD_REACTORS
330
5E
102
}
330
5E
100
DictionaryVariables
280
     0
  1
STANDARD
  0
DICTIONARYVAR
  5
5F
102
{ACAD_REACTORS
330
5E
102
}
330
5E
100
DictionaryVariables
280
     0
  1
2
  0
DICTIONARYVAR
  5
63
102
{ACAD_REACTORS
330
5E
102
}
330
5E
100
DictionaryVariables
280
     0
  1
1
  0
DICTIONARYVAR
  5
B54
102
{ACAD_REACTORS
330
5E
102
}
330
5E
100
DictionaryVariables
280
     0
  1
0
  0
DICTIONARYVAR
  5
B52
102
{ACAD_REACTORS
330
5E
102
}
330
5E
100
DictionaryVariables
280
     0
  1
2
  0
DICTIONARYVAR
  5
B51
102
{ACAD_REACTORS
330
5E
102
}
330
5E
100
DictionaryVariables
280
     0
  1
1
  0
DICTIONARYVAR
  5
B56
102
{ACAD_REACTORS
330
5E
102
}
330
5E
100
DictionaryVariables
280
     0
  1
80.000000
  0
DICTIONARYVAR
  5
B55
102
{ACAD_REACTORS
330
5E
102
}
330
5E
100
DictionaryVariables
280
     0
  1
5.000000
  0
DICTIONARYVAR
  5
B53
102
{ACAD_REACTORS
330
5E
102
}
330
5E
100
DictionaryVariables
280
     0
  1
127
  0
DICTIONARY
  5
B5C
330
D3
100
AcDbDictionary
280
     1
281
     1
  3
ACAD_XREC_ROUNDTRIP
360
B5D
  0
DICTIONARY
  5
B5E
330
D7
100
AcDbDictionary
280
     1
281
     1
  3
ACAD_XREC_ROUNDTRIP
360
B5F
  0
DICTIONARY
  5
B59
330
22
100
AcDbDictionary
280
     1
281
     1
  3
ACAD_XREC_ROUNDTRIP
360
B5A
  0
DICTIONARY
  5
B62
330
ED
100
AcDbDictionary
280
     1
281
     1
  3
ACAD_XREC_ROUNDTRIP
360
B63
  0
DICTIONARY
  5
B60
330
EC
100
AcDbDictionary
280
     1
281
     1
  3
ACAD_XREC_ROUNDTRIP
360
B61
  0
DICTIONARY
  5
173
330
EE
100
AcDbDictionary
280
     1
281
     1
  3
ACAD_XREC_ROUNDTRIP
360
B64
  3
BUMPTILE
360
175
  3
DIFFUSETILE
360
174
  3
OPACITYTILE
360
176
  3
REFLECTIONTILE
360
177
  0
DICTIONARY
  5
162
330
7F
100
AcDbDictionary
280
     1
281
     1
  3
ACAD_ROUNDTRIP_2008_TABLESTYLE_CELLSTYLEMAP
360
B57
  3
ACAD_XREC_ROUNDTRIP
360
B5B
  0
XRECORD
  5
B5D
102
{ACAD_REACTORS
330
B5C
102
}
330
B5C
100
AcDbXrecord
280
     1
102
SHADEPLOT
 70
     0
102
SHADEPLOTRESLEVEL
 70
     2
102
SHADEPLOTCUSTOMDPI
 70
   300
  0
XRECORD
  5
B5F
102
{ACAD_REACTORS
330
B5E
102
}
330
B5E
100
AcDbXrecord
280
     1
102
SHADEPLOT
 70
     0
102
SHADEPLOTRESLEVEL
 70
     2
102
SHADEPLOTCUSTOMDPI
 70
   300
  0
XRECORD
  5
B5A
102
{ACAD_REACTORS
330
B59
102
}
330
B59
100
AcDbXrecord
280
     1
102
SHADEPLOT
 70
     0
102
SHADEPLOTRESLEVEL
 70
     2
102
SHADEPLOTCUSTOMDPI
 70
   300
  0
XRECORD
  5
B63
102
{ACAD_REACTORS
330
B62
102
}
330
B62
100
AcDbXrecord
280
     1
102
MATERIAL
148
0.0
149
0.0
149
0.0
 93
        0
 94
       63
282
     0
 72
     1
 77
     1
171
     1
175
     1
179
     1
273
     0
  0
XRECORD
  5
B61
102
{ACAD_REACTORS
330
B60
102
}
330
B60
100
AcDbXrecord
280
     1
102
MATERIAL
148
0.0
149
0.0
149
0.0
 93
        0
 94
       63
282
     0
 72
     1
 77
     1
171
     1
175
     1
179
     1
273
     0
  0
XRECORD
  5
B64
102
{ACAD_REACTORS
330
173
102
}
330
173
100
AcDbXrecord
280
     1
102
MATERIAL
148
0.0
149
0.0
149
0.0
 93
        0
 94
       63
282
     0
 72
     1
 77
     1
171
     1
175
     1
179
     1
273
     0
  0
XRECORD
  5
175
102
{ACAD_REACTORS
330
173
102
}
330
173
100
AcDbXrecord
280
     1
270
     1
271
     1
  0
XRECORD
  5
174
102
{ACAD_REACTORS
330
173
102
}
330
173
100
AcDbXrecord
280
     1
270
     1
271
     1
  0
XRECORD
  5
176
102
{ACAD_REACTORS
330
173
102
}
330
173
100
AcDbXrecord
280
     1
270
     1
271
     1
  0
XRECORD
  5
177
102
{ACAD_REACTORS
330
173
102
}
330
173
100
AcDbXrecord
280
     1
270
     1
271
     1
  0
CELLSTYLEMAP
  5
B57
102
{ACAD_REACTORS
330
162
102
}
330
162
100
AcDbCellStyleMap
 90
        3
300
CELLSTYLE
  1
TABLEFORMAT_BEGIN
 90
        5
170
     1
 91
        0
 92
    32768
 62
   257
 93
        1
300
CONTENTFORMAT
  1
CONTENTFORMAT_BEGIN
 90
        0
 91
        0
 92
      512
 93
        0
300

 40
0.0
140
1.0
 94
        5
 62
     0
340
11
144
6.0
309
CONTENTFORMAT_END
171
     1
301
MARGIN
  1
CELLMARGIN_BEGIN
 40
1.5
 40
1.5
 40
1.5
 40
1.5
 40
4.5
 40
4.5
309
CELLMARGIN_END
 94
        6
 95
        1
302
GRIDFORMAT
  1
GRIDFORMAT_BEGIN
 90
        0
 91
        1
 62
     0
 92
       -2
340
14
 93
        0
 40
1.125
309
GRIDFORMAT_END
 95
        2
302
GRIDFORMAT
  1
GRIDFORMAT_BEGIN
 90
        0
 91
        1
 62
     0
 92
       -2
340
14
 93
        0
 40
1.125
309
GRIDFORMAT_END
 95
        4
302
GRIDFORMAT
  1
GRIDFORMAT_BEGIN
 90
        0
 91
        1
 62
     0
 92
       -2
340
14
 93
        0
 40
1.125
309
GRIDFORMAT_END
 95
        8
302
GRIDFORMAT
  1
GRIDFORMAT_BEGIN
 90
        0
 91
        1
 62
     0
 92
       -2
340
14
 93
        0
 40
1.125
309
GRIDFORMAT_END
 95
       16
302
GRIDFORMAT
  1
GRIDFORMAT_BEGIN
 90
        0
 91
        1
 62
     0
 92
       -2
340
14
 93
        0
 40
1.125
309
GRIDFORMAT_END
 95
       32
302
GRIDFORMAT
  1
GRIDFORMAT_BEGIN
 90
        0
 91
        1
 62
     0
 92
       -2
340
14
 93
        0
 40
1.125
309
GRIDFORMAT_END
309
TABLEFORMAT_END
  1
CELLSTYLE_BEGIN
 90
        1
 91
        1
300
_TITLE
309
CELLSTYLE_END
300
CELLSTYLE
  1
TABLEFORMAT_BEGIN
 90
        5
170
     1
 91
        0
 92
        0
 62
   257
 93
        1
300
CONTENTFORMAT
  1
CONTENTFORMAT_BEGIN
 90
        0
 91
        0
 92
      512
 93
        0
300

 40
0.0
140
1.0
 94
        5
 62
     0
340
11
144
4.5
309
CONTENTFORMAT_END
171
     1
301
MARGIN
  1
CELLMARGIN_BEGIN
 40
1.5
 40
1.5
 40
1.5
 40
1.5
 40
4.5
 40
4.5
309
CELLMARGIN_END
 94
        6
 95
        1
302
GRIDFORMAT
  1
GRIDFORMAT_BEGIN
 90
        0
 91
        1
 62
     0
 92
       -2
340
14
 93
        0
 40
1.125
309
GRIDFORMAT_END
 95
        2
302
GRIDFORMAT
  1
GRIDFORMAT_BEGIN
 90
        0
 91
        1
 62
     0
 92
       -2
340
14
 93
        0
 40
1.125
309
GRIDFORMAT_END
 95
        4
302
GRIDFORMAT
  1
GRIDFORMAT_BEGIN
 90
        0
 91
        1
 62
     0
 92
       -2
340
14
 93
        0
 40
1.125
309
GRIDFORMAT_END
 95
        8
302
GRIDFORMAT
  1
GRIDFORMAT_BEGIN
 90
        0
 91
        1
 62
     0
 92
       -2
340
14
 93
        0
 40
1.125
309
GRIDFORMAT_END
 95
       16
302
GRIDFORMAT
  1
GRIDFORMAT_BEGIN
 90
        0
 91
        1
 62
     0
 92
       -2
340
14
 93
        0
 40
1.125
309
GRIDFORMAT_END
 95
       32
302
GRIDFORMAT
  1
GRIDFORMAT_BEGIN
 90
        0
 91
        1
 62
     0
 92
       -2
340
14
 93
        0
 40
1.125
309
GRIDFORMAT_END
309
TABLEFORMAT_END
  1
CELLSTYLE_BEGIN
 90
        2
 91
        1
300
_HEADER
309
CELLSTYLE_END
300
CELLSTYLE
  1
TABLEFORMAT_BEGIN
 90
        5
170
     1
 91
        0
 92
        0
 62
   257
 93
        1
300
CONTENTFORMAT
  1
CONTENTFORMAT_BEGIN
 90
        0
 91
        0
 92
      512
 93
        0
300

 40
0.0
140
1.0
 94
        2
 62
     0
340
11
144
4.5
309
CONTENTFORMAT_END
171
     1
301
MARGIN
  1
CELLMARGIN_BEGIN
 40
1.5
 40
1.5
 40
1.5
 40
1.5
 40
4.5
 40
4.5
309
CELLMARGIN_END
 94
        6
 95
        1
302
GRIDFORMAT
  1
GRIDFORMAT_BEGIN
 90
        0
 91
        1
 62
     0
 92
       -2
340
14
 93
        0
 40
1.125
309
GRIDFORMAT_END
 95
        2
302
GRIDFORMAT
  1
GRIDFORMAT_BEGIN
 90
        0
 91
        1
 62
     0
 92
       -2
340
14
 93
        0
 40
1.125
309
GRIDFORMAT_END
 95
        4
302
GRIDFORMAT
  1
GRIDFORMAT_BEGIN
 90
        0
 91
        1
 62
     0
 92
       -2
340
14
 93
        0
 40
1.125
309
GRIDFORMAT_END
 95
        8
302
GRIDFORMAT
  1
GRIDFORMAT_BEGIN
 90
        0
 91
        1
 62
     0
 92
       -2
340
14
 93
        0
 40
1.125
309
GRIDFORMAT_END
 95
       16
302
GRIDFORMAT
  1
GRIDFORMAT_BEGIN
 90
        0
 91
        1
 62
     0
 92
       -2
340
14
 93
        0
 40
1.125
309
GRIDFORMAT_END
 95
       32
302
GRIDFORMAT
  1
GRIDFORMAT_BEGIN
 90
        0
 91
        1
 62
     0
 92
       -2
340
14
 93
        0
 40
1.125
309
GRIDFORMAT_END
309
TABLEFORMAT_END
  1
CELLSTYLE_BEGIN
 90
        3
 91
        2
300
_DATA
309
CELLSTYLE_END
  0
XRECORD
  5
B5B
102
{ACAD_REACTORS
330
162
102
}
330
162
100
AcDbXrecord
280
     1
102
ACAD_ROUNDTRIP_PRE2007_TABLESTYLE
 90
      512
 91
        0
  1

 92
      512
 93
        0
  2

 94
      512
 95
        0
  3

  0
ENDSEC
  0
EOF
