  0
SECTION
  2
HEADER
  9
$ACADVER
  1
AC1015
  9
$ACADMAINTVER
 70
    20
  9
$DWGCODEPAGE
  3
ANSI_1254
  9
$INSBASE
 10
0.0
 20
0.0
 30
0.0
  9
$EXTMIN
 10
1363.061143545547
 20
1011.083685263764
 30
0.0
  9
$EXTMAX
 10
1499.76689217238
 20
1047.013050572339
 30
0.0
  9
$LIMMIN
 10
0.0
 20
0.0
  9
$LIMMAX
 10
420.0
 20
297.0
  9
$ORTHOMODE
 70
     0
  9
$REGENMODE
 70
     1
  9
$FILLMODE
 70
     1
  9
$QTEXTMODE
 70
     0
  9
$MIRRTEXT
 70
     0
  9
$LTSCALE
 40
1.0
  9
$ATTMODE
 70
     1
  9
$TEXTSIZE
 40
2.5
  9
$TRACEWID
 40
1.0
  9
$TEXTSTYLE
  7
Standard
  9
$CLAYER
  8
0
  9
$CELTYPE
  6
ByLayer
  9
$CECOLOR
 62
   256
  9
$CELTSCALE
 40
1.0
  9
$DISPSILH
 70
     0
  9
$DIMSCALE
 40
1.0
  9
$DIMASZ
 40
2.5
  9
$DIMEXO
 40
0.625
  9
$DIMDLI
 40
3.75
  9
$DIMRND
 40
0.0
  9
$DIMDLE
 40
0.0
  9
$DIMEXE
 40
1.25
  9
$DIMTP
 40
0.0
  9
$DIMTM
 40
0.0
  9
$DIMTXT
 40
2.5
  9
$DIMCEN
 40
2.5
  9
$DIMTSZ
 40
0.0
  9
$DIMTOL
 70
     0
  9
$DIMLIM
 70
     0
  9
$DIMTIH
 70
     0
  9
$DIMTOH
 70
     0
  9
$DIMSE1
 70
     0
  9
$DIMSE2
 70
     0
  9
$DIMTAD
 70
     1
  9
$DIMZIN
 70
     8
  9
$DIMBLK
  1

  9
$DIMASO
 70
     1
  9
$DIMSHO
 70
     1
  9
$DIMPOST
  1

  9
$DIMAPOST
  1

  9
$DIMALT
 70
     0
  9
$DIMALTD
 70
     3
  9
$DIMALTF
 40
0.03937007874016
  9
$DIMLFAC
 40
1.0
  9
$DIMTOFL
 70
     1
  9
$DIMTVP
 40
0.0
  9
$DIMTIX
 70
     0
  9
$DIMSOXD
 70
     0
  9
$DIMSAH
 70
     0
  9
$DIMBLK1
  1

  9
$DIMBLK2
  1

  9
$DIMSTYLE
  2
ISO-25
  9
$DIMCLRD
 70
     0
  9
$DIMCLRE
 70
     0
  9
$DIMCLRT
 70
     0
  9
$DIMTFAC
 40
1.0
  9
$DIMGAP
 40
0.625
  9
$DIMJUST
 70
     0
  9
$DIMSD1
 70
     0
  9
$DIMSD2
 70
     0
  9
$DIMTOLJ
 70
     0
  9
$DIMTZIN
 70
     8
  9
$DIMALTZ
 70
     0
  9
$DIMALTTZ
 70
     0
  9
$DIMUPT
 70
     0
  9
$DIMDEC
 70
     2
  9
$DIMTDEC
 70
     2
  9
$DIMALTU
 70
     2
  9
$DIMALTTD
 70
     3
  9
$DIMTXSTY
  7
Standard
  9
$DIMAUNIT
 70
     0
  9
$DIMADEC
 70
     0
  9
$DIMALTRND
 40
0.0
  9
$DIMAZIN
 70
     0
  9
$DIMDSEP
 70
    44
  9
$DIMATFIT
 70
     3
  9
$DIMFRAC
 70
     0
  9
$DIMLDRBLK
  1

  9
$DIMLUNIT
 70
     2
  9
$DIMLWD
 70
    -2
  9
$DIMLWE
 70
    -2
  9
$DIMTMOVE
 70
     0
  9
$LUNITS
 70
     2
  9
$LUPREC
 70
     4
  9
$SKETCHINC
 40
1.0
  9
$FILLETRAD
 40
0.0
  9
$AUNITS
 70
     0
  9
$AUPREC
 70
     0
  9
$MENU
  1
.
  9
$ELEVATION
 40
0.0
  9
$PELEVATION
 40
0.0
  9
$THICKNESS
 40
0.0
  9
$LIMCHECK
 70
     0
  9
$CHAMFERA
 40
0.0
  9
$CHAMFERB
 40
0.0
  9
$CHAMFERC
 40
0.0
  9
$CHAMFERD
 40
0.0
  9
$SKPOLY
 70
     0
  9
$TDCREATE
 40
2458453.444287002
  9
$TDUCREATE
 40
2458453.319287002
  9
$TDUPDATE
 40
2458983.555031540
  9
$TDUUPDATE
 40
2458983.430031540
  9
$TDINDWG
 40
0.0007768171
  9
$TDUSRTIMER
 40
0.0007768171
  9
$USRTIMER
 70
     1
  9
$ANGBASE
 50
0.0
  9
$ANGDIR
 70
     0
  9
$PDMODE
 70
     0
  9
$PDSIZE
 40
0.0
  9
$PLINEWID
 40
0.0
  9
$SPLFRAME
 70
     0
  9
$SPLINETYPE
 70
     6
  9
$SPLINESEGS
 70
     8
  9
$HANDSEED
  5
8B0
  9
$SURFTAB1
 70
     6
  9
$SURFTAB2
 70
     6
  9
$SURFTYPE
 70
     6
  9
$SURFU
 70
     6
  9
$SURFV
 70
     6
  9
$UCSBASE
  2

  9
$UCSNAME
  2

  9
$UCSORG
 10
0.0
 20
0.0
 30
0.0
  9
$UCSXDIR
 10
1.0
 20
0.0
 30
0.0
  9
$UCSYDIR
 10
0.0
 20
1.0
 30
0.0
  9
$UCSORTHOREF
  2

  9
$UCSORTHOVIEW
 70
     0
  9
$UCSORGTOP
 10
0.0
 20
0.0
 30
0.0
  9
$UCSORGBOTTOM
 10
0.0
 20
0.0
 30
0.0
  9
$UCSORGLEFT
 10
0.0
 20
0.0
 30
0.0
  9
$UCSORGRIGHT
 10
0.0
 20
0.0
 30
0.0
  9
$UCSORGFRONT
 10
0.0
 20
0.0
 30
0.0
  9
$UCSORGBACK
 10
0.0
 20
0.0
 30
0.0
  9
$PUCSBASE
  2

  9
$PUCSNAME
  2

  9
$PUCSORG
 10
0.0
 20
0.0
 30
0.0
  9
$PUCSXDIR
 10
1.0
 20
0.0
 30
0.0
  9
$PUCSYDIR
 10
0.0
 20
1.0
 30
0.0
  9
$PUCSORTHOREF
  2

  9
$PUCSORTHOVIEW
 70
     0
  9
$PUCSORGTOP
 10
0.0
 20
0.0
 30
0.0
  9
$PUCSORGBOTTOM
 10
0.0
 20
0.0
 30
0.0
  9
$PUCSORGLEFT
 10
0.0
 20
0.0
 30
0.0
  9
$PUCSORGRIGHT
 10
0.0
 20
0.0
 30
0.0
  9
$PUCSORGFRONT
 10
0.0
 20
0.0
 30
0.0
  9
$PUCSORGBACK
 10
0.0
 20
0.0
 30
0.0
  9
$USERI1
 70
     0
  9
$USERI2
 70
     0
  9
$USERI3
 70
     0
  9
$USERI4
 70
     0
  9
$USERI5
 70
     0
  9
$USERR1
 40
0.0
  9
$USERR2
 40
0.0
  9
$USERR3
 40
0.0
  9
$USERR4
 40
0.0
  9
$USERR5
 40
0.0
  9
$WORLDVIEW
 70
     1
  9
$SHADEDGE
 70
     3
  9
$SHADEDIF
 70
    70
  9
$TILEMODE
 70
     1
  9
$MAXACTVP
 70
    64
  9
$PINSBASE
 10
0.0
 20
0.0
 30
0.0
  9
$PLIMCHECK
 70
     0
  9
$PEXTMIN
 10
0.0
 20
0.0
 30
0.0
  9
$PEXTMAX
 10
0.0
 20
0.0
 30
0.0
  9
$PLIMMIN
 10
0.0
 20
0.0
  9
$PLIMMAX
 10
12.0
 20
9.0
  9
$UNITMODE
 70
     0
  9
$VISRETAIN
 70
     1
  9
$PLINEGEN
 70
     0
  9
$PSLTSCALE
 70
     1
  9
$TREEDEPTH
 70
  3020
  9
$CMLSTYLE
  2
Standard
  9
$CMLJUST
 70
     0
  9
$CMLSCALE
 40
20.0
  9
$PROXYGRAPHICS
 70
     1
  9
$MEASUREMENT
 70
     1
  9
$CELWEIGHT
370
    -1
  9
$ENDCAPS
280
     0
  9
$JOINSTYLE
280
     0
  9
$LWDISPLAY
290
     0
  9
$INSUNITS
 70
     4
  9
$HYPERLINKBASE
  1

  9
$STYLESHEET
  1

  9
$XEDIT
290
     1
  9
$CEPSNTYPE
380
     0
  9
$PSTYLEMODE
290
     1
  9
$FINGERPRINTGUID
  2
{C6126D2F-5499-483D-B9D9-542EC4CAA82D}
  9
$VERSIONGUID
  2
{E9B9032E-1CF7-4CEA-823E-BA5FE8D7F05A}
  9
$EXTNAMES
290
     1
  9
$PSVPSCALE
 40
0.0
  9
$OLESTARTUP
290
     0
  0
ENDSEC
  0
SECTION
  2
CLASSES
  0
CLASS
  1
ACDBDICTIONARYWDFLT
  2
AcDbDictionaryWithDefault
  3
ObjectDBX Classes
 90
        0
280
     0
281
     0
  0
CLASS
  1
ACDBPLACEHOLDER
  2
AcDbPlaceHolder
  3
ObjectDBX Classes
 90
        0
280
     0
281
     0
  0
CLASS
  1
LAYOUT
  2
AcDbLayout
  3
ObjectDBX Classes
 90
        0
280
     0
281
     0
  0
CLASS
  1
DICTIONARYVAR
  2
AcDbDictionaryVar
  3
ObjectDBX Classes
 90
        0
280
     0
281
     0
  0
CLASS
  1
TABLESTYLE
  2
AcDbTableStyle
  3
ObjectDBX Classes
 90
     4095
280
     0
281
     0
  0
CLASS
  1
MATERIAL
  2
AcDbMaterial
  3
ObjectDBX Classes
 90
     1153
280
     0
281
     0
  0
CLASS
  1
VISUALSTYLE
  2
AcDbVisualStyle
  3
ObjectDBX Classes
 90
     4095
280
     0
281
     0
  0
CLASS
  1
SCALE
  2
AcDbScale
  3
ObjectDBX Classes
 90
     1153
280
     0
281
     0
  0
CLASS
  1
MLEADERSTYLE
  2
AcDbMLeaderStyle
  3
ACDB_MLEADERSTYLE_CLASS
 90
     4095
280
     0
281
     0
  0
CLASS
  1
CELLSTYLEMAP
  2
AcDbCellStyleMap
  3
ObjectDBX Classes
 90
     1152
280
     0
281
     0
  0
ENDSEC
  0
SECTION
  2
TABLES
  0
TABLE
  2
VPORT
  5
8
330
0
100
AcDbSymbolTable
 70
     1
  0
VPORT
  5
EA
330
8
100
AcDbSymbolTableRecord
100
AcDbViewportTableRecord
  2
*Active
 70
     0
 10
0.0
 20
0.0
 11
1.0
 21
1.0
 12
1484.207778099174
 22
1064.02730082697
 13
0.0
 23
0.0
 14
10.0
 24
10.0
 15
10.0
 25
10.0
 16
0.0
 26
0.0
 36
1.0
 17
0.0
 27
0.0
 37
0.0
 40
162.1794961074942
 41
1.903110047846889
 42
50.0
 43
0.0
 44
0.0
 50
0.0
 51
0.0
 71
     0
 72
  1000
 73
     1
 74
     3
 75
     0
 76
     0
 77
     0
 78
     0
281
     0
 65
     1
110
0.0
120
0.0
130
0.0
111
1.0
121
0.0
131
0.0
112
0.0
122
1.0
132
0.0
 79
     0
146
0.0
  0
ENDTAB
  0
TABLE
  2
LTYPE
  5
5
330
0
100
AcDbSymbolTable
 70
     1
  0
LTYPE
  5
14
330
5
100
AcDbSymbolTableRecord
100
AcDbLinetypeTableRecord
  2
ByBlock
 70
     0
  3

 72
    65
 73
     0
 40
0.0
  0
LTYPE
  5
15
330
5
100
AcDbSymbolTableRecord
100
AcDbLinetypeTableRecord
  2
ByLayer
 70
     0
  3

 72
    65
 73
     0
 40
0.0
  0
LTYPE
  5
16
330
5
100
AcDbSymbolTableRecord
100
AcDbLinetypeTableRecord
  2
Continuous
 70
     0
  3
Solid line
 72
    65
 73
     0
 40
0.0
  0
ENDTAB
  0
TABLE
  2
LAYER
  5
2
330
0
100
AcDbSymbolTable
 70
     1
  0
LAYER
  5
10
102
{ACAD_XDICTIONARY
360
13C
102
}
330
2
100
AcDbSymbolTableRecord
100
AcDbLayerTableRecord
  2
0
 70
     0
 62
     7
  6
Continuous
370
    -3
390
F
  0
ENDTAB
  0
TABLE
  2
STYLE
  5
3
330
0
100
AcDbSymbolTable
 70
     2
  0
STYLE
  5
11
330
3
100
AcDbSymbolTableRecord
100
AcDbTextStyleTableRecord
  2
Standard
 70
     0
 40
0.0
 41
1.0
 50
0.0
 71
     0
 42
2.5
  3
txt
  4

  0
STYLE
  5
132
330
3
100
AcDbSymbolTableRecord
100
AcDbTextStyleTableRecord
  2
Annotative
 70
     0
 40
0.0
 41
1.0
 50
0.0
 71
     0
 42
2.5
  3
txt.shx
  4

1001
AcadAnnotative
1000
AnnotativeData
1002
{
1070
     1
1070
     1
1002
}
  0
ENDTAB
  0
TABLE
  2
VIEW
  5
6
330
0
100
AcDbSymbolTable
 70
     0
  0
ENDTAB
  0
TABLE
  2
UCS
  5
7
330
0
100
AcDbSymbolTable
 70
     0
  0
ENDTAB
  0
TABLE
  2
APPID
  5
9
330
0
100
AcDbSymbolTable
 70
     7
  0
APPID
  5
12
330
9
100
AcDbSymbolTableRecord
100
AcDbRegAppTableRecord
  2
ACAD
 70
     0
  0
APPID
  5
9E
330
9
100
AcDbSymbolTableRecord
100
AcDbRegAppTableRecord
  2
ACAD_PSEXT
 70
     0
  0
APPID
  5
133
330
9
100
AcDbSymbolTableRecord
100
AcDbRegAppTableRecord
  2
AcadAnnoPO
 70
     0
  0
APPID
  5
134
330
9
100
AcDbSymbolTableRecord
100
AcDbRegAppTableRecord
  2
AcadAnnotative
 70
     0
  0
APPID
  5
135
330
9
100
AcDbSymbolTableRecord
100
AcDbRegAppTableRecord
  2
ACAD_DSTYLE_DIMJAG
 70
     0
  0
APPID
  5
136
330
9
100
AcDbSymbolTableRecord
100
AcDbRegAppTableRecord
  2
ACAD_DSTYLE_DIMTALN
 70
     0
  0
APPID
  5
165
330
9
100
AcDbSymbolTableRecord
100
AcDbRegAppTableRecord
  2
ACAD_MLEADERVER
 70
     0
  0
ENDTAB
  0
TABLE
  2
DIMSTYLE
  5
A
330
0
100
AcDbSymbolTable
 70
     2
100
AcDbDimStyleTable
 71
     2
340
27
340
137
  0
DIMSTYLE
105
27
330
A
100
AcDbSymbolTableRecord
100
AcDbDimStyleTableRecord
  2
ISO-25
 70
     0
 41
2.5
 42
0.625
 43
3.75
 44
1.25
 73
     0
 74
     0
 77
     1
 78
     8
140
2.5
141
2.5
143
0.03937007874016
147
0.625
171
     3
172
     1
271
     2
272
     2
274
     3
278
    44
283
     0
284
     8
340
11
  0
DIMSTYLE
105
137
330
A
100
AcDbSymbolTableRecord
100
AcDbDimStyleTableRecord
  2
Annotative
 70
     0
 40
0.0
 41
2.5
 42
0.625
 43
3.75
 44
1.25
 73
     0
 74
     0
 77
     1
 78
     8
140
2.5
141
2.5
143
0.03937007874016
147
0.625
171
     3
172
     1
271
     2
272
     2
274
     3
278
    44
283
     0
284
     8
340
11
1001
AcadAnnotative
1000
AnnotativeData
1002
{
1070
     1
1070
     1
1002
}
1001
ACAD_DSTYLE_DIMJAG
1070
   388
1040
1.5
1001
ACAD_DSTYLE_DIMTALN
1070
   392
1070
     0
  0
ENDTAB
  0
TABLE
  2
BLOCK_RECORD
  5
1
330
0
100
AcDbSymbolTable
 70
     5
  0
BLOCK_RECORD
  5
1F
330
1
100
AcDbSymbolTableRecord
100
AcDbBlockTableRecord
  2
*Model_Space
340
22
  0
BLOCK_RECORD
  5
D2
330
1
100
AcDbSymbolTableRecord
100
AcDbBlockTableRecord
  2
*Paper_Space
340
D3
  0
BLOCK_RECORD
  5
D6
330
1
100
AcDbSymbolTableRecord
100
AcDbBlockTableRecord
  2
*Paper_Space0
340
D7
  0
BLOCK_RECORD
  5
63F
330
1
100
AcDbSymbolTableRecord
100
AcDbBlockTableRecord
  2
1
340
0
310
2800000020000000200000000100080000000000000400000000000000000000000000000000000000000000000080000080000000808000800000008000800080800000C0C0C000C0DCC000F0CAA6000020400000206000002080000020A0000020C0000020E00000400000004020000040400000406000004080000040A0
310
000040C0000040E00000600000006020000060400000606000006080000060A0000060C0000060E00000800000008020000080400000806000008080000080A0000080C0000080E00000A0000000A0200000A0400000A0600000A0800000A0A00000A0C00000A0E00000C0000000C0200000C0400000C0600000C0800000C0
310
A00000C0C00000C0E00000E0000000E0200000E0400000E0600000E0800000E0A00000E0C00000E0E00040000000400020004000400040006000400080004000A0004000C0004000E00040200000402020004020400040206000402080004020A0004020C0004020E000404000004040200040404000404060004040800040
310
40A0004040C0004040E00040600000406020004060400040606000406080004060A0004060C0004060E00040800000408020004080400040806000408080004080A0004080C0004080E00040A0000040A0200040A0400040A0600040A0800040A0A00040A0C00040A0E00040C0000040C0200040C0400040C0600040C08000
310
40C0A00040C0C00040C0E00040E0000040E0200040E0400040E0600040E0800040E0A00040E0C00040E0E00080000000800020008000400080006000800080008000A0008000C0008000E00080200000802020008020400080206000802080008020A0008020C0008020E00080400000804020008040400080406000804080
310
008040A0008040C0008040E00080600000806020008060400080606000806080008060A0008060C0008060E00080800000808020008080400080806000808080008080A0008080C0008080E00080A0000080A0200080A0400080A0600080A0800080A0A00080A0C00080A0E00080C0000080C0200080C0400080C0600080C0
310
800080C0A00080C0C00080C0E00080E0000080E0200080E0400080E0600080E0800080E0A00080E0C00080E0E000C0000000C0002000C0004000C0006000C0008000C000A000C000C000C000E000C0200000C0202000C0204000C0206000C0208000C020A000C020C000C020E000C0400000C0402000C0404000C0406000C0
310
408000C040A000C040C000C040E000C0600000C0602000C0604000C0606000C0608000C060A000C060C000C060E000C0800000C0802000C0804000C0806000C0808000C080A000C080C000C080E000C0A00000C0A02000C0A04000C0A06000C0A08000C0A0A000C0A0C000C0A0E000C0C00000C0C02000C0C04000C0C06000
310
C0C08000C0C0A000F0FBFF00A4A0A000808080000000FF0000FF000000FFFF00FF000000FF00FF00FFFF0000FFFFFF0000000000000000000000000000000000000000000000000000000000000000000000000000000000000000000000000000000000000000000000000000000000000000000000000000000000000000
310
00000000000000000000000000000000000000000000000000000000000000000000000000000000000000000000000000000000000000000000000000000000000000000000000000000000000000000000000000000000000000000000000000000000000000000000000000000000000000000000000000000000000000
310
00000000000000000000000000000000000000000000000000000000000000000000000000000000000000000000000000000000000000000000000000000000000000000000000000000000000000000000000000000000000000000000000000000000000000000000000000000000000000000000000000000000000000
310
00000000000000000000000000000000000000000000000000000000000000000000000000000000000000000000000000000000FFFFFFFFFFFFFFFFFFFFFFFFFFFFFFFFFFFFFFFFFFFFFFFFFFFFFFFFFFFF0000FF00FF000000FF00000000000000000000000000000000000000000000FF0000FF00FFFFFF00FFFF000000
310
00FF000000FF0000FF0000FF0000FF000000FF0000FF00FF00FFFFFF00FF000000FFFFFF00FFFF00FFFFFFFFFFFFFFFFFF00FF0000FF00FFFF0000FFFF00000000FFFF0000FF0000FFFF00FFFF00FFFF0000FF0000FFFFFFFFFFFFFFFFFFFFFFFFFFFFFFFFFFFFFFFFFFFFFFFFFFFFFFFFFFFF00000000FF0000FF0000FF00
310
0000FFFFFFFFFFFFFFFFFFFFFFFFFFFFFFFF000000000000FFFFFFFFFFFFFF000000000000000000000000000000000000000000000000000000000000000000000000000000000000000000000000000000000000000000000000000000000000000000000000000000000000000000000000000000000000000000000000
310
00000000000000000000000000000000000000000000000000000000000000000000000000000000000000000000000000000000000000000000000000000000000000000000000000000000000000000000000000000000000000000000000000000000000000000000000000000000000000000000000000000000000000
310
00000000000000000000000000000000000000000000000000000000000000000000000000000000000000000000000000000000000000000000000000000000000000000000000000000000000000000000000000000000000000000000000000000000000000000000000000000000000000000000000000000000000000
310
0000000000000000000000000000000000000000000000000000000000000000000000000000000000000000000000000000000000000000
102
{BLKREFS
331
68C
102
}
1001
ACAD
1000
DesignCenter Data
1002
{
1070
     1
1070
     4
1002
}
  0
BLOCK_RECORD
  5
68D
330
1
100
AcDbSymbolTableRecord
100
AcDbBlockTableRecord
  2
2
340
0
310
2800000020000000200000000100080000000000000400000000000000000000000000000000000000000000000080000080000000808000800000008000800080800000C0C0C000C0DCC000F0CAA6000020400000206000002080000020A0000020C0000020E00000400000004020000040400000406000004080000040A0
310
000040C0000040E00000600000006020000060400000606000006080000060A0000060C0000060E00000800000008020000080400000806000008080000080A0000080C0000080E00000A0000000A0200000A0400000A0600000A0800000A0A00000A0C00000A0E00000C0000000C0200000C0400000C0600000C0800000C0
310
A00000C0C00000C0E00000E0000000E0200000E0400000E0600000E0800000E0A00000E0C00000E0E00040000000400020004000400040006000400080004000A0004000C0004000E00040200000402020004020400040206000402080004020A0004020C0004020E000404000004040200040404000404060004040800040
310
40A0004040C0004040E00040600000406020004060400040606000406080004060A0004060C0004060E00040800000408020004080400040806000408080004080A0004080C0004080E00040A0000040A0200040A0400040A0600040A0800040A0A00040A0C00040A0E00040C0000040C0200040C0400040C0600040C08000
310
40C0A00040C0C00040C0E00040E0000040E0200040E0400040E0600040E0800040E0A00040E0C00040E0E00080000000800020008000400080006000800080008000A0008000C0008000E00080200000802020008020400080206000802080008020A0008020C0008020E00080400000804020008040400080406000804080
310
008040A0008040C0008040E00080600000806020008060400080606000806080008060A0008060C0008060E00080800000808020008080400080806000808080008080A0008080C0008080E00080A0000080A0200080A0400080A0600080A0800080A0A00080A0C00080A0E00080C0000080C0200080C0400080C0600080C0
310
800080C0A00080C0C00080C0E00080E0000080E0200080E0400080E0600080E0800080E0A00080E0C00080E0E000C0000000C0002000C0004000C0006000C0008000C000A000C000C000C000E000C0200000C0202000C0204000C0206000C0208000C020A000C020C000C020E000C0400000C0402000C0404000C0406000C0
310
408000C040A000C040C000C040E000C0600000C0602000C0604000C0606000C0608000C060A000C060C000C060E000C0800000C0802000C0804000C0806000C0808000C080A000C080C000C080E000C0A00000C0A02000C0A04000C0A06000C0A08000C0A0A000C0A0C000C0A0E000C0C00000C0C02000C0C04000C0C06000
310
C0C08000C0C0A000F0FBFF00A4A0A000808080000000FF0000FF000000FFFF00FF000000FF00FF00FFFF0000FFFFFF0000000000000000000000000000000000000000000000000000000000000000000000000000000000000000000000000000000000000000000000000000000000000000000000000000000000000000
310
00000000000000000000000000000000000000000000000000000000000000000000000000000000000000000000000000000000000000000000000000000000000000000000000000000000000000000000000000000000000000000000000000000000000000000000000000000000000000000000000000000000000000
310
00000000000000000000000000000000000000000000000000000000000000000000000000000000000000000000000000000000000000000000000000000000000000000000000000000000000000000000000000000000000000000000000000000000000000000000000000000000000000000000000000000000000000
310
0000000000000000000000000000000000000000000000000000000000000000000000000000000000000000000000000000000000000000000000000000000000000000000000000000000000000000000000000000000000000000000000000000000000000000000000000000000000000000FFFFFFFFFFFFFFFFFFFFFF
310
FFFFFFFFFFFFFFFFFFFFFFFFFFFFFFFFFFFFFF0000FF00FFFFFFFFFFFFFFFF00FFFFFFFFFFFFFFFFFFFFFFFFFFFFFFFFFF00FF0000FF00FFFFFFFFFFFFFF00FFFFFFFFFFFFFFFFFFFFFFFFFFFFFFFFFFFF00FF0000FFFFFFFFFFFFFFFFFFFFFFFFFFFFFFFFFFFFFFFFFFFFFFFFFFFFFFFFFFFF000000000000000000000000
310
00000000000000000000000000000000000000000000000000000000000000000000000000000000000000000000000000000000000000000000000000000000000000000000000000000000000000000000000000000000000000000000000000000000000000000000000000000000000000000000000000000000000000
310
00000000000000000000000000000000000000000000000000000000000000000000000000000000000000000000000000000000000000000000000000000000000000000000000000000000000000000000000000000000000000000000000000000000000000000000000000000000000000000000000000000000000000
310
00000000000000000000000000000000000000000000000000000000000000000000000000000000000000000000000000000000000000000000000000000000000000000000000000000000000000000000000000000000000000000000000000000000000000000000000000000000000000000000000000000000000000
310
0000000000000000000000000000000000000000000000000000000000000000000000000000000000000000000000000000000000000000
102
{BLKREFS
331
791
102
}
1001
ACAD
1000
DesignCenter Data
1002
{
1070
     1
1070
     4
1002
}
  0
BLOCK_RECORD
  5
792
330
1
100
AcDbSymbolTableRecord
100
AcDbBlockTableRecord
  2
3
340
0
310
2800000020000000200000000100080000000000000400000000000000000000000000000000000000000000000080000080000000808000800000008000800080800000C0C0C000C0DCC000F0CAA6000020400000206000002080000020A0000020C0000020E00000400000004020000040400000406000004080000040A0
310
000040C0000040E00000600000006020000060400000606000006080000060A0000060C0000060E00000800000008020000080400000806000008080000080A0000080C0000080E00000A0000000A0200000A0400000A0600000A0800000A0A00000A0C00000A0E00000C0000000C0200000C0400000C0600000C0800000C0
310
A00000C0C00000C0E00000E0000000E0200000E0400000E0600000E0800000E0A00000E0C00000E0E00040000000400020004000400040006000400080004000A0004000C0004000E00040200000402020004020400040206000402080004020A0004020C0004020E000404000004040200040404000404060004040800040
310
40A0004040C0004040E00040600000406020004060400040606000406080004060A0004060C0004060E00040800000408020004080400040806000408080004080A0004080C0004080E00040A0000040A0200040A0400040A0600040A0800040A0A00040A0C00040A0E00040C0000040C0200040C0400040C0600040C08000
310
40C0A00040C0C00040C0E00040E0000040E0200040E0400040E0600040E0800040E0A00040E0C00040E0E00080000000800020008000400080006000800080008000A0008000C0008000E00080200000802020008020400080206000802080008020A0008020C0008020E00080400000804020008040400080406000804080
310
008040A0008040C0008040E00080600000806020008060400080606000806080008060A0008060C0008060E00080800000808020008080400080806000808080008080A0008080C0008080E00080A0000080A0200080A0400080A0600080A0800080A0A00080A0C00080A0E00080C0000080C0200080C0400080C0600080C0
310
800080C0A00080C0C00080C0E00080E0000080E0200080E0400080E0600080E0800080E0A00080E0C00080E0E000C0000000C0002000C0004000C0006000C0008000C000A000C000C000C000E000C0200000C0202000C0204000C0206000C0208000C020A000C020C000C020E000C0400000C0402000C0404000C0406000C0
310
408000C040A000C040C000C040E000C0600000C0602000C0604000C0606000C0608000C060A000C060C000C060E000C0800000C0802000C0804000C0806000C0808000C080A000C080C000C080E000C0A00000C0A02000C0A04000C0A06000C0A08000C0A0A000C0A0C000C0A0E000C0C00000C0C02000C0C04000C0C06000
310
C0C08000C0C0A000F0FBFF00A4A0A000808080000000FF0000FF000000FFFF00FF000000FF00FF00FFFF0000FFFFFF0000000000000000000000000000000000000000000000000000000000000000000000000000000000FFFFFFFFFFFFFFFFFFFFFFFFFFFFFFFF00000000000000000000000000000000FF000000000000
310
0000000000000000FF00000000000000000000000000000000FF0000000000000000000000000000FF00000000000000000000000000000000FF0000000000000000000000000000FF00000000000000000000000000000000FF0000000000000000000000000000FF00000000000000000000000000000000FF0000000000
310
000000000000000000FF00000000000000000000000000000000FF0000000000000000000000000000FF00000000000000000000000000000000FF0000000000000000000000000000FF00000000000000000000000000000000FF0000000000000000000000000000FF00000000000000000000000000000000FF00000000
310
00000000000000000000FF00000000000000000000000000000000FF0000000000000000000000000000FF00000000000000000000000000000000FF0000000000000000000000000000FF00000000000000000000000000000000FF0000000000000000000000000000FF00000000000000000000000000000000FF000000
310
0000000000000000000000FF00000000000000000000000000000000FF0000000000000000000000000000FF00000000000000000000000000000000FF0000000000000000000000000000FF00000000000000000000000000000000FF0000000000000000000000000000FF00000000000000000000000000000000FF0000
310
000000000000000000000000FF00000000000000000000000000000000FF0000000000000000000000000000FF00000000000000000000000000000000FF0000000000000000000000000000FF00000000000000000000000000000000FF0000000000000000000000000000FF00000000000000000000000000000000FF00
310
00000000000000000000000000FF00000000000000000000000000000000FFFFFFFFFFFFFFFFFFFFFFFFFFFFFFFF0000000000000000000000000000000000FFFF00000000000000000000FFFF000000000000000000000000000000000000FFFF00000000000000000000FFFF000000000000000000000000000000000000
310
FFFF000000FFFFFFFF000000FFFF000000000000000000000000000000000000FFFF000000FFFFFFFF000000FFFF000000000000000000000000000000000000FFFF000000FF0000FF000000FFFF000000000000000000000000000000000000FFFFFFFFFFFF0000FFFFFFFFFFFF0000000000000000000000000000000000
310
00FFFFFFFFFFFF0000FFFFFFFFFFFF0000000000000000000000000000000000000000000000000000000000000000000000000000000000
102
{BLKREFS
331
7AF
102
}
1001
ACAD
1000
DesignCenter Data
1002
{
1070
     1
1070
     4
1002
}
  0
BLOCK_RECORD
  5
7B0
330
1
100
AcDbSymbolTableRecord
100
AcDbBlockTableRecord
  2
4
340
0
310
2800000020000000200000000100080000000000000400000000000000000000000000000000000000000000000080000080000000808000800000008000800080800000C0C0C000C0DCC000F0CAA6000020400000206000002080000020A0000020C0000020E00000400000004020000040400000406000004080000040A0
310
000040C0000040E00000600000006020000060400000606000006080000060A0000060C0000060E00000800000008020000080400000806000008080000080A0000080C0000080E00000A0000000A0200000A0400000A0600000A0800000A0A00000A0C00000A0E00000C0000000C0200000C0400000C0600000C0800000C0
310
A00000C0C00000C0E00000E0000000E0200000E0400000E0600000E0800000E0A00000E0C00000E0E00040000000400020004000400040006000400080004000A0004000C0004000E00040200000402020004020400040206000402080004020A0004020C0004020E000404000004040200040404000404060004040800040
310
40A0004040C0004040E00040600000406020004060400040606000406080004060A0004060C0004060E00040800000408020004080400040806000408080004080A0004080C0004080E00040A0000040A0200040A0400040A0600040A0800040A0A00040A0C00040A0E00040C0000040C0200040C0400040C0600040C08000
310
40C0A00040C0C00040C0E00040E0000040E0200040E0400040E0600040E0800040E0A00040E0C00040E0E00080000000800020008000400080006000800080008000A0008000C0008000E00080200000802020008020400080206000802080008020A0008020C0008020E00080400000804020008040400080406000804080
310
008040A0008040C0008040E00080600000806020008060400080606000806080008060A0008060C0008060E00080800000808020008080400080806000808080008080A0008080C0008080E00080A0000080A0200080A0400080A0600080A0800080A0A00080A0C00080A0E00080C0000080C0200080C0400080C0600080C0
310
800080C0A00080C0C00080C0E00080E0000080E0200080E0400080E0600080E0800080E0A00080E0C00080E0E000C0000000C0002000C0004000C0006000C0008000C000A000C000C000C000E000C0200000C0202000C0204000C0206000C0208000C020A000C020C000C020E000C0400000C0402000C0404000C0406000C0
310
408000C040A000C040C000C040E000C0600000C0602000C0604000C0606000C0608000C060A000C060C000C060E000C0800000C0802000C0804000C0806000C0808000C080A000C080C000C080E000C0A00000C0A02000C0A04000C0A06000C0A08000C0A0A000C0A0C000C0A0E000C0C00000C0C02000C0C04000C0C06000
310
C0C08000C0C0A000F0FBFF00A4A0A000808080000000FF0000FF000000FFFF00FF000000FF00FF00FFFF0000FFFFFF0000000000000000000000000000000000000000000000000000000000000000000000000000000000000000000000000000000000000000000000000000000000000000000000000000000000000000
310
000000000000000000000000000000000000000000000000000000000000000000000000000000000000000000000000000000000000000000000000000000000000000000000000000000FFFF00000000000000000000000000000000000000000000000000000000FFFFFF00FFFFFF000000000000000000000000000000
310
000000000000000000FFFFFFFF000000FF00000000000000000000000000000000000000000000FFFFFFFFFFFF000000FF0000000000000000000000000000000000000000FFFFFFFFFFFFFFFF000000FF00000000000000000000000000000000000000FF00FFFFFFFFFF00FF000000FF0000000000000000000000000000
310
000000FFFFFFFFFF00FF00FFFFFFFFFF00FF00000000000000000000000000000000FF00FFFFFFFFFF00FFFF00FFFF00FFFF0000000000000000000000000000FFFFFFFFFF00FF00FFFFFFFFFFFFFFFF000000000000000000000000000000FF00FFFFFFFFFFFFFFFF00FFFFFFFFFF0000000000000000000000000000FFFF
310
FFFFFFFFFF00FFFFFFFFFFFFFFFFFF0000000000000000000000000000FF00FFFFFFFFFFFFFFFF0000FFFFFFFF0000000000000000000000000000FFFF0000FFFFFF00FFFFFFFFFFFFFFFFFF00000000000000000000000000FFFFFFFF0000FFFFFFFFFFFFFFFFFFFFFF0000000000000000000000000000FF00FFFFFF0000
310
00FFFFFFFFFFFFFFFF0000000000000000000000000000FFFFFFFFFF00FF00FFFFFFFFFFFFFFFFFFFF00000000000000000000000000FF00FFFFFFFFFFFFFFFFFFFFFFFFFFFF00000000000000000000000000000000FF00FF00FFFFFFFFFFFFFFFFFFFFFFFF00000000000000000000000000000000FF00FFFFFFFFFFFFFF
310
FFFFFF0000000000000000000000000000000000000000FF00FFFF00FFFFFFFFFF00000000000000000000000000000000000000000000FFFFFFFFFFFFFFFFFFFF00000000000000000000000000000000000000000000FF00FFFFFFFFFFFFFFFF0000000000000000000000000000000000000000000000FFFFFFFFFFFFFF
310
000000000000000000000000000000000000000000000000000000FFFFFFFF000000000000000000000000000000000000000000000000000000000000000000000000000000000000000000000000000000000000000000000000000000000000000000000000000000000000000000000000000000000000000000000000
310
0000000000000000000000000000000000000000000000000000000000000000000000000000000000000000000000000000000000000000
102
{BLKREFS
331
895
102
}
1001
ACAD
1000
DesignCenter Data
1002
{
1070
     1
1070
     4
1002
}
  0
ENDTAB
  0
ENDSEC
  0
SECTION
  2
BLOCKS
  0
BLOCK
  5
20
330
1F
100
AcDbEntity
  8
0
100
AcDbBlockBegin
  2
*Model_Space
 70
     0
 10
0.0
 20
0.0
 30
0.0
  3
*Model_Space
  1

  0
ENDBLK
  5
21
330
1F
100
AcDbEntity
  8
0
100
AcDbBlockEnd
  0
BLOCK
  5
D4
330
D2
100
AcDbEntity
 67
     1
  8
0
100
AcDbBlockBegin
  2
*Paper_Space
 70
     0
 10
0.0
 20
0.0
 30
0.0
  3
*Paper_Space
  1

  0
ENDBLK
  5
D5
330
D2
100
AcDbEntity
 67
     1
  8
0
100
AcDbBlockEnd
  0
BLOCK
  5
D8
330
D6
100
AcDbEntity
 67
     1
  8
0
100
AcDbBlockBegin
  2
*Paper_Space0
 70
     0
 10
0.0
 20
0.0
 30
0.0
  3
*Paper_Space0
  1

  0
ENDBLK
  5
D9
330
D6
100
AcDbEntity
 67
     1
  8
0
100
AcDbBlockEnd
  0
BLOCK
  5
640
330
63F
100
AcDbEntity
  8
0
100
AcDbBlockBegin
  2
1
 70
     0
 10
0.0
 20
0.0
 30
0.0
  3
1
  1

  0
LINE
  5
642
330
63F
100
AcDbEntity
  8
0
  6
Continuous
 62
     7
370
    15
100
AcDbLine
 10
1390.180994043885
 20
1042.281872927601
 30
0.0
 11
1390.180994043885
 21
1040.481872927601
 31
0.0
  0
LINE
  5
643
330
63F
100
AcDbEntity
  8
0
  6
Continuous
 62
     7
370
    15
100
AcDbLine
 10
1395.980994043885
 20
1040.481872927601
 30
0.0
 11
1395.980994043885
 21
1042.281872927601
 31
0.0
  0
LINE
  5
644
330
63F
100
AcDbEntity
  8
0
  6
Continuous
 62
     7
370
    15
100
AcDbLine
 10
1396.430994043885
 20
1042.281872927601
 30
0.0
 11
1396.430994043885
 21
1040.481872927601
 31
0.0
  0
LINE
  5
645
330
63F
100
AcDbEntity
  8
0
  6
Continuous
 62
     7
370
    15
100
AcDbLine
 10
1402.230994043885
 20
1040.481872927601
 30
0.0
 11
1402.230994043885
 21
1042.281872927601
 31
0.0
  0
LINE
  5
646
330
63F
100
AcDbEntity
  8
0
  6
Continuous
 62
     7
370
    15
100
AcDbLine
 10
1409.430994043885
 20
1041.851872927601
 30
0.0
 11
1409.430994043885
 21
1040.481872927601
 31
0.0
  0
LINE
  5
647
330
63F
100
AcDbEntity
  8
0
  6
Continuous
 62
     7
370
    15
100
AcDbLine
 10
1414.230994043885
 20
1040.481872927601
 30
0.0
 11
1414.230994043885
 21
1041.851872927601
 31
0.0
  0
LINE
  5
648
330
63F
100
AcDbEntity
  8
0
  6
Continuous
 62
     7
370
    15
100
AcDbLine
 10
1415.680994043885
 20
1041.851872927601
 30
0.0
 11
1415.680994043885
 21
1040.481872927601
 31
0.0
  0
LINE
  5
649
330
63F
100
AcDbEntity
  8
0
  6
Continuous
 62
     7
370
    15
100
AcDbLine
 10
1420.480994043885
 20
1040.481872927601
 30
0.0
 11
1420.480994043885
 21
1041.851872927601
 31
0.0
  0
LINE
  5
64A
330
63F
100
AcDbEntity
  8
0
  6
Continuous
 62
     7
370
    15
100
AcDbLine
 10
1428.180994043885
 20
1041.851872927601
 30
0.0
 11
1428.180994043885
 21
1040.481872927601
 31
0.0
  0
LINE
  5
64B
330
63F
100
AcDbEntity
  8
0
  6
Continuous
 62
     7
370
    15
100
AcDbLine
 10
1432.980994043885
 20
1040.481872927601
 30
0.0
 11
1432.980994043885
 21
1041.851872927601
 31
0.0
  0
LINE
  5
64C
330
63F
100
AcDbEntity
  8
0
  6
Continuous
 62
     7
370
    15
100
AcDbLine
 10
1434.430994043885
 20
1041.851872927601
 30
0.0
 11
1434.430994043885
 21
1040.481872927601
 31
0.0
  0
LINE
  5
64D
330
63F
100
AcDbEntity
  8
0
  6
Continuous
 62
     7
370
    15
100
AcDbLine
 10
1439.230994043885
 20
1040.481872927601
 30
0.0
 11
1439.230994043885
 21
1041.851872927601
 31
0.0
  0
LINE
  5
64E
330
63F
100
AcDbEntity
  8
0
  6
Continuous
 62
     7
370
    15
100
AcDbLine
 10
1421.930994043885
 20
1041.851872927601
 30
0.0
 11
1421.930994043885
 21
1040.481872927601
 31
0.0
  0
LINE
  5
64F
330
63F
100
AcDbEntity
  8
0
  6
Continuous
 62
     7
370
    15
100
AcDbLine
 10
1426.730994043885
 20
1040.481872927601
 30
0.0
 11
1426.730994043885
 21
1041.851872927601
 31
0.0
  0
CIRCLE
  5
650
330
63F
100
AcDbEntity
  8
0
  6
Continuous
 62
     7
370
    15
100
AcDbCircle
 10
1411.825994043885
 20
1035.881872927601
 30
0.0
 40
2.399999999999977
  0
CIRCLE
  5
651
330
63F
100
AcDbEntity
  8
0
  6
Continuous
 62
     7
370
    15
100
AcDbCircle
 10
1418.075994043885
 20
1035.881872927601
 30
0.0
 40
2.400000000000005
  0
CIRCLE
  5
652
330
63F
100
AcDbEntity
  8
0
  6
Continuous
 62
     7
370
    15
100
AcDbCircle
 10
1424.325994043885
 20
1035.881872927601
 30
0.0
 40
2.399999999999977
  0
CIRCLE
  5
653
330
63F
100
AcDbEntity
  8
0
  6
Continuous
 62
     7
370
    15
100
AcDbCircle
 10
1430.575994043885
 20
1035.881872927601
 30
0.0
 40
2.400000000000005
  0
CIRCLE
  5
654
330
63F
100
AcDbEntity
  8
0
  6
Continuous
 62
     7
370
    15
100
AcDbCircle
 10
1436.825994043885
 20
1035.881872927601
 30
0.0
 40
2.399999999999977
  0
CIRCLE
  5
655
330
63F
100
AcDbEntity
  8
0
  6
Continuous
 62
     7
370
    15
100
AcDbCircle
 10
1399.335994043885
 20
1035.881872927601
 30
0.0
 40
2.75
  0
CIRCLE
  5
656
330
63F
100
AcDbEntity
  8
0
  6
Continuous
 62
     7
370
    15
100
AcDbCircle
 10
1393.085994043885
 20
1035.881872927601
 30
0.0
 40
2.75
  0
LINE
  5
657
330
63F
100
AcDbEntity
  8
0
  6
Continuous
 62
     7
370
    15
100
AcDbLine
 10
1441.955994043885
 20
1031.481872927601
 30
0.0
 11
1387.955994043885
 21
1031.481872927601
 31
0.0
  0
LINE
  5
658
330
63F
100
AcDbEntity
  8
0
  6
Continuous
 62
     7
370
    15
100
AcDbLine
 10
1387.955994043885
 20
1031.481872927601
 30
0.0
 11
1387.955994043885
 21
1040.481872927601
 31
0.0
  0
LINE
  5
659
330
63F
100
AcDbEntity
  8
0
  6
Continuous
 62
     7
370
    15
100
AcDbLine
 10
1387.955994043885
 20
1040.481872927601
 30
0.0
 11
1441.955994043885
 21
1040.481872927601
 31
0.0
  0
LINE
  5
65A
330
63F
100
AcDbEntity
  8
0
  6
Continuous
 62
     7
370
    15
100
AcDbLine
 10
1441.955994043885
 20
1040.481872927601
 30
0.0
 11
1441.955994043885
 21
1031.481872927601
 31
0.0
  0
LINE
  5
65B
330
63F
100
AcDbEntity
  8
0
  6
Continuous
 62
     7
370
    15
100
AcDbLine
 10
1395.980994043885
 20
1042.281872927601
 30
0.0
 11
1395.930327566303
 21
1042.281872927601
 31
0.0
  0
ELLIPSE
  5
65C
330
63F
100
AcDbEntity
  8
0
  6
Continuous
 62
     7
370
    15
100
AcDbEllipse
 10
1393.080994043885
 20
1032.033190914964
 30
0.0
 11
0.0026635732168359
 21
55.3352963942357
 31
0.0
210
0.0
220
0.0
230
1.0
 40
0.0524077571777694
 41
4.89867764244912
 42
4.920793309632103
  0
LINE
  5
65D
330
63F
100
AcDbEntity
  8
0
  6
Continuous
 62
     7
370
    15
100
AcDbLine
 10
1390.230676587508
 20
1042.281872927601
 30
0.0
 11
1390.180994043885
 21
1042.281872927601
 31
0.0
  0
ELLIPSE
  5
65E
330
63F
100
AcDbEntity
  8
0
  6
Continuous
 62
     7
370
    15
100
AcDbEllipse
 10
1393.080994043885
 20
1032.033190914964
 30
0.0
 11
-0.002663573216779
 21
55.33529639423575
 31
0.0
210
0.0
220
0.0
230
1.0
 40
0.0524077571777689
 41
1.362391997547496
 42
1.384507664730475
  0
LINE
  5
65F
330
63F
100
AcDbEntity
  8
0
  6
Continuous
 62
     7
370
    15
100
AcDbLine
 10
1395.917695475007
 20
1043.481872927602
 30
0.0
 11
1390.243193471721
 21
1043.481872927602
 31
0.0
  0
ELLIPSE
  5
660
330
63F
100
AcDbEntity
  8
0
  6
Continuous
 62
     7
370
    15
100
AcDbEllipse
 10
1393.080994043885
 20
1032.033190914964
 30
0.0
 11
-0.002663573216779
 21
55.33529639423575
 31
0.0
210
0.0
220
0.0
230
1.0
 40
0.0524077571777689
 41
4.89867259713781
 42
4.92078826432079
  0
LINE
  5
661
330
63F
100
AcDbEntity
  8
0
  6
Continuous
 62
     7
370
    15
100
AcDbLine
 10
1402.230994043885
 20
1042.281872927601
 30
0.0
 11
1402.180327566303
 21
1042.281872927601
 31
0.0
  0
ELLIPSE
  5
662
330
63F
100
AcDbEntity
  8
0
  6
Continuous
 62
     7
370
    15
100
AcDbEllipse
 10
1399.330994043885
 20
1032.033190914964
 30
0.0
 11
0.0026635732168359
 21
55.3352963942357
 31
0.0
210
0.0
220
0.0
230
1.0
 40
0.0524077571777694
 41
4.89867764244912
 42
4.920793309632103
  0
LINE
  5
663
330
63F
100
AcDbEntity
  8
0
  6
Continuous
 62
     7
370
    15
100
AcDbLine
 10
1396.480676587508
 20
1042.281872927601
 30
0.0
 11
1396.430994043885
 21
1042.281872927601
 31
0.0
  0
ELLIPSE
  5
664
330
63F
100
AcDbEntity
  8
0
  6
Continuous
 62
     7
370
    15
100
AcDbEllipse
 10
1399.330994043885
 20
1032.033190914964
 30
0.0
 11
-0.002663573216779
 21
55.33529639423575
 31
0.0
210
0.0
220
0.0
230
1.0
 40
0.0524077571777694
 41
1.362391997547494
 42
1.384507664730473
  0
ELLIPSE
  5
665
330
63F
100
AcDbEntity
  8
0
  6
Continuous
 62
     7
370
    15
100
AcDbEllipse
 10
1399.330994043885
 20
1032.033190914964
 30
0.0
 11
-0.002663573216779
 21
55.33529639423575
 31
0.0
210
0.0
220
0.0
230
1.0
 40
0.0524077571777694
 41
4.898672597137812
 42
4.920788264320792
  0
LINE
  5
666
330
63F
100
AcDbEntity
  8
0
  6
Continuous
 62
     7
370
    15
100
AcDbLine
 10
1402.167695475007
 20
1043.481872927602
 30
0.0
 11
1396.493193471721
 21
1043.481872927602
 31
0.0
  0
LINE
  5
667
330
63F
100
AcDbEntity
  8
0
  6
Continuous
 62
     7
370
    15
100
AcDbLine
 10
1414.230994043885
 20
1041.851872927601
 30
0.0
 11
1414.169627456888
 21
1041.851872927601
 31
0.0
  0
ELLIPSE
  5
668
330
63F
100
AcDbEntity
  8
0
  6
Continuous
 62
     7
370
    15
100
AcDbEllipse
 10
1411.830994043885
 20
1031.603190914964
 30
0.0
 11
0.0022043364552644
 21
45.79472805040194
 31
0.0
210
0.0
220
0.0
230
1.0
 40
0.0524077571777692
 41
4.938099143905419
 42
4.965071758182443
  0
LINE
  5
669
330
63F
100
AcDbEntity
  8
0
  6
Continuous
 62
     7
370
    15
100
AcDbLine
 10
1409.491376696922
 20
1041.851872927601
 30
0.0
 11
1409.430994043885
 21
1041.851872927601
 31
0.0
  0
ELLIPSE
  5
66A
330
63F
100
AcDbEntity
  8
0
  6
Continuous
 62
     7
370
    15
100
AcDbEllipse
 10
1411.830994043885
 20
1031.603190914965
 30
0.0
 11
-0.0022043364552928
 21
45.79472805040194
 31
0.0
210
0.0
220
0.0
230
1.0
 40
0.0524077571777698
 41
1.318113548997163
 42
1.345086163274185
  0
LINE
  5
66B
330
63F
100
AcDbEntity
  8
0
  6
Continuous
 62
     7
370
    15
100
AcDbLine
 10
1414.154233506298
 20
1043.051872927601
 30
0.0
 11
1409.50665544043
 21
1043.051872927601
 31
0.0
  0
ELLIPSE
  5
66C
330
63F
100
AcDbEntity
  8
0
  6
Continuous
 62
     7
370
    15
100
AcDbEllipse
 10
1411.830994043885
 20
1031.603190914965
 30
0.0
 11
-0.0022043364552928
 21
45.79472805040194
 31
0.0
210
0.0
220
0.0
230
1.0
 40
0.0524077571777698
 41
4.938094098594109
 42
4.965066712871131
  0
LINE
  5
66D
330
63F
100
AcDbEntity
  8
0
  6
Continuous
 62
     7
370
    15
100
AcDbLine
 10
1420.480994043885
 20
1041.851872927601
 30
0.0
 11
1420.419627456888
 21
1041.851872927601
 31
0.0
  0
ELLIPSE
  5
66E
330
63F
100
AcDbEntity
  8
0
  6
Continuous
 62
     7
370
    15
100
AcDbEllipse
 10
1418.080994043885
 20
1031.603190914964
 30
0.0
 11
0.0022043364552928
 21
45.79472805040194
 31
0.0
210
0.0
220
0.0
230
1.0
 40
0.0524077571777692
 41
4.938099143905422
 42
4.965071758182444
  0
LINE
  5
66F
330
63F
100
AcDbEntity
  8
0
  6
Continuous
 62
     7
370
    15
100
AcDbLine
 10
1415.741376696922
 20
1041.851872927601
 30
0.0
 11
1415.680994043885
 21
1041.851872927601
 31
0.0
  0
ELLIPSE
  5
670
330
63F
100
AcDbEntity
  8
0
  6
Continuous
 62
     7
370
    15
100
AcDbEllipse
 10
1418.080994043885
 20
1031.603190914965
 30
0.0
 11
-0.0022043364552928
 21
45.79472805040194
 31
0.0
210
0.0
220
0.0
230
1.0
 40
0.0524077571777698
 41
1.318113548997166
 42
1.345086163274182
  0
LINE
  5
671
330
63F
100
AcDbEntity
  8
0
  6
Continuous
 62
     7
370
    15
100
AcDbLine
 10
1420.404233506298
 20
1043.051872927601
 30
0.0
 11
1415.75665544043
 21
1043.051872927601
 31
0.0
  0
ELLIPSE
  5
672
330
63F
100
AcDbEntity
  8
0
  6
Continuous
 62
     7
370
    15
100
AcDbEllipse
 10
1418.080994043885
 20
1031.603190914965
 30
0.0
 11
-0.0022043364552928
 21
45.79472805040194
 31
0.0
210
0.0
220
0.0
230
1.0
 40
0.0524077571777698
 41
4.938094098594109
 42
4.965066712871131
  0
LINE
  5
673
330
63F
100
AcDbEntity
  8
0
  6
Continuous
 62
     7
370
    15
100
AcDbLine
 10
1432.980994043885
 20
1041.851872927601
 30
0.0
 11
1432.919627456888
 21
1041.851872927601
 31
0.0
  0
ELLIPSE
  5
674
330
63F
100
AcDbEntity
  8
0
  6
Continuous
 62
     7
370
    15
100
AcDbEllipse
 10
1430.580994043885
 20
1031.603190914964
 30
0.0
 11
0.0022043364552928
 21
45.79472805040194
 31
0.0
210
0.0
220
0.0
230
1.0
 40
0.0524077571777698
 41
4.938099143905422
 42
4.965071758182443
  0
LINE
  5
675
330
63F
100
AcDbEntity
  8
0
  6
Continuous
 62
     7
370
    15
100
AcDbLine
 10
1428.241376696922
 20
1041.851872927601
 30
0.0
 11
1428.180994043885
 21
1041.851872927601
 31
0.0
  0
ELLIPSE
  5
676
330
63F
100
AcDbEntity
  8
0
  6
Continuous
 62
     7
370
    15
100
AcDbEllipse
 10
1430.580994043885
 20
1031.603190914965
 30
0.0
 11
-0.0022043364552644
 21
45.79472805040194
 31
0.0
210
0.0
220
0.0
230
1.0
 40
0.0524077571777692
 41
1.318113548997167
 42
1.345086163274185
  0
LINE
  5
677
330
63F
100
AcDbEntity
  8
0
  6
Continuous
 62
     7
370
    15
100
AcDbLine
 10
1432.904233506298
 20
1043.051872927601
 30
0.0
 11
1428.25665544043
 21
1043.051872927601
 31
0.0
  0
ELLIPSE
  5
678
330
63F
100
AcDbEntity
  8
0
  6
Continuous
 62
     7
370
    15
100
AcDbEllipse
 10
1430.580994043885
 20
1031.603190914965
 30
0.0
 11
-0.0022043364552644
 21
45.79472805040194
 31
0.0
210
0.0
220
0.0
230
1.0
 40
0.0524077571777692
 41
4.938094098594107
 42
4.965066712871125
  0
LINE
  5
679
330
63F
100
AcDbEntity
  8
0
  6
Continuous
 62
     7
370
    15
100
AcDbLine
 10
1439.230994043885
 20
1041.851872927601
 30
0.0
 11
1439.169627456888
 21
1041.851872927601
 31
0.0
  0
ELLIPSE
  5
67A
330
63F
100
AcDbEntity
  8
0
  6
Continuous
 62
     7
370
    15
100
AcDbEllipse
 10
1436.830994043885
 20
1031.603190914964
 30
0.0
 11
0.0022043364552644
 21
45.79472805040194
 31
0.0
210
0.0
220
0.0
230
1.0
 40
0.0524077571777692
 41
4.938099143905419
 42
4.965071758182443
  0
LINE
  5
67B
330
63F
100
AcDbEntity
  8
0
  6
Continuous
 62
     7
370
    15
100
AcDbLine
 10
1434.491376696922
 20
1041.851872927601
 30
0.0
 11
1434.430994043885
 21
1041.851872927601
 31
0.0
  0
ELLIPSE
  5
67C
330
63F
100
AcDbEntity
  8
0
  6
Continuous
 62
     7
370
    15
100
AcDbEllipse
 10
1436.830994043885
 20
1031.603190914965
 30
0.0
 11
-0.0022043364552928
 21
45.79472805040194
 31
0.0
210
0.0
220
0.0
230
1.0
 40
0.0524077571777698
 41
1.318113548997163
 42
1.345086163274185
  0
LINE
  5
67D
330
63F
100
AcDbEntity
  8
0
  6
Continuous
 62
     7
370
    15
100
AcDbLine
 10
1439.154233506298
 20
1043.051872927601
 30
0.0
 11
1434.50665544043
 21
1043.051872927601
 31
0.0
  0
ELLIPSE
  5
67E
330
63F
100
AcDbEntity
  8
0
  6
Continuous
 62
     7
370
    15
100
AcDbEllipse
 10
1436.830994043885
 20
1031.603190914965
 30
0.0
 11
-0.0022043364552928
 21
45.79472805040194
 31
0.0
210
0.0
220
0.0
230
1.0
 40
0.0524077571777698
 41
4.938094098594109
 42
4.965066712871131
  0
LINE
  5
67F
330
63F
100
AcDbEntity
  8
0
  6
Continuous
 62
     7
370
    15
100
AcDbLine
 10
1426.730994043885
 20
1041.851872927601
 30
0.0
 11
1426.669627456888
 21
1041.851872927601
 31
0.0
  0
ELLIPSE
  5
680
330
63F
100
AcDbEntity
  8
0
  6
Continuous
 62
     7
370
    15
100
AcDbEllipse
 10
1424.330994043885
 20
1031.603190914964
 30
0.0
 11
0.0022043364552928
 21
45.79472805040194
 31
0.0
210
0.0
220
0.0
230
1.0
 40
0.0524077571777692
 41
4.938099143905419
 42
4.965071758182438
  0
LINE
  5
681
330
63F
100
AcDbEntity
  8
0
  6
Continuous
 62
     7
370
    15
100
AcDbLine
 10
1421.991376696922
 20
1041.851872927601
 30
0.0
 11
1421.930994043885
 21
1041.851872927601
 31
0.0
  0
ELLIPSE
  5
682
330
63F
100
AcDbEntity
  8
0
  6
Continuous
 62
     7
370
    15
100
AcDbEllipse
 10
1424.330994043885
 20
1031.603190914965
 30
0.0
 11
-0.0022043364552928
 21
45.79472805040194
 31
0.0
210
0.0
220
0.0
230
1.0
 40
0.0524077571777692
 41
1.318113548997163
 42
1.345086163274182
  0
ELLIPSE
  5
683
330
63F
100
AcDbEntity
  8
0
  6
Continuous
 62
     7
370
    15
100
AcDbEllipse
 10
1424.330994043885
 20
1031.603190914965
 30
0.0
 11
-0.0022043364552928
 21
45.79472805040194
 31
0.0
210
0.0
220
0.0
230
1.0
 40
0.0524077571777692
 41
4.938094098594103
 42
4.965066712871124
  0
LINE
  5
684
330
63F
100
AcDbEntity
  8
0
  6
Continuous
 62
     7
370
    15
100
AcDbLine
 10
1426.654233506298
 20
1043.051872927601
 30
0.0
 11
1422.00665544043
 21
1043.051872927601
 31
0.0
  0
LINE
  5
685
330
63F
100
AcDbEntity
  8
0
  6
Continuous
 62
     7
370
    15
100
AcDbLine
 10
1402.168794616049
 20
1043.481872927602
 30
0.0
 11
1402.167695475007
 21
1043.481872927602
 31
0.0
  0
LINE
  5
686
330
63F
100
AcDbEntity
  8
0
  6
Continuous
 62
     7
370
    15
100
AcDbLine
 10
1395.918794616049
 20
1043.481872927602
 30
0.0
 11
1395.917695475007
 21
1043.481872927602
 31
0.0
  0
LINE
  5
687
330
63F
100
AcDbEntity
  8
0
  6
Continuous
 62
     7
370
    15
100
AcDbLine
 10
1432.90533264734
 20
1043.051872927601
 30
0.0
 11
1432.904233506298
 21
1043.051872927601
 31
0.0
  0
LINE
  5
688
330
63F
100
AcDbEntity
  8
0
  6
Continuous
 62
     7
370
    15
100
AcDbLine
 10
1439.15533264734
 20
1043.051872927601
 30
0.0
 11
1439.154233506298
 21
1043.051872927601
 31
0.0
  0
LINE
  5
689
330
63F
100
AcDbEntity
  8
0
  6
Continuous
 62
     7
370
    15
100
AcDbLine
 10
1426.65533264734
 20
1043.051872927601
 30
0.0
 11
1426.654233506298
 21
1043.051872927601
 31
0.0
  0
LINE
  5
68A
330
63F
100
AcDbEntity
  8
0
  6
Continuous
 62
     7
370
    15
100
AcDbLine
 10
1420.40533264734
 20
1043.051872927601
 30
0.0
 11
1420.404233506298
 21
1043.051872927601
 31
0.0
  0
LINE
  5
68B
330
63F
100
AcDbEntity
  8
0
  6
Continuous
 62
     7
370
    15
100
AcDbLine
 10
1414.15533264734
 20
1043.051872927601
 30
0.0
 11
1414.154233506298
 21
1043.051872927601
 31
0.0
  0
ENDBLK
  5
641
330
63F
100
AcDbEntity
  8
0
100
AcDbBlockEnd
  0
BLOCK
  5
68E
330
68D
100
AcDbEntity
  8
0
100
AcDbBlockBegin
  2
2
 70
     0
 10
0.0
 20
0.0
 30
0.0
  3
2
  1

  0
LINE
  5
690
330
68D
100
AcDbEntity
  8
0
  6
Continuous
 62
     7
370
    15
100
AcDbLine
 10
1392.580444683106
 20
1013.734143490888
 30
0.0
 11
1392.57916235189
 21
1012.334144078164
 31
0.0
  0
LINE
  5
691
330
68D
100
AcDbEntity
  8
0
  6
Continuous
 62
     7
370
    15
100
AcDbLine
 10
1392.580444683106
 20
1013.734143490888
 30
0.0
 11
1392.643391595406
 21
1013.796975196106
 31
0.0
  0
LINE
  5
692
330
68D
100
AcDbEntity
  8
0
  6
Continuous
 62
     7
370
    15
100
AcDbLine
 10
1392.643391595406
 20
1013.796975196106
 30
0.0
 11
1392.64210926419
 21
1012.396975783382
 31
0.0
  0
LINE
  5
693
330
68D
100
AcDbEntity
  8
0
  6
Continuous
 62
     7
370
    15
100
AcDbLine
 10
1392.57916235189
 20
1012.334144078164
 30
0.0
 11
1392.64210926419
 21
1012.396975783382
 31
0.0
  0
LINE
  5
694
330
68D
100
AcDbEntity
  8
0
  6
Continuous
 62
     7
370
    15
100
AcDbLine
 10
1392.57916235189
 20
1012.334144078164
 30
0.0
 11
1393.579161932407
 21
1012.333228127296
 31
0.0
  0
LINE
  5
695
330
68D
100
AcDbEntity
  8
0
  6
Continuous
 62
     7
370
    15
100
AcDbLine
 10
1392.64210926419
 20
1012.396975783382
 30
0.0
 11
1393.516330227189
 21
1012.396175039596
 31
0.0
  0
LINE
  5
696
330
68D
100
AcDbEntity
  8
0
  6
Continuous
 62
     7
370
    15
100
AcDbLine
 10
1393.516330227189
 20
1012.396175039596
 30
0.0
 11
1393.579161932407
 21
1012.333228127296
 31
0.0
  0
LINE
  5
697
330
68D
100
AcDbEntity
  8
0
  6
Continuous
 62
     7
370
    15
100
AcDbLine
 10
1393.579161932407
 20
1012.333228127296
 30
0.0
 11
1393.580444263623
 21
1013.733227540019
 31
0.0
  0
LINE
  5
698
330
68D
100
AcDbEntity
  8
0
  6
Continuous
 62
     7
370
    15
100
AcDbLine
 10
1393.580444263623
 20
1013.733227540019
 30
0.0
 11
1395.917695475007
 21
1013.731086731845
 31
0.0
  0
ARC
  5
699
330
68D
100
AcDbEntity
  8
0
  6
Continuous
 62
     7
370
    15
100
AcDbCircle
 10
1393.080994043885
 20
1014.333685263764
 30
0.0
 40
2.900000000000009
100
AcDbArc
 50
191.8880638342684
 51
348.006975913052
  0
LINE
  5
69A
330
68D
100
AcDbEntity
  8
0
  6
Continuous
 62
     7
370
    15
100
AcDbLine
 10
1390.243193471721
 20
1013.736284299063
 30
0.0
 11
1392.580444683106
 21
1013.734143490888
 31
0.0
  0
LINE
  5
69B
330
68D
100
AcDbEntity
  8
0
  6
Continuous
 62
     7
370
    15
100
AcDbLine
 10
1398.830444683106
 20
1013.734143490888
 30
0.0
 11
1398.82916235189
 21
1012.334144078164
 31
0.0
  0
LINE
  5
69C
330
68D
100
AcDbEntity
  8
0
  6
Continuous
 62
     7
370
    15
100
AcDbLine
 10
1398.830444683106
 20
1013.734143490888
 30
0.0
 11
1398.893391595406
 21
1013.796975196106
 31
0.0
  0
LINE
  5
69D
330
68D
100
AcDbEntity
  8
0
  6
Continuous
 62
     7
370
    15
100
AcDbLine
 10
1398.893391595406
 20
1013.796975196106
 30
0.0
 11
1398.89210926419
 21
1012.396975783382
 31
0.0
  0
LINE
  5
69E
330
68D
100
AcDbEntity
  8
0
  6
Continuous
 62
     7
370
    15
100
AcDbLine
 10
1398.82916235189
 20
1012.334144078164
 30
0.0
 11
1398.89210926419
 21
1012.396975783382
 31
0.0
  0
LINE
  5
69F
330
68D
100
AcDbEntity
  8
0
  6
Continuous
 62
     7
370
    15
100
AcDbLine
 10
1398.82916235189
 20
1012.334144078164
 30
0.0
 11
1399.829161932407
 21
1012.333228127296
 31
0.0
  0
LINE
  5
6A0
330
68D
100
AcDbEntity
  8
0
  6
Continuous
 62
     7
370
    15
100
AcDbLine
 10
1399.829161932407
 20
1012.333228127296
 30
0.0
 11
1399.830444263623
 21
1013.733227540019
 31
0.0
  0
LINE
  5
6A1
330
68D
100
AcDbEntity
  8
0
  6
Continuous
 62
     7
370
    15
100
AcDbLine
 10
1399.830444263623
 20
1013.733227540019
 30
0.0
 11
1402.167695475007
 21
1013.731086731845
 31
0.0
  0
ARC
  5
6A2
330
68D
100
AcDbEntity
  8
0
  6
Continuous
 62
     7
370
    15
100
AcDbCircle
 10
1399.330994043885
 20
1014.333685263764
 30
0.0
 40
2.900000000000009
100
AcDbArc
 50
191.8880638342684
 51
348.006975913052
  0
LINE
  5
6A3
330
68D
100
AcDbEntity
  8
0
  6
Continuous
 62
     7
370
    15
100
AcDbLine
 10
1396.493193471721
 20
1013.736284299063
 30
0.0
 11
1398.830444683106
 21
1013.734143490888
 31
0.0
  0
LINE
  5
6A4
330
68D
100
AcDbEntity
  8
0
  6
Continuous
 62
     7
370
    15
100
AcDbLine
 10
1398.89210926419
 20
1012.396975783382
 30
0.0
 11
1399.766330227189
 21
1012.396175039596
 31
0.0
  0
LINE
  5
6A5
330
68D
100
AcDbEntity
  8
0
  6
Continuous
 62
     7
370
    15
100
AcDbLine
 10
1399.766330227189
 20
1012.396175039596
 30
0.0
 11
1399.829161932407
 21
1012.333228127296
 31
0.0
  0
ARC
  5
6A6
330
68D
100
AcDbEntity
  8
0
  6
Continuous
 62
     7
370
    15
100
AcDbCircle
 10
1399.330994043885
 20
1014.333685263764
 30
0.0
 40
2.899999999999998
100
AcDbArc
 50
190.6209294435665
 51
191.8880638342684
  0
LINE
  5
6A7
330
68D
100
AcDbEntity
  8
0
  6
Continuous
 62
     7
370
    15
100
AcDbLine
 10
1396.480676587508
 20
1013.799185125439
 30
0.0
 11
1398.893391595406
 21
1013.796975196106
 31
0.0
  0
ARC
  5
6A8
330
68D
100
AcDbEntity
  8
0
  6
Continuous
 62
     7
370
    15
100
AcDbCircle
 10
1393.080994043885
 20
1014.333685263764
 30
0.0
 40
2.899999999999998
100
AcDbArc
 50
190.6209294435665
 51
191.8880638342684
  0
LINE
  5
6A9
330
68D
100
AcDbEntity
  8
0
  6
Continuous
 62
     7
370
    15
100
AcDbLine
 10
1390.230676587508
 20
1013.799185125439
 30
0.0
 11
1392.643391595406
 21
1013.796975196106
 31
0.0
  0
LINE
  5
6AA
330
68D
100
AcDbEntity
  8
0
  6
Continuous
 62
     7
370
    15
100
AcDbLine
 10
1398.894375529365
 20
1014.871196075208
 30
0.0
 11
1396.481660521468
 21
1014.873406004542
 31
0.0
  0
ARC
  5
6AB
330
68D
100
AcDbEntity
  8
0
  6
Continuous
 62
     7
370
    15
100
AcDbCircle
 10
1399.330994043885
 20
1014.333685263764
 30
0.0
 40
2.899999999999987
100
AcDbArc
 50
168.006975913052
 51
169.2741103037507
  0
LINE
  5
6AC
330
68D
100
AcDbEntity
  8
0
  6
Continuous
 62
     7
370
    15
100
AcDbLine
 10
1398.831543824148
 20
1014.934142987508
 30
0.0
 11
1396.494292612764
 21
1014.936283795683
 31
0.0
  0
LINE
  5
6AD
330
68D
100
AcDbEntity
  8
0
  6
Continuous
 62
     7
370
    15
100
AcDbLine
 10
1398.831543824148
 20
1014.934142987508
 30
0.0
 11
1398.894375529365
 21
1014.871196075208
 31
0.0
  0
ARC
  5
6AE
330
68D
100
AcDbEntity
  8
0
  6
Continuous
 62
     7
370
    15
100
AcDbCircle
 10
1399.330994043885
 20
1014.333685263764
 30
0.0
 40
2.900000000000003
100
AcDbArc
 50
11.88806383426837
 51
168.006975913052
  0
LINE
  5
6AF
330
68D
100
AcDbEntity
  8
0
  6
Continuous
 62
     7
370
    15
100
AcDbLine
 10
1402.168794616049
 20
1014.931086228465
 30
0.0
 11
1399.831543404665
 21
1014.93322703664
 31
0.0
  0
LINE
  5
6B0
330
68D
100
AcDbEntity
  8
0
  6
Continuous
 62
     7
370
    15
100
AcDbLine
 10
1399.831543404665
 20
1014.93322703664
 30
0.0
 11
1399.83282573588
 21
1016.333226449364
 31
0.0
  0
LINE
  5
6B1
330
68D
100
AcDbEntity
  8
0
  6
Continuous
 62
     7
370
    15
100
AcDbLine
 10
1399.83282573588
 20
1016.333226449364
 30
0.0
 11
1398.832826155364
 21
1016.334142400232
 31
0.0
  0
LINE
  5
6B2
330
68D
100
AcDbEntity
  8
0
  6
Continuous
 62
     7
370
    15
100
AcDbLine
 10
1398.832826155364
 20
1016.334142400232
 30
0.0
 11
1398.831543824148
 21
1014.934142987508
 31
0.0
  0
LINE
  5
6B3
330
68D
100
AcDbEntity
  8
0
  6
Continuous
 62
     7
370
    15
100
AcDbLine
 10
1398.895657860581
 20
1016.271195487932
 30
0.0
 11
1398.894375529365
 21
1014.871196075208
 31
0.0
  0
LINE
  5
6B4
330
68D
100
AcDbEntity
  8
0
  6
Continuous
 62
     7
370
    15
100
AcDbLine
 10
1398.832826155364
 20
1016.334142400232
 30
0.0
 11
1398.895657860581
 21
1016.271195487932
 31
0.0
  0
LINE
  5
6B5
330
68D
100
AcDbEntity
  8
0
  6
Continuous
 62
     7
370
    15
100
AcDbLine
 10
1399.831543404665
 20
1014.93322703664
 30
0.0
 11
1399.768596492365
 21
1014.870395331422
 31
0.0
  0
LINE
  5
6B6
330
68D
100
AcDbEntity
  8
0
  6
Continuous
 62
     7
370
    15
100
AcDbLine
 10
1399.768596492365
 20
1014.870395331422
 30
0.0
 11
1399.769878823581
 21
1016.270394744146
 31
0.0
  0
LINE
  5
6B7
330
68D
100
AcDbEntity
  8
0
  6
Continuous
 62
     7
370
    15
100
AcDbLine
 10
1399.83282573588
 20
1016.333226449364
 30
0.0
 11
1399.769878823581
 21
1016.270394744146
 31
0.0
  0
ARC
  5
6B8
330
68D
100
AcDbEntity
  8
0
  6
Continuous
 62
     7
370
    15
100
AcDbCircle
 10
1399.330994043885
 20
1014.333685263764
 30
0.0
 40
2.900000000000019
100
AcDbArc
 50
10.62092944356651
 51
11.88806383426837
  0
LINE
  5
6B9
330
68D
100
AcDbEntity
  8
0
  6
Continuous
 62
     7
370
    15
100
AcDbLine
 10
1402.181311500263
 20
1014.868185402089
 30
0.0
 11
1399.768596492365
 21
1014.870395331422
 31
0.0
  0
LINE
  5
6BA
330
68D
100
AcDbEntity
  8
0
  6
Continuous
 62
     7
370
    15
100
AcDbLine
 10
1392.645657860581
 20
1016.271195487932
 30
0.0
 11
1392.644375529365
 21
1014.871196075208
 31
0.0
  0
LINE
  5
6BB
330
68D
100
AcDbEntity
  8
0
  6
Continuous
 62
     7
370
    15
100
AcDbLine
 10
1392.581543824148
 20
1014.934142987508
 30
0.0
 11
1392.644375529365
 21
1014.871196075208
 31
0.0
  0
LINE
  5
6BC
330
68D
100
AcDbEntity
  8
0
  6
Continuous
 62
     7
370
    15
100
AcDbLine
 10
1392.582826155364
 20
1016.334142400232
 30
0.0
 11
1392.581543824148
 21
1014.934142987508
 31
0.0
  0
LINE
  5
6BD
330
68D
100
AcDbEntity
  8
0
  6
Continuous
 62
     7
370
    15
100
AcDbLine
 10
1392.582826155364
 20
1016.334142400232
 30
0.0
 11
1392.645657860581
 21
1016.271195487932
 31
0.0
  0
LINE
  5
6BE
330
68D
100
AcDbEntity
  8
0
  6
Continuous
 62
     7
370
    15
100
AcDbLine
 10
1392.644375529365
 20
1014.871196075208
 30
0.0
 11
1390.231660521468
 21
1014.873406004542
 31
0.0
  0
ARC
  5
6BF
330
68D
100
AcDbEntity
  8
0
  6
Continuous
 62
     7
370
    15
100
AcDbCircle
 10
1393.080994043885
 20
1014.333685263764
 30
0.0
 40
2.900000000000015
100
AcDbArc
 50
168.006975913052
 51
169.2741103037507
  0
LINE
  5
6C0
330
68D
100
AcDbEntity
  8
0
  6
Continuous
 62
     7
370
    15
100
AcDbLine
 10
1392.581543824148
 20
1014.934142987508
 30
0.0
 11
1390.244292612763
 21
1014.936283795683
 31
0.0
  0
ARC
  5
6C1
330
68D
100
AcDbEntity
  8
0
  6
Continuous
 62
     7
370
    15
100
AcDbCircle
 10
1393.080994043885
 20
1014.333685263764
 30
0.0
 40
2.900000000000015
100
AcDbArc
 50
11.88806383426837
 51
168.006975913052
  0
LINE
  5
6C2
330
68D
100
AcDbEntity
  8
0
  6
Continuous
 62
     7
370
    15
100
AcDbLine
 10
1395.918794616049
 20
1014.931086228465
 30
0.0
 11
1393.581543404665
 21
1014.93322703664
 31
0.0
  0
LINE
  5
6C3
330
68D
100
AcDbEntity
  8
0
  6
Continuous
 62
     7
370
    15
100
AcDbLine
 10
1393.581543404665
 20
1014.93322703664
 30
0.0
 11
1393.582825735881
 21
1016.333226449364
 31
0.0
  0
LINE
  5
6C4
330
68D
100
AcDbEntity
  8
0
  6
Continuous
 62
     7
370
    15
100
AcDbLine
 10
1393.582825735881
 20
1016.333226449364
 30
0.0
 11
1392.582826155364
 21
1016.334142400232
 31
0.0
  0
LINE
  5
6C5
330
68D
100
AcDbEntity
  8
0
  6
Continuous
 62
     7
370
    15
100
AcDbLine
 10
1393.582825735881
 20
1016.333226449364
 30
0.0
 11
1393.519878823581
 21
1016.270394744146
 31
0.0
  0
LINE
  5
6C6
330
68D
100
AcDbEntity
  8
0
  6
Continuous
 62
     7
370
    15
100
AcDbLine
 10
1393.519878823581
 20
1016.270394744146
 30
0.0
 11
1392.645657860581
 21
1016.271195487932
 31
0.0
  0
LINE
  5
6C7
330
68D
100
AcDbEntity
  8
0
  6
Continuous
 62
     7
370
    15
100
AcDbLine
 10
1393.516330227189
 20
1012.396175039596
 30
0.0
 11
1393.517612558405
 21
1013.796174452319
 31
0.0
  0
LINE
  5
6C8
330
68D
100
AcDbEntity
  8
0
  6
Continuous
 62
     7
370
    15
100
AcDbLine
 10
1393.580444263623
 20
1013.733227540019
 30
0.0
 11
1393.517612558405
 21
1013.796174452319
 31
0.0
  0
ARC
  5
6C9
330
68D
100
AcDbEntity
  8
0
  6
Continuous
 62
     7
370
    15
100
AcDbCircle
 10
1393.080994043885
 20
1014.333685263764
 30
0.0
 40
2.900000000000003
100
AcDbArc
 50
10.62092944356651
 51
11.88806383426837
  0
LINE
  5
6CA
330
68D
100
AcDbEntity
  8
0
  6
Continuous
 62
     7
370
    15
100
AcDbLine
 10
1395.931311500263
 20
1014.868185402089
 30
0.0
 11
1393.518596492365
 21
1014.870395331422
 31
0.0
  0
LINE
  5
6CB
330
68D
100
AcDbEntity
  8
0
  6
Continuous
 62
     7
370
    15
100
AcDbLine
 10
1393.581543404665
 20
1014.93322703664
 30
0.0
 11
1393.518596492365
 21
1014.870395331422
 31
0.0
  0
LINE
  5
6CC
330
68D
100
AcDbEntity
  8
0
  6
Continuous
 62
     7
370
    15
100
AcDbLine
 10
1393.518596492365
 20
1014.870395331422
 30
0.0
 11
1393.519878823581
 21
1016.270394744146
 31
0.0
  0
LINE
  5
6CD
330
68D
100
AcDbEntity
  8
0
  6
Continuous
 62
     7
370
    15
100
AcDbLine
 10
1399.769878823581
 20
1016.270394744146
 30
0.0
 11
1398.895657860581
 21
1016.271195487932
 31
0.0
  0
LINE
  5
6CE
330
68D
100
AcDbEntity
  8
0
  6
Continuous
 62
     7
370
    15
100
AcDbLine
 10
1399.767612558405
 20
1013.796174452319
 30
0.0
 11
1402.180327566303
 21
1013.793964522986
 31
0.0
  0
ARC
  5
6CF
330
68D
100
AcDbEntity
  8
0
  6
Continuous
 62
     7
370
    15
100
AcDbCircle
 10
1399.330994043885
 20
1014.333685263764
 30
0.0
 40
2.900000000000009
100
AcDbArc
 50
348.006975913052
 51
349.2741103037507
  0
LINE
  5
6D0
330
68D
100
AcDbEntity
  8
0
  6
Continuous
 62
     7
370
    15
100
AcDbLine
 10
1399.830444263623
 20
1013.733227540019
 30
0.0
 11
1399.767612558405
 21
1013.796174452319
 31
0.0
  0
LINE
  5
6D1
330
68D
100
AcDbEntity
  8
0
  6
Continuous
 62
     7
370
    15
100
AcDbLine
 10
1393.517612558405
 20
1013.796174452319
 30
0.0
 11
1395.930327566303
 21
1013.793964522986
 31
0.0
  0
ARC
  5
6D2
330
68D
100
AcDbEntity
  8
0
  6
Continuous
 62
     7
370
    15
100
AcDbCircle
 10
1393.080994043885
 20
1014.333685263764
 30
0.0
 40
2.900000000000009
100
AcDbArc
 50
348.006975913052
 51
349.2741103037507
  0
LINE
  5
6D3
330
68D
100
AcDbEntity
  8
0
  6
Continuous
 62
     7
370
    15
100
AcDbLine
 10
1399.766330227189
 20
1012.396175039596
 30
0.0
 11
1399.767612558405
 21
1013.796174452319
 31
0.0
  0
LINE
  5
6D4
330
68D
100
AcDbEntity
  8
0
  6
Continuous
 62
     7
370
    15
100
AcDbLine
 10
1430.916788244572
 20
1012.896266424941
 30
0.0
 11
1430.917612600353
 21
1013.796266047406
 31
0.0
  0
LINE
  5
6D5
330
68D
100
AcDbEntity
  8
0
  6
Continuous
 62
     7
370
    15
100
AcDbLine
 10
1430.980444305571
 20
1013.733319135107
 30
0.0
 11
1430.917612600353
 21
1013.796266047406
 31
0.0
  0
LINE
  5
6D6
330
68D
100
AcDbEntity
  8
0
  6
Continuous
 62
     7
370
    15
100
AcDbLine
 10
1430.979619949789
 20
1012.833319512641
 30
0.0
 11
1430.980444305571
 21
1013.733319135107
 31
0.0
  0
LINE
  5
6D7
330
68D
100
AcDbEntity
  8
0
  6
Continuous
 62
     7
370
    15
100
AcDbLine
 10
1430.916788244572
 20
1012.896266424941
 30
0.0
 11
1430.979619949789
 21
1012.833319512641
 31
0.0
  0
LINE
  5
6D8
330
68D
100
AcDbEntity
  8
0
  6
Continuous
 62
     7
370
    15
100
AcDbLine
 10
1430.179620285376
 20
1012.834052273336
 30
0.0
 11
1430.979619949789
 21
1012.833319512641
 31
0.0
  0
LINE
  5
6D9
330
68D
100
AcDbEntity
  8
0
  6
Continuous
 62
     7
370
    15
100
AcDbLine
 10
1430.179620285376
 20
1012.834052273336
 30
0.0
 11
1430.242567197676
 21
1012.896883978553
 31
0.0
  0
LINE
  5
6DA
330
68D
100
AcDbEntity
  8
0
  6
Continuous
 62
     7
370
    15
100
AcDbLine
 10
1430.242567197676
 20
1012.896883978553
 30
0.0
 11
1430.916788244572
 21
1012.896266424941
 31
0.0
  0
LINE
  5
6DB
330
68D
100
AcDbEntity
  8
0
  6
Continuous
 62
     7
370
    15
100
AcDbLine
 10
1430.980444305571
 20
1013.733319135107
 30
0.0
 11
1432.904233506298
 21
1013.731557037978
 31
0.0
  0
ARC
  5
6DC
330
68D
100
AcDbEntity
  8
0
  6
Continuous
 62
     7
370
    15
100
AcDbCircle
 10
1430.580994043885
 20
1014.333685263764
 30
0.0
 40
2.400000000000009
100
AcDbArc
 50
194.4250320595904
 51
345.4700076877318
  0
LINE
  5
6DD
330
68D
100
AcDbEntity
  8
0
  6
Continuous
 62
     7
370
    15
100
AcDbLine
 10
1428.256655440431
 20
1013.73581399293
 30
0.0
 11
1430.180444641157
 21
1013.734051895801
 31
0.0
  0
LINE
  5
6DE
330
68D
100
AcDbEntity
  8
0
  6
Continuous
 62
     7
370
    15
100
AcDbLine
 10
1430.180444641157
 20
1013.734051895801
 30
0.0
 11
1430.179620285376
 21
1012.834052273336
 31
0.0
  0
LINE
  5
6DF
330
68D
100
AcDbEntity
  8
0
  6
Continuous
 62
     7
370
    15
100
AcDbLine
 10
1436.430444641158
 20
1013.734051895801
 30
0.0
 11
1436.429620285376
 21
1012.834052273336
 31
0.0
  0
LINE
  5
6E0
330
68D
100
AcDbEntity
  8
0
  6
Continuous
 62
     7
370
    15
100
AcDbLine
 10
1436.430444641158
 20
1013.734051895801
 30
0.0
 11
1436.493391553457
 21
1013.796883601019
 31
0.0
  0
LINE
  5
6E1
330
68D
100
AcDbEntity
  8
0
  6
Continuous
 62
     7
370
    15
100
AcDbLine
 10
1436.493391553457
 20
1013.796883601019
 30
0.0
 11
1436.492567197675
 21
1012.896883978553
 31
0.0
  0
LINE
  5
6E2
330
68D
100
AcDbEntity
  8
0
  6
Continuous
 62
     7
370
    15
100
AcDbLine
 10
1436.429620285376
 20
1012.834052273336
 30
0.0
 11
1436.492567197675
 21
1012.896883978553
 31
0.0
  0
LINE
  5
6E3
330
68D
100
AcDbEntity
  8
0
  6
Continuous
 62
     7
370
    15
100
AcDbLine
 10
1423.929620285376
 20
1012.834052273336
 30
0.0
 11
1424.729619949789
 21
1012.833319512641
 31
0.0
  0
LINE
  5
6E4
330
68D
100
AcDbEntity
  8
0
  6
Continuous
 62
     7
370
    15
100
AcDbLine
 10
1424.729619949789
 20
1012.833319512641
 30
0.0
 11
1424.730444305571
 21
1013.733319135107
 31
0.0
  0
LINE
  5
6E5
330
68D
100
AcDbEntity
  8
0
  6
Continuous
 62
     7
370
    15
100
AcDbLine
 10
1424.730444305571
 20
1013.733319135107
 30
0.0
 11
1426.654233506298
 21
1013.731557037978
 31
0.0
  0
ARC
  5
6E6
330
68D
100
AcDbEntity
  8
0
  6
Continuous
 62
     7
370
    15
100
AcDbCircle
 10
1424.330994043885
 20
1014.333685263764
 30
0.0
 40
2.400000000000009
100
AcDbArc
 50
194.4250320595904
 51
345.4700076877318
  0
LINE
  5
6E7
330
68D
100
AcDbEntity
  8
0
  6
Continuous
 62
     7
370
    15
100
AcDbLine
 10
1422.00665544043
 20
1013.73581399293
 30
0.0
 11
1423.930444641158
 21
1013.734051895801
 31
0.0
  0
LINE
  5
6E8
330
68D
100
AcDbEntity
  8
0
  6
Continuous
 62
     7
370
    15
100
AcDbLine
 10
1423.930444641158
 20
1013.734051895801
 30
0.0
 11
1423.929620285376
 21
1012.834052273336
 31
0.0
  0
LINE
  5
6E9
330
68D
100
AcDbEntity
  8
0
  6
Continuous
 62
     7
370
    15
100
AcDbLine
 10
1423.9315437822
 20
1014.934051392422
 30
0.0
 11
1422.007754581472
 21
1014.93581348955
 31
0.0
  0
ARC
  5
6EA
330
68D
100
AcDbEntity
  8
0
  6
Continuous
 62
     7
370
    15
100
AcDbCircle
 10
1424.330994043885
 20
1014.333685263764
 30
0.0
 40
2.400000000000032
100
AcDbArc
 50
14.42503205959039
 51
165.4700076877255
  0
LINE
  5
6EB
330
68D
100
AcDbEntity
  8
0
  6
Continuous
 62
     7
370
    15
100
AcDbLine
 10
1426.65533264734
 20
1014.931556534598
 30
0.0
 11
1424.731543446613
 21
1014.933318631727
 31
0.0
  0
LINE
  5
6EC
330
68D
100
AcDbEntity
  8
0
  6
Continuous
 62
     7
370
    15
100
AcDbLine
 10
1424.731543446613
 20
1014.933318631727
 30
0.0
 11
1424.732367802395
 21
1015.833318254192
 31
0.0
  0
LINE
  5
6ED
330
68D
100
AcDbEntity
  8
0
  6
Continuous
 62
     7
370
    15
100
AcDbLine
 10
1424.732367802395
 20
1015.833318254192
 30
0.0
 11
1423.932368137981
 21
1015.834051014887
 31
0.0
  0
LINE
  5
6EE
330
68D
100
AcDbEntity
  8
0
  6
Continuous
 62
     7
370
    15
100
AcDbLine
 10
1423.932368137981
 20
1015.834051014887
 30
0.0
 11
1423.9315437822
 21
1014.934051392422
 31
0.0
  0
LINE
  5
6EF
330
68D
100
AcDbEntity
  8
0
  6
Continuous
 62
     7
370
    15
100
AcDbLine
 10
1436.431543782199
 20
1014.934051392422
 30
0.0
 11
1434.507754581473
 21
1014.93581348955
 31
0.0
  0
ARC
  5
6F0
330
68D
100
AcDbEntity
  8
0
  6
Continuous
 62
     7
370
    15
100
AcDbCircle
 10
1436.830994043885
 20
1014.333685263764
 30
0.0
 40
2.400000000000005
100
AcDbArc
 50
14.42503205959039
 51
165.4700076877255
  0
LINE
  5
6F1
330
68D
100
AcDbEntity
  8
0
  6
Continuous
 62
     7
370
    15
100
AcDbLine
 10
1439.15533264734
 20
1014.931556534598
 30
0.0
 11
1437.231543446613
 21
1014.933318631727
 31
0.0
  0
LINE
  5
6F2
330
68D
100
AcDbEntity
  8
0
  6
Continuous
 62
     7
370
    15
100
AcDbLine
 10
1437.231543446613
 20
1014.933318631727
 30
0.0
 11
1437.232367802395
 21
1015.833318254192
 31
0.0
  0
LINE
  5
6F3
330
68D
100
AcDbEntity
  8
0
  6
Continuous
 62
     7
370
    15
100
AcDbLine
 10
1437.232367802395
 20
1015.833318254192
 30
0.0
 11
1436.432368137981
 21
1015.834051014887
 31
0.0
  0
LINE
  5
6F4
330
68D
100
AcDbEntity
  8
0
  6
Continuous
 62
     7
370
    15
100
AcDbLine
 10
1436.432368137981
 20
1015.834051014887
 30
0.0
 11
1436.431543782199
 21
1014.934051392422
 31
0.0
  0
LINE
  5
6F5
330
68D
100
AcDbEntity
  8
0
  6
Continuous
 62
     7
370
    15
100
AcDbLine
 10
1424.731543446613
 20
1014.933318631727
 30
0.0
 11
1424.668596534313
 21
1014.870486926509
 31
0.0
  0
LINE
  5
6F6
330
68D
100
AcDbEntity
  8
0
  6
Continuous
 62
     7
370
    15
100
AcDbLine
 10
1424.668596534313
 20
1014.870486926509
 30
0.0
 11
1424.669420890095
 21
1015.770486548974
 31
0.0
  0
LINE
  5
6F7
330
68D
100
AcDbEntity
  8
0
  6
Continuous
 62
     7
370
    15
100
AcDbLine
 10
1424.732367802395
 20
1015.833318254192
 30
0.0
 11
1424.669420890095
 21
1015.770486548974
 31
0.0
  0
LINE
  5
6F8
330
68D
100
AcDbEntity
  8
0
  6
Continuous
 62
     7
370
    15
100
AcDbLine
 10
1411.430444641158
 20
1013.734051895801
 30
0.0
 11
1411.429620285376
 21
1012.834052273336
 31
0.0
  0
LINE
  5
6F9
330
68D
100
AcDbEntity
  8
0
  6
Continuous
 62
     7
370
    15
100
AcDbLine
 10
1411.430444641158
 20
1013.734051895801
 30
0.0
 11
1411.493391553457
 21
1013.796883601019
 31
0.0
  0
LINE
  5
6FA
330
68D
100
AcDbEntity
  8
0
  6
Continuous
 62
     7
370
    15
100
AcDbLine
 10
1411.493391553457
 20
1013.796883601019
 30
0.0
 11
1411.492567197676
 21
1012.896883978553
 31
0.0
  0
LINE
  5
6FB
330
68D
100
AcDbEntity
  8
0
  6
Continuous
 62
     7
370
    15
100
AcDbLine
 10
1411.429620285376
 20
1012.834052273336
 30
0.0
 11
1411.492567197676
 21
1012.896883978553
 31
0.0
  0
LINE
  5
6FC
330
68D
100
AcDbEntity
  8
0
  6
Continuous
 62
     7
370
    15
100
AcDbLine
 10
1436.429620285376
 20
1012.834052273336
 30
0.0
 11
1437.229619949789
 21
1012.833319512641
 31
0.0
  0
LINE
  5
6FD
330
68D
100
AcDbEntity
  8
0
  6
Continuous
 62
     7
370
    15
100
AcDbLine
 10
1437.229619949789
 20
1012.833319512641
 30
0.0
 11
1437.230444305571
 21
1013.733319135107
 31
0.0
  0
LINE
  5
6FE
330
68D
100
AcDbEntity
  8
0
  6
Continuous
 62
     7
370
    15
100
AcDbLine
 10
1437.230444305571
 20
1013.733319135107
 30
0.0
 11
1439.154233506298
 21
1013.731557037978
 31
0.0
  0
ARC
  5
6FF
330
68D
100
AcDbEntity
  8
0
  6
Continuous
 62
     7
370
    15
100
AcDbCircle
 10
1436.830994043885
 20
1014.333685263764
 30
0.0
 40
2.400000000000009
100
AcDbArc
 50
194.4250320595904
 51
345.4700076877318
  0
LINE
  5
700
330
68D
100
AcDbEntity
  8
0
  6
Continuous
 62
     7
370
    15
100
AcDbLine
 10
1434.50665544043
 20
1013.73581399293
 30
0.0
 11
1436.430444641158
 21
1013.734051895801
 31
0.0
  0
LINE
  5
701
330
68D
100
AcDbEntity
  8
0
  6
Continuous
 62
     7
370
    15
100
AcDbLine
 10
1409.50665544043
 20
1013.73581399293
 30
0.0
 11
1411.430444641158
 21
1013.734051895801
 31
0.0
  0
ARC
  5
702
330
68D
100
AcDbEntity
  8
0
  6
Continuous
 62
     7
370
    15
100
AcDbCircle
 10
1411.830994043885
 20
1014.333685263764
 30
0.0
 40
2.400000000000025
100
AcDbArc
 50
192.8796150990834
 51
194.4250320595904
  0
LINE
  5
703
330
68D
100
AcDbEntity
  8
0
  6
Continuous
 62
     7
370
    15
100
AcDbLine
 10
1409.491376696922
 20
1013.798717349034
 30
0.0
 11
1411.493391553457
 21
1013.796883601019
 31
0.0
  0
LINE
  5
704
330
68D
100
AcDbEntity
  8
0
  6
Continuous
 62
     7
370
    15
100
AcDbLine
 10
1437.231543446613
 20
1014.933318631727
 30
0.0
 11
1437.168596534313
 21
1014.870486926509
 31
0.0
  0
LINE
  5
705
330
68D
100
AcDbEntity
  8
0
  6
Continuous
 62
     7
370
    15
100
AcDbLine
 10
1437.168596534313
 20
1014.870486926509
 30
0.0
 11
1437.169420890095
 21
1015.770486548974
 31
0.0
  0
LINE
  5
706
330
68D
100
AcDbEntity
  8
0
  6
Continuous
 62
     7
370
    15
100
AcDbLine
 10
1437.232367802395
 20
1015.833318254192
 30
0.0
 11
1437.169420890095
 21
1015.770486548974
 31
0.0
  0
LINE
  5
707
330
68D
100
AcDbEntity
  8
0
  6
Continuous
 62
     7
370
    15
100
AcDbLine
 10
1430.1815437822
 20
1014.934051392422
 30
0.0
 11
1428.257754581473
 21
1014.93581348955
 31
0.0
  0
ARC
  5
708
330
68D
100
AcDbEntity
  8
0
  6
Continuous
 62
     7
370
    15
100
AcDbCircle
 10
1430.580994043885
 20
1014.333685263764
 30
0.0
 40
2.400000000000023
100
AcDbArc
 50
14.42503205959039
 51
165.4700076877255
  0
LINE
  5
709
330
68D
100
AcDbEntity
  8
0
  6
Continuous
 62
     7
370
    15
100
AcDbLine
 10
1432.90533264734
 20
1014.931556534598
 30
0.0
 11
1430.981543446613
 21
1014.933318631727
 31
0.0
  0
LINE
  5
70A
330
68D
100
AcDbEntity
  8
0
  6
Continuous
 62
     7
370
    15
100
AcDbLine
 10
1430.981543446613
 20
1014.933318631727
 30
0.0
 11
1430.982367802395
 21
1015.833318254192
 31
0.0
  0
LINE
  5
70B
330
68D
100
AcDbEntity
  8
0
  6
Continuous
 62
     7
370
    15
100
AcDbLine
 10
1430.982367802395
 20
1015.833318254192
 30
0.0
 11
1430.182368137981
 21
1015.834051014887
 31
0.0
  0
LINE
  5
70C
330
68D
100
AcDbEntity
  8
0
  6
Continuous
 62
     7
370
    15
100
AcDbLine
 10
1430.182368137981
 20
1015.834051014887
 30
0.0
 11
1430.1815437822
 21
1014.934051392422
 31
0.0
  0
ARC
  5
70D
330
68D
100
AcDbEntity
  8
0
  6
Continuous
 62
     7
370
    15
100
AcDbCircle
 10
1424.330994043885
 20
1014.333685263764
 30
0.0
 40
2.399999999999971
100
AcDbArc
 50
192.8796150990834
 51
194.4250320595904
  0
LINE
  5
70E
330
68D
100
AcDbEntity
  8
0
  6
Continuous
 62
     7
370
    15
100
AcDbLine
 10
1421.991376696922
 20
1013.798717349034
 30
0.0
 11
1423.993391553457
 21
1013.796883601019
 31
0.0
  0
LINE
  5
70F
330
68D
100
AcDbEntity
  8
0
  6
Continuous
 62
     7
370
    15
100
AcDbLine
 10
1423.930444641158
 20
1013.734051895801
 30
0.0
 11
1423.993391553457
 21
1013.796883601019
 31
0.0
  0
LINE
  5
710
330
68D
100
AcDbEntity
  8
0
  6
Continuous
 62
     7
370
    15
100
AcDbLine
 10
1423.993391553457
 20
1013.796883601019
 30
0.0
 11
1423.992567197676
 21
1012.896883978553
 31
0.0
  0
LINE
  5
711
330
68D
100
AcDbEntity
  8
0
  6
Continuous
 62
     7
370
    15
100
AcDbLine
 10
1423.929620285376
 20
1012.834052273336
 30
0.0
 11
1423.992567197676
 21
1012.896883978553
 31
0.0
  0
LINE
  5
712
330
68D
100
AcDbEntity
  8
0
  6
Continuous
 62
     7
370
    15
100
AcDbLine
 10
1430.982367802395
 20
1015.833318254192
 30
0.0
 11
1430.919420890095
 21
1015.770486548974
 31
0.0
  0
LINE
  5
713
330
68D
100
AcDbEntity
  8
0
  6
Continuous
 62
     7
370
    15
100
AcDbLine
 10
1430.919420890095
 20
1015.770486548974
 30
0.0
 11
1430.245199843199
 21
1015.771104102587
 31
0.0
  0
LINE
  5
714
330
68D
100
AcDbEntity
  8
0
  6
Continuous
 62
     7
370
    15
100
AcDbLine
 10
1430.182368137981
 20
1015.834051014887
 30
0.0
 11
1430.245199843199
 21
1015.771104102587
 31
0.0
  0
ARC
  5
715
330
68D
100
AcDbEntity
  8
0
  6
Continuous
 62
     7
370
    15
100
AcDbCircle
 10
1436.830994043885
 20
1014.333685263764
 30
0.0
 40
2.399999999999996
100
AcDbArc
 50
192.8796150990834
 51
194.4250320595904
  0
LINE
  5
716
330
68D
100
AcDbEntity
  8
0
  6
Continuous
 62
     7
370
    15
100
AcDbLine
 10
1434.491376696922
 20
1013.798717349034
 30
0.0
 11
1436.493391553457
 21
1013.796883601019
 31
0.0
  0
LINE
  5
717
330
68D
100
AcDbEntity
  8
0
  6
Continuous
 62
     7
370
    15
100
AcDbLine
 10
1411.429620285376
 20
1012.834052273336
 30
0.0
 11
1412.229619949789
 21
1012.833319512641
 31
0.0
  0
LINE
  5
718
330
68D
100
AcDbEntity
  8
0
  6
Continuous
 62
     7
370
    15
100
AcDbLine
 10
1412.229619949789
 20
1012.833319512641
 30
0.0
 11
1412.230444305571
 21
1013.733319135107
 31
0.0
  0
LINE
  5
719
330
68D
100
AcDbEntity
  8
0
  6
Continuous
 62
     7
370
    15
100
AcDbLine
 10
1412.230444305571
 20
1013.733319135107
 30
0.0
 11
1414.154233506298
 21
1013.731557037978
 31
0.0
  0
ARC
  5
71A
330
68D
100
AcDbEntity
  8
0
  6
Continuous
 62
     7
370
    15
100
AcDbCircle
 10
1411.830994043885
 20
1014.333685263764
 30
0.0
 40
2.400000000000025
100
AcDbArc
 50
194.4250320595904
 51
345.4700076877318
  0
LINE
  5
71B
330
68D
100
AcDbEntity
  8
0
  6
Continuous
 62
     7
370
    15
100
AcDbLine
 10
1437.169420890095
 20
1015.770486548974
 30
0.0
 11
1436.495199843199
 21
1015.771104102587
 31
0.0
  0
LINE
  5
71C
330
68D
100
AcDbEntity
  8
0
  6
Continuous
 62
     7
370
    15
100
AcDbLine
 10
1436.432368137981
 20
1015.834051014887
 30
0.0
 11
1436.495199843199
 21
1015.771104102587
 31
0.0
  0
ARC
  5
71D
330
68D
100
AcDbEntity
  8
0
  6
Continuous
 62
     7
370
    15
100
AcDbCircle
 10
1424.330994043885
 20
1014.333685263764
 30
0.0
 40
2.400000000000032
100
AcDbArc
 50
12.87961509908336
 51
14.42503205959039
  0
LINE
  5
71E
330
68D
100
AcDbEntity
  8
0
  6
Continuous
 62
     7
370
    15
100
AcDbLine
 10
1426.670611390848
 20
1014.868653178494
 30
0.0
 11
1424.668596534313
 21
1014.870486926509
 31
0.0
  0
LINE
  5
71F
330
68D
100
AcDbEntity
  8
0
  6
Continuous
 62
     7
370
    15
100
AcDbLine
 10
1430.245199843199
 20
1015.771104102587
 30
0.0
 11
1430.244375487417
 21
1014.871104480122
 31
0.0
  0
LINE
  5
720
330
68D
100
AcDbEntity
  8
0
  6
Continuous
 62
     7
370
    15
100
AcDbLine
 10
1430.1815437822
 20
1014.934051392422
 30
0.0
 11
1430.244375487417
 21
1014.871104480122
 31
0.0
  0
LINE
  5
721
330
68D
100
AcDbEntity
  8
0
  6
Continuous
 62
     7
370
    15
100
AcDbLine
 10
1412.167612600353
 20
1013.796266047406
 30
0.0
 11
1414.169627456888
 21
1013.79443229939
 31
0.0
  0
ARC
  5
722
330
68D
100
AcDbEntity
  8
0
  6
Continuous
 62
     7
370
    15
100
AcDbCircle
 10
1411.830994043885
 20
1014.333685263764
 30
0.0
 40
2.399999999999983
100
AcDbArc
 50
345.4700076877318
 51
347.0154246482373
  0
LINE
  5
723
330
68D
100
AcDbEntity
  8
0
  6
Continuous
 62
     7
370
    15
100
AcDbLine
 10
1412.230444305571
 20
1013.733319135107
 30
0.0
 11
1412.167612600353
 21
1013.796266047406
 31
0.0
  0
LINE
  5
724
330
68D
100
AcDbEntity
  8
0
  6
Continuous
 62
     7
370
    15
100
AcDbLine
 10
1412.166788244572
 20
1012.896266424941
 30
0.0
 11
1412.167612600353
 21
1013.796266047406
 31
0.0
  0
LINE
  5
725
330
68D
100
AcDbEntity
  8
0
  6
Continuous
 62
     7
370
    15
100
AcDbLine
 10
1412.166788244572
 20
1012.896266424941
 30
0.0
 11
1412.229619949789
 21
1012.833319512641
 31
0.0
  0
LINE
  5
726
330
68D
100
AcDbEntity
  8
0
  6
Continuous
 62
     7
370
    15
100
AcDbLine
 10
1418.417612600353
 20
1013.796266047406
 30
0.0
 11
1420.419627456888
 21
1013.79443229939
 31
0.0
  0
ARC
  5
727
330
68D
100
AcDbEntity
  8
0
  6
Continuous
 62
     7
370
    15
100
AcDbCircle
 10
1418.080994043885
 20
1014.333685263764
 30
0.0
 40
2.399999999999983
100
AcDbArc
 50
345.4700076877318
 51
347.0154246482373
  0
LINE
  5
728
330
68D
100
AcDbEntity
  8
0
  6
Continuous
 62
     7
370
    15
100
AcDbLine
 10
1418.480444305571
 20
1013.733319135107
 30
0.0
 11
1420.404233506298
 21
1013.731557037978
 31
0.0
  0
LINE
  5
729
330
68D
100
AcDbEntity
  8
0
  6
Continuous
 62
     7
370
    15
100
AcDbLine
 10
1418.480444305571
 20
1013.733319135107
 30
0.0
 11
1418.417612600353
 21
1013.796266047406
 31
0.0
  0
LINE
  5
72A
330
68D
100
AcDbEntity
  8
0
  6
Continuous
 62
     7
370
    15
100
AcDbLine
 10
1417.679620285376
 20
1012.834052273336
 30
0.0
 11
1418.479619949789
 21
1012.833319512641
 31
0.0
  0
LINE
  5
72B
330
68D
100
AcDbEntity
  8
0
  6
Continuous
 62
     7
370
    15
100
AcDbLine
 10
1418.479619949789
 20
1012.833319512641
 30
0.0
 11
1418.480444305571
 21
1013.733319135107
 31
0.0
  0
ARC
  5
72C
330
68D
100
AcDbEntity
  8
0
  6
Continuous
 62
     7
370
    15
100
AcDbCircle
 10
1418.080994043885
 20
1014.333685263764
 30
0.0
 40
2.400000000000025
100
AcDbArc
 50
194.4250320595904
 51
345.4700076877318
  0
LINE
  5
72D
330
68D
100
AcDbEntity
  8
0
  6
Continuous
 62
     7
370
    15
100
AcDbLine
 10
1415.75665544043
 20
1013.73581399293
 30
0.0
 11
1417.680444641157
 21
1013.734051895801
 31
0.0
  0
LINE
  5
72E
330
68D
100
AcDbEntity
  8
0
  6
Continuous
 62
     7
370
    15
100
AcDbLine
 10
1417.680444641157
 20
1013.734051895801
 30
0.0
 11
1417.679620285376
 21
1012.834052273336
 31
0.0
  0
LINE
  5
72F
330
68D
100
AcDbEntity
  8
0
  6
Continuous
 62
     7
370
    15
100
AcDbLine
 10
1418.416788244572
 20
1012.896266424941
 30
0.0
 11
1418.417612600353
 21
1013.796266047406
 31
0.0
  0
LINE
  5
730
330
68D
100
AcDbEntity
  8
0
  6
Continuous
 62
     7
370
    15
100
AcDbLine
 10
1418.416788244572
 20
1012.896266424941
 30
0.0
 11
1418.479619949789
 21
1012.833319512641
 31
0.0
  0
LINE
  5
731
330
68D
100
AcDbEntity
  8
0
  6
Continuous
 62
     7
370
    15
100
AcDbLine
 10
1417.679620285376
 20
1012.834052273336
 30
0.0
 11
1417.742567197676
 21
1012.896883978553
 31
0.0
  0
LINE
  5
732
330
68D
100
AcDbEntity
  8
0
  6
Continuous
 62
     7
370
    15
100
AcDbLine
 10
1417.742567197676
 20
1012.896883978553
 30
0.0
 11
1418.416788244572
 21
1012.896266424941
 31
0.0
  0
LINE
  5
733
330
68D
100
AcDbEntity
  8
0
  6
Continuous
 62
     7
370
    15
100
AcDbLine
 10
1424.666788244572
 20
1012.896266424941
 30
0.0
 11
1424.667612600353
 21
1013.796266047406
 31
0.0
  0
LINE
  5
734
330
68D
100
AcDbEntity
  8
0
  6
Continuous
 62
     7
370
    15
100
AcDbLine
 10
1424.730444305571
 20
1013.733319135107
 30
0.0
 11
1424.667612600353
 21
1013.796266047406
 31
0.0
  0
LINE
  5
735
330
68D
100
AcDbEntity
  8
0
  6
Continuous
 62
     7
370
    15
100
AcDbLine
 10
1424.666788244572
 20
1012.896266424941
 30
0.0
 11
1424.729619949789
 21
1012.833319512641
 31
0.0
  0
LINE
  5
736
330
68D
100
AcDbEntity
  8
0
  6
Continuous
 62
     7
370
    15
100
AcDbLine
 10
1430.917612600353
 20
1013.796266047406
 30
0.0
 11
1432.919627456888
 21
1013.79443229939
 31
0.0
  0
ARC
  5
737
330
68D
100
AcDbEntity
  8
0
  6
Continuous
 62
     7
370
    15
100
AcDbCircle
 10
1430.580994043885
 20
1014.333685263764
 30
0.0
 40
2.400000000000009
100
AcDbArc
 50
345.4700076877318
 51
347.0154246482373
  0
LINE
  5
738
330
68D
100
AcDbEntity
  8
0
  6
Continuous
 62
     7
370
    15
100
AcDbLine
 10
1437.166788244572
 20
1012.896266424941
 30
0.0
 11
1437.167612600353
 21
1013.796266047406
 31
0.0
  0
LINE
  5
739
330
68D
100
AcDbEntity
  8
0
  6
Continuous
 62
     7
370
    15
100
AcDbLine
 10
1437.230444305571
 20
1013.733319135107
 30
0.0
 11
1437.167612600354
 21
1013.796266047406
 31
0.0
  0
LINE
  5
73A
330
68D
100
AcDbEntity
  8
0
  6
Continuous
 62
     7
370
    15
100
AcDbLine
 10
1437.166788244572
 20
1012.896266424941
 30
0.0
 11
1437.229619949789
 21
1012.833319512641
 31
0.0
  0
LINE
  5
73B
330
68D
100
AcDbEntity
  8
0
  6
Continuous
 62
     7
370
    15
100
AcDbLine
 10
1424.667612600353
 20
1013.796266047406
 30
0.0
 11
1426.669627456888
 21
1013.79443229939
 31
0.0
  0
ARC
  5
73C
330
68D
100
AcDbEntity
  8
0
  6
Continuous
 62
     7
370
    15
100
AcDbCircle
 10
1424.330994043885
 20
1014.333685263764
 30
0.0
 40
2.40000000000001
100
AcDbArc
 50
345.4700076877318
 51
347.0154246482373
  0
LINE
  5
73D
330
68D
100
AcDbEntity
  8
0
  6
Continuous
 62
     7
370
    15
100
AcDbLine
 10
1437.167612600354
 20
1013.796266047406
 30
0.0
 11
1439.169627456888
 21
1013.79443229939
 31
0.0
  0
ARC
  5
73E
330
68D
100
AcDbEntity
  8
0
  6
Continuous
 62
     7
370
    15
100
AcDbCircle
 10
1436.830994043885
 20
1014.333685263764
 30
0.0
 40
2.40000000000001
100
AcDbArc
 50
345.4700076877318
 51
347.0154246482373
  0
LINE
  5
73F
330
68D
100
AcDbEntity
  8
0
  6
Continuous
 62
     7
370
    15
100
AcDbLine
 10
1436.492567197675
 20
1012.896883978553
 30
0.0
 11
1437.166788244572
 21
1012.896266424941
 31
0.0
  0
LINE
  5
740
330
68D
100
AcDbEntity
  8
0
  6
Continuous
 62
     7
370
    15
100
AcDbLine
 10
1412.231543446613
 20
1014.933318631727
 30
0.0
 11
1412.232367802395
 21
1015.833318254192
 31
0.0
  0
LINE
  5
741
330
68D
100
AcDbEntity
  8
0
  6
Continuous
 62
     7
370
    15
100
AcDbLine
 10
1412.231543446613
 20
1014.933318631727
 30
0.0
 11
1412.168596534313
 21
1014.870486926509
 31
0.0
  0
LINE
  5
742
330
68D
100
AcDbEntity
  8
0
  6
Continuous
 62
     7
370
    15
100
AcDbLine
 10
1412.168596534313
 20
1014.870486926509
 30
0.0
 11
1412.169420890095
 21
1015.770486548974
 31
0.0
  0
LINE
  5
743
330
68D
100
AcDbEntity
  8
0
  6
Continuous
 62
     7
370
    15
100
AcDbLine
 10
1412.232367802395
 20
1015.833318254192
 30
0.0
 11
1412.169420890095
 21
1015.770486548974
 31
0.0
  0
LINE
  5
744
330
68D
100
AcDbEntity
  8
0
  6
Continuous
 62
     7
370
    15
100
AcDbLine
 10
1420.40533264734
 20
1014.931556534598
 30
0.0
 11
1418.481543446613
 21
1014.933318631727
 31
0.0
  0
ARC
  5
745
330
68D
100
AcDbEntity
  8
0
  6
Continuous
 62
     7
370
    15
100
AcDbCircle
 10
1418.080994043885
 20
1014.333685263764
 30
0.0
 40
2.399999999999978
100
AcDbArc
 50
12.87961509908336
 51
14.42503205959039
  0
LINE
  5
746
330
68D
100
AcDbEntity
  8
0
  6
Continuous
 62
     7
370
    15
100
AcDbLine
 10
1420.420611390848
 20
1014.868653178494
 30
0.0
 11
1418.418596534313
 21
1014.870486926509
 31
0.0
  0
LINE
  5
747
330
68D
100
AcDbEntity
  8
0
  6
Continuous
 62
     7
370
    15
100
AcDbLine
 10
1418.481543446613
 20
1014.933318631727
 30
0.0
 11
1418.418596534313
 21
1014.870486926509
 31
0.0
  0
LINE
  5
748
330
68D
100
AcDbEntity
  8
0
  6
Continuous
 62
     7
370
    15
100
AcDbLine
 10
1411.4315437822
 20
1014.934051392422
 30
0.0
 11
1409.507754581472
 21
1014.93581348955
 31
0.0
  0
ARC
  5
749
330
68D
100
AcDbEntity
  8
0
  6
Continuous
 62
     7
370
    15
100
AcDbCircle
 10
1411.830994043885
 20
1014.333685263764
 30
0.0
 40
2.400000000000023
100
AcDbArc
 50
14.42503205959039
 51
165.4700076877255
  0
LINE
  5
74A
330
68D
100
AcDbEntity
  8
0
  6
Continuous
 62
     7
370
    15
100
AcDbLine
 10
1414.15533264734
 20
1014.931556534598
 30
0.0
 11
1412.231543446613
 21
1014.933318631727
 31
0.0
  0
LINE
  5
74B
330
68D
100
AcDbEntity
  8
0
  6
Continuous
 62
     7
370
    15
100
AcDbLine
 10
1412.232367802395
 20
1015.833318254192
 30
0.0
 11
1411.432368137981
 21
1015.834051014887
 31
0.0
  0
LINE
  5
74C
330
68D
100
AcDbEntity
  8
0
  6
Continuous
 62
     7
370
    15
100
AcDbLine
 10
1411.432368137981
 20
1015.834051014887
 30
0.0
 11
1411.4315437822
 21
1014.934051392422
 31
0.0
  0
LINE
  5
74D
330
68D
100
AcDbEntity
  8
0
  6
Continuous
 62
     7
370
    15
100
AcDbLine
 10
1417.745199843199
 20
1015.771104102587
 30
0.0
 11
1417.744375487417
 21
1014.871104480122
 31
0.0
  0
LINE
  5
74E
330
68D
100
AcDbEntity
  8
0
  6
Continuous
 62
     7
370
    15
100
AcDbLine
 10
1417.681543782199
 20
1014.934051392422
 30
0.0
 11
1417.744375487417
 21
1014.871104480122
 31
0.0
  0
LINE
  5
74F
330
68D
100
AcDbEntity
  8
0
  6
Continuous
 62
     7
370
    15
100
AcDbLine
 10
1417.682368137981
 20
1015.834051014887
 30
0.0
 11
1417.681543782199
 21
1014.934051392422
 31
0.0
  0
LINE
  5
750
330
68D
100
AcDbEntity
  8
0
  6
Continuous
 62
     7
370
    15
100
AcDbLine
 10
1417.682368137981
 20
1015.834051014887
 30
0.0
 11
1417.745199843199
 21
1015.771104102587
 31
0.0
  0
ARC
  5
751
330
68D
100
AcDbEntity
  8
0
  6
Continuous
 62
     7
370
    15
100
AcDbCircle
 10
1418.080994043885
 20
1014.333685263764
 30
0.0
 40
2.400000000000025
100
AcDbArc
 50
192.8796150990834
 51
194.4250320595904
  0
LINE
  5
752
330
68D
100
AcDbEntity
  8
0
  6
Continuous
 62
     7
370
    15
100
AcDbLine
 10
1415.741376696922
 20
1013.798717349034
 30
0.0
 11
1417.743391553457
 21
1013.796883601019
 31
0.0
  0
LINE
  5
753
330
68D
100
AcDbEntity
  8
0
  6
Continuous
 62
     7
370
    15
100
AcDbLine
 10
1417.680444641157
 20
1013.734051895801
 30
0.0
 11
1417.743391553457
 21
1013.796883601019
 31
0.0
  0
LINE
  5
754
330
68D
100
AcDbEntity
  8
0
  6
Continuous
 62
     7
370
    15
100
AcDbLine
 10
1418.482367802395
 20
1015.833318254192
 30
0.0
 11
1417.682368137981
 21
1015.834051014887
 31
0.0
  0
LINE
  5
755
330
68D
100
AcDbEntity
  8
0
  6
Continuous
 62
     7
370
    15
100
AcDbLine
 10
1418.482367802395
 20
1015.833318254192
 30
0.0
 11
1418.419420890095
 21
1015.770486548974
 31
0.0
  0
LINE
  5
756
330
68D
100
AcDbEntity
  8
0
  6
Continuous
 62
     7
370
    15
100
AcDbLine
 10
1418.419420890095
 20
1015.770486548974
 30
0.0
 11
1417.745199843199
 21
1015.771104102587
 31
0.0
  0
LINE
  5
757
330
68D
100
AcDbEntity
  8
0
  6
Continuous
 62
     7
370
    15
100
AcDbLine
 10
1423.992567197676
 20
1012.896883978553
 30
0.0
 11
1424.666788244572
 21
1012.896266424941
 31
0.0
  0
LINE
  5
758
330
68D
100
AcDbEntity
  8
0
  6
Continuous
 62
     7
370
    15
100
AcDbLine
 10
1418.481543446613
 20
1014.933318631727
 30
0.0
 11
1418.482367802395
 21
1015.833318254192
 31
0.0
  0
LINE
  5
759
330
68D
100
AcDbEntity
  8
0
  6
Continuous
 62
     7
370
    15
100
AcDbLine
 10
1418.418596534313
 20
1014.870486926509
 30
0.0
 11
1418.419420890095
 21
1015.770486548974
 31
0.0
  0
LINE
  5
75A
330
68D
100
AcDbEntity
  8
0
  6
Continuous
 62
     7
370
    15
100
AcDbLine
 10
1417.681543782199
 20
1014.934051392422
 30
0.0
 11
1415.757754581473
 21
1014.93581348955
 31
0.0
  0
ARC
  5
75B
330
68D
100
AcDbEntity
  8
0
  6
Continuous
 62
     7
370
    15
100
AcDbCircle
 10
1418.080994043885
 20
1014.333685263764
 30
0.0
 40
2.399999999999996
100
AcDbArc
 50
14.42503205959039
 51
165.4700076877255
  0
ARC
  5
75C
330
68D
100
AcDbEntity
  8
0
  6
Continuous
 62
     7
370
    15
100
AcDbCircle
 10
1411.830994043885
 20
1014.333685263764
 30
0.0
 40
2.400000000000002
100
AcDbArc
 50
12.87961509908336
 51
14.42503205959039
  0
LINE
  5
75D
330
68D
100
AcDbEntity
  8
0
  6
Continuous
 62
     7
370
    15
100
AcDbLine
 10
1414.170611390848
 20
1014.868653178494
 30
0.0
 11
1412.168596534313
 21
1014.870486926509
 31
0.0
  0
LINE
  5
75E
330
68D
100
AcDbEntity
  8
0
  6
Continuous
 62
     7
370
    15
100
AcDbLine
 10
1412.169420890095
 20
1015.770486548974
 30
0.0
 11
1411.495199843199
 21
1015.771104102587
 31
0.0
  0
LINE
  5
75F
330
68D
100
AcDbEntity
  8
0
  6
Continuous
 62
     7
370
    15
100
AcDbLine
 10
1411.432368137981
 20
1015.834051014887
 30
0.0
 11
1411.495199843199
 21
1015.771104102587
 31
0.0
  0
LINE
  5
760
330
68D
100
AcDbEntity
  8
0
  6
Continuous
 62
     7
370
    15
100
AcDbLine
 10
1417.743391553457
 20
1013.796883601019
 30
0.0
 11
1417.742567197676
 21
1012.896883978553
 31
0.0
  0
LINE
  5
761
330
68D
100
AcDbEntity
  8
0
  6
Continuous
 62
     7
370
    15
100
AcDbLine
 10
1411.492567197676
 20
1012.896883978553
 30
0.0
 11
1412.166788244572
 21
1012.896266424941
 31
0.0
  0
LINE
  5
762
330
68D
100
AcDbEntity
  8
0
  6
Continuous
 62
     7
370
    15
100
AcDbLine
 10
1411.494375487417
 20
1014.871104480122
 30
0.0
 11
1409.492360630882
 21
1014.872938228137
 31
0.0
  0
ARC
  5
763
330
68D
100
AcDbEntity
  8
0
  6
Continuous
 62
     7
370
    15
100
AcDbCircle
 10
1411.830994043885
 20
1014.333685263764
 30
0.0
 40
2.400000000000023
100
AcDbArc
 50
165.4700076877255
 51
167.0154246482373
  0
LINE
  5
764
330
68D
100
AcDbEntity
  8
0
  6
Continuous
 62
     7
370
    15
100
AcDbLine
 10
1411.4315437822
 20
1014.934051392422
 30
0.0
 11
1411.494375487417
 21
1014.871104480122
 31
0.0
  0
LINE
  5
765
330
68D
100
AcDbEntity
  8
0
  6
Continuous
 62
     7
370
    15
100
AcDbLine
 10
1430.180444641157
 20
1013.734051895801
 30
0.0
 11
1430.243391553457
 21
1013.796883601019
 31
0.0
  0
LINE
  5
766
330
68D
100
AcDbEntity
  8
0
  6
Continuous
 62
     7
370
    15
100
AcDbLine
 10
1430.243391553457
 20
1013.796883601019
 30
0.0
 11
1430.242567197676
 21
1012.896883978553
 31
0.0
  0
ARC
  5
767
330
68D
100
AcDbEntity
  8
0
  6
Continuous
 62
     7
370
    15
100
AcDbCircle
 10
1430.580994043885
 20
1014.333685263764
 30
0.0
 40
2.400000000000005
100
AcDbArc
 50
12.87961509908336
 51
14.42503205959039
  0
LINE
  5
768
330
68D
100
AcDbEntity
  8
0
  6
Continuous
 62
     7
370
    15
100
AcDbLine
 10
1432.920611390848
 20
1014.868653178494
 30
0.0
 11
1430.918596534313
 21
1014.870486926509
 31
0.0
  0
LINE
  5
769
330
68D
100
AcDbEntity
  8
0
  6
Continuous
 62
     7
370
    15
100
AcDbLine
 10
1430.981543446613
 20
1014.933318631727
 30
0.0
 11
1430.918596534313
 21
1014.870486926509
 31
0.0
  0
ARC
  5
76A
330
68D
100
AcDbEntity
  8
0
  6
Continuous
 62
     7
370
    15
100
AcDbCircle
 10
1430.580994043885
 20
1014.333685263764
 30
0.0
 40
2.399999999999998
100
AcDbArc
 50
192.8796150990834
 51
194.4250320595904
  0
LINE
  5
76B
330
68D
100
AcDbEntity
  8
0
  6
Continuous
 62
     7
370
    15
100
AcDbLine
 10
1428.241376696922
 20
1013.798717349034
 30
0.0
 11
1430.243391553457
 21
1013.796883601019
 31
0.0
  0
LINE
  5
76C
330
68D
100
AcDbEntity
  8
0
  6
Continuous
 62
     7
370
    15
100
AcDbLine
 10
1411.495199843199
 20
1015.771104102587
 30
0.0
 11
1411.494375487417
 21
1014.871104480122
 31
0.0
  0
LINE
  5
76D
330
68D
100
AcDbEntity
  8
0
  6
Continuous
 62
     7
370
    15
100
AcDbLine
 10
1430.918596534313
 20
1014.870486926509
 30
0.0
 11
1430.919420890095
 21
1015.770486548974
 31
0.0
  0
ARC
  5
76E
330
68D
100
AcDbEntity
  8
0
  6
Continuous
 62
     7
370
    15
100
AcDbCircle
 10
1436.830994043885
 20
1014.333685263764
 30
0.0
 40
2.40000000000003
100
AcDbArc
 50
12.87961509908336
 51
14.42503205959039
  0
LINE
  5
76F
330
68D
100
AcDbEntity
  8
0
  6
Continuous
 62
     7
370
    15
100
AcDbLine
 10
1439.170611390848
 20
1014.868653178494
 30
0.0
 11
1437.168596534313
 21
1014.870486926509
 31
0.0
  0
LINE
  5
770
330
68D
100
AcDbEntity
  8
0
  6
Continuous
 62
     7
370
    15
100
AcDbLine
 10
1423.994375487417
 20
1014.871104480122
 30
0.0
 11
1421.992360630882
 21
1014.872938228137
 31
0.0
  0
ARC
  5
771
330
68D
100
AcDbEntity
  8
0
  6
Continuous
 62
     7
370
    15
100
AcDbCircle
 10
1424.330994043885
 20
1014.333685263764
 30
0.0
 40
2.399999999999996
100
AcDbArc
 50
165.4700076877255
 51
167.0154246482373
  0
LINE
  5
772
330
68D
100
AcDbEntity
  8
0
  6
Continuous
 62
     7
370
    15
100
AcDbLine
 10
1423.9315437822
 20
1014.934051392422
 30
0.0
 11
1423.994375487417
 21
1014.871104480122
 31
0.0
  0
LINE
  5
773
330
68D
100
AcDbEntity
  8
0
  6
Continuous
 62
     7
370
    15
100
AcDbLine
 10
1424.669420890095
 20
1015.770486548974
 30
0.0
 11
1423.995199843199
 21
1015.771104102587
 31
0.0
  0
LINE
  5
774
330
68D
100
AcDbEntity
  8
0
  6
Continuous
 62
     7
370
    15
100
AcDbLine
 10
1423.932368137981
 20
1015.834051014887
 30
0.0
 11
1423.995199843199
 21
1015.771104102587
 31
0.0
  0
LINE
  5
775
330
68D
100
AcDbEntity
  8
0
  6
Continuous
 62
     7
370
    15
100
AcDbLine
 10
1436.495199843199
 20
1015.771104102587
 30
0.0
 11
1436.494375487417
 21
1014.871104480122
 31
0.0
  0
LINE
  5
776
330
68D
100
AcDbEntity
  8
0
  6
Continuous
 62
     7
370
    15
100
AcDbLine
 10
1436.431543782199
 20
1014.934051392422
 30
0.0
 11
1436.494375487417
 21
1014.871104480122
 31
0.0
  0
LINE
  5
777
330
68D
100
AcDbEntity
  8
0
  6
Continuous
 62
     7
370
    15
100
AcDbLine
 10
1417.744375487417
 20
1014.871104480122
 30
0.0
 11
1415.742360630882
 21
1014.872938228137
 31
0.0
  0
ARC
  5
778
330
68D
100
AcDbEntity
  8
0
  6
Continuous
 62
     7
370
    15
100
AcDbCircle
 10
1418.080994043885
 20
1014.333685263764
 30
0.0
 40
2.400000000000017
100
AcDbArc
 50
165.4700076877255
 51
167.0154246482373
  0
LINE
  5
779
330
68D
100
AcDbEntity
  8
0
  6
Continuous
 62
     7
370
    15
100
AcDbLine
 10
1423.995199843199
 20
1015.771104102587
 30
0.0
 11
1423.994375487417
 21
1014.871104480122
 31
0.0
  0
LINE
  5
77A
330
68D
100
AcDbEntity
  8
0
  6
Continuous
 62
     7
370
    15
100
AcDbLine
 10
1430.244375487417
 20
1014.871104480122
 30
0.0
 11
1428.242360630882
 21
1014.872938228137
 31
0.0
  0
ARC
  5
77B
330
68D
100
AcDbEntity
  8
0
  6
Continuous
 62
     7
370
    15
100
AcDbCircle
 10
1430.580994043885
 20
1014.333685263764
 30
0.0
 40
2.400000000000023
100
AcDbArc
 50
165.4700076877255
 51
167.0154246482373
  0
LINE
  5
77C
330
68D
100
AcDbEntity
  8
0
  6
Continuous
 62
     7
370
    15
100
AcDbLine
 10
1436.494375487417
 20
1014.871104480122
 30
0.0
 11
1434.492360630882
 21
1014.872938228137
 31
0.0
  0
ARC
  5
77D
330
68D
100
AcDbEntity
  8
0
  6
Continuous
 62
     7
370
    15
100
AcDbCircle
 10
1436.830994043885
 20
1014.333685263764
 30
0.0
 40
2.399999999999996
100
AcDbArc
 50
165.4700076877255
 51
167.0154246482373
  0
ARC
  5
77E
330
68D
100
AcDbEntity
  8
0
  6
Continuous
 62
     7
370
    15
100
AcDbCircle
 10
1393.080994043885
 20
1014.333685263764
 30
0.0
 40
2.900000000000001
100
AcDbArc
 50
349.2741103037507
 51
10.62092944356651
  0
ARC
  5
77F
330
68D
100
AcDbEntity
  8
0
  6
Continuous
 62
     7
370
    15
100
AcDbCircle
 10
1393.080994043885
 20
1014.333685263764
 30
0.0
 40
2.900000000000006
100
AcDbArc
 50
169.2741103037507
 51
190.6209294435665
  0
ARC
  5
780
330
68D
100
AcDbEntity
  8
0
  6
Continuous
 62
     7
370
    15
100
AcDbCircle
 10
1399.330994043885
 20
1014.333685263764
 30
0.0
 40
2.900000000000019
100
AcDbArc
 50
349.2741103037507
 51
10.62092944356651
  0
ARC
  5
781
330
68D
100
AcDbEntity
  8
0
  6
Continuous
 62
     7
370
    15
100
AcDbCircle
 10
1399.330994043885
 20
1014.333685263764
 30
0.0
 40
2.899999999999991
100
AcDbArc
 50
169.2741103037507
 51
190.6209294435665
  0
ARC
  5
782
330
68D
100
AcDbEntity
  8
0
  6
Continuous
 62
     7
370
    15
100
AcDbCircle
 10
1436.830994043885
 20
1014.333685263764
 30
0.0
 40
2.40000000000003
100
AcDbArc
 50
347.0154246482373
 51
12.87961509908336
  0
ARC
  5
783
330
68D
100
AcDbEntity
  8
0
  6
Continuous
 62
     7
370
    15
100
AcDbCircle
 10
1436.830994043885
 20
1014.333685263764
 30
0.0
 40
2.399999999999996
100
AcDbArc
 50
167.0154246482373
 51
192.8796150990834
  0
ARC
  5
784
330
68D
100
AcDbEntity
  8
0
  6
Continuous
 62
     7
370
    15
100
AcDbCircle
 10
1430.580994043885
 20
1014.333685263764
 30
0.0
 40
2.400000000000002
100
AcDbArc
 50
347.0154246482373
 51
12.87961509908336
  0
ARC
  5
785
330
68D
100
AcDbEntity
  8
0
  6
Continuous
 62
     7
370
    15
100
AcDbCircle
 10
1430.580994043885
 20
1014.333685263764
 30
0.0
 40
2.399999999999996
100
AcDbArc
 50
167.0154246482373
 51
192.8796150990834
  0
ARC
  5
786
330
68D
100
AcDbEntity
  8
0
  6
Continuous
 62
     7
370
    15
100
AcDbCircle
 10
1424.330994043885
 20
1014.333685263764
 30
0.0
 40
2.40000000000001
100
AcDbArc
 50
347.0154246482373
 51
12.87961509908336
  0
ARC
  5
787
330
68D
100
AcDbEntity
  8
0
  6
Continuous
 62
     7
370
    15
100
AcDbCircle
 10
1424.330994043885
 20
1014.333685263764
 30
0.0
 40
2.399999999999989
100
AcDbArc
 50
167.0154246482373
 51
192.8796150990834
  0
ARC
  5
788
330
68D
100
AcDbEntity
  8
0
  6
Continuous
 62
     7
370
    15
100
AcDbCircle
 10
1411.830994043885
 20
1014.333685263764
 30
0.0
 40
2.400000000000002
100
AcDbArc
 50
347.0154246482373
 51
12.87961509908336
  0
ARC
  5
789
330
68D
100
AcDbEntity
  8
0
  6
Continuous
 62
     7
370
    15
100
AcDbCircle
 10
1411.830994043885
 20
1014.333685263764
 30
0.0
 40
2.400000000000023
100
AcDbArc
 50
167.0154246482373
 51
192.8796150990834
  0
ARC
  5
78A
330
68D
100
AcDbEntity
  8
0
  6
Continuous
 62
     7
370
    15
100
AcDbCircle
 10
1418.080994043885
 20
1014.333685263764
 30
0.0
 40
2.399999999999983
100
AcDbArc
 50
347.0154246482373
 51
12.87961509908336
  0
ARC
  5
78B
330
68D
100
AcDbEntity
  8
0
  6
Continuous
 62
     7
370
    15
100
AcDbCircle
 10
1418.080994043885
 20
1014.333685263764
 30
0.0
 40
2.400000000000017
100
AcDbArc
 50
167.0154246482373
 51
192.8796150990834
  0
CIRCLE
  5
78C
330
68D
100
AcDbEntity
  8
0
  6
Continuous
 62
     7
370
    15
100
AcDbCircle
 10
1405.580994043885
 20
1014.333685263764
 30
0.0
 40
2.099999999999994
  0
LINE
  5
78D
330
68D
100
AcDbEntity
  8
0
  6
Continuous
 62
     7
370
    15
100
AcDbLine
 10
1387.955994043885
 20
1011.083685263764
 30
0.0
 11
1387.955994043885
 21
1017.583685263764
 31
0.0
  0
LINE
  5
78E
330
68D
100
AcDbEntity
  8
0
  6
Continuous
 62
     7
370
    15
100
AcDbLine
 10
1387.955994043885
 20
1017.583685263764
 30
0.0
 11
1441.955994043885
 21
1017.583685263764
 31
0.0
  0
LINE
  5
78F
330
68D
100
AcDbEntity
  8
0
  6
Continuous
 62
     7
370
    15
100
AcDbLine
 10
1387.955994043885
 20
1011.083685263764
 30
0.0
 11
1441.955994043885
 21
1011.083685263764
 31
0.0
  0
LINE
  5
790
330
68D
100
AcDbEntity
  8
0
  6
Continuous
 62
     7
370
    15
100
AcDbLine
 10
1441.955994043885
 20
1011.083685263764
 30
0.0
 11
1441.955994043885
 21
1017.583685263764
 31
0.0
  0
ENDBLK
  5
68F
330
68D
100
AcDbEntity
  8
0
100
AcDbBlockEnd
  0
BLOCK
  5
793
330
792
100
AcDbEntity
  8
0
100
AcDbBlockBegin
  2
3
 70
     0
 10
0.0
 20
0.0
 30
0.0
  3
3
  1

  0
LINE
  5
795
330
792
100
AcDbEntity
  8
0
  6
Continuous
 62
     7
370
    15
100
AcDbLine
 10
1363.911143545546
 20
1043.051872927601
 30
0.0
 11
1363.911143545546
 21
1040.481872927601
 31
0.0
  0
LINE
  5
796
330
792
100
AcDbEntity
  8
0
  6
Continuous
 62
     7
370
    15
100
AcDbLine
 10
1368.711143545547
 20
1040.481872927601
 30
0.0
 11
1368.711143545547
 21
1043.051872927601
 31
0.0
  0
LINE
  5
797
330
792
100
AcDbEntity
  8
0
  6
Continuous
 62
     7
370
    15
100
AcDbLine
 10
1363.411143545546
 20
1043.481872927602
 30
0.0
 11
1363.411143545546
 21
1040.481872927601
 31
0.0
  0
LINE
  5
798
330
792
100
AcDbEntity
  8
0
  6
Continuous
 62
     7
370
    15
100
AcDbLine
 10
1369.211143545547
 20
1040.481872927601
 30
0.0
 11
1369.211143545547
 21
1043.481872927602
 31
0.0
  0
LINE
  5
799
330
792
100
AcDbEntity
  8
0
  6
Continuous
 62
     7
370
    15
100
AcDbLine
 10
1363.061143545547
 20
1040.481872927601
 30
0.0
 11
1363.061143545547
 21
1031.481872927601
 31
0.0
  0
LINE
  5
79A
330
792
100
AcDbEntity
  8
0
  6
Continuous
 62
     7
370
    15
100
AcDbLine
 10
1363.061143545547
 20
1040.481872927601
 30
0.0
 11
1369.561143545547
 21
1040.481872927601
 31
0.0
  0
LINE
  5
79B
330
792
100
AcDbEntity
  8
0
  6
Continuous
 62
     7
370
    15
100
AcDbLine
 10
1369.561143545547
 20
1040.481872927601
 30
0.0
 11
1369.561143545547
 21
1031.481872927601
 31
0.0
  0
LINE
  5
79C
330
792
100
AcDbEntity
  8
0
  6
Continuous
 62
     7
370
    15
100
AcDbLine
 10
1369.561143545547
 20
1031.481872927601
 30
0.0
 11
1363.061143545547
 21
1031.481872927601
 31
0.0
  0
LINE
  5
79D
330
792
100
AcDbEntity
  8
0
  6
Continuous
 62
     7
370
    15
100
AcDbLine
 10
1366.846111460276
 20
1041.851872927601
 30
0.0
 11
1365.771890581173
 21
1041.851872927601
 31
0.0
  0
ELLIPSE
  5
79E
330
792
100
AcDbEntity
  8
0
  6
Continuous
 62
     7
370
    15
100
AcDbEllipse
 10
1366.311143545546
 20
1031.603190914964
 30
0.0
 11
2.399998998876299
 21
45.79472805284936
 31
0.0
210
0.0
220
0.0
230
1.0
 40
0.0000478714684611
 41
1.318118580504528
 42
1.345091194779766
  0
LINE
  5
79F
330
792
100
AcDbEntity
  8
0
  6
Continuous
 62
     7
370
    15
100
AcDbLine
 10
1368.711143545547
 20
1043.051872927601
 30
0.0
 11
1366.909014816381
 21
1043.051872927601
 31
0.0
  0
ELLIPSE
  5
7A0
330
792
100
AcDbEntity
  8
0
  6
Continuous
 62
     7
370
    15
100
AcDbEllipse
 10
1366.311143545546
 20
1031.603190914965
 30
0.0
 11
-2.39999899861749
 21
45.79472804790978
 31
0.0
210
0.0
220
0.0
230
1.0
 40
0.0000478714684638
 41
4.938094112432632
 42
4.965066726712652
  0
LINE
  5
7A1
330
792
100
AcDbEntity
  8
0
  6
Continuous
 62
     7
370
    15
100
AcDbLine
 10
1365.709015319761
 20
1043.051872927601
 30
0.0
 11
1363.911143545546
 21
1043.051872927601
 31
0.0
  0
ELLIPSE
  5
7A2
330
792
100
AcDbEntity
  8
0
  6
Continuous
 62
     7
370
    15
100
AcDbEllipse
 10
1366.311143545546
 20
1031.603190914965
 30
0.0
 11
-2.39999899861749
 21
45.79472804790978
 31
0.0
210
0.0
220
0.0
230
1.0
 40
0.0000478714684638
 41
1.318113562820408
 42
1.345086177092976
  0
LINE
  5
7A3
330
792
100
AcDbEntity
  8
0
  6
Continuous
 62
     7
370
    15
100
AcDbLine
 10
1365.710777416889
 20
1043.051872927601
 30
0.0
 11
1365.709015319761
 21
1043.051872927601
 31
0.0
  0
LINE
  5
7A4
330
792
100
AcDbEntity
  8
0
  6
Continuous
 62
     7
370
    15
100
AcDbLine
 10
1365.710777416889
 20
1043.051872927601
 30
0.0
 11
1365.773724329189
 21
1041.851872927601
 31
0.0
  0
LINE
  5
7A5
330
792
100
AcDbEntity
  8
0
  6
Continuous
 62
     7
370
    15
100
AcDbLine
 10
1365.711510177584
 20
1043.051872927601
 30
0.0
 11
1365.774341882801
 21
1041.851872927601
 31
0.0
  0
LINE
  5
7A6
330
792
100
AcDbEntity
  8
0
  6
Continuous
 62
     7
370
    15
100
AcDbLine
 10
1366.845643683871
 20
1042.281872927601
 30
0.0
 11
1365.771422804768
 21
1042.281872927601
 31
0.0
  0
ELLIPSE
  5
7A7
330
792
100
AcDbEntity
  8
0
  6
Continuous
 62
     7
370
    15
100
AcDbEllipse
 10
1366.311143545546
 20
1032.033190914964
 30
0.0
 11
2.899998789731568
 21
55.33529638617658
 31
0.0
210
0.0
220
0.0
230
1.0
 40
0.0000478714684713
 41
1.362397029012071
 42
1.384512696197818
  0
LINE
  5
7A8
330
792
100
AcDbEntity
  8
0
  6
Continuous
 62
     7
370
    15
100
AcDbLine
 10
1369.211143545547
 20
1043.481872927602
 30
0.0
 11
1366.908544510248
 21
1043.481872927602
 31
0.0
  0
ELLIPSE
  5
7A9
330
792
100
AcDbEntity
  8
0
  6
Continuous
 62
     7
370
    15
100
AcDbEllipse
 10
1366.311143545546
 20
1032.033190914964
 30
0.0
 11
-2.899998790398512
 21
55.33529639890117
 31
0.0
210
0.0
220
0.0
230
0.9999999999999998
 40
0.0000478714684582
 41
4.898672610948701
 42
4.920788278132266
  0
LINE
  5
7AA
330
792
100
AcDbEntity
  8
0
  6
Continuous
 62
     7
370
    15
100
AcDbLine
 10
1365.708545013627
 20
1043.481872927602
 30
0.0
 11
1363.411143545546
 21
1043.481872927602
 31
0.0
  0
ELLIPSE
  5
7AB
330
792
100
AcDbEntity
  8
0
  6
Continuous
 62
     7
370
    15
100
AcDbEllipse
 10
1366.311143545546
 20
1032.033190914964
 30
0.0
 11
-2.899998790398512
 21
55.33529639890117
 31
0.0
210
0.0
220
0.0
230
0.9999999999999998
 40
0.0000478714684582
 41
1.362392011390334
 42
1.38450767856853
  0
LINE
  5
7AC
330
792
100
AcDbEntity
  8
0
  6
Continuous
 62
     7
370
    15
100
AcDbLine
 10
1365.710685821802
 20
1043.481872927602
 30
0.0
 11
1365.708545013627
 21
1043.481872927602
 31
0.0
  0
LINE
  5
7AD
330
792
100
AcDbEntity
  8
0
  6
Continuous
 62
     7
370
    15
100
AcDbLine
 10
1365.710685821802
 20
1043.481872927602
 30
0.0
 11
1365.773632734102
 21
1042.281872927601
 31
0.0
  0
LINE
  5
7AE
330
792
100
AcDbEntity
  8
0
  6
Continuous
 62
     7
370
    15
100
AcDbLine
 10
1365.711601772671
 20
1043.481872927602
 30
0.0
 11
1365.774433477888
 21
1042.281872927601
 31
0.0
  0
ENDBLK
  5
794
330
792
100
AcDbEntity
  8
0
100
AcDbBlockEnd
  0
BLOCK
  5
7B1
330
7B0
100
AcDbEntity
  8
0
100
AcDbBlockBegin
  2
4
 70
     0
 10
0.0
 20
0.0
 30
0.0
  3
4
  1

  0
LINE
  5
7B3
330
7B0
100
AcDbEntity
  8
0
  6
Continuous
 62
     7
370
    15
100
AcDbLine
 10
1491.565054575003
 20
1026.112586987338
 30
0.0
 11
1491.559930052627
 21
1023.998836881941
 31
0.0
  0
LINE
  5
7B4
330
7B0
100
AcDbEntity
  8
0
  6
Continuous
 62
     7
370
    15
100
AcDbLine
 10
1496.359915946466
 20
1023.987199917355
 30
0.0
 11
1496.365040468842
 21
1026.100950022753
 31
0.0
  0
LINE
  5
7B5
330
7B0
100
AcDbEntity
  8
0
  6
Continuous
 62
     7
370
    15
100
AcDbLine
 10
1487.486655957946
 20
1028.813099603439
 30
0.0
 11
1487.48153143557
 21
1026.699349498041
 31
0.0
  0
LINE
  5
7B6
330
7B0
100
AcDbEntity
  8
0
  6
Continuous
 62
     7
370
    15
100
AcDbLine
 10
1492.281547120705
 20
1026.700000772449
 30
0.0
 11
1492.286641851785
 21
1028.801462638853
 31
0.0
  0
LINE
  5
7B7
330
7B0
100
AcDbEntity
  8
0
  6
Continuous
 62
     7
370
    15
100
AcDbLine
 10
1483.408257340889
 20
1031.51361221954
 30
0.0
 11
1483.403132818512
 21
1029.399862114142
 31
0.0
  0
LINE
  5
7B8
330
7B0
100
AcDbEntity
  8
0
  6
Continuous
 62
     7
370
    15
100
AcDbLine
 10
1488.203148503648
 20
1029.40051338855
 30
0.0
 11
1488.208243234728
 21
1031.501975254954
 31
0.0
  0
LINE
  5
7B9
330
7B0
100
AcDbEntity
  8
0
  6
Continuous
 62
     7
370
    15
100
AcDbLine
 10
1479.329858723831
 20
1034.21412483564
 30
0.0
 11
1479.324734201455
 21
1032.100374730243
 31
0.0
  0
LINE
  5
7BA
330
7B0
100
AcDbEntity
  8
0
  6
Continuous
 62
     7
370
    15
100
AcDbLine
 10
1484.124749886591
 20
1032.10102600465
 30
0.0
 11
1484.129844617671
 21
1034.202487871054
 31
0.0
  0
LINE
  5
7BB
330
7B0
100
AcDbEntity
  8
0
  6
Continuous
 62
     7
370
    15
100
AcDbLine
 10
1475.251460106774
 20
1036.914637451741
 30
0.0
 11
1475.246335584398
 21
1034.800887346343
 31
0.0
  0
LINE
  5
7BC
330
7B0
100
AcDbEntity
  8
0
  6
Continuous
 62
     7
370
    15
100
AcDbLine
 10
1480.046351269533
 20
1034.801538620751
 30
0.0
 11
1480.051446000613
 21
1036.903000487155
 31
0.0
  0
LINE
  5
7BD
330
7B0
100
AcDbEntity
  8
0
  6
Continuous
 62
     7
370
    15
100
AcDbLine
 10
1466.59552175241
 20
1042.67053733675
 30
0.0
 11
1466.589539819675
 21
1040.203124762355
 31
0.0
  0
LINE
  5
7BE
330
7B0
100
AcDbEntity
  8
0
  6
Continuous
 62
     7
370
    15
100
AcDbLine
 10
1472.389522774731
 20
1040.189063430148
 30
0.0
 11
1472.395504707466
 21
1042.656476004542
 31
0.0
  0
LINE
  5
7BF
330
7B0
100
AcDbEntity
  8
0
  6
Continuous
 62
     7
370
    15
100
AcDbLine
 10
1462.517123135353
 20
1045.371049952851
 30
0.0
 11
1462.511141202618
 21
1042.903637378456
 31
0.0
  0
LINE
  5
7C0
330
7B0
100
AcDbEntity
  8
0
  6
Continuous
 62
     7
370
    15
100
AcDbLine
 10
1468.314233053988
 20
1044.171925781474
 30
0.0
 11
1468.317106090409
 21
1045.356988620643
 31
0.0
  0
LWPOLYLINE
  5
7C1
330
7B0
100
AcDbEntity
  8
0
  6
Continuous
 62
     7
370
    15
100
AcDbPolyline
 90
       50
 70
   128
 43
0.0
 10
1475.166425662528
 20
1027.837666865007
 10
1475.366734022913
 20
1027.721264590348
 10
1475.563831904095
 20
1027.639185514827
 10
1475.754482964313
 20
1027.592777374592
 10
1475.935556718429
 20
1027.582802190026
 10
1476.104079940407
 20
1027.609423753381
 10
1476.257285483602
 20
1027.672204939324
 10
1476.392657717229
 20
1027.770114882517
 10
1476.507973832956
 20
1027.9015459044
 10
1476.601340343348
 20
1028.064339911228
 10
1476.671224172888
 20
1028.255823829908
 10
1476.716477831027
 20
1028.47285349979
 10
1476.736358253949
 20
1028.711865299695
 10
1476.730539005658
 20
1028.968934662475
 10
1476.699115638052
 20
1029.239840516302
 10
1476.642604121957
 20
1029.520134594545
 10
1476.561932374906
 20
1029.805214476188
 10
1476.458425024755
 20
1030.090399157456
 10
1476.33378165933
 20
1030.371005913767
 10
1476.190048919249
 20
1030.642427189941
 10
1476.029586892127
 20
1030.900206256126
 10
1475.855030360015
 20
1031.140110387182
 10
1475.669245536343
 20
1031.35820036391
 10
1475.475283002781
 20
1031.550895154921
 10
1475.276327618767
 20
1031.715030717076
 10
1475.075646226206
 20
1031.847911948979
 10
1474.876534008016
 20
1031.947356944478
 10
1474.682260381314
 20
1032.011732819495
 10
1474.496015313681
 20
1032.039982523943
 10
1474.320856943977
 20
1032.031642198456
 10
1474.159661367791
 20
1031.986848790947
 10
1474.015075412027
 20
1031.906337807929
 10
1473.889473174082
 20
1031.791431237518
 10
1473.78491703923
 20
1031.644015842424
 10
1473.703123816314
 20
1031.466512179357
 10
1473.645436547795
 20
1031.261834853558
 10
1473.612802457025
 20
1031.033344661059
 10
1473.605757394874
 20
1030.784793404503
 10
1473.624417041066
 20
1030.520262288651
 10
1473.668475004729
 20
1030.244094907112
 10
1473.737207855315
 20
1029.960825920656
 10
1473.829487001318
 20
1029.675106598209
 10
1473.943797221713
 20
1029.391628443147
 10
1474.078261545842
 20
1029.115046158938
 10
1474.230672073218
 20
1028.849901219043
 10
1474.398526227197
 20
1028.600547296044
 10
1474.57906784721
 20
1028.371078774464
 10
1474.769332444848
 20
1028.165263521083
 10
1474.966195880679
 20
1027.98648101667
 10
1475.166425662528
 20
1027.837666865007
  0
LWPOLYLINE
  5
7C2
330
7B0
100
AcDbEntity
  8
0
  6
Continuous
 62
     7
370
    15
100
AcDbPolyline
 90
       50
 70
   128
 43
0.0
 10
1479.244824279585
 20
1025.137154248906
 10
1479.44513263997
 20
1025.020751974248
 10
1479.642230521152
 20
1024.938672898726
 10
1479.83288158137
 20
1024.892264758492
 10
1480.013955335486
 20
1024.882289573925
 10
1480.182478557465
 20
1024.90891113728
 10
1480.33568410066
 20
1024.971692323223
 10
1480.471056334287
 20
1025.069602266416
 10
1480.586372450013
 20
1025.2010332883
 10
1480.679738960406
 20
1025.363827295127
 10
1480.749622789946
 20
1025.555311213807
 10
1480.794876448085
 20
1025.772340883689
 10
1480.814756871006
 20
1026.011352683594
 10
1480.808937622716
 20
1026.268422046375
 10
1480.77751425511
 20
1026.539327900201
 10
1480.721002739015
 20
1026.819621978444
 10
1480.640330991963
 20
1027.104701860087
 10
1480.536823641812
 20
1027.389886541355
 10
1480.412180276388
 20
1027.670493297666
 10
1480.268447536306
 20
1027.94191457384
 10
1480.107985509184
 20
1028.199693640025
 10
1479.933428977072
 20
1028.439597771081
 10
1479.7476441534
 20
1028.657687747809
 10
1479.553681619838
 20
1028.850382538821
 10
1479.354726235824
 20
1029.014518100975
 10
1479.154044843263
 20
1029.147399332878
 10
1478.954932625073
 20
1029.246844328377
 10
1478.760658998371
 20
1029.311220203394
 10
1478.574413930738
 20
1029.339469907842
 10
1478.399255561034
 20
1029.331129582355
 10
1478.238059984848
 20
1029.286336174846
 10
1478.093474029084
 20
1029.205825191829
 10
1477.967871791139
 20
1029.090918621418
 10
1477.863315656287
 20
1028.943503226323
 10
1477.781522433372
 20
1028.765999563256
 10
1477.723835164852
 20
1028.561322237457
 10
1477.691201074082
 20
1028.332832044958
 10
1477.684156011931
 20
1028.084280788402
 10
1477.702815658124
 20
1027.81974967255
 10
1477.746873621786
 20
1027.543582291011
 10
1477.815606472372
 20
1027.260313304555
 10
1477.907885618376
 20
1026.974593982108
 10
1478.022195838771
 20
1026.691115827046
 10
1478.156660162899
 20
1026.414533542837
 10
1478.309070690275
 20
1026.149388602942
 10
1478.476924844254
 20
1025.900034679944
 10
1478.657466464267
 20
1025.670566158364
 10
1478.847731061906
 20
1025.464750904982
 10
1479.044594497736
 20
1025.285968400569
 10
1479.244824279585
 20
1025.137154248906
  0
LWPOLYLINE
  5
7C3
330
7B0
100
AcDbEntity
  8
0
  6
Continuous
 62
     7
370
    15
100
AcDbPolyline
 90
       50
 70
   128
 43
0.0
 10
1483.323222896643
 20
1022.436641632806
 10
1483.523531257028
 20
1022.320239358147
 10
1483.720629138209
 20
1022.238160282625
 10
1483.911280198427
 20
1022.191752142391
 10
1484.092353952544
 20
1022.181776957824
 10
1484.260877174522
 20
1022.20839852118
 10
1484.414082717717
 20
1022.271179707123
 10
1484.549454951344
 20
1022.369089650316
 10
1484.66477106707
 20
1022.500520672199
 10
1484.758137577463
 20
1022.663314679027
 10
1484.828021407003
 20
1022.854798597707
 10
1484.873275065142
 20
1023.071828267589
 10
1484.893155488063
 20
1023.310840067493
 10
1484.887336239773
 20
1023.567909430274
 10
1484.855912872167
 20
1023.838815284101
 10
1484.799401356072
 20
1024.119109362343
 10
1484.718729609021
 20
1024.404189243986
 10
1484.615222258869
 20
1024.689373925254
 10
1484.490578893445
 20
1024.969980681566
 10
1484.346846153363
 20
1025.241401957739
 10
1484.186384126241
 20
1025.499181023924
 10
1484.011827594129
 20
1025.739085154981
 10
1483.826042770458
 20
1025.957175131709
 10
1483.632080236896
 20
1026.14986992272
 10
1483.433124852882
 20
1026.314005484874
 10
1483.232443460321
 20
1026.446886716777
 10
1483.03333124213
 20
1026.546331712276
 10
1482.839057615429
 20
1026.610707587294
 10
1482.652812547795
 20
1026.638957291742
 10
1482.477654178091
 20
1026.630616966254
 10
1482.316458601905
 20
1026.585823558745
 10
1482.171872646142
 20
1026.505312575728
 10
1482.046270408196
 20
1026.390406005317
 10
1481.941714273344
 20
1026.242990610222
 10
1481.859921050429
 20
1026.065486947155
 10
1481.802233781909
 20
1025.860809621357
 10
1481.76959969114
 20
1025.632319428858
 10
1481.762554628988
 20
1025.383768172301
 10
1481.781214275181
 20
1025.119237056449
 10
1481.825272238843
 20
1024.84306967491
 10
1481.894005089429
 20
1024.559800688455
 10
1481.986284235433
 20
1024.274081366008
 10
1482.100594455828
 20
1023.990603210945
 10
1482.235058779956
 20
1023.714020926737
 10
1482.387469307333
 20
1023.448875986842
 10
1482.555323461311
 20
1023.199522063843
 10
1482.735865081324
 20
1022.970053542263
 10
1482.926129678963
 20
1022.764238288881
 10
1483.122993114793
 20
1022.585455784469
 10
1483.323222896643
 20
1022.436641632806
  0
LWPOLYLINE
  5
7C4
330
7B0
100
AcDbEntity
  8
0
  6
Continuous
 62
     7
370
    15
100
AcDbPolyline
 90
       50
 70
   128
 43
0.0
 10
1487.4016215137
 20
1019.736129016705
 10
1487.601929874085
 20
1019.619726742046
 10
1487.799027755266
 20
1019.537647666524
 10
1487.989678815484
 20
1019.49123952629
 10
1488.170752569601
 20
1019.481264341724
 10
1488.339275791579
 20
1019.507885905079
 10
1488.492481334774
 20
1019.570667091022
 10
1488.627853568401
 20
1019.668577034215
 10
1488.743169684127
 20
1019.800008056098
 10
1488.83653619452
 20
1019.962802062926
 10
1488.90642002406
 20
1020.154285981606
 10
1488.951673682199
 20
1020.371315651488
 10
1488.971554105121
 20
1020.610327451393
 10
1488.96573485683
 20
1020.867396814173
 10
1488.934311489224
 20
1021.138302668
 10
1488.877799973129
 20
1021.418596746243
 10
1488.797128226078
 20
1021.703676627886
 10
1488.693620875926
 20
1021.988861309154
 10
1488.568977510502
 20
1022.269468065465
 10
1488.42524477042
 20
1022.540889341639
 10
1488.264782743299
 20
1022.798668407824
 10
1488.090226211186
 20
1023.03857253888
 10
1487.904441387515
 20
1023.256662515608
 10
1487.710478853953
 20
1023.44935730662
 10
1487.511523469939
 20
1023.613492868774
 10
1487.310842077378
 20
1023.746374100677
 10
1487.111729859188
 20
1023.845819096176
 10
1486.917456232486
 20
1023.910194971193
 10
1486.731211164852
 20
1023.938444675641
 10
1486.556052795149
 20
1023.930104350154
 10
1486.394857218963
 20
1023.885310942645
 10
1486.250271263199
 20
1023.804799959627
 10
1486.124669025254
 20
1023.689893389216
 10
1486.020112890401
 20
1023.542477994122
 10
1485.938319667486
 20
1023.364974331055
 10
1485.880632398967
 20
1023.160297005256
 10
1485.847998308197
 20
1022.931806812757
 10
1485.840953246046
 20
1022.683255556201
 10
1485.859612892238
 20
1022.418724440349
 10
1485.9036708559
 20
1022.14255705881
 10
1485.972403706486
 20
1021.859288072354
 10
1486.06468285249
 20
1021.573568749907
 10
1486.178993072885
 20
1021.290090594845
 10
1486.313457397014
 20
1021.013508310636
 10
1486.46586792439
 20
1020.748363370741
 10
1486.633722078369
 20
1020.499009447743
 10
1486.814263698382
 20
1020.269540926162
 10
1487.00452829602
 20
1020.063725672781
 10
1487.201391731851
 20
1019.884943168368
 10
1487.4016215137
 20
1019.736129016705
  0
LWPOLYLINE
  5
7C5
330
7B0
100
AcDbEntity
  8
0
  6
Continuous
 62
     7
370
    15
100
AcDbPolyline
 90
       50
 70
   128
 43
0.0
 10
1491.480020130757
 20
1017.035616400604
 10
1491.680328491142
 20
1016.919214125946
 10
1491.877426372323
 20
1016.837135050424
 10
1492.068077432542
 20
1016.79072691019
 10
1492.249151186658
 20
1016.780751725623
 10
1492.417674408637
 20
1016.807373288978
 10
1492.570879951831
 20
1016.870154474921
 10
1492.706252185459
 20
1016.968064418115
 10
1492.821568301185
 20
1017.099495439998
 10
1492.914934811577
 20
1017.262289446825
 10
1492.984818641118
 20
1017.453773365506
 10
1493.030072299256
 20
1017.670803035388
 10
1493.049952722178
 20
1017.909814835292
 10
1493.044133473887
 20
1018.166884198073
 10
1493.012710106281
 20
1018.437790051899
 10
1492.956198590186
 20
1018.718084130142
 10
1492.875526843135
 20
1019.003164011785
 10
1492.772019492984
 20
1019.288348693053
 10
1492.64737612756
 20
1019.568955449364
 10
1492.503643387478
 20
1019.840376725538
 10
1492.343181360356
 20
1020.098155791723
 10
1492.168624828243
 20
1020.33805992278
 10
1491.982840004572
 20
1020.556149899507
 10
1491.78887747101
 20
1020.748844690519
 10
1491.589922086996
 20
1020.912980252673
 10
1491.389240694435
 20
1021.045861484576
 10
1491.190128476245
 20
1021.145306480075
 10
1490.995854849543
 20
1021.209682355093
 10
1490.80960978191
 20
1021.237932059541
 10
1490.634451412206
 20
1021.229591734053
 10
1490.47325583602
 20
1021.184798326544
 10
1490.328669880256
 20
1021.104287343526
 10
1490.203067642311
 20
1020.989380773116
 10
1490.098511507459
 20
1020.841965378021
 10
1490.016718284543
 20
1020.664461714954
 10
1489.959031016024
 20
1020.459784389156
 10
1489.926396925254
 20
1020.231294196656
 10
1489.919351863103
 20
1019.9827429401
 10
1489.938011509295
 20
1019.718211824248
 10
1489.982069472957
 20
1019.442044442709
 10
1490.050802323543
 20
1019.158775456253
 10
1490.143081469547
 20
1018.873056133806
 10
1490.257391689943
 20
1018.589577978744
 10
1490.391856014071
 20
1018.312995694535
 10
1490.544266541447
 20
1018.047850754641
 10
1490.712120695426
 20
1017.798496831642
 10
1490.892662315439
 20
1017.569028310062
 10
1491.082926913078
 20
1017.36321305668
 10
1491.279790348908
 20
1017.184430552268
 10
1491.480020130757
 20
1017.035616400604
  0
LWPOLYLINE
  5
7C6
330
7B0
100
AcDbEntity
  8
0
  6
Continuous
 62
     7
370
    15
100
AcDbPolyline
 90
       54
 70
   128
 43
0.0
 10
1467.015455974048
 20
1032.946506476676
 10
1467.227735121932
 20
1032.821846593938
 10
1467.437111311357
 20
1032.730687304613
 10
1467.640645359579
 20
1032.674308285299
 10
1467.835480094716
 20
1032.653500973843
 10
1468.018880464167
 20
1032.668557459288
 10
1468.188271928766
 20
1032.719266381582
 10
1468.341276603658
 20
1032.804915898612
 10
1468.475746638601
 20
1032.924303678905
 10
1468.589794369064
 20
1033.075753779726
 10
1468.681818814908
 20
1033.257140173643
 10
1468.750528154633
 20
1033.465916593289
 10
1468.794957859722
 20
1033.699152275375
 10
1468.814484234507
 20
1033.953573102185
 10
1468.808833171488
 20
1034.225607563007
 10
1468.778083999203
 20
1034.511436890318
 10
1468.722668368628
 20
1034.807048666908
 10
1468.643364193743
 20
1035.108293151423
 10
1468.541284731326
 20
1035.410941531637
 10
1468.41786295327
 20
1035.710745287704
 10
1468.274831430794
 20
1036.003495832067
 10
1468.114198012944
 20
1036.285083588802
 10
1467.938217640796
 20
1036.55155568305
 10
1467.749360693019
 20
1036.799171430722
 10
1467.550278307181
 20
1037.024454849503
 10
1467.343765163586
 20
1037.224243454019
 10
1467.132720254086
 20
1037.395732650206
 10
1466.920106186596
 20
1037.536515105657
 10
1466.708907596566
 20
1037.644614543297
 10
1466.502089249249
 20
1037.718513483979
 10
1466.302554420889
 20
1037.757174548564
 10
1466.11310414309
 20
1037.76005502045
 10
1465.936397882472
 20
1037.727114464128
 10
1465.77491620759
 20
1037.658815292801
 10
1465.630925967187
 20
1037.55611627712
 10
1465.506448468608
 20
1037.420459086148
 10
1465.403231103073
 20
1037.253748049481
 10
1465.322722816142
 20
1037.058323424639
 10
1465.266053767686
 20
1036.836928544977
 10
1465.234019466923
 20
1036.592671309305
 10
1465.227069605219
 20
1036.328980553791
 10
1465.245301743396
 20
1036.049557918626
 10
1465.2884599422
 20
1035.758325885106
 10
1465.355938355124
 20
1035.459372712592
 10
1465.446789733164
 20
1035.156895048314
 10
1465.559738722122
 20
1034.855139015639
 10
1465.69319976578
 20
1034.558340607808
 10
1465.845299363635
 20
1034.270666223876
 10
1466.01390237074
 20
1033.996154181605
 10
1466.196641970457
 20
1033.73865802833
 10
1466.390952899376
 20
1033.501792445604
 10
1466.594107457991
 20
1033.288882506993
 10
1466.803253801618
 20
1033.102917001331
 10
1467.015455974048
 20
1032.946506476676
  0
LWPOLYLINE
  5
7C7
330
7B0
100
AcDbEntity
  8
0
  6
Continuous
 62
     7
370
    15
100
AcDbPolyline
 90
       54
 70
   128
 43
0.0
 10
1462.937057356991
 20
1035.647019092777
 10
1463.149336504875
 20
1035.522359210039
 10
1463.3587126943
 20
1035.431199920714
 10
1463.562246742522
 20
1035.3748209014
 10
1463.757081477658
 20
1035.354013589944
 10
1463.94048184711
 20
1035.369070075389
 10
1464.109873311709
 20
1035.419778997683
 10
1464.262877986601
 20
1035.505428514713
 10
1464.397348021544
 20
1035.624816295006
 10
1464.511395752007
 20
1035.776266395827
 10
1464.603420197851
 20
1035.957652789743
 10
1464.672129537575
 20
1036.166429209389
 10
1464.716559242665
 20
1036.399664891476
 10
1464.73608561745
 20
1036.654085718286
 10
1464.730434554431
 20
1036.926120179108
 10
1464.699685382146
 20
1037.211949506419
 10
1464.64426975157
 20
1037.507561283009
 10
1464.564965576685
 20
1037.808805767524
 10
1464.462886114269
 20
1038.111454147737
 10
1464.339464336213
 20
1038.411257903804
 10
1464.196432813736
 20
1038.704008448168
 10
1464.035799395887
 20
1038.985596204902
 10
1463.859819023738
 20
1039.25206829915
 10
1463.670962075962
 20
1039.499684046823
 10
1463.471879690124
 20
1039.724967465603
 10
1463.265366546528
 20
1039.92475607012
 10
1463.054321637029
 20
1040.096245266306
 10
1462.841707569539
 20
1040.237027721758
 10
1462.630508979509
 20
1040.345127159398
 10
1462.423690632192
 20
1040.41902610008
 10
1462.224155803832
 20
1040.457687164664
 10
1462.034705526033
 20
1040.460567636551
 10
1461.857999265415
 20
1040.427627080229
 10
1461.696517590533
 20
1040.359327908901
 10
1461.55252735013
 20
1040.256628893221
 10
1461.42804985155
 20
1040.120971702249
 10
1461.324832486016
 20
1039.954260665581
 10
1461.244324199085
 20
1039.758836040739
 10
1461.187655150628
 20
1039.537441161078
 10
1461.155620849866
 20
1039.293183925406
 10
1461.148670988162
 20
1039.029493169892
 10
1461.166903126339
 20
1038.750070534727
 10
1461.210061325143
 20
1038.458838501206
 10
1461.277539738066
 20
1038.159885328693
 10
1461.368391116107
 20
1037.857407664415
 10
1461.481340105065
 20
1037.555651631739
 10
1461.614801148722
 20
1037.258853223908
 10
1461.766900746577
 20
1036.971178839977
 10
1461.935503753682
 20
1036.696666797706
 10
1462.118243353399
 20
1036.43917064443
 10
1462.312554282319
 20
1036.202305061705
 10
1462.515708840934
 20
1035.989395123094
 10
1462.724855184561
 20
1035.803429617432
 10
1462.937057356991
 20
1035.647019092777
  0
LINE
  5
7C8
330
7B0
100
AcDbEntity
  8
0
  6
Continuous
 62
     7
370
    15
100
AcDbLine
 10
1494.823581760481
 20
1013.174093929046
 30
0.0
 11
1459.586217709106
 21
1036.506522932155
 31
0.0
  0
LINE
  5
7C9
330
7B0
100
AcDbEntity
  8
0
  6
Continuous
 62
     7
370
    15
100
AcDbLine
 10
1459.586217709106
 20
1036.506522932155
 30
0.0
 11
1459.604163507312
 21
1043.908760655338
 31
0.0
  0
LINE
  5
7CA
330
7B0
100
AcDbEntity
  8
0
  6
Continuous
 62
     7
370
    15
100
AcDbLine
 10
1459.604163507312
 20
1043.908760655338
 30
0.0
 11
1494.841527558687
 21
1020.576331652229
 31
0.0
  0
LINE
  5
7CB
330
7B0
100
AcDbEntity
  8
0
  6
Continuous
 62
     7
370
    15
100
AcDbLine
 10
1494.841527558687
 20
1020.576331652229
 30
0.0
 11
1494.823581760481
 21
1013.174093929046
 31
0.0
  0
LINE
  5
7CC
330
7B0
100
AcDbEntity
  8
0
  6
Continuous
 62
     7
370
    15
100
AcDbLine
 10
1499.748946374174
 20
1015.578626733478
 30
0.0
 11
1494.823581760481
 21
1013.174093929046
 31
0.0
  0
LINE
  5
7CD
330
7B0
100
AcDbEntity
  8
0
  6
Continuous
 62
     7
370
    15
100
AcDbLine
 10
1494.841527558687
 20
1020.576331652229
 30
0.0
 11
1499.76689217238
 21
1022.980864456661
 31
0.0
  0
LINE
  5
7CE
330
7B0
100
AcDbEntity
  8
0
  6
Continuous
 62
     7
370
    15
100
AcDbLine
 10
1499.76689217238
 20
1022.980864456661
 30
0.0
 11
1499.748946374174
 21
1015.578626733478
 31
0.0
  0
LWPOLYLINE
  5
7CF
330
7B0
100
AcDbEntity
  8
0
  6
Continuous
 62
     7
370
    15
100
AcDbPolyline
 90
        3
 70
   128
 43
0.0
 10
1474.938271849591
 20
1036.588209241141
 10
1475.14218653848
 20
1036.70244148848
 10
1475.251130211322
 20
1036.77856300501
  0
LWPOLYLINE
  5
7D0
330
7B0
100
AcDbEntity
  8
0
  6
Continuous
 62
     7
370
    15
100
AcDbPolyline
 90
       41
 70
   128
 43
0.0
 10
1475.64648405124
 20
1037.662430247237
 10
1475.61124289999
 20
1037.767884033984
 10
1475.526222577122
 20
1037.923715528179
 10
1475.404722967177
 20
1038.07157169512
 10
1475.249007378002
 20
1038.208698254171
 10
1475.061976496399
 20
1038.332540796992
 10
1474.847114353815
 20
1038.440792371327
 10
1474.608423425431
 20
1038.531436455167
 10
1474.350350071624
 20
1038.602784520736
 10
1474.077701710682
 20
1038.653507488568
 10
1473.795557265697
 20
1038.682660485742
 10
1473.509172553842
 20
1038.689700447082
 10
1473.223882380439
 20
1038.674496231428
 10
1472.945001161628
 20
1038.637331064551
 10
1472.677723926851
 20
1038.578897263189
 10
1472.427029545286
 20
1038.500283338501
 10
1472.197587978929
 20
1038.402953719161
 10
1471.99367329004
 20
1038.288721471822
 10
1471.819084023453
 20
1038.159714527117
 10
1471.677072446867
 20
1038.018336040335
 10
1471.57028396726
 20
1037.867219625187
 10
1471.500707851954
 20
1037.709180294563
 10
1471.469640172334
 20
1037.547162022171
 10
1471.47765966049
 20
1037.384182901875
 10
1471.52461692853
 20
1037.223278926318
 10
1471.609637251398
 20
1037.067447432123
 10
1471.731136861343
 20
1036.919591265182
 10
1471.886852450518
 20
1036.78246470613
 10
1472.073883332121
 20
1036.65862216331
 10
1472.288745474705
 20
1036.550370588975
 10
1472.527436403089
 20
1036.459726505134
 10
1472.785509756896
 20
1036.388378439565
 10
1473.058158117839
 20
1036.337655471734
 10
1473.340302562824
 20
1036.308502474559
 10
1473.626687274678
 20
1036.301462513219
 10
1473.911977448082
 20
1036.316666728873
 10
1474.190858666893
 20
1036.353831895751
 10
1474.458135901669
 20
1036.412265697113
 10
1474.708830283234
 20
1036.490879621801
 10
1474.938271849591
 20
1036.588209241141
 10
1474.938271849591
 20
1036.588209241141
  0
LINE
  5
7D1
330
7B0
100
AcDbEntity
  8
0
  6
Continuous
 62
     7
370
    15
100
AcDbLine
 10
1459.604163507312
 20
1043.908760655338
 30
0.0
 11
1462.517025559351
 21
1045.330802048871
 31
0.0
  0
LINE
  5
7D2
330
7B0
100
AcDbEntity
  8
0
  6
Continuous
 62
     7
370
    15
100
AcDbLine
 10
1463.761852542493
 20
1045.938518949359
 30
0.0
 11
1463.977991080197
 21
1046.044036458209
 31
0.0
  0
LINE
  5
7D3
330
7B0
100
AcDbEntity
  8
0
  6
Continuous
 62
     7
370
    15
100
AcDbLine
 10
1472.39174897773
 20
1041.107322046051
 30
0.0
 11
1476.802110470491
 21
1038.187000132702
 31
0.0
  0
LINE
  5
7D4
330
7B0
100
AcDbEntity
  8
0
  6
Continuous
 62
     7
370
    15
100
AcDbLine
 10
1480.049346108532
 20
1036.036842281209
 30
0.0
 11
1480.880509087548
 21
1035.486487516601
 31
0.0
  0
LINE
  5
7D5
330
7B0
100
AcDbEntity
  8
0
  6
Continuous
 62
     7
370
    15
100
AcDbLine
 10
1484.12774472559
 20
1033.336329665108
 30
0.0
 11
1484.958907704606
 21
1032.7859749005
 31
0.0
  0
LINE
  5
7D6
330
7B0
100
AcDbEntity
  8
0
  6
Continuous
 62
     7
370
    15
100
AcDbLine
 10
1488.206143342647
 20
1030.635817049008
 30
0.0
 11
1489.037306321663
 21
1030.0854622844
 31
0.0
  0
LINE
  5
7D7
330
7B0
100
AcDbEntity
  8
0
  6
Continuous
 62
     7
370
    15
100
AcDbLine
 10
1492.284541959704
 20
1027.935304432907
 30
0.0
 11
1493.11570493872
 21
1027.384949668299
 31
0.0
  0
LINE
  5
7D8
330
7B0
100
AcDbEntity
  8
0
  6
Continuous
 62
     7
370
    15
100
AcDbLine
 10
1496.362940576761
 20
1025.234791816806
 30
0.0
 11
1499.76689217238
 21
1022.980864456661
 31
0.0
  0
ARC
  5
7D9
330
7B0
100
AcDbEntity
  8
0
  6
Continuous
 62
     7
370
    15
100
AcDbCircle
 10
1495.147302116632
 20
1024.115048865935
 30
0.0
 40
1.219334922798941
100
AcDbArc
 50
288.0954189329099
 51
353.9813960392234
  0
LWPOLYLINE
  5
7DA
330
7B0
100
AcDbEntity
  8
0
  6
Continuous
 62
     7
370
    15
100
AcDbPolyline
 90
       19
 70
   128
 43
0.0
 10
1491.559930052627
 20
1023.998836881941
 10
1491.572366081203
 20
1023.858130091003
 10
1491.623173340105
 20
1023.685521904088
 10
1491.712349963813
 20
1023.51796280113
 10
1491.83843167463
 20
1023.358204097966
 10
1491.99934821435
 20
1023.208869028084
 10
1492.19245733784
 20
1023.072409669205
 10
1492.414588198631
 20
1022.951066680229
 10
1492.66209341413
 20
1022.846832509678
 10
1492.930908955541
 20
1022.761418679754
 10
1493.216620879106
 20
1022.69622768318
 10
1493.51453780294
 20
1022.652329954319
 10
1493.819767939387
 20
1022.630446292665
 10
1494.127299418048
 20
1022.630936027337
 10
1494.432082580545
 20
1022.653791116906
 10
1494.729112895775
 20
1022.698636281432
 10
1495.013513134174
 20
1022.764735164555
 10
1495.280613451691
 20
1022.85100242444
 10
1495.526028068496
 20
1022.956021555065
  0
LINE
  5
7DB
330
7B0
100
AcDbEntity
  8
0
  6
Continuous
 62
     7
370
    15
100
AcDbLine
 10
1491.447629451439
 20
1025.656534171166
 30
0.0
 11
1491.564096276707
 21
1025.717310515481
 31
0.0
  0
LWPOLYLINE
  5
7DC
330
7B0
100
AcDbEntity
  8
0
  6
Continuous
 62
     7
370
    15
100
AcDbPolyline
 90
       19
 70
   128
 43
0.0
 10
1487.48153143557
 20
1026.699349498041
 10
1487.493967464146
 20
1026.558642707103
 10
1487.544774723048
 20
1026.386034520189
 10
1487.633951346756
 20
1026.21847541723
 10
1487.760033057573
 20
1026.058716714066
 10
1487.920949597293
 20
1025.909381644185
 10
1488.114058720783
 20
1025.772922285306
 10
1488.336189581574
 20
1025.651579296329
 10
1488.583694797073
 20
1025.547345125779
 10
1488.852510338484
 20
1025.461931295854
 10
1489.138222262049
 20
1025.396740299281
 10
1489.436139185882
 20
1025.352842570419
 10
1489.74136932233
 20
1025.330958908765
 10
1490.048900800991
 20
1025.331448643438
 10
1490.353683963488
 20
1025.354303733006
 10
1490.650714278718
 20
1025.399148897533
 10
1490.935114517117
 20
1025.465247780656
 10
1491.202214834634
 20
1025.55151504054
 10
1491.447629451439
 20
1025.656534171166
  0
LINE
  5
7DD
330
7B0
100
AcDbEntity
  8
0
  6
Continuous
 62
     7
370
    15
100
AcDbLine
 10
1487.369230834382
 20
1028.357046787266
 30
0.0
 11
1487.485697659649
 21
1028.417823131582
 31
0.0
  0
LWPOLYLINE
  5
7DE
330
7B0
100
AcDbEntity
  8
0
  6
Continuous
 62
     7
370
    15
100
AcDbPolyline
 90
       19
 70
   128
 43
0.0
 10
1483.403132818512
 20
1029.399862114142
 10
1483.415568847088
 20
1029.259155323204
 10
1483.466376105991
 20
1029.086547136289
 10
1483.555552729699
 20
1028.918988033331
 10
1483.681634440515
 20
1028.759229330167
 10
1483.842550980235
 20
1028.609894260286
 10
1484.035660103726
 20
1028.473434901407
 10
1484.257790964517
 20
1028.35209191243
 10
1484.505296180016
 20
1028.24785774188
 10
1484.774111721427
 20
1028.162443911955
 10
1485.059823644992
 20
1028.097252915381
 10
1485.357740568825
 20
1028.05335518652
 10
1485.662970705273
 20
1028.031471524866
 10
1485.970502183934
 20
1028.031961259538
 10
1486.27528534643
 20
1028.054816349107
 10
1486.572315661661
 20
1028.099661513634
 10
1486.85671590006
 20
1028.165760396756
 10
1487.123816217577
 20
1028.252027656641
 10
1487.369230834382
 20
1028.357046787266
  0
LINE
  5
7DF
330
7B0
100
AcDbEntity
  8
0
  6
Continuous
 62
     7
370
    15
100
AcDbLine
 10
1483.290832217325
 20
1031.057559403367
 30
0.0
 11
1483.407299042592
 21
1031.118335747683
 31
0.0
  0
LWPOLYLINE
  5
7E0
330
7B0
100
AcDbEntity
  8
0
  6
Continuous
 62
     7
370
    15
100
AcDbPolyline
 90
       19
 70
   128
 43
0.0
 10
1479.324734201455
 20
1032.100374730243
 10
1479.337170230031
 20
1031.959667939304
 10
1479.387977488934
 20
1031.78705975239
 10
1479.477154112641
 20
1031.619500649432
 10
1479.603235823458
 20
1031.459741946267
 10
1479.764152363178
 20
1031.310406876386
 10
1479.957261486668
 20
1031.173947517507
 10
1480.17939234746
 20
1031.052604528531
 10
1480.426897562958
 20
1030.94837035798
 10
1480.69571310437
 20
1030.862956528055
 10
1480.981425027935
 20
1030.797765531482
 10
1481.279341951768
 20
1030.753867802621
 10
1481.584572088215
 20
1030.731984140967
 10
1481.892103566877
 20
1030.732473875639
 10
1482.196886729373
 20
1030.755328965208
 10
1482.493917044603
 20
1030.800174129734
 10
1482.778317283003
 20
1030.866273012857
 10
1483.045417600519
 20
1030.952540272742
 10
1483.290832217325
 20
1031.057559403367
  0
LINE
  5
7E1
330
7B0
100
AcDbEntity
  8
0
  6
Continuous
 62
     7
370
    15
100
AcDbLine
 10
1479.212433600267
 20
1033.758072019468
 30
0.0
 11
1479.328900425535
 21
1033.818848363783
 31
0.0
  0
LWPOLYLINE
  5
7E2
330
7B0
100
AcDbEntity
  8
0
  6
Continuous
 62
     7
370
    15
100
AcDbPolyline
 90
       19
 70
   128
 43
0.0
 10
1475.246335584398
 20
1034.800887346343
 10
1475.258771612974
 20
1034.660180555405
 10
1475.309578871876
 20
1034.487572368491
 10
1475.398755495584
 20
1034.320013265532
 10
1475.524837206401
 20
1034.160254562368
 10
1475.685753746121
 20
1034.010919492487
 10
1475.878862869611
 20
1033.874460133608
 10
1476.100993730402
 20
1033.753117144631
 10
1476.348498945901
 20
1033.648882974081
 10
1476.617314487312
 20
1033.563469144156
 10
1476.903026410878
 20
1033.498278147582
 10
1477.200943334711
 20
1033.454380418721
 10
1477.506173471158
 20
1033.432496757067
 10
1477.813704949819
 20
1033.43298649174
 10
1478.118488112316
 20
1033.455841581308
 10
1478.415518427546
 20
1033.500686745835
 10
1478.699918665945
 20
1033.566785628957
 10
1478.967018983462
 20
1033.653052888843
 10
1479.212433600267
 20
1033.758072019468
  0
LWPOLYLINE
  5
7E3
330
7B0
100
AcDbEntity
  8
0
  6
Continuous
 62
     7
370
    15
100
AcDbPolyline
 90
       22
 70
   128
 43
0.0
 10
1467.292060931093
 20
1039.123302537351
 10
1467.526610995296
 20
1038.985087554125
 10
1467.787706189223
 20
1038.863249356918
 10
1468.071815648283
 20
1038.759435598338
 10
1468.375097279426
 20
1038.675050181377
 10
1468.693449718865
 20
1038.611234274039
 10
1469.022567795987
 20
1038.568850876995
 10
1469.358000753394
 20
1038.548473152981
 10
1469.695212435768
 20
1038.550376675758
 10
1470.029642633585
 20
1038.574535703446
 10
1470.35676875213
 20
1038.620623526639
 10
1470.672166971828
 20
1038.688016886591
 10
1470.971572072821
 20
1038.775804403722
 10
1471.250935114739
 20
1038.882798902461
 10
1471.506478191686
 20
1039.007553465759
 10
1471.734745521925
 20
1039.148381002162
 10
1471.932650181403
 20
1039.303377060827
 10
1472.097515849103
 20
1039.470445585955
 10
1472.227112999694
 20
1039.647327262346
 10
1472.319689054037
 20
1039.831630068765
 10
1472.373992079808
 20
1040.020861625924
 10
1472.389522774731
 20
1040.189063430148
  0
ARC
  5
7E4
330
7B0
100
AcDbEntity
  8
0
  6
Continuous
 62
     7
370
    15
100
AcDbCircle
 10
1467.949128012457
 20
1040.319221125776
 30
0.0
 40
1.364535972245602
100
AcDbArc
 50
184.880694431668
 51
241.21452411896
  0
ARC
  5
7E5
330
7B0
100
AcDbEntity
  8
0
  6
Continuous
 62
     7
370
    15
100
AcDbCircle
 10
1465.437069574413
 20
1045.747981987984
 30
0.0
 40
4.510279945938894
100
AcDbArc
 50
240.464392812827
 51
284.8421996656158
  0
ARC
  5
7E6
330
7B0
100
AcDbEntity
  8
0
  6
Continuous
 62
     7
370
    15
100
AcDbCircle
 10
1463.8707293954
 20
1043.019733741877
 30
0.0
 40
1.364535972245568
100
AcDbArc
 50
184.8806944316615
 51
241.21452411896
  0
ARC
  5
7E7
330
7B0
100
AcDbEntity
  8
0
  6
Continuous
 62
     7
370
    15
100
AcDbCircle
 10
1494.404323175825
 20
1026.331009705744
 30
0.0
 40
2.513711815249651
100
AcDbArc
 50
285.594965436097
 51
306.3637986462041
  0
ELLIPSE
  5
7E8
330
7B0
100
AcDbEntity
  8
0
  6
Continuous
 62
     7
370
    15
100
AcDbEllipse
 10
1493.942219106687
 20
1016.690561185638
 30
0.0
 11
1.871824239152658
 21
38.56559360311513
 31
0.0
210
0.0
220
0.0
230
0.9999999999999998
 40
0.0417863067469784
 41
4.913211323909628
 42
4.940183938186649
  0
LWPOLYLINE
  5
7E9
330
7B0
100
AcDbEntity
  8
0
  6
Continuous
 62
     7
370
    15
100
AcDbPolyline
 90
       21
 70
   128
 43
0.0
 10
1492.90529376518
 20
1027.333342666428
 10
1493.197501487812
 20
1027.401463915556
 10
1493.503025488494
 20
1027.44712328838
 10
1493.816565182813
 20
1027.469528633188
 10
1494.132680920817
 20
1027.468291236095
 10
1494.445888360358
 20
1027.4434325649
 10
1494.750753615825
 20
1027.395383896637
 10
1495.041987531481
 20
1027.324978835284
 10
1495.314537443868
 20
1027.233438849431
 10
1495.563674841269
 20
1027.122352080831
 10
1495.785077399407
 20
1026.993645791478
 10
1495.974903970137
 20
1026.849552927225
 10
1496.129861222136
 20
1026.69257337806
 10
1496.247260777427
 20
1026.525430607114
 10
1496.32506585248
 20
1026.351024400867
 10
1496.36192659469
 20
1026.172380560288
 10
1496.357203501187
 20
1025.992598405743
 10
1496.31097851367
 20
1025.814797006384
 10
1496.224053596788
 20
1025.642061066926
 10
1496.097936824731
 20
1025.477387410619
 10
1495.934816217408
 20
1025.32363298688
  0
ELLIPSE
  5
7EA
330
7B0
100
AcDbEntity
  8
0
  6
Continuous
 62
     7
370
    15
100
AcDbEllipse
 10
1493.942219106687
 20
1016.690561185638
 30
0.0
 11
1.871824239152658
 21
38.56559360311513
 31
0.0
210
0.0
220
0.0
230
0.9999999999999998
 40
0.0417863067469784
 41
1.293230774312684
 42
1.320203388589698
  0
LWPOLYLINE
  5
7EB
330
7B0
100
AcDbEntity
  8
0
  6
Continuous
 62
     7
370
    15
100
AcDbPolyline
 90
       21
 70
   128
 43
0.0
 10
1495.024801278666
 20
1024.880194343663
 10
1494.732593556034
 20
1024.812073094535
 10
1494.427069555352
 20
1024.766413721711
 10
1494.113529861032
 20
1024.744008376903
 10
1493.797414123029
 20
1024.745245773996
 10
1493.484206683487
 20
1024.770104445191
 10
1493.17934142802
 20
1024.818153113454
 10
1492.888107512365
 20
1024.888558174807
 10
1492.615557599978
 20
1024.98009816066
 10
1492.366420202577
 20
1025.09118492926
 10
1492.145017644439
 20
1025.219891218613
 10
1491.955191073708
 20
1025.363984082866
 10
1491.80023382171
 20
1025.520963632031
 10
1491.682834266419
 20
1025.688106402977
 10
1491.605029191366
 20
1025.862512609225
 10
1491.568168449155
 20
1026.041156449803
 10
1491.572891542659
 20
1026.220938604348
 10
1491.619116530176
 20
1026.398740003708
 10
1491.706041447057
 20
1026.571475943165
 10
1491.832158219114
 20
1026.736149599472
 10
1491.995278826438
 20
1026.889904023212
  0
ELLIPSE
  5
7EC
330
7B0
100
AcDbEntity
  8
0
  6
Continuous
 62
     7
370
    15
100
AcDbEllipse
 10
1493.942219106687
 20
1016.690561185638
 30
0.0
 11
-1.77515610727346
 21
36.79251938811375
 31
0.0
210
0.0
220
0.0
230
0.9999999999999998
 40
0.041082769289462
 41
4.907903704378118
 42
4.934876318655138
  0
LINE
  5
7ED
330
7B0
100
AcDbEntity
  8
0
  6
Continuous
 62
     7
370
    15
100
AcDbLine
 10
1492.566789070619
 20
1025.72543847035
 30
0.0
 11
1493.088268626372
 21
1025.379501931701
 31
0.0
  0
LINE
  5
7EE
330
7B0
100
AcDbEntity
  8
0
  6
Continuous
 62
     7
370
    15
100
AcDbLine
 10
1493.088268626372
 20
1025.379501931701
 30
0.0
 11
1493.770779830428
 21
1025.712080914113
 31
0.0
  0
LINE
  5
7EF
330
7B0
100
AcDbEntity
  8
0
  6
Continuous
 62
     7
370
    15
100
AcDbLine
 10
1493.770779830428
 20
1025.712080914113
 30
0.0
 11
1495.024801278666
 21
1024.880194343663
 31
0.0
  0
LINE
  5
7F0
330
7B0
100
AcDbEntity
  8
0
  6
Continuous
 62
     7
370
    15
100
AcDbLine
 10
1491.995278826438
 20
1026.889904023212
 30
0.0
 11
1493.249300274675
 21
1026.058017452762
 31
0.0
  0
LINE
  5
7F1
330
7B0
100
AcDbEntity
  8
0
  6
Continuous
 62
     7
370
    15
100
AcDbLine
 10
1493.249300274675
 20
1026.058017452762
 30
0.0
 11
1492.566789070619
 21
1025.72543847035
 31
0.0
  0
LINE
  5
7F2
330
7B0
100
AcDbEntity
  8
0
  6
Continuous
 62
     7
370
    15
100
AcDbLine
 10
1495.894728575761
 20
1024.306796566283
 30
0.0
 11
1494.589715755834
 21
1025.172509541677
 31
0.0
  0
LINE
  5
7F3
330
7B0
100
AcDbEntity
  8
0
  6
Continuous
 62
     7
370
    15
100
AcDbLine
 10
1494.150224956457
 20
1025.464056783036
 30
0.0
 11
1492.845212136531
 21
1026.32976975843
 31
0.0
  0
LINE
  5
7F4
330
7B0
100
AcDbEntity
  8
0
  6
Continuous
 62
     7
370
    15
100
AcDbLine
 10
1494.638786461577
 20
1025.702126557206
 30
0.0
 11
1494.150224956457
 21
1025.464056783036
 31
0.0
  0
LINE
  5
7F5
330
7B0
100
AcDbEntity
  8
0
  6
Continuous
 62
     7
370
    15
100
AcDbLine
 10
1495.934816217408
 20
1025.32363298688
 30
0.0
 11
1494.68079476917
 21
1026.155519557329
 31
0.0
  0
LINE
  5
7F6
330
7B0
100
AcDbEntity
  8
0
  6
Continuous
 62
     7
370
    15
100
AcDbLine
 10
1494.68079476917
 20
1026.155519557329
 30
0.0
 11
1494.589715755834
 21
1025.172509541677
 31
0.0
  0
LINE
  5
7F7
330
7B0
100
AcDbEntity
  8
0
  6
Continuous
 62
     7
370
    15
100
AcDbLine
 10
1494.159315213418
 20
1026.501456095978
 30
0.0
 11
1492.90529376518
 21
1027.333342666428
 31
0.0
  0
LINE
  5
7F8
330
7B0
100
AcDbEntity
  8
0
  6
Continuous
 62
     7
370
    15
100
AcDbLine
 10
1494.68079476917
 20
1026.155519557329
 30
0.0
 11
1495.363305973227
 21
1026.488098539741
 31
0.0
  0
LINE
  5
7F9
330
7B0
100
AcDbEntity
  8
0
  6
Continuous
 62
     7
370
    15
100
AcDbLine
 10
1495.363305973227
 20
1026.488098539741
 30
0.0
 11
1494.841826417474
 21
1026.83403507839
 31
0.0
  0
LINE
  5
7FA
330
7B0
100
AcDbEntity
  8
0
  6
Continuous
 62
     7
370
    15
100
AcDbLine
 10
1494.841826417474
 20
1026.83403507839
 30
0.0
 11
1494.159315213418
 21
1026.501456095978
 31
0.0
  0
LINE
  5
7FB
330
7B0
100
AcDbEntity
  8
0
  6
Continuous
 62
     7
370
    15
100
AcDbLine
 10
1493.249300274675
 20
1026.058017452762
 30
0.0
 11
1493.299427709653
 21
1025.482397052876
 31
0.0
  0
ARC
  5
7FC
330
7B0
100
AcDbEntity
  8
0
  6
Continuous
 62
     7
370
    15
100
AcDbCircle
 10
1492.597435847388
 20
1018.177698115391
 30
0.0
 40
1.208932492630622
100
AcDbArc
 50
232.3451139786553
 51
275.4847470480466
  0
ARC
  5
7FD
330
7B0
100
AcDbEntity
  8
0
  6
Continuous
 62
     7
370
    15
100
AcDbCircle
 10
1493.46167820088
 20
1019.900914883864
 30
0.0
 40
3.122996756544032
100
AcDbArc
 50
154.8175528651618
 51
239.1214598915703
  0
LINE
  5
7FE
330
7B0
100
AcDbEntity
  8
0
  6
Continuous
 62
     7
370
    15
100
AcDbLine
 10
1494.159315213418
 20
1026.501456095978
 30
0.0
 11
1494.150224956457
 21
1025.464056783036
 31
0.0
  0
LINE
  5
7FF
330
7B0
100
AcDbEntity
  8
0
  6
Continuous
 62
     7
370
    15
100
AcDbLine
 10
1494.841826417474
 20
1026.83403507839
 30
0.0
 11
1494.836545933565
 21
1026.231415108136
 31
0.0
  0
ARC
  5
800
330
7B0
100
AcDbEntity
  8
0
  6
Continuous
 62
     7
370
    15
100
AcDbCircle
 10
1490.325924558768
 20
1029.031522321845
 30
0.0
 40
2.513711815249062
100
AcDbArc
 50
285.594965436097
 51
306.3637986462041
  0
ELLIPSE
  5
801
330
7B0
100
AcDbEntity
  8
0
  6
Continuous
 62
     7
370
    15
100
AcDbEllipse
 10
1489.86382048963
 20
1019.391073801738
 30
0.0
 11
1.871824239152658
 21
38.56559360311513
 31
0.0
210
0.0
220
0.0
230
0.9999999999999998
 40
0.0417863067469784
 41
4.913211323909628
 42
4.940183938186653
  0
LWPOLYLINE
  5
802
330
7B0
100
AcDbEntity
  8
0
  6
Continuous
 62
     7
370
    15
100
AcDbPolyline
 90
       21
 70
   128
 43
0.0
 10
1488.826895148123
 20
1030.033855282528
 10
1489.119102870755
 20
1030.101976531657
 10
1489.424626871437
 20
1030.14763590448
 10
1489.738166565756
 20
1030.170041249289
 10
1490.054282303759
 20
1030.168803852196
 10
1490.367489743301
 20
1030.143945181001
 10
1490.672354998768
 20
1030.095896512738
 10
1490.963588914424
 20
1030.025491451384
 10
1491.236138826811
 20
1029.933951465531
 10
1491.485276224211
 20
1029.822864696932
 10
1491.70667878235
 20
1029.694158407578
 10
1491.89650535308
 20
1029.550065543325
 10
1492.051462605079
 20
1029.393085994161
 10
1492.16886216037
 20
1029.225943223215
 10
1492.246667235423
 20
1029.051537016967
 10
1492.283527977633
 20
1028.872893176389
 10
1492.27880488413
 20
1028.693111021844
 10
1492.232579896612
 20
1028.515309622484
 10
1492.145654979731
 20
1028.342573683027
 10
1492.019538207674
 20
1028.17790002672
 10
1491.856417600351
 20
1028.02414560298
  0
ELLIPSE
  5
803
330
7B0
100
AcDbEntity
  8
0
  6
Continuous
 62
     7
370
    15
100
AcDbEllipse
 10
1489.86382048963
 20
1019.391073801738
 30
0.0
 11
1.871824239152658
 21
38.56559360311513
 31
0.0
210
0.0
220
0.0
230
0.9999999999999998
 40
0.0417863067469784
 41
1.293230774312684
 42
1.320203388589702
  0
LWPOLYLINE
  5
804
330
7B0
100
AcDbEntity
  8
0
  6
Continuous
 62
     7
370
    15
100
AcDbPolyline
 90
       21
 70
   128
 43
0.0
 10
1490.946402661609
 20
1027.580706959764
 10
1490.654194938977
 20
1027.512585710636
 10
1490.348670938295
 20
1027.466926337812
 10
1490.035131243975
 20
1027.444520993003
 10
1489.719015505972
 20
1027.445758390096
 10
1489.40580806643
 20
1027.470617061291
 10
1489.100942810963
 20
1027.518665729554
 10
1488.809708895307
 20
1027.589070790908
 10
1488.537158982921
 20
1027.680610776761
 10
1488.28802158552
 20
1027.79169754536
 10
1488.066619027382
 20
1027.920403834714
 10
1487.876792456651
 20
1028.064496698967
 10
1487.721835204653
 20
1028.221476248131
 10
1487.604435649362
 20
1028.388619019077
 10
1487.526630574309
 20
1028.563025225325
 10
1487.489769832098
 20
1028.741669065903
 10
1487.494492925601
 20
1028.921451220448
 10
1487.540717913119
 20
1029.099252619808
 10
1487.62764283
 20
1029.271988559265
 10
1487.753759602057
 20
1029.436662215573
 10
1487.916880209381
 20
1029.590416639312
  0
ELLIPSE
  5
805
330
7B0
100
AcDbEntity
  8
0
  6
Continuous
 62
     7
370
    15
100
AcDbEllipse
 10
1489.86382048963
 20
1019.391073801738
 30
0.0
 11
-1.77515610727346
 21
36.79251938811372
 31
0.0
210
0.0
220
0.0
230
0.9999999999999998
 40
0.0410827692894621
 41
4.907903704378117
 42
4.934876318655138
  0
LINE
  5
806
330
7B0
100
AcDbEntity
  8
0
  6
Continuous
 62
     7
370
    15
100
AcDbLine
 10
1488.488390453562
 20
1028.425951086451
 30
0.0
 11
1489.009870009315
 21
1028.080014547802
 31
0.0
  0
LINE
  5
807
330
7B0
100
AcDbEntity
  8
0
  6
Continuous
 62
     7
370
    15
100
AcDbLine
 10
1489.009870009315
 20
1028.080014547802
 30
0.0
 11
1489.692381213371
 21
1028.412593530214
 31
0.0
  0
LINE
  5
808
330
7B0
100
AcDbEntity
  8
0
  6
Continuous
 62
     7
370
    15
100
AcDbLine
 10
1489.692381213371
 20
1028.412593530214
 30
0.0
 11
1490.946402661609
 21
1027.580706959764
 31
0.0
  0
LINE
  5
809
330
7B0
100
AcDbEntity
  8
0
  6
Continuous
 62
     7
370
    15
100
AcDbLine
 10
1487.916880209381
 20
1029.590416639312
 30
0.0
 11
1489.170901657618
 21
1028.758530068863
 31
0.0
  0
LINE
  5
80A
330
7B0
100
AcDbEntity
  8
0
  6
Continuous
 62
     7
370
    15
100
AcDbLine
 10
1489.170901657618
 20
1028.758530068863
 30
0.0
 11
1488.488390453562
 21
1028.425951086451
 31
0.0
  0
LINE
  5
80B
330
7B0
100
AcDbEntity
  8
0
  6
Continuous
 62
     7
370
    15
100
AcDbLine
 10
1491.816329958704
 20
1027.007309182384
 30
0.0
 11
1490.511317138777
 21
1027.873022157778
 31
0.0
  0
LINE
  5
80C
330
7B0
100
AcDbEntity
  8
0
  6
Continuous
 62
     7
370
    15
100
AcDbLine
 10
1490.0718263394
 20
1028.164569399137
 30
0.0
 11
1488.766813519474
 21
1029.03028237453
 31
0.0
  0
LINE
  5
80D
330
7B0
100
AcDbEntity
  8
0
  6
Continuous
 62
     7
370
    15
100
AcDbLine
 10
1490.56038784452
 20
1028.402639173307
 30
0.0
 11
1490.0718263394
 21
1028.164569399137
 31
0.0
  0
LINE
  5
80E
330
7B0
100
AcDbEntity
  8
0
  6
Continuous
 62
     7
370
    15
100
AcDbLine
 10
1491.856417600351
 20
1028.02414560298
 30
0.0
 11
1490.602396152113
 21
1028.85603217343
 31
0.0
  0
LINE
  5
80F
330
7B0
100
AcDbEntity
  8
0
  6
Continuous
 62
     7
370
    15
100
AcDbLine
 10
1490.602396152113
 20
1028.85603217343
 30
0.0
 11
1490.511317138777
 21
1027.873022157778
 31
0.0
  0
LINE
  5
810
330
7B0
100
AcDbEntity
  8
0
  6
Continuous
 62
     7
370
    15
100
AcDbLine
 10
1490.08091659636
 20
1029.201968712079
 30
0.0
 11
1488.826895148123
 21
1030.033855282528
 31
0.0
  0
LINE
  5
811
330
7B0
100
AcDbEntity
  8
0
  6
Continuous
 62
     7
370
    15
100
AcDbLine
 10
1490.602396152113
 20
1028.85603217343
 30
0.0
 11
1491.28490735617
 21
1029.188611155842
 31
0.0
  0
LINE
  5
812
330
7B0
100
AcDbEntity
  8
0
  6
Continuous
 62
     7
370
    15
100
AcDbLine
 10
1491.28490735617
 20
1029.188611155842
 30
0.0
 11
1490.763427800416
 21
1029.534547694491
 31
0.0
  0
LINE
  5
813
330
7B0
100
AcDbEntity
  8
0
  6
Continuous
 62
     7
370
    15
100
AcDbLine
 10
1490.763427800416
 20
1029.534547694491
 30
0.0
 11
1490.08091659636
 21
1029.201968712079
 31
0.0
  0
LINE
  5
814
330
7B0
100
AcDbEntity
  8
0
  6
Continuous
 62
     7
370
    15
100
AcDbLine
 10
1489.170901657618
 20
1028.758530068863
 30
0.0
 11
1489.221029092596
 21
1028.182909668977
 31
0.0
  0
ARC
  5
815
330
7B0
100
AcDbEntity
  8
0
  6
Continuous
 62
     7
370
    15
100
AcDbCircle
 10
1488.51903723033
 20
1020.878210731492
 30
0.0
 40
1.208932492630879
100
AcDbArc
 50
232.3451139786593
 51
275.4847470480201
  0
ARC
  5
816
330
7B0
100
AcDbEntity
  8
0
  6
Continuous
 62
     7
370
    15
100
AcDbCircle
 10
1489.383279583823
 20
1022.601427499965
 30
0.0
 40
3.122996756544299
100
AcDbArc
 50
154.8175528651732
 51
239.1214598915703
  0
LINE
  5
817
330
7B0
100
AcDbEntity
  8
0
  6
Continuous
 62
     7
370
    15
100
AcDbLine
 10
1490.08091659636
 20
1029.201968712079
 30
0.0
 11
1490.0718263394
 21
1028.164569399137
 31
0.0
  0
LINE
  5
818
330
7B0
100
AcDbEntity
  8
0
  6
Continuous
 62
     7
370
    15
100
AcDbLine
 10
1490.763427800416
 20
1029.534547694491
 30
0.0
 11
1490.758147316508
 21
1028.931927724237
 31
0.0
  0
ARC
  5
819
330
7B0
100
AcDbEntity
  8
0
  6
Continuous
 62
     7
370
    15
100
AcDbCircle
 10
1486.24752594171
 20
1031.732034937947
 30
0.0
 40
2.513711815250973
100
AcDbArc
 50
285.594965436097
 51
306.3637986461898
  0
ELLIPSE
  5
81A
330
7B0
100
AcDbEntity
  8
0
  6
Continuous
 62
     7
370
    15
100
AcDbEllipse
 10
1485.785421872573
 20
1022.091586417839
 30
0.0
 11
1.871824239152658
 21
38.56559360311511
 31
0.0
210
0.0
220
0.0
230
0.9999999999999998
 40
0.0417863067469784
 41
4.913211323909627
 42
4.940183938186653
  0
LWPOLYLINE
  5
81B
330
7B0
100
AcDbEntity
  8
0
  6
Continuous
 62
     7
370
    15
100
AcDbPolyline
 90
       21
 70
   128
 43
0.0
 10
1484.748496531065
 20
1032.734367898629
 10
1485.040704253697
 20
1032.802489147757
 10
1485.346228254379
 20
1032.848148520581
 10
1485.659767948699
 20
1032.870553865389
 10
1485.975883686702
 20
1032.869316468297
 10
1486.289091126244
 20
1032.844457797102
 10
1486.593956381711
 20
1032.796409128839
 10
1486.885190297367
 20
1032.726004067485
 10
1487.157740209753
 20
1032.634464081632
 10
1487.406877607154
 20
1032.523377313033
 10
1487.628280165292
 20
1032.394671023679
 10
1487.818106736023
 20
1032.250578159426
 10
1487.973063988022
 20
1032.093598610262
 10
1488.090463543312
 20
1031.926455839315
 10
1488.168268618365
 20
1031.752049633068
 10
1488.205129360576
 20
1031.57340579249
 10
1488.200406267073
 20
1031.393623637944
 10
1488.154181279555
 20
1031.215822238585
 10
1488.067256362674
 20
1031.043086299127
 10
1487.941139590617
 20
1030.87841264282
 10
1487.778018983293
 20
1030.724658219081
  0
ELLIPSE
  5
81C
330
7B0
100
AcDbEntity
  8
0
  6
Continuous
 62
     7
370
    15
100
AcDbEllipse
 10
1485.785421872573
 20
1022.091586417839
 30
0.0
 11
1.871824239152658
 21
38.56559360311511
 31
0.0
210
0.0
220
0.0
230
0.9999999999999998
 40
0.0417863067469784
 41
1.293230774312684
 42
1.320203388589702
  0
LWPOLYLINE
  5
81D
330
7B0
100
AcDbEntity
  8
0
  6
Continuous
 62
     7
370
    15
100
AcDbPolyline
 90
       21
 70
   128
 43
0.0
 10
1486.868004044551
 20
1030.281219575865
 10
1486.575796321919
 20
1030.213098326736
 10
1486.270272321238
 20
1030.167438953912
 10
1485.956732626918
 20
1030.145033609104
 10
1485.640616888915
 20
1030.146271006197
 10
1485.327409449373
 20
1030.171129677392
 10
1485.022544193905
 20
1030.219178345655
 10
1484.73131027825
 20
1030.289583407009
 10
1484.458760365863
 20
1030.381123392862
 10
1484.209622968463
 20
1030.492210161461
 10
1483.988220410325
 20
1030.620916450815
 10
1483.798393839594
 20
1030.765009315067
 10
1483.643436587595
 20
1030.921988864232
 10
1483.526037032304
 20
1031.089131635178
 10
1483.448231957251
 20
1031.263537841426
 10
1483.411371215041
 20
1031.442181682004
 10
1483.416094308544
 20
1031.621963836549
 10
1483.462319296062
 20
1031.799765235909
 10
1483.549244212943
 20
1031.972501175366
 10
1483.675360985
 20
1032.137174831673
 10
1483.838481592323
 20
1032.290929255413
  0
ELLIPSE
  5
81E
330
7B0
100
AcDbEntity
  8
0
  6
Continuous
 62
     7
370
    15
100
AcDbEllipse
 10
1485.785421872573
 20
1022.091586417839
 30
0.0
 11
-1.77515610727346
 21
36.79251938811372
 31
0.0
210
0.0
220
0.0
230
0.9999999999999998
 40
0.0410827692894621
 41
4.907903704378117
 42
4.934876318655144
  0
LINE
  5
81F
330
7B0
100
AcDbEntity
  8
0
  6
Continuous
 62
     7
370
    15
100
AcDbLine
 10
1484.409991836504
 20
1031.126463702551
 30
0.0
 11
1484.931471392258
 21
1030.780527163902
 31
0.0
  0
LINE
  5
820
330
7B0
100
AcDbEntity
  8
0
  6
Continuous
 62
     7
370
    15
100
AcDbLine
 10
1484.931471392258
 20
1030.780527163902
 30
0.0
 11
1485.613982596314
 21
1031.113106146314
 31
0.0
  0
LINE
  5
821
330
7B0
100
AcDbEntity
  8
0
  6
Continuous
 62
     7
370
    15
100
AcDbLine
 10
1485.613982596314
 20
1031.113106146314
 30
0.0
 11
1486.868004044551
 21
1030.281219575865
 31
0.0
  0
LINE
  5
822
330
7B0
100
AcDbEntity
  8
0
  6
Continuous
 62
     7
370
    15
100
AcDbLine
 10
1483.838481592323
 20
1032.290929255413
 30
0.0
 11
1485.092503040561
 21
1031.459042684963
 31
0.0
  0
LINE
  5
823
330
7B0
100
AcDbEntity
  8
0
  6
Continuous
 62
     7
370
    15
100
AcDbLine
 10
1485.092503040561
 20
1031.459042684963
 30
0.0
 11
1484.409991836504
 21
1031.126463702551
 31
0.0
  0
LINE
  5
824
330
7B0
100
AcDbEntity
  8
0
  6
Continuous
 62
     7
370
    15
100
AcDbLine
 10
1487.737931341646
 20
1029.707821798485
 30
0.0
 11
1486.43291852172
 21
1030.573534773878
 31
0.0
  0
LINE
  5
825
330
7B0
100
AcDbEntity
  8
0
  6
Continuous
 62
     7
370
    15
100
AcDbLine
 10
1485.993427722343
 20
1030.865082015237
 30
0.0
 11
1484.688414902416
 21
1031.730794990631
 31
0.0
  0
LINE
  5
826
330
7B0
100
AcDbEntity
  8
0
  6
Continuous
 62
     7
370
    15
100
AcDbLine
 10
1486.481989227463
 20
1031.103151789408
 30
0.0
 11
1485.993427722343
 21
1030.865082015237
 31
0.0
  0
LINE
  5
827
330
7B0
100
AcDbEntity
  8
0
  6
Continuous
 62
     7
370
    15
100
AcDbLine
 10
1487.778018983293
 20
1030.724658219081
 30
0.0
 11
1486.523997535056
 21
1031.55654478953
 31
0.0
  0
LINE
  5
828
330
7B0
100
AcDbEntity
  8
0
  6
Continuous
 62
     7
370
    15
100
AcDbLine
 10
1486.523997535056
 20
1031.55654478953
 30
0.0
 11
1486.43291852172
 21
1030.573534773878
 31
0.0
  0
LINE
  5
829
330
7B0
100
AcDbEntity
  8
0
  6
Continuous
 62
     7
370
    15
100
AcDbLine
 10
1486.002517979303
 20
1031.902481328179
 30
0.0
 11
1484.748496531065
 21
1032.734367898629
 31
0.0
  0
LINE
  5
82A
330
7B0
100
AcDbEntity
  8
0
  6
Continuous
 62
     7
370
    15
100
AcDbLine
 10
1486.523997535056
 20
1031.55654478953
 30
0.0
 11
1487.206508739112
 21
1031.889123771942
 31
0.0
  0
LINE
  5
82B
330
7B0
100
AcDbEntity
  8
0
  6
Continuous
 62
     7
370
    15
100
AcDbLine
 10
1487.206508739112
 20
1031.889123771942
 30
0.0
 11
1486.685029183359
 21
1032.235060310591
 31
0.0
  0
LINE
  5
82C
330
7B0
100
AcDbEntity
  8
0
  6
Continuous
 62
     7
370
    15
100
AcDbLine
 10
1486.685029183359
 20
1032.235060310591
 30
0.0
 11
1486.002517979303
 21
1031.902481328179
 31
0.0
  0
LINE
  5
82D
330
7B0
100
AcDbEntity
  8
0
  6
Continuous
 62
     7
370
    15
100
AcDbLine
 10
1485.092503040561
 20
1031.459042684963
 30
0.0
 11
1485.142630475539
 21
1030.883422285077
 31
0.0
  0
ARC
  5
82E
330
7B0
100
AcDbEntity
  8
0
  6
Continuous
 62
     7
370
    15
100
AcDbCircle
 10
1484.440638613273
 20
1023.578723347592
 30
0.0
 40
1.208932492630147
100
AcDbArc
 50
232.3451139786553
 51
275.4847470480855
  0
ARC
  5
82F
330
7B0
100
AcDbEntity
  8
0
  6
Continuous
 62
     7
370
    15
100
AcDbCircle
 10
1485.304880966765
 20
1025.301940116065
 30
0.0
 40
3.12299675654363
100
AcDbArc
 50
154.8175528651441
 51
239.1214598915703
  0
LINE
  5
830
330
7B0
100
AcDbEntity
  8
0
  6
Continuous
 62
     7
370
    15
100
AcDbLine
 10
1486.002517979303
 20
1031.902481328179
 30
0.0
 11
1485.993427722343
 21
1030.865082015237
 31
0.0
  0
LINE
  5
831
330
7B0
100
AcDbEntity
  8
0
  6
Continuous
 62
     7
370
    15
100
AcDbLine
 10
1486.685029183359
 20
1032.235060310591
 30
0.0
 11
1486.679748699451
 21
1031.632440340338
 31
0.0
  0
ARC
  5
832
330
7B0
100
AcDbEntity
  8
0
  6
Continuous
 62
     7
370
    15
100
AcDbCircle
 10
1482.169127324653
 20
1034.432547554047
 30
0.0
 40
2.513711815250361
100
AcDbArc
 50
285.594965436097
 51
306.3637986461898
  0
ELLIPSE
  5
833
330
7B0
100
AcDbEntity
  8
0
  6
Continuous
 62
     7
370
    15
100
AcDbEllipse
 10
1481.707023255516
 20
1024.79209903394
 30
0.0
 11
1.871824239152687
 21
38.56559360311507
 31
0.0
210
0.0
220
0.0
230
1.0
 40
0.0417863067469792
 41
4.913211323909627
 42
4.940183938186653
  0
LWPOLYLINE
  5
834
330
7B0
100
AcDbEntity
  8
0
  6
Continuous
 62
     7
370
    15
100
AcDbPolyline
 90
       21
 70
   128
 43
0.0
 10
1480.670097914008
 20
1035.434880514729
 10
1480.96230563664
 20
1035.503001763858
 10
1481.267829637322
 20
1035.548661136682
 10
1481.581369331642
 20
1035.57106648149
 10
1481.897485069645
 20
1035.569829084397
 10
1482.210692509187
 20
1035.544970413202
 10
1482.515557764654
 20
1035.496921744939
 10
1482.806791680309
 20
1035.426516683585
 10
1483.079341592696
 20
1035.334976697732
 10
1483.328478990097
 20
1035.223889929133
 10
1483.549881548235
 20
1035.095183639779
 10
1483.739708118966
 20
1034.951090775527
 10
1483.894665370964
 20
1034.794111226362
 10
1484.012064926255
 20
1034.626968455416
 10
1484.089870001308
 20
1034.452562249168
 10
1484.126730743519
 20
1034.27391840859
 10
1484.122007650015
 20
1034.094136254045
 10
1484.075782662498
 20
1033.916334854686
 10
1483.988857745617
 20
1033.743598915228
 10
1483.86274097356
 20
1033.578925258921
 10
1483.699620366236
 20
1033.425170835181
  0
ELLIPSE
  5
835
330
7B0
100
AcDbEntity
  8
0
  6
Continuous
 62
     7
370
    15
100
AcDbEllipse
 10
1481.707023255516
 20
1024.79209903394
 30
0.0
 11
1.871824239152687
 21
38.56559360311507
 31
0.0
210
0.0
220
0.0
230
1.0
 40
0.0417863067469792
 41
1.293230774312677
 42
1.320203388589695
  0
LWPOLYLINE
  5
836
330
7B0
100
AcDbEntity
  8
0
  6
Continuous
 62
     7
370
    15
100
AcDbPolyline
 90
       21
 70
   128
 43
0.0
 10
1482.789605427494
 20
1032.981732191965
 10
1482.497397704862
 20
1032.913610942837
 10
1482.19187370418
 20
1032.867951570013
 10
1481.87833400986
 20
1032.845546225205
 10
1481.562218271857
 20
1032.846783622297
 10
1481.249010832315
 20
1032.871642293493
 10
1480.944145576848
 20
1032.919690961755
 10
1480.652911661193
 20
1032.990096023109
 10
1480.380361748806
 20
1033.081636008962
 10
1480.131224351406
 20
1033.192722777562
 10
1479.909821793267
 20
1033.321429066915
 10
1479.719995222537
 20
1033.465521931168
 10
1479.565037970538
 20
1033.622501480333
 10
1479.447638415247
 20
1033.789644251279
 10
1479.369833340194
 20
1033.964050457527
 10
1479.332972597983
 20
1034.142694298105
 10
1479.337695691487
 20
1034.32247645265
 10
1479.383920679004
 20
1034.500277852009
 10
1479.470845595885
 20
1034.673013791467
 10
1479.596962367943
 20
1034.837687447774
 10
1479.760082975266
 20
1034.991441871514
  0
ELLIPSE
  5
837
330
7B0
100
AcDbEntity
  8
0
  6
Continuous
 62
     7
370
    15
100
AcDbEllipse
 10
1481.707023255516
 20
1024.79209903394
 30
0.0
 11
-1.775156107273431
 21
36.79251938811372
 31
0.0
210
0.0
220
0.0
230
1.0
 40
0.041082769289462
 41
4.907903704378115
 42
4.93487631865514
  0
LINE
  5
838
330
7B0
100
AcDbEntity
  8
0
  6
Continuous
 62
     7
370
    15
100
AcDbLine
 10
1480.331593219447
 20
1033.826976318652
 30
0.0
 11
1480.8530727752
 21
1033.481039780003
 31
0.0
  0
LINE
  5
839
330
7B0
100
AcDbEntity
  8
0
  6
Continuous
 62
     7
370
    15
100
AcDbLine
 10
1480.8530727752
 20
1033.481039780003
 30
0.0
 11
1481.535583979257
 21
1033.813618762415
 31
0.0
  0
LINE
  5
83A
330
7B0
100
AcDbEntity
  8
0
  6
Continuous
 62
     7
370
    15
100
AcDbLine
 10
1481.535583979257
 20
1033.813618762415
 30
0.0
 11
1482.789605427494
 21
1032.981732191965
 31
0.0
  0
LINE
  5
83B
330
7B0
100
AcDbEntity
  8
0
  6
Continuous
 62
     7
370
    15
100
AcDbLine
 10
1479.760082975266
 20
1034.991441871514
 30
0.0
 11
1481.014104423504
 21
1034.159555301064
 31
0.0
  0
LINE
  5
83C
330
7B0
100
AcDbEntity
  8
0
  6
Continuous
 62
     7
370
    15
100
AcDbLine
 10
1481.014104423504
 20
1034.159555301064
 30
0.0
 11
1480.331593219447
 21
1033.826976318652
 31
0.0
  0
LINE
  5
83D
330
7B0
100
AcDbEntity
  8
0
  6
Continuous
 62
     7
370
    15
100
AcDbLine
 10
1483.659532724589
 20
1032.408334414586
 30
0.0
 11
1482.354519904663
 21
1033.274047389979
 31
0.0
  0
LINE
  5
83E
330
7B0
100
AcDbEntity
  8
0
  6
Continuous
 62
     7
370
    15
100
AcDbLine
 10
1481.915029105286
 20
1033.565594631338
 30
0.0
 11
1480.610016285359
 21
1034.431307606731
 31
0.0
  0
LINE
  5
83F
330
7B0
100
AcDbEntity
  8
0
  6
Continuous
 62
     7
370
    15
100
AcDbLine
 10
1482.403590610406
 20
1033.803664405508
 30
0.0
 11
1481.915029105286
 21
1033.565594631338
 31
0.0
  0
LINE
  5
840
330
7B0
100
AcDbEntity
  8
0
  6
Continuous
 62
     7
370
    15
100
AcDbLine
 10
1483.699620366236
 20
1033.425170835181
 30
0.0
 11
1482.445598917999
 21
1034.257057405631
 31
0.0
  0
LINE
  5
841
330
7B0
100
AcDbEntity
  8
0
  6
Continuous
 62
     7
370
    15
100
AcDbLine
 10
1482.445598917999
 20
1034.257057405631
 30
0.0
 11
1482.354519904663
 21
1033.274047389979
 31
0.0
  0
LINE
  5
842
330
7B0
100
AcDbEntity
  8
0
  6
Continuous
 62
     7
370
    15
100
AcDbLine
 10
1481.924119362246
 20
1034.60299394428
 30
0.0
 11
1480.670097914008
 21
1035.434880514729
 31
0.0
  0
LINE
  5
843
330
7B0
100
AcDbEntity
  8
0
  6
Continuous
 62
     7
370
    15
100
AcDbLine
 10
1482.445598917999
 20
1034.257057405631
 30
0.0
 11
1483.128110122055
 21
1034.589636388043
 31
0.0
  0
LINE
  5
844
330
7B0
100
AcDbEntity
  8
0
  6
Continuous
 62
     7
370
    15
100
AcDbLine
 10
1483.128110122055
 20
1034.589636388043
 30
0.0
 11
1482.606630566302
 21
1034.935572926692
 31
0.0
  0
LINE
  5
845
330
7B0
100
AcDbEntity
  8
0
  6
Continuous
 62
     7
370
    15
100
AcDbLine
 10
1482.606630566302
 20
1034.935572926692
 30
0.0
 11
1481.924119362246
 21
1034.60299394428
 31
0.0
  0
LINE
  5
846
330
7B0
100
AcDbEntity
  8
0
  6
Continuous
 62
     7
370
    15
100
AcDbLine
 10
1481.014104423504
 20
1034.159555301064
 30
0.0
 11
1481.064231858481
 21
1033.583934901178
 31
0.0
  0
ARC
  5
847
330
7B0
100
AcDbEntity
  8
0
  6
Continuous
 62
     7
370
    15
100
AcDbCircle
 10
1480.362239996216
 20
1026.279235963693
 30
0.0
 40
1.208932492630314
100
AcDbArc
 50
232.3451139786553
 51
275.4847470480726
  0
ARC
  5
848
330
7B0
100
AcDbEntity
  8
0
  6
Continuous
 62
     7
370
    15
100
AcDbCircle
 10
1481.226482349708
 20
1028.002452732166
 30
0.0
 40
3.122996756543713
100
AcDbArc
 50
154.81755286515
 51
239.1214598915703
  0
LINE
  5
849
330
7B0
100
AcDbEntity
  8
0
  6
Continuous
 62
     7
370
    15
100
AcDbLine
 10
1481.924119362246
 20
1034.60299394428
 30
0.0
 11
1481.915029105286
 21
1033.565594631338
 31
0.0
  0
LINE
  5
84A
330
7B0
100
AcDbEntity
  8
0
  6
Continuous
 62
     7
370
    15
100
AcDbLine
 10
1482.606630566302
 20
1034.935572926692
 30
0.0
 11
1482.601350082393
 21
1034.332952956438
 31
0.0
  0
ARC
  5
84B
330
7B0
100
AcDbEntity
  8
0
  6
Continuous
 62
     7
370
    15
100
AcDbCircle
 10
1478.090728707595
 20
1037.133060170147
 30
0.0
 40
2.51371181525024
100
AcDbArc
 50
285.594965436097
 51
306.3637986462003
  0
ELLIPSE
  5
84C
330
7B0
100
AcDbEntity
  8
0
  6
Continuous
 62
     7
370
    15
100
AcDbEllipse
 10
1477.628624638458
 20
1027.49261165004
 30
0.0
 11
1.871824239152687
 21
38.56559360311511
 31
0.0
210
0.0
220
0.0
230
1.0
 40
0.0417863067469792
 41
4.913211323909628
 42
4.940183938186652
  0
LWPOLYLINE
  5
84D
330
7B0
100
AcDbEntity
  8
0
  6
Continuous
 62
     7
370
    15
100
AcDbPolyline
 90
       21
 70
   128
 43
0.0
 10
1476.591699296951
 20
1038.13539313083
 10
1476.883907019583
 20
1038.203514379959
 10
1477.189431020265
 20
1038.249173752782
 10
1477.502970714584
 20
1038.271579097591
 10
1477.819086452587
 20
1038.270341700498
 10
1478.132293892129
 20
1038.245483029303
 10
1478.437159147597
 20
1038.19743436104
 10
1478.728393063252
 20
1038.127029299686
 10
1479.000942975639
 20
1038.035489313833
 10
1479.25008037304
 20
1037.924402545234
 10
1479.471482931178
 20
1037.79569625588
 10
1479.661309501908
 20
1037.651603391627
 10
1479.816266753907
 20
1037.494623842463
 10
1479.933666309198
 20
1037.327481071517
 10
1480.011471384251
 20
1037.153074865269
 10
1480.048332126461
 20
1036.974431024691
 10
1480.043609032958
 20
1036.794648870146
 10
1479.997384045441
 20
1036.616847470786
 10
1479.910459128559
 20
1036.444111531329
 10
1479.784342356502
 20
1036.279437875021
 10
1479.621221749179
 20
1036.125683451282
  0
ELLIPSE
  5
84E
330
7B0
100
AcDbEntity
  8
0
  6
Continuous
 62
     7
370
    15
100
AcDbEllipse
 10
1477.628624638458
 20
1027.49261165004
 30
0.0
 11
1.871824239152687
 21
38.56559360311511
 31
0.0
210
0.0
220
0.0
230
1.0
 40
0.0417863067469792
 41
1.293230774312672
 42
1.320203388589695
  0
LWPOLYLINE
  5
84F
330
7B0
100
AcDbEntity
  8
0
  6
Continuous
 62
     7
370
    15
100
AcDbPolyline
 90
       21
 70
   128
 43
0.0
 10
1478.711206810437
 20
1035.682244808066
 10
1478.418999087805
 20
1035.614123558938
 10
1478.113475087123
 20
1035.568464186114
 10
1477.799935392803
 20
1035.546058841305
 10
1477.4838196548
 20
1035.547296238398
 10
1477.170612215258
 20
1035.572154909593
 10
1476.865746959791
 20
1035.620203577856
 10
1476.574513044136
 20
1035.69060863921
 10
1476.301963131749
 20
1035.782148625063
 10
1476.052825734348
 20
1035.893235393662
 10
1475.83142317621
 20
1036.021941683016
 10
1475.64159660548
 20
1036.166034547269
 10
1475.486639353481
 20
1036.323014096433
 10
1475.36923979819
 20
1036.490156867379
 10
1475.291434723137
 20
1036.664563073627
 10
1475.254573980926
 20
1036.843206914205
 10
1475.25929707443
 20
1037.02298906875
 10
1475.305522061947
 20
1037.20079046811
 10
1475.392446978828
 20
1037.373526407567
 10
1475.518563750885
 20
1037.538200063875
 10
1475.681684358209
 20
1037.691954487614
  0
ELLIPSE
  5
850
330
7B0
100
AcDbEntity
  8
0
  6
Continuous
 62
     7
370
    15
100
AcDbEllipse
 10
1477.628624638458
 20
1027.49261165004
 30
0.0
 11
-1.775156107273431
 21
36.79251938811372
 31
0.0
210
0.0
220
0.0
230
1.0
 40
0.0410827692894621
 41
4.907903704378115
 42
4.93487631865514
  0
LINE
  5
851
330
7B0
100
AcDbEntity
  8
0
  6
Continuous
 62
     7
370
    15
100
AcDbLine
 10
1476.25319460239
 20
1036.527488934752
 30
0.0
 11
1476.774674158143
 21
1036.181552396103
 31
0.0
  0
LINE
  5
852
330
7B0
100
AcDbEntity
  8
0
  6
Continuous
 62
     7
370
    15
100
AcDbLine
 10
1476.774674158143
 20
1036.181552396103
 30
0.0
 11
1477.457185362199
 21
1036.514131378516
 31
0.0
  0
LINE
  5
853
330
7B0
100
AcDbEntity
  8
0
  6
Continuous
 62
     7
370
    15
100
AcDbLine
 10
1477.457185362199
 20
1036.514131378516
 30
0.0
 11
1478.711206810437
 21
1035.682244808066
 31
0.0
  0
LINE
  5
854
330
7B0
100
AcDbEntity
  8
0
  6
Continuous
 62
     7
370
    15
100
AcDbLine
 10
1475.681684358209
 20
1037.691954487614
 30
0.0
 11
1476.935705806446
 21
1036.860067917165
 31
0.0
  0
LINE
  5
855
330
7B0
100
AcDbEntity
  8
0
  6
Continuous
 62
     7
370
    15
100
AcDbLine
 10
1476.935705806446
 20
1036.860067917165
 30
0.0
 11
1476.25319460239
 21
1036.527488934752
 31
0.0
  0
LINE
  5
856
330
7B0
100
AcDbEntity
  8
0
  6
Continuous
 62
     7
370
    15
100
AcDbLine
 10
1479.581134107532
 20
1035.108847030686
 30
0.0
 11
1478.276121287606
 21
1035.97456000608
 31
0.0
  0
LINE
  5
857
330
7B0
100
AcDbEntity
  8
0
  6
Continuous
 62
     7
370
    15
100
AcDbLine
 10
1477.836630488228
 20
1036.266107247438
 30
0.0
 11
1476.531617668302
 21
1037.131820222832
 31
0.0
  0
LINE
  5
858
330
7B0
100
AcDbEntity
  8
0
  6
Continuous
 62
     7
370
    15
100
AcDbLine
 10
1478.325191993348
 20
1036.504177021609
 30
0.0
 11
1477.836630488228
 21
1036.266107247438
 31
0.0
  0
LINE
  5
859
330
7B0
100
AcDbEntity
  8
0
  6
Continuous
 62
     7
370
    15
100
AcDbLine
 10
1479.621221749179
 20
1036.125683451282
 30
0.0
 11
1478.367200300941
 21
1036.957570021732
 31
0.0
  0
LINE
  5
85A
330
7B0
100
AcDbEntity
  8
0
  6
Continuous
 62
     7
370
    15
100
AcDbLine
 10
1478.367200300941
 20
1036.957570021732
 30
0.0
 11
1478.276121287606
 21
1035.97456000608
 31
0.0
  0
LINE
  5
85B
330
7B0
100
AcDbEntity
  8
0
  6
Continuous
 62
     7
370
    15
100
AcDbLine
 10
1477.845720745188
 20
1037.303506560381
 30
0.0
 11
1476.591699296951
 21
1038.13539313083
 31
0.0
  0
LINE
  5
85C
330
7B0
100
AcDbEntity
  8
0
  6
Continuous
 62
     7
370
    15
100
AcDbLine
 10
1478.367200300941
 20
1036.957570021732
 30
0.0
 11
1479.049711504998
 21
1037.290149004144
 31
0.0
  0
LINE
  5
85D
330
7B0
100
AcDbEntity
  8
0
  6
Continuous
 62
     7
370
    15
100
AcDbLine
 10
1479.049711504998
 20
1037.290149004144
 30
0.0
 11
1478.528231949245
 21
1037.636085542793
 31
0.0
  0
LINE
  5
85E
330
7B0
100
AcDbEntity
  8
0
  6
Continuous
 62
     7
370
    15
100
AcDbLine
 10
1478.528231949245
 20
1037.636085542793
 30
0.0
 11
1477.845720745188
 21
1037.303506560381
 31
0.0
  0
LINE
  5
85F
330
7B0
100
AcDbEntity
  8
0
  6
Continuous
 62
     7
370
    15
100
AcDbLine
 10
1476.935705806446
 20
1036.860067917165
 30
0.0
 11
1476.985833241424
 21
1036.284447517278
 31
0.0
  0
ARC
  5
860
330
7B0
100
AcDbEntity
  8
0
  6
Continuous
 62
     7
370
    15
100
AcDbCircle
 10
1476.283841379158
 20
1028.979748579793
 30
0.0
 40
1.208932492630296
100
AcDbArc
 50
232.3451139786553
 51
275.4847470480855
  0
ARC
  5
861
330
7B0
100
AcDbEntity
  8
0
  6
Continuous
 62
     7
370
    15
100
AcDbCircle
 10
1477.14808373265
 20
1030.702965348266
 30
0.0
 40
3.122996756543604
100
AcDbArc
 50
154.8175528651441
 51
239.1214598915703
  0
LINE
  5
862
330
7B0
100
AcDbEntity
  8
0
  6
Continuous
 62
     7
370
    15
100
AcDbLine
 10
1477.845720745188
 20
1037.303506560381
 30
0.0
 11
1477.836630488228
 21
1036.266107247438
 31
0.0
  0
LINE
  5
863
330
7B0
100
AcDbEntity
  8
0
  6
Continuous
 62
     7
370
    15
100
AcDbLine
 10
1478.528231949245
 20
1037.636085542793
 30
0.0
 11
1478.522951465336
 21
1037.033465572539
 31
0.0
  0
ARC
  5
864
330
7B0
100
AcDbEntity
  8
0
  6
Continuous
 62
     7
370
    15
100
AcDbCircle
 10
1470.031865222528
 20
1043.150862005969
 30
0.0
 40
3.044791574873513
100
AcDbArc
 50
287.4213123536403
 51
304.5374517286614
  0
ELLIPSE
  5
865
330
7B0
100
AcDbEntity
  8
0
  6
Continuous
 62
     7
370
    15
100
AcDbEllipse
 10
1469.472684814703
 20
1033.247299351238
 30
0.0
 11
2.261787622309498
 21
46.60009227043078
 31
0.0
210
0.0
220
0.0
230
0.9999999999999998
 40
0.041786306746979
 41
4.87378982245333
 42
4.895905489636311
  0
LWPOLYLINE
  5
866
330
7B0
100
AcDbEntity
  8
0
  6
Continuous
 62
     7
370
    15
100
AcDbPolyline
 90
       24
 70
   128
 43
0.0
 10
1468.101059433621
 20
1044.112112495396
 10
1468.411364038393
 20
1044.195212892042
 10
1468.736866807831
 20
1044.256841037864
 10
1469.073004675588
 20
1044.296132997608
 10
1469.415065487007
 20
1044.312537956239
 10
1469.758254056536
 20
1044.305825940552
 10
1470.097759389129
 20
1044.27609104306
 10
1470.42882212326
 20
1044.223750102949
 10
1470.746801250122
 20
1044.149536862617
 10
1471.047239173685
 20
1044.05449168169
 10
1471.325924199592
 20
1043.939946952721
 10
1471.578949576865
 20
1043.807508423025
 10
1471.802768264766
 20
1043.659032684478
 10
1471.99424265705
 20
1043.496601146855
 10
1472.150688566554
 20
1043.322490859544
 10
1472.269912853522
 20
1043.139142590697
 10
1472.350244170172
 20
1042.949126611271
 10
1472.390556390519
 20
1042.755106663642
 10
1472.390284396985
 20
1042.559802619888
 10
1472.349432002518
 20
1042.365952353208
 10
1472.268571897133
 20
1042.176273357003
 10
1472.148837619651
 20
1041.993424649645
 10
1471.991907667166
 20
1041.81996949898
 10
1471.799981964997
 20
1041.658339489113
  0
ELLIPSE
  5
867
330
7B0
100
AcDbEntity
  8
0
  6
Continuous
 62
     7
370
    15
100
AcDbEllipse
 10
1469.472684814703
 20
1033.247299351238
 30
0.0
 11
2.261787622309498
 21
46.60009227043078
 31
0.0
210
0.0
220
0.0
230
0.9999999999999998
 40
0.041786306746979
 41
1.337509222863011
 42
1.359624890045993
  0
LWPOLYLINE
  5
868
330
7B0
100
AcDbEntity
  8
0
  6
Continuous
 62
     7
370
    15
100
AcDbPolyline
 90
       24
 70
   128
 43
0.0
 10
1470.889967026255
 20
1041.214900845896
 10
1470.579662421483
 20
1041.13180044925
 10
1470.254159652045
 20
1041.070172303427
 10
1469.918021784288
 20
1041.030880343684
 10
1469.575960972869
 20
1041.014475385053
 10
1469.23277240334
 20
1041.02118740074
 10
1468.893267070747
 20
1041.050922298232
 10
1468.562204336616
 20
1041.103263238343
 10
1468.244225209754
 20
1041.177476478674
 10
1467.943787286191
 20
1041.272521659602
 10
1467.665102260284
 20
1041.38706638857
 10
1467.412076883011
 20
1041.519504918267
 10
1467.18825819511
 20
1041.667980656813
 10
1466.996783802826
 20
1041.830412194437
 10
1466.840337893322
 20
1042.004522481748
 10
1466.721113606354
 20
1042.187870750595
 10
1466.640782289704
 20
1042.377886730021
 10
1466.600470069357
 20
1042.571906677649
 10
1466.600742062891
 20
1042.767210721404
 10
1466.641594457358
 20
1042.961060988084
 10
1466.722454562743
 20
1043.150739984288
 10
1466.842188840225
 20
1043.333588691647
 10
1466.99911879271
 20
1043.507043842312
 10
1467.191044494879
 20
1043.668673852179
  0
ELLIPSE
  5
869
330
7B0
100
AcDbEntity
  8
0
  6
Continuous
 62
     7
370
    15
100
AcDbEllipse
 10
1469.472684814703
 20
1033.247299351238
 30
0.0
 11
-2.144980296288736
 21
44.45762759397078
 31
0.0
210
0.0
220
0.0
230
1.0
 40
0.0410827692894618
 41
4.868482202921819
 42
4.890597870104806
  0
LINE
  5
86A
330
7B0
100
AcDbEntity
  8
0
  6
Continuous
 62
     7
370
    15
100
AcDbLine
 10
1467.652896943023
 20
1042.140652601941
 30
0.0
 11
1468.304746387714
 21
1041.70823192863
 31
0.0
  0
LINE
  5
86B
330
7B0
100
AcDbEntity
  8
0
  6
Continuous
 62
     7
370
    15
100
AcDbLine
 10
1468.304746387714
 20
1041.70823192863
 30
0.0
 11
1469.366430482913
 21
1042.225577012382
 31
0.0
  0
LINE
  5
86C
330
7B0
100
AcDbEntity
  8
0
  6
Continuous
 62
     7
370
    15
100
AcDbLine
 10
1469.366430482913
 20
1042.225577012382
 30
0.0
 11
1470.889967026255
 21
1041.214900845896
 31
0.0
  0
LINE
  5
86D
330
7B0
100
AcDbEntity
  8
0
  6
Continuous
 62
     7
370
    15
100
AcDbLine
 10
1467.191044494879
 20
1043.668673852179
 30
0.0
 11
1468.714581038222
 21
1042.657997685694
 31
0.0
  0
LINE
  5
86E
330
7B0
100
AcDbEntity
  8
0
  6
Continuous
 62
     7
370
    15
100
AcDbLine
 10
1468.714581038222
 20
1042.657997685694
 30
0.0
 11
1467.652896943023
 21
1042.140652601941
 31
0.0
  0
LINE
  5
86F
330
7B0
100
AcDbEntity
  8
0
  6
Continuous
 62
     7
370
    15
100
AcDbLine
 10
1471.758094006148
 20
1040.642697354073
 30
0.0
 11
1470.185366408319
 21
1041.686005639946
 31
0.0
  0
LINE
  5
870
330
7B0
100
AcDbEntity
  8
0
  6
Continuous
 62
     7
370
    15
100
AcDbLine
 10
1469.615505720003
 20
1042.064037015967
 30
0.0
 11
1468.042778122175
 21
1043.107345301841
 31
0.0
  0
LINE
  5
871
330
7B0
100
AcDbEntity
  8
0
  6
Continuous
 62
     7
370
    15
100
AcDbLine
 10
1470.248993374322
 20
1042.37272744946
 30
0.0
 11
1469.615505720003
 21
1042.064037015967
 31
0.0
  0
LINE
  5
872
330
7B0
100
AcDbEntity
  8
0
  6
Continuous
 62
     7
370
    15
100
AcDbLine
 10
1471.799981964997
 20
1041.658339489113
 30
0.0
 11
1470.276445421655
 21
1042.669015655598
 31
0.0
  0
LINE
  5
873
330
7B0
100
AcDbEntity
  8
0
  6
Continuous
 62
     7
370
    15
100
AcDbLine
 10
1470.276445421655
 20
1042.669015655598
 30
0.0
 11
1470.185366408319
 21
1041.686005639946
 31
0.0
  0
LINE
  5
874
330
7B0
100
AcDbEntity
  8
0
  6
Continuous
 62
     7
370
    15
100
AcDbLine
 10
1469.624595976963
 20
1043.101436328909
 30
0.0
 11
1468.101059433621
 21
1044.112112495396
 31
0.0
  0
LINE
  5
875
330
7B0
100
AcDbEntity
  8
0
  6
Continuous
 62
     7
370
    15
100
AcDbLine
 10
1470.276445421655
 20
1042.669015655598
 30
0.0
 11
1471.338129516853
 21
1043.18636073935
 31
0.0
  0
LINE
  5
876
330
7B0
100
AcDbEntity
  8
0
  6
Continuous
 62
     7
370
    15
100
AcDbLine
 10
1471.338129516853
 20
1043.18636073935
 30
0.0
 11
1470.686280072162
 21
1043.618781412662
 31
0.0
  0
LINE
  5
877
330
7B0
100
AcDbEntity
  8
0
  6
Continuous
 62
     7
370
    15
100
AcDbLine
 10
1470.686280072162
 20
1043.618781412662
 30
0.0
 11
1469.624595976963
 21
1043.101436328909
 31
0.0
  0
LINE
  5
878
330
7B0
100
AcDbEntity
  8
0
  6
Continuous
 62
     7
370
    15
100
AcDbLine
 10
1468.714581038222
 20
1042.657997685694
 30
0.0
 11
1468.777240331944
 21
1041.938472185836
 31
0.0
  0
ARC
  5
879
330
7B0
100
AcDbEntity
  8
0
  6
Continuous
 62
     7
370
    15
100
AcDbCircle
 10
1468.231414333122
 20
1034.205349281049
 30
0.0
 40
1.3615893070925
100
AcDbArc
 50
232.0637282969063
 51
277.3027230102958
  0
LWPOLYLINE
  5
87A
330
7B0
100
AcDbEntity
  8
0
  6
Continuous
 62
     7
370
    15
100
AcDbPolyline
 90
       21
 70
   128
 43
0.0
 10
1466.016264694829
 20
1037.746762096799
 10
1466.00980016824
 20
1037.741080339
 10
1465.885322669661
 20
1037.605423148028
 10
1465.782105304127
 20
1037.43871211136
 10
1465.701597017196
 20
1037.243287486518
 10
1465.644927968739
 20
1037.021892606857
 10
1465.612893667977
 20
1036.777635371184
 10
1465.605943806273
 20
1036.513944615671
 10
1465.624175944449
 20
1036.234521980506
 10
1465.667334143254
 20
1035.943289946985
 10
1465.734812556177
 20
1035.644336774472
 10
1465.825663934217
 20
1035.341859110194
 10
1465.938612923175
 20
1035.040103077518
 10
1466.072073966833
 20
1034.743304669687
 10
1466.224173564688
 20
1034.455630285756
 10
1466.392776571793
 20
1034.181118243485
 10
1466.57551617151
 20
1033.923622090209
 10
1466.76982710043
 20
1033.686756507483
 10
1466.972981659044
 20
1033.473846568873
 10
1467.182128002672
 20
1033.287881063211
 10
1467.394330175102
 20
1033.131470538556
  0
ELLIPSE
  5
87B
330
7B0
100
AcDbEntity
  8
0
  6
Continuous
 62
     7
370
    15
100
AcDbEllipse
 10
1465.394286197645
 20
1035.947811967339
 30
0.0
 11
2.261787622309498
 21
46.60009227043078
 31
0.0
210
0.0
220
0.0
230
0.9999999999999998
 40
0.041786306746979
 41
4.87378982245333
 42
4.895905489636311
  0
LWPOLYLINE
  5
87C
330
7B0
100
AcDbEntity
  8
0
  6
Continuous
 62
     7
370
    15
100
AcDbPolyline
 90
       24
 70
   128
 43
0.0
 10
1464.022660816564
 20
1046.812625111496
 10
1464.332965421336
 20
1046.895725508143
 10
1464.658468190773
 20
1046.957353653965
 10
1464.994606058531
 20
1046.996645613709
 10
1465.33666686995
 20
1047.013050572339
 10
1465.679855439479
 20
1047.006338556653
 10
1466.019360772072
 20
1046.97660365916
 10
1466.350423506203
 20
1046.924262719049
 10
1466.668402633065
 20
1046.850049478718
 10
1466.968840556628
 20
1046.75500429779
 10
1467.247525582535
 20
1046.640459568822
 10
1467.500550959807
 20
1046.508021039126
 10
1467.724369647709
 20
1046.359545300579
 10
1467.915844039993
 20
1046.197113762955
 10
1468.072289949497
 20
1046.023003475645
 10
1468.191514236465
 20
1045.839655206798
 10
1468.271845553115
 20
1045.649639227371
 10
1468.312157773462
 20
1045.455619279743
 10
1468.311885779928
 20
1045.260315235989
 10
1468.27103338546
 20
1045.066464969309
 10
1468.190173280075
 20
1044.876785973104
 10
1468.070439002594
 20
1044.693937265745
 10
1467.913509050108
 20
1044.52048211508
 10
1467.72158334794
 20
1044.358852105213
  0
ELLIPSE
  5
87D
330
7B0
100
AcDbEntity
  8
0
  6
Continuous
 62
     7
370
    15
100
AcDbEllipse
 10
1465.394286197645
 20
1035.947811967339
 30
0.0
 11
2.261787622309498
 21
46.60009227043078
 31
0.0
210
0.0
220
0.0
230
0.9999999999999998
 40
0.041786306746979
 41
1.337509222863011
 42
1.359624890045993
  0
LWPOLYLINE
  5
87E
330
7B0
100
AcDbEntity
  8
0
  6
Continuous
 62
     7
370
    15
100
AcDbPolyline
 90
       24
 70
   128
 43
0.0
 10
1466.811568409198
 20
1043.915413461997
 10
1466.501263804426
 20
1043.83231306535
 10
1466.175761034988
 20
1043.770684919528
 10
1465.839623167231
 20
1043.731392959784
 10
1465.497562355812
 20
1043.714988001154
 10
1465.154373786283
 20
1043.721700016841
 10
1464.81486845369
 20
1043.751434914333
 10
1464.483805719559
 20
1043.803775854443
 10
1464.165826592697
 20
1043.877989094775
 10
1463.865388669133
 20
1043.973034275702
 10
1463.586703643227
 20
1044.087579004671
 10
1463.333678265954
 20
1044.220017534367
 10
1463.109859578053
 20
1044.368493272914
 10
1462.918385185769
 20
1044.530924810538
 10
1462.761939276265
 20
1044.705035097848
 10
1462.642714989297
 20
1044.888383366695
 10
1462.562383672646
 20
1045.078399346122
 10
1462.5220714523
 20
1045.27241929375
 10
1462.522343445834
 20
1045.467723337504
 10
1462.563195840301
 20
1045.661573604184
 10
1462.644055945686
 20
1045.851252600389
 10
1462.763790223168
 20
1046.034101307748
 10
1462.920720175653
 20
1046.207556458413
 10
1463.112645877822
 20
1046.36918646828
  0
ELLIPSE
  5
87F
330
7B0
100
AcDbEntity
  8
0
  6
Continuous
 62
     7
370
    15
100
AcDbEllipse
 10
1465.394286197645
 20
1035.947811967339
 30
0.0
 11
-2.144980296288736
 21
44.45762759397078
 31
0.0
210
0.0
220
0.0
230
1.0
 40
0.0410827692894618
 41
4.877354961091372
 42
4.890597870104803
  0
LINE
  5
880
330
7B0
100
AcDbEntity
  8
0
  6
Continuous
 62
     7
370
    15
100
AcDbLine
 10
1469.624595976963
 20
1043.101436328909
 30
0.0
 11
1469.615505720003
 21
1042.064037015967
 31
0.0
  0
LINE
  5
881
330
7B0
100
AcDbEntity
  8
0
  6
Continuous
 62
     7
370
    15
100
AcDbLine
 10
1470.686280072162
 20
1043.618781412662
 30
0.0
 11
1470.679679467276
 21
1042.865506449844
 31
0.0
  0
LINE
  5
882
330
7B0
100
AcDbEntity
  8
0
  6
Continuous
 62
     7
370
    15
100
AcDbLine
 10
1463.574498325965
 20
1044.841165218042
 30
0.0
 11
1464.226347770656
 21
1044.408744544731
 31
0.0
  0
LINE
  5
883
330
7B0
100
AcDbEntity
  8
0
  6
Continuous
 62
     7
370
    15
100
AcDbLine
 10
1464.226347770656
 20
1044.408744544731
 30
0.0
 11
1465.288031865856
 21
1044.926089628483
 31
0.0
  0
LINE
  5
884
330
7B0
100
AcDbEntity
  8
0
  6
Continuous
 62
     7
370
    15
100
AcDbLine
 10
1465.288031865856
 20
1044.926089628483
 30
0.0
 11
1466.811568409198
 21
1043.915413461997
 31
0.0
  0
LINE
  5
885
330
7B0
100
AcDbEntity
  8
0
  6
Continuous
 62
     7
370
    15
100
AcDbLine
 10
1463.112645877822
 20
1046.36918646828
 30
0.0
 11
1464.636182421164
 21
1045.358510301794
 31
0.0
  0
LINE
  5
886
330
7B0
100
AcDbEntity
  8
0
  6
Continuous
 62
     7
370
    15
100
AcDbLine
 10
1464.636182421164
 20
1045.358510301794
 30
0.0
 11
1463.574498325965
 21
1044.841165218042
 31
0.0
  0
LINE
  5
887
330
7B0
100
AcDbEntity
  8
0
  6
Continuous
 62
     7
370
    15
100
AcDbLine
 10
1467.190116747842
 20
1043.667984237317
 30
0.0
 11
1466.106967791262
 21
1044.386518256047
 31
0.0
  0
LINE
  5
888
330
7B0
100
AcDbEntity
  8
0
  6
Continuous
 62
     7
370
    15
100
AcDbLine
 10
1465.537107102946
 20
1044.764549632068
 30
0.0
 11
1463.964379505117
 21
1045.807857917941
 31
0.0
  0
LINE
  5
889
330
7B0
100
AcDbEntity
  8
0
  6
Continuous
 62
     7
370
    15
100
AcDbLine
 10
1466.170594757265
 20
1045.073240065561
 30
0.0
 11
1465.537107102946
 21
1044.764549632068
 31
0.0
  0
LINE
  5
88A
330
7B0
100
AcDbEntity
  8
0
  6
Continuous
 62
     7
370
    15
100
AcDbLine
 10
1467.72158334794
 20
1044.358852105213
 30
0.0
 11
1466.198046804597
 21
1045.369528271699
 31
0.0
  0
LINE
  5
88B
330
7B0
100
AcDbEntity
  8
0
  6
Continuous
 62
     7
370
    15
100
AcDbLine
 10
1466.198046804597
 20
1045.369528271699
 30
0.0
 11
1466.106967791262
 21
1044.386518256047
 31
0.0
  0
LINE
  5
88C
330
7B0
100
AcDbEntity
  8
0
  6
Continuous
 62
     7
370
    15
100
AcDbLine
 10
1465.546197359906
 20
1045.80194894501
 30
0.0
 11
1464.022660816564
 21
1046.812625111496
 31
0.0
  0
LINE
  5
88D
330
7B0
100
AcDbEntity
  8
0
  6
Continuous
 62
     7
370
    15
100
AcDbLine
 10
1466.198046804597
 20
1045.369528271699
 30
0.0
 11
1467.259730899796
 21
1045.886873355451
 31
0.0
  0
LINE
  5
88E
330
7B0
100
AcDbEntity
  8
0
  6
Continuous
 62
     7
370
    15
100
AcDbLine
 10
1467.259730899796
 20
1045.886873355451
 30
0.0
 11
1466.607881455105
 21
1046.319294028762
 31
0.0
  0
LINE
  5
88F
330
7B0
100
AcDbEntity
  8
0
  6
Continuous
 62
     7
370
    15
100
AcDbLine
 10
1466.607881455105
 20
1046.319294028762
 30
0.0
 11
1465.546197359906
 21
1045.80194894501
 31
0.0
  0
LINE
  5
890
330
7B0
100
AcDbEntity
  8
0
  6
Continuous
 62
     7
370
    15
100
AcDbLine
 10
1464.636182421164
 20
1045.358510301794
 30
0.0
 11
1464.698841714887
 21
1044.638984801937
 31
0.0
  0
ARC
  5
891
330
7B0
100
AcDbEntity
  8
0
  6
Continuous
 62
     7
370
    15
100
AcDbCircle
 10
1464.153015716065
 20
1036.90586189715
 30
0.0
 40
1.361589307092786
100
AcDbArc
 50
232.0637282969063
 51
277.3027230102829
  0
LWPOLYLINE
  5
892
330
7B0
100
AcDbEntity
  8
0
  6
Continuous
 62
     7
370
    15
100
AcDbPolyline
 90
       21
 70
   128
 43
0.0
 10
1461.937866077772
 20
1040.447274712899
 10
1461.931401551183
 20
1040.4415929551
 10
1461.806924052604
 20
1040.305935764128
 10
1461.70370668707
 20
1040.139224727461
 10
1461.623198400138
 20
1039.943800102618
 10
1461.566529351682
 20
1039.722405222957
 10
1461.534495050919
 20
1039.478147987285
 10
1461.527545189215
 20
1039.214457231771
 10
1461.545777327392
 20
1038.935034596606
 10
1461.588935526196
 20
1038.643802563086
 10
1461.65641393912
 20
1038.344849390572
 10
1461.74726531716
 20
1038.042371726294
 10
1461.860214306118
 20
1037.740615693619
 10
1461.993675349776
 20
1037.443817285788
 10
1462.145774947631
 20
1037.156142901856
 10
1462.314377954736
 20
1036.881630859585
 10
1462.497117554453
 20
1036.62413470631
 10
1462.691428483372
 20
1036.387269123584
 10
1462.894583041987
 20
1036.174359184973
 10
1463.103729385615
 20
1035.988393679311
 10
1463.315931558044
 20
1035.831983154656
  0
LINE
  5
893
330
7B0
100
AcDbEntity
  8
0
  6
Continuous
 62
     7
370
    15
100
AcDbLine
 10
1465.546197359906
 20
1045.80194894501
 30
0.0
 11
1465.537107102946
 21
1044.764549632068
 31
0.0
  0
LINE
  5
894
330
7B0
100
AcDbEntity
  8
0
  6
Continuous
 62
     7
370
    15
100
AcDbLine
 10
1466.607881455105
 20
1046.319294028762
 30
0.0
 11
1466.601280850219
 21
1045.566019065945
 31
0.0
  0
ENDBLK
  5
7B2
330
7B0
100
AcDbEntity
  8
0
100
AcDbBlockEnd
  0
ENDSEC
  0
SECTION
  2
ENTITIES
  0
INSERT
  5
68C
330
1F
100
AcDbEntity
  8
0
100
AcDbBlockReference
  2
1
 10
0.0
 20
0.0
 30
0.0
  0
INSERT
  5
791
330
1F
100
AcDbEntity
  8
0
100
AcDbBlockReference
  2
2
 10
0.0
 20
0.0
 30
0.0
  0
INSERT
  5
7AF
330
1F
100
AcDbEntity
  8
0
100
AcDbBlockReference
  2
3
 10
0.0
 20
0.0
 30
0.0
  0
INSERT
  5
895
330
1F
100
AcDbEntity
  8
0
100
AcDbBlockReference
  2
4
 10
0.0
 20
0.0
 30
0.0
  0
ENDSEC
  0
SECTION
  2
OBJECTS
  0
DICTIONARY
  5
C
330
0
100
AcDbDictionary
281
     1
  3
ACAD_COLOR
350
6B
  3
ACAD_GROUP
350
D
  3
ACAD_LAYOUT
350
1A
  3
ACAD_MATERIAL
350
6A
  3
ACAD_MLEADERSTYLE
350
12D
  3
ACAD_MLINESTYLE
350
17
  3
ACAD_PLOTSETTINGS
350
19
  3
ACAD_PLOTSTYLENAME
350
E
  3
ACAD_SCALELIST
350
10C
  3
ACAD_TABLESTYLE
350
7E
  3
ACAD_VISUALSTYLE
350
EF
  3
ACDB_RECOMPOSE_DATA
350
15D
  3
AcDbVariableDictionary
350
5E
  3
DWGPROPS
350
8A3
  0
DICTIONARY
  5
13C
330
10
100
AcDbDictionary
280
     1
281
     1
  3
ADSK_XREC_LAYER_RECONCILED
360
896
  0
DICTIONARY
  5
6B
102
{ACAD_REACTORS
330
C
102
}
330
C
100
AcDbDictionary
281
     1
  0
DICTIONARY
  5
D
102
{ACAD_REACTORS
330
C
102
}
330
C
100
AcDbDictionary
281
     1
  0
DICTIONARY
  5
1A
102
{ACAD_REACTORS
330
C
102
}
330
C
100
AcDbDictionary
281
     1
  3
Layout1
350
D3
  3
Layout2
350
D7
  3
Model
350
22
  0
DICTIONARY
  5
6A
102
{ACAD_REACTORS
330
C
102
}
330
C
100
AcDbDictionary
281
     1
  3
ByBlock
350
ED
  3
ByLayer
350
EC
  3
Global
350
EE
  0
DICTIONARY
  5
12D
102
{ACAD_REACTORS
330
C
102
}
330
C
100
AcDbDictionary
281
     1
  3
Annotative
350
13B
  3
Standard
350
12E
  0
DICTIONARY
  5
17
102
{ACAD_REACTORS
330
C
102
}
330
C
100
AcDbDictionary
281
     1
  3
Standard
350
18
  0
DICTIONARY
  5
19
102
{ACAD_REACTORS
330
C
102
}
330
C
100
AcDbDictionary
281
     1
  0
ACDBDICTIONARYWDFLT
  5
E
102
{ACAD_REACTORS
330
C
102
}
330
C
100
AcDbDictionary
281
     1
  3
Normal
350
F
100
AcDbDictionaryWithDefault
340
F
  0
DICTIONARY
  5
10C
102
{ACAD_REACTORS
330
C
102
}
330
C
100
AcDbDictionary
281
     1
  3
A0
350
10D
  3
A1
350
188
  3
A2
350
189
  3
A3
350
18A
  3
A4
350
18B
  3
A5
350
18C
  3
A6
350
18D
  3
A7
350
18E
  3
A8
350
18F
  3
A9
350
190
  3
B0
350
191
  3
B1
350
192
  3
B2
350
193
  3
B3
350
194
  3
B4
350
195
  3
B5
350
196
  3
B6
350
197
  3
B7
350
198
  3
B8
350
199
  3
B9
350
19A
  3
C0
350
19B
  3
C1
350
19C
  3
C2
350
19D
  3
C3
350
19E
  3
C4
350
19F
  3
C5
350
1A0
  3
C6
350
1A1
  3
C7
350
1A2
  3
C8
350
1A3
  3
C9
350
1A4
  3
D0
350
1A5
  3
D1
350
1A6
  3
D2
350
1A7
  0
DICTIONARY
  5
7E
102
{ACAD_REACTORS
330
C
102
}
330
C
100
AcDbDictionary
281
     1
  3
Standard
350
7F
  0
DICTIONARY
  5
EF
102
{ACAD_REACTORS
330
C
102
}
330
C
100
AcDbDictionary
281
     1
  3
2dWireframe
350
F5
  3
3D Hidden
350
F7
  3
3dWireframe
350
F6
  3
Basic
350
F4
  3
Brighten
350
FB
  3
ColorChange
350
FF
  3
Conceptual
350
F8
  3
Dim
350
FA
  3
Facepattern
350
FE
  3
Flat
350
F0
  3
FlatWithEdges
350
F1
  3
Gouraud
350
F2
  3
GouraudWithEdges
350
F3
  3
Linepattern
350
FD
  3
Realistic
350
F9
  3
Thicken
350
FC
  0
XRECORD
  5
15D
102
{ACAD_REACTORS
330
C
102
}
330
C
100
AcDbXrecord
280
     1
 90
        1
330
7F
  0
DICTIONARY
  5
5E
102
{ACAD_REACTORS
330
C
102
}
330
C
100
AcDbDictionary
281
     1
  3
CANNOSCALE
350
146
  3
CMLEADERSTYLE
350
145
  3
CTABLESTYLE
350
84
  3
DIMASSOC
350
5F
  3
HIDETEXT
350
63
  3
INDEXCTL
350
89F
  3
LIGHTINGUNITS
350
89D
  3
MSLTSCALE
350
89C
  3
PSOLHEIGHT
350
8A1
  3
PSOLWIDTH
350
8A0
  3
SORTENTS
350
89E
  0
XRECORD
  5
8A3
102
{ACAD_REACTORS
330
C
102
}
330
C
100
AcDbXrecord
280
     1
  1
DWGPROPS COOKIE
  2

  3

  4

  6

  7

  8
orhan kara
  9

300
=
301
=
302
=
303
=
304
=
305
=
306
=
307
=
308
=
309
=
 40
0.0007768055555556
 41
2458453.444287002
 42
2458983.55503154
  1

 90
        0
  0
XRECORD
  5
896
102
{ACAD_REACTORS
330
13C
102
}
330
13C
100
AcDbXrecord
280
     1
290
     1
  0
LAYOUT
  5
D3
102
{ACAD_XDICTIONARY
360
8A7
102
}
102
{ACAD_REACTORS
330
1A
102
}
330
1A
100
AcDbPlotSettings
  1

  2
C:\Documents and Settings\basas\Application Data\Autodesk\AutoCAD 2005\R16.1\enu\plotters\Default Windows System Printer.pc3
  4

  6

 40
0.0
 41
0.0
 42
0.0
 43
0.0
 44
0.0
 45
0.0
 46
0.0
 47
0.0
 48
0.0
 49
0.0
140
0.0
141
0.0
142
1.0
143
1.0
 70
   688
 72
     0
 73
     0
 74
     5
  7

 75
    16
147
1.0
148
0.0
149
0.0
100
AcDbLayout
  1
Layout1
 70
     1
 71
     1
 10
0.0
 20
0.0
 11
12.0
 21
9.0
 12
0.0
 22
0.0
 32
0.0
 14
0.0
 24
0.0
 34
0.0
 15
0.0
 25
0.0
 35
0.0
146
0.0
 13
0.0
 23
0.0
 33
0.0
 16
1.0
 26
0.0
 36
0.0
 17
0.0
 27
1.0
 37
0.0
 76
     0
330
D2
  0
LAYOUT
  5
D7
102
{ACAD_XDICTIONARY
360
8A9
102
}
102
{ACAD_REACTORS
330
1A
102
}
330
1A
100
AcDbPlotSettings
  1

  2
C:\Documents and Settings\basas\Application Data\Autodesk\AutoCAD 2005\R16.1\enu\plotters\Default Windows System Printer.pc3
  4

  6

 40
0.0
 41
0.0
 42
0.0
 43
0.0
 44
0.0
 45
0.0
 46
0.0
 47
0.0
 48
0.0
 49
0.0
140
0.0
141
0.0
142
1.0
143
1.0
 70
   688
 72
     0
 73
     0
 74
     5
  7

 75
    16
147
1.0
148
0.0
149
0.0
100
AcDbLayout
  1
Layout2
 70
     1
 71
     2
 10
0.0
 20
0.0
 11
12.0
 21
9.0
 12
0.0
 22
0.0
 32
0.0
 14
0.0
 24
0.0
 34
0.0
 15
0.0
 25
0.0
 35
0.0
146
0.0
 13
0.0
 23
0.0
 33
0.0
 16
1.0
 26
0.0
 36
0.0
 17
0.0
 27
1.0
 37
0.0
 76
     0
330
D6
  0
LAYOUT
  5
22
102
{ACAD_XDICTIONARY
360
8A4
102
}
102
{ACAD_REACTORS
330
1A
102
}
330
1A
100
AcDbPlotSettings
  1

  2
none_device
  4
ISO_A4_(210.00_x_297.00_MM)
  6

 40
7.5
 41
20.0
 42
7.5
 43
20.0
 44
210.0
 45
297.0
 46
11.54999923706054
 47
-13.65000009536743
 48
0.0
 49
0.0
140
0.0
141
0.0
142
1.0
143
8.704084754739808
 70
 11952
 72
     1
 73
     0
 74
     0
  7

 75
     0
147
0.1148885871608098
148
0.0
149
0.0
100
AcDbLayout
  1
Model
 70
     1
 71
     0
 10
0.0
 20
0.0
 11
12.0
 21
9.0
 12
0.0
 22
0.0
 32
0.0
 14
0.0
 24
0.0
 34
0.0
 15
0.0
 25
0.0
 35
0.0
146
0.0
 13
0.0
 23
0.0
 33
0.0
 16
1.0
 26
0.0
 36
0.0
 17
0.0
 27
1.0
 37
0.0
 76
     0
330
1F
331
EA
1001
ACAD_PSEXT
1000
None
1000
None
1000
Not applicable
1000
The layout will not be plotted unless a new plotter configuration name is selected.
1070
     0
  0
MATERIAL
  5
ED
102
{ACAD_XDICTIONARY
360
8AD
102
}
102
{ACAD_REACTORS
330
6A
102
}
330
6A
100
AcDbMaterial
  1
ByBlock
  0
MATERIAL
  5
EC
102
{ACAD_XDICTIONARY
360
8AB
102
}
102
{ACAD_REACTORS
330
6A
102
}
330
6A
100
AcDbMaterial
  1
ByLayer
  0
MATERIAL
  5
EE
102
{ACAD_XDICTIONARY
360
173
102
}
102
{ACAD_REACTORS
330
6A
102
}
330
6A
100
AcDbMaterial
  1
Global
 43
0.0007999999797903
 43
0.0
 43
0.0
 43
0.0
 43
0.0
 43
0.0007999999797903
 43
0.0
 43
0.0
 43
0.0
 43
0.0
 43
1.0
 43
0.0
 43
0.0
 43
0.0
 43
0.0
 43
1.0
 49
0.0007999999797903
 49
0.0
 49
0.0
 49
0.0
 49
0.0
 49
0.0007999999797903
 49
0.0
 49
0.0
 49
0.0
 49
0.0
 49
1.0
 49
0.0
 49
0.0
 49
0.0
 49
0.0
 49
1.0
142
0.0007999999797903
142
0.0
142
0.0
142
0.0
142
0.0
142
0.0007999999797903
142
0.0
142
0.0
142
0.0
142
0.0
142
1.0
142
0.0
142
0.0
142
0.0
142
0.0
142
1.0
144
0.0007999999797903
144
0.0
144
0.0
144
0.0
144
0.0
144
0.0007999999797903
144
0.0
144
0.0
144
0.0
144
0.0
144
1.0
144
0.0
144
0.0
144
0.0
144
0.0
144
1.0
1001
ACAD
1070
    -1
1070
     3
1070
     0
1000

1071
        0
1070
     0
  0
MLEADERSTYLE
  5
13B
102
{ACAD_REACTORS
330
12D
102
}
330
12D
100
AcDbMLeaderStyle
170
     2
171
     1
172
     0
 90
        2
 40
0.0
 41
0.0
173
     1
 91
-1056964608
340
14
 92
       -2
290
     1
 42
2.0
291
     1
 43
8.0
  3
Standard
 44
4.0
300

342
11
174
     1
178
     1
175
     1
176
     0
 93
-1056964608
 45
4.0
292
     0
297
     0
 46
4.0
 94
-1056964608
 47
1.0
 49
1.0
140
1.0
293
     1
141
0.0
294
     1
177
     0
142
1.0
295
     0
296
     1
143
3.75
1001
ACAD_MLEADERVER
1070
     2
  0
MLEADERSTYLE
  5
12E
102
{ACAD_REACTORS
330
12D
102
}
330
12D
100
AcDbMLeaderStyle
170
     2
171
     1
172
     0
 90
        2
 40
0.0
 41
0.0
173
     1
 91
-1056964608
340
14
 92
       -2
290
     1
 42
2.0
291
     1
 43
8.0
  3
Standard
 44
4.0
300

342
11
174
     1
178
     1
175
     1
176
     0
 93
-1056964608
 45
4.0
292
     0
297
     0
 46
4.0
 94
-1056964608
 47
1.0
 49
1.0
140
1.0
293
     1
141
0.0
294
     1
177
     0
142
1.0
295
     0
296
     0
143
3.75
1001
ACAD_MLEADERVER
1070
     2
  0
MLINESTYLE
  5
18
102
{ACAD_REACTORS
330
17
102
}
330
17
100
AcDbMlineStyle
  2
STANDARD
 70
     0
  3

 62
   256
 51
90.0
 52
90.0
 71
     2
 49
0.5
 62
   256
  6
BYLAYER
 49
-0.5
 62
   256
  6
BYLAYER
  0
ACDBPLACEHOLDER
  5
F
102
{ACAD_REACTORS
330
E
102
}
330
E
  0
SCALE
  5
10D
102
{ACAD_REACTORS
330
10C
102
}
330
10C
100
AcDbScale
 70
     0
300
1:1
140
1.0
141
1.0
290
     1
  0
SCALE
  5
188
102
{ACAD_REACTORS
330
10C
102
}
330
10C
100
AcDbScale
 70
     0
300
1:2
140
1.0
141
2.0
290
     0
  0
SCALE
  5
189
102
{ACAD_REACTORS
330
10C
102
}
330
10C
100
AcDbScale
 70
     0
300
1:4
140
1.0
141
4.0
290
     0
  0
SCALE
  5
18A
102
{ACAD_REACTORS
330
10C
102
}
330
10C
100
AcDbScale
 70
     0
300
1:5
140
1.0
141
5.0
290
     0
  0
SCALE
  5
18B
102
{ACAD_REACTORS
330
10C
102
}
330
10C
100
AcDbScale
 70
     0
300
1:8
140
1.0
141
8.0
290
     0
  0
SCALE
  5
18C
102
{ACAD_REACTORS
330
10C
102
}
330
10C
100
AcDbScale
 70
     0
300
1:10
140
1.0
141
10.0
290
     0
  0
SCALE
  5
18D
102
{ACAD_REACTORS
330
10C
102
}
330
10C
100
AcDbScale
 70
     0
300
1:16
140
1.0
141
16.0
290
     0
  0
SCALE
  5
18E
102
{ACAD_REACTORS
330
10C
102
}
330
10C
100
AcDbScale
 70
     0
300
1:20
140
1.0
141
20.0
290
     0
  0
SCALE
  5
18F
102
{ACAD_REACTORS
330
10C
102
}
330
10C
100
AcDbScale
 70
     0
300
1:30
140
1.0
141
30.0
290
     0
  0
SCALE
  5
190
102
{ACAD_REACTORS
330
10C
102
}
330
10C
100
AcDbScale
 70
     0
300
1:40
140
1.0
141
40.0
290
     0
  0
SCALE
  5
191
102
{ACAD_REACTORS
330
10C
102
}
330
10C
100
AcDbScale
 70
     0
300
1:50
140
1.0
141
50.0
290
     0
  0
SCALE
  5
192
102
{ACAD_REACTORS
330
10C
102
}
330
10C
100
AcDbScale
 70
     0
300
1:100
140
1.0
141
100.0
290
     0
  0
SCALE
  5
193
102
{ACAD_REACTORS
330
10C
102
}
330
10C
100
AcDbScale
 70
     0
300
2:1
140
2.0
141
1.0
290
     0
  0
SCALE
  5
194
102
{ACAD_REACTORS
330
10C
102
}
330
10C
100
AcDbScale
 70
     0
300
4:1
140
4.0
141
1.0
290
     0
  0
SCALE
  5
195
102
{ACAD_REACTORS
330
10C
102
}
330
10C
100
AcDbScale
 70
     0
300
8:1
140
8.0
141
1.0
290
     0
  0
SCALE
  5
196
102
{ACAD_REACTORS
330
10C
102
}
330
10C
100
AcDbScale
 70
     0
300
10:1
140
10.0
141
1.0
290
     0
  0
SCALE
  5
197
102
{ACAD_REACTORS
330
10C
102
}
330
10C
100
AcDbScale
 70
     0
300
100:1
140
100.0
141
1.0
290
     0
  0
SCALE
  5
198
102
{ACAD_REACTORS
330
10C
102
}
330
10C
100
AcDbScale
 70
     0
300
1/128" = 1'-0"
140
0.0078125
141
12.0
290
     0
  0
SCALE
  5
199
102
{ACAD_REACTORS
330
10C
102
}
330
10C
100
AcDbScale
 70
     0
300
1/64" = 1'-0"
140
0.015625
141
12.0
290
     0
  0
SCALE
  5
19A
102
{ACAD_REACTORS
330
10C
102
}
330
10C
100
AcDbScale
 70
     0
300
1/32" = 1'-0"
140
0.03125
141
12.0
290
     0
  0
SCALE
  5
19B
102
{ACAD_REACTORS
330
10C
102
}
330
10C
100
AcDbScale
 70
     0
300
1/16" = 1'-0"
140
0.0625
141
12.0
290
     0
  0
SCALE
  5
19C
102
{ACAD_REACTORS
330
10C
102
}
330
10C
100
AcDbScale
 70
     0
300
3/32" = 1'-0"
140
0.09375
141
12.0
290
     0
  0
SCALE
  5
19D
102
{ACAD_REACTORS
330
10C
102
}
330
10C
100
AcDbScale
 70
     0
300
1/8" = 1'-0"
140
0.125
141
12.0
290
     0
  0
SCALE
  5
19E
102
{ACAD_REACTORS
330
10C
102
}
330
10C
100
AcDbScale
 70
     0
300
3/16" = 1'-0"
140
0.1875
141
12.0
290
     0
  0
SCALE
  5
19F
102
{ACAD_REACTORS
330
10C
102
}
330
10C
100
AcDbScale
 70
     0
300
1/4" = 1'-0"
140
0.25
141
12.0
290
     0
  0
SCALE
  5
1A0
102
{ACAD_REACTORS
330
10C
102
}
330
10C
100
AcDbScale
 70
     0
300
3/8" = 1'-0"
140
0.375
141
12.0
290
     0
  0
SCALE
  5
1A1
102
{ACAD_REACTORS
330
10C
102
}
330
10C
100
AcDbScale
 70
     0
300
1/2" = 1'-0"
140
0.5
141
12.0
290
     0
  0
SCALE
  5
1A2
102
{ACAD_REACTORS
330
10C
102
}
330
10C
100
AcDbScale
 70
     0
300
3/4" = 1'-0"
140
0.75
141
12.0
290
     0
  0
SCALE
  5
1A3
102
{ACAD_REACTORS
330
10C
102
}
330
10C
100
AcDbScale
 70
     0
300
1" = 1'-0"
140
1.0
141
12.0
290
     0
  0
SCALE
  5
1A4
102
{ACAD_REACTORS
330
10C
102
}
330
10C
100
AcDbScale
 70
     0
300
1-1/2" = 1'-0"
140
1.5
141
12.0
290
     0
  0
SCALE
  5
1A5
102
{ACAD_REACTORS
330
10C
102
}
330
10C
100
AcDbScale
 70
     0
300
3" = 1'-0"
140
3.0
141
12.0
290
     0
  0
SCALE
  5
1A6
102
{ACAD_REACTORS
330
10C
102
}
330
10C
100
AcDbScale
 70
     0
300
6" = 1'-0"
140
6.0
141
12.0
290
     0
  0
SCALE
  5
1A7
102
{ACAD_REACTORS
330
10C
102
}
330
10C
100
AcDbScale
 70
     0
300
1'-0" = 1'-0"
140
12.0
141
12.0
290
     0
  0
TABLESTYLE
  5
7F
102
{ACAD_XDICTIONARY
360
162
102
}
102
{ACAD_REACTORS
330
7E
102
}
330
7E
100
AcDbTableStyle
  3
Standard
 70
     0
 71
     0
 40
1.5
 41
1.5
280
     0
281
     0
  7
Standard
140
4.5
170
     2
 62
     0
 63
     7
283
     0
274
    -2
284
     1
 64
     0
275
    -2
285
     1
 65
     0
276
    -2
286
     1
 66
     0
277
    -2
287
     1
 67
     0
278
    -2
288
     1
 68
     0
279
    -2
289
     1
 69
     0
  7
Standard
140
6.0
170
     5
 62
     0
 63
     7
283
     0
274
    -2
284
     1
 64
     0
275
    -2
285
     1
 65
     0
276
    -2
286
     1
 66
     0
277
    -2
287
     1
 67
     0
278
    -2
288
     1
 68
     0
279
    -2
289
     1
 69
     0
  7
Standard
140
4.5
170
     5
 62
     0
 63
     7
283
     0
274
    -2
284
     1
 64
     0
275
    -2
285
     1
 65
     0
276
    -2
286
     1
 66
     0
277
    -2
287
     1
 67
     0
278
    -2
288
     1
 68
     0
279
    -2
289
     1
 69
     0
  0
VISUALSTYLE
  5
F5
102
{ACAD_REACTORS
330
EF
102
}
330
EF
100
AcDbVisualStyle
  2
2dWireframe
 70
     4
 71
     0
 72
     2
 73
     1
 90
        0
 40
-0.6
 41
-30.0
 62
     5
 63
     7
 74
     1
 91
        4
 64
     7
 65
   257
 75
     1
175
     1
 42
1.0
 92
        0
 66
   257
 43
1.0
 76
     1
 77
     6
 78
     2
 67
     7
 79
     5
170
     0
171
     0
290
     0
174
     0
 93
        1
 44
0.0
173
     0
291
     0
 45
0.0
1001
ACAD
1000
AcDbSavedByObjectVersion
1070
     0
  0
VISUALSTYLE
  5
F7
102
{ACAD_REACTORS
330
EF
102
}
330
EF
100
AcDbVisualStyle
  2
3D Hidden
 70
     6
 71
     1
 72
     2
 73
     2
 90
        0
 40
-0.6
 41
-30.0
 62
     5
 63
     7
 74
     2
 91
        2
 64
     7
 65
   257
 75
     2
175
     1
 42
40.0
 92
        0
 66
   257
 43
1.0
 76
     1
 77
     6
 78
     2
 67
     7
 79
     3
170
     0
171
     0
290
     0
174
     0
 93
        1
 44
0.0
173
     0
291
     0
 45
0.0
1001
ACAD
1000
AcDbSavedByObjectVersion
1070
     0
  0
VISUALSTYLE
  5
F6
102
{ACAD_REACTORS
330
EF
102
}
330
EF
100
AcDbVisualStyle
  2
3dWireframe
 70
     5
 71
     0
 72
     2
 73
     1
 90
        0
 40
-0.6
 41
-30.0
 62
     5
 63
     7
 74
     1
 91
        4
 64
     7
 65
   257
 75
     1
175
     1
 42
1.0
 92
        0
 66
   257
 43
1.0
 76
     1
 77
     6
 78
     2
 67
     7
 79
     5
170
     0
171
     0
290
     0
174
     0
 93
        1
 44
0.0
173
     0
291
     0
 45
0.0
1001
ACAD
1000
AcDbSavedByObjectVersion
1070
     0
  0
VISUALSTYLE
  5
F4
102
{ACAD_REACTORS
330
EF
102
}
330
EF
100
AcDbVisualStyle
  2
Basic
 70
     7
 71
     1
 72
     0
 73
     1
 90
        0
 40
-0.6
 41
-30.0
 62
     5
 63
     7
 74
     0
 91
        4
 64
     7
 65
   257
 75
     1
175
     1
 42
1.0
 92
        8
 66
     7
 43
1.0
 76
     1
 77
     6
 78
     2
 67
     7
 79
     5
170
     0
171
     0
290
     0
174
     0
 93
        1
 44
0.0
173
     0
291
     1
 45
0.0
1001
ACAD
1000
AcDbSavedByObjectVersion
1070
     0
  0
VISUALSTYLE
  5
FB
102
{ACAD_REACTORS
330
EF
102
}
330
EF
100
AcDbVisualStyle
  2
Brighten
 70
    12
 71
     2
 72
     2
 73
     1
 90
        0
 40
-0.6
 41
-30.0
 62
     5
 63
     7
 74
     1
 91
        4
 64
     7
 65
   257
 75
     1
175
     1
 42
1.0
 92
        8
 66
     7
 43
1.0
 76
     1
 77
     6
 78
     2
 67
     7
 79
     5
170
     0
171
     0
290
     0
174
     0
 93
        1
 44
50.0
173
     0
291
     1
 45
0.0
1001
ACAD
1000
AcDbSavedByObjectVersion
1070
     0
  0
VISUALSTYLE
  5
FF
102
{ACAD_REACTORS
330
EF
102
}
330
EF
100
AcDbVisualStyle
  2
ColorChange
 70
    16
 71
     2
 72
     2
 73
     3
 90
        0
 40
-0.6
 41
-30.0
 62
     5
 63
     8
 74
     1
 91
        4
 64
     7
 65
   257
 75
     1
175
     1
 42
1.0
 92
        8
 66
     8
 43
1.0
 76
     1
 77
     6
 78
     2
 67
     7
 79
     5
170
     0
171
     0
290
     0
174
     0
 93
        1
 44
0.0
173
     0
291
     1
 45
0.0
1001
ACAD
1000
AcDbSavedByObjectVersion
1070
     0
  0
VISUALSTYLE
  5
F8
102
{ACAD_REACTORS
330
EF
102
}
330
EF
100
AcDbVisualStyle
  2
Conceptual
 70
     9
 71
     3
 72
     2
 73
     1
 90
        0
 40
-0.6
 41
-30.0
 62
     5
 63
     7
 74
     2
 91
        2
 64
     7
 65
   257
 75
     1
175
     1
 42
40.0
 92
        8
 66
     7
 43
1.0
 76
     1
 77
     6
 78
     2
 67
     7
 79
     3
170
     0
171
     0
290
     0
174
     0
 93
        1
 44
0.0
173
     0
291
     0
 45
0.0
1001
ACAD
1000
AcDbSavedByObjectVersion
1070
     0
  0
VISUALSTYLE
  5
FA
102
{ACAD_REACTORS
330
EF
102
}
330
EF
100
AcDbVisualStyle
  2
Dim
 70
    11
 71
     2
 72
     2
 73
     1
 90
        0
 40
-0.6
 41
-30.0
 62
     5
 63
     7
 74
     1
 91
        4
 64
     7
 65
   257
 75
     1
175
     1
 42
1.0
 92
        8
 66
     7
 43
1.0
 76
     1
 77
     6
 78
     2
 67
     7
 79
     5
170
     0
171
     0
290
     0
174
     0
 93
        1
 44
-50.0
173
     0
291
     1
 45
0.0
1001
ACAD
1000
AcDbSavedByObjectVersion
1070
     0
  0
VISUALSTYLE
  5
FE
102
{ACAD_REACTORS
330
EF
102
}
330
EF
100
AcDbVisualStyle
  2
Facepattern
 70
    15
 71
     2
 72
     2
 73
     1
 90
        0
 40
-0.6
 41
-30.0
 62
     5
 63
     7
 74
     1
 91
        4
 64
     7
 65
   257
 75
     1
175
     1
 42
1.0
 92
        8
 66
     7
 43
1.0
 76
     1
 77
     6
 78
     2
 67
     7
 79
     5
170
     0
171
     0
290
     0
174
     0
 93
        1
 44
0.0
173
     0
291
     1
 45
0.0
1001
ACAD
1000
AcDbSavedByObjectVersion
1070
     0
  0
VISUALSTYLE
  5
F0
102
{ACAD_REACTORS
330
EF
102
}
330
EF
100
AcDbVisualStyle
  2
Flat
 70
     0
 71
     2
 72
     1
 73
     1
 90
        2
 40
-0.6
 41
30.0
 62
     5
 63
     7
 74
     0
 91
        4
 64
     7
 65
   257
 75
     1
175
     1
 42
1.0
 92
        8
 66
     7
 43
1.0
 76
     1
 77
     6
 78
     2
 67
     7
 79
     5
170
     0
171
     0
290
     0
174
     0
 93
        1
 44
0.0
173
     0
291
     1
 45
0.0
1001
ACAD
1000
AcDbSavedByObjectVersion
1070
     0
  0
VISUALSTYLE
  5
F1
102
{ACAD_REACTORS
330
EF
102
}
330
EF
100
AcDbVisualStyle
  2
FlatWithEdges
 70
     1
 71
     2
 72
     1
 73
     1
 90
        2
 40
-0.6
 41
30.0
 62
     5
 63
     7
 74
     1
 91
        4
 64
     7
 65
   257
 75
     1
175
     1
 42
1.0
 92
        0
 66
   257
 43
1.0
 76
     1
 77
     6
 78
     2
 67
     7
 79
     5
170
     0
171
     0
290
     0
174
     0
 93
        1
 44
0.0
173
     0
291
     1
 45
0.0
1001
ACAD
1000
AcDbSavedByObjectVersion
1070
     0
  0
VISUALSTYLE
  5
F2
102
{ACAD_REACTORS
330
EF
102
}
330
EF
100
AcDbVisualStyle
  2
Gouraud
 70
     2
 71
     2
 72
     2
 73
     1
 90
        2
 40
-0.6
 41
30.0
 62
     5
 63
     7
 74
     0
 91
        4
 64
     7
 65
   257
 75
     1
175
     1
 42
1.0
 92
        0
 66
     7
 43
1.0
 76
     1
 77
     6
 78
     2
 67
     7
 79
     5
170
     0
171
     0
290
     0
174
     0
 93
        1
 44
0.0
173
     0
291
     1
 45
0.0
1001
ACAD
1000
AcDbSavedByObjectVersion
1070
     0
  0
VISUALSTYLE
  5
F3
102
{ACAD_REACTORS
330
EF
102
}
330
EF
100
AcDbVisualStyle
  2
GouraudWithEdges
 70
     3
 71
     2
 72
     2
 73
     1
 90
        2
 40
-0.6
 41
30.0
 62
     5
 63
     7
 74
     1
 91
        4
 64
     7
 65
   257
 75
     1
175
     1
 42
1.0
 92
        0
 66
   257
 43
1.0
 76
     1
 77
     6
 78
     2
 67
     7
 79
     5
170
     0
171
     0
290
     0
174
     0
 93
        1
 44
0.0
173
     0
291
     1
 45
0.0
1001
ACAD
1000
AcDbSavedByObjectVersion
1070
     0
  0
VISUALSTYLE
  5
FD
102
{ACAD_REACTORS
330
EF
102
}
330
EF
100
AcDbVisualStyle
  2
Linepattern
 70
    14
 71
     2
 72
     2
 73
     1
 90
        0
 40
-0.6
 41
-30.0
 62
     5
 63
     7
 74
     1
 91
        4
 64
     7
 65
   257
 75
     7
175
     7
 42
1.0
 92
        8
 66
     7
 43
1.0
 76
     1
 77
     6
 78
     2
 67
     7
 79
     5
170
     0
171
     0
290
     0
174
     0
 93
        1
 44
0.0
173
     0
291
     1
 45
0.0
1001
ACAD
1000
AcDbSavedByObjectVersion
1070
     0
  0
VISUALSTYLE
  5
F9
102
{ACAD_REACTORS
330
EF
102
}
330
EF
100
AcDbVisualStyle
  2
Realistic
 70
     8
 71
     2
 72
     2
 73
     1
 90
        0
 40
-0.6
 41
-30.0
 62
     5
 63
     7
 74
     1
 91
        0
 64
     7
 65
   257
 75
     1
175
     1
 42
1.0
 92
        8
 66
     8
 43
1.0
 76
     1
 77
     6
 78
     2
 67
     7
 79
     5
170
     0
171
     0
290
     0
174
     0
 93
       13
 44
0.0
173
     0
291
     0
 45
0.0
1001
ACAD
1000
AcDbSavedByObjectVersion
1070
     0
  0
VISUALSTYLE
  5
FC
102
{ACAD_REACTORS
330
EF
102
}
330
EF
100
AcDbVisualStyle
  2
Thicken
 70
    13
 71
     2
 72
     2
 73
     1
 90
        0
 40
-0.6
 41
-30.0
 62
     5
 63
     7
 74
     1
 91
        4
 64
     7
 65
   257
 75
     1
175
     1
 42
1.0
 92
       12
 66
     7
 43
1.0
 76
     1
 77
     6
 78
     2
 67
     7
 79
     5
170
     0
171
     0
290
     0
174
     0
 93
        1
 44
0.0
173
     0
291
     1
 45
0.0
1001
ACAD
1000
AcDbSavedByObjectVersion
1070
     0
  0
DICTIONARYVAR
  5
146
102
{ACAD_REACTORS
330
5E
102
}
330
5E
100
DictionaryVariables
280
     0
  1
1:1
  0
DICTIONARYVAR
  5
145
102
{ACAD_REACTORS
330
5E
102
}
330
5E
100
DictionaryVariables
280
     0
  1
STANDARD
  0
DICTIONARYVAR
  5
84
102
{ACAD_REACTORS
330
5E
102
}
330
5E
100
DictionaryVariables
280
     0
  1
STANDARD
  0
DICTIONARYVAR
  5
5F
102
{ACAD_REACTORS
330
5E
102
}
330
5E
100
DictionaryVariables
280
     0
  1
2
  0
DICTIONARYVAR
  5
63
102
{ACAD_REACTORS
330
5E
102
}
330
5E
100
DictionaryVariables
280
     0
  1
1
  0
DICTIONARYVAR
  5
89F
102
{ACAD_REACTORS
330
5E
102
}
330
5E
100
DictionaryVariables
280
     0
  1
0
  0
DICTIONARYVAR
  5
89D
102
{ACAD_REACTORS
330
5E
102
}
330
5E
100
DictionaryVariables
280
     0
  1
2
  0
DICTIONARYVAR
  5
89C
102
{ACAD_REACTORS
330
5E
102
}
330
5E
100
DictionaryVariables
280
     0
  1
1
  0
DICTIONARYVAR
  5
8A1
102
{ACAD_REACTORS
330
5E
102
}
330
5E
100
DictionaryVariables
280
     0
  1
80.000000
  0
DICTIONARYVAR
  5
8A0
102
{ACAD_REACTORS
330
5E
102
}
330
5E
100
DictionaryVariables
280
     0
  1
5.000000
  0
DICTIONARYVAR
  5
89E
102
{ACAD_REACTORS
330
5E
102
}
330
5E
100
DictionaryVariables
280
     0
  1
127
  0
DICTIONARY
  5
8A7
330
D3
100
AcDbDictionary
280
     1
281
     1
  3
ACAD_XREC_ROUNDTRIP
360
8A8
  0
DICTIONARY
  5
8A9
330
D7
100
AcDbDictionary
280
     1
281
     1
  3
ACAD_XREC_ROUNDTRIP
360
8AA
  0
DICTIONARY
  5
8A4
330
22
100
AcDbDictionary
280
     1
281
     1
  3
ACAD_XREC_ROUNDTRIP
360
8A5
  0
DICTIONARY
  5
8AD
330
ED
100
AcDbDictionary
280
     1
281
     1
  3
ACAD_XREC_ROUNDTRIP
360
8AE
  0
DICTIONARY
  5
8AB
330
EC
100
AcDbDictionary
280
     1
281
     1
  3
ACAD_XREC_ROUNDTRIP
360
8AC
  0
DICTIONARY
  5
173
330
EE
100
AcDbDictionary
280
     1
281
     1
  3
ACAD_XREC_ROUNDTRIP
360
8AF
  3
BUMPTILE
360
175
  3
DIFFUSETILE
360
174
  3
OPACITYTILE
360
176
  3
REFLECTIONTILE
360
177
  0
DICTIONARY
  5
162
330
7F
100
AcDbDictionary
280
     1
281
     1
  3
ACAD_ROUNDTRIP_2008_TABLESTYLE_CELLSTYLEMAP
360
8A2
  3
ACAD_XREC_ROUNDTRIP
360
8A6
  0
XRECORD
  5
8A8
102
{ACAD_REACTORS
330
8A7
102
}
330
8A7
100
AcDbXrecord
280
     1
102
SHADEPLOT
 70
     0
102
SHADEPLOTRESLEVEL
 70
     2
102
SHADEPLOTCUSTOMDPI
 70
   300
  0
XRECORD
  5
8AA
102
{ACAD_REACTORS
330
8A9
102
}
330
8A9
100
AcDbXrecord
280
     1
102
SHADEPLOT
 70
     0
102
SHADEPLOTRESLEVEL
 70
     2
102
SHADEPLOTCUSTOMDPI
 70
   300
  0
XRECORD
  5
8A5
102
{ACAD_REACTORS
330
8A4
102
}
330
8A4
100
AcDbXrecord
280
     1
102
SHADEPLOT
 70
     0
102
SHADEPLOTRESLEVEL
 70
     2
102
SHADEPLOTCUSTOMDPI
 70
   300
  0
XRECORD
  5
8AE
102
{ACAD_REACTORS
330
8AD
102
}
330
8AD
100
AcDbXrecord
280
     1
102
MATERIAL
148
0.0
149
0.0
149
0.0
 93
        0
 94
       63
282
     0
 72
     1
 77
     1
171
     1
175
     1
179
     1
273
     0
  0
XRECORD
  5
8AC
102
{ACAD_REACTORS
330
8AB
102
}
330
8AB
100
AcDbXrecord
280
     1
102
MATERIAL
148
0.0
149
0.0
149
0.0
 93
        0
 94
       63
282
     0
 72
     1
 77
     1
171
     1
175
     1
179
     1
273
     0
  0
XRECORD
  5
8AF
102
{ACAD_REACTORS
330
173
102
}
330
173
100
AcDbXrecord
280
     1
102
MATERIAL
148
0.0
149
0.0
149
0.0
 93
        0
 94
       63
282
     0
 72
     1
 77
     1
171
     1
175
     1
179
     1
273
     0
  0
XRECORD
  5
175
102
{ACAD_REACTORS
330
173
102
}
330
173
100
AcDbXrecord
280
     1
270
     1
271
     1
  0
XRECORD
  5
174
102
{ACAD_REACTORS
330
173
102
}
330
173
100
AcDbXrecord
280
     1
270
     1
271
     1
  0
XRECORD
  5
176
102
{ACAD_REACTORS
330
173
102
}
330
173
100
AcDbXrecord
280
     1
270
     1
271
     1
  0
XRECORD
  5
177
102
{ACAD_REACTORS
330
173
102
}
330
173
100
AcDbXrecord
280
     1
270
     1
271
     1
  0
CELLSTYLEMAP
  5
8A2
102
{ACAD_REACTORS
330
162
102
}
330
162
100
AcDbCellStyleMap
 90
        3
300
CELLSTYLE
  1
TABLEFORMAT_BEGIN
 90
        5
170
     1
 91
        0
 92
    32768
 62
   257
 93
        1
300
CONTENTFORMAT
  1
CONTENTFORMAT_BEGIN
 90
        0
 91
        0
 92
      512
 93
        0
300

 40
0.0
140
1.0
 94
        5
 62
     0
340
11
144
6.0
309
CONTENTFORMAT_END
171
     1
301
MARGIN
  1
CELLMARGIN_BEGIN
 40
1.5
 40
1.5
 40
1.5
 40
1.5
 40
4.5
 40
4.5
309
CELLMARGIN_END
 94
        6
 95
        1
302
GRIDFORMAT
  1
GRIDFORMAT_BEGIN
 90
        0
 91
        1
 62
     0
 92
       -2
340
14
 93
        0
 40
1.125
309
GRIDFORMAT_END
 95
        2
302
GRIDFORMAT
  1
GRIDFORMAT_BEGIN
 90
        0
 91
        1
 62
     0
 92
       -2
340
14
 93
        0
 40
1.125
309
GRIDFORMAT_END
 95
        4
302
GRIDFORMAT
  1
GRIDFORMAT_BEGIN
 90
        0
 91
        1
 62
     0
 92
       -2
340
14
 93
        0
 40
1.125
309
GRIDFORMAT_END
 95
        8
302
GRIDFORMAT
  1
GRIDFORMAT_BEGIN
 90
        0
 91
        1
 62
     0
 92
       -2
340
14
 93
        0
 40
1.125
309
GRIDFORMAT_END
 95
       16
302
GRIDFORMAT
  1
GRIDFORMAT_BEGIN
 90
        0
 91
        1
 62
     0
 92
       -2
340
14
 93
        0
 40
1.125
309
GRIDFORMAT_END
 95
       32
302
GRIDFORMAT
  1
GRIDFORMAT_BEGIN
 90
        0
 91
        1
 62
     0
 92
       -2
340
14
 93
        0
 40
1.125
309
GRIDFORMAT_END
309
TABLEFORMAT_END
  1
CELLSTYLE_BEGIN
 90
        1
 91
        1
300
_TITLE
309
CELLSTYLE_END
300
CELLSTYLE
  1
TABLEFORMAT_BEGIN
 90
        5
170
     1
 91
        0
 92
        0
 62
   257
 93
        1
300
CONTENTFORMAT
  1
CONTENTFORMAT_BEGIN
 90
        0
 91
        0
 92
      512
 93
        0
300

 40
0.0
140
1.0
 94
        5
 62
     0
340
11
144
4.5
309
CONTENTFORMAT_END
171
     1
301
MARGIN
  1
CELLMARGIN_BEGIN
 40
1.5
 40
1.5
 40
1.5
 40
1.5
 40
4.5
 40
4.5
309
CELLMARGIN_END
 94
        6
 95
        1
302
GRIDFORMAT
  1
GRIDFORMAT_BEGIN
 90
        0
 91
        1
 62
     0
 92
       -2
340
14
 93
        0
 40
1.125
309
GRIDFORMAT_END
 95
        2
302
GRIDFORMAT
  1
GRIDFORMAT_BEGIN
 90
        0
 91
        1
 62
     0
 92
       -2
340
14
 93
        0
 40
1.125
309
GRIDFORMAT_END
 95
        4
302
GRIDFORMAT
  1
GRIDFORMAT_BEGIN
 90
        0
 91
        1
 62
     0
 92
       -2
340
14
 93
        0
 40
1.125
309
GRIDFORMAT_END
 95
        8
302
GRIDFORMAT
  1
GRIDFORMAT_BEGIN
 90
        0
 91
        1
 62
     0
 92
       -2
340
14
 93
        0
 40
1.125
309
GRIDFORMAT_END
 95
       16
302
GRIDFORMAT
  1
GRIDFORMAT_BEGIN
 90
        0
 91
        1
 62
     0
 92
       -2
340
14
 93
        0
 40
1.125
309
GRIDFORMAT_END
 95
       32
302
GRIDFORMAT
  1
GRIDFORMAT_BEGIN
 90
        0
 91
        1
 62
     0
 92
       -2
340
14
 93
        0
 40
1.125
309
GRIDFORMAT_END
309
TABLEFORMAT_END
  1
CELLSTYLE_BEGIN
 90
        2
 91
        1
300
_HEADER
309
CELLSTYLE_END
300
CELLSTYLE
  1
TABLEFORMAT_BEGIN
 90
        5
170
     1
 91
        0
 92
        0
 62
   257
 93
        1
300
CONTENTFORMAT
  1
CONTENTFORMAT_BEGIN
 90
        0
 91
        0
 92
      512
 93
        0
300

 40
0.0
140
1.0
 94
        2
 62
     0
340
11
144
4.5
309
CONTENTFORMAT_END
171
     1
301
MARGIN
  1
CELLMARGIN_BEGIN
 40
1.5
 40
1.5
 40
1.5
 40
1.5
 40
4.5
 40
4.5
309
CELLMARGIN_END
 94
        6
 95
        1
302
GRIDFORMAT
  1
GRIDFORMAT_BEGIN
 90
        0
 91
        1
 62
     0
 92
       -2
340
14
 93
        0
 40
1.125
309
GRIDFORMAT_END
 95
        2
302
GRIDFORMAT
  1
GRIDFORMAT_BEGIN
 90
        0
 91
        1
 62
     0
 92
       -2
340
14
 93
        0
 40
1.125
309
GRIDFORMAT_END
 95
        4
302
GRIDFORMAT
  1
GRIDFORMAT_BEGIN
 90
        0
 91
        1
 62
     0
 92
       -2
340
14
 93
        0
 40
1.125
309
GRIDFORMAT_END
 95
        8
302
GRIDFORMAT
  1
GRIDFORMAT_BEGIN
 90
        0
 91
        1
 62
     0
 92
       -2
340
14
 93
        0
 40
1.125
309
GRIDFORMAT_END
 95
       16
302
GRIDFORMAT
  1
GRIDFORMAT_BEGIN
 90
        0
 91
        1
 62
     0
 92
       -2
340
14
 93
        0
 40
1.125
309
GRIDFORMAT_END
 95
       32
302
GRIDFORMAT
  1
GRIDFORMAT_BEGIN
 90
        0
 91
        1
 62
     0
 92
       -2
340
14
 93
        0
 40
1.125
309
GRIDFORMAT_END
309
TABLEFORMAT_END
  1
CELLSTYLE_BEGIN
 90
        3
 91
        2
300
_DATA
309
CELLSTYLE_END
  0
XRECORD
  5
8A6
102
{ACAD_REACTORS
330
162
102
}
330
162
100
AcDbXrecord
280
     1
102
ACAD_ROUNDTRIP_PRE2007_TABLESTYLE
 90
      512
 91
        0
  1

 92
      512
 93
        0
  2

 94
      512
 95
        0
  3

  0
ENDSEC
  0
EOF
