  0
SECTION
  2
HEADER
  9
$ACADVER
  1
AC1015
  9
$ACADMAINTVER
 70
    20
  9
$DWGCODEPAGE
  3
ANSI_1254
  9
$INSBASE
 10
0.0
 20
0.0
 30
0.0
  9
$EXTMIN
 10
1721.571496265273
 20
890.8597026019117
 30
0.0
  9
$EXTMAX
 10
1840.965954864633
 20
920.7449481962978
 30
0.0
  9
$LIMMIN
 10
0.0
 20
0.0
  9
$LIMMAX
 10
420.0
 20
297.0
  9
$ORTHOMODE
 70
     0
  9
$REGENMODE
 70
     1
  9
$FILLMODE
 70
     1
  9
$QTEXTMODE
 70
     0
  9
$MIRRTEXT
 70
     0
  9
$LTSCALE
 40
1.0
  9
$ATTMODE
 70
     1
  9
$TEXTSIZE
 40
2.5
  9
$TRACEWID
 40
1.0
  9
$TEXTSTYLE
  7
Standard
  9
$CLAYER
  8
0
  9
$CELTYPE
  6
ByLayer
  9
$CECOLOR
 62
   256
  9
$CELTSCALE
 40
1.0
  9
$DISPSILH
 70
     0
  9
$DIMSCALE
 40
1.0
  9
$DIMASZ
 40
2.5
  9
$DIMEXO
 40
0.625
  9
$DIMDLI
 40
3.75
  9
$DIMRND
 40
0.0
  9
$DIMDLE
 40
0.0
  9
$DIMEXE
 40
1.25
  9
$DIMTP
 40
0.0
  9
$DIMTM
 40
0.0
  9
$DIMTXT
 40
2.5
  9
$DIMCEN
 40
2.5
  9
$DIMTSZ
 40
0.0
  9
$DIMTOL
 70
     0
  9
$DIMLIM
 70
     0
  9
$DIMTIH
 70
     0
  9
$DIMTOH
 70
     0
  9
$DIMSE1
 70
     0
  9
$DIMSE2
 70
     0
  9
$DIMTAD
 70
     1
  9
$DIMZIN
 70
     8
  9
$DIMBLK
  1

  9
$DIMASO
 70
     1
  9
$DIMSHO
 70
     1
  9
$DIMPOST
  1

  9
$DIMAPOST
  1

  9
$DIMALT
 70
     0
  9
$DIMALTD
 70
     3
  9
$DIMALTF
 40
0.03937007874016
  9
$DIMLFAC
 40
1.0
  9
$DIMTOFL
 70
     1
  9
$DIMTVP
 40
0.0
  9
$DIMTIX
 70
     0
  9
$DIMSOXD
 70
     0
  9
$DIMSAH
 70
     0
  9
$DIMBLK1
  1

  9
$DIMBLK2
  1

  9
$DIMSTYLE
  2
ISO-25
  9
$DIMCLRD
 70
     0
  9
$DIMCLRE
 70
     0
  9
$DIMCLRT
 70
     0
  9
$DIMTFAC
 40
1.0
  9
$DIMGAP
 40
0.625
  9
$DIMJUST
 70
     0
  9
$DIMSD1
 70
     0
  9
$DIMSD2
 70
     0
  9
$DIMTOLJ
 70
     0
  9
$DIMTZIN
 70
     8
  9
$DIMALTZ
 70
     0
  9
$DIMALTTZ
 70
     0
  9
$DIMUPT
 70
     0
  9
$DIMDEC
 70
     2
  9
$DIMTDEC
 70
     2
  9
$DIMALTU
 70
     2
  9
$DIMALTTD
 70
     3
  9
$DIMTXSTY
  7
Standard
  9
$DIMAUNIT
 70
     0
  9
$DIMADEC
 70
     0
  9
$DIMALTRND
 40
0.0
  9
$DIMAZIN
 70
     0
  9
$DIMDSEP
 70
    44
  9
$DIMATFIT
 70
     3
  9
$DIMFRAC
 70
     0
  9
$DIMLDRBLK
  1

  9
$DIMLUNIT
 70
     2
  9
$DIMLWD
 70
    -2
  9
$DIMLWE
 70
    -2
  9
$DIMTMOVE
 70
     0
  9
$LUNITS
 70
     2
  9
$LUPREC
 70
     4
  9
$SKETCHINC
 40
1.0
  9
$FILLETRAD
 40
0.0
  9
$AUNITS
 70
     0
  9
$AUPREC
 70
     0
  9
$MENU
  1
.
  9
$ELEVATION
 40
0.0
  9
$PELEVATION
 40
0.0
  9
$THICKNESS
 40
0.0
  9
$LIMCHECK
 70
     0
  9
$CHAMFERA
 40
0.0
  9
$CHAMFERB
 40
0.0
  9
$CHAMFERC
 40
0.0
  9
$CHAMFERD
 40
0.0
  9
$SKPOLY
 70
     0
  9
$TDCREATE
 40
2458453.442041111
  9
$TDUCREATE
 40
2458453.317041111
  9
$TDUPDATE
 40
2458983.554272917
  9
$TDUUPDATE
 40
2458983.429272917
  9
$TDINDWG
 40
0.0007324884
  9
$TDUSRTIMER
 40
0.0007324884
  9
$USRTIMER
 70
     1
  9
$ANGBASE
 50
0.0
  9
$ANGDIR
 70
     0
  9
$PDMODE
 70
     0
  9
$PDSIZE
 40
0.0
  9
$PLINEWID
 40
0.0
  9
$SPLFRAME
 70
     0
  9
$SPLINETYPE
 70
     6
  9
$SPLINESEGS
 70
     8
  9
$HANDSEED
  5
6EB
  9
$SURFTAB1
 70
     6
  9
$SURFTAB2
 70
     6
  9
$SURFTYPE
 70
     6
  9
$SURFU
 70
     6
  9
$SURFV
 70
     6
  9
$UCSBASE
  2

  9
$UCSNAME
  2

  9
$UCSORG
 10
0.0
 20
0.0
 30
0.0
  9
$UCSXDIR
 10
1.0
 20
0.0
 30
0.0
  9
$UCSYDIR
 10
0.0
 20
1.0
 30
0.0
  9
$UCSORTHOREF
  2

  9
$UCSORTHOVIEW
 70
     0
  9
$UCSORGTOP
 10
0.0
 20
0.0
 30
0.0
  9
$UCSORGBOTTOM
 10
0.0
 20
0.0
 30
0.0
  9
$UCSORGLEFT
 10
0.0
 20
0.0
 30
0.0
  9
$UCSORGRIGHT
 10
0.0
 20
0.0
 30
0.0
  9
$UCSORGFRONT
 10
0.0
 20
0.0
 30
0.0
  9
$UCSORGBACK
 10
0.0
 20
0.0
 30
0.0
  9
$PUCSBASE
  2

  9
$PUCSNAME
  2

  9
$PUCSORG
 10
0.0
 20
0.0
 30
0.0
  9
$PUCSXDIR
 10
1.0
 20
0.0
 30
0.0
  9
$PUCSYDIR
 10
0.0
 20
1.0
 30
0.0
  9
$PUCSORTHOREF
  2

  9
$PUCSORTHOVIEW
 70
     0
  9
$PUCSORGTOP
 10
0.0
 20
0.0
 30
0.0
  9
$PUCSORGBOTTOM
 10
0.0
 20
0.0
 30
0.0
  9
$PUCSORGLEFT
 10
0.0
 20
0.0
 30
0.0
  9
$PUCSORGRIGHT
 10
0.0
 20
0.0
 30
0.0
  9
$PUCSORGFRONT
 10
0.0
 20
0.0
 30
0.0
  9
$PUCSORGBACK
 10
0.0
 20
0.0
 30
0.0
  9
$USERI1
 70
     0
  9
$USERI2
 70
     0
  9
$USERI3
 70
     0
  9
$USERI4
 70
     0
  9
$USERI5
 70
     0
  9
$USERR1
 40
0.0
  9
$USERR2
 40
0.0
  9
$USERR3
 40
0.0
  9
$USERR4
 40
0.0
  9
$USERR5
 40
0.0
  9
$WORLDVIEW
 70
     1
  9
$SHADEDGE
 70
     3
  9
$SHADEDIF
 70
    70
  9
$TILEMODE
 70
     1
  9
$MAXACTVP
 70
    64
  9
$PINSBASE
 10
0.0
 20
0.0
 30
0.0
  9
$PLIMCHECK
 70
     0
  9
$PEXTMIN
 10
0.0
 20
0.0
 30
0.0
  9
$PEXTMAX
 10
0.0
 20
0.0
 30
0.0
  9
$PLIMMIN
 10
0.0
 20
0.0
  9
$PLIMMAX
 10
12.0
 20
9.0
  9
$UNITMODE
 70
     0
  9
$VISRETAIN
 70
     1
  9
$PLINEGEN
 70
     0
  9
$PSLTSCALE
 70
     1
  9
$TREEDEPTH
 70
  3020
  9
$CMLSTYLE
  2
Standard
  9
$CMLJUST
 70
     0
  9
$CMLSCALE
 40
20.0
  9
$PROXYGRAPHICS
 70
     1
  9
$MEASUREMENT
 70
     1
  9
$CELWEIGHT
370
    -1
  9
$ENDCAPS
280
     0
  9
$JOINSTYLE
280
     0
  9
$LWDISPLAY
290
     0
  9
$INSUNITS
 70
     4
  9
$HYPERLINKBASE
  1

  9
$STYLESHEET
  1

  9
$XEDIT
290
     1
  9
$CEPSNTYPE
380
     0
  9
$PSTYLEMODE
290
     1
  9
$FINGERPRINTGUID
  2
{85BDEEDC-945A-41ED-B217-0045A58D91D0}
  9
$VERSIONGUID
  2
{034D7D12-8660-4E65-82C5-BBF18E2FAD08}
  9
$EXTNAMES
290
     1
  9
$PSVPSCALE
 40
0.0
  9
$OLESTARTUP
290
     0
  0
ENDSEC
  0
SECTION
  2
CLASSES
  0
CLASS
  1
ACDBDICTIONARYWDFLT
  2
AcDbDictionaryWithDefault
  3
ObjectDBX Classes
 90
        0
280
     0
281
     0
  0
CLASS
  1
ACDBPLACEHOLDER
  2
AcDbPlaceHolder
  3
ObjectDBX Classes
 90
        0
280
     0
281
     0
  0
CLASS
  1
LAYOUT
  2
AcDbLayout
  3
ObjectDBX Classes
 90
        0
280
     0
281
     0
  0
CLASS
  1
DICTIONARYVAR
  2
AcDbDictionaryVar
  3
ObjectDBX Classes
 90
        0
280
     0
281
     0
  0
CLASS
  1
TABLESTYLE
  2
AcDbTableStyle
  3
ObjectDBX Classes
 90
     4095
280
     0
281
     0
  0
CLASS
  1
MATERIAL
  2
AcDbMaterial
  3
ObjectDBX Classes
 90
     1153
280
     0
281
     0
  0
CLASS
  1
VISUALSTYLE
  2
AcDbVisualStyle
  3
ObjectDBX Classes
 90
     4095
280
     0
281
     0
  0
CLASS
  1
SCALE
  2
AcDbScale
  3
ObjectDBX Classes
 90
     1153
280
     0
281
     0
  0
CLASS
  1
MLEADERSTYLE
  2
AcDbMLeaderStyle
  3
ACDB_MLEADERSTYLE_CLASS
 90
     4095
280
     0
281
     0
  0
CLASS
  1
CELLSTYLEMAP
  2
AcDbCellStyleMap
  3
ObjectDBX Classes
 90
     1152
280
     0
281
     0
  0
ENDSEC
  0
SECTION
  2
TABLES
  0
TABLE
  2
VPORT
  5
8
330
0
100
AcDbSymbolTable
 70
     1
  0
VPORT
  5
EA
330
8
100
AcDbSymbolTableRecord
100
AcDbViewportTableRecord
  2
*Active
 70
     0
 10
0.0
 20
0.0
 11
1.0
 21
1.0
 12
1837.449831621579
 22
900.7306864856282
 13
0.0
 23
0.0
 14
10.0
 24
10.0
 15
10.0
 25
10.0
 16
0.0
 26
0.0
 36
1.0
 17
0.0
 27
0.0
 37
0.0
 40
226.5864458515434
 41
1.903110047846889
 42
50.0
 43
0.0
 44
0.0
 50
0.0
 51
0.0
 71
     0
 72
  1000
 73
     1
 74
     3
 75
     0
 76
     0
 77
     0
 78
     0
281
     0
 65
     1
110
0.0
120
0.0
130
0.0
111
1.0
121
0.0
131
0.0
112
0.0
122
1.0
132
0.0
 79
     0
146
0.0
  0
ENDTAB
  0
TABLE
  2
LTYPE
  5
5
330
0
100
AcDbSymbolTable
 70
     1
  0
LTYPE
  5
14
330
5
100
AcDbSymbolTableRecord
100
AcDbLinetypeTableRecord
  2
ByBlock
 70
     0
  3

 72
    65
 73
     0
 40
0.0
  0
LTYPE
  5
15
330
5
100
AcDbSymbolTableRecord
100
AcDbLinetypeTableRecord
  2
ByLayer
 70
     0
  3

 72
    65
 73
     0
 40
0.0
  0
LTYPE
  5
16
330
5
100
AcDbSymbolTableRecord
100
AcDbLinetypeTableRecord
  2
Continuous
 70
     0
  3
Solid line
 72
    65
 73
     0
 40
0.0
  0
ENDTAB
  0
TABLE
  2
LAYER
  5
2
330
0
100
AcDbSymbolTable
 70
     1
  0
LAYER
  5
10
102
{ACAD_XDICTIONARY
360
13C
102
}
330
2
100
AcDbSymbolTableRecord
100
AcDbLayerTableRecord
  2
0
 70
     0
 62
     7
  6
Continuous
370
    -3
390
F
  0
ENDTAB
  0
TABLE
  2
STYLE
  5
3
330
0
100
AcDbSymbolTable
 70
     2
  0
STYLE
  5
11
330
3
100
AcDbSymbolTableRecord
100
AcDbTextStyleTableRecord
  2
Standard
 70
     0
 40
0.0
 41
1.0
 50
0.0
 71
     0
 42
2.5
  3
txt
  4

  0
STYLE
  5
132
330
3
100
AcDbSymbolTableRecord
100
AcDbTextStyleTableRecord
  2
Annotative
 70
     0
 40
0.0
 41
1.0
 50
0.0
 71
     0
 42
2.5
  3
txt.shx
  4

1001
AcadAnnotative
1000
AnnotativeData
1002
{
1070
     1
1070
     1
1002
}
  0
ENDTAB
  0
TABLE
  2
VIEW
  5
6
330
0
100
AcDbSymbolTable
 70
     0
  0
ENDTAB
  0
TABLE
  2
UCS
  5
7
330
0
100
AcDbSymbolTable
 70
     0
  0
ENDTAB
  0
TABLE
  2
APPID
  5
9
330
0
100
AcDbSymbolTable
 70
     7
  0
APPID
  5
12
330
9
100
AcDbSymbolTableRecord
100
AcDbRegAppTableRecord
  2
ACAD
 70
     0
  0
APPID
  5
9E
330
9
100
AcDbSymbolTableRecord
100
AcDbRegAppTableRecord
  2
ACAD_PSEXT
 70
     0
  0
APPID
  5
133
330
9
100
AcDbSymbolTableRecord
100
AcDbRegAppTableRecord
  2
AcadAnnoPO
 70
     0
  0
APPID
  5
134
330
9
100
AcDbSymbolTableRecord
100
AcDbRegAppTableRecord
  2
AcadAnnotative
 70
     0
  0
APPID
  5
135
330
9
100
AcDbSymbolTableRecord
100
AcDbRegAppTableRecord
  2
ACAD_DSTYLE_DIMJAG
 70
     0
  0
APPID
  5
136
330
9
100
AcDbSymbolTableRecord
100
AcDbRegAppTableRecord
  2
ACAD_DSTYLE_DIMTALN
 70
     0
  0
APPID
  5
165
330
9
100
AcDbSymbolTableRecord
100
AcDbRegAppTableRecord
  2
ACAD_MLEADERVER
 70
     0
  0
ENDTAB
  0
TABLE
  2
DIMSTYLE
  5
A
330
0
100
AcDbSymbolTable
 70
     2
100
AcDbDimStyleTable
 71
     2
340
27
340
137
  0
DIMSTYLE
105
27
330
A
100
AcDbSymbolTableRecord
100
AcDbDimStyleTableRecord
  2
ISO-25
 70
     0
 41
2.5
 42
0.625
 43
3.75
 44
1.25
 73
     0
 74
     0
 77
     1
 78
     8
140
2.5
141
2.5
143
0.03937007874016
147
0.625
171
     3
172
     1
271
     2
272
     2
274
     3
278
    44
283
     0
284
     8
340
11
  0
DIMSTYLE
105
137
330
A
100
AcDbSymbolTableRecord
100
AcDbDimStyleTableRecord
  2
Annotative
 70
     0
 40
0.0
 41
2.5
 42
0.625
 43
3.75
 44
1.25
 73
     0
 74
     0
 77
     1
 78
     8
140
2.5
141
2.5
143
0.03937007874016
147
0.625
171
     3
172
     1
271
     2
272
     2
274
     3
278
    44
283
     0
284
     8
340
11
1001
AcadAnnotative
1000
AnnotativeData
1002
{
1070
     1
1070
     1
1002
}
1001
ACAD_DSTYLE_DIMJAG
1070
   388
1040
1.5
1001
ACAD_DSTYLE_DIMTALN
1070
   392
1070
     0
  0
ENDTAB
  0
TABLE
  2
BLOCK_RECORD
  5
1
330
0
100
AcDbSymbolTable
 70
     5
  0
BLOCK_RECORD
  5
1F
330
1
100
AcDbSymbolTableRecord
100
AcDbBlockTableRecord
  2
*Model_Space
340
22
  0
BLOCK_RECORD
  5
D2
330
1
100
AcDbSymbolTableRecord
100
AcDbBlockTableRecord
  2
*Paper_Space
340
D3
  0
BLOCK_RECORD
  5
D6
330
1
100
AcDbSymbolTableRecord
100
AcDbBlockTableRecord
  2
*Paper_Space0
340
D7
  0
BLOCK_RECORD
  5
511
330
1
100
AcDbSymbolTableRecord
100
AcDbBlockTableRecord
  2
1
340
0
310
2800000020000000200000000100080000000000000400000000000000000000000000000000000000000000000080000080000000808000800000008000800080800000C0C0C000C0DCC000F0CAA6000020400000206000002080000020A0000020C0000020E00000400000004020000040400000406000004080000040A0
310
000040C0000040E00000600000006020000060400000606000006080000060A0000060C0000060E00000800000008020000080400000806000008080000080A0000080C0000080E00000A0000000A0200000A0400000A0600000A0800000A0A00000A0C00000A0E00000C0000000C0200000C0400000C0600000C0800000C0
310
A00000C0C00000C0E00000E0000000E0200000E0400000E0600000E0800000E0A00000E0C00000E0E00040000000400020004000400040006000400080004000A0004000C0004000E00040200000402020004020400040206000402080004020A0004020C0004020E000404000004040200040404000404060004040800040
310
40A0004040C0004040E00040600000406020004060400040606000406080004060A0004060C0004060E00040800000408020004080400040806000408080004080A0004080C0004080E00040A0000040A0200040A0400040A0600040A0800040A0A00040A0C00040A0E00040C0000040C0200040C0400040C0600040C08000
310
40C0A00040C0C00040C0E00040E0000040E0200040E0400040E0600040E0800040E0A00040E0C00040E0E00080000000800020008000400080006000800080008000A0008000C0008000E00080200000802020008020400080206000802080008020A0008020C0008020E00080400000804020008040400080406000804080
310
008040A0008040C0008040E00080600000806020008060400080606000806080008060A0008060C0008060E00080800000808020008080400080806000808080008080A0008080C0008080E00080A0000080A0200080A0400080A0600080A0800080A0A00080A0C00080A0E00080C0000080C0200080C0400080C0600080C0
310
800080C0A00080C0C00080C0E00080E0000080E0200080E0400080E0600080E0800080E0A00080E0C00080E0E000C0000000C0002000C0004000C0006000C0008000C000A000C000C000C000E000C0200000C0202000C0204000C0206000C0208000C020A000C020C000C020E000C0400000C0402000C0404000C0406000C0
310
408000C040A000C040C000C040E000C0600000C0602000C0604000C0606000C0608000C060A000C060C000C060E000C0800000C0802000C0804000C0806000C0808000C080A000C080C000C080E000C0A00000C0A02000C0A04000C0A06000C0A08000C0A0A000C0A0C000C0A0E000C0C00000C0C02000C0C04000C0C06000
310
C0C08000C0C0A000F0FBFF00A4A0A000808080000000FF0000FF000000FFFF00FF000000FF00FF00FFFF0000FFFFFF0000000000000000000000000000000000000000000000000000000000000000000000000000000000000000000000000000000000000000000000000000000000000000000000000000000000000000
310
00000000000000000000000000000000000000000000000000000000000000000000000000000000000000000000000000000000000000000000000000000000000000000000000000000000000000000000000000000000000000000000000000000000000000000000000000000000000000000000000000000000000000
310
00000000000000000000000000000000000000000000000000000000000000000000000000000000000000000000000000000000000000000000000000000000000000000000000000000000000000000000000000000000000000000000000000000000000000000000000000000000000000000000000000000000000000
310
0000000000000000000000000000000000000000FFFFFFFFFFFFFFFFFFFFFFFFFFFFFFFFFFFFFFFFFFFFFFFFFFFFFFFFFFFF0000FF00000000000000000000000000000000000000000000000000000000FF0000FF0000FFFF0000FFFF00000000000000FF000000FF000000FFFF000000FF0000FF0000FF00FFFFFF00FFFF
310
0000000000FFFFFF00FFFFFF00FF00FFFF00FF0000FF0000FFFFFF00FFFFFF000000000000FFFF0000FFFF0000FFFFFF0000FF0000FF0000FF000000FF0000000000000000FF000000FF000000FF00000000FF0000FF00000000000000000000000000000000000000000000000000000000FF0000FFFFFFFFFFFFFFFFFFFF
310
FFFFFFFFFFFFFFFFFFFFFFFFFFFFFFFFFFFFFFFF00000000FF000000FF000000FF00000000FFFFFFFFFFFFFFFFFFFFFFFFFF000000000000FFFFFFFFFFFFFFFFFF0000000000000000000000000000000000000000000000000000000000000000000000000000000000000000000000000000000000000000000000000000
310
00000000000000000000000000000000000000000000000000000000000000000000000000000000000000000000000000000000000000000000000000000000000000000000000000000000000000000000000000000000000000000000000000000000000000000000000000000000000000000000000000000000000000
310
00000000000000000000000000000000000000000000000000000000000000000000000000000000000000000000000000000000000000000000000000000000000000000000000000000000000000000000000000000000000000000000000000000000000000000000000000000000000000000000000000000000000000
310
0000000000000000000000000000000000000000000000000000000000000000000000000000000000000000000000000000000000000000
102
{BLKREFS
331
54A
102
}
1001
ACAD
1000
DesignCenter Data
1002
{
1070
     1
1070
     4
1002
}
  0
BLOCK_RECORD
  5
54B
330
1
100
AcDbSymbolTableRecord
100
AcDbBlockTableRecord
  2
2
340
0
310
2800000020000000200000000100080000000000000400000000000000000000000000000000000000000000000080000080000000808000800000008000800080800000C0C0C000C0DCC000F0CAA6000020400000206000002080000020A0000020C0000020E00000400000004020000040400000406000004080000040A0
310
000040C0000040E00000600000006020000060400000606000006080000060A0000060C0000060E00000800000008020000080400000806000008080000080A0000080C0000080E00000A0000000A0200000A0400000A0600000A0800000A0A00000A0C00000A0E00000C0000000C0200000C0400000C0600000C0800000C0
310
A00000C0C00000C0E00000E0000000E0200000E0400000E0600000E0800000E0A00000E0C00000E0E00040000000400020004000400040006000400080004000A0004000C0004000E00040200000402020004020400040206000402080004020A0004020C0004020E000404000004040200040404000404060004040800040
310
40A0004040C0004040E00040600000406020004060400040606000406080004060A0004060C0004060E00040800000408020004080400040806000408080004080A0004080C0004080E00040A0000040A0200040A0400040A0600040A0800040A0A00040A0C00040A0E00040C0000040C0200040C0400040C0600040C08000
310
40C0A00040C0C00040C0E00040E0000040E0200040E0400040E0600040E0800040E0A00040E0C00040E0E00080000000800020008000400080006000800080008000A0008000C0008000E00080200000802020008020400080206000802080008020A0008020C0008020E00080400000804020008040400080406000804080
310
008040A0008040C0008040E00080600000806020008060400080606000806080008060A0008060C0008060E00080800000808020008080400080806000808080008080A0008080C0008080E00080A0000080A0200080A0400080A0600080A0800080A0A00080A0C00080A0E00080C0000080C0200080C0400080C0600080C0
310
800080C0A00080C0C00080C0E00080E0000080E0200080E0400080E0600080E0800080E0A00080E0C00080E0E000C0000000C0002000C0004000C0006000C0008000C000A000C000C000C000E000C0200000C0202000C0204000C0206000C0208000C020A000C020C000C020E000C0400000C0402000C0404000C0406000C0
310
408000C040A000C040C000C040E000C0600000C0602000C0604000C0606000C0608000C060A000C060C000C060E000C0800000C0802000C0804000C0806000C0808000C080A000C080C000C080E000C0A00000C0A02000C0A04000C0A06000C0A08000C0A0A000C0A0C000C0A0E000C0C00000C0C02000C0C04000C0C06000
310
C0C08000C0C0A000F0FBFF00A4A0A000808080000000FF0000FF000000FFFF00FF000000FF00FF00FFFF0000FFFFFF0000000000000000000000000000000000000000000000000000000000000000000000000000000000000000000000000000000000000000000000000000000000000000000000000000000000000000
310
00000000000000000000000000000000000000000000000000000000000000000000000000000000000000000000000000000000000000000000000000000000000000000000000000000000000000000000000000000000000000000000000000000000000000000000000000000000000000000000000000000000000000
310
00000000000000000000000000000000000000000000000000000000000000000000000000000000000000000000000000000000000000000000000000000000000000000000000000000000000000000000000000000000000000000000000000000000000000000000000000000000000000000000000000000000000000
310
000000000000000000000000000000000000000000000000000000000000000000000000000000000000000000000000000000000000000000000000000000000000000000000000000000000000000000000000FFFFFFFFFFFFFFFFFFFFFFFFFFFFFFFFFFFFFFFFFFFFFFFFFFFFFFFFFFFF0000FF000000FF000000FFFF00
310
00FF000000FFFF000000FF000000FF000000FF0000FF00FFFFFFFFFFFFFFFFFFFF00FFFFFFFFFFFFFFFFFFFFFFFFFFFFFF00FF0000FF00FFFFFFFFFFFFFFFFFF00FFFF00FFFFFFFFFFFFFFFFFFFFFFFFFF00FF0000FF000000FF000000FFFF0000FF000000FFFF000000FF000000FF000000FF0000FFFFFFFFFFFFFFFFFFFF
310
FFFFFFFFFFFFFFFFFFFFFFFFFFFFFFFFFFFFFFFF0000000000000000000000000000000000000000000000000000000000000000000000000000000000000000000000000000000000000000000000000000000000000000000000000000000000000000000000000000000000000000000000000000000000000000000000
310
00000000000000000000000000000000000000000000000000000000000000000000000000000000000000000000000000000000000000000000000000000000000000000000000000000000000000000000000000000000000000000000000000000000000000000000000000000000000000000000000000000000000000
310
00000000000000000000000000000000000000000000000000000000000000000000000000000000000000000000000000000000000000000000000000000000000000000000000000000000000000000000000000000000000000000000000000000000000000000000000000000000000000000000000000000000000000
310
0000000000000000000000000000000000000000000000000000000000000000000000000000000000000000000000000000000000000000
102
{BLKREFS
331
607
102
}
1001
ACAD
1000
DesignCenter Data
1002
{
1070
     1
1070
     4
1002
}
  0
BLOCK_RECORD
  5
608
330
1
100
AcDbSymbolTableRecord
100
AcDbBlockTableRecord
  2
3
340
0
310
2800000020000000200000000100080000000000000400000000000000000000000000000000000000000000000080000080000000808000800000008000800080800000C0C0C000C0DCC000F0CAA6000020400000206000002080000020A0000020C0000020E00000400000004020000040400000406000004080000040A0
310
000040C0000040E00000600000006020000060400000606000006080000060A0000060C0000060E00000800000008020000080400000806000008080000080A0000080C0000080E00000A0000000A0200000A0400000A0600000A0800000A0A00000A0C00000A0E00000C0000000C0200000C0400000C0600000C0800000C0
310
A00000C0C00000C0E00000E0000000E0200000E0400000E0600000E0800000E0A00000E0C00000E0E00040000000400020004000400040006000400080004000A0004000C0004000E00040200000402020004020400040206000402080004020A0004020C0004020E000404000004040200040404000404060004040800040
310
40A0004040C0004040E00040600000406020004060400040606000406080004060A0004060C0004060E00040800000408020004080400040806000408080004080A0004080C0004080E00040A0000040A0200040A0400040A0600040A0800040A0A00040A0C00040A0E00040C0000040C0200040C0400040C0600040C08000
310
40C0A00040C0C00040C0E00040E0000040E0200040E0400040E0600040E0800040E0A00040E0C00040E0E00080000000800020008000400080006000800080008000A0008000C0008000E00080200000802020008020400080206000802080008020A0008020C0008020E00080400000804020008040400080406000804080
310
008040A0008040C0008040E00080600000806020008060400080606000806080008060A0008060C0008060E00080800000808020008080400080806000808080008080A0008080C0008080E00080A0000080A0200080A0400080A0600080A0800080A0A00080A0C00080A0E00080C0000080C0200080C0400080C0600080C0
310
800080C0A00080C0C00080C0E00080E0000080E0200080E0400080E0600080E0800080E0A00080E0C00080E0E000C0000000C0002000C0004000C0006000C0008000C000A000C000C000C000E000C0200000C0202000C0204000C0206000C0208000C020A000C020C000C020E000C0400000C0402000C0404000C0406000C0
310
408000C040A000C040C000C040E000C0600000C0602000C0604000C0606000C0608000C060A000C060C000C060E000C0800000C0802000C0804000C0806000C0808000C080A000C080C000C080E000C0A00000C0A02000C0A04000C0A06000C0A08000C0A0A000C0A0C000C0A0E000C0C00000C0C02000C0C04000C0C06000
310
C0C08000C0C0A000F0FBFF00A4A0A000808080000000FF0000FF000000FFFF00FF000000FF00FF00FFFF0000FFFFFF0000000000000000000000000000000000000000000000000000000000000000000000000000000000FFFFFFFFFFFFFFFFFFFFFFFFFFFFFFFF00000000000000000000000000000000FF000000000000
310
0000000000000000FF00000000000000000000000000000000FF0000000000000000000000000000FF00000000000000000000000000000000FF0000000000000000000000000000FF00000000000000000000000000000000FF0000000000000000000000000000FF00000000000000000000000000000000FF0000000000
310
000000000000000000FF00000000000000000000000000000000FF0000000000000000000000000000FF00000000000000000000000000000000FF0000000000000000000000000000FF00000000000000000000000000000000FF0000000000000000000000000000FF00000000000000000000000000000000FF00000000
310
00000000000000000000FF00000000000000000000000000000000FF0000000000000000000000000000FF00000000000000000000000000000000FF0000000000000000000000000000FF00000000000000000000000000000000FF0000000000000000000000000000FF00000000000000000000000000000000FF000000
310
0000000000000000000000FF00000000000000000000000000000000FF0000000000000000000000000000FF00000000000000000000000000000000FF0000000000000000000000000000FF00000000000000000000000000000000FF0000000000000000000000000000FF00000000000000000000000000000000FF0000
310
000000000000000000000000FF00000000000000000000000000000000FF0000000000000000000000000000FF00000000000000000000000000000000FF0000000000000000000000000000FF00000000000000000000000000000000FF0000000000000000000000000000FF00000000000000000000000000000000FF00
310
00000000000000000000000000FF00000000000000000000000000000000FFFFFFFFFFFFFFFFFFFFFFFFFFFFFFFF0000000000000000000000000000000000FFFF00000000000000000000FFFF000000000000000000000000000000000000FFFF00000000000000000000FFFF000000000000000000000000000000000000
310
FFFF000000FFFFFFFF000000FFFF000000000000000000000000000000000000FFFF000000FFFFFFFF000000FFFF000000000000000000000000000000000000FFFF000000FF0000FF000000FFFF000000000000000000000000000000000000FFFFFFFFFFFF0000FFFFFFFFFFFF0000000000000000000000000000000000
310
00FFFFFFFFFFFF0000FFFFFFFFFFFF0000000000000000000000000000000000000000000000000000000000000000000000000000000000
102
{BLKREFS
331
625
102
}
1001
ACAD
1000
DesignCenter Data
1002
{
1070
     1
1070
     4
1002
}
  0
BLOCK_RECORD
  5
626
330
1
100
AcDbSymbolTableRecord
100
AcDbBlockTableRecord
  2
4
340
0
310
2800000020000000200000000100080000000000000400000000000000000000000000000000000000000000000080000080000000808000800000008000800080800000C0C0C000C0DCC000F0CAA6000020400000206000002080000020A0000020C0000020E00000400000004020000040400000406000004080000040A0
310
000040C0000040E00000600000006020000060400000606000006080000060A0000060C0000060E00000800000008020000080400000806000008080000080A0000080C0000080E00000A0000000A0200000A0400000A0600000A0800000A0A00000A0C00000A0E00000C0000000C0200000C0400000C0600000C0800000C0
310
A00000C0C00000C0E00000E0000000E0200000E0400000E0600000E0800000E0A00000E0C00000E0E00040000000400020004000400040006000400080004000A0004000C0004000E00040200000402020004020400040206000402080004020A0004020C0004020E000404000004040200040404000404060004040800040
310
40A0004040C0004040E00040600000406020004060400040606000406080004060A0004060C0004060E00040800000408020004080400040806000408080004080A0004080C0004080E00040A0000040A0200040A0400040A0600040A0800040A0A00040A0C00040A0E00040C0000040C0200040C0400040C0600040C08000
310
40C0A00040C0C00040C0E00040E0000040E0200040E0400040E0600040E0800040E0A00040E0C00040E0E00080000000800020008000400080006000800080008000A0008000C0008000E00080200000802020008020400080206000802080008020A0008020C0008020E00080400000804020008040400080406000804080
310
008040A0008040C0008040E00080600000806020008060400080606000806080008060A0008060C0008060E00080800000808020008080400080806000808080008080A0008080C0008080E00080A0000080A0200080A0400080A0600080A0800080A0A00080A0C00080A0E00080C0000080C0200080C0400080C0600080C0
310
800080C0A00080C0C00080C0E00080E0000080E0200080E0400080E0600080E0800080E0A00080E0C00080E0E000C0000000C0002000C0004000C0006000C0008000C000A000C000C000C000E000C0200000C0202000C0204000C0206000C0208000C020A000C020C000C020E000C0400000C0402000C0404000C0406000C0
310
408000C040A000C040C000C040E000C0600000C0602000C0604000C0606000C0608000C060A000C060C000C060E000C0800000C0802000C0804000C0806000C0808000C080A000C080C000C080E000C0A00000C0A02000C0A04000C0A06000C0A08000C0A0A000C0A0C000C0A0E000C0C00000C0C02000C0C04000C0C06000
310
C0C08000C0C0A000F0FBFF00A4A0A000808080000000FF0000FF000000FFFF00FF000000FF00FF00FFFF0000FFFFFF0000000000000000000000000000000000000000000000000000000000000000000000000000000000000000000000000000000000000000000000000000000000000000000000000000000000000000
310
0000000000000000000000000000000000000000000000000000000000000000000000000000000000000000000000000000000000000000000000000000000000000000000000000000000000000000000000000000000000000000000000000000000000000000000000FF00000000000000000000000000000000000000
310
00000000000000000000FFFFFFFFFF00000000000000000000000000000000000000000000000000FFFFFF00FF0000FFFF000000000000000000000000000000000000000000FFFFFFFFFF00FF000000FF00000000000000000000000000000000000000FFFFFF00FF00FF00FF000000FF0000000000000000000000000000
310
000000FFFFFFFFFFFFFFFFFF00FF000000FF000000000000000000000000000000FFFFFFFFFFFFFFFFFFFFFFFF00FF0000FF00000000000000000000000000FFFF00FFFFFFFFFFFF00FFFFFFFFFF00FFFFFF0000000000000000000000FFFF0000FFFF00FFFFFFFFFF00FF0000FFFF00FFFF000000000000000000FFFF0000
310
0000FFFFFFFFFFFFFFFFFFFFFFFFFFFFFF000000000000000000FFFFFFFFFF000000FFFFFFFF00FF0000FFFFFFFFFFFF0000000000000000FFFF00FFFFFFFF00000000FFFFFFFFFFFFFFFFFFFFFFFF00000000000000FFFF00FFFFFF0000FF0000FFFFFFFF00FFFFFFFFFFFF000000000000000000FF00FFFFFFFFFF00FF00
310
FFFFFFFFFFFFFFFFFFFFFFFF00000000000000000000FF00FFFF00FFFFFFFFFF00FF0000FFFFFFFFFF00000000000000000000000000FF00FF00FFFF00FFFFFFFFFFFFFFFFFFFFFFFF00000000000000000000000000FF00FFFFFFFFFFFF0000FFFF00FFFF0000000000000000000000000000000000FF0000FFFFFFFFFFFF
310
FFFFFFFF00000000000000000000000000000000000000FFFFFFFF000000FFFFFFFFFF0000000000000000000000000000000000000000FF0000FFFFFFFFFFFFFFFFFF000000000000000000000000000000000000000000FFFFFFFFFFFFFFFF0000000000000000000000000000000000000000000000000000FFFFFFFFFF
310
00000000000000000000000000000000000000000000000000000000000000000000000000000000000000000000000000000000000000000000000000000000000000000000000000000000000000000000000000000000000000000000000000000000000000000000000000000000000000000000000000000000000000
310
0000000000000000000000000000000000000000000000000000000000000000000000000000000000000000000000000000000000000000
102
{BLKREFS
331
6D0
102
}
1001
ACAD
1000
DesignCenter Data
1002
{
1070
     1
1070
     4
1002
}
  0
ENDTAB
  0
ENDSEC
  0
SECTION
  2
BLOCKS
  0
BLOCK
  5
20
330
1F
100
AcDbEntity
  8
0
100
AcDbBlockBegin
  2
*Model_Space
 70
     0
 10
0.0
 20
0.0
 30
0.0
  3
*Model_Space
  1

  0
ENDBLK
  5
21
330
1F
100
AcDbEntity
  8
0
100
AcDbBlockEnd
  0
BLOCK
  5
D4
330
D2
100
AcDbEntity
 67
     1
  8
0
100
AcDbBlockBegin
  2
*Paper_Space
 70
     0
 10
0.0
 20
0.0
 30
0.0
  3
*Paper_Space
  1

  0
ENDBLK
  5
D5
330
D2
100
AcDbEntity
 67
     1
  8
0
100
AcDbBlockEnd
  0
BLOCK
  5
D8
330
D6
100
AcDbEntity
 67
     1
  8
0
100
AcDbBlockBegin
  2
*Paper_Space0
 70
     0
 10
0.0
 20
0.0
 30
0.0
  3
*Paper_Space0
  1

  0
ENDBLK
  5
D9
330
D6
100
AcDbEntity
 67
     1
  8
0
100
AcDbBlockEnd
  0
BLOCK
  5
512
330
511
100
AcDbEntity
  8
0
100
AcDbBlockBegin
  2
1
 70
     0
 10
0.0
 20
0.0
 30
0.0
  3
1
  1

  0
LINE
  5
514
330
511
100
AcDbEntity
  8
0
  6
Continuous
 62
     7
370
    15
100
AcDbLine
 10
1746.218821846669
 20
919.5449481958167
 30
0.0
 11
1746.218821846669
 21
917.7449481958166
 31
0.0
  0
LINE
  5
515
330
511
100
AcDbEntity
  8
0
  6
Continuous
 62
     7
370
    15
100
AcDbLine
 10
1752.018821846669
 20
917.7449481958166
 30
0.0
 11
1752.018821846669
 21
919.5449481958167
 31
0.0
  0
LINE
  5
516
330
511
100
AcDbEntity
  8
0
  6
Continuous
 62
     7
370
    15
100
AcDbLine
 10
1752.468821846669
 20
919.5449481958167
 30
0.0
 11
1752.468821846669
 21
917.7449481958166
 31
0.0
  0
LINE
  5
517
330
511
100
AcDbEntity
  8
0
  6
Continuous
 62
     7
370
    15
100
AcDbLine
 10
1758.268821846669
 20
917.7449481958166
 30
0.0
 11
1758.268821846669
 21
919.5449481958167
 31
0.0
  0
LINE
  5
518
330
511
100
AcDbEntity
  8
0
  6
Continuous
 62
     7
370
    15
100
AcDbLine
 10
1771.718821846669
 20
919.1149481958166
 30
0.0
 11
1771.718821846669
 21
917.7449481958166
 31
0.0
  0
LINE
  5
519
330
511
100
AcDbEntity
  8
0
  6
Continuous
 62
     7
370
    15
100
AcDbLine
 10
1776.518821846669
 20
917.7449481958166
 30
0.0
 11
1776.518821846669
 21
919.1149481958166
 31
0.0
  0
LINE
  5
51A
330
511
100
AcDbEntity
  8
0
  6
Continuous
 62
     7
370
    15
100
AcDbLine
 10
1765.468821846669
 20
919.1149481958166
 30
0.0
 11
1765.468821846669
 21
917.7449481958166
 31
0.0
  0
LINE
  5
51B
330
511
100
AcDbEntity
  8
0
  6
Continuous
 62
     7
370
    15
100
AcDbLine
 10
1770.268821846669
 20
917.7449481958166
 30
0.0
 11
1770.268821846669
 21
919.1149481958166
 31
0.0
  0
LINE
  5
51C
330
511
100
AcDbEntity
  8
0
  6
Continuous
 62
     7
370
    15
100
AcDbLine
 10
1777.968821846669
 20
919.1149481958166
 30
0.0
 11
1777.968821846669
 21
917.7449481958166
 31
0.0
  0
LINE
  5
51D
330
511
100
AcDbEntity
  8
0
  6
Continuous
 62
     7
370
    15
100
AcDbLine
 10
1782.768821846669
 20
917.7449481958166
 30
0.0
 11
1782.768821846669
 21
919.1149481958166
 31
0.0
  0
LINE
  5
51E
330
511
100
AcDbEntity
  8
0
  6
Continuous
 62
     7
370
    15
100
AcDbLine
 10
1785.743821846669
 20
908.7449481958167
 30
0.0
 11
1743.743821846669
 21
908.7449481958167
 31
0.0
  0
LINE
  5
51F
330
511
100
AcDbEntity
  8
0
  6
Continuous
 62
     7
370
    15
100
AcDbLine
 10
1743.743821846669
 20
908.7449481958167
 30
0.0
 11
1743.743821846669
 21
917.7449481958166
 31
0.0
  0
LINE
  5
520
330
511
100
AcDbEntity
  8
0
  6
Continuous
 62
     7
370
    15
100
AcDbLine
 10
1743.743821846669
 20
917.7449481958166
 30
0.0
 11
1785.743821846669
 21
917.7449481958166
 31
0.0
  0
LINE
  5
521
330
511
100
AcDbEntity
  8
0
  6
Continuous
 62
     7
370
    15
100
AcDbLine
 10
1785.743821846669
 20
917.7449481958166
 30
0.0
 11
1785.743821846669
 21
908.7449481958167
 31
0.0
  0
CIRCLE
  5
522
330
511
100
AcDbEntity
  8
0
  6
Continuous
 62
     7
370
    15
100
AcDbCircle
 10
1767.868821846669
 20
913.1449481958165
 30
0.0
 40
2.399999999999977
  0
CIRCLE
  5
523
330
511
100
AcDbEntity
  8
0
  6
Continuous
 62
     7
370
    15
100
AcDbCircle
 10
1749.118821846669
 20
913.1449481958165
 30
0.0
 40
2.749999999999971
  0
CIRCLE
  5
524
330
511
100
AcDbEntity
  8
0
  6
Continuous
 62
     7
370
    15
100
AcDbCircle
 10
1755.368821846669
 20
913.1449481958165
 30
0.0
 40
2.749999999999971
  0
CIRCLE
  5
525
330
511
100
AcDbEntity
  8
0
  6
Continuous
 62
     7
370
    15
100
AcDbCircle
 10
1780.368821846669
 20
913.1449481958165
 30
0.0
 40
2.399999999999977
  0
CIRCLE
  5
526
330
511
100
AcDbEntity
  8
0
  6
Continuous
 62
     7
370
    15
100
AcDbCircle
 10
1774.118821846669
 20
913.1449481958165
 30
0.0
 40
2.400000000000005
  0
LINE
  5
527
330
511
100
AcDbEntity
  8
0
  6
Continuous
 62
     7
370
    15
100
AcDbLine
 10
1752.018821846669
 20
919.5449481958167
 30
0.0
 11
1751.9679094583
 21
919.5449481958167
 31
0.0
  0
ELLIPSE
  5
528
330
511
100
AcDbEntity
  8
0
  6
Continuous
 62
     7
370
    15
100
AcDbEllipse
 10
1749.118821846669
 20
909.2962661831798
 30
0.0
 11
0.0039869370893371
 21
55.33529639401725
 31
0.0
210
0.0
220
0.0
230
1.0
 40
0.0524077297556489
 41
4.898678895797846
 42
4.920794562980828
  0
LINE
  5
529
330
511
100
AcDbEntity
  8
0
  6
Continuous
 62
     7
370
    15
100
AcDbLine
 10
1746.268261445484
 20
919.5449481958167
 30
0.0
 11
1746.218821846669
 21
919.5449481958167
 31
0.0
  0
ELLIPSE
  5
52A
330
511
100
AcDbEntity
  8
0
  6
Continuous
 62
     7
370
    15
100
AcDbEllipse
 10
1749.118821846669
 20
909.2962661831796
 30
0.0
 11
-0.0039869370893655
 21
55.33529639401725
 31
0.0
210
0.0
220
0.0
230
1.0
 40
0.0524077297556494
 41
1.362390744198767
 42
1.384506411381747
  0
LINE
  5
52B
330
511
100
AcDbEntity
  8
0
  6
Continuous
 62
     7
370
    15
100
AcDbLine
 10
1751.955248753931
 20
920.7449481958168
 30
0.0
 11
1746.280749703537
 21
920.7449481958168
 31
0.0
  0
ELLIPSE
  5
52C
330
511
100
AcDbEntity
  8
0
  6
Continuous
 62
     7
370
    15
100
AcDbEllipse
 10
1749.118821846669
 20
909.2962661831796
 30
0.0
 11
-0.0039869370893655
 21
55.33529639401725
 31
0.0
210
0.0
220
0.0
230
1.0
 40
0.0524077297556494
 41
4.89867134378909
 42
4.920787010972071
  0
LINE
  5
52D
330
511
100
AcDbEntity
  8
0
  6
Continuous
 62
     7
370
    15
100
AcDbLine
 10
1758.268821846669
 20
919.5449481958167
 30
0.0
 11
1758.2179094583
 21
919.5449481958167
 31
0.0
  0
ELLIPSE
  5
52E
330
511
100
AcDbEntity
  8
0
  6
Continuous
 62
     7
370
    15
100
AcDbEllipse
 10
1755.368821846669
 20
909.2962661831798
 30
0.0
 11
0.0039869370893655
 21
55.33529639401725
 31
0.0
210
0.0
220
0.0
230
1.0
 40
0.0524077297556489
 41
4.898678895797846
 42
4.920794562980828
  0
LINE
  5
52F
330
511
100
AcDbEntity
  8
0
  6
Continuous
 62
     7
370
    15
100
AcDbLine
 10
1752.518261445484
 20
919.5449481958167
 30
0.0
 11
1752.468821846669
 21
919.5449481958167
 31
0.0
  0
ELLIPSE
  5
530
330
511
100
AcDbEntity
  8
0
  6
Continuous
 62
     7
370
    15
100
AcDbEllipse
 10
1755.368821846669
 20
909.2962661831796
 30
0.0
 11
-0.0039869370893655
 21
55.33529639401725
 31
0.0
210
0.0
220
0.0
230
1.0
 40
0.0524077297556494
 41
1.362390744198767
 42
1.384506411381747
  0
ELLIPSE
  5
531
330
511
100
AcDbEntity
  8
0
  6
Continuous
 62
     7
370
    15
100
AcDbEllipse
 10
1755.368821846669
 20
909.2962661831796
 30
0.0
 11
-0.0039869370893655
 21
55.33529639401725
 31
0.0
210
0.0
220
0.0
230
1.0
 40
0.0524077297556494
 41
4.898671343789092
 42
4.920787010972071
  0
LINE
  5
532
330
511
100
AcDbEntity
  8
0
  6
Continuous
 62
     7
370
    15
100
AcDbLine
 10
1758.205248753931
 20
920.7449481958168
 30
0.0
 11
1752.530749703536
 21
920.7449481958168
 31
0.0
  0
LINE
  5
533
330
511
100
AcDbEntity
  8
0
  6
Continuous
 62
     7
370
    15
100
AcDbLine
 10
1751.956893989801
 20
920.7449481958168
 30
0.0
 11
1751.955248753931
 21
920.7449481958168
 31
0.0
  0
LINE
  5
534
330
511
100
AcDbEntity
  8
0
  6
Continuous
 62
     7
370
    15
100
AcDbLine
 10
1758.206893989801
 20
920.7449481958168
 30
0.0
 11
1758.205248753931
 21
920.7449481958168
 31
0.0
  0
LINE
  5
535
330
511
100
AcDbEntity
  8
0
  6
Continuous
 62
     7
370
    15
100
AcDbLine
 10
1776.518821846669
 20
919.1149481958166
 30
0.0
 11
1776.457455259672
 21
919.1149481958166
 31
0.0
  0
ELLIPSE
  5
536
330
511
100
AcDbEntity
  8
0
  6
Continuous
 62
     7
370
    15
100
AcDbEllipse
 10
1774.118821846669
 20
908.8662661831799
 30
0.0
 11
0.0022043364552928
 21
45.79472805040183
 31
0.0
210
0.0
220
0.0
230
1.0
 40
0.0524077571777699
 41
4.938099143905414
 42
4.965071758182436
  0
LINE
  5
537
330
511
100
AcDbEntity
  8
0
  6
Continuous
 62
     7
370
    15
100
AcDbLine
 10
1771.779204499706
 20
919.1149481958166
 30
0.0
 11
1771.718821846669
 21
919.1149481958166
 31
0.0
  0
ELLIPSE
  5
538
330
511
100
AcDbEntity
  8
0
  6
Continuous
 62
     7
370
    15
100
AcDbEllipse
 10
1774.118821846669
 20
908.8662661831797
 30
0.0
 11
-0.0022043364552644
 21
45.79472805040209
 31
0.0
210
0.0
220
0.0
230
1.0
 40
0.052407757177769
 41
1.318113548997161
 42
1.34508616327418
  0
ELLIPSE
  5
539
330
511
100
AcDbEntity
  8
0
  6
Continuous
 62
     7
370
    15
100
AcDbEllipse
 10
1774.118821846669
 20
908.8662661831797
 30
0.0
 11
-0.0022043364552644
 21
45.79472805040209
 31
0.0
210
0.0
220
0.0
230
1.0
 40
0.052407757177769
 41
4.938094098594106
 42
4.965066712871129
  0
LINE
  5
53A
330
511
100
AcDbEntity
  8
0
  6
Continuous
 62
     7
370
    15
100
AcDbLine
 10
1776.442061309081
 20
920.3149481958167
 30
0.0
 11
1771.794483243214
 21
920.3149481958167
 31
0.0
  0
LINE
  5
53B
330
511
100
AcDbEntity
  8
0
  6
Continuous
 62
     7
370
    15
100
AcDbLine
 10
1776.443160450124
 20
920.3149481958167
 30
0.0
 11
1776.442061309081
 21
920.3149481958167
 31
0.0
  0
LINE
  5
53C
330
511
100
AcDbEntity
  8
0
  6
Continuous
 62
     7
370
    15
100
AcDbLine
 10
1770.268821846669
 20
919.1149481958166
 30
0.0
 11
1770.207455259672
 21
919.1149481958166
 31
0.0
  0
ELLIPSE
  5
53D
330
511
100
AcDbEntity
  8
0
  6
Continuous
 62
     7
370
    15
100
AcDbEllipse
 10
1767.868821846669
 20
908.8662661831799
 30
0.0
 11
0.0022043364552928
 21
45.79472805040183
 31
0.0
210
0.0
220
0.0
230
1.0
 40
0.0524077571777699
 41
4.938099143905414
 42
4.965071758182436
  0
LINE
  5
53E
330
511
100
AcDbEntity
  8
0
  6
Continuous
 62
     7
370
    15
100
AcDbLine
 10
1765.529204499706
 20
919.1149481958166
 30
0.0
 11
1765.468821846669
 21
919.1149481958166
 31
0.0
  0
ELLIPSE
  5
53F
330
511
100
AcDbEntity
  8
0
  6
Continuous
 62
     7
370
    15
100
AcDbEllipse
 10
1767.868821846669
 20
908.8662661831797
 30
0.0
 11
-0.0022043364552928
 21
45.79472805040209
 31
0.0
210
0.0
220
0.0
230
1.0
 40
0.052407757177769
 41
1.318113548997161
 42
1.345086163274179
  0
LINE
  5
540
330
511
100
AcDbEntity
  8
0
  6
Continuous
 62
     7
370
    15
100
AcDbLine
 10
1770.192061309082
 20
920.3149481958167
 30
0.0
 11
1765.544483243214
 21
920.3149481958167
 31
0.0
  0
ELLIPSE
  5
541
330
511
100
AcDbEntity
  8
0
  6
Continuous
 62
     7
370
    15
100
AcDbEllipse
 10
1767.868821846669
 20
908.8662661831797
 30
0.0
 11
-0.0022043364552928
 21
45.79472805040209
 31
0.0
210
0.0
220
0.0
230
1.0
 40
0.052407757177769
 41
4.938094098594105
 42
4.965066712871127
  0
LINE
  5
542
330
511
100
AcDbEntity
  8
0
  6
Continuous
 62
     7
370
    15
100
AcDbLine
 10
1770.193160450124
 20
920.3149481958167
 30
0.0
 11
1770.192061309082
 21
920.3149481958167
 31
0.0
  0
LINE
  5
543
330
511
100
AcDbEntity
  8
0
  6
Continuous
 62
     7
370
    15
100
AcDbLine
 10
1782.768821846669
 20
919.1149481958166
 30
0.0
 11
1782.707455259672
 21
919.1149481958166
 31
0.0
  0
ELLIPSE
  5
544
330
511
100
AcDbEntity
  8
0
  6
Continuous
 62
     7
370
    15
100
AcDbEllipse
 10
1780.368821846669
 20
908.8662661831799
 30
0.0
 11
0.0022043364552644
 21
45.79472805040183
 31
0.0
210
0.0
220
0.0
230
1.0
 40
0.0524077571777693
 41
4.938099143905414
 42
4.965071758182439
  0
LINE
  5
545
330
511
100
AcDbEntity
  8
0
  6
Continuous
 62
     7
370
    15
100
AcDbLine
 10
1778.029204499706
 20
919.1149481958166
 30
0.0
 11
1777.968821846669
 21
919.1149481958166
 31
0.0
  0
ELLIPSE
  5
546
330
511
100
AcDbEntity
  8
0
  6
Continuous
 62
     7
370
    15
100
AcDbEllipse
 10
1780.368821846669
 20
908.8662661831797
 30
0.0
 11
-0.0022043364552928
 21
45.79472805040209
 31
0.0
210
0.0
220
0.0
230
1.0
 40
0.0524077571777696
 41
1.318113548997161
 42
1.345086163274182
  0
LINE
  5
547
330
511
100
AcDbEntity
  8
0
  6
Continuous
 62
     7
370
    15
100
AcDbLine
 10
1782.692061309082
 20
920.3149481958167
 30
0.0
 11
1778.044483243214
 21
920.3149481958167
 31
0.0
  0
ELLIPSE
  5
548
330
511
100
AcDbEntity
  8
0
  6
Continuous
 62
     7
370
    15
100
AcDbEllipse
 10
1780.368821846669
 20
908.8662661831797
 30
0.0
 11
-0.0022043364552928
 21
45.79472805040209
 31
0.0
210
0.0
220
0.0
230
1.0
 40
0.0524077571777696
 41
4.938094098594111
 42
4.965066712871133
  0
LINE
  5
549
330
511
100
AcDbEntity
  8
0
  6
Continuous
 62
     7
370
    15
100
AcDbLine
 10
1782.693160450123
 20
920.3149481958167
 30
0.0
 11
1782.692061309082
 21
920.3149481958167
 31
0.0
  0
ENDBLK
  5
513
330
511
100
AcDbEntity
  8
0
100
AcDbBlockEnd
  0
BLOCK
  5
54C
330
54B
100
AcDbEntity
  8
0
100
AcDbBlockBegin
  2
2
 70
     0
 10
0.0
 20
0.0
 30
0.0
  3
2
  1

  0
LINE
  5
54E
330
54B
100
AcDbEntity
  8
0
  6
Continuous
 62
     7
370
    15
100
AcDbLine
 10
1754.866080256816
 20
893.2877469299713
 30
0.0
 11
1755.866079316954
 21
893.2863759000792
 31
0.0
  0
LINE
  5
54F
330
54B
100
AcDbEntity
  8
0
  6
Continuous
 62
     7
370
    15
100
AcDbLine
 10
1755.866079316954
 20
893.2863759000792
 30
0.0
 11
1755.867998758803
 21
894.6863745842724
 31
0.0
  0
LINE
  5
550
330
54B
100
AcDbEntity
  8
0
  6
Continuous
 62
     7
370
    15
100
AcDbLine
 10
1755.867998758803
 20
894.6863745842724
 30
0.0
 11
1758.205248753931
 21
894.6831701416522
 31
0.0
  0
ARC
  5
551
330
54B
100
AcDbEntity
  8
0
  6
Continuous
 62
     7
370
    15
100
AcDbCircle
 10
1755.368821846669
 20
895.2870595353013
 30
0.0
 40
2.900000000000008
100
AcDbArc
 50
191.8619897095981
 51
347.9809017883811
  0
LINE
  5
552
330
54B
100
AcDbEntity
  8
0
  6
Continuous
 62
     7
370
    15
100
AcDbLine
 10
1752.530749703536
 20
894.690950056785
 30
0.0
 11
1754.867999698664
 21
894.6877456141645
 31
0.0
  0
LINE
  5
553
330
54B
100
AcDbEntity
  8
0
  6
Continuous
 62
     7
370
    15
100
AcDbLine
 10
1754.867999698664
 20
894.6877456141645
 30
0.0
 11
1754.866080256816
 21
893.2877469299713
 31
0.0
  0
ARC
  5
554
330
54B
100
AcDbEntity
  8
0
  6
Continuous
 62
     7
370
    15
100
AcDbCircle
 10
1755.368821846669
 20
895.2870595353013
 30
0.0
 40
2.900000000000021
100
AcDbArc
 50
190.5948553188983
 51
191.8619897095981
  0
LINE
  5
555
330
54B
100
AcDbEntity
  8
0
  6
Continuous
 62
     7
370
    15
100
AcDbLine
 10
1752.518261445484
 20
894.753856572823
 30
0.0
 11
1754.930975197855
 21
894.7505486670385
 31
0.0
  0
LINE
  5
556
330
54B
100
AcDbEntity
  8
0
  6
Continuous
 62
     7
370
    15
100
AcDbLine
 10
1754.867999698665
 20
894.6877456141645
 30
0.0
 11
1754.930975197855
 21
894.7505486670387
 31
0.0
  0
LINE
  5
557
330
54B
100
AcDbEntity
  8
0
  6
Continuous
 62
     7
370
    15
100
AcDbLine
 10
1754.930975197855
 20
894.7505486670387
 30
0.0
 11
1754.929055756006
 21
893.3505499828452
 31
0.0
  0
LINE
  5
558
330
54B
100
AcDbEntity
  8
0
  6
Continuous
 62
     7
370
    15
100
AcDbLine
 10
1754.866080256816
 20
893.2877469299713
 30
0.0
 11
1754.929055756006
 21
893.3505499828452
 31
0.0
  0
LINE
  5
559
330
54B
100
AcDbEntity
  8
0
  6
Continuous
 62
     7
370
    15
100
AcDbLine
 10
1754.929055756006
 20
893.3505499828452
 30
0.0
 11
1755.80327626408
 21
893.3493513992699
 31
0.0
  0
LINE
  5
55A
330
54B
100
AcDbEntity
  8
0
  6
Continuous
 62
     7
370
    15
100
AcDbLine
 10
1755.80327626408
 20
893.3493513992699
 30
0.0
 11
1755.866079316954
 21
893.2863759000792
 31
0.0
  0
LINE
  5
55B
330
54B
100
AcDbEntity
  8
0
  6
Continuous
 62
     7
370
    15
100
AcDbLine
 10
1751.956893989801
 20
895.8831690138179
 30
0.0
 11
1749.619643994673
 21
895.8863734564381
 31
0.0
  0
ARC
  5
55C
330
54B
100
AcDbEntity
  8
0
  6
Continuous
 62
     7
370
    15
100
AcDbCircle
 10
1749.118821846669
 20
895.2870595353013
 30
0.0
 40
2.899999999999993
100
AcDbArc
 50
10.59485531889831
 51
11.86198970959812
  0
LINE
  5
55D
330
54B
100
AcDbEntity
  8
0
  6
Continuous
 62
     7
370
    15
100
AcDbLine
 10
1751.969382247854
 20
895.8202624977797
 30
0.0
 11
1749.556668495482
 21
895.8235704035642
 31
0.0
  0
LINE
  5
55E
330
54B
100
AcDbEntity
  8
0
  6
Continuous
 62
     7
370
    15
100
AcDbLine
 10
1749.619643994673
 20
895.8863734564381
 30
0.0
 11
1749.556668495482
 21
895.8235704035642
 31
0.0
  0
LINE
  5
55F
330
54B
100
AcDbEntity
  8
0
  6
Continuous
 62
     7
370
    15
100
AcDbLine
 10
1749.619643994673
 20
895.8863734564381
 30
0.0
 11
1749.621563436522
 21
897.2863721406316
 31
0.0
  0
LINE
  5
560
330
54B
100
AcDbEntity
  8
0
  6
Continuous
 62
     7
370
    15
100
AcDbLine
 10
1749.556668495482
 20
895.8235704035642
 30
0.0
 11
1749.558587937331
 21
897.2235690877576
 31
0.0
  0
LINE
  5
561
330
54B
100
AcDbEntity
  8
0
  6
Continuous
 62
     7
370
    15
100
AcDbLine
 10
1749.621563436522
 20
897.2863721406316
 30
0.0
 11
1749.558587937331
 21
897.2235690877576
 31
0.0
  0
LINE
  5
562
330
54B
100
AcDbEntity
  8
0
  6
Continuous
 62
     7
370
    15
100
AcDbLine
 10
1748.619644934535
 20
895.8877444863302
 30
0.0
 11
1746.282394939407
 21
895.8909489289506
 31
0.0
  0
ARC
  5
563
330
54B
100
AcDbEntity
  8
0
  6
Continuous
 62
     7
370
    15
100
AcDbCircle
 10
1749.118821846669
 20
895.2870595353013
 30
0.0
 40
2.900000000000002
100
AcDbArc
 50
11.86198970959812
 51
167.9809017883811
  0
LINE
  5
564
330
54B
100
AcDbEntity
  8
0
  6
Continuous
 62
     7
370
    15
100
AcDbLine
 10
1749.621563436522
 20
897.2863721406316
 30
0.0
 11
1748.621564376384
 21
897.2877431705235
 31
0.0
  0
LINE
  5
565
330
54B
100
AcDbEntity
  8
0
  6
Continuous
 62
     7
370
    15
100
AcDbLine
 10
1748.621564376384
 20
897.2877431705235
 30
0.0
 11
1748.619644934535
 21
895.8877444863302
 31
0.0
  0
LINE
  5
566
330
54B
100
AcDbEntity
  8
0
  6
Continuous
 62
     7
370
    15
100
AcDbLine
 10
1755.869643994673
 20
895.8863734564381
 30
0.0
 11
1755.871563436522
 21
897.2863721406316
 31
0.0
  0
LINE
  5
567
330
54B
100
AcDbEntity
  8
0
  6
Continuous
 62
     7
370
    15
100
AcDbLine
 10
1755.869643994673
 20
895.8863734564381
 30
0.0
 11
1755.806668495482
 21
895.8235704035642
 31
0.0
  0
LINE
  5
568
330
54B
100
AcDbEntity
  8
0
  6
Continuous
 62
     7
370
    15
100
AcDbLine
 10
1755.806668495482
 20
895.8235704035642
 30
0.0
 11
1755.808587937331
 21
897.2235690877576
 31
0.0
  0
LINE
  5
569
330
54B
100
AcDbEntity
  8
0
  6
Continuous
 62
     7
370
    15
100
AcDbLine
 10
1755.871563436522
 20
897.2863721406316
 30
0.0
 11
1755.808587937331
 21
897.2235690877576
 31
0.0
  0
LINE
  5
56A
330
54B
100
AcDbEntity
  8
0
  6
Continuous
 62
     7
370
    15
100
AcDbLine
 10
1755.80327626408
 20
893.3493513992699
 30
0.0
 11
1755.805195705929
 21
894.7493500834632
 31
0.0
  0
LINE
  5
56B
330
54B
100
AcDbEntity
  8
0
  6
Continuous
 62
     7
370
    15
100
AcDbLine
 10
1755.867998758803
 20
894.6863745842724
 30
0.0
 11
1755.805195705929
 21
894.7493500834632
 31
0.0
  0
LINE
  5
56C
330
54B
100
AcDbEntity
  8
0
  6
Continuous
 62
     7
370
    15
100
AcDbLine
 10
1754.869644934535
 20
895.8877444863302
 30
0.0
 11
1752.532394939407
 21
895.8909489289506
 31
0.0
  0
ARC
  5
56D
330
54B
100
AcDbEntity
  8
0
  6
Continuous
 62
     7
370
    15
100
AcDbCircle
 10
1755.368821846669
 20
895.2870595353013
 30
0.0
 40
2.900000000000002
100
AcDbArc
 50
11.86198970959812
 51
167.9809017883811
  0
LINE
  5
56E
330
54B
100
AcDbEntity
  8
0
  6
Continuous
 62
     7
370
    15
100
AcDbLine
 10
1758.206893989801
 20
895.8831690138179
 30
0.0
 11
1755.869643994673
 21
895.8863734564381
 31
0.0
  0
LINE
  5
56F
330
54B
100
AcDbEntity
  8
0
  6
Continuous
 62
     7
370
    15
100
AcDbLine
 10
1755.871563436522
 20
897.2863721406316
 30
0.0
 11
1754.871564376384
 21
897.2877431705235
 31
0.0
  0
LINE
  5
570
330
54B
100
AcDbEntity
  8
0
  6
Continuous
 62
     7
370
    15
100
AcDbLine
 10
1754.871564376384
 20
897.2877431705235
 30
0.0
 11
1754.869644934535
 21
895.8877444863302
 31
0.0
  0
ARC
  5
571
330
54B
100
AcDbEntity
  8
0
  6
Continuous
 62
     7
370
    15
100
AcDbCircle
 10
1755.368821846669
 20
895.2870595353013
 30
0.0
 40
2.899999999999993
100
AcDbArc
 50
10.59485531889831
 51
11.86198970959812
  0
LINE
  5
572
330
54B
100
AcDbEntity
  8
0
  6
Continuous
 62
     7
370
    15
100
AcDbLine
 10
1758.219382247854
 20
895.8202624977797
 30
0.0
 11
1755.806668495482
 21
895.8235704035642
 31
0.0
  0
LINE
  5
573
330
54B
100
AcDbEntity
  8
0
  6
Continuous
 62
     7
370
    15
100
AcDbLine
 10
1748.616080256816
 20
893.2877469299713
 30
0.0
 11
1749.616079316953
 21
893.2863759000792
 31
0.0
  0
LINE
  5
574
330
54B
100
AcDbEntity
  8
0
  6
Continuous
 62
     7
370
    15
100
AcDbLine
 10
1748.616080256816
 20
893.2877469299713
 30
0.0
 11
1748.679055756007
 21
893.3505499828452
 31
0.0
  0
LINE
  5
575
330
54B
100
AcDbEntity
  8
0
  6
Continuous
 62
     7
370
    15
100
AcDbLine
 10
1748.679055756007
 20
893.3505499828452
 30
0.0
 11
1749.55327626408
 21
893.3493513992699
 31
0.0
  0
LINE
  5
576
330
54B
100
AcDbEntity
  8
0
  6
Continuous
 62
     7
370
    15
100
AcDbLine
 10
1749.55327626408
 20
893.3493513992699
 30
0.0
 11
1749.616079316953
 21
893.2863759000792
 31
0.0
  0
LINE
  5
577
330
54B
100
AcDbEntity
  8
0
  6
Continuous
 62
     7
370
    15
100
AcDbLine
 10
1749.55327626408
 20
893.3493513992699
 30
0.0
 11
1749.555195705928
 21
894.7493500834632
 31
0.0
  0
LINE
  5
578
330
54B
100
AcDbEntity
  8
0
  6
Continuous
 62
     7
370
    15
100
AcDbLine
 10
1749.617998758803
 20
894.6863745842724
 30
0.0
 11
1749.555195705928
 21
894.7493500834632
 31
0.0
  0
LINE
  5
579
330
54B
100
AcDbEntity
  8
0
  6
Continuous
 62
     7
370
    15
100
AcDbLine
 10
1749.616079316953
 20
893.2863759000792
 30
0.0
 11
1749.617998758803
 21
894.6863745842724
 31
0.0
  0
LINE
  5
57A
330
54B
100
AcDbEntity
  8
0
  6
Continuous
 62
     7
370
    15
100
AcDbLine
 10
1749.617998758803
 20
894.6863745842724
 30
0.0
 11
1751.955248753931
 21
894.6831701416522
 31
0.0
  0
ARC
  5
57B
330
54B
100
AcDbEntity
  8
0
  6
Continuous
 62
     7
370
    15
100
AcDbCircle
 10
1749.118821846669
 20
895.2870595353013
 30
0.0
 40
2.900000000000008
100
AcDbArc
 50
191.8619897095981
 51
347.9809017883811
  0
LINE
  5
57C
330
54B
100
AcDbEntity
  8
0
  6
Continuous
 62
     7
370
    15
100
AcDbLine
 10
1746.280749703537
 20
894.690950056785
 30
0.0
 11
1748.617999698665
 21
894.6877456141645
 31
0.0
  0
LINE
  5
57D
330
54B
100
AcDbEntity
  8
0
  6
Continuous
 62
     7
370
    15
100
AcDbLine
 10
1748.617999698665
 20
894.6877456141645
 30
0.0
 11
1748.616080256816
 21
893.2877469299713
 31
0.0
  0
LINE
  5
57E
330
54B
100
AcDbEntity
  8
0
  6
Continuous
 62
     7
370
    15
100
AcDbLine
 10
1755.805195705929
 20
894.7493500834632
 30
0.0
 11
1758.2179094583
 21
894.7460421776787
 31
0.0
  0
ARC
  5
57F
330
54B
100
AcDbEntity
  8
0
  6
Continuous
 62
     7
370
    15
100
AcDbCircle
 10
1755.368821846669
 20
895.2870595353013
 30
0.0
 40
2.900000000000002
100
AcDbArc
 50
347.9809017883811
 51
349.248036179083
  0
LINE
  5
580
330
54B
100
AcDbEntity
  8
0
  6
Continuous
 62
     7
370
    15
100
AcDbLine
 10
1754.934367429258
 20
897.2247676713328
 30
0.0
 11
1754.932447987409
 21
895.8247689871395
 31
0.0
  0
LINE
  5
581
330
54B
100
AcDbEntity
  8
0
  6
Continuous
 62
     7
370
    15
100
AcDbLine
 10
1754.869644934535
 20
895.8877444863302
 30
0.0
 11
1754.932447987409
 21
895.8247689871395
 31
0.0
  0
LINE
  5
582
330
54B
100
AcDbEntity
  8
0
  6
Continuous
 62
     7
370
    15
100
AcDbLine
 10
1754.871564376384
 20
897.2877431705235
 30
0.0
 11
1754.934367429258
 21
897.2247676713328
 31
0.0
  0
LINE
  5
583
330
54B
100
AcDbEntity
  8
0
  6
Continuous
 62
     7
370
    15
100
AcDbLine
 10
1754.932447987409
 20
895.8247689871395
 30
0.0
 11
1752.519734235037
 21
895.828076892924
 31
0.0
  0
ARC
  5
584
330
54B
100
AcDbEntity
  8
0
  6
Continuous
 62
     7
370
    15
100
AcDbCircle
 10
1755.368821846669
 20
895.2870595353013
 30
0.0
 40
2.90000000000003
100
AcDbArc
 50
167.9809017883811
 51
169.248036179083
  0
LINE
  5
585
330
54B
100
AcDbEntity
  8
0
  6
Continuous
 62
     7
370
    15
100
AcDbLine
 10
1748.617999698665
 20
894.6877456141645
 30
0.0
 11
1748.680975197855
 21
894.7505486670387
 31
0.0
  0
LINE
  5
586
330
54B
100
AcDbEntity
  8
0
  6
Continuous
 62
     7
370
    15
100
AcDbLine
 10
1748.680975197855
 20
894.7505486670387
 30
0.0
 11
1748.679055756007
 21
893.3505499828452
 31
0.0
  0
ARC
  5
587
330
54B
100
AcDbEntity
  8
0
  6
Continuous
 62
     7
370
    15
100
AcDbCircle
 10
1749.118821846669
 20
895.2870595353013
 30
0.0
 40
2.900000000000021
100
AcDbArc
 50
190.5948553188983
 51
191.8619897095981
  0
LINE
  5
588
330
54B
100
AcDbEntity
  8
0
  6
Continuous
 62
     7
370
    15
100
AcDbLine
 10
1746.268261445484
 20
894.753856572823
 30
0.0
 11
1748.680975197855
 21
894.7505486670385
 31
0.0
  0
LINE
  5
589
330
54B
100
AcDbEntity
  8
0
  6
Continuous
 62
     7
370
    15
100
AcDbLine
 10
1748.682447987409
 20
895.8247689871395
 30
0.0
 11
1746.269734235037
 21
895.828076892924
 31
0.0
  0
ARC
  5
58A
330
54B
100
AcDbEntity
  8
0
  6
Continuous
 62
     7
370
    15
100
AcDbCircle
 10
1749.118821846669
 20
895.2870595353013
 30
0.0
 40
2.90000000000003
100
AcDbArc
 50
167.9809017883811
 51
169.248036179083
  0
LINE
  5
58B
330
54B
100
AcDbEntity
  8
0
  6
Continuous
 62
     7
370
    15
100
AcDbLine
 10
1748.619644934535
 20
895.8877444863302
 30
0.0
 11
1748.682447987409
 21
895.8247689871395
 31
0.0
  0
LINE
  5
58C
330
54B
100
AcDbEntity
  8
0
  6
Continuous
 62
     7
370
    15
100
AcDbLine
 10
1748.684367429258
 20
897.2247676713328
 30
0.0
 11
1748.682447987409
 21
895.8247689871395
 31
0.0
  0
LINE
  5
58D
330
54B
100
AcDbEntity
  8
0
  6
Continuous
 62
     7
370
    15
100
AcDbLine
 10
1748.621564376384
 20
897.2877431705235
 30
0.0
 11
1748.684367429258
 21
897.2247676713328
 31
0.0
  0
LINE
  5
58E
330
54B
100
AcDbEntity
  8
0
  6
Continuous
 62
     7
370
    15
100
AcDbLine
 10
1749.555195705928
 20
894.7493500834632
 30
0.0
 11
1751.9679094583
 21
894.7460421776787
 31
0.0
  0
ARC
  5
58F
330
54B
100
AcDbEntity
  8
0
  6
Continuous
 62
     7
370
    15
100
AcDbCircle
 10
1749.118821846669
 20
895.2870595353013
 30
0.0
 40
2.900000000000002
100
AcDbArc
 50
347.9809017883811
 51
349.248036179083
  0
LINE
  5
590
330
54B
100
AcDbEntity
  8
0
  6
Continuous
 62
     7
370
    15
100
AcDbLine
 10
1755.808587937331
 20
897.2235690877576
 30
0.0
 11
1754.934367429258
 21
897.2247676713328
 31
0.0
  0
LINE
  5
591
330
54B
100
AcDbEntity
  8
0
  6
Continuous
 62
     7
370
    15
100
AcDbLine
 10
1749.558587937331
 20
897.2235690877576
 30
0.0
 11
1748.684367429258
 21
897.2247676713328
 31
0.0
  0
ARC
  5
592
330
54B
100
AcDbEntity
  8
0
  6
Continuous
 62
     7
370
    15
100
AcDbCircle
 10
1755.368821846669
 20
895.2870595353013
 30
0.0
 40
2.899999999999993
100
AcDbArc
 50
349.248036179083
 51
10.59485531889831
  0
ARC
  5
593
330
54B
100
AcDbEntity
  8
0
  6
Continuous
 62
     7
370
    15
100
AcDbCircle
 10
1755.368821846669
 20
895.2870595353013
 30
0.0
 40
2.90000000000003
100
AcDbArc
 50
169.248036179083
 51
190.5948553188983
  0
ARC
  5
594
330
54B
100
AcDbEntity
  8
0
  6
Continuous
 62
     7
370
    15
100
AcDbCircle
 10
1749.118821846669
 20
895.2870595353013
 30
0.0
 40
2.900000000000002
100
AcDbArc
 50
349.248036179083
 51
10.59485531889831
  0
ARC
  5
595
330
54B
100
AcDbEntity
  8
0
  6
Continuous
 62
     7
370
    15
100
AcDbCircle
 10
1749.118821846669
 20
895.2870595353013
 30
0.0
 40
2.90000000000003
100
AcDbArc
 50
169.248036179083
 51
190.5948553188983
  0
LINE
  5
596
330
54B
100
AcDbEntity
  8
0
  6
Continuous
 62
     7
370
    15
100
AcDbLine
 10
1743.743821846669
 20
892.0370595353015
 30
0.0
 11
1743.743821846669
 21
898.5370595353014
 31
0.0
  0
LINE
  5
597
330
54B
100
AcDbEntity
  8
0
  6
Continuous
 62
     7
370
    15
100
AcDbLine
 10
1785.743821846669
 20
892.0370595353015
 30
0.0
 11
1785.743821846669
 21
898.5370595353014
 31
0.0
  0
LINE
  5
598
330
54B
100
AcDbEntity
  8
0
  6
Continuous
 62
     7
370
    15
100
AcDbLine
 10
1743.743821846669
 20
892.0370595353015
 30
0.0
 11
1785.743821846669
 21
892.0370595353015
 31
0.0
  0
CIRCLE
  5
599
330
54B
100
AcDbEntity
  8
0
  6
Continuous
 62
     7
370
    15
100
AcDbCircle
 10
1761.618821846669
 20
895.2870595353013
 30
0.0
 40
2.099999999999994
  0
LINE
  5
59A
330
54B
100
AcDbEntity
  8
0
  6
Continuous
 62
     7
370
    15
100
AcDbLine
 10
1743.743821846669
 20
898.5370595353014
 30
0.0
 11
1785.743821846669
 21
898.5370595353014
 31
0.0
  0
LINE
  5
59B
330
54B
100
AcDbEntity
  8
0
  6
Continuous
 62
     7
370
    15
100
AcDbLine
 10
1771.794483243214
 20
894.6891882644669
 30
0.0
 11
1773.718272443941
 21
894.6874261673386
 31
0.0
  0
ARC
  5
59C
330
54B
100
AcDbEntity
  8
0
  6
Continuous
 62
     7
370
    15
100
AcDbCircle
 10
1774.118821846669
 20
895.2870595353013
 30
0.0
 40
2.399999999999971
100
AcDbArc
 50
192.8796150990834
 51
194.4250320595904
  0
LINE
  5
59D
330
54B
100
AcDbEntity
  8
0
  6
Continuous
 62
     7
370
    15
100
AcDbLine
 10
1771.779204499706
 20
894.7520916205718
 30
0.0
 11
1773.781219356241
 21
894.7502578725561
 31
0.0
  0
LINE
  5
59E
330
54B
100
AcDbEntity
  8
0
  6
Continuous
 62
     7
370
    15
100
AcDbLine
 10
1773.718272443941
 20
894.6874261673386
 30
0.0
 11
1773.781219356241
 21
894.7502578725561
 31
0.0
  0
LINE
  5
59F
330
54B
100
AcDbEntity
  8
0
  6
Continuous
 62
     7
370
    15
100
AcDbLine
 10
1773.718272443941
 20
894.6874261673386
 30
0.0
 11
1773.717448088159
 21
893.7874265448733
 31
0.0
  0
LINE
  5
5A0
330
54B
100
AcDbEntity
  8
0
  6
Continuous
 62
     7
370
    15
100
AcDbLine
 10
1773.781219356241
 20
894.7502578725561
 30
0.0
 11
1773.780395000459
 21
893.8502582500909
 31
0.0
  0
LINE
  5
5A1
330
54B
100
AcDbEntity
  8
0
  6
Continuous
 62
     7
370
    15
100
AcDbLine
 10
1773.717448088159
 20
893.7874265448733
 30
0.0
 11
1773.780395000459
 21
893.8502582500909
 31
0.0
  0
LINE
  5
5A2
330
54B
100
AcDbEntity
  8
0
  6
Continuous
 62
     7
370
    15
100
AcDbLine
 10
1773.717448088159
 20
893.7874265448733
 30
0.0
 11
1774.517447752573
 21
893.7866937841786
 31
0.0
  0
LINE
  5
5A3
330
54B
100
AcDbEntity
  8
0
  6
Continuous
 62
     7
370
    15
100
AcDbLine
 10
1774.517447752573
 20
893.7866937841786
 30
0.0
 11
1774.518272108355
 21
894.6866934066438
 31
0.0
  0
LINE
  5
5A4
330
54B
100
AcDbEntity
  8
0
  6
Continuous
 62
     7
370
    15
100
AcDbLine
 10
1774.518272108355
 20
894.6866934066438
 30
0.0
 11
1776.442061309081
 21
894.6849313095155
 31
0.0
  0
ARC
  5
5A5
330
54B
100
AcDbEntity
  8
0
  6
Continuous
 62
     7
370
    15
100
AcDbCircle
 10
1774.118821846669
 20
895.2870595353013
 30
0.0
 40
2.400000000000016
100
AcDbArc
 50
194.4250320595904
 51
345.4700076877318
  0
LINE
  5
5A6
330
54B
100
AcDbEntity
  8
0
  6
Continuous
 62
     7
370
    15
100
AcDbLine
 10
1773.780395000459
 20
893.8502582500909
 30
0.0
 11
1774.454616047355
 21
893.8496406964784
 31
0.0
  0
LINE
  5
5A7
330
54B
100
AcDbEntity
  8
0
  6
Continuous
 62
     7
370
    15
100
AcDbLine
 10
1774.454616047355
 20
893.8496406964784
 30
0.0
 11
1774.517447752573
 21
893.7866937841786
 31
0.0
  0
LINE
  5
5A8
330
54B
100
AcDbEntity
  8
0
  6
Continuous
 62
     7
370
    15
100
AcDbLine
 10
1773.719371584983
 20
895.8874256639589
 30
0.0
 11
1771.795582384256
 21
895.8891877610872
 31
0.0
  0
ARC
  5
5A9
330
54B
100
AcDbEntity
  8
0
  6
Continuous
 62
     7
370
    15
100
AcDbCircle
 10
1774.118821846669
 20
895.2870595353013
 30
0.0
 40
2.400000000000032
100
AcDbArc
 50
14.42503205959039
 51
165.4700076877318
  0
LINE
  5
5AA
330
54B
100
AcDbEntity
  8
0
  6
Continuous
 62
     7
370
    15
100
AcDbLine
 10
1776.443160450124
 20
895.8849308061358
 30
0.0
 11
1774.519371249397
 21
895.8866929032641
 31
0.0
  0
LINE
  5
5AB
330
54B
100
AcDbEntity
  8
0
  6
Continuous
 62
     7
370
    15
100
AcDbLine
 10
1774.519371249397
 20
895.8866929032641
 30
0.0
 11
1774.520195605178
 21
896.7866925257295
 31
0.0
  0
LINE
  5
5AC
330
54B
100
AcDbEntity
  8
0
  6
Continuous
 62
     7
370
    15
100
AcDbLine
 10
1774.520195605178
 20
896.7866925257295
 30
0.0
 11
1773.720195940765
 21
896.7874252864241
 31
0.0
  0
LINE
  5
5AD
330
54B
100
AcDbEntity
  8
0
  6
Continuous
 62
     7
370
    15
100
AcDbLine
 10
1773.720195940765
 20
896.7874252864241
 30
0.0
 11
1773.719371584983
 21
895.8874256639589
 31
0.0
  0
LINE
  5
5AE
330
54B
100
AcDbEntity
  8
0
  6
Continuous
 62
     7
370
    15
100
AcDbLine
 10
1774.520195605178
 20
896.7866925257295
 30
0.0
 11
1774.457248692879
 21
896.7238608205118
 31
0.0
  0
LINE
  5
5AF
330
54B
100
AcDbEntity
  8
0
  6
Continuous
 62
     7
370
    15
100
AcDbLine
 10
1774.457248692879
 20
896.7238608205118
 30
0.0
 11
1773.783027645982
 21
896.7244783741243
 31
0.0
  0
LINE
  5
5B0
330
54B
100
AcDbEntity
  8
0
  6
Continuous
 62
     7
370
    15
100
AcDbLine
 10
1773.720195940765
 20
896.7874252864241
 30
0.0
 11
1773.783027645982
 21
896.7244783741243
 31
0.0
  0
LINE
  5
5B1
330
54B
100
AcDbEntity
  8
0
  6
Continuous
 62
     7
370
    15
100
AcDbLine
 10
1774.519371249397
 20
895.8866929032641
 30
0.0
 11
1774.456424337097
 21
895.8238611980466
 31
0.0
  0
LINE
  5
5B2
330
54B
100
AcDbEntity
  8
0
  6
Continuous
 62
     7
370
    15
100
AcDbLine
 10
1774.456424337097
 20
895.8238611980466
 30
0.0
 11
1774.457248692879
 21
896.7238608205118
 31
0.0
  0
LINE
  5
5B3
330
54B
100
AcDbEntity
  8
0
  6
Continuous
 62
     7
370
    15
100
AcDbLine
 10
1773.783027645982
 20
896.7244783741243
 30
0.0
 11
1773.7822032902
 21
895.8244787516591
 31
0.0
  0
LINE
  5
5B4
330
54B
100
AcDbEntity
  8
0
  6
Continuous
 62
     7
370
    15
100
AcDbLine
 10
1773.719371584983
 20
895.8874256639589
 30
0.0
 11
1773.7822032902
 21
895.8244787516591
 31
0.0
  0
ARC
  5
5B5
330
54B
100
AcDbEntity
  8
0
  6
Continuous
 62
     7
370
    15
100
AcDbCircle
 10
1774.118821846669
 20
895.2870595353013
 30
0.0
 40
2.400000000000032
100
AcDbArc
 50
12.87961509908336
 51
14.42503205959039
  0
LINE
  5
5B6
330
54B
100
AcDbEntity
  8
0
  6
Continuous
 62
     7
370
    15
100
AcDbLine
 10
1776.458439193632
 20
895.8220274500309
 30
0.0
 11
1774.456424337097
 21
895.8238611980466
 31
0.0
  0
LINE
  5
5B7
330
54B
100
AcDbEntity
  8
0
  6
Continuous
 62
     7
370
    15
100
AcDbLine
 10
1773.7822032902
 20
895.8244787516591
 30
0.0
 11
1771.780188433666
 21
895.8263124996747
 31
0.0
  0
ARC
  5
5B8
330
54B
100
AcDbEntity
  8
0
  6
Continuous
 62
     7
370
    15
100
AcDbCircle
 10
1774.118821846669
 20
895.2870595353013
 30
0.0
 40
2.399999999999989
100
AcDbArc
 50
165.4700076877318
 51
167.0154246482373
  0
LINE
  5
5B9
330
54B
100
AcDbEntity
  8
0
  6
Continuous
 62
     7
370
    15
100
AcDbLine
 10
1774.454616047355
 20
893.8496406964784
 30
0.0
 11
1774.455440403137
 21
894.7496403189436
 31
0.0
  0
LINE
  5
5BA
330
54B
100
AcDbEntity
  8
0
  6
Continuous
 62
     7
370
    15
100
AcDbLine
 10
1774.518272108355
 20
894.6866934066438
 30
0.0
 11
1774.455440403137
 21
894.7496403189436
 31
0.0
  0
LINE
  5
5BB
330
54B
100
AcDbEntity
  8
0
  6
Continuous
 62
     7
370
    15
100
AcDbLine
 10
1774.455440403137
 20
894.7496403189436
 30
0.0
 11
1776.457455259672
 21
894.7478065709278
 31
0.0
  0
ARC
  5
5BC
330
54B
100
AcDbEntity
  8
0
  6
Continuous
 62
     7
370
    15
100
AcDbCircle
 10
1774.118821846669
 20
895.2870595353013
 30
0.0
 40
2.400000000000016
100
AcDbArc
 50
345.4700076877318
 51
347.0154246482373
  0
ARC
  5
5BD
330
54B
100
AcDbEntity
  8
0
  6
Continuous
 62
     7
370
    15
100
AcDbCircle
 10
1774.118821846669
 20
895.2870595353013
 30
0.0
 40
2.40000000000003
100
AcDbArc
 50
347.0154246482373
 51
12.87961509908336
  0
ARC
  5
5BE
330
54B
100
AcDbEntity
  8
0
  6
Continuous
 62
     7
370
    15
100
AcDbCircle
 10
1774.118821846669
 20
895.2870595353013
 30
0.0
 40
2.399999999999989
100
AcDbArc
 50
167.0154246482373
 51
192.8796150990834
  0
LINE
  5
5BF
330
54B
100
AcDbEntity
  8
0
  6
Continuous
 62
     7
370
    15
100
AcDbLine
 10
1767.467448088159
 20
893.7874265448733
 30
0.0
 11
1768.267447752573
 21
893.7866937841786
 31
0.0
  0
LINE
  5
5C0
330
54B
100
AcDbEntity
  8
0
  6
Continuous
 62
     7
370
    15
100
AcDbLine
 10
1768.267447752573
 20
893.7866937841786
 30
0.0
 11
1768.268272108355
 21
894.6866934066438
 31
0.0
  0
LINE
  5
5C1
330
54B
100
AcDbEntity
  8
0
  6
Continuous
 62
     7
370
    15
100
AcDbLine
 10
1768.268272108355
 20
894.6866934066438
 30
0.0
 11
1770.192061309082
 21
894.6849313095155
 31
0.0
  0
ARC
  5
5C2
330
54B
100
AcDbEntity
  8
0
  6
Continuous
 62
     7
370
    15
100
AcDbCircle
 10
1767.868821846669
 20
895.2870595353013
 30
0.0
 40
2.400000000000016
100
AcDbArc
 50
194.4250320595904
 51
345.4700076877318
  0
LINE
  5
5C3
330
54B
100
AcDbEntity
  8
0
  6
Continuous
 62
     7
370
    15
100
AcDbLine
 10
1765.544483243214
 20
894.6891882644669
 30
0.0
 11
1767.468272443941
 21
894.6874261673386
 31
0.0
  0
LINE
  5
5C4
330
54B
100
AcDbEntity
  8
0
  6
Continuous
 62
     7
370
    15
100
AcDbLine
 10
1767.468272443941
 20
894.6874261673386
 30
0.0
 11
1767.467448088159
 21
893.7874265448733
 31
0.0
  0
LINE
  5
5C5
330
54B
100
AcDbEntity
  8
0
  6
Continuous
 62
     7
370
    15
100
AcDbLine
 10
1767.468272443941
 20
894.6874261673386
 30
0.0
 11
1767.531219356241
 21
894.7502578725561
 31
0.0
  0
LINE
  5
5C6
330
54B
100
AcDbEntity
  8
0
  6
Continuous
 62
     7
370
    15
100
AcDbLine
 10
1767.531219356241
 20
894.7502578725561
 30
0.0
 11
1767.530395000459
 21
893.8502582500909
 31
0.0
  0
LINE
  5
5C7
330
54B
100
AcDbEntity
  8
0
  6
Continuous
 62
     7
370
    15
100
AcDbLine
 10
1767.467448088159
 20
893.7874265448733
 30
0.0
 11
1767.530395000459
 21
893.8502582500909
 31
0.0
  0
ARC
  5
5C8
330
54B
100
AcDbEntity
  8
0
  6
Continuous
 62
     7
370
    15
100
AcDbCircle
 10
1767.868821846669
 20
895.2870595353013
 30
0.0
 40
2.399999999999971
100
AcDbArc
 50
192.8796150990834
 51
194.4250320595904
  0
LINE
  5
5C9
330
54B
100
AcDbEntity
  8
0
  6
Continuous
 62
     7
370
    15
100
AcDbLine
 10
1765.529204499706
 20
894.7520916205718
 30
0.0
 11
1767.531219356241
 21
894.7502578725561
 31
0.0
  0
LINE
  5
5CA
330
54B
100
AcDbEntity
  8
0
  6
Continuous
 62
     7
370
    15
100
AcDbLine
 10
1767.530395000459
 20
893.8502582500909
 30
0.0
 11
1768.204616047356
 21
893.8496406964784
 31
0.0
  0
LINE
  5
5CB
330
54B
100
AcDbEntity
  8
0
  6
Continuous
 62
     7
370
    15
100
AcDbLine
 10
1768.204616047356
 20
893.8496406964784
 30
0.0
 11
1768.267447752573
 21
893.7866937841786
 31
0.0
  0
LINE
  5
5CC
330
54B
100
AcDbEntity
  8
0
  6
Continuous
 62
     7
370
    15
100
AcDbLine
 10
1767.533027645982
 20
896.7244783741243
 30
0.0
 11
1767.5322032902
 21
895.8244787516591
 31
0.0
  0
LINE
  5
5CD
330
54B
100
AcDbEntity
  8
0
  6
Continuous
 62
     7
370
    15
100
AcDbLine
 10
1767.469371584983
 20
895.8874256639589
 30
0.0
 11
1767.5322032902
 21
895.8244787516591
 31
0.0
  0
LINE
  5
5CE
330
54B
100
AcDbEntity
  8
0
  6
Continuous
 62
     7
370
    15
100
AcDbLine
 10
1767.470195940765
 20
896.7874252864241
 30
0.0
 11
1767.469371584983
 21
895.8874256639589
 31
0.0
  0
LINE
  5
5CF
330
54B
100
AcDbEntity
  8
0
  6
Continuous
 62
     7
370
    15
100
AcDbLine
 10
1767.470195940765
 20
896.7874252864241
 30
0.0
 11
1767.533027645982
 21
896.7244783741243
 31
0.0
  0
LINE
  5
5D0
330
54B
100
AcDbEntity
  8
0
  6
Continuous
 62
     7
370
    15
100
AcDbLine
 10
1767.469371584983
 20
895.8874256639589
 30
0.0
 11
1765.545582384256
 21
895.8891877610872
 31
0.0
  0
ARC
  5
5D1
330
54B
100
AcDbEntity
  8
0
  6
Continuous
 62
     7
370
    15
100
AcDbCircle
 10
1767.868821846669
 20
895.2870595353013
 30
0.0
 40
2.400000000000032
100
AcDbArc
 50
14.42503205959039
 51
165.4700076877318
  0
LINE
  5
5D2
330
54B
100
AcDbEntity
  8
0
  6
Continuous
 62
     7
370
    15
100
AcDbLine
 10
1770.193160450124
 20
895.8849308061358
 30
0.0
 11
1768.269371249397
 21
895.8866929032641
 31
0.0
  0
LINE
  5
5D3
330
54B
100
AcDbEntity
  8
0
  6
Continuous
 62
     7
370
    15
100
AcDbLine
 10
1768.269371249397
 20
895.8866929032641
 30
0.0
 11
1768.270195605178
 21
896.7866925257295
 31
0.0
  0
LINE
  5
5D4
330
54B
100
AcDbEntity
  8
0
  6
Continuous
 62
     7
370
    15
100
AcDbLine
 10
1768.270195605178
 20
896.7866925257295
 30
0.0
 11
1767.470195940765
 21
896.7874252864241
 31
0.0
  0
LINE
  5
5D5
330
54B
100
AcDbEntity
  8
0
  6
Continuous
 62
     7
370
    15
100
AcDbLine
 10
1767.5322032902
 20
895.8244787516591
 30
0.0
 11
1765.530188433666
 21
895.8263124996747
 31
0.0
  0
ARC
  5
5D6
330
54B
100
AcDbEntity
  8
0
  6
Continuous
 62
     7
370
    15
100
AcDbCircle
 10
1767.868821846669
 20
895.2870595353013
 30
0.0
 40
2.399999999999989
100
AcDbArc
 50
165.4700076877318
 51
167.0154246482373
  0
LINE
  5
5D7
330
54B
100
AcDbEntity
  8
0
  6
Continuous
 62
     7
370
    15
100
AcDbLine
 10
1768.269371249397
 20
895.8866929032641
 30
0.0
 11
1768.206424337097
 21
895.8238611980466
 31
0.0
  0
LINE
  5
5D8
330
54B
100
AcDbEntity
  8
0
  6
Continuous
 62
     7
370
    15
100
AcDbLine
 10
1768.206424337097
 20
895.8238611980466
 30
0.0
 11
1768.207248692879
 21
896.7238608205118
 31
0.0
  0
LINE
  5
5D9
330
54B
100
AcDbEntity
  8
0
  6
Continuous
 62
     7
370
    15
100
AcDbLine
 10
1768.270195605178
 20
896.7866925257295
 30
0.0
 11
1768.207248692879
 21
896.7238608205118
 31
0.0
  0
LINE
  5
5DA
330
54B
100
AcDbEntity
  8
0
  6
Continuous
 62
     7
370
    15
100
AcDbLine
 10
1768.207248692879
 20
896.7238608205118
 30
0.0
 11
1767.533027645982
 21
896.7244783741243
 31
0.0
  0
ARC
  5
5DB
330
54B
100
AcDbEntity
  8
0
  6
Continuous
 62
     7
370
    15
100
AcDbCircle
 10
1767.868821846669
 20
895.2870595353013
 30
0.0
 40
2.400000000000032
100
AcDbArc
 50
12.87961509908336
 51
14.42503205959039
  0
LINE
  5
5DC
330
54B
100
AcDbEntity
  8
0
  6
Continuous
 62
     7
370
    15
100
AcDbLine
 10
1770.208439193632
 20
895.8220274500309
 30
0.0
 11
1768.206424337097
 21
895.8238611980466
 31
0.0
  0
LINE
  5
5DD
330
54B
100
AcDbEntity
  8
0
  6
Continuous
 62
     7
370
    15
100
AcDbLine
 10
1768.204616047356
 20
893.8496406964784
 30
0.0
 11
1768.205440403137
 21
894.7496403189436
 31
0.0
  0
LINE
  5
5DE
330
54B
100
AcDbEntity
  8
0
  6
Continuous
 62
     7
370
    15
100
AcDbLine
 10
1768.268272108355
 20
894.6866934066438
 30
0.0
 11
1768.205440403137
 21
894.7496403189436
 31
0.0
  0
LINE
  5
5DF
330
54B
100
AcDbEntity
  8
0
  6
Continuous
 62
     7
370
    15
100
AcDbLine
 10
1768.205440403137
 20
894.7496403189436
 30
0.0
 11
1770.207455259672
 21
894.7478065709278
 31
0.0
  0
ARC
  5
5E0
330
54B
100
AcDbEntity
  8
0
  6
Continuous
 62
     7
370
    15
100
AcDbCircle
 10
1767.868821846669
 20
895.2870595353013
 30
0.0
 40
2.400000000000016
100
AcDbArc
 50
345.4700076877318
 51
347.0154246482373
  0
ARC
  5
5E1
330
54B
100
AcDbEntity
  8
0
  6
Continuous
 62
     7
370
    15
100
AcDbCircle
 10
1767.868821846669
 20
895.2870595353013
 30
0.0
 40
2.40000000000003
100
AcDbArc
 50
347.0154246482373
 51
12.87961509908336
  0
ARC
  5
5E2
330
54B
100
AcDbEntity
  8
0
  6
Continuous
 62
     7
370
    15
100
AcDbCircle
 10
1767.868821846669
 20
895.2870595353013
 30
0.0
 40
2.399999999999968
100
AcDbArc
 50
167.0154246482373
 51
192.8796150990834
  0
LINE
  5
5E3
330
54B
100
AcDbEntity
  8
0
  6
Continuous
 62
     7
370
    15
100
AcDbLine
 10
1778.044483243214
 20
894.6891882644669
 30
0.0
 11
1779.968272443941
 21
894.6874261673386
 31
0.0
  0
ARC
  5
5E4
330
54B
100
AcDbEntity
  8
0
  6
Continuous
 62
     7
370
    15
100
AcDbCircle
 10
1780.368821846669
 20
895.2870595353013
 30
0.0
 40
2.400000000000023
100
AcDbArc
 50
192.8796150990834
 51
194.4250320595904
  0
LINE
  5
5E5
330
54B
100
AcDbEntity
  8
0
  6
Continuous
 62
     7
370
    15
100
AcDbLine
 10
1778.029204499706
 20
894.7520916205718
 30
0.0
 11
1780.031219356241
 21
894.7502578725561
 31
0.0
  0
LINE
  5
5E6
330
54B
100
AcDbEntity
  8
0
  6
Continuous
 62
     7
370
    15
100
AcDbLine
 10
1779.968272443941
 20
894.6874261673386
 30
0.0
 11
1780.031219356241
 21
894.7502578725561
 31
0.0
  0
LINE
  5
5E7
330
54B
100
AcDbEntity
  8
0
  6
Continuous
 62
     7
370
    15
100
AcDbLine
 10
1779.968272443941
 20
894.6874261673386
 30
0.0
 11
1779.967448088159
 21
893.7874265448733
 31
0.0
  0
LINE
  5
5E8
330
54B
100
AcDbEntity
  8
0
  6
Continuous
 62
     7
370
    15
100
AcDbLine
 10
1780.031219356241
 20
894.7502578725561
 30
0.0
 11
1780.030395000459
 21
893.8502582500909
 31
0.0
  0
LINE
  5
5E9
330
54B
100
AcDbEntity
  8
0
  6
Continuous
 62
     7
370
    15
100
AcDbLine
 10
1779.967448088159
 20
893.7874265448733
 30
0.0
 11
1780.030395000459
 21
893.8502582500909
 31
0.0
  0
LINE
  5
5EA
330
54B
100
AcDbEntity
  8
0
  6
Continuous
 62
     7
370
    15
100
AcDbLine
 10
1779.967448088159
 20
893.7874265448733
 30
0.0
 11
1780.767447752573
 21
893.7866937841786
 31
0.0
  0
LINE
  5
5EB
330
54B
100
AcDbEntity
  8
0
  6
Continuous
 62
     7
370
    15
100
AcDbLine
 10
1780.767447752573
 20
893.7866937841786
 30
0.0
 11
1780.768272108355
 21
894.6866934066438
 31
0.0
  0
LINE
  5
5EC
330
54B
100
AcDbEntity
  8
0
  6
Continuous
 62
     7
370
    15
100
AcDbLine
 10
1780.768272108355
 20
894.6866934066438
 30
0.0
 11
1782.692061309082
 21
894.6849313095155
 31
0.0
  0
ARC
  5
5ED
330
54B
100
AcDbEntity
  8
0
  6
Continuous
 62
     7
370
    15
100
AcDbCircle
 10
1780.368821846669
 20
895.2870595353013
 30
0.0
 40
2.399999999999998
100
AcDbArc
 50
194.4250320595904
 51
345.4700076877318
  0
LINE
  5
5EE
330
54B
100
AcDbEntity
  8
0
  6
Continuous
 62
     7
370
    15
100
AcDbLine
 10
1780.030395000459
 20
893.8502582500909
 30
0.0
 11
1780.704616047356
 21
893.8496406964784
 31
0.0
  0
LINE
  5
5EF
330
54B
100
AcDbEntity
  8
0
  6
Continuous
 62
     7
370
    15
100
AcDbLine
 10
1780.704616047356
 20
893.8496406964784
 30
0.0
 11
1780.767447752573
 21
893.7866937841786
 31
0.0
  0
LINE
  5
5F0
330
54B
100
AcDbEntity
  8
0
  6
Continuous
 62
     7
370
    15
100
AcDbLine
 10
1782.693160450123
 20
895.8849308061358
 30
0.0
 11
1780.769371249397
 21
895.8866929032641
 31
0.0
  0
ARC
  5
5F1
330
54B
100
AcDbEntity
  8
0
  6
Continuous
 62
     7
370
    15
100
AcDbCircle
 10
1780.368821846669
 20
895.2870595353013
 30
0.0
 40
2.400000000000002
100
AcDbArc
 50
12.87961509908336
 51
14.42503205959039
  0
LINE
  5
5F2
330
54B
100
AcDbEntity
  8
0
  6
Continuous
 62
     7
370
    15
100
AcDbLine
 10
1782.708439193632
 20
895.8220274500309
 30
0.0
 11
1780.706424337097
 21
895.8238611980466
 31
0.0
  0
LINE
  5
5F3
330
54B
100
AcDbEntity
  8
0
  6
Continuous
 62
     7
370
    15
100
AcDbLine
 10
1780.769371249397
 20
895.8866929032641
 30
0.0
 11
1780.706424337097
 21
895.8238611980466
 31
0.0
  0
LINE
  5
5F4
330
54B
100
AcDbEntity
  8
0
  6
Continuous
 62
     7
370
    15
100
AcDbLine
 10
1779.969371584983
 20
895.8874256639589
 30
0.0
 11
1778.045582384256
 21
895.8891877610872
 31
0.0
  0
ARC
  5
5F5
330
54B
100
AcDbEntity
  8
0
  6
Continuous
 62
     7
370
    15
100
AcDbCircle
 10
1780.368821846669
 20
895.2870595353013
 30
0.0
 40
2.400000000000016
100
AcDbArc
 50
14.42503205959039
 51
165.4700076877318
  0
LINE
  5
5F6
330
54B
100
AcDbEntity
  8
0
  6
Continuous
 62
     7
370
    15
100
AcDbLine
 10
1780.769371249397
 20
895.8866929032641
 30
0.0
 11
1780.770195605178
 21
896.7866925257295
 31
0.0
  0
LINE
  5
5F7
330
54B
100
AcDbEntity
  8
0
  6
Continuous
 62
     7
370
    15
100
AcDbLine
 10
1780.770195605178
 20
896.7866925257295
 30
0.0
 11
1779.970195940765
 21
896.7874252864241
 31
0.0
  0
LINE
  5
5F8
330
54B
100
AcDbEntity
  8
0
  6
Continuous
 62
     7
370
    15
100
AcDbLine
 10
1779.970195940765
 20
896.7874252864241
 30
0.0
 11
1779.969371584983
 21
895.8874256639589
 31
0.0
  0
LINE
  5
5F9
330
54B
100
AcDbEntity
  8
0
  6
Continuous
 62
     7
370
    15
100
AcDbLine
 10
1780.706424337097
 20
895.8238611980466
 30
0.0
 11
1780.707248692879
 21
896.7238608205118
 31
0.0
  0
LINE
  5
5FA
330
54B
100
AcDbEntity
  8
0
  6
Continuous
 62
     7
370
    15
100
AcDbLine
 10
1780.770195605178
 20
896.7866925257295
 30
0.0
 11
1780.707248692879
 21
896.7238608205118
 31
0.0
  0
LINE
  5
5FB
330
54B
100
AcDbEntity
  8
0
  6
Continuous
 62
     7
370
    15
100
AcDbLine
 10
1780.707248692879
 20
896.7238608205118
 30
0.0
 11
1780.033027645982
 21
896.7244783741243
 31
0.0
  0
LINE
  5
5FC
330
54B
100
AcDbEntity
  8
0
  6
Continuous
 62
     7
370
    15
100
AcDbLine
 10
1779.970195940765
 20
896.7874252864241
 30
0.0
 11
1780.033027645982
 21
896.7244783741243
 31
0.0
  0
LINE
  5
5FD
330
54B
100
AcDbEntity
  8
0
  6
Continuous
 62
     7
370
    15
100
AcDbLine
 10
1780.705440403137
 20
894.7496403189436
 30
0.0
 11
1782.707455259672
 21
894.7478065709278
 31
0.0
  0
ARC
  5
5FE
330
54B
100
AcDbEntity
  8
0
  6
Continuous
 62
     7
370
    15
100
AcDbCircle
 10
1780.368821846669
 20
895.2870595353013
 30
0.0
 40
2.399999999999989
100
AcDbArc
 50
345.4700076877318
 51
347.0154246482373
  0
LINE
  5
5FF
330
54B
100
AcDbEntity
  8
0
  6
Continuous
 62
     7
370
    15
100
AcDbLine
 10
1780.768272108355
 20
894.6866934066438
 30
0.0
 11
1780.705440403137
 21
894.7496403189436
 31
0.0
  0
LINE
  5
600
330
54B
100
AcDbEntity
  8
0
  6
Continuous
 62
     7
370
    15
100
AcDbLine
 10
1780.704616047356
 20
893.8496406964784
 30
0.0
 11
1780.705440403137
 21
894.7496403189436
 31
0.0
  0
LINE
  5
601
330
54B
100
AcDbEntity
  8
0
  6
Continuous
 62
     7
370
    15
100
AcDbLine
 10
1780.0322032902
 20
895.8244787516591
 30
0.0
 11
1778.030188433666
 21
895.8263124996747
 31
0.0
  0
ARC
  5
602
330
54B
100
AcDbEntity
  8
0
  6
Continuous
 62
     7
370
    15
100
AcDbCircle
 10
1780.368821846669
 20
895.2870595353013
 30
0.0
 40
2.400000000000017
100
AcDbArc
 50
165.4700076877318
 51
167.0154246482373
  0
LINE
  5
603
330
54B
100
AcDbEntity
  8
0
  6
Continuous
 62
     7
370
    15
100
AcDbLine
 10
1779.969371584983
 20
895.8874256639589
 30
0.0
 11
1780.0322032902
 21
895.8244787516591
 31
0.0
  0
LINE
  5
604
330
54B
100
AcDbEntity
  8
0
  6
Continuous
 62
     7
370
    15
100
AcDbLine
 10
1780.033027645982
 20
896.7244783741243
 30
0.0
 11
1780.0322032902
 21
895.8244787516591
 31
0.0
  0
ARC
  5
605
330
54B
100
AcDbEntity
  8
0
  6
Continuous
 62
     7
370
    15
100
AcDbCircle
 10
1780.368821846669
 20
895.2870595353013
 30
0.0
 40
2.400000000000002
100
AcDbArc
 50
347.0154246482373
 51
12.87961509908336
  0
ARC
  5
606
330
54B
100
AcDbEntity
  8
0
  6
Continuous
 62
     7
370
    15
100
AcDbCircle
 10
1780.368821846669
 20
895.2870595353013
 30
0.0
 40
2.400000000000023
100
AcDbArc
 50
167.0154246482373
 51
192.8796150990834
  0
ENDBLK
  5
54D
330
54B
100
AcDbEntity
  8
0
100
AcDbBlockEnd
  0
BLOCK
  5
609
330
608
100
AcDbEntity
  8
0
100
AcDbBlockBegin
  2
3
 70
     0
 10
0.0
 20
0.0
 30
0.0
  3
3
  1

  0
LINE
  5
60B
330
608
100
AcDbEntity
  8
0
  6
Continuous
 62
     7
370
    15
100
AcDbLine
 10
1721.921496265274
 20
920.7449481958168
 30
0.0
 11
1721.921496265274
 21
917.7449481958166
 31
0.0
  0
LINE
  5
60C
330
608
100
AcDbEntity
  8
0
  6
Continuous
 62
     7
370
    15
100
AcDbLine
 10
1727.721496265274
 20
917.7449481958166
 30
0.0
 11
1727.721496265274
 21
920.7449481958168
 31
0.0
  0
LINE
  5
60D
330
608
100
AcDbEntity
  8
0
  6
Continuous
 62
     7
370
    15
100
AcDbLine
 10
1722.421496265274
 20
920.3149481958167
 30
0.0
 11
1722.421496265274
 21
917.7449481958166
 31
0.0
  0
LINE
  5
60E
330
608
100
AcDbEntity
  8
0
  6
Continuous
 62
     7
370
    15
100
AcDbLine
 10
1727.221496265274
 20
917.7449481958166
 30
0.0
 11
1727.221496265274
 21
920.3149481958167
 31
0.0
  0
LINE
  5
60F
330
608
100
AcDbEntity
  8
0
  6
Continuous
 62
     7
370
    15
100
AcDbLine
 10
1728.071496265274
 20
908.7449481958167
 30
0.0
 11
1721.571496265273
 21
908.7449481958167
 31
0.0
  0
LINE
  5
610
330
608
100
AcDbEntity
  8
0
  6
Continuous
 62
     7
370
    15
100
AcDbLine
 10
1721.571496265273
 20
917.7449481958166
 30
0.0
 11
1721.571496265273
 21
908.7449481958167
 31
0.0
  0
LINE
  5
611
330
608
100
AcDbEntity
  8
0
  6
Continuous
 62
     7
370
    15
100
AcDbLine
 10
1728.071496265274
 20
917.7449481958166
 30
0.0
 11
1728.071496265274
 21
908.7449481958167
 31
0.0
  0
LINE
  5
612
330
608
100
AcDbEntity
  8
0
  6
Continuous
 62
     7
370
    15
100
AcDbLine
 10
1721.571496265273
 20
917.7449481958166
 30
0.0
 11
1728.071496265274
 21
917.7449481958166
 31
0.0
  0
LINE
  5
613
330
608
100
AcDbEntity
  8
0
  6
Continuous
 62
     7
370
    15
100
AcDbLine
 10
1725.354699227752
 20
919.5449481958167
 30
0.0
 11
1724.280478907651
 21
919.5449481958167
 31
0.0
  0
ELLIPSE
  5
614
330
608
100
AcDbEntity
  8
0
  6
Continuous
 62
     7
370
    15
100
AcDbEllipse
 10
1724.821496265274
 20
909.2962661831798
 30
0.0
 11
2.89999728931602
 21
55.3352963941164
 31
0.0
210
0.0
220
0.0
230
1.0
 40
0.000071655824224
 41
1.362398275521503
 42
1.384513942704111
  0
LINE
  5
615
330
608
100
AcDbEntity
  8
0
  6
Continuous
 62
     7
370
    15
100
AcDbLine
 10
1727.721496265274
 20
920.7449481958168
 30
0.0
 11
1725.41760574379
 21
920.7449481958168
 31
0.0
  0
ELLIPSE
  5
616
330
608
100
AcDbEntity
  8
0
  6
Continuous
 62
     7
370
    15
100
AcDbEllipse
 10
1724.821496265274
 20
909.2962661831796
 30
0.0
 11
-2.899997289316047
 21
55.33529639411625
 31
0.0
210
0.0
220
0.0
230
1.0
 40
0.0000716558242235
 41
4.898671364481391
 42
4.920787031665851
  0
LINE
  5
617
330
608
100
AcDbEntity
  8
0
  6
Continuous
 62
     7
370
    15
100
AcDbLine
 10
1724.217606871625
 20
920.7449481958168
 30
0.0
 11
1721.921496265274
 21
920.7449481958168
 31
0.0
  0
ELLIPSE
  5
618
330
608
100
AcDbEntity
  8
0
  6
Continuous
 62
     7
370
    15
100
AcDbEllipse
 10
1724.821496265274
 20
909.2962661831796
 30
0.0
 11
-2.899997289316047
 21
55.33529639411625
 31
0.0
210
0.0
220
0.0
230
1.0
 40
0.0000716558242235
 41
1.362390764883893
 42
1.38450643206704
  0
LINE
  5
619
330
608
100
AcDbEntity
  8
0
  6
Continuous
 62
     7
370
    15
100
AcDbLine
 10
1724.220811314245
 20
920.7449481958168
 30
0.0
 11
1724.217606871625
 21
920.7449481958168
 31
0.0
  0
LINE
  5
61A
330
608
100
AcDbEntity
  8
0
  6
Continuous
 62
     7
370
    15
100
AcDbLine
 10
1724.220811314245
 20
920.7449481958168
 30
0.0
 11
1724.283786813435
 21
919.5449481958167
 31
0.0
  0
LINE
  5
61B
330
608
100
AcDbEntity
  8
0
  6
Continuous
 62
     7
370
    15
100
AcDbLine
 10
1724.222182344137
 20
920.7449481958168
 30
0.0
 11
1724.284985397011
 21
919.5449481958167
 31
0.0
  0
LINE
  5
61C
330
608
100
AcDbEntity
  8
0
  6
Continuous
 62
     7
370
    15
100
AcDbLine
 10
1725.356464180003
 20
919.1149481958166
 30
0.0
 11
1724.2822433009
 21
919.1149481958166
 31
0.0
  0
ELLIPSE
  5
61D
330
608
100
AcDbEntity
  8
0
  6
Continuous
 62
     7
370
    15
100
AcDbEllipse
 10
1724.821496265274
 20
908.8662661831799
 30
0.0
 11
2.399998998617633
 21
45.79472804791305
 31
0.0
210
0.0
220
0.0
230
0.9999999999999998
 40
0.0000478714684662
 41
1.318118580471613
 42
1.345091194752954
  0
LINE
  5
61E
330
608
100
AcDbEntity
  8
0
  6
Continuous
 62
     7
370
    15
100
AcDbLine
 10
1727.221496265274
 20
920.3149481958167
 30
0.0
 11
1725.419367536108
 21
920.3149481958167
 31
0.0
  0
ELLIPSE
  5
61F
330
608
100
AcDbEntity
  8
0
  6
Continuous
 62
     7
370
    15
100
AcDbEllipse
 10
1724.821496265274
 20
908.8662661831797
 30
0.0
 11
-2.399998999135391
 21
45.79472805779201
 31
0.0
210
0.0
220
0.0
230
1.0
 40
0.0000478714684553
 41
4.938094112393095
 42
4.965066726672125
  0
LINE
  5
620
330
608
100
AcDbEntity
  8
0
  6
Continuous
 62
     7
370
    15
100
AcDbLine
 10
1724.219368039488
 20
920.3149481958167
 30
0.0
 11
1722.421496265274
 21
920.3149481958167
 31
0.0
  0
ELLIPSE
  5
621
330
608
100
AcDbEntity
  8
0
  6
Continuous
 62
     7
370
    15
100
AcDbEllipse
 10
1724.821496265274
 20
908.8662661831797
 30
0.0
 11
-2.399998999135391
 21
45.79472805779201
 31
0.0
210
0.0
220
0.0
230
1.0
 40
0.0000478714684553
 41
1.318113562856083
 42
1.345086177130937
  0
LINE
  5
622
330
608
100
AcDbEntity
  8
0
  6
Continuous
 62
     7
370
    15
100
AcDbLine
 10
1724.221130136616
 20
920.3149481958167
 30
0.0
 11
1724.219368039488
 21
920.3149481958167
 31
0.0
  0
LINE
  5
623
330
608
100
AcDbEntity
  8
0
  6
Continuous
 62
     7
370
    15
100
AcDbLine
 10
1724.221130136616
 20
920.3149481958167
 30
0.0
 11
1724.284077048916
 21
919.1149481958166
 31
0.0
  0
LINE
  5
624
330
608
100
AcDbEntity
  8
0
  6
Continuous
 62
     7
370
    15
100
AcDbLine
 10
1724.221862897311
 20
920.3149481958167
 30
0.0
 11
1724.284694602528
 21
919.1149481958166
 31
0.0
  0
ENDBLK
  5
60A
330
608
100
AcDbEntity
  8
0
100
AcDbBlockEnd
  0
BLOCK
  5
627
330
626
100
AcDbEntity
  8
0
100
AcDbBlockBegin
  2
4
 70
     0
 10
0.0
 20
0.0
 30
0.0
  3
4
  1

  0
LINE
  5
629
330
626
100
AcDbEntity
  8
0
  6
Continuous
 62
     7
370
    15
100
AcDbLine
 10
1813.229358856175
 20
914.2704373917293
 30
0.0
 11
1813.223383171535
 21
911.9032162565304
 31
0.0
  0
LINE
  5
62A
330
626
100
AcDbEntity
  8
0
  6
Continuous
 62
     7
370
    15
100
AcDbLine
 10
1819.02336469189
 20
911.8885750977602
 30
0.0
 11
1819.029340376531
 21
914.255796232959
 31
0.0
  0
LINE
  5
62B
330
626
100
AcDbEntity
  8
0
  6
Continuous
 62
     7
370
    15
100
AcDbLine
 10
1808.562529459546
 20
916.8315854715666
 30
0.0
 11
1808.556553774906
 21
914.4643643363677
 31
0.0
  0
LINE
  5
62C
330
626
100
AcDbEntity
  8
0
  6
Continuous
 62
     7
370
    15
100
AcDbLine
 10
1814.357278377933
 20
914.7440896160263
 30
0.0
 11
1814.362510979902
 21
916.8169443127963
 31
0.0
  0
LINE
  5
62D
330
626
100
AcDbEntity
  8
0
  6
Continuous
 62
     7
370
    15
100
AcDbLine
 10
1827.72898893819
 20
906.2464292873126
 30
0.0
 11
1827.723869768348
 21
904.2185098481589
 31
0.0
  0
LINE
  5
62E
330
626
100
AcDbEntity
  8
0
  6
Continuous
 62
     7
370
    15
100
AcDbLine
 10
1832.52385447485
 20
904.2063930271076
 30
0.0
 11
1832.528973644692
 21
906.2343124662614
 31
0.0
  0
LINE
  5
62F
330
626
100
AcDbEntity
  8
0
  6
Continuous
 62
     7
370
    15
100
AcDbLine
 10
1823.062159541561
 20
908.80757736715
 30
0.0
 11
1823.05704037172
 21
906.7796579279962
 31
0.0
  0
LINE
  5
630
330
626
100
AcDbEntity
  8
0
  6
Continuous
 62
     7
370
    15
100
AcDbLine
 10
1827.857025078221
 20
906.7675411069449
 30
0.0
 11
1827.862144248063
 21
908.7954605460986
 31
0.0
  0
LINE
  5
631
330
626
100
AcDbEntity
  8
0
  6
Continuous
 62
     7
370
    15
100
AcDbLine
 10
1832.395818334819
 20
903.6852812074751
 30
0.0
 11
1832.390699164977
 21
901.6573617683215
 31
0.0
  0
LINE
  5
632
330
626
100
AcDbEntity
  8
0
  6
Continuous
 62
     7
370
    15
100
AcDbLine
 10
1837.190683871479
 20
901.6452449472703
 30
0.0
 11
1837.195803041321
 21
903.6731643864239
 31
0.0
  0
LINE
  5
633
330
626
100
AcDbEntity
  8
0
  6
Continuous
 62
     7
370
    15
100
AcDbLine
 10
1805.281281188679
 20
915.1722811040155
 30
0.0
 11
1808.899309458059
 21
917.6615488820102
 31
0.0
  0
LINE
  5
634
330
626
100
AcDbEntity
  8
0
  6
Continuous
 62
     7
370
    15
100
AcDbLine
 10
1808.963154696537
 20
917.7054755412537
 30
0.0
 11
1809.604861319287
 21
918.14698110727
 31
0.0
  0
LINE
  5
635
330
626
100
AcDbEntity
  8
0
  6
Continuous
 62
     7
370
    15
100
AcDbLine
 10
1809.604861319287
 20
918.14698110727
 30
0.0
 11
1809.735794484414
 21
918.075125207696
 31
0.0
  0
LINE
  5
636
330
626
100
AcDbEntity
  8
0
  6
Continuous
 62
     7
370
    15
100
AcDbLine
 10
1814.359281884335
 20
915.5377631423471
 30
0.0
 11
1814.402623881043
 21
915.5139771278587
 31
0.0
  0
LINE
  5
637
330
626
100
AcDbEntity
  8
0
  6
Continuous
 62
     7
370
    15
100
AcDbLine
 10
1819.026111280964
 20
912.9766150625098
 30
0.0
 11
1824.287672356325
 21
910.0890792432574
 31
0.0
  0
LINE
  5
638
330
626
100
AcDbEntity
  8
0
  6
Continuous
 62
     7
370
    15
100
AcDbLine
 10
1827.860460203411
 20
908.1283393154505
 30
0.0
 11
1828.954501752954
 21
907.5279311634201
 31
0.0
  0
LINE
  5
639
330
626
100
AcDbEntity
  8
0
  6
Continuous
 62
     7
370
    15
100
AcDbLine
 10
1832.52728960004
 20
905.5671912356134
 30
0.0
 11
1833.621331149582
 21
904.9667830835826
 31
0.0
  0
LINE
  5
63A
330
626
100
AcDbEntity
  8
0
  6
Continuous
 62
     7
370
    15
100
AcDbLine
 10
1837.194118996669
 20
903.0060431557759
 30
0.0
 11
1840.965954864633
 21
900.9360660107629
 31
0.0
  0
LINE
  5
63B
330
626
100
AcDbEntity
  8
0
  6
Continuous
 62
     7
370
    15
100
AcDbLine
 10
1836.642374734025
 20
897.9613660075084
 30
0.0
 11
1840.965954864633
 21
900.9360660107629
 31
0.0
  0
LINE
  5
63C
330
626
100
AcDbEntity
  8
0
  6
Continuous
 62
     7
370
    15
100
AcDbLine
 10
1805.281281188679
 20
915.1722811040155
 30
0.0
 11
1836.642374734025
 21
897.9613660075084
 31
0.0
  0
ARC
  5
63D
330
626
100
AcDbEntity
  8
0
  6
Continuous
 62
     7
370
    15
100
AcDbCircle
 10
1817.560977966566
 20
911.9791684600729
 30
0.0
 40
1.465190121348995
100
AcDbArc
 50
299.7839346102448
 51
356.4551151201988
  0
LWPOLYLINE
  5
63E
330
626
100
AcDbEntity
  8
0
  6
Continuous
 62
     7
370
    15
100
AcDbPolyline
 90
       25
 70
   128
 43
0.0
 10
1813.223383171535
 20
911.9032162565304
 10
1813.226290007482
 20
911.8206581639654
 10
1813.255000314526
 20
911.6380482822426
 10
1813.314116095481
 20
911.4581716470507
 10
1813.403010708361
 20
911.2829349954706
 10
1813.520741848155
 20
911.1141958796032
 10
1813.666061535494
 20
910.9537429760537
 10
1813.83742934554
 20
910.8032771255162
 10
1814.033028736876
 20
910.6643933034373
 10
1814.250786307295
 20
910.5385637128815
 10
1814.488393772376
 20
910.4271221788117
 10
1814.743332433883
 20
910.3312500092121
 10
1815.012899878581
 20
910.2519634729308
 10
1815.294238624495
 20
910.1901030269765
 10
1815.584366410931
 20
910.1463244074654
 10
1815.880207811176
 20
910.1210916786554
 10
1816.178626832791
 20
910.1146723137487
 10
1816.47646015991
 20
910.1271343596105
 10
1816.770550685172
 20
910.1583457154541
 10
1817.05778097585
 20
910.2079755331436
 10
1817.335106319405
 20
910.2754977242648
 10
1817.599586998208
 20
910.3601965367941
 10
1817.848419451267
 20
910.4611741422484
 10
1818.078965992678
 20
910.5773601528895
 10
1818.288782771748
 20
910.7075229681008
  0
LWPOLYLINE
  5
63F
330
626
100
AcDbEntity
  8
0
  6
Continuous
 62
     7
370
    15
100
AcDbPolyline
 90
       53
 70
   128
 43
0.0
 10
1822.358258005609
 20
908.4742018424826
 10
1822.515196658628
 20
908.5963188010962
 10
1822.646981024545
 20
908.7292037143553
 10
1822.751689390551
 20
908.8709188209943
 10
1822.827794872889
 20
909.0193975956431
 10
1822.874187682251
 20
909.1724748834225
 10
1822.890191307009
 20
909.3279184727769
 10
1822.875572378276
 20
909.4834616461445
 10
1822.830544072954
 20
909.6368362338054
 10
1822.755763005128
 20
909.785805688902
 10
1822.652319651159
 20
909.9281977013285
 10
1822.521722448083
 20
910.0619358749051
 10
1822.365875797199
 20
910.185070005909
 10
1822.187052293615
 20
910.2958045214363
 10
1821.987859586686
 20
910.392524662898
 10
1821.771202354624
 20
910.4738200328368
 10
1821.540239947741
 20
910.538505161698
 10
1821.298340318012
 20
910.5856367946444
 10
1821.049030906749
 20
910.6145276463363
 10
1820.795947206564
 20
910.6247564230999
 10
1820.5427797477
 20
910.6161739663363
 10
1820.293220281791
 20
910.5889054275918
 10
1820.050907947809
 20
910.5433484435639
 10
1819.819376205224
 20
910.4801673376655
 10
1819.602001308206
 20
910.4002834326923
 10
1819.401953072239
 20
910.3048616158613
 10
1819.222148651074
 20
910.1952933521332
 10
1819.065209998055
 20
910.0731763935195
 10
1818.933425632138
 20
909.9402914802604
 10
1818.828717266131
 20
909.7985763736216
 10
1818.752611783794
 20
909.6500975989727
 10
1818.706218974432
 20
909.4970203111932
 10
1818.690215349674
 20
909.3415767218388
 10
1818.704834278406
 20
909.1860335484712
 10
1818.749862583729
 20
909.0326589608103
 10
1818.824643651555
 20
908.8836895057138
 10
1818.928087005524
 20
908.7412974932872
 10
1819.0586842086
 20
908.6075593197106
 10
1819.214530859483
 20
908.4844251887068
 10
1819.393354363068
 20
908.3736906731795
 10
1819.592547069997
 20
908.2769705317177
 10
1819.809204302059
 20
908.195675161779
 10
1820.040166708942
 20
908.1309900329177
 10
1820.282066338671
 20
908.0838583999714
 10
1820.531375749934
 20
908.0549675482794
 10
1820.784459450119
 20
908.044738771516
 10
1821.037626908983
 20
908.0533212282794
 10
1821.287186374892
 20
908.0805897670241
 10
1821.529498708873
 20
908.1261467510518
 10
1821.761030451459
 20
908.1893278569502
 10
1821.978405348477
 20
908.2692117619235
 10
1822.178453584443
 20
908.3646335787546
 10
1822.358258005609
 20
908.4742018424826
  0
LWPOLYLINE
  5
640
330
626
100
AcDbEntity
  8
0
  6
Continuous
 62
     7
370
    15
100
AcDbPolyline
 90
       24
 70
   128
 43
0.0
 10
1808.556553774906
 20
914.4643643363677
 10
1808.559460610853
 20
914.3818062438027
 10
1808.588170917898
 20
914.1991963620798
 10
1808.647286698852
 20
914.019319726888
 10
1808.736181311732
 20
913.8440830753081
 10
1808.853912451526
 20
913.6753439594405
 10
1808.999232138864
 20
913.5148910558912
 10
1809.170599948911
 20
913.3644252053533
 10
1809.366199340247
 20
913.2255413832746
 10
1809.583956910665
 20
913.099711792719
 10
1809.821564375748
 20
912.988270258649
 10
1810.076503037254
 20
912.8923980890494
 10
1810.346070481952
 20
912.8131115527681
 10
1810.627409227866
 20
912.751251106814
 10
1810.917537014302
 20
912.7074724873029
 10
1811.213378414547
 20
912.6822397584927
 10
1811.511797436162
 20
912.675820393586
 10
1811.809630763281
 20
912.6882824394478
 10
1812.103721288544
 20
912.7194937952916
 10
1812.390951579221
 20
912.7691236129811
 10
1812.668276922776
 20
912.8366458041021
 10
1812.932757601579
 20
912.9213446166316
 10
1813.181590054638
 20
913.0223222220857
 10
1813.226260306869
 20
913.0429711103847
  0
LINE
  5
641
330
626
100
AcDbEntity
  8
0
  6
Continuous
 62
     7
370
    15
100
AcDbLine
 10
1836.624447680105
 20
890.8597026019117
 30
0.0
 11
1805.263354134758
 21
908.0706176984186
 31
0.0
  0
LINE
  5
642
330
626
100
AcDbEntity
  8
0
  6
Continuous
 62
     7
370
    15
100
AcDbLine
 10
1805.263354134758
 20
908.0706176984186
 30
0.0
 11
1805.281281188679
 21
915.1722811040155
 31
0.0
  0
LINE
  5
643
330
626
100
AcDbEntity
  8
0
  6
Continuous
 62
     7
370
    15
100
AcDbLine
 10
1836.642374734025
 20
897.9613660075084
 30
0.0
 11
1836.624447680105
 21
890.8597026019117
 31
0.0
  0
LWPOLYLINE
  5
644
330
626
100
AcDbEntity
  8
0
  6
Continuous
 62
     7
370
    15
100
AcDbPolyline
 90
       57
 70
   128
 43
0.0
 10
1823.281299395506
 20
899.7627335337124
 10
1823.481976792234
 20
899.6645262858748
 10
1823.680190672424
 20
899.591369394575
 10
1823.873448381526
 20
899.5441828501677
 10
1824.059319591716
 20
899.5235600508271
 10
1824.235466864683
 20
899.5297603402207
 10
1824.399675046265
 20
899.5627057461115
 10
1824.549879123304
 20
899.6219819609054
 10
1824.68419019238
 20
899.7068435518084
 10
1824.80091921387
 20
899.8162233350766
 10
1824.898598252601
 20
899.9487457964727
 10
1824.975998937986
 20
900.1027443891526
 10
1825.0321479115
 20
900.2762824914617
 10
1825.066339067219
 20
900.4671777610738
 10
1825.078142431524
 20
900.673029579214
 10
1825.067409570259
 20
900.8912492398311
 10
1825.034275455383
 20
901.1190925040784
 10
1824.979156767614
 20
901.353694110711
 10
1824.902746656434
 20
901.5921038084059
 10
1824.806006023322
 20
901.8313234568861
 10
1824.690151437872
 20
902.0683447302738
 10
1824.556639838714
 20
902.300186948533
 10
1824.407150211675
 20
902.5239345612511
 10
1824.24356247555
 20
902.736773812377
 10
1824.067933841037
 20
902.9360281248351
 10
1823.882472940116
 20
903.1191917600365
 10
1823.689512051224
 20
903.2839613289946
 10
1823.491477769497
 20
903.4282647587781
 10
1823.29086049093
 20
903.5502873500306
 10
1823.090183094202
 20
903.6484945978681
 10
1822.891969214012
 20
903.721651489168
 10
1822.698711504911
 20
903.7688380335753
 10
1822.51284029472
 20
903.7894608329159
 10
1822.336693021753
 20
903.7832605435223
 10
1822.172484840171
 20
903.7503151376315
 10
1822.022280763133
 20
903.6910389228378
 10
1821.887969694057
 20
903.6061773319348
 10
1821.771240672567
 20
903.4967975486663
 10
1821.673561633836
 20
903.3642750872703
 10
1821.59616094845
 20
903.2102764945904
 10
1821.540011974937
 20
903.0367383922815
 10
1821.505820819217
 20
902.8458431226694
 10
1821.494017454913
 20
902.639991304529
 10
1821.504750316177
 20
902.4217716439121
 10
1821.537884431053
 20
902.1939283796644
 10
1821.593003118822
 20
901.9593267730321
 10
1821.669413230003
 20
901.7209170753371
 10
1821.766153863114
 20
901.4816974268567
 10
1821.882008448565
 20
901.2446761534691
 10
1822.015520047722
 20
901.01283393521
 10
1822.165009674762
 20
900.7890863224918
 10
1822.328597410886
 20
900.5762470713662
 10
1822.5042260454
 20
900.3769927589081
 10
1822.68968694632
 20
900.1938291237065
 10
1822.882647835212
 20
900.0290595547484
 10
1823.080682116939
 20
899.8847561249649
 10
1823.281299395506
 20
899.7627335337124
  0
LWPOLYLINE
  5
645
330
626
100
AcDbEntity
  8
0
  6
Continuous
 62
     7
370
    15
100
AcDbPolyline
 90
       57
 70
   128
 43
0.0
 10
1827.948128792135
 20
897.2015854538751
 10
1828.148806188863
 20
897.1033782060375
 10
1828.347020069053
 20
897.0302213147377
 10
1828.540277778154
 20
896.9830347703306
 10
1828.726148988345
 20
896.96241197099
 10
1828.902296261312
 20
896.9686122603834
 10
1829.066504442894
 20
897.0015576662742
 10
1829.216708519933
 20
897.0608338810679
 10
1829.351019589008
 20
897.1456954719709
 10
1829.467748610499
 20
897.2550752552395
 10
1829.56542764923
 20
897.3875977166354
 10
1829.642828334615
 20
897.5415963093153
 10
1829.698977308128
 20
897.7151344116242
 10
1829.733168463848
 20
897.9060296812365
 10
1829.744971828153
 20
898.1118814993767
 10
1829.734238966888
 20
898.3301011599936
 10
1829.701104852012
 20
898.5579444242413
 10
1829.645986164244
 20
898.7925460308735
 10
1829.569576053063
 20
899.0309557285685
 10
1829.472835419951
 20
899.2701753770488
 10
1829.3569808345
 20
899.5071966504365
 10
1829.223469235343
 20
899.7390388686957
 10
1829.073979608304
 20
899.9627864814138
 10
1828.910391872179
 20
900.1756257325395
 10
1828.734763237665
 20
900.3748800449976
 10
1828.549302336745
 20
900.5580436801992
 10
1828.356341447853
 20
900.7228132491572
 10
1828.158307166126
 20
900.8671166789408
 10
1827.957689887559
 20
900.9891392701934
 10
1827.757012490831
 20
901.0873465180308
 10
1827.558798610641
 20
901.1605034093307
 10
1827.36554090154
 20
901.207689953738
 10
1827.179669691349
 20
901.2283127530785
 10
1827.003522418382
 20
901.222112463685
 10
1826.8393142368
 20
901.1891670577941
 10
1826.689110159761
 20
901.1298908430003
 10
1826.554799090686
 20
901.0450292520975
 10
1826.438070069196
 20
900.9356494688288
 10
1826.340391030464
 20
900.8031270074329
 10
1826.262990345079
 20
900.649128414753
 10
1826.206841371566
 20
900.4755903124442
 10
1826.172650215846
 20
900.2846950428319
 10
1826.160846851541
 20
900.0788432246917
 10
1826.171579712806
 20
899.8606235640748
 10
1826.204713827683
 20
899.6327802998273
 10
1826.25983251545
 20
899.3981786931946
 10
1826.336242626632
 20
899.1597689954998
 10
1826.432983259743
 20
898.9205493470196
 10
1826.548837845194
 20
898.6835280736318
 10
1826.682349444351
 20
898.4516858553726
 10
1826.83183907139
 20
898.2279382426547
 10
1826.995426807515
 20
898.0150989915289
 10
1827.171055442029
 20
897.8158446790708
 10
1827.356516342949
 20
897.6326810438692
 10
1827.549477231841
 20
897.4679114749111
 10
1827.747511513568
 20
897.3236080451277
 10
1827.948128792135
 20
897.2015854538751
  0
LWPOLYLINE
  5
646
330
626
100
AcDbEntity
  8
0
  6
Continuous
 62
     7
370
    15
100
AcDbPolyline
 90
       57
 70
   128
 43
0.0
 10
1832.614958188764
 20
894.6404373740378
 10
1832.815635585492
 20
894.5422301262002
 10
1833.013849465682
 20
894.4690732349004
 10
1833.207107174783
 20
894.4218866904932
 10
1833.392978384974
 20
894.4012638911527
 10
1833.569125657941
 20
894.407464180546
 10
1833.733333839523
 20
894.4404095864369
 10
1833.883537916562
 20
894.4996858012308
 10
1834.017848985638
 20
894.5845473921336
 10
1834.134578007127
 20
894.693927175402
 10
1834.232257045859
 20
894.8264496367981
 10
1834.309657731244
 20
894.980448229478
 10
1834.365806704757
 20
895.1539863317869
 10
1834.399997860477
 20
895.3448816013992
 10
1834.411801224781
 20
895.5507334195393
 10
1834.401068363517
 20
895.7689530801562
 10
1834.367934248641
 20
895.9967963444039
 10
1834.312815560872
 20
896.2313979510364
 10
1834.236405449691
 20
896.4698076487312
 10
1834.13966481658
 20
896.7090272972116
 10
1834.023810231129
 20
896.9460485705992
 10
1833.890298631972
 20
897.1778907888584
 10
1833.740809004933
 20
897.4016384015765
 10
1833.577221268808
 20
897.6144776527021
 10
1833.401592634294
 20
897.8137319651604
 10
1833.216131733374
 20
897.9968956003617
 10
1833.023170844482
 20
898.1616651693199
 10
1832.825136562755
 20
898.3059685991033
 10
1832.624519284188
 20
898.4279911903559
 10
1832.42384188746
 20
898.5261984381937
 10
1832.22562800727
 20
898.5993553294933
 10
1832.032370298169
 20
898.6465418739005
 10
1831.846499087978
 20
898.6671646732412
 10
1831.670351815011
 20
898.6609643838477
 10
1831.506143633429
 20
898.6280189779568
 10
1831.35593955639
 20
898.568742763163
 10
1831.221628487315
 20
898.4838811722601
 10
1831.104899465825
 20
898.3745013889915
 10
1831.007220427093
 20
898.2419789275956
 10
1830.929819741708
 20
898.0879803349157
 10
1830.873670768195
 20
897.9144422326069
 10
1830.839479612475
 20
897.7235469629945
 10
1830.827676248171
 20
897.5176951448544
 10
1830.838409109435
 20
897.2994754842373
 10
1830.871543224311
 20
897.0716322199898
 10
1830.92666191208
 20
896.8370306133575
 10
1831.003072023261
 20
896.5986209156625
 10
1831.099812656372
 20
896.3594012671821
 10
1831.215667241823
 20
896.1223799937945
 10
1831.34917884098
 20
895.8905377755355
 10
1831.498668468019
 20
895.6667901628172
 10
1831.662256204144
 20
895.4539509116916
 10
1831.837884838657
 20
895.2546965992334
 10
1832.023345739578
 20
895.0715329640319
 10
1832.21630662847
 20
894.9067633950738
 10
1832.414340910197
 20
894.7624599652902
 10
1832.614958188764
 20
894.6404373740378
  0
LWPOLYLINE
  5
647
330
626
100
AcDbEntity
  8
0
  6
Continuous
 62
     7
370
    15
100
AcDbPolyline
 90
       60
 70
   128
 43
0.0
 10
1813.94694343904
 20
904.6088538942806
 10
1814.165238039302
 20
904.5013644329692
 10
1814.381121339171
 20
904.4196793014476
 10
1814.592147294596
 20
904.3647240248954
 10
1814.79592489718
 20
904.3371212685551
 10
1814.990145265262
 20
904.3371837826857
 10
1815.172607804463
 20
904.364910858977
 10
1815.341245141307
 20
904.4199883385752
 10
1815.494146547384
 20
904.501792171629
 10
1815.629579588665
 20
904.6093954880225
 10
1815.746009754677
 20
904.7415790991848
 10
1815.842117845117
 20
904.8968453119838
 10
1815.916814916915
 20
905.0734348981873
 10
1815.969254622403
 20
905.2693470272215
 10
1815.998842798761
 20
905.4823619363824
 10
1816.00524420013
 20
905.7100660816324
 10
1815.988386296075
 20
905.9498794840203
 10
1815.948460093383
 20
906.1990849618721
 10
1815.885917971885
 20
906.4548589175466
 10
1815.801468558809
 20
906.7143033299236
 10
1815.69606869975
 20
906.9744785901423
 10
1815.570912617224
 20
907.2324368085437
 10
1815.427418379658
 20
907.4852552154384
 10
1815.267211834101
 20
907.7300692772551
 10
1815.092108184729
 20
907.9641051528508
 10
1814.904091425857
 20
908.1847111222387
 10
1814.705291862491
 20
908.3893876316365
 10
1814.49796197312
 20
908.5758156144079
 10
1814.284450888235
 20
908.741882767015
 10
1814.067177773744
 20
908.885707482262
 10
1813.848604420851
 20
909.0056601686555
 10
1813.631207352981
 20
909.1003817143283
 10
1813.417449765782
 20
909.1687988863187
 10
1813.209753618129
 20
909.2101364907303
 10
1813.010472190367
 20
909.2239261559875
 10
1812.821863420701
 20
909.2100116396723
 10
1812.646064321855
 20
909.1685505988152
 10
1812.485066767866
 20
909.1000128035757
 10
1812.34069492535
 20
909.0051748145603
 10
1812.214584584973
 20
908.8851111840797
 10
1812.108164627281
 20
908.7411822810425
 10
1812.022640832918
 20
908.575018877431
 10
1811.958982220649
 20
908.3885036710039
 10
1811.917910067987
 20
908.1837499535774
 10
1811.899889738833
 20
907.9630776665856
 10
1811.905125410716
 20
907.728987115216
 10
1811.933557761384
 20
907.4841306389538
 10
1811.98486464094
 20
907.2312825595146
 10
1812.05846472194
 20
906.9733077466713
 10
1812.153524086056
 20
906.7131291581352
 10
1812.268965672708
 20
906.453694721276
 10
1812.403481482593
 20
906.1979439319285
 10
1812.555547397833
 20
905.948774548729
 10
1812.723440450848
 20
905.7090097603516
 10
1812.905258346259
 20
905.4813661976542
 10
1813.098941014662
 20
905.2684231531637
 10
1813.30229395403
 20
905.0725933566621
 10
1813.513013094307
 20
904.896095637993
 10
1813.728710903432
 20
904.7409297868343
 10
1813.94694343904
 20
904.6088538942806
  0
LWPOLYLINE
  5
648
330
626
100
AcDbEntity
  8
0
  6
Continuous
 62
     7
370
    15
100
AcDbPolyline
 90
       60
 70
   128
 43
0.0
 10
1809.280114042411
 20
907.1700019741179
 10
1809.498408642673
 20
907.0625125128065
 10
1809.714291942542
 20
906.9808273812849
 10
1809.925317897967
 20
906.9258721047328
 10
1810.129095500551
 20
906.8982693483926
 10
1810.323315868633
 20
906.8983318625232
 10
1810.505778407834
 20
906.9260589388143
 10
1810.674415744679
 20
906.9811364184127
 10
1810.827317150755
 20
907.0629402514663
 10
1810.962750192036
 20
907.1705435678598
 10
1811.079180358049
 20
907.3027271790222
 10
1811.175288448488
 20
907.4579933918212
 10
1811.249985520287
 20
907.6345829780246
 10
1811.302425225774
 20
907.8304951070588
 10
1811.332013402132
 20
908.0435100162196
 10
1811.338414803502
 20
908.2712141614699
 10
1811.321556899446
 20
908.5110275638577
 10
1811.281630696754
 20
908.7602330417096
 10
1811.219088575256
 20
909.016006997384
 10
1811.134639162181
 20
909.275451409761
 10
1811.029239303121
 20
909.5356266699797
 10
1810.904083220595
 20
909.793584888381
 10
1810.760588983029
 20
910.0464032952757
 10
1810.600382437472
 20
910.2912173570924
 10
1810.4252787881
 20
910.5252532326881
 10
1810.237262029228
 20
910.7458592020762
 10
1810.038462465862
 20
910.9505357114739
 10
1809.831132576491
 20
911.1369636942452
 10
1809.617621491607
 20
911.3030308468523
 10
1809.400348377115
 20
911.4468555620993
 10
1809.181775024222
 20
911.5668082484928
 10
1808.964377956353
 20
911.6615297941656
 10
1808.750620369153
 20
911.7299469661562
 10
1808.542924221501
 20
911.7712845705678
 10
1808.343642793738
 20
911.7850742358248
 10
1808.155034024072
 20
911.7711597195098
 10
1807.979234925226
 20
911.7296986786525
 10
1807.818237371237
 20
911.661160883413
 10
1807.673865528721
 20
911.5663228943976
 10
1807.547755188344
 20
911.4462592639171
 10
1807.441335230652
 20
911.30233036088
 10
1807.355811436289
 20
911.1361669572685
 10
1807.29215282402
 20
910.9496517508413
 10
1807.251080671358
 20
910.7448980334147
 10
1807.233060342204
 20
910.5242257464228
 10
1807.238296014087
 20
910.2901351950533
 10
1807.266728364755
 20
910.0452787187911
 10
1807.318035244312
 20
909.7924306393519
 10
1807.391635325311
 20
909.5344558265088
 10
1807.486694689427
 20
909.2742772379724
 10
1807.602136276079
 20
909.0148428011135
 10
1807.736652085964
 20
908.759092011766
 10
1807.888718001204
 20
908.5099226285663
 10
1808.056611054219
 20
908.2701578401891
 10
1808.23842894963
 20
908.0425142774915
 10
1808.432111618033
 20
907.8295712330012
 10
1808.635464557401
 20
907.6337414364994
 10
1808.846183697678
 20
907.4572437178304
 10
1809.061881506803
 20
907.3020778666718
 10
1809.280114042411
 20
907.1700019741179
  0
LINE
  5
649
330
626
100
AcDbEntity
  8
0
  6
Continuous
 62
     7
370
    15
100
AcDbLine
 10
1840.948027810712
 20
893.8344026051662
 30
0.0
 11
1836.624447680105
 21
890.8597026019117
 31
0.0
  0
LINE
  5
64A
330
626
100
AcDbEntity
  8
0
  6
Continuous
 62
     7
370
    15
100
AcDbLine
 10
1840.965954864633
 20
900.9360660107629
 30
0.0
 11
1840.948027810712
 21
893.8344026051662
 31
0.0
  0
ARC
  5
64B
330
626
100
AcDbEntity
  8
0
  6
Continuous
 62
     7
370
    15
100
AcDbCircle
 10
1833.72615204666
 20
896.0218386002573
 30
0.0
 40
1.390924556638793
100
AcDbArc
 50
235.9594639440976
 51
286.9863802703258
  0
LWPOLYLINE
  5
64C
330
626
100
AcDbEntity
  8
0
  6
Continuous
 62
     7
370
    15
100
AcDbPolyline
 90
       21
 70
   128
 43
0.0
 10
1831.439557729247
 20
898.6056574408815
 10
1831.437482552794
 20
898.6033244661651
 10
1831.339803514063
 20
898.4708020047692
 10
1831.262402828677
 20
898.3168034120891
 10
1831.206253855165
 20
898.1432653097803
 10
1831.172062699445
 20
897.952370040168
 10
1831.16025933514
 20
897.7465182220278
 10
1831.170992196405
 20
897.5282985614109
 10
1831.204126311281
 20
897.3004552971634
 10
1831.259244999049
 20
897.0658536905309
 10
1831.33565511023
 20
896.8274439928359
 10
1831.432395743342
 20
896.5882243443557
 10
1831.548250328793
 20
896.3512030709679
 10
1831.68176192795
 20
896.1193608527088
 10
1831.831251554989
 20
895.8956132399908
 10
1831.994839291114
 20
895.682773988865
 10
1832.170467925627
 20
895.4835196764067
 10
1832.355928826548
 20
895.3003560412053
 10
1832.54888971544
 20
895.1355864722472
 10
1832.746923997167
 20
894.9912830424638
 10
1832.947541275734
 20
894.8692604512112
  0
ARC
  5
64D
330
626
100
AcDbEntity
  8
0
  6
Continuous
 62
     7
370
    15
100
AcDbCircle
 10
1829.059322650031
 20
898.5829866800948
 30
0.0
 40
1.39092455663898
100
AcDbArc
 50
235.9594639440976
 51
286.986380270299
  0
LWPOLYLINE
  5
64E
330
626
100
AcDbEntity
  8
0
  6
Continuous
 62
     7
370
    15
100
AcDbPolyline
 90
       21
 70
   128
 43
0.0
 10
1826.772728332618
 20
901.1668055207184
 10
1826.770653156166
 20
901.1644725460023
 10
1826.672974117434
 20
901.0319500846064
 10
1826.595573432048
 20
900.8779514919265
 10
1826.539424458536
 20
900.7044133896176
 10
1826.505233302816
 20
900.5135181200053
 10
1826.493429938511
 20
900.3076663018651
 10
1826.504162799776
 20
900.0894466412482
 10
1826.537296914652
 20
899.8616033770005
 10
1826.59241560242
 20
899.6270017703682
 10
1826.668825713602
 20
899.3885920726732
 10
1826.765566346713
 20
899.149372424193
 10
1826.881420932164
 20
898.9123511508052
 10
1827.014932531321
 20
898.6805089325461
 10
1827.16442215836
 20
898.4567613198279
 10
1827.328009894485
 20
898.2439220687023
 10
1827.503638528998
 20
898.0446677562442
 10
1827.689099429919
 20
897.8615041210426
 10
1827.882060318811
 20
897.6967345520845
 10
1828.080094600538
 20
897.552431122301
 10
1828.280711879105
 20
897.4304085310484
  0
ARC
  5
64F
330
626
100
AcDbEntity
  8
0
  6
Continuous
 62
     7
370
    15
100
AcDbCircle
 10
1824.392493253402
 20
901.1441347599317
 30
0.0
 40
1.390924556638681
100
AcDbArc
 50
235.9594639440868
 51
286.9863802703402
  0
LWPOLYLINE
  5
650
330
626
100
AcDbEntity
  8
0
  6
Continuous
 62
     7
370
    15
100
AcDbPolyline
 90
       21
 70
   128
 43
0.0
 10
1822.105898935989
 20
903.7279536005563
 10
1822.103823759537
 20
903.7256206258398
 10
1822.006144720805
 20
903.5930981644437
 10
1821.928744035419
 20
903.4390995717638
 10
1821.872595061907
 20
903.2655614694549
 10
1821.838403906187
 20
903.0746661998426
 10
1821.826600541882
 20
902.8688143817024
 10
1821.837333403147
 20
902.6505947210855
 10
1821.870467518023
 20
902.4227514568378
 10
1821.925586205791
 20
902.1881498502054
 10
1822.001996316973
 20
901.9497401525107
 10
1822.098736950084
 20
901.7105205040301
 10
1822.214591535535
 20
901.4734992306426
 10
1822.348103134692
 20
901.2416570123834
 10
1822.497592761731
 20
901.0179093996653
 10
1822.661180497856
 20
900.8050701485396
 10
1822.836809132369
 20
900.6058158360813
 10
1823.02227003329
 20
900.4226522008801
 10
1823.215230922182
 20
900.2578826319219
 10
1823.413265203909
 20
900.1135792021385
 10
1823.613882482476
 20
899.9915566108859
  0
ARC
  5
651
330
626
100
AcDbEntity
  8
0
  6
Continuous
 62
     7
370
    15
100
AcDbCircle
 10
1816.869302349555
 20
914.1623208209297
 30
0.0
 40
2.482742699299339
100
AcDbArc
 50
294.3886343493971
 51
314.520739101296
  0
ELLIPSE
  5
652
330
626
100
AcDbEntity
  8
0
  6
Continuous
 62
     7
370
    15
100
AcDbEllipse
 10
1816.106545045268
 20
905.2292628021822
 30
0.0
 11
1.989069250078571
 21
45.00480540124534
 31
0.0
210
0.0
220
0.0
230
1.0
 40
0.0491435861593998
 41
4.874398216386773
 42
4.896513883569753
  0
LWPOLYLINE
  5
653
330
626
100
AcDbEntity
  8
0
  6
Continuous
 62
     7
370
    15
100
AcDbPolyline
 90
       27
 70
   128
 43
0.0
 10
1814.413097138257
 20
915.7018059633397
 10
1814.667046155323
 20
915.8038153281321
 10
1814.937040886755
 20
915.88891875721
 10
1815.220118706491
 20
915.9561824188822
 10
1815.513173429012
 20
916.0048682354984
 10
1815.812989393206
 20
916.0344419823045
 10
1816.116276747514
 20
916.0445791494387
 10
1816.419707549147
 20
916.0351685027471
 10
1816.719952281281
 20
916.0063133043449
 10
1817.013716387529
 20
915.958330179532
 10
1817.29777642278
 20
915.8917456424934
 10
1817.569015423758
 20
915.8072903189104
 10
1817.824457111153
 20
915.7058909288755
 10
1818.061298548049
 20
915.588660118083
 10
1818.27694089628
 20
915.4568842488744
 10
1818.469017933228
 20
915.3120092851104
 10
1818.635422016154
 20
915.1556249257481
 10
1818.774327209158
 20
914.989447161229
 10
1818.884209319002
 20
914.8152994440815
 10
1818.963862619927
 20
914.6350926803526
 10
1819.012413083971
 20
914.4508042614218
 10
1819.02932797159
 20
914.2644563662754
 10
1819.014421677359
 20
914.0780937723334
 10
1818.967857766602
 20
913.893761418304
 10
1818.890147180607
 20
913.7134819652695
 10
1818.782142630112
 20
913.5392336022217
 10
1818.645029238598
 20
913.3729283395853
  0
ELLIPSE
  5
654
330
626
100
AcDbEntity
  8
0
  6
Continuous
 62
     7
370
    15
100
AcDbEllipse
 10
1816.106545045268
 20
905.2292628021822
 30
0.0
 11
1.989069250078571
 21
45.00480540124534
 31
0.0
210
0.0
220
0.0
230
1.0
 40
0.0491435861593998
 41
1.338117616796459
 42
1.360233283979437
  0
LWPOLYLINE
  5
655
330
626
100
AcDbEntity
  8
0
  6
Continuous
 62
     7
370
    15
100
AcDbPolyline
 90
       27
 70
   128
 43
0.0
 10
1817.845602094448
 20
912.8244276613486
 10
1817.591653077382
 20
912.7224182965564
 10
1817.321658345951
 20
912.6373148674783
 10
1817.038580526214
 20
912.5700512058061
 10
1816.745525803694
 20
912.5213653891899
 10
1816.445709839499
 20
912.4917916423838
 10
1816.142422485191
 20
912.4816544752496
 10
1815.838991683559
 20
912.4910651219414
 10
1815.538746951424
 20
912.5199203203434
 10
1815.244982845176
 20
912.5679034451563
 10
1814.960922809925
 20
912.6344879821949
 10
1814.689683808948
 20
912.7189433057779
 10
1814.434242121553
 20
912.8203426958128
 10
1814.197400684656
 20
912.9375735066055
 10
1813.981758336425
 20
913.069349375814
 10
1813.789681299477
 20
913.2142243395781
 10
1813.623277216552
 20
913.3706086989402
 10
1813.484372023547
 20
913.5367864634593
 10
1813.374489913704
 20
913.710934180607
 10
1813.294836612778
 20
913.8911409443357
 10
1813.246286148735
 20
914.0754293632666
 10
1813.229371261115
 20
914.2617772584129
 10
1813.244277555346
 20
914.448139852355
 10
1813.290841466103
 20
914.6324722063843
 10
1813.368552052098
 20
914.8127516594188
 10
1813.476556602594
 20
914.9870000224668
 10
1813.613669994107
 20
915.153305285103
  0
ELLIPSE
  5
656
330
626
100
AcDbEntity
  8
0
  6
Continuous
 62
     7
370
    15
100
AcDbEllipse
 10
1816.106545045268
 20
905.2292628021822
 30
0.0
 11
-1.886453164023578
 21
42.35470627453067
 31
0.0
210
0.0
220
0.0
230
1.0
 40
0.0497357462524611
 41
4.868355727350184
 42
4.890471394533165
  0
LINE
  5
657
330
626
100
AcDbEntity
  8
0
  6
Continuous
 62
     7
370
    15
100
AcDbLine
 10
1814.424081023286
 20
913.5541543923787
 30
0.0
 11
1815.169861062251
 21
913.1437436381872
 31
0.0
  0
LINE
  5
658
330
626
100
AcDbEntity
  8
0
  6
Continuous
 62
     7
370
    15
100
AcDbLine
 10
1815.169861062251
 20
913.1437436381872
 30
0.0
 11
1816.10252606376
 21
913.7836610961301
 31
0.0
  0
LINE
  5
659
330
626
100
AcDbEntity
  8
0
  6
Continuous
 62
     7
370
    15
100
AcDbLine
 10
1816.10252606376
 20
913.7836610961301
 30
0.0
 11
1817.845602094448
 21
912.8244276613486
 31
0.0
  0
LINE
  5
65A
330
626
100
AcDbEntity
  8
0
  6
Continuous
 62
     7
370
    15
100
AcDbLine
 10
1813.613669994107
 20
915.153305285103
 30
0.0
 11
1815.356746024795
 21
914.1940718503215
 31
0.0
  0
LINE
  5
65B
330
626
100
AcDbEntity
  8
0
  6
Continuous
 62
     7
370
    15
100
AcDbLine
 10
1815.356746024795
 20
914.1940718503215
 30
0.0
 11
1814.424081023286
 21
913.5541543923787
 31
0.0
  0
LINE
  5
65C
330
626
100
AcDbEntity
  8
0
  6
Continuous
 62
     7
370
    15
100
AcDbLine
 10
1818.61012056932
 20
912.3921334758563
 30
0.0
 11
1817.846240012124
 21
912.812505139365
 31
0.0
  0
LINE
  5
65D
330
626
100
AcDbEntity
  8
0
  6
Continuous
 62
     7
370
    15
100
AcDbLine
 10
1816.093167273633
 20
913.7772398696684
 30
0.0
 11
1815.357861441666
 21
914.1818865554098
 31
0.0
  0
LINE
  5
65E
330
626
100
AcDbEntity
  8
0
  6
Continuous
 62
     7
370
    15
100
AcDbLine
 10
1816.89361447581
 20
914.2453047549834
 30
0.0
 11
1816.168147094704
 21
913.7475491389935
 31
0.0
  0
LINE
  5
65F
330
626
100
AcDbEntity
  8
0
  6
Continuous
 62
     7
370
    15
100
AcDbLine
 10
1818.645029238598
 20
913.3729283395853
 30
0.0
 11
1816.90195320791
 21
914.3321617743668
 31
0.0
  0
LINE
  5
660
330
626
100
AcDbEntity
  8
0
  6
Continuous
 62
     7
370
    15
100
AcDbLine
 10
1816.90195320791
 20
914.3321617743668
 30
0.0
 11
1816.811820296253
 21
913.393328872563
 31
0.0
  0
LINE
  5
661
330
626
100
AcDbEntity
  8
0
  6
Continuous
 62
     7
370
    15
100
AcDbLine
 10
1816.156173168945
 20
914.7425725285582
 30
0.0
 11
1814.413097138257
 21
915.7018059633397
 31
0.0
  0
LINE
  5
662
330
626
100
AcDbEntity
  8
0
  6
Continuous
 62
     7
370
    15
100
AcDbLine
 10
1816.90195320791
 20
914.3321617743668
 30
0.0
 11
1817.834618209419
 21
914.9720792323096
 31
0.0
  0
LINE
  5
663
330
626
100
AcDbEntity
  8
0
  6
Continuous
 62
     7
370
    15
100
AcDbLine
 10
1817.834618209419
 20
914.9720792323096
 30
0.0
 11
1817.088838170454
 21
915.3824899865011
 31
0.0
  0
LINE
  5
664
330
626
100
AcDbEntity
  8
0
  6
Continuous
 62
     7
370
    15
100
AcDbLine
 10
1817.088838170454
 20
915.3824899865011
 30
0.0
 11
1816.156173168945
 21
914.7425725285582
 31
0.0
  0
LINE
  5
665
330
626
100
AcDbEntity
  8
0
  6
Continuous
 62
     7
370
    15
100
AcDbLine
 10
1815.356746024795
 20
914.1940718503215
 30
0.0
 11
1815.436165463164
 21
913.3264596562595
 31
0.0
  0
ARC
  5
666
330
626
100
AcDbEntity
  8
0
  6
Continuous
 62
     7
370
    15
100
AcDbCircle
 10
1815.169708467989
 20
906.1621567049641
 30
0.0
 40
1.595829080542274
100
AcDbArc
 50
236.0949787399162
 51
288.0946990409496
  0
LWPOLYLINE
  5
667
330
626
100
AcDbEntity
  8
0
  6
Continuous
 62
     7
370
    15
100
AcDbPolyline
 90
       22
 70
   128
 43
0.0
 10
1812.572070778696
 20
909.1411860846173
 10
1812.547167671942
 20
909.1139342612532
 10
1812.440747714251
 20
908.9700053582159
 10
1812.355223919888
 20
908.8038419546045
 10
1812.291565307619
 20
908.6173267481774
 10
1812.250493154957
 20
908.4125730307508
 10
1812.232472825802
 20
908.1919007437589
 10
1812.237708497686
 20
907.9578101923894
 10
1812.266140848354
 20
907.7129537161273
 10
1812.31744772791
 20
907.460105636688
 10
1812.39104780891
 20
907.2021308238447
 10
1812.486107173026
 20
906.9419522353085
 10
1812.601548759678
 20
906.6825177984496
 10
1812.736064569563
 20
906.4267670091021
 10
1812.888130484803
 20
906.1775976259024
 10
1813.056023537818
 20
905.9378328375251
 10
1813.237841433229
 20
905.7101892748276
 10
1813.431524101632
 20
905.4972462303371
 10
1813.634877041
 20
905.3014164338355
 10
1813.845596181277
 20
905.1249187151666
 10
1814.061293990402
 20
904.9697528640079
 10
1814.27952652601
 20
904.837676971454
  0
LINE
  5
668
330
626
100
AcDbEntity
  8
0
  6
Continuous
 62
     7
370
    15
100
AcDbLine
 10
1813.2485352489
 20
914.4721931830126
 30
0.0
 11
1813.227656431188
 21
914.4622722824202
 31
0.0
  0
ELLIPSE
  5
669
330
626
100
AcDbEntity
  8
0
  6
Continuous
 62
     7
370
    15
100
AcDbEllipse
 10
1811.439715648639
 20
907.7904108820195
 30
0.0
 11
1.989069250078586
 21
45.00480540124536
 31
0.0
210
0.0
220
0.0
230
1.0
 40
0.0491435861593997
 41
4.874809345216196
 42
4.896513883569756
  0
LWPOLYLINE
  5
66A
330
626
100
AcDbEntity
  8
0
  6
Continuous
 62
     7
370
    15
100
AcDbPolyline
 90
       27
 70
   128
 43
0.0
 10
1809.746267741628
 20
918.2629540431772
 10
1810.000216758695
 20
918.3649634079694
 10
1810.270211490126
 20
918.4500668370473
 10
1810.553289309862
 20
918.5173304987197
 10
1810.846344032383
 20
918.5660163153357
 10
1811.146159996577
 20
918.5955900621419
 10
1811.449447350885
 20
918.605727229276
 10
1811.752878152518
 20
918.5963165825842
 10
1812.053122884653
 20
918.5674613841822
 10
1812.3468869909
 20
918.5194782593693
 10
1812.630947026151
 20
918.4528937223308
 10
1812.902186027129
 20
918.3684383987477
 10
1813.157627714524
 20
918.2670390087128
 10
1813.39446915142
 20
918.1498081979203
 10
1813.610111499652
 20
918.0180323287117
 10
1813.802188536599
 20
917.8731573649477
 10
1813.968592619525
 20
917.7167730055854
 10
1814.107497812529
 20
917.5505952410663
 10
1814.217379922373
 20
917.3764475239188
 10
1814.297033223298
 20
917.1962407601899
 10
1814.345583687342
 20
917.0119523412591
 10
1814.362498574961
 20
916.8256044461127
 10
1814.34759228073
 20
916.6392418521708
 10
1814.301028369974
 20
916.4549094981413
 10
1814.223317783978
 20
916.2746300451068
 10
1814.115313233483
 20
916.1003816820588
 10
1813.978199841969
 20
915.9340764194226
  0
ELLIPSE
  5
66B
330
626
100
AcDbEntity
  8
0
  6
Continuous
 62
     7
370
    15
100
AcDbEllipse
 10
1811.439715648639
 20
907.7904108820195
 30
0.0
 11
1.989069250078586
 21
45.00480540124536
 31
0.0
210
0.0
220
0.0
230
1.0
 40
0.0491435861593997
 41
1.338117616796457
 42
1.360233283979437
  0
LWPOLYLINE
  5
66C
330
626
100
AcDbEntity
  8
0
  6
Continuous
 62
     7
370
    15
100
AcDbPolyline
 90
       27
 70
   128
 43
0.0
 10
1813.178772697819
 20
915.3855757411859
 10
1812.924823680753
 20
915.2835663763937
 10
1812.654828949322
 20
915.1984629473158
 10
1812.371751129585
 20
915.1311992856435
 10
1812.078696407065
 20
915.0825134690272
 10
1811.77888044287
 20
915.0529397222213
 10
1811.475593088562
 20
915.0428025550871
 10
1811.17216228693
 20
915.0522132017787
 10
1810.871917554795
 20
915.0810684001807
 10
1810.578153448547
 20
915.1290515249936
 10
1810.294093413296
 20
915.1956360620323
 10
1810.022854412319
 20
915.2800913856154
 10
1809.767412724924
 20
915.3814907756501
 10
1809.530571288027
 20
915.4987215864428
 10
1809.314928939796
 20
915.6304974556514
 10
1809.122851902849
 20
915.7753724194153
 10
1808.956447819923
 20
915.9317567787777
 10
1808.817542626918
 20
916.0979345432968
 10
1808.707660517075
 20
916.2720822604443
 10
1808.62800721615
 20
916.452289024173
 10
1808.579456752105
 20
916.636577443104
 10
1808.562541864487
 20
916.8229253382504
 10
1808.577448158717
 20
917.0092879321924
 10
1808.624012069474
 20
917.1936202862218
 10
1808.701722655469
 20
917.3738997392563
 10
1808.809727205964
 20
917.5481481023041
 10
1808.946840597478
 20
917.7144533649403
  0
ELLIPSE
  5
66D
330
626
100
AcDbEntity
  8
0
  6
Continuous
 62
     7
370
    15
100
AcDbEllipse
 10
1811.439715648639
 20
907.7904108820195
 30
0.0
 11
-1.886453164023578
 21
42.35470627453071
 31
0.0
210
0.0
220
0.0
230
1.0
 40
0.049735746252461
 41
4.868355727350184
 42
4.890471394533164
  0
LINE
  5
66E
330
626
100
AcDbEntity
  8
0
  6
Continuous
 62
     7
370
    15
100
AcDbLine
 10
1809.757251626658
 20
916.1153024722162
 30
0.0
 11
1810.503031665623
 21
915.7048917180246
 31
0.0
  0
LINE
  5
66F
330
626
100
AcDbEntity
  8
0
  6
Continuous
 62
     7
370
    15
100
AcDbLine
 10
1810.503031665623
 20
915.7048917180246
 30
0.0
 11
1811.435696667131
 21
916.3448091759674
 31
0.0
  0
LINE
  5
670
330
626
100
AcDbEntity
  8
0
  6
Continuous
 62
     7
370
    15
100
AcDbLine
 10
1811.435696667131
 20
916.3448091759674
 30
0.0
 11
1813.178772697819
 21
915.3855757411859
 31
0.0
  0
LINE
  5
671
330
626
100
AcDbEntity
  8
0
  6
Continuous
 62
     7
370
    15
100
AcDbLine
 10
1808.946840597478
 20
917.7144533649403
 30
0.0
 11
1810.689916628166
 21
916.755219930159
 31
0.0
  0
LINE
  5
672
330
626
100
AcDbEntity
  8
0
  6
Continuous
 62
     7
370
    15
100
AcDbLine
 10
1810.689916628166
 20
916.755219930159
 30
0.0
 11
1809.757251626658
 21
916.1153024722162
 31
0.0
  0
LINE
  5
673
330
626
100
AcDbEntity
  8
0
  6
Continuous
 62
     7
370
    15
100
AcDbLine
 10
1816.156173168945
 20
914.7425725285582
 30
0.0
 11
1816.158758043782
 21
913.7527160344168
 31
0.0
  0
LINE
  5
674
330
626
100
AcDbEntity
  8
0
  6
Continuous
 62
     7
370
    15
100
AcDbLine
 10
1817.088838170454
 20
915.3824899865011
 30
0.0
 11
1817.091241810313
 21
914.4620359318306
 31
0.0
  0
LINE
  5
675
330
626
100
AcDbEntity
  8
0
  6
Continuous
 62
     7
370
    15
100
AcDbLine
 10
1813.602240021262
 20
915.140965662217
 30
0.0
 11
1813.179410615495
 21
915.3736532192024
 31
0.0
  0
LINE
  5
676
330
626
100
AcDbEntity
  8
0
  6
Continuous
 62
     7
370
    15
100
AcDbLine
 10
1811.426337877004
 20
916.3383879495059
 30
0.0
 11
1810.691032045037
 21
916.7430346352471
 31
0.0
  0
LINE
  5
677
330
626
100
AcDbEntity
  8
0
  6
Continuous
 62
     7
370
    15
100
AcDbLine
 10
1812.226785079181
 20
916.8064528348207
 30
0.0
 11
1811.501317698075
 21
916.3086972188308
 31
0.0
  0
LINE
  5
678
330
626
100
AcDbEntity
  8
0
  6
Continuous
 62
     7
370
    15
100
AcDbLine
 10
1813.978199841969
 20
915.9340764194226
 30
0.0
 11
1812.235123811282
 21
916.8933098542041
 31
0.0
  0
LINE
  5
679
330
626
100
AcDbEntity
  8
0
  6
Continuous
 62
     7
370
    15
100
AcDbLine
 10
1812.235123811282
 20
916.8933098542041
 30
0.0
 11
1812.144990899624
 21
915.9544769524003
 31
0.0
  0
LINE
  5
67A
330
626
100
AcDbEntity
  8
0
  6
Continuous
 62
     7
370
    15
100
AcDbLine
 10
1811.489343772317
 20
917.3037206083957
 30
0.0
 11
1809.746267741628
 21
918.2629540431772
 31
0.0
  0
LINE
  5
67B
330
626
100
AcDbEntity
  8
0
  6
Continuous
 62
     7
370
    15
100
AcDbLine
 10
1812.235123811282
 20
916.8933098542041
 30
0.0
 11
1813.16778881279
 21
917.5332273121469
 31
0.0
  0
LINE
  5
67C
330
626
100
AcDbEntity
  8
0
  6
Continuous
 62
     7
370
    15
100
AcDbLine
 10
1813.16778881279
 20
917.5332273121469
 30
0.0
 11
1812.422008773825
 21
917.9436380663386
 31
0.0
  0
LINE
  5
67D
330
626
100
AcDbEntity
  8
0
  6
Continuous
 62
     7
370
    15
100
AcDbLine
 10
1812.422008773825
 20
917.9436380663386
 30
0.0
 11
1811.489343772317
 21
917.3037206083957
 31
0.0
  0
LINE
  5
67E
330
626
100
AcDbEntity
  8
0
  6
Continuous
 62
     7
370
    15
100
AcDbLine
 10
1810.689916628166
 20
916.755219930159
 30
0.0
 11
1810.769336066535
 21
915.887607736097
 31
0.0
  0
ARC
  5
67F
330
626
100
AcDbEntity
  8
0
  6
Continuous
 62
     7
370
    15
100
AcDbCircle
 10
1810.50287907136
 20
908.7233047848011
 30
0.0
 40
1.595829080541894
100
AcDbArc
 50
236.0949787399018
 51
288.094699040964
  0
LWPOLYLINE
  5
680
330
626
100
AcDbEntity
  8
0
  6
Continuous
 62
     7
370
    15
100
AcDbPolyline
 90
       22
 70
   128
 43
0.0
 10
1807.905241382067
 20
911.7023341644548
 10
1807.880338275314
 20
911.6750823410905
 10
1807.773918317622
 20
911.5311534380534
 10
1807.688394523259
 20
911.364990034442
 10
1807.62473591099
 20
911.1784748280147
 10
1807.583663758328
 20
910.9737211105882
 10
1807.565643429174
 20
910.7530488235964
 10
1807.570879101058
 20
910.5189582722269
 10
1807.599311451724
 20
910.2741017959646
 10
1807.650618331281
 20
910.0212537165253
 10
1807.724218412281
 20
909.763278903682
 10
1807.819277776397
 20
909.503100315146
 10
1807.934719363049
 20
909.2436658782869
 10
1808.069235172933
 20
908.9879150889395
 10
1808.221301088174
 20
908.7387457057397
 10
1808.389194141189
 20
908.4989809173624
 10
1808.5710120366
 20
908.2713373546649
 10
1808.764694705003
 20
908.0583943101744
 10
1808.968047644371
 20
907.8625645136728
 10
1809.178766784647
 20
907.6860667950038
 10
1809.394464593773
 20
907.5309009438452
 10
1809.612697129381
 20
907.3988250512913
  0
LINE
  5
681
330
626
100
AcDbEntity
  8
0
  6
Continuous
 62
     7
370
    15
100
AcDbLine
 10
1811.489343772317
 20
917.3037206083957
 30
0.0
 11
1811.491928647152
 21
916.3138641142541
 31
0.0
  0
LINE
  5
682
330
626
100
AcDbEntity
  8
0
  6
Continuous
 62
     7
370
    15
100
AcDbLine
 10
1812.422008773825
 20
917.9436380663386
 30
0.0
 11
1812.424412413684
 21
917.0231840116681
 31
0.0
  0
LWPOLYLINE
  5
683
330
626
100
AcDbEntity
  8
0
  6
Continuous
 62
     7
370
    15
100
AcDbPolyline
 90
       23
 70
   128
 43
0.0
 10
1831.915924609905
 20
903.2289705749755
 10
1831.725916539872
 20
903.1121782276249
 10
1831.515761705995
 20
903.0092224542833
 10
1831.288102927246
 20
902.9213979835374
 10
1831.045803144858
 20
902.8498092590631
 10
1830.791909419179
 20
902.7953565506077
 10
1830.529614611124
 20
902.7587246325744
 10
1830.262217230089
 20
902.7403741725866
 10
1829.99307995329
 20
902.7405359383259
 10
1829.725587338139
 20
902.7592078954942
 10
1829.463103259474
 20
902.7961552333966
 10
1829.208928606882
 20
902.8509133178213
 10
1828.966259774094
 20
902.9227935340854
 10
1828.738148462482
 20
903.0108919467638
 10
1828.527463304144
 20
903.1141006672008
 10
1828.336853787187
 20
903.231121785854
 10
1828.168716936882
 20
903.360483694259
 10
1828.025167171677
 20
903.5005595913601
 10
1827.908009713158
 20
903.6495879414774
 10
1827.818717884342
 20
903.8056946266397
 10
1827.758414581786
 20
903.9669165147063
 10
1827.727858154508
 20
904.1312261468913
 10
1827.723869768348
 20
904.2185098481589
  0
LINE
  5
684
330
626
100
AcDbEntity
  8
0
  6
Continuous
 62
     7
370
    15
100
AcDbLine
 10
1832.52385447485
 20
904.2063930271076
 30
0.0
 11
1832.522268247923
 21
904.1550397779166
 31
0.0
  0
ARC
  5
685
330
626
100
AcDbEntity
  8
0
  6
Continuous
 62
     7
370
    15
100
AcDbCircle
 10
1831.090987022048
 20
904.4935153133851
 30
0.0
 40
1.509832911052789
100
AcDbArc
 50
303.118795701274
 51
329.9138843790059
  0
ARC
  5
686
330
626
100
AcDbEntity
  8
0
  6
Continuous
 62
     7
370
    15
100
AcDbCircle
 10
1830.737087717482
 20
905.986227639728
 30
0.0
 40
2.050781301009322
100
AcDbArc
 50
292.2658628329109
 51
316.6925985151368
  0
ELLIPSE
  5
687
330
626
100
AcDbEntity
  8
0
  6
Continuous
 62
     7
370
    15
100
AcDbEllipse
 10
1830.106176720356
 20
897.2065168666251
 30
0.0
 11
1.645318725067426
 21
37.24579099244499
 31
0.0
210
0.0
220
0.0
230
1.0
 40
0.0491614133520455
 41
4.913833134155099
 42
4.94080574843212
  0
LWPOLYLINE
  5
688
330
626
100
AcDbEntity
  8
0
  6
Continuous
 62
     7
370
    15
100
AcDbPolyline
 90
       24
 70
   128
 43
0.0
 10
1828.794750664632
 20
907.4679581898474
 10
1829.03166312926
 20
907.5532824115942
 10
1829.282975799217
 20
907.621377176715
 10
1829.545390675642
 20
907.6713488714581
 10
1829.815464064416
 20
907.7025417127609
 10
1830.089651768071
 20
907.7145463541503
 10
1830.364355596612
 20
907.7072052576333
 10
1830.635970586892
 20
907.6806147610826
 10
1830.900932310867
 20
907.6351238139853
 10
1831.155763651908
 20
907.5713293981479
 10
1831.397120435315
 20
907.4900686934501
 10
1831.621835314225
 20
907.3924080914578
 10
1831.82695933499
 20
907.2796292010691
 10
1832.009800636564
 20
907.1532120298465
 10
1832.167959776034
 20
907.0148155617436
 10
1832.299361216734
 20
906.8662559861081
 10
1832.40228056569
 20
906.7094828636662
 10
1832.475367202993
 20
906.5465535422601
 10
1832.517662006102
 20
906.3796061580868
 10
1832.528609936496
 20
906.2108315767442
 10
1832.508067323497
 20
906.0424446423034
 10
1832.456303749669
 20
905.8766551117102
 10
1832.373998513067
 20
905.7156386559457
 10
1832.262231712742
 20
905.561508308498
  0
ELLIPSE
  5
689
330
626
100
AcDbEntity
  8
0
  6
Continuous
 62
     7
370
    15
100
AcDbEllipse
 10
1830.106176720356
 20
897.2065168666251
 30
0.0
 11
1.645318725067426
 21
37.24579099244499
 31
0.0
210
0.0
220
0.0
230
1.0
 40
0.0491614133520455
 41
1.293852584558157
 42
1.320825198835177
  0
LWPOLYLINE
  5
68A
330
626
100
AcDbEntity
  8
0
  6
Continuous
 62
     7
370
    15
100
AcDbPolyline
 90
       24
 70
   128
 43
0.0
 10
1831.463211918249
 20
905.0127835637267
 10
1831.226299453622
 20
904.9274593419797
 10
1830.974986783665
 20
904.8593645768589
 10
1830.71257190724
 20
904.8093928821158
 10
1830.442498518466
 20
904.778200040813
 10
1830.168310814811
 20
904.7661953994236
 10
1829.89360698627
 20
904.7735364959406
 10
1829.62199199599
 20
904.8001269924913
 10
1829.357030272014
 20
904.8456179395886
 10
1829.102198930973
 20
904.909412355426
 10
1828.860842147567
 20
904.9906730601238
 10
1828.636127268657
 20
905.0883336621161
 10
1828.431003247892
 20
905.201112552505
 10
1828.248161946319
 20
905.3275297237274
 10
1828.090002806847
 20
905.4659261918303
 10
1827.958601366148
 20
905.6144857674656
 10
1827.855682017192
 20
905.7712588899075
 10
1827.782595379889
 20
905.9341882113139
 10
1827.74030057678
 20
906.1011355954871
 10
1827.729352646386
 20
906.2699101768297
 10
1827.749895259385
 20
906.4382971112705
 10
1827.801658833212
 20
906.6040866418635
 10
1827.883964069815
 20
906.7651030976282
 10
1827.99573087014
 20
906.9192334450759
  0
ELLIPSE
  5
68B
330
626
100
AcDbEntity
  8
0
  6
Continuous
 62
     7
370
    15
100
AcDbEllipse
 10
1830.106176720356
 20
897.2065168666249
 30
0.0
 11
-1.560385930513745
 21
35.05170873624975
 31
0.0
210
0.0
220
0.0
230
0.9999999999999998
 40
0.0497584727586993
 41
4.907791227169916
 42
4.934763841446938
  0
LINE
  5
68C
330
626
100
AcDbEntity
  8
0
  6
Continuous
 62
     7
370
    15
100
AcDbLine
 10
1828.831773296045
 20
905.7185460267303
 30
0.0
 11
1829.428639800606
 21
905.3903838649151
 31
0.0
  0
LINE
  5
68D
330
626
100
AcDbEntity
  8
0
  6
Continuous
 62
     7
370
    15
100
AcDbLine
 10
1829.428639800606
 20
905.3903838649151
 30
0.0
 11
1830.027904646475
 21
905.8019274234936
 31
0.0
  0
LINE
  5
68E
330
626
100
AcDbEntity
  8
0
  6
Continuous
 62
     7
370
    15
100
AcDbLine
 10
1830.027904646475
 20
905.8019274234936
 30
0.0
 11
1831.463211918249
 21
905.0127835637267
 31
0.0
  0
LINE
  5
68F
330
626
100
AcDbEntity
  8
0
  6
Continuous
 62
     7
370
    15
100
AcDbLine
 10
1827.99573087014
 20
906.9192334450759
 30
0.0
 11
1829.431038141914
 21
906.130089585309
 31
0.0
  0
LINE
  5
690
330
626
100
AcDbEntity
  8
0
  6
Continuous
 62
     7
370
    15
100
AcDbLine
 10
1829.431038141914
 20
906.130089585309
 30
0.0
 11
1828.831773296045
 21
905.7185460267303
 31
0.0
  0
LINE
  5
691
330
626
100
AcDbEntity
  8
0
  6
Continuous
 62
     7
370
    15
100
AcDbLine
 10
1832.229408780473
 20
904.5795713954658
 30
0.0
 11
1831.463899702719
 21
905.000454644778
 31
0.0
  0
LINE
  5
692
330
626
100
AcDbEntity
  8
0
  6
Continuous
 62
     7
370
    15
100
AcDbLine
 10
1830.018240084226
 20
905.7952903107583
 30
0.0
 11
1829.432190064958
 21
906.1175054791171
 31
0.0
  0
LINE
  5
693
330
626
100
AcDbEntity
  8
0
  6
Continuous
 62
     7
370
    15
100
AcDbLine
 10
1830.79966734355
 20
906.0667251307496
 30
0.0
 11
1830.242378043817
 21
905.6840081682066
 31
0.0
  0
LINE
  5
694
330
626
100
AcDbEntity
  8
0
  6
Continuous
 62
     7
370
    15
100
AcDbLine
 10
1832.262231712742
 20
905.561508308498
 30
0.0
 11
1830.826924440968
 21
906.3506521682651
 31
0.0
  0
LINE
  5
695
330
626
100
AcDbEntity
  8
0
  6
Continuous
 62
     7
370
    15
100
AcDbLine
 10
1830.826924440968
 20
906.3506521682651
 30
0.0
 11
1830.736828400751
 21
905.4121552550308
 31
0.0
  0
LINE
  5
696
330
626
100
AcDbEntity
  8
0
  6
Continuous
 62
     7
370
    15
100
AcDbLine
 10
1830.230057936407
 20
906.6788143300803
 30
0.0
 11
1828.794750664632
 21
907.4679581898474
 31
0.0
  0
LINE
  5
697
330
626
100
AcDbEntity
  8
0
  6
Continuous
 62
     7
370
    15
100
AcDbLine
 10
1830.826924440968
 20
906.3506521682651
 30
0.0
 11
1831.426189286837
 21
906.7621957268434
 31
0.0
  0
LINE
  5
698
330
626
100
AcDbEntity
  8
0
  6
Continuous
 62
     7
370
    15
100
AcDbLine
 10
1831.426189286837
 20
906.7621957268434
 30
0.0
 11
1830.829322782276
 21
907.0903578886587
 31
0.0
  0
LINE
  5
699
330
626
100
AcDbEntity
  8
0
  6
Continuous
 62
     7
370
    15
100
AcDbLine
 10
1830.829322782276
 20
907.0903578886587
 30
0.0
 11
1830.230057936407
 21
906.6788143300803
 31
0.0
  0
LINE
  5
69A
330
626
100
AcDbEntity
  8
0
  6
Continuous
 62
     7
370
    15
100
AcDbLine
 10
1829.431038141914
 20
906.130089585309
 30
0.0
 11
1829.494602623525
 21
905.4356836602648
 31
0.0
  0
LINE
  5
69B
330
626
100
AcDbEntity
  8
0
  6
Continuous
 62
     7
370
    15
100
AcDbLine
 10
1830.230057936407
 20
906.6788143300803
 30
0.0
 11
1830.232681745227
 21
905.6893392737093
 31
0.0
  0
LINE
  5
69C
330
626
100
AcDbEntity
  8
0
  6
Continuous
 62
     7
370
    15
100
AcDbLine
 10
1830.829322782276
 20
907.0903578886587
 30
0.0
 11
1830.831276348166
 21
906.3536408291007
 31
0.0
  0
LWPOLYLINE
  5
69D
330
626
100
AcDbEntity
  8
0
  6
Continuous
 62
     7
370
    15
100
AcDbPolyline
 90
       23
 70
   128
 43
0.0
 10
1827.249095213276
 20
905.790118654813
 10
1827.059087143243
 20
905.6733263074622
 10
1826.848932309366
 20
905.5703705341208
 10
1826.621273530617
 20
905.4825460633747
 10
1826.378973748229
 20
905.4109573389004
 10
1826.125080022551
 20
905.356504630445
 10
1825.862785214495
 20
905.3198727124117
 10
1825.59538783346
 20
905.3015222524239
 10
1825.326250556661
 20
905.3016840181633
 10
1825.05875794151
 20
905.3203559753315
 10
1824.796273862845
 20
905.3573033132337
 10
1824.542099210253
 20
905.4120613976586
 10
1824.299430377465
 20
905.4839416139229
 10
1824.071319065853
 20
905.5720400266011
 10
1823.860633907515
 20
905.6752487470381
 10
1823.670024390558
 20
905.7922698656913
 10
1823.501887540254
 20
905.9216317740963
 10
1823.358337775048
 20
906.0617076711974
 10
1823.241180316529
 20
906.2107360213147
 10
1823.151888487713
 20
906.3668427064772
 10
1823.091585185157
 20
906.5280645945437
 10
1823.061028757878
 20
906.6923742267286
 10
1823.05704037172
 20
906.7796579279962
  0
LINE
  5
69E
330
626
100
AcDbEntity
  8
0
  6
Continuous
 62
     7
370
    15
100
AcDbLine
 10
1827.857025078221
 20
906.7675411069449
 30
0.0
 11
1827.855438851294
 21
906.716187857754
 31
0.0
  0
ARC
  5
69F
330
626
100
AcDbEntity
  8
0
  6
Continuous
 62
     7
370
    15
100
AcDbCircle
 10
1826.424157625419
 20
907.0546633932222
 30
0.0
 40
1.50983291105239
100
AcDbArc
 50
303.118795701274
 51
329.9138843790059
  0
ARC
  5
6A0
330
626
100
AcDbEntity
  8
0
  6
Continuous
 62
     7
370
    15
100
AcDbCircle
 10
1826.070258320853
 20
908.5473757195652
 30
0.0
 40
2.050781301009164
100
AcDbArc
 50
292.2658628329109
 51
316.6925985151368
  0
ELLIPSE
  5
6A1
330
626
100
AcDbEntity
  8
0
  6
Continuous
 62
     7
370
    15
100
AcDbEllipse
 10
1825.439347323727
 20
899.7676649464624
 30
0.0
 11
1.64531872506744
 21
37.24579099244496
 31
0.0
210
0.0
220
0.0
230
0.9999999999999998
 40
0.0491614133520459
 41
4.913833134155101
 42
4.940805748432122
  0
LWPOLYLINE
  5
6A2
330
626
100
AcDbEntity
  8
0
  6
Continuous
 62
     7
370
    15
100
AcDbPolyline
 90
       24
 70
   128
 43
0.0
 10
1824.127921268004
 20
910.0291062696847
 10
1824.364833732632
 20
910.1144304914317
 10
1824.616146402588
 20
910.1825252565525
 10
1824.878561279013
 20
910.2324969512954
 10
1825.148634667787
 20
910.2636897925984
 10
1825.422822371442
 20
910.2756944339876
 10
1825.697526199983
 20
910.2683533374706
 10
1825.969141190263
 20
910.2417628409199
 10
1826.234102914239
 20
910.1962718938224
 10
1826.48893425528
 20
910.1324774779852
 10
1826.730291038686
 20
910.0512167732874
 10
1826.955005917596
 20
909.9535561712951
 10
1827.160129938361
 20
909.8407772809064
 10
1827.342971239935
 20
909.7143601096838
 10
1827.501130379405
 20
909.5759636415809
 10
1827.632531820105
 20
909.4274040659456
 10
1827.735451169061
 20
909.2706309435037
 10
1827.808537806364
 20
909.1077016220975
 10
1827.850832609473
 20
908.9407542379243
 10
1827.861780539867
 20
908.7719796565815
 10
1827.841237926868
 20
908.6035927221407
 10
1827.789474353041
 20
908.4378031915477
 10
1827.707169116438
 20
908.276786735783
 10
1827.595402316113
 20
908.1226563883353
  0
ELLIPSE
  5
6A3
330
626
100
AcDbEntity
  8
0
  6
Continuous
 62
     7
370
    15
100
AcDbEllipse
 10
1825.439347323727
 20
899.7676649464624
 30
0.0
 11
1.64531872506744
 21
37.24579099244496
 31
0.0
210
0.0
220
0.0
230
0.9999999999999998
 40
0.0491614133520459
 41
1.293852584558157
 42
1.320825198835176
  0
LWPOLYLINE
  5
6A4
330
626
100
AcDbEntity
  8
0
  6
Continuous
 62
     7
370
    15
100
AcDbPolyline
 90
       24
 70
   128
 43
0.0
 10
1826.79638252162
 20
907.573931643564
 10
1826.559470056993
 20
907.488607421817
 10
1826.308157387036
 20
907.4205126566962
 10
1826.045742510611
 20
907.3705409619531
 10
1825.775669121837
 20
907.3393481206503
 10
1825.501481418182
 20
907.3273434792609
 10
1825.226777589641
 20
907.3346845757779
 10
1824.955162599361
 20
907.3612750723288
 10
1824.690200875386
 20
907.4067660194261
 10
1824.435369534345
 20
907.4705604352635
 10
1824.194012750938
 20
907.5518211399609
 10
1823.969297872028
 20
907.6494817419536
 10
1823.764173851263
 20
907.7622606323423
 10
1823.58133254969
 20
907.8886778035647
 10
1823.423173410219
 20
908.0270742716678
 10
1823.291771969519
 20
908.1756338473031
 10
1823.188852620563
 20
908.332406969745
 10
1823.11576598326
 20
908.4953362911512
 10
1823.073471180151
 20
908.6622836753244
 10
1823.062523249757
 20
908.8310582566672
 10
1823.083065862756
 20
908.9994451911078
 10
1823.134829436584
 20
909.1652347217008
 10
1823.217134673186
 20
909.3262511774655
 10
1823.328901473511
 20
909.4803815249134
  0
ELLIPSE
  5
6A5
330
626
100
AcDbEntity
  8
0
  6
Continuous
 62
     7
370
    15
100
AcDbEllipse
 10
1825.439347323727
 20
899.7676649464622
 30
0.0
 11
-1.560385930513745
 21
35.05170873624975
 31
0.0
210
0.0
220
0.0
230
0.9999999999999998
 40
0.0497584727586993
 41
4.907791227169916
 42
4.934763841446938
  0
LINE
  5
6A6
330
626
100
AcDbEntity
  8
0
  6
Continuous
 62
     7
370
    15
100
AcDbLine
 10
1824.164943899416
 20
908.2796941065678
 30
0.0
 11
1824.761810403977
 21
907.9515319447525
 31
0.0
  0
LINE
  5
6A7
330
626
100
AcDbEntity
  8
0
  6
Continuous
 62
     7
370
    15
100
AcDbLine
 10
1824.761810403977
 20
907.9515319447525
 30
0.0
 11
1825.361075249846
 21
908.3630755033309
 31
0.0
  0
LINE
  5
6A8
330
626
100
AcDbEntity
  8
0
  6
Continuous
 62
     7
370
    15
100
AcDbLine
 10
1825.361075249846
 20
908.3630755033309
 30
0.0
 11
1826.79638252162
 21
907.573931643564
 31
0.0
  0
LINE
  5
6A9
330
626
100
AcDbEntity
  8
0
  6
Continuous
 62
     7
370
    15
100
AcDbLine
 10
1823.328901473511
 20
909.4803815249134
 30
0.0
 11
1824.764208745285
 21
908.6912376651463
 31
0.0
  0
LINE
  5
6AA
330
626
100
AcDbEntity
  8
0
  6
Continuous
 62
     7
370
    15
100
AcDbLine
 10
1824.764208745285
 20
908.6912376651463
 30
0.0
 11
1824.164943899416
 21
908.2796941065678
 31
0.0
  0
LINE
  5
6AB
330
626
100
AcDbEntity
  8
0
  6
Continuous
 62
     7
370
    15
100
AcDbLine
 10
1827.562579383844
 20
907.1407194753032
 30
0.0
 11
1826.79707030609
 21
907.5616027246153
 31
0.0
  0
LINE
  5
6AC
330
626
100
AcDbEntity
  8
0
  6
Continuous
 62
     7
370
    15
100
AcDbLine
 10
1825.351410687596
 20
908.3564383905956
 30
0.0
 11
1824.765360668329
 21
908.6786535589544
 31
0.0
  0
LINE
  5
6AD
330
626
100
AcDbEntity
  8
0
  6
Continuous
 62
     7
370
    15
100
AcDbLine
 10
1826.132837946921
 20
908.6278732105867
 30
0.0
 11
1825.575548647188
 21
908.2451562480441
 31
0.0
  0
LINE
  5
6AE
330
626
100
AcDbEntity
  8
0
  6
Continuous
 62
     7
370
    15
100
AcDbLine
 10
1827.595402316113
 20
908.1226563883353
 30
0.0
 11
1826.160095044339
 21
908.9118002481022
 31
0.0
  0
LINE
  5
6AF
330
626
100
AcDbEntity
  8
0
  6
Continuous
 62
     7
370
    15
100
AcDbLine
 10
1826.160095044339
 20
908.9118002481022
 30
0.0
 11
1826.069999004122
 21
907.9733033348682
 31
0.0
  0
LINE
  5
6B0
330
626
100
AcDbEntity
  8
0
  6
Continuous
 62
     7
370
    15
100
AcDbLine
 10
1825.563228539778
 20
909.2399624099176
 30
0.0
 11
1824.127921268004
 21
910.0291062696847
 31
0.0
  0
LINE
  5
6B1
330
626
100
AcDbEntity
  8
0
  6
Continuous
 62
     7
370
    15
100
AcDbLine
 10
1826.160095044339
 20
908.9118002481022
 30
0.0
 11
1826.759359890208
 21
909.3233438066807
 31
0.0
  0
LINE
  5
6B2
330
626
100
AcDbEntity
  8
0
  6
Continuous
 62
     7
370
    15
100
AcDbLine
 10
1826.759359890208
 20
909.3233438066807
 30
0.0
 11
1826.162493385648
 21
909.6515059684961
 31
0.0
  0
LINE
  5
6B3
330
626
100
AcDbEntity
  8
0
  6
Continuous
 62
     7
370
    15
100
AcDbLine
 10
1826.162493385648
 20
909.6515059684961
 30
0.0
 11
1825.563228539778
 21
909.2399624099176
 31
0.0
  0
LINE
  5
6B4
330
626
100
AcDbEntity
  8
0
  6
Continuous
 62
     7
370
    15
100
AcDbLine
 10
1824.764208745285
 20
908.6912376651463
 30
0.0
 11
1824.827773226896
 21
907.9968317401021
 31
0.0
  0
LINE
  5
6B5
330
626
100
AcDbEntity
  8
0
  6
Continuous
 62
     7
370
    15
100
AcDbLine
 10
1825.563228539778
 20
909.2399624099176
 30
0.0
 11
1825.565852348598
 21
908.2504873535466
 31
0.0
  0
LINE
  5
6B6
330
626
100
AcDbEntity
  8
0
  6
Continuous
 62
     7
370
    15
100
AcDbLine
 10
1826.162493385648
 20
909.6515059684961
 30
0.0
 11
1826.164446951537
 21
908.914788908938
 31
0.0
  0
LWPOLYLINE
  5
6B7
330
626
100
AcDbEntity
  8
0
  6
Continuous
 62
     7
370
    15
100
AcDbPolyline
 90
       23
 70
   128
 43
0.0
 10
1836.582754006533
 20
900.6678224951384
 10
1836.392745936501
 20
900.5510301477876
 10
1836.182591102624
 20
900.4480743744462
 10
1835.954932323875
 20
900.3602499036999
 10
1835.712632541487
 20
900.2886611792257
 10
1835.458738815808
 20
900.2342084707704
 10
1835.196444007753
 20
900.1975765527371
 10
1834.929046626718
 20
900.1792260927492
 10
1834.659909349919
 20
900.1793878584885
 10
1834.392416734768
 20
900.1980598156569
 10
1834.129932656103
 20
900.2350071535591
 10
1833.875758003511
 20
900.2897652379839
 10
1833.633089170723
 20
900.3616454542481
 10
1833.404977859111
 20
900.4497438669263
 10
1833.194292700773
 20
900.5529525873633
 10
1833.003683183816
 20
900.6699737060165
 10
1832.835546333511
 20
900.7993356144215
 10
1832.691996568305
 20
900.9394115115227
 10
1832.574839109787
 20
901.0884398616401
 10
1832.485547280971
 20
901.2445465468024
 10
1832.425243978415
 20
901.4057684348689
 10
1832.394687551136
 20
901.570078067054
 10
1832.390699164977
 20
901.6573617683215
  0
ARC
  5
6B8
330
626
100
AcDbEntity
  8
0
  6
Continuous
 62
     7
370
    15
100
AcDbCircle
 10
1835.945117008232
 20
901.7421842077048
 30
0.0
 40
1.249333434689075
100
AcDbArc
 50
300.689261986775
 51
355.5497877436664
  0
ARC
  5
6B9
330
626
100
AcDbEntity
  8
0
  6
Continuous
 62
     7
370
    15
100
AcDbCircle
 10
1835.403917114111
 20
903.42507955989
 30
0.0
 40
2.050781301008627
100
AcDbArc
 50
292.2658628328989
 51
316.6925985151415
  0
ELLIPSE
  5
6BA
330
626
100
AcDbEntity
  8
0
  6
Continuous
 62
     7
370
    15
100
AcDbEllipse
 10
1834.773006116985
 20
894.6453687867876
 30
0.0
 11
1.645318725067426
 21
37.24579099244496
 31
0.0
210
0.0
220
0.0
230
0.9999999999999998
 40
0.0491614133520455
 41
4.913833134155098
 42
4.940805748432119
  0
LWPOLYLINE
  5
6BB
330
626
100
AcDbEntity
  8
0
  6
Continuous
 62
     7
370
    15
100
AcDbPolyline
 90
       24
 70
   128
 43
0.0
 10
1833.461580061261
 20
904.9068101100099
 10
1833.698492525889
 20
904.9921343317569
 10
1833.949805195846
 20
905.0602290968777
 10
1834.212220072271
 20
905.1102007916208
 10
1834.482293461045
 20
905.1413936329236
 10
1834.756481164699
 20
905.153398274313
 10
1835.031184993241
 20
905.146057177796
 10
1835.302799983521
 20
905.1194666812452
 10
1835.567761707496
 20
905.0739757341478
 10
1835.822593048537
 20
905.0101813183104
 10
1836.063949831944
 20
904.9289206136128
 10
1836.288664710854
 20
904.8312600116203
 10
1836.493788731619
 20
904.7184811212316
 10
1836.676630033192
 20
904.5920639500092
 10
1836.834789172663
 20
904.4536674819061
 10
1836.966190613363
 20
904.3051079062708
 10
1837.069109962319
 20
904.1483347838289
 10
1837.142196599622
 20
903.9854054624226
 10
1837.184491402731
 20
903.8184580782495
 10
1837.195439333125
 20
903.6496834969069
 10
1837.174896720126
 20
903.4812965624661
 10
1837.123133146298
 20
903.3155070318731
 10
1837.040827909696
 20
903.1544905761084
 10
1836.929061109371
 20
903.0003602286607
  0
ELLIPSE
  5
6BC
330
626
100
AcDbEntity
  8
0
  6
Continuous
 62
     7
370
    15
100
AcDbEllipse
 10
1834.773006116985
 20
894.6453687867876
 30
0.0
 11
1.645318725067426
 21
37.24579099244496
 31
0.0
210
0.0
220
0.0
230
0.9999999999999998
 40
0.0491614133520455
 41
1.293852584558157
 42
1.320825198835177
  0
LWPOLYLINE
  5
6BD
330
626
100
AcDbEntity
  8
0
  6
Continuous
 62
     7
370
    15
100
AcDbPolyline
 90
       24
 70
   128
 43
0.0
 10
1836.130041314878
 20
902.4516354838892
 10
1835.893128850251
 20
902.3663112621422
 10
1835.641816180294
 20
902.2982164970214
 10
1835.379401303869
 20
902.2482448022783
 10
1835.109327915095
 20
902.2170519609757
 10
1834.83514021144
 20
902.2050473195863
 10
1834.560436382899
 20
902.2123884161031
 10
1834.288821392618
 20
902.238978912654
 10
1834.023859668643
 20
902.2844698597515
 10
1833.769028327603
 20
902.3482642755887
 10
1833.527671544196
 20
902.4295249802863
 10
1833.302956665286
 20
902.5271855822788
 10
1833.097832644521
 20
902.6399644726675
 10
1832.914991342947
 20
902.76638164389
 10
1832.756832203476
 20
902.9047781119929
 10
1832.625430762777
 20
903.0533376876283
 10
1832.522511413821
 20
903.2101108100702
 10
1832.449424776518
 20
903.3730401314764
 10
1832.407129973409
 20
903.5399875156498
 10
1832.396182043014
 20
903.7087620969924
 10
1832.416724656014
 20
903.8771490314331
 10
1832.468488229841
 20
904.0429385620262
 10
1832.550793466444
 20
904.2039550177909
 10
1832.662560266769
 20
904.3580853652386
  0
ELLIPSE
  5
6BE
330
626
100
AcDbEntity
  8
0
  6
Continuous
 62
     7
370
    15
100
AcDbEllipse
 10
1834.773006116985
 20
894.6453687867876
 30
0.0
 11
-1.560385930513745
 21
35.05170873624975
 31
0.0
210
0.0
220
0.0
230
0.9999999999999998
 40
0.0497584727586988
 41
4.907791227169913
 42
4.934763841446936
  0
LINE
  5
6BF
330
626
100
AcDbEntity
  8
0
  6
Continuous
 62
     7
370
    15
100
AcDbLine
 10
1833.498602692674
 20
903.157397946893
 30
0.0
 11
1834.095469197234
 21
902.8292357850778
 31
0.0
  0
LINE
  5
6C0
330
626
100
AcDbEntity
  8
0
  6
Continuous
 62
     7
370
    15
100
AcDbLine
 10
1834.095469197234
 20
902.8292357850778
 30
0.0
 11
1834.694734043104
 21
903.2407793436563
 31
0.0
  0
LINE
  5
6C1
330
626
100
AcDbEntity
  8
0
  6
Continuous
 62
     7
370
    15
100
AcDbLine
 10
1834.694734043104
 20
903.2407793436563
 30
0.0
 11
1836.130041314878
 21
902.4516354838892
 31
0.0
  0
LINE
  5
6C2
330
626
100
AcDbEntity
  8
0
  6
Continuous
 62
     7
370
    15
100
AcDbLine
 10
1832.662560266769
 20
904.3580853652386
 30
0.0
 11
1834.097867538543
 21
903.5689415054717
 31
0.0
  0
LINE
  5
6C3
330
626
100
AcDbEntity
  8
0
  6
Continuous
 62
     7
370
    15
100
AcDbLine
 10
1834.097867538543
 20
903.5689415054717
 30
0.0
 11
1833.498602692674
 21
903.157397946893
 31
0.0
  0
LINE
  5
6C4
330
626
100
AcDbEntity
  8
0
  6
Continuous
 62
     7
370
    15
100
AcDbLine
 10
1836.896238177102
 20
902.0184233156285
 30
0.0
 11
1836.130729099348
 21
902.4393065649407
 31
0.0
  0
LINE
  5
6C5
330
626
100
AcDbEntity
  8
0
  6
Continuous
 62
     7
370
    15
100
AcDbLine
 10
1834.685069480854
 20
903.234142230921
 30
0.0
 11
1834.099019461586
 21
903.5563573992797
 31
0.0
  0
LINE
  5
6C6
330
626
100
AcDbEntity
  8
0
  6
Continuous
 62
     7
370
    15
100
AcDbLine
 10
1835.466496740178
 20
903.5055770509121
 30
0.0
 11
1834.909207440446
 21
903.1228600883693
 31
0.0
  0
LINE
  5
6C7
330
626
100
AcDbEntity
  8
0
  6
Continuous
 62
     7
370
    15
100
AcDbLine
 10
1836.929061109371
 20
903.0003602286607
 30
0.0
 11
1835.493753837597
 21
903.7895040884276
 31
0.0
  0
LINE
  5
6C8
330
626
100
AcDbEntity
  8
0
  6
Continuous
 62
     7
370
    15
100
AcDbLine
 10
1835.493753837597
 20
903.7895040884276
 30
0.0
 11
1835.40365779738
 21
902.8510071751934
 31
0.0
  0
LINE
  5
6C9
330
626
100
AcDbEntity
  8
0
  6
Continuous
 62
     7
370
    15
100
AcDbLine
 10
1834.896887333036
 20
904.1176662502429
 30
0.0
 11
1833.461580061261
 21
904.9068101100099
 31
0.0
  0
LINE
  5
6CA
330
626
100
AcDbEntity
  8
0
  6
Continuous
 62
     7
370
    15
100
AcDbLine
 10
1835.493753837597
 20
903.7895040884276
 30
0.0
 11
1836.093018683466
 21
904.2010476470061
 31
0.0
  0
LINE
  5
6CB
330
626
100
AcDbEntity
  8
0
  6
Continuous
 62
     7
370
    15
100
AcDbLine
 10
1836.093018683466
 20
904.2010476470061
 30
0.0
 11
1835.496152178905
 21
904.5292098088214
 31
0.0
  0
LINE
  5
6CC
330
626
100
AcDbEntity
  8
0
  6
Continuous
 62
     7
370
    15
100
AcDbLine
 10
1835.496152178905
 20
904.5292098088214
 30
0.0
 11
1834.896887333036
 21
904.1176662502429
 31
0.0
  0
LINE
  5
6CD
330
626
100
AcDbEntity
  8
0
  6
Continuous
 62
     7
370
    15
100
AcDbLine
 10
1834.097867538543
 20
903.5689415054717
 30
0.0
 11
1834.161432020154
 21
902.8745355804273
 31
0.0
  0
LINE
  5
6CE
330
626
100
AcDbEntity
  8
0
  6
Continuous
 62
     7
370
    15
100
AcDbLine
 10
1834.896887333036
 20
904.1176662502429
 30
0.0
 11
1834.899511141856
 21
903.1281911938718
 31
0.0
  0
LINE
  5
6CF
330
626
100
AcDbEntity
  8
0
  6
Continuous
 62
     7
370
    15
100
AcDbLine
 10
1835.496152178905
 20
904.5292098088214
 30
0.0
 11
1835.498105744795
 21
903.7924927492632
 31
0.0
  0
ENDBLK
  5
628
330
626
100
AcDbEntity
  8
0
100
AcDbBlockEnd
  0
ENDSEC
  0
SECTION
  2
ENTITIES
  0
INSERT
  5
54A
330
1F
100
AcDbEntity
  8
0
100
AcDbBlockReference
  2
1
 10
0.0
 20
0.0
 30
0.0
  0
INSERT
  5
607
330
1F
100
AcDbEntity
  8
0
100
AcDbBlockReference
  2
2
 10
0.0
 20
0.0
 30
0.0
  0
INSERT
  5
625
330
1F
100
AcDbEntity
  8
0
100
AcDbBlockReference
  2
3
 10
0.0
 20
0.0
 30
0.0
  0
INSERT
  5
6D0
330
1F
100
AcDbEntity
  8
0
100
AcDbBlockReference
  2
4
 10
0.0
 20
0.0
 30
0.0
  0
ENDSEC
  0
SECTION
  2
OBJECTS
  0
DICTIONARY
  5
C
330
0
100
AcDbDictionary
281
     1
  3
ACAD_COLOR
350
6B
  3
ACAD_GROUP
350
D
  3
ACAD_LAYOUT
350
1A
  3
ACAD_MATERIAL
350
6A
  3
ACAD_MLEADERSTYLE
350
12D
  3
ACAD_MLINESTYLE
350
17
  3
ACAD_PLOTSETTINGS
350
19
  3
ACAD_PLOTSTYLENAME
350
E
  3
ACAD_SCALELIST
350
10C
  3
ACAD_TABLESTYLE
350
7E
  3
ACAD_VISUALSTYLE
350
EF
  3
ACDB_RECOMPOSE_DATA
350
15D
  3
AcDbVariableDictionary
350
5E
  3
DWGPROPS
350
6DE
  0
DICTIONARY
  5
13C
330
10
100
AcDbDictionary
280
     1
281
     1
  3
ADSK_XREC_LAYER_RECONCILED
360
6D1
  0
DICTIONARY
  5
6B
102
{ACAD_REACTORS
330
C
102
}
330
C
100
AcDbDictionary
281
     1
  0
DICTIONARY
  5
D
102
{ACAD_REACTORS
330
C
102
}
330
C
100
AcDbDictionary
281
     1
  0
DICTIONARY
  5
1A
102
{ACAD_REACTORS
330
C
102
}
330
C
100
AcDbDictionary
281
     1
  3
Layout1
350
D3
  3
Layout2
350
D7
  3
Model
350
22
  0
DICTIONARY
  5
6A
102
{ACAD_REACTORS
330
C
102
}
330
C
100
AcDbDictionary
281
     1
  3
ByBlock
350
ED
  3
ByLayer
350
EC
  3
Global
350
EE
  0
DICTIONARY
  5
12D
102
{ACAD_REACTORS
330
C
102
}
330
C
100
AcDbDictionary
281
     1
  3
Annotative
350
13B
  3
Standard
350
12E
  0
DICTIONARY
  5
17
102
{ACAD_REACTORS
330
C
102
}
330
C
100
AcDbDictionary
281
     1
  3
Standard
350
18
  0
DICTIONARY
  5
19
102
{ACAD_REACTORS
330
C
102
}
330
C
100
AcDbDictionary
281
     1
  0
ACDBDICTIONARYWDFLT
  5
E
102
{ACAD_REACTORS
330
C
102
}
330
C
100
AcDbDictionary
281
     1
  3
Normal
350
F
100
AcDbDictionaryWithDefault
340
F
  0
DICTIONARY
  5
10C
102
{ACAD_REACTORS
330
C
102
}
330
C
100
AcDbDictionary
281
     1
  3
A0
350
10D
  3
A1
350
188
  3
A2
350
189
  3
A3
350
18A
  3
A4
350
18B
  3
A5
350
18C
  3
A6
350
18D
  3
A7
350
18E
  3
A8
350
18F
  3
A9
350
190
  3
B0
350
191
  3
B1
350
192
  3
B2
350
193
  3
B3
350
194
  3
B4
350
195
  3
B5
350
196
  3
B6
350
197
  3
B7
350
198
  3
B8
350
199
  3
B9
350
19A
  3
C0
350
19B
  3
C1
350
19C
  3
C2
350
19D
  3
C3
350
19E
  3
C4
350
19F
  3
C5
350
1A0
  3
C6
350
1A1
  3
C7
350
1A2
  3
C8
350
1A3
  3
C9
350
1A4
  3
D0
350
1A5
  3
D1
350
1A6
  3
D2
350
1A7
  0
DICTIONARY
  5
7E
102
{ACAD_REACTORS
330
C
102
}
330
C
100
AcDbDictionary
281
     1
  3
Standard
350
7F
  0
DICTIONARY
  5
EF
102
{ACAD_REACTORS
330
C
102
}
330
C
100
AcDbDictionary
281
     1
  3
2dWireframe
350
F5
  3
3D Hidden
350
F7
  3
3dWireframe
350
F6
  3
Basic
350
F4
  3
Brighten
350
FB
  3
ColorChange
350
FF
  3
Conceptual
350
F8
  3
Dim
350
FA
  3
Facepattern
350
FE
  3
Flat
350
F0
  3
FlatWithEdges
350
F1
  3
Gouraud
350
F2
  3
GouraudWithEdges
350
F3
  3
Linepattern
350
FD
  3
Realistic
350
F9
  3
Thicken
350
FC
  0
XRECORD
  5
15D
102
{ACAD_REACTORS
330
C
102
}
330
C
100
AcDbXrecord
280
     1
 90
        1
330
7F
  0
DICTIONARY
  5
5E
102
{ACAD_REACTORS
330
C
102
}
330
C
100
AcDbDictionary
281
     1
  3
CANNOSCALE
350
146
  3
CMLEADERSTYLE
350
145
  3
CTABLESTYLE
350
84
  3
DIMASSOC
350
5F
  3
HIDETEXT
350
63
  3
INDEXCTL
350
6DA
  3
LIGHTINGUNITS
350
6D8
  3
MSLTSCALE
350
6D7
  3
PSOLHEIGHT
350
6DC
  3
PSOLWIDTH
350
6DB
  3
SORTENTS
350
6D9
  0
XRECORD
  5
6DE
102
{ACAD_REACTORS
330
C
102
}
330
C
100
AcDbXrecord
280
     1
  1
DWGPROPS COOKIE
  2

  3

  4

  6

  7

  8
orhan kara
  9

300
=
301
=
302
=
303
=
304
=
305
=
306
=
307
=
308
=
309
=
 40
0.0007324884259259
 41
2458453.442041111
 42
2458983.554272917
  1

 90
        0
  0
XRECORD
  5
6D1
102
{ACAD_REACTORS
330
13C
102
}
330
13C
100
AcDbXrecord
280
     1
290
     1
  0
LAYOUT
  5
D3
102
{ACAD_XDICTIONARY
360
6E2
102
}
102
{ACAD_REACTORS
330
1A
102
}
330
1A
100
AcDbPlotSettings
  1

  2
C:\Documents and Settings\basas\Application Data\Autodesk\AutoCAD 2005\R16.1\enu\plotters\Default Windows System Printer.pc3
  4

  6

 40
0.0
 41
0.0
 42
0.0
 43
0.0
 44
0.0
 45
0.0
 46
0.0
 47
0.0
 48
0.0
 49
0.0
140
0.0
141
0.0
142
1.0
143
1.0
 70
   688
 72
     0
 73
     0
 74
     5
  7

 75
    16
147
1.0
148
0.0
149
0.0
100
AcDbLayout
  1
Layout1
 70
     1
 71
     1
 10
0.0
 20
0.0
 11
12.0
 21
9.0
 12
0.0
 22
0.0
 32
0.0
 14
0.0
 24
0.0
 34
0.0
 15
0.0
 25
0.0
 35
0.0
146
0.0
 13
0.0
 23
0.0
 33
0.0
 16
1.0
 26
0.0
 36
0.0
 17
0.0
 27
1.0
 37
0.0
 76
     0
330
D2
  0
LAYOUT
  5
D7
102
{ACAD_XDICTIONARY
360
6E4
102
}
102
{ACAD_REACTORS
330
1A
102
}
330
1A
100
AcDbPlotSettings
  1

  2
C:\Documents and Settings\basas\Application Data\Autodesk\AutoCAD 2005\R16.1\enu\plotters\Default Windows System Printer.pc3
  4

  6

 40
0.0
 41
0.0
 42
0.0
 43
0.0
 44
0.0
 45
0.0
 46
0.0
 47
0.0
 48
0.0
 49
0.0
140
0.0
141
0.0
142
1.0
143
1.0
 70
   688
 72
     0
 73
     0
 74
     5
  7

 75
    16
147
1.0
148
0.0
149
0.0
100
AcDbLayout
  1
Layout2
 70
     1
 71
     2
 10
0.0
 20
0.0
 11
12.0
 21
9.0
 12
0.0
 22
0.0
 32
0.0
 14
0.0
 24
0.0
 34
0.0
 15
0.0
 25
0.0
 35
0.0
146
0.0
 13
0.0
 23
0.0
 33
0.0
 16
1.0
 26
0.0
 36
0.0
 17
0.0
 27
1.0
 37
0.0
 76
     0
330
D6
  0
LAYOUT
  5
22
102
{ACAD_XDICTIONARY
360
6DF
102
}
102
{ACAD_REACTORS
330
1A
102
}
330
1A
100
AcDbPlotSettings
  1

  2
none_device
  4
ISO_A4_(210.00_x_297.00_MM)
  6

 40
7.5
 41
20.0
 42
7.5
 43
20.0
 44
210.0
 45
297.0
 46
11.54999923706054
 47
-13.65000009536743
 48
0.0
 49
0.0
140
0.0
141
0.0
142
1.0
143
8.704084754739808
 70
 11952
 72
     1
 73
     0
 74
     0
  7

 75
     0
147
0.1148885871608098
148
0.0
149
0.0
100
AcDbLayout
  1
Model
 70
     1
 71
     0
 10
0.0
 20
0.0
 11
12.0
 21
9.0
 12
0.0
 22
0.0
 32
0.0
 14
0.0
 24
0.0
 34
0.0
 15
0.0
 25
0.0
 35
0.0
146
0.0
 13
0.0
 23
0.0
 33
0.0
 16
1.0
 26
0.0
 36
0.0
 17
0.0
 27
1.0
 37
0.0
 76
     0
330
1F
331
EA
1001
ACAD_PSEXT
1000
None
1000
None
1000
Not applicable
1000
The layout will not be plotted unless a new plotter configuration name is selected.
1070
     0
  0
MATERIAL
  5
ED
102
{ACAD_XDICTIONARY
360
6E8
102
}
102
{ACAD_REACTORS
330
6A
102
}
330
6A
100
AcDbMaterial
  1
ByBlock
  0
MATERIAL
  5
EC
102
{ACAD_XDICTIONARY
360
6E6
102
}
102
{ACAD_REACTORS
330
6A
102
}
330
6A
100
AcDbMaterial
  1
ByLayer
  0
MATERIAL
  5
EE
102
{ACAD_XDICTIONARY
360
173
102
}
102
{ACAD_REACTORS
330
6A
102
}
330
6A
100
AcDbMaterial
  1
Global
 43
0.0007999999797903
 43
0.0
 43
0.0
 43
0.0
 43
0.0
 43
0.0007999999797903
 43
0.0
 43
0.0
 43
0.0
 43
0.0
 43
1.0
 43
0.0
 43
0.0
 43
0.0
 43
0.0
 43
1.0
 49
0.0007999999797903
 49
0.0
 49
0.0
 49
0.0
 49
0.0
 49
0.0007999999797903
 49
0.0
 49
0.0
 49
0.0
 49
0.0
 49
1.0
 49
0.0
 49
0.0
 49
0.0
 49
0.0
 49
1.0
142
0.0007999999797903
142
0.0
142
0.0
142
0.0
142
0.0
142
0.0007999999797903
142
0.0
142
0.0
142
0.0
142
0.0
142
1.0
142
0.0
142
0.0
142
0.0
142
0.0
142
1.0
144
0.0007999999797903
144
0.0
144
0.0
144
0.0
144
0.0
144
0.0007999999797903
144
0.0
144
0.0
144
0.0
144
0.0
144
1.0
144
0.0
144
0.0
144
0.0
144
0.0
144
1.0
1001
ACAD
1070
    -1
1070
     3
1070
     0
1000

1071
        0
1070
     0
  0
MLEADERSTYLE
  5
13B
102
{ACAD_REACTORS
330
12D
102
}
330
12D
100
AcDbMLeaderStyle
170
     2
171
     1
172
     0
 90
        2
 40
0.0
 41
0.0
173
     1
 91
-1056964608
340
14
 92
       -2
290
     1
 42
2.0
291
     1
 43
8.0
  3
Standard
 44
4.0
300

342
11
174
     1
178
     1
175
     1
176
     0
 93
-1056964608
 45
4.0
292
     0
297
     0
 46
4.0
 94
-1056964608
 47
1.0
 49
1.0
140
1.0
293
     1
141
0.0
294
     1
177
     0
142
1.0
295
     0
296
     1
143
3.75
1001
ACAD_MLEADERVER
1070
     2
  0
MLEADERSTYLE
  5
12E
102
{ACAD_REACTORS
330
12D
102
}
330
12D
100
AcDbMLeaderStyle
170
     2
171
     1
172
     0
 90
        2
 40
0.0
 41
0.0
173
     1
 91
-1056964608
340
14
 92
       -2
290
     1
 42
2.0
291
     1
 43
8.0
  3
Standard
 44
4.0
300

342
11
174
     1
178
     1
175
     1
176
     0
 93
-1056964608
 45
4.0
292
     0
297
     0
 46
4.0
 94
-1056964608
 47
1.0
 49
1.0
140
1.0
293
     1
141
0.0
294
     1
177
     0
142
1.0
295
     0
296
     0
143
3.75
1001
ACAD_MLEADERVER
1070
     2
  0
MLINESTYLE
  5
18
102
{ACAD_REACTORS
330
17
102
}
330
17
100
AcDbMlineStyle
  2
STANDARD
 70
     0
  3

 62
   256
 51
90.0
 52
90.0
 71
     2
 49
0.5
 62
   256
  6
BYLAYER
 49
-0.5
 62
   256
  6
BYLAYER
  0
ACDBPLACEHOLDER
  5
F
102
{ACAD_REACTORS
330
E
102
}
330
E
  0
SCALE
  5
10D
102
{ACAD_REACTORS
330
10C
102
}
330
10C
100
AcDbScale
 70
     0
300
1:1
140
1.0
141
1.0
290
     1
  0
SCALE
  5
188
102
{ACAD_REACTORS
330
10C
102
}
330
10C
100
AcDbScale
 70
     0
300
1:2
140
1.0
141
2.0
290
     0
  0
SCALE
  5
189
102
{ACAD_REACTORS
330
10C
102
}
330
10C
100
AcDbScale
 70
     0
300
1:4
140
1.0
141
4.0
290
     0
  0
SCALE
  5
18A
102
{ACAD_REACTORS
330
10C
102
}
330
10C
100
AcDbScale
 70
     0
300
1:5
140
1.0
141
5.0
290
     0
  0
SCALE
  5
18B
102
{ACAD_REACTORS
330
10C
102
}
330
10C
100
AcDbScale
 70
     0
300
1:8
140
1.0
141
8.0
290
     0
  0
SCALE
  5
18C
102
{ACAD_REACTORS
330
10C
102
}
330
10C
100
AcDbScale
 70
     0
300
1:10
140
1.0
141
10.0
290
     0
  0
SCALE
  5
18D
102
{ACAD_REACTORS
330
10C
102
}
330
10C
100
AcDbScale
 70
     0
300
1:16
140
1.0
141
16.0
290
     0
  0
SCALE
  5
18E
102
{ACAD_REACTORS
330
10C
102
}
330
10C
100
AcDbScale
 70
     0
300
1:20
140
1.0
141
20.0
290
     0
  0
SCALE
  5
18F
102
{ACAD_REACTORS
330
10C
102
}
330
10C
100
AcDbScale
 70
     0
300
1:30
140
1.0
141
30.0
290
     0
  0
SCALE
  5
190
102
{ACAD_REACTORS
330
10C
102
}
330
10C
100
AcDbScale
 70
     0
300
1:40
140
1.0
141
40.0
290
     0
  0
SCALE
  5
191
102
{ACAD_REACTORS
330
10C
102
}
330
10C
100
AcDbScale
 70
     0
300
1:50
140
1.0
141
50.0
290
     0
  0
SCALE
  5
192
102
{ACAD_REACTORS
330
10C
102
}
330
10C
100
AcDbScale
 70
     0
300
1:100
140
1.0
141
100.0
290
     0
  0
SCALE
  5
193
102
{ACAD_REACTORS
330
10C
102
}
330
10C
100
AcDbScale
 70
     0
300
2:1
140
2.0
141
1.0
290
     0
  0
SCALE
  5
194
102
{ACAD_REACTORS
330
10C
102
}
330
10C
100
AcDbScale
 70
     0
300
4:1
140
4.0
141
1.0
290
     0
  0
SCALE
  5
195
102
{ACAD_REACTORS
330
10C
102
}
330
10C
100
AcDbScale
 70
     0
300
8:1
140
8.0
141
1.0
290
     0
  0
SCALE
  5
196
102
{ACAD_REACTORS
330
10C
102
}
330
10C
100
AcDbScale
 70
     0
300
10:1
140
10.0
141
1.0
290
     0
  0
SCALE
  5
197
102
{ACAD_REACTORS
330
10C
102
}
330
10C
100
AcDbScale
 70
     0
300
100:1
140
100.0
141
1.0
290
     0
  0
SCALE
  5
198
102
{ACAD_REACTORS
330
10C
102
}
330
10C
100
AcDbScale
 70
     0
300
1/128" = 1'-0"
140
0.0078125
141
12.0
290
     0
  0
SCALE
  5
199
102
{ACAD_REACTORS
330
10C
102
}
330
10C
100
AcDbScale
 70
     0
300
1/64" = 1'-0"
140
0.015625
141
12.0
290
     0
  0
SCALE
  5
19A
102
{ACAD_REACTORS
330
10C
102
}
330
10C
100
AcDbScale
 70
     0
300
1/32" = 1'-0"
140
0.03125
141
12.0
290
     0
  0
SCALE
  5
19B
102
{ACAD_REACTORS
330
10C
102
}
330
10C
100
AcDbScale
 70
     0
300
1/16" = 1'-0"
140
0.0625
141
12.0
290
     0
  0
SCALE
  5
19C
102
{ACAD_REACTORS
330
10C
102
}
330
10C
100
AcDbScale
 70
     0
300
3/32" = 1'-0"
140
0.09375
141
12.0
290
     0
  0
SCALE
  5
19D
102
{ACAD_REACTORS
330
10C
102
}
330
10C
100
AcDbScale
 70
     0
300
1/8" = 1'-0"
140
0.125
141
12.0
290
     0
  0
SCALE
  5
19E
102
{ACAD_REACTORS
330
10C
102
}
330
10C
100
AcDbScale
 70
     0
300
3/16" = 1'-0"
140
0.1875
141
12.0
290
     0
  0
SCALE
  5
19F
102
{ACAD_REACTORS
330
10C
102
}
330
10C
100
AcDbScale
 70
     0
300
1/4" = 1'-0"
140
0.25
141
12.0
290
     0
  0
SCALE
  5
1A0
102
{ACAD_REACTORS
330
10C
102
}
330
10C
100
AcDbScale
 70
     0
300
3/8" = 1'-0"
140
0.375
141
12.0
290
     0
  0
SCALE
  5
1A1
102
{ACAD_REACTORS
330
10C
102
}
330
10C
100
AcDbScale
 70
     0
300
1/2" = 1'-0"
140
0.5
141
12.0
290
     0
  0
SCALE
  5
1A2
102
{ACAD_REACTORS
330
10C
102
}
330
10C
100
AcDbScale
 70
     0
300
3/4" = 1'-0"
140
0.75
141
12.0
290
     0
  0
SCALE
  5
1A3
102
{ACAD_REACTORS
330
10C
102
}
330
10C
100
AcDbScale
 70
     0
300
1" = 1'-0"
140
1.0
141
12.0
290
     0
  0
SCALE
  5
1A4
102
{ACAD_REACTORS
330
10C
102
}
330
10C
100
AcDbScale
 70
     0
300
1-1/2" = 1'-0"
140
1.5
141
12.0
290
     0
  0
SCALE
  5
1A5
102
{ACAD_REACTORS
330
10C
102
}
330
10C
100
AcDbScale
 70
     0
300
3" = 1'-0"
140
3.0
141
12.0
290
     0
  0
SCALE
  5
1A6
102
{ACAD_REACTORS
330
10C
102
}
330
10C
100
AcDbScale
 70
     0
300
6" = 1'-0"
140
6.0
141
12.0
290
     0
  0
SCALE
  5
1A7
102
{ACAD_REACTORS
330
10C
102
}
330
10C
100
AcDbScale
 70
     0
300
1'-0" = 1'-0"
140
12.0
141
12.0
290
     0
  0
TABLESTYLE
  5
7F
102
{ACAD_XDICTIONARY
360
162
102
}
102
{ACAD_REACTORS
330
7E
102
}
330
7E
100
AcDbTableStyle
  3
Standard
 70
     0
 71
     0
 40
1.5
 41
1.5
280
     0
281
     0
  7
Standard
140
4.5
170
     2
 62
     0
 63
     7
283
     0
274
    -2
284
     1
 64
     0
275
    -2
285
     1
 65
     0
276
    -2
286
     1
 66
     0
277
    -2
287
     1
 67
     0
278
    -2
288
     1
 68
     0
279
    -2
289
     1
 69
     0
  7
Standard
140
6.0
170
     5
 62
     0
 63
     7
283
     0
274
    -2
284
     1
 64
     0
275
    -2
285
     1
 65
     0
276
    -2
286
     1
 66
     0
277
    -2
287
     1
 67
     0
278
    -2
288
     1
 68
     0
279
    -2
289
     1
 69
     0
  7
Standard
140
4.5
170
     5
 62
     0
 63
     7
283
     0
274
    -2
284
     1
 64
     0
275
    -2
285
     1
 65
     0
276
    -2
286
     1
 66
     0
277
    -2
287
     1
 67
     0
278
    -2
288
     1
 68
     0
279
    -2
289
     1
 69
     0
  0
VISUALSTYLE
  5
F5
102
{ACAD_REACTORS
330
EF
102
}
330
EF
100
AcDbVisualStyle
  2
2dWireframe
 70
     4
 71
     0
 72
     2
 73
     1
 90
        0
 40
-0.6
 41
-30.0
 62
     5
 63
     7
 74
     1
 91
        4
 64
     7
 65
   257
 75
     1
175
     1
 42
1.0
 92
        0
 66
   257
 43
1.0
 76
     1
 77
     6
 78
     2
 67
     7
 79
     5
170
     0
171
     0
290
     0
174
     0
 93
        1
 44
0.0
173
     0
291
     0
 45
0.0
1001
ACAD
1000
AcDbSavedByObjectVersion
1070
     0
  0
VISUALSTYLE
  5
F7
102
{ACAD_REACTORS
330
EF
102
}
330
EF
100
AcDbVisualStyle
  2
3D Hidden
 70
     6
 71
     1
 72
     2
 73
     2
 90
        0
 40
-0.6
 41
-30.0
 62
     5
 63
     7
 74
     2
 91
        2
 64
     7
 65
   257
 75
     2
175
     1
 42
40.0
 92
        0
 66
   257
 43
1.0
 76
     1
 77
     6
 78
     2
 67
     7
 79
     3
170
     0
171
     0
290
     0
174
     0
 93
        1
 44
0.0
173
     0
291
     0
 45
0.0
1001
ACAD
1000
AcDbSavedByObjectVersion
1070
     0
  0
VISUALSTYLE
  5
F6
102
{ACAD_REACTORS
330
EF
102
}
330
EF
100
AcDbVisualStyle
  2
3dWireframe
 70
     5
 71
     0
 72
     2
 73
     1
 90
        0
 40
-0.6
 41
-30.0
 62
     5
 63
     7
 74
     1
 91
        4
 64
     7
 65
   257
 75
     1
175
     1
 42
1.0
 92
        0
 66
   257
 43
1.0
 76
     1
 77
     6
 78
     2
 67
     7
 79
     5
170
     0
171
     0
290
     0
174
     0
 93
        1
 44
0.0
173
     0
291
     0
 45
0.0
1001
ACAD
1000
AcDbSavedByObjectVersion
1070
     0
  0
VISUALSTYLE
  5
F4
102
{ACAD_REACTORS
330
EF
102
}
330
EF
100
AcDbVisualStyle
  2
Basic
 70
     7
 71
     1
 72
     0
 73
     1
 90
        0
 40
-0.6
 41
-30.0
 62
     5
 63
     7
 74
     0
 91
        4
 64
     7
 65
   257
 75
     1
175
     1
 42
1.0
 92
        8
 66
     7
 43
1.0
 76
     1
 77
     6
 78
     2
 67
     7
 79
     5
170
     0
171
     0
290
     0
174
     0
 93
        1
 44
0.0
173
     0
291
     1
 45
0.0
1001
ACAD
1000
AcDbSavedByObjectVersion
1070
     0
  0
VISUALSTYLE
  5
FB
102
{ACAD_REACTORS
330
EF
102
}
330
EF
100
AcDbVisualStyle
  2
Brighten
 70
    12
 71
     2
 72
     2
 73
     1
 90
        0
 40
-0.6
 41
-30.0
 62
     5
 63
     7
 74
     1
 91
        4
 64
     7
 65
   257
 75
     1
175
     1
 42
1.0
 92
        8
 66
     7
 43
1.0
 76
     1
 77
     6
 78
     2
 67
     7
 79
     5
170
     0
171
     0
290
     0
174
     0
 93
        1
 44
50.0
173
     0
291
     1
 45
0.0
1001
ACAD
1000
AcDbSavedByObjectVersion
1070
     0
  0
VISUALSTYLE
  5
FF
102
{ACAD_REACTORS
330
EF
102
}
330
EF
100
AcDbVisualStyle
  2
ColorChange
 70
    16
 71
     2
 72
     2
 73
     3
 90
        0
 40
-0.6
 41
-30.0
 62
     5
 63
     8
 74
     1
 91
        4
 64
     7
 65
   257
 75
     1
175
     1
 42
1.0
 92
        8
 66
     8
 43
1.0
 76
     1
 77
     6
 78
     2
 67
     7
 79
     5
170
     0
171
     0
290
     0
174
     0
 93
        1
 44
0.0
173
     0
291
     1
 45
0.0
1001
ACAD
1000
AcDbSavedByObjectVersion
1070
     0
  0
VISUALSTYLE
  5
F8
102
{ACAD_REACTORS
330
EF
102
}
330
EF
100
AcDbVisualStyle
  2
Conceptual
 70
     9
 71
     3
 72
     2
 73
     1
 90
        0
 40
-0.6
 41
-30.0
 62
     5
 63
     7
 74
     2
 91
        2
 64
     7
 65
   257
 75
     1
175
     1
 42
40.0
 92
        8
 66
     7
 43
1.0
 76
     1
 77
     6
 78
     2
 67
     7
 79
     3
170
     0
171
     0
290
     0
174
     0
 93
        1
 44
0.0
173
     0
291
     0
 45
0.0
1001
ACAD
1000
AcDbSavedByObjectVersion
1070
     0
  0
VISUALSTYLE
  5
FA
102
{ACAD_REACTORS
330
EF
102
}
330
EF
100
AcDbVisualStyle
  2
Dim
 70
    11
 71
     2
 72
     2
 73
     1
 90
        0
 40
-0.6
 41
-30.0
 62
     5
 63
     7
 74
     1
 91
        4
 64
     7
 65
   257
 75
     1
175
     1
 42
1.0
 92
        8
 66
     7
 43
1.0
 76
     1
 77
     6
 78
     2
 67
     7
 79
     5
170
     0
171
     0
290
     0
174
     0
 93
        1
 44
-50.0
173
     0
291
     1
 45
0.0
1001
ACAD
1000
AcDbSavedByObjectVersion
1070
     0
  0
VISUALSTYLE
  5
FE
102
{ACAD_REACTORS
330
EF
102
}
330
EF
100
AcDbVisualStyle
  2
Facepattern
 70
    15
 71
     2
 72
     2
 73
     1
 90
        0
 40
-0.6
 41
-30.0
 62
     5
 63
     7
 74
     1
 91
        4
 64
     7
 65
   257
 75
     1
175
     1
 42
1.0
 92
        8
 66
     7
 43
1.0
 76
     1
 77
     6
 78
     2
 67
     7
 79
     5
170
     0
171
     0
290
     0
174
     0
 93
        1
 44
0.0
173
     0
291
     1
 45
0.0
1001
ACAD
1000
AcDbSavedByObjectVersion
1070
     0
  0
VISUALSTYLE
  5
F0
102
{ACAD_REACTORS
330
EF
102
}
330
EF
100
AcDbVisualStyle
  2
Flat
 70
     0
 71
     2
 72
     1
 73
     1
 90
        2
 40
-0.6
 41
30.0
 62
     5
 63
     7
 74
     0
 91
        4
 64
     7
 65
   257
 75
     1
175
     1
 42
1.0
 92
        8
 66
     7
 43
1.0
 76
     1
 77
     6
 78
     2
 67
     7
 79
     5
170
     0
171
     0
290
     0
174
     0
 93
        1
 44
0.0
173
     0
291
     1
 45
0.0
1001
ACAD
1000
AcDbSavedByObjectVersion
1070
     0
  0
VISUALSTYLE
  5
F1
102
{ACAD_REACTORS
330
EF
102
}
330
EF
100
AcDbVisualStyle
  2
FlatWithEdges
 70
     1
 71
     2
 72
     1
 73
     1
 90
        2
 40
-0.6
 41
30.0
 62
     5
 63
     7
 74
     1
 91
        4
 64
     7
 65
   257
 75
     1
175
     1
 42
1.0
 92
        0
 66
   257
 43
1.0
 76
     1
 77
     6
 78
     2
 67
     7
 79
     5
170
     0
171
     0
290
     0
174
     0
 93
        1
 44
0.0
173
     0
291
     1
 45
0.0
1001
ACAD
1000
AcDbSavedByObjectVersion
1070
     0
  0
VISUALSTYLE
  5
F2
102
{ACAD_REACTORS
330
EF
102
}
330
EF
100
AcDbVisualStyle
  2
Gouraud
 70
     2
 71
     2
 72
     2
 73
     1
 90
        2
 40
-0.6
 41
30.0
 62
     5
 63
     7
 74
     0
 91
        4
 64
     7
 65
   257
 75
     1
175
     1
 42
1.0
 92
        0
 66
     7
 43
1.0
 76
     1
 77
     6
 78
     2
 67
     7
 79
     5
170
     0
171
     0
290
     0
174
     0
 93
        1
 44
0.0
173
     0
291
     1
 45
0.0
1001
ACAD
1000
AcDbSavedByObjectVersion
1070
     0
  0
VISUALSTYLE
  5
F3
102
{ACAD_REACTORS
330
EF
102
}
330
EF
100
AcDbVisualStyle
  2
GouraudWithEdges
 70
     3
 71
     2
 72
     2
 73
     1
 90
        2
 40
-0.6
 41
30.0
 62
     5
 63
     7
 74
     1
 91
        4
 64
     7
 65
   257
 75
     1
175
     1
 42
1.0
 92
        0
 66
   257
 43
1.0
 76
     1
 77
     6
 78
     2
 67
     7
 79
     5
170
     0
171
     0
290
     0
174
     0
 93
        1
 44
0.0
173
     0
291
     1
 45
0.0
1001
ACAD
1000
AcDbSavedByObjectVersion
1070
     0
  0
VISUALSTYLE
  5
FD
102
{ACAD_REACTORS
330
EF
102
}
330
EF
100
AcDbVisualStyle
  2
Linepattern
 70
    14
 71
     2
 72
     2
 73
     1
 90
        0
 40
-0.6
 41
-30.0
 62
     5
 63
     7
 74
     1
 91
        4
 64
     7
 65
   257
 75
     7
175
     7
 42
1.0
 92
        8
 66
     7
 43
1.0
 76
     1
 77
     6
 78
     2
 67
     7
 79
     5
170
     0
171
     0
290
     0
174
     0
 93
        1
 44
0.0
173
     0
291
     1
 45
0.0
1001
ACAD
1000
AcDbSavedByObjectVersion
1070
     0
  0
VISUALSTYLE
  5
F9
102
{ACAD_REACTORS
330
EF
102
}
330
EF
100
AcDbVisualStyle
  2
Realistic
 70
     8
 71
     2
 72
     2
 73
     1
 90
        0
 40
-0.6
 41
-30.0
 62
     5
 63
     7
 74
     1
 91
        0
 64
     7
 65
   257
 75
     1
175
     1
 42
1.0
 92
        8
 66
     8
 43
1.0
 76
     1
 77
     6
 78
     2
 67
     7
 79
     5
170
     0
171
     0
290
     0
174
     0
 93
       13
 44
0.0
173
     0
291
     0
 45
0.0
1001
ACAD
1000
AcDbSavedByObjectVersion
1070
     0
  0
VISUALSTYLE
  5
FC
102
{ACAD_REACTORS
330
EF
102
}
330
EF
100
AcDbVisualStyle
  2
Thicken
 70
    13
 71
     2
 72
     2
 73
     1
 90
        0
 40
-0.6
 41
-30.0
 62
     5
 63
     7
 74
     1
 91
        4
 64
     7
 65
   257
 75
     1
175
     1
 42
1.0
 92
       12
 66
     7
 43
1.0
 76
     1
 77
     6
 78
     2
 67
     7
 79
     5
170
     0
171
     0
290
     0
174
     0
 93
        1
 44
0.0
173
     0
291
     1
 45
0.0
1001
ACAD
1000
AcDbSavedByObjectVersion
1070
     0
  0
DICTIONARYVAR
  5
146
102
{ACAD_REACTORS
330
5E
102
}
330
5E
100
DictionaryVariables
280
     0
  1
1:1
  0
DICTIONARYVAR
  5
145
102
{ACAD_REACTORS
330
5E
102
}
330
5E
100
DictionaryVariables
280
     0
  1
STANDARD
  0
DICTIONARYVAR
  5
84
102
{ACAD_REACTORS
330
5E
102
}
330
5E
100
DictionaryVariables
280
     0
  1
STANDARD
  0
DICTIONARYVAR
  5
5F
102
{ACAD_REACTORS
330
5E
102
}
330
5E
100
DictionaryVariables
280
     0
  1
2
  0
DICTIONARYVAR
  5
63
102
{ACAD_REACTORS
330
5E
102
}
330
5E
100
DictionaryVariables
280
     0
  1
1
  0
DICTIONARYVAR
  5
6DA
102
{ACAD_REACTORS
330
5E
102
}
330
5E
100
DictionaryVariables
280
     0
  1
0
  0
DICTIONARYVAR
  5
6D8
102
{ACAD_REACTORS
330
5E
102
}
330
5E
100
DictionaryVariables
280
     0
  1
2
  0
DICTIONARYVAR
  5
6D7
102
{ACAD_REACTORS
330
5E
102
}
330
5E
100
DictionaryVariables
280
     0
  1
1
  0
DICTIONARYVAR
  5
6DC
102
{ACAD_REACTORS
330
5E
102
}
330
5E
100
DictionaryVariables
280
     0
  1
80.000000
  0
DICTIONARYVAR
  5
6DB
102
{ACAD_REACTORS
330
5E
102
}
330
5E
100
DictionaryVariables
280
     0
  1
5.000000
  0
DICTIONARYVAR
  5
6D9
102
{ACAD_REACTORS
330
5E
102
}
330
5E
100
DictionaryVariables
280
     0
  1
127
  0
DICTIONARY
  5
6E2
330
D3
100
AcDbDictionary
280
     1
281
     1
  3
ACAD_XREC_ROUNDTRIP
360
6E3
  0
DICTIONARY
  5
6E4
330
D7
100
AcDbDictionary
280
     1
281
     1
  3
ACAD_XREC_ROUNDTRIP
360
6E5
  0
DICTIONARY
  5
6DF
330
22
100
AcDbDictionary
280
     1
281
     1
  3
ACAD_XREC_ROUNDTRIP
360
6E0
  0
DICTIONARY
  5
6E8
330
ED
100
AcDbDictionary
280
     1
281
     1
  3
ACAD_XREC_ROUNDTRIP
360
6E9
  0
DICTIONARY
  5
6E6
330
EC
100
AcDbDictionary
280
     1
281
     1
  3
ACAD_XREC_ROUNDTRIP
360
6E7
  0
DICTIONARY
  5
173
330
EE
100
AcDbDictionary
280
     1
281
     1
  3
ACAD_XREC_ROUNDTRIP
360
6EA
  3
BUMPTILE
360
175
  3
DIFFUSETILE
360
174
  3
OPACITYTILE
360
176
  3
REFLECTIONTILE
360
177
  0
DICTIONARY
  5
162
330
7F
100
AcDbDictionary
280
     1
281
     1
  3
ACAD_ROUNDTRIP_2008_TABLESTYLE_CELLSTYLEMAP
360
6DD
  3
ACAD_XREC_ROUNDTRIP
360
6E1
  0
XRECORD
  5
6E3
102
{ACAD_REACTORS
330
6E2
102
}
330
6E2
100
AcDbXrecord
280
     1
102
SHADEPLOT
 70
     0
102
SHADEPLOTRESLEVEL
 70
     2
102
SHADEPLOTCUSTOMDPI
 70
   300
  0
XRECORD
  5
6E5
102
{ACAD_REACTORS
330
6E4
102
}
330
6E4
100
AcDbXrecord
280
     1
102
SHADEPLOT
 70
     0
102
SHADEPLOTRESLEVEL
 70
     2
102
SHADEPLOTCUSTOMDPI
 70
   300
  0
XRECORD
  5
6E0
102
{ACAD_REACTORS
330
6DF
102
}
330
6DF
100
AcDbXrecord
280
     1
102
SHADEPLOT
 70
     0
102
SHADEPLOTRESLEVEL
 70
     2
102
SHADEPLOTCUSTOMDPI
 70
   300
  0
XRECORD
  5
6E9
102
{ACAD_REACTORS
330
6E8
102
}
330
6E8
100
AcDbXrecord
280
     1
102
MATERIAL
148
0.0
149
0.0
149
0.0
 93
        0
 94
       63
282
     0
 72
     1
 77
     1
171
     1
175
     1
179
     1
273
     0
  0
XRECORD
  5
6E7
102
{ACAD_REACTORS
330
6E6
102
}
330
6E6
100
AcDbXrecord
280
     1
102
MATERIAL
148
0.0
149
0.0
149
0.0
 93
        0
 94
       63
282
     0
 72
     1
 77
     1
171
     1
175
     1
179
     1
273
     0
  0
XRECORD
  5
6EA
102
{ACAD_REACTORS
330
173
102
}
330
173
100
AcDbXrecord
280
     1
102
MATERIAL
148
0.0
149
0.0
149
0.0
 93
        0
 94
       63
282
     0
 72
     1
 77
     1
171
     1
175
     1
179
     1
273
     0
  0
XRECORD
  5
175
102
{ACAD_REACTORS
330
173
102
}
330
173
100
AcDbXrecord
280
     1
270
     1
271
     1
  0
XRECORD
  5
174
102
{ACAD_REACTORS
330
173
102
}
330
173
100
AcDbXrecord
280
     1
270
     1
271
     1
  0
XRECORD
  5
176
102
{ACAD_REACTORS
330
173
102
}
330
173
100
AcDbXrecord
280
     1
270
     1
271
     1
  0
XRECORD
  5
177
102
{ACAD_REACTORS
330
173
102
}
330
173
100
AcDbXrecord
280
     1
270
     1
271
     1
  0
CELLSTYLEMAP
  5
6DD
102
{ACAD_REACTORS
330
162
102
}
330
162
100
AcDbCellStyleMap
 90
        3
300
CELLSTYLE
  1
TABLEFORMAT_BEGIN
 90
        5
170
     1
 91
        0
 92
    32768
 62
   257
 93
        1
300
CONTENTFORMAT
  1
CONTENTFORMAT_BEGIN
 90
        0
 91
        0
 92
      512
 93
        0
300

 40
0.0
140
1.0
 94
        5
 62
     0
340
11
144
6.0
309
CONTENTFORMAT_END
171
     1
301
MARGIN
  1
CELLMARGIN_BEGIN
 40
1.5
 40
1.5
 40
1.5
 40
1.5
 40
4.5
 40
4.5
309
CELLMARGIN_END
 94
        6
 95
        1
302
GRIDFORMAT
  1
GRIDFORMAT_BEGIN
 90
        0
 91
        1
 62
     0
 92
       -2
340
14
 93
        0
 40
1.125
309
GRIDFORMAT_END
 95
        2
302
GRIDFORMAT
  1
GRIDFORMAT_BEGIN
 90
        0
 91
        1
 62
     0
 92
       -2
340
14
 93
        0
 40
1.125
309
GRIDFORMAT_END
 95
        4
302
GRIDFORMAT
  1
GRIDFORMAT_BEGIN
 90
        0
 91
        1
 62
     0
 92
       -2
340
14
 93
        0
 40
1.125
309
GRIDFORMAT_END
 95
        8
302
GRIDFORMAT
  1
GRIDFORMAT_BEGIN
 90
        0
 91
        1
 62
     0
 92
       -2
340
14
 93
        0
 40
1.125
309
GRIDFORMAT_END
 95
       16
302
GRIDFORMAT
  1
GRIDFORMAT_BEGIN
 90
        0
 91
        1
 62
     0
 92
       -2
340
14
 93
        0
 40
1.125
309
GRIDFORMAT_END
 95
       32
302
GRIDFORMAT
  1
GRIDFORMAT_BEGIN
 90
        0
 91
        1
 62
     0
 92
       -2
340
14
 93
        0
 40
1.125
309
GRIDFORMAT_END
309
TABLEFORMAT_END
  1
CELLSTYLE_BEGIN
 90
        1
 91
        1
300
_TITLE
309
CELLSTYLE_END
300
CELLSTYLE
  1
TABLEFORMAT_BEGIN
 90
        5
170
     1
 91
        0
 92
        0
 62
   257
 93
        1
300
CONTENTFORMAT
  1
CONTENTFORMAT_BEGIN
 90
        0
 91
        0
 92
      512
 93
        0
300

 40
0.0
140
1.0
 94
        5
 62
     0
340
11
144
4.5
309
CONTENTFORMAT_END
171
     1
301
MARGIN
  1
CELLMARGIN_BEGIN
 40
1.5
 40
1.5
 40
1.5
 40
1.5
 40
4.5
 40
4.5
309
CELLMARGIN_END
 94
        6
 95
        1
302
GRIDFORMAT
  1
GRIDFORMAT_BEGIN
 90
        0
 91
        1
 62
     0
 92
       -2
340
14
 93
        0
 40
1.125
309
GRIDFORMAT_END
 95
        2
302
GRIDFORMAT
  1
GRIDFORMAT_BEGIN
 90
        0
 91
        1
 62
     0
 92
       -2
340
14
 93
        0
 40
1.125
309
GRIDFORMAT_END
 95
        4
302
GRIDFORMAT
  1
GRIDFORMAT_BEGIN
 90
        0
 91
        1
 62
     0
 92
       -2
340
14
 93
        0
 40
1.125
309
GRIDFORMAT_END
 95
        8
302
GRIDFORMAT
  1
GRIDFORMAT_BEGIN
 90
        0
 91
        1
 62
     0
 92
       -2
340
14
 93
        0
 40
1.125
309
GRIDFORMAT_END
 95
       16
302
GRIDFORMAT
  1
GRIDFORMAT_BEGIN
 90
        0
 91
        1
 62
     0
 92
       -2
340
14
 93
        0
 40
1.125
309
GRIDFORMAT_END
 95
       32
302
GRIDFORMAT
  1
GRIDFORMAT_BEGIN
 90
        0
 91
        1
 62
     0
 92
       -2
340
14
 93
        0
 40
1.125
309
GRIDFORMAT_END
309
TABLEFORMAT_END
  1
CELLSTYLE_BEGIN
 90
        2
 91
        1
300
_HEADER
309
CELLSTYLE_END
300
CELLSTYLE
  1
TABLEFORMAT_BEGIN
 90
        5
170
     1
 91
        0
 92
        0
 62
   257
 93
        1
300
CONTENTFORMAT
  1
CONTENTFORMAT_BEGIN
 90
        0
 91
        0
 92
      512
 93
        0
300

 40
0.0
140
1.0
 94
        2
 62
     0
340
11
144
4.5
309
CONTENTFORMAT_END
171
     1
301
MARGIN
  1
CELLMARGIN_BEGIN
 40
1.5
 40
1.5
 40
1.5
 40
1.5
 40
4.5
 40
4.5
309
CELLMARGIN_END
 94
        6
 95
        1
302
GRIDFORMAT
  1
GRIDFORMAT_BEGIN
 90
        0
 91
        1
 62
     0
 92
       -2
340
14
 93
        0
 40
1.125
309
GRIDFORMAT_END
 95
        2
302
GRIDFORMAT
  1
GRIDFORMAT_BEGIN
 90
        0
 91
        1
 62
     0
 92
       -2
340
14
 93
        0
 40
1.125
309
GRIDFORMAT_END
 95
        4
302
GRIDFORMAT
  1
GRIDFORMAT_BEGIN
 90
        0
 91
        1
 62
     0
 92
       -2
340
14
 93
        0
 40
1.125
309
GRIDFORMAT_END
 95
        8
302
GRIDFORMAT
  1
GRIDFORMAT_BEGIN
 90
        0
 91
        1
 62
     0
 92
       -2
340
14
 93
        0
 40
1.125
309
GRIDFORMAT_END
 95
       16
302
GRIDFORMAT
  1
GRIDFORMAT_BEGIN
 90
        0
 91
        1
 62
     0
 92
       -2
340
14
 93
        0
 40
1.125
309
GRIDFORMAT_END
 95
       32
302
GRIDFORMAT
  1
GRIDFORMAT_BEGIN
 90
        0
 91
        1
 62
     0
 92
       -2
340
14
 93
        0
 40
1.125
309
GRIDFORMAT_END
309
TABLEFORMAT_END
  1
CELLSTYLE_BEGIN
 90
        3
 91
        2
300
_DATA
309
CELLSTYLE_END
  0
XRECORD
  5
6E1
102
{ACAD_REACTORS
330
162
102
}
330
162
100
AcDbXrecord
280
     1
102
ACAD_ROUNDTRIP_PRE2007_TABLESTYLE
 90
      512
 91
        0
  1

 92
      512
 93
        0
  2

 94
      512
 95
        0
  3

  0
ENDSEC
  0
EOF
