  0
SECTION
  2
HEADER
  9
$ACADVER
  1
AC1015
  9
$ACADMAINTVER
 70
    20
  9
$DWGCODEPAGE
  3
ANSI_1254
  9
$INSBASE
 10
0.0
 20
0.0
 30
0.0
  9
$EXTMIN
 10
1868.8509308253
 20
948.1367449306924
 30
0.0
  9
$EXTMAX
 10
2053.355659150662
 20
995.7295803486848
 30
0.0
  9
$LIMMIN
 10
0.0
 20
0.0
  9
$LIMMAX
 10
420.0
 20
297.0
  9
$ORTHOMODE
 70
     1
  9
$REGENMODE
 70
     1
  9
$FILLMODE
 70
     1
  9
$QTEXTMODE
 70
     0
  9
$MIRRTEXT
 70
     0
  9
$LTSCALE
 40
1.0
  9
$ATTMODE
 70
     1
  9
$TEXTSIZE
 40
2.5
  9
$TRACEWID
 40
1.0
  9
$TEXTSTYLE
  7
Standard
  9
$CLAYER
  8
0
  9
$CELTYPE
  6
ByLayer
  9
$CECOLOR
 62
   256
  9
$CELTSCALE
 40
1.0
  9
$DISPSILH
 70
     0
  9
$DIMSCALE
 40
1.0
  9
$DIMASZ
 40
2.5
  9
$DIMEXO
 40
0.625
  9
$DIMDLI
 40
3.75
  9
$DIMRND
 40
0.0
  9
$DIMDLE
 40
0.0
  9
$DIMEXE
 40
1.25
  9
$DIMTP
 40
0.0
  9
$DIMTM
 40
0.0
  9
$DIMTXT
 40
2.5
  9
$DIMCEN
 40
2.5
  9
$DIMTSZ
 40
0.0
  9
$DIMTOL
 70
     0
  9
$DIMLIM
 70
     0
  9
$DIMTIH
 70
     0
  9
$DIMTOH
 70
     0
  9
$DIMSE1
 70
     0
  9
$DIMSE2
 70
     0
  9
$DIMTAD
 70
     1
  9
$DIMZIN
 70
     8
  9
$DIMBLK
  1

  9
$DIMASO
 70
     1
  9
$DIMSHO
 70
     1
  9
$DIMPOST
  1

  9
$DIMAPOST
  1

  9
$DIMALT
 70
     0
  9
$DIMALTD
 70
     3
  9
$DIMALTF
 40
0.03937007874016
  9
$DIMLFAC
 40
1.0
  9
$DIMTOFL
 70
     1
  9
$DIMTVP
 40
0.0
  9
$DIMTIX
 70
     0
  9
$DIMSOXD
 70
     0
  9
$DIMSAH
 70
     0
  9
$DIMBLK1
  1

  9
$DIMBLK2
  1

  9
$DIMSTYLE
  2
ISO-25
  9
$DIMCLRD
 70
     0
  9
$DIMCLRE
 70
     0
  9
$DIMCLRT
 70
     0
  9
$DIMTFAC
 40
1.0
  9
$DIMGAP
 40
0.625
  9
$DIMJUST
 70
     0
  9
$DIMSD1
 70
     0
  9
$DIMSD2
 70
     0
  9
$DIMTOLJ
 70
     0
  9
$DIMTZIN
 70
     8
  9
$DIMALTZ
 70
     0
  9
$DIMALTTZ
 70
     0
  9
$DIMUPT
 70
     0
  9
$DIMDEC
 70
     2
  9
$DIMTDEC
 70
     2
  9
$DIMALTU
 70
     2
  9
$DIMALTTD
 70
     3
  9
$DIMTXSTY
  7
Standard
  9
$DIMAUNIT
 70
     0
  9
$DIMADEC
 70
     0
  9
$DIMALTRND
 40
0.0
  9
$DIMAZIN
 70
     0
  9
$DIMDSEP
 70
    44
  9
$DIMATFIT
 70
     3
  9
$DIMFRAC
 70
     0
  9
$DIMLDRBLK
  1

  9
$DIMLUNIT
 70
     2
  9
$DIMLWD
 70
    -2
  9
$DIMLWE
 70
    -2
  9
$DIMTMOVE
 70
     0
  9
$LUNITS
 70
     2
  9
$LUPREC
 70
     4
  9
$SKETCHINC
 40
1.0
  9
$FILLETRAD
 40
0.0
  9
$AUNITS
 70
     0
  9
$AUPREC
 70
     0
  9
$MENU
  1
.
  9
$ELEVATION
 40
0.0
  9
$PELEVATION
 40
0.0
  9
$THICKNESS
 40
0.0
  9
$LIMCHECK
 70
     0
  9
$CHAMFERA
 40
0.0
  9
$CHAMFERB
 40
0.0
  9
$CHAMFERC
 40
0.0
  9
$CHAMFERD
 40
0.0
  9
$SKPOLY
 70
     0
  9
$TDCREATE
 40
2458556.693010116
  9
$TDUCREATE
 40
2458556.568010116
  9
$TDUPDATE
 40
2458956.455377535
  9
$TDUUPDATE
 40
2458956.330377535
  9
$TDINDWG
 40
0.0006887500
  9
$TDUSRTIMER
 40
0.0006887500
  9
$USRTIMER
 70
     1
  9
$ANGBASE
 50
0.0
  9
$ANGDIR
 70
     0
  9
$PDMODE
 70
     0
  9
$PDSIZE
 40
0.0
  9
$PLINEWID
 40
0.0
  9
$SPLFRAME
 70
     0
  9
$SPLINETYPE
 70
     6
  9
$SPLINESEGS
 70
     8
  9
$HANDSEED
  5
110B
  9
$SURFTAB1
 70
     6
  9
$SURFTAB2
 70
     6
  9
$SURFTYPE
 70
     6
  9
$SURFU
 70
     6
  9
$SURFV
 70
     6
  9
$UCSBASE
  2

  9
$UCSNAME
  2

  9
$UCSORG
 10
0.0
 20
0.0
 30
0.0
  9
$UCSXDIR
 10
1.0
 20
0.0
 30
0.0
  9
$UCSYDIR
 10
0.0
 20
1.0
 30
0.0
  9
$UCSORTHOREF
  2

  9
$UCSORTHOVIEW
 70
     0
  9
$UCSORGTOP
 10
0.0
 20
0.0
 30
0.0
  9
$UCSORGBOTTOM
 10
0.0
 20
0.0
 30
0.0
  9
$UCSORGLEFT
 10
0.0
 20
0.0
 30
0.0
  9
$UCSORGRIGHT
 10
0.0
 20
0.0
 30
0.0
  9
$UCSORGFRONT
 10
0.0
 20
0.0
 30
0.0
  9
$UCSORGBACK
 10
0.0
 20
0.0
 30
0.0
  9
$PUCSBASE
  2

  9
$PUCSNAME
  2

  9
$PUCSORG
 10
0.0
 20
0.0
 30
0.0
  9
$PUCSXDIR
 10
1.0
 20
0.0
 30
0.0
  9
$PUCSYDIR
 10
0.0
 20
1.0
 30
0.0
  9
$PUCSORTHOREF
  2

  9
$PUCSORTHOVIEW
 70
     0
  9
$PUCSORGTOP
 10
0.0
 20
0.0
 30
0.0
  9
$PUCSORGBOTTOM
 10
0.0
 20
0.0
 30
0.0
  9
$PUCSORGLEFT
 10
0.0
 20
0.0
 30
0.0
  9
$PUCSORGRIGHT
 10
0.0
 20
0.0
 30
0.0
  9
$PUCSORGFRONT
 10
0.0
 20
0.0
 30
0.0
  9
$PUCSORGBACK
 10
0.0
 20
0.0
 30
0.0
  9
$USERI1
 70
     0
  9
$USERI2
 70
     0
  9
$USERI3
 70
     0
  9
$USERI4
 70
     0
  9
$USERI5
 70
     0
  9
$USERR1
 40
0.0
  9
$USERR2
 40
0.0
  9
$USERR3
 40
0.0
  9
$USERR4
 40
0.0
  9
$USERR5
 40
0.0
  9
$WORLDVIEW
 70
     1
  9
$SHADEDGE
 70
     3
  9
$SHADEDIF
 70
    70
  9
$TILEMODE
 70
     1
  9
$MAXACTVP
 70
    64
  9
$PINSBASE
 10
0.0
 20
0.0
 30
0.0
  9
$PLIMCHECK
 70
     0
  9
$PEXTMIN
 10
0.0
 20
0.0
 30
0.0
  9
$PEXTMAX
 10
0.0
 20
0.0
 30
0.0
  9
$PLIMMIN
 10
0.0
 20
0.0
  9
$PLIMMAX
 10
12.0
 20
9.0
  9
$UNITMODE
 70
     0
  9
$VISRETAIN
 70
     1
  9
$PLINEGEN
 70
     0
  9
$PSLTSCALE
 70
     1
  9
$TREEDEPTH
 70
  3020
  9
$CMLSTYLE
  2
Standard
  9
$CMLJUST
 70
     0
  9
$CMLSCALE
 40
20.0
  9
$PROXYGRAPHICS
 70
     1
  9
$MEASUREMENT
 70
     1
  9
$CELWEIGHT
370
    -1
  9
$ENDCAPS
280
     0
  9
$JOINSTYLE
280
     0
  9
$LWDISPLAY
290
     0
  9
$INSUNITS
 70
     4
  9
$HYPERLINKBASE
  1

  9
$STYLESHEET
  1

  9
$XEDIT
290
     1
  9
$CEPSNTYPE
380
     0
  9
$PSTYLEMODE
290
     1
  9
$FINGERPRINTGUID
  2
{2C32275B-8FDF-4D5B-9018-5BD70E949016}
  9
$VERSIONGUID
  2
{7D9A6907-F8EA-4A55-A1D6-69C056EBC285}
  9
$EXTNAMES
290
     1
  9
$PSVPSCALE
 40
0.0
  9
$OLESTARTUP
290
     0
  0
ENDSEC
  0
SECTION
  2
CLASSES
  0
CLASS
  1
ACDBDICTIONARYWDFLT
  2
AcDbDictionaryWithDefault
  3
ObjectDBX Classes
 90
        0
280
     0
281
     0
  0
CLASS
  1
ACDBPLACEHOLDER
  2
AcDbPlaceHolder
  3
ObjectDBX Classes
 90
        0
280
     0
281
     0
  0
CLASS
  1
LAYOUT
  2
AcDbLayout
  3
ObjectDBX Classes
 90
        0
280
     0
281
     0
  0
CLASS
  1
DICTIONARYVAR
  2
AcDbDictionaryVar
  3
ObjectDBX Classes
 90
        0
280
     0
281
     0
  0
CLASS
  1
TABLESTYLE
  2
AcDbTableStyle
  3
ObjectDBX Classes
 90
     4095
280
     0
281
     0
  0
CLASS
  1
MATERIAL
  2
AcDbMaterial
  3
ObjectDBX Classes
 90
     1153
280
     0
281
     0
  0
CLASS
  1
VISUALSTYLE
  2
AcDbVisualStyle
  3
ObjectDBX Classes
 90
     4095
280
     0
281
     0
  0
CLASS
  1
SCALE
  2
AcDbScale
  3
ObjectDBX Classes
 90
     1153
280
     0
281
     0
  0
CLASS
  1
MLEADERSTYLE
  2
AcDbMLeaderStyle
  3
ACDB_MLEADERSTYLE_CLASS
 90
     4095
280
     0
281
     0
  0
CLASS
  1
CELLSTYLEMAP
  2
AcDbCellStyleMap
  3
ObjectDBX Classes
 90
     1152
280
     0
281
     0
  0
ENDSEC
  0
SECTION
  2
TABLES
  0
TABLE
  2
VPORT
  5
8
330
0
100
AcDbSymbolTable
 70
     1
  0
VPORT
  5
EA
330
8
100
AcDbSymbolTableRecord
100
AcDbViewportTableRecord
  2
*Active
 70
     0
 10
0.0
 20
0.0
 11
1.0
 21
1.0
 12
2009.214768516113
 22
970.9072468791596
 13
0.0
 23
0.0
 14
10.0
 24
10.0
 15
10.0
 25
10.0
 16
0.0
 26
0.0
 36
1.0
 17
0.0
 27
0.0
 37
0.0
 40
218.886502258382
 41
1.903110047846889
 42
50.0
 43
0.0
 44
0.0
 50
0.0
 51
0.0
 71
     0
 72
  1000
 73
     1
 74
     3
 75
     0
 76
     0
 77
     0
 78
     0
281
     0
 65
     1
110
0.0
120
0.0
130
0.0
111
1.0
121
0.0
131
0.0
112
0.0
122
1.0
132
0.0
 79
     0
146
0.0
  0
ENDTAB
  0
TABLE
  2
LTYPE
  5
5
330
0
100
AcDbSymbolTable
 70
     1
  0
LTYPE
  5
14
330
5
100
AcDbSymbolTableRecord
100
AcDbLinetypeTableRecord
  2
ByBlock
 70
     0
  3

 72
    65
 73
     0
 40
0.0
  0
LTYPE
  5
15
330
5
100
AcDbSymbolTableRecord
100
AcDbLinetypeTableRecord
  2
ByLayer
 70
     0
  3

 72
    65
 73
     0
 40
0.0
  0
LTYPE
  5
16
330
5
100
AcDbSymbolTableRecord
100
AcDbLinetypeTableRecord
  2
Continuous
 70
     0
  3
Solid line
 72
    65
 73
     0
 40
0.0
  0
ENDTAB
  0
TABLE
  2
LAYER
  5
2
330
0
100
AcDbSymbolTable
 70
     1
  0
LAYER
  5
10
102
{ACAD_XDICTIONARY
360
13C
102
}
330
2
100
AcDbSymbolTableRecord
100
AcDbLayerTableRecord
  2
0
 70
     0
 62
     7
  6
Continuous
370
    -3
390
F
  0
ENDTAB
  0
TABLE
  2
STYLE
  5
3
330
0
100
AcDbSymbolTable
 70
     2
  0
STYLE
  5
11
330
3
100
AcDbSymbolTableRecord
100
AcDbTextStyleTableRecord
  2
Standard
 70
     0
 40
0.0
 41
1.0
 50
0.0
 71
     0
 42
2.5
  3
txt
  4

  0
STYLE
  5
132
330
3
100
AcDbSymbolTableRecord
100
AcDbTextStyleTableRecord
  2
Annotative
 70
     0
 40
0.0
 41
1.0
 50
0.0
 71
     0
 42
2.5
  3
txt.shx
  4

1001
AcadAnnotative
1000
AnnotativeData
1002
{
1070
     1
1070
     1
1002
}
  0
ENDTAB
  0
TABLE
  2
VIEW
  5
6
330
0
100
AcDbSymbolTable
 70
     0
  0
ENDTAB
  0
TABLE
  2
UCS
  5
7
330
0
100
AcDbSymbolTable
 70
     0
  0
ENDTAB
  0
TABLE
  2
APPID
  5
9
330
0
100
AcDbSymbolTable
 70
     7
  0
APPID
  5
12
330
9
100
AcDbSymbolTableRecord
100
AcDbRegAppTableRecord
  2
ACAD
 70
     0
  0
APPID
  5
9E
330
9
100
AcDbSymbolTableRecord
100
AcDbRegAppTableRecord
  2
ACAD_PSEXT
 70
     0
  0
APPID
  5
133
330
9
100
AcDbSymbolTableRecord
100
AcDbRegAppTableRecord
  2
AcadAnnoPO
 70
     0
  0
APPID
  5
134
330
9
100
AcDbSymbolTableRecord
100
AcDbRegAppTableRecord
  2
AcadAnnotative
 70
     0
  0
APPID
  5
135
330
9
100
AcDbSymbolTableRecord
100
AcDbRegAppTableRecord
  2
ACAD_DSTYLE_DIMJAG
 70
     0
  0
APPID
  5
136
330
9
100
AcDbSymbolTableRecord
100
AcDbRegAppTableRecord
  2
ACAD_DSTYLE_DIMTALN
 70
     0
  0
APPID
  5
165
330
9
100
AcDbSymbolTableRecord
100
AcDbRegAppTableRecord
  2
ACAD_MLEADERVER
 70
     0
  0
ENDTAB
  0
TABLE
  2
DIMSTYLE
  5
A
330
0
100
AcDbSymbolTable
 70
     2
100
AcDbDimStyleTable
 71
     2
340
27
340
137
  0
DIMSTYLE
105
27
330
A
100
AcDbSymbolTableRecord
100
AcDbDimStyleTableRecord
  2
ISO-25
 70
     0
 41
2.5
 42
0.625
 43
3.75
 44
1.25
 73
     0
 74
     0
 77
     1
 78
     8
140
2.5
141
2.5
143
0.03937007874016
147
0.625
171
     3
172
     1
271
     2
272
     2
274
     3
278
    44
283
     0
284
     8
340
11
  0
DIMSTYLE
105
137
330
A
100
AcDbSymbolTableRecord
100
AcDbDimStyleTableRecord
  2
Annotative
 70
     0
 40
0.0
 41
2.5
 42
0.625
 43
3.75
 44
1.25
 73
     0
 74
     0
 77
     1
 78
     8
140
2.5
141
2.5
143
0.03937007874016
147
0.625
171
     3
172
     1
271
     2
272
     2
274
     3
278
    44
283
     0
284
     8
340
11
1001
AcadAnnotative
1000
AnnotativeData
1002
{
1070
     1
1070
     1
1002
}
1001
ACAD_DSTYLE_DIMJAG
1070
   388
1040
1.5
1001
ACAD_DSTYLE_DIMTALN
1070
   392
1070
     0
  0
ENDTAB
  0
TABLE
  2
BLOCK_RECORD
  5
1
330
0
100
AcDbSymbolTable
 70
     5
  0
BLOCK_RECORD
  5
1F
330
1
100
AcDbSymbolTableRecord
100
AcDbBlockTableRecord
  2
*Model_Space
340
22
  0
BLOCK_RECORD
  5
D2
330
1
100
AcDbSymbolTableRecord
100
AcDbBlockTableRecord
  2
*Paper_Space
340
D3
  0
BLOCK_RECORD
  5
D6
330
1
100
AcDbSymbolTableRecord
100
AcDbBlockTableRecord
  2
*Paper_Space0
340
D7
  0
BLOCK_RECORD
  5
BD1
330
1
100
AcDbSymbolTableRecord
100
AcDbBlockTableRecord
  2
1
340
0
310
2800000020000000200000000100080000000000000400000000000000000000000000000000000000000000000080000080000000808000800000008000800080800000C0C0C000C0DCC000F0CAA6000020400000206000002080000020A0000020C0000020E00000400000004020000040400000406000004080000040A0
310
000040C0000040E00000600000006020000060400000606000006080000060A0000060C0000060E00000800000008020000080400000806000008080000080A0000080C0000080E00000A0000000A0200000A0400000A0600000A0800000A0A00000A0C00000A0E00000C0000000C0200000C0400000C0600000C0800000C0
310
A00000C0C00000C0E00000E0000000E0200000E0400000E0600000E0800000E0A00000E0C00000E0E00040000000400020004000400040006000400080004000A0004000C0004000E00040200000402020004020400040206000402080004020A0004020C0004020E000404000004040200040404000404060004040800040
310
40A0004040C0004040E00040600000406020004060400040606000406080004060A0004060C0004060E00040800000408020004080400040806000408080004080A0004080C0004080E00040A0000040A0200040A0400040A0600040A0800040A0A00040A0C00040A0E00040C0000040C0200040C0400040C0600040C08000
310
40C0A00040C0C00040C0E00040E0000040E0200040E0400040E0600040E0800040E0A00040E0C00040E0E00080000000800020008000400080006000800080008000A0008000C0008000E00080200000802020008020400080206000802080008020A0008020C0008020E00080400000804020008040400080406000804080
310
008040A0008040C0008040E00080600000806020008060400080606000806080008060A0008060C0008060E00080800000808020008080400080806000808080008080A0008080C0008080E00080A0000080A0200080A0400080A0600080A0800080A0A00080A0C00080A0E00080C0000080C0200080C0400080C0600080C0
310
800080C0A00080C0C00080C0E00080E0000080E0200080E0400080E0600080E0800080E0A00080E0C00080E0E000C0000000C0002000C0004000C0006000C0008000C000A000C000C000C000E000C0200000C0202000C0204000C0206000C0208000C020A000C020C000C020E000C0400000C0402000C0404000C0406000C0
310
408000C040A000C040C000C040E000C0600000C0602000C0604000C0606000C0608000C060A000C060C000C060E000C0800000C0802000C0804000C0806000C0808000C080A000C080C000C080E000C0A00000C0A02000C0A04000C0A06000C0A08000C0A0A000C0A0C000C0A0E000C0C00000C0C02000C0C04000C0C06000
310
C0C08000C0C0A000F0FBFF00A4A0A000808080000000FF0000FF000000FFFF00FF000000FF00FF00FFFF0000FFFFFF0000000000000000000000000000000000000000000000000000000000000000000000000000000000000000000000000000000000000000000000000000000000000000000000000000000000000000
310
00000000000000000000000000000000000000000000000000000000000000000000000000000000000000000000000000000000000000000000000000000000000000000000000000000000000000000000000000000000000000000000000000000000000000000000000000000000000000000000000000000000000000
310
00000000000000000000000000000000000000000000000000000000000000000000000000000000000000000000000000000000000000000000000000000000000000000000000000000000000000000000000000000000000000000000000000000000000000000000000000000000000000000000000000000000000000
310
000000000000000000000000000000000000000000000000000000000000000000000000000000000000000000000000000000000000000000000000000000000000000000000000000000000000000000000000FFFFFFFFFFFFFFFFFFFFFFFFFFFFFFFFFFFFFFFFFFFFFFFFFFFFFFFFFFFF0000FFFFFFFFFFFFFFFFFFFFFF
310
FFFFFFFFFFFFFFFFFFFFFFFFFFFFFFFFFFFFFF0000FFFFFFFFFFFFFFFFFFFFFFFFFFFFFFFFFFFFFFFFFFFFFFFFFFFFFFFFFFFF0000FF0000FF0000FF0000FF00FFFF00FFFF00FFFF00FF0000FF0000FF0000FF0000FF0000FF0000000000FF00000000FFFF00000000FF0000000000FF0000FF000000FFFFFFFFFFFFFFFFFF
310
FFFFFFFFFFFFFFFFFFFFFFFFFFFFFFFFFFFFFF000000000000000000000000000000000000000000000000000000000000000000000000000000000000000000000000000000000000000000000000000000000000000000000000000000000000000000000000000000000000000000000000000000000000000000000000
310
00000000000000000000000000000000000000000000000000000000000000000000000000000000000000000000000000000000000000000000000000000000000000000000000000000000000000000000000000000000000000000000000000000000000000000000000000000000000000000000000000000000000000
310
00000000000000000000000000000000000000000000000000000000000000000000000000000000000000000000000000000000000000000000000000000000000000000000000000000000000000000000000000000000000000000000000000000000000000000000000000000000000000000000000000000000000000
310
0000000000000000000000000000000000000000000000000000000000000000000000000000000000000000000000000000000000000000
102
{BLKREFS
331
DD8
102
}
1001
ACAD
1000
DesignCenter Data
1002
{
1070
     1
1070
     4
1002
}
  0
BLOCK_RECORD
  5
DD9
330
1
100
AcDbSymbolTableRecord
100
AcDbBlockTableRecord
  2
2
340
0
310
2800000020000000200000000100080000000000000400000000000000000000000000000000000000000000000080000080000000808000800000008000800080800000C0C0C000C0DCC000F0CAA6000020400000206000002080000020A0000020C0000020E00000400000004020000040400000406000004080000040A0
310
000040C0000040E00000600000006020000060400000606000006080000060A0000060C0000060E00000800000008020000080400000806000008080000080A0000080C0000080E00000A0000000A0200000A0400000A0600000A0800000A0A00000A0C00000A0E00000C0000000C0200000C0400000C0600000C0800000C0
310
A00000C0C00000C0E00000E0000000E0200000E0400000E0600000E0800000E0A00000E0C00000E0E00040000000400020004000400040006000400080004000A0004000C0004000E00040200000402020004020400040206000402080004020A0004020C0004020E000404000004040200040404000404060004040800040
310
40A0004040C0004040E00040600000406020004060400040606000406080004060A0004060C0004060E00040800000408020004080400040806000408080004080A0004080C0004080E00040A0000040A0200040A0400040A0600040A0800040A0A00040A0C00040A0E00040C0000040C0200040C0400040C0600040C08000
310
40C0A00040C0C00040C0E00040E0000040E0200040E0400040E0600040E0800040E0A00040E0C00040E0E00080000000800020008000400080006000800080008000A0008000C0008000E00080200000802020008020400080206000802080008020A0008020C0008020E00080400000804020008040400080406000804080
310
008040A0008040C0008040E00080600000806020008060400080606000806080008060A0008060C0008060E00080800000808020008080400080806000808080008080A0008080C0008080E00080A0000080A0200080A0400080A0600080A0800080A0A00080A0C00080A0E00080C0000080C0200080C0400080C0600080C0
310
800080C0A00080C0C00080C0E00080E0000080E0200080E0400080E0600080E0800080E0A00080E0C00080E0E000C0000000C0002000C0004000C0006000C0008000C000A000C000C000C000E000C0200000C0202000C0204000C0206000C0208000C020A000C020C000C020E000C0400000C0402000C0404000C0406000C0
310
408000C040A000C040C000C040E000C0600000C0602000C0604000C0606000C0608000C060A000C060C000C060E000C0800000C0802000C0804000C0806000C0808000C080A000C080C000C080E000C0A00000C0A02000C0A04000C0A06000C0A08000C0A0A000C0A0C000C0A0E000C0C00000C0C02000C0C04000C0C06000
310
C0C08000C0C0A000F0FBFF00A4A0A000808080000000FF0000FF000000FFFF00FF000000FF00FF00FFFF0000FFFFFF0000000000000000000000000000000000000000000000000000000000000000000000000000000000000000000000000000000000000000000000000000000000000000000000000000000000000000
310
00000000000000000000000000000000000000000000000000000000000000000000000000000000000000000000000000000000000000000000000000000000000000000000000000000000000000000000000000000000000000000000000000000000000000000000000000000000000000000000000000000000000000
310
00000000000000000000000000000000000000000000000000000000000000000000000000000000000000000000000000000000000000000000000000000000000000000000000000000000000000000000000000000000000000000000000000000000000000000000000000000000000000000000000000000000000000
310
000000000000000000000000000000000000000000000000000000000000000000000000000000000000000000000000000000000000000000000000000000000000000000000000000000000000000000000000000000000000000000000000000000000000000000000000000000000000000000FFFFFFFFFFFFFFFFFFFF
310
FFFFFFFFFFFFFFFFFFFFFFFFFFFFFFFFFFFF00000000FFFFFFFFFFFFFFFFFFFFFFFFFFFFFFFFFFFFFFFFFFFFFFFFFFFFFFFF000000FFFFFFFFFFFFFFFFFFFFFFFFFFFFFFFFFFFFFFFFFFFFFFFFFFFFFFFFFFFF0000FFFFFFFFFFFFFFFFFFFFFFFFFFFFFFFFFFFFFFFFFFFFFFFFFFFFFFFFFFFF000000000000000000000000
310
00000000000000000000000000000000000000000000000000000000000000000000000000000000000000000000000000000000000000000000000000000000000000000000000000000000000000000000000000000000000000000000000000000000000000000000000000000000000000000000000000000000000000
310
00000000000000000000000000000000000000000000000000000000000000000000000000000000000000000000000000000000000000000000000000000000000000000000000000000000000000000000000000000000000000000000000000000000000000000000000000000000000000000000000000000000000000
310
00000000000000000000000000000000000000000000000000000000000000000000000000000000000000000000000000000000000000000000000000000000000000000000000000000000000000000000000000000000000000000000000000000000000000000000000000000000000000000000000000000000000000
310
0000000000000000000000000000000000000000000000000000000000000000000000000000000000000000000000000000000000000000
102
{BLKREFS
331
E8D
102
}
1001
ACAD
1000
DesignCenter Data
1002
{
1070
     1
1070
     4
1002
}
  0
BLOCK_RECORD
  5
E8E
330
1
100
AcDbSymbolTableRecord
100
AcDbBlockTableRecord
  2
3
340
0
310
2800000020000000200000000100080000000000000400000000000000000000000000000000000000000000000080000080000000808000800000008000800080800000C0C0C000C0DCC000F0CAA6000020400000206000002080000020A0000020C0000020E00000400000004020000040400000406000004080000040A0
310
000040C0000040E00000600000006020000060400000606000006080000060A0000060C0000060E00000800000008020000080400000806000008080000080A0000080C0000080E00000A0000000A0200000A0400000A0600000A0800000A0A00000A0C00000A0E00000C0000000C0200000C0400000C0600000C0800000C0
310
A00000C0C00000C0E00000E0000000E0200000E0400000E0600000E0800000E0A00000E0C00000E0E00040000000400020004000400040006000400080004000A0004000C0004000E00040200000402020004020400040206000402080004020A0004020C0004020E000404000004040200040404000404060004040800040
310
40A0004040C0004040E00040600000406020004060400040606000406080004060A0004060C0004060E00040800000408020004080400040806000408080004080A0004080C0004080E00040A0000040A0200040A0400040A0600040A0800040A0A00040A0C00040A0E00040C0000040C0200040C0400040C0600040C08000
310
40C0A00040C0C00040C0E00040E0000040E0200040E0400040E0600040E0800040E0A00040E0C00040E0E00080000000800020008000400080006000800080008000A0008000C0008000E00080200000802020008020400080206000802080008020A0008020C0008020E00080400000804020008040400080406000804080
310
008040A0008040C0008040E00080600000806020008060400080606000806080008060A0008060C0008060E00080800000808020008080400080806000808080008080A0008080C0008080E00080A0000080A0200080A0400080A0600080A0800080A0A00080A0C00080A0E00080C0000080C0200080C0400080C0600080C0
310
800080C0A00080C0C00080C0E00080E0000080E0200080E0400080E0600080E0800080E0A00080E0C00080E0E000C0000000C0002000C0004000C0006000C0008000C000A000C000C000C000E000C0200000C0202000C0204000C0206000C0208000C020A000C020C000C020E000C0400000C0402000C0404000C0406000C0
310
408000C040A000C040C000C040E000C0600000C0602000C0604000C0606000C0608000C060A000C060C000C060E000C0800000C0802000C0804000C0806000C0808000C080A000C080C000C080E000C0A00000C0A02000C0A04000C0A06000C0A08000C0A0A000C0A0C000C0A0E000C0C00000C0C02000C0C04000C0C06000
310
C0C08000C0C0A000F0FBFF00A4A0A000808080000000FF0000FF000000FFFF00FF000000FF00FF00FFFF0000FFFFFF0000000000000000000000000000000000000000000000000000000000000000000000000000000000FFFFFFFFFFFFFFFFFFFFFF00000000000000000000000000000000000000FFFF00000000FF0000
310
00FF0000FF000000000000000000000000000000000000FFFFFFFFFFFFFFFFFFFFFFFFFFFF0000000000000000000000000000000000000000000000000000000000FFFFFFFFFF000000000000000000000000000000000000000000000000000000FF000000FF000000000000000000000000000000000000000000000000
310
000000FF000000FF000000000000000000000000000000000000000000000000000000FF000000FF000000000000000000000000000000000000000000000000000000FF000000FF000000000000000000000000000000000000000000000000000000FF000000FF0000000000000000000000000000000000000000000000
310
00000000FFFFFFFFFF000000000000000000000000000000000000000000000000000000FF000000FF000000000000000000000000000000000000000000000000000000FFFFFFFFFF000000000000000000000000000000000000000000000000000000FF000000FF00000000000000000000000000000000000000000000
310
0000000000FF000000FF000000000000000000000000000000000000000000000000000000FF000000FF0000000000000000000000000000000000000000000000FFFFFFFFFF000000FFFFFFFFFF00000000000000000000000000000000000000FF000000FF000000FF000000FF0000000000000000000000000000000000
310
000000FF0000FF000000FF0000FF000000000000000000000000000000000000000000FF0000FF000000FF0000FF000000000000000000000000000000000000000000FF0000FF000000FF0000FF00000000000000000000000000000000000000000000FF00FF000000FF00FF000000000000000000000000000000000000
310
0000000000FF00FF000000FF00FF0000000000000000000000000000000000000000000000FF00FFFFFFFFFF00FF0000000000000000000000000000000000000000000000FF00FF000000FF00FF000000000000000000000000000000000000000000000000FFFF000000FFFF000000000000000000000000000000000000
310
00000000000000FFFF000000FFFF00000000000000000000000000000000000000000000000000FFFF000000FFFF0000000000000000000000000000000000000000000000000000FF000000FF000000000000000000000000000000000000000000000000000000FF000000FF000000000000000000000000000000000000
310
000000000000000000FFFFFFFFFF000000000000000000000000000000000000000000000000000000000000000000000000000000000000
102
{BLKREFS
331
EB1
102
}
1001
ACAD
1000
DesignCenter Data
1002
{
1070
     1
1070
     4
1002
}
  0
BLOCK_RECORD
  5
EB2
330
1
100
AcDbSymbolTableRecord
100
AcDbBlockTableRecord
  2
4
340
0
310
2800000020000000200000000100080000000000000400000000000000000000000000000000000000000000000080000080000000808000800000008000800080800000C0C0C000C0DCC000F0CAA6000020400000206000002080000020A0000020C0000020E00000400000004020000040400000406000004080000040A0
310
000040C0000040E00000600000006020000060400000606000006080000060A0000060C0000060E00000800000008020000080400000806000008080000080A0000080C0000080E00000A0000000A0200000A0400000A0600000A0800000A0A00000A0C00000A0E00000C0000000C0200000C0400000C0600000C0800000C0
310
A00000C0C00000C0E00000E0000000E0200000E0400000E0600000E0800000E0A00000E0C00000E0E00040000000400020004000400040006000400080004000A0004000C0004000E00040200000402020004020400040206000402080004020A0004020C0004020E000404000004040200040404000404060004040800040
310
40A0004040C0004040E00040600000406020004060400040606000406080004060A0004060C0004060E00040800000408020004080400040806000408080004080A0004080C0004080E00040A0000040A0200040A0400040A0600040A0800040A0A00040A0C00040A0E00040C0000040C0200040C0400040C0600040C08000
310
40C0A00040C0C00040C0E00040E0000040E0200040E0400040E0600040E0800040E0A00040E0C00040E0E00080000000800020008000400080006000800080008000A0008000C0008000E00080200000802020008020400080206000802080008020A0008020C0008020E00080400000804020008040400080406000804080
310
008040A0008040C0008040E00080600000806020008060400080606000806080008060A0008060C0008060E00080800000808020008080400080806000808080008080A0008080C0008080E00080A0000080A0200080A0400080A0600080A0800080A0A00080A0C00080A0E00080C0000080C0200080C0400080C0600080C0
310
800080C0A00080C0C00080C0E00080E0000080E0200080E0400080E0600080E0800080E0A00080E0C00080E0E000C0000000C0002000C0004000C0006000C0008000C000A000C000C000C000E000C0200000C0202000C0204000C0206000C0208000C020A000C020C000C020E000C0400000C0402000C0404000C0406000C0
310
408000C040A000C040C000C040E000C0600000C0602000C0604000C0606000C0608000C060A000C060C000C060E000C0800000C0802000C0804000C0806000C0808000C080A000C080C000C080E000C0A00000C0A02000C0A04000C0A06000C0A08000C0A0A000C0A0C000C0A0E000C0C00000C0C02000C0C04000C0C06000
310
C0C08000C0C0A000F0FBFF00A4A0A000808080000000FF0000FF000000FFFF00FF000000FF00FF00FFFF0000FFFFFF0000000000000000000000000000000000000000000000000000000000000000000000000000000000000000000000000000000000000000000000000000000000000000000000000000000000000000
310
000000000000000000000000000000000000000000000000000000000000000000000000000000000000000000000000000000000000000000000000000000000000000000000000000000000000000000000000FFFFFF00000000000000000000000000000000000000000000000000000000FFFFFFFFFFFF000000000000
310
00000000000000000000000000000000000000FFFFFFFFFFFFFFFFFF0000000000000000000000000000000000000000000000FFFFFFFFFFFFFFFFFFFF00000000000000000000000000000000000000000000FFFF00FFFFFFFFFFFFFFFFFF0000000000000000000000000000000000000000FFFF00FFFFFFFFFFFFFFFFFF
310
FFFF000000000000000000000000000000000000FF00FFFFFFFFFFFFFFFFFFFFFFFFFF000000000000000000000000000000000000FF00FFFF00FFFF00FFFFFFFFFFFFFFFFFF00000000000000000000000000000000FFFFFFFF000000FFFFFFFFFFFFFFFFFFFF00000000000000000000000000000000FFFF00FF0000FFFF
310
FFFFFFFFFFFFFFFFFF0000000000000000000000000000000000FFFFFFFFFF00FFFF00FFFFFFFFFFFFFFFFFF00000000000000000000000000000000FFFFFFFF000000FFFFFFFFFFFFFFFFFFFF0000000000000000000000000000000000FF00FF0000FFFFFFFFFFFFFFFFFFFFFF0000000000000000000000000000000000
310
FFFFFFFFFF00FFFF00FFFFFFFFFFFFFFFFFF00000000000000000000000000000000FFFFFF00000000FFFFFFFFFFFFFFFFFFFFFF00000000000000000000000000000000FFFFFF0000FFFF00FFFFFFFFFFFFFFFF000000000000000000000000000000000000FFFF00FF0000FF00FFFFFFFF00000000000000000000000000
310
000000000000000000FFFF00000000FFFFFFFF0000000000000000000000000000000000000000000000FFFFFF0000FFFF00FF00000000000000000000000000000000000000000000000000FFFF00FFFF00FF000000000000000000000000000000000000000000000000000000FFFFFF00FF000000000000000000000000
310
0000000000000000000000000000000000FFFF000000000000000000000000000000000000000000000000000000000000000000000000000000000000000000000000000000000000000000000000000000000000000000000000000000000000000000000000000000000000000000000000000000000000000000000000
310
0000000000000000000000000000000000000000000000000000000000000000000000000000000000000000000000000000000000000000
102
{BLKREFS
331
10F0
102
}
1001
ACAD
1000
DesignCenter Data
1002
{
1070
     1
1070
     4
1002
}
  0
ENDTAB
  0
ENDSEC
  0
SECTION
  2
BLOCKS
  0
BLOCK
  5
20
330
1F
100
AcDbEntity
  8
0
100
AcDbBlockBegin
  2
*Model_Space
 70
     0
 10
0.0
 20
0.0
 30
0.0
  3
*Model_Space
  1

  0
ENDBLK
  5
21
330
1F
100
AcDbEntity
  8
0
100
AcDbBlockEnd
  0
BLOCK
  5
D4
330
D2
100
AcDbEntity
 67
     1
  8
0
100
AcDbBlockBegin
  2
*Paper_Space
 70
     0
 10
0.0
 20
0.0
 30
0.0
  3
*Paper_Space
  1

  0
ENDBLK
  5
D5
330
D2
100
AcDbEntity
 67
     1
  8
0
100
AcDbBlockEnd
  0
BLOCK
  5
D8
330
D6
100
AcDbEntity
 67
     1
  8
0
100
AcDbBlockBegin
  2
*Paper_Space0
 70
     0
 10
0.0
 20
0.0
 30
0.0
  3
*Paper_Space0
  1

  0
ENDBLK
  5
D9
330
D6
100
AcDbEntity
 67
     1
  8
0
100
AcDbBlockEnd
  0
BLOCK
  5
BD2
330
BD1
100
AcDbEntity
  8
0
100
AcDbBlockBegin
  2
1
 70
     0
 10
0.0
 20
0.0
 30
0.0
  3
1
  1

  0
LINE
  5
BD4
330
BD1
100
AcDbEntity
  8
0
  6
Continuous
 62
     7
370
    15
100
AcDbLine
 10
1962.16069239515
 20
975.5621894271572
 30
0.0
 11
1961.160697819172
 21
975.5621894271572
 31
0.0
  0
LINE
  5
BD5
330
BD1
100
AcDbEntity
  8
0
  6
Continuous
 62
     7
370
    15
100
AcDbLine
 10
1961.160697819172
 20
974.862192478915
 30
0.0
 11
1962.16069239515
 21
974.862192478915
 31
0.0
  0
LINE
  5
BD6
330
BD1
100
AcDbEntity
  8
0
  6
Continuous
 62
     7
370
    15
100
AcDbLine
 10
1961.160697819172
 20
974.862192478915
 30
0.0
 11
1961.160697819172
 21
975.5621894271572
 31
0.0
  0
LINE
  5
BD7
330
BD1
100
AcDbEntity
  8
0
  6
Continuous
 62
     7
370
    15
100
AcDbLine
 10
1962.16069239515
 20
975.5621894271572
 30
0.0
 11
1962.16069239515
 21
974.862192478915
 31
0.0
  0
LINE
  5
BD8
330
BD1
100
AcDbEntity
  8
0
  6
Continuous
 62
     7
370
    15
100
AcDbLine
 10
1960.77860224384
 20
975.5621894271572
 30
0.0
 11
1960.77860224384
 21
974.6770604522426
 31
0.0
  0
LINE
  5
BD9
330
BD1
100
AcDbEntity
  8
0
  6
Continuous
 62
     7
370
    15
100
AcDbLine
 10
1961.160697819172
 20
975.5621894271572
 30
0.0
 11
1960.77860224384
 21
975.5621894271572
 31
0.0
  0
LINE
  5
BDA
330
BD1
100
AcDbEntity
  8
0
  6
Continuous
 62
     7
370
    15
100
AcDbLine
 10
1961.160697819172
 20
974.862192478915
 30
0.0
 11
1960.77860224384
 21
974.6770604522426
 31
0.0
  0
LINE
  5
BDB
330
BD1
100
AcDbEntity
  8
0
  6
Continuous
 62
     7
370
    15
100
AcDbLine
 10
1895.578601009651
 20
975.5621894271572
 30
0.0
 11
1895.960694256677
 21
975.5621894271572
 31
0.0
  0
LINE
  5
BDC
330
BD1
100
AcDbEntity
  8
0
  6
Continuous
 62
     7
370
    15
100
AcDbLine
 10
1895.960694256677
 20
975.5621894271572
 30
0.0
 11
1895.960694256677
 21
974.862192478915
 31
0.0
  0
LINE
  5
BDD
330
BD1
100
AcDbEntity
  8
0
  6
Continuous
 62
     7
370
    15
100
AcDbLine
 10
1895.578601009651
 20
974.6770604522426
 30
0.0
 11
1895.960694256677
 21
974.862192478915
 31
0.0
  0
LINE
  5
BDE
330
BD1
100
AcDbEntity
  8
0
  6
Continuous
 62
     7
370
    15
100
AcDbLine
 10
1895.578601009651
 20
974.6770604522426
 30
0.0
 11
1895.578601009651
 21
975.5621894271572
 31
0.0
  0
LINE
  5
BDF
330
BD1
100
AcDbEntity
  8
0
  6
Continuous
 62
     7
370
    15
100
AcDbLine
 10
1952.62860211867
 20
974.6770604522426
 30
0.0
 11
1952.62860211867
 21
975.5621894271572
 31
0.0
  0
LINE
  5
BE0
330
BD1
100
AcDbEntity
  8
0
  6
Continuous
 62
     7
370
    15
100
AcDbLine
 10
1952.62860211867
 20
975.5621894271572
 30
0.0
 11
1953.010693968712
 21
975.5621894271572
 31
0.0
  0
LINE
  5
BE1
330
BD1
100
AcDbEntity
  8
0
  6
Continuous
 62
     7
370
    15
100
AcDbLine
 10
1953.010693968712
 20
975.5621894271572
 30
0.0
 11
1953.010693968712
 21
974.862192478915
 31
0.0
  0
LINE
  5
BE2
330
BD1
100
AcDbEntity
  8
0
  6
Continuous
 62
     7
370
    15
100
AcDbLine
 10
1953.010693968712
 20
974.862192478915
 30
0.0
 11
1952.62860211867
 21
974.6770604522426
 31
0.0
  0
LINE
  5
BE3
330
BD1
100
AcDbEntity
  8
0
  6
Continuous
 62
     7
370
    15
100
AcDbLine
 10
1895.578601009651
 20
974.6770604522426
 30
0.0
 11
1895.527646721779
 21
974.5622619064052
 31
0.0
  0
LINE
  5
BE4
330
BD1
100
AcDbEntity
  8
0
  6
Continuous
 62
     7
370
    15
100
AcDbLine
 10
1896.960694304175
 20
974.862192478915
 30
0.0
 11
1895.960694256677
 21
974.862192478915
 31
0.0
  0
LINE
  5
BE5
330
BD1
100
AcDbEntity
  8
0
  6
Continuous
 62
     7
370
    15
100
AcDbLine
 10
1896.960694304175
 20
974.5622619064052
 30
0.0
 11
1896.960694304175
 21
974.862192478915
 31
0.0
  0
LINE
  5
BE6
330
BD1
100
AcDbEntity
  8
0
  6
Continuous
 62
     7
370
    15
100
AcDbLine
 10
1895.527646721779
 20
974.5622619064052
 30
0.0
 11
1896.960694304175
 21
974.5622619064052
 31
0.0
  0
LINE
  5
BE7
330
BD1
100
AcDbEntity
  8
0
  6
Continuous
 62
     7
370
    15
100
AcDbLine
 10
1891.960694299518
 20
974.862192478915
 30
0.0
 11
1890.960694135605
 21
974.862192478915
 31
0.0
  0
LINE
  5
BE8
330
BD1
100
AcDbEntity
  8
0
  6
Continuous
 62
     7
370
    15
100
AcDbLine
 10
1891.960694299518
 20
974.862192478915
 30
0.0
 11
1892.342787546544
 21
974.6770604522426
 31
0.0
  0
LINE
  5
BE9
330
BD1
100
AcDbEntity
  8
0
  6
Continuous
 62
     7
370
    15
100
AcDbLine
 10
1892.393741601585
 20
974.5622619064052
 30
0.0
 11
1892.342787546544
 21
974.6770604522426
 31
0.0
  0
LINE
  5
BEA
330
BD1
100
AcDbEntity
  8
0
  6
Continuous
 62
     7
370
    15
100
AcDbLine
 10
1890.960694135605
 20
974.5622619064052
 30
0.0
 11
1892.393741601585
 21
974.5622619064052
 31
0.0
  0
LINE
  5
BEB
330
BD1
100
AcDbEntity
  8
0
  6
Continuous
 62
     7
370
    15
100
AcDbLine
 10
1890.960694135605
 20
974.862192478915
 30
0.0
 11
1890.960694135605
 21
974.5622619064052
 31
0.0
  0
LINE
  5
BEC
330
BD1
100
AcDbEntity
  8
0
  6
Continuous
 62
     7
370
    15
100
AcDbLine
 10
1945.8606958701
 20
975.5621894271572
 30
0.0
 11
1944.860693843542
 21
975.5621894271572
 31
0.0
  0
LINE
  5
BED
330
BD1
100
AcDbEntity
  8
0
  6
Continuous
 62
     7
370
    15
100
AcDbLine
 10
1944.860693843542
 20
974.862192478915
 30
0.0
 11
1945.8606958701
 21
974.862192478915
 31
0.0
  0
LINE
  5
BEE
330
BD1
100
AcDbEntity
  8
0
  6
Continuous
 62
     7
370
    15
100
AcDbLine
 10
1944.860693843542
 20
974.862192478915
 30
0.0
 11
1944.860693843542
 21
975.5621894271572
 31
0.0
  0
LINE
  5
BEF
330
BD1
100
AcDbEntity
  8
0
  6
Continuous
 62
     7
370
    15
100
AcDbLine
 10
1945.8606958701
 20
975.5621894271572
 30
0.0
 11
1945.8606958701
 21
974.862192478915
 31
0.0
  0
LINE
  5
BF0
330
BD1
100
AcDbEntity
  8
0
  6
Continuous
 62
     7
370
    15
100
AcDbLine
 10
1944.4786019935
 20
975.5621894271572
 30
0.0
 11
1944.4786019935
 21
974.6770604522426
 31
0.0
  0
LINE
  5
BF1
330
BD1
100
AcDbEntity
  8
0
  6
Continuous
 62
     7
370
    15
100
AcDbLine
 10
1944.860693843542
 20
975.5621894271572
 30
0.0
 11
1944.4786019935
 21
975.5621894271572
 31
0.0
  0
LINE
  5
BF2
330
BD1
100
AcDbEntity
  8
0
  6
Continuous
 62
     7
370
    15
100
AcDbLine
 10
1944.860693843542
 20
974.862192478915
 30
0.0
 11
1944.4786019935
 21
974.6770604522426
 31
0.0
  0
LINE
  5
BF3
330
BD1
100
AcDbEntity
  8
0
  6
Continuous
 62
     7
370
    15
100
AcDbLine
 10
1911.878600561498
 20
975.5621894271572
 30
0.0
 11
1911.878600561498
 21
974.6770604522426
 31
0.0
  0
LINE
  5
BF4
330
BD1
100
AcDbEntity
  8
0
  6
Continuous
 62
     7
370
    15
100
AcDbLine
 10
1912.260694274186
 20
975.5621894271572
 30
0.0
 11
1911.878600561498
 21
975.5621894271572
 31
0.0
  0
LINE
  5
BF5
330
BD1
100
AcDbEntity
  8
0
  6
Continuous
 62
     7
370
    15
100
AcDbLine
 10
1912.260694274186
 20
974.862192478915
 30
0.0
 11
1912.260694274186
 21
975.5621894271572
 31
0.0
  0
LINE
  5
BF6
330
BD1
100
AcDbEntity
  8
0
  6
Continuous
 62
     7
370
    15
100
AcDbLine
 10
1912.260694274186
 20
974.862192478915
 30
0.0
 11
1911.878600561498
 21
974.6770604522426
 31
0.0
  0
LINE
  5
BF7
330
BD1
100
AcDbEntity
  8
0
  6
Continuous
 62
     7
370
    15
100
AcDbLine
 10
1949.010693313061
 20
974.862192478915
 30
0.0
 11
1949.010693313061
 21
975.5621894271572
 31
0.0
  0
LINE
  5
BF8
330
BD1
100
AcDbEntity
  8
0
  6
Continuous
 62
     7
370
    15
100
AcDbLine
 10
1949.010693313061
 20
975.5621894271572
 30
0.0
 11
1949.392788888394
 21
975.5621894271572
 31
0.0
  0
LINE
  5
BF9
330
BD1
100
AcDbEntity
  8
0
  6
Continuous
 62
     7
370
    15
100
AcDbLine
 10
1949.392788888394
 20
975.5621894271572
 30
0.0
 11
1949.392788888394
 21
974.6770604522426
 31
0.0
  0
LINE
  5
BFA
330
BD1
100
AcDbEntity
  8
0
  6
Continuous
 62
     7
370
    15
100
AcDbLine
 10
1949.392788888394
 20
974.6770604522426
 30
0.0
 11
1949.010693313061
 21
974.862192478915
 31
0.0
  0
LINE
  5
BFB
330
BD1
100
AcDbEntity
  8
0
  6
Continuous
 62
     7
370
    15
100
AcDbLine
 10
1948.010695011793
 20
975.5621894271572
 30
0.0
 11
1949.010693313061
 21
975.5621894271572
 31
0.0
  0
LINE
  5
BFC
330
BD1
100
AcDbEntity
  8
0
  6
Continuous
 62
     7
370
    15
100
AcDbLine
 10
1948.010695011793
 20
974.862192478915
 30
0.0
 11
1949.010693313061
 21
974.862192478915
 31
0.0
  0
LINE
  5
BFD
330
BD1
100
AcDbEntity
  8
0
  6
Continuous
 62
     7
370
    15
100
AcDbLine
 10
1948.010695011793
 20
975.5621894271572
 30
0.0
 11
1948.010695011793
 21
974.862192478915
 31
0.0
  0
LINE
  5
BFE
330
BD1
100
AcDbEntity
  8
0
  6
Continuous
 62
     7
370
    15
100
AcDbLine
 10
1953.010693968712
 20
975.5621894271572
 30
0.0
 11
1954.01069599527
 21
975.5621894271572
 31
0.0
  0
LINE
  5
BFF
330
BD1
100
AcDbEntity
  8
0
  6
Continuous
 62
     7
370
    15
100
AcDbLine
 10
1954.01069599527
 20
975.5621894271572
 30
0.0
 11
1954.01069599527
 21
974.862192478915
 31
0.0
  0
LINE
  5
C00
330
BD1
100
AcDbEntity
  8
0
  6
Continuous
 62
     7
370
    15
100
AcDbLine
 10
1953.010693968712
 20
974.862192478915
 30
0.0
 11
1954.01069599527
 21
974.862192478915
 31
0.0
  0
LINE
  5
C01
330
BD1
100
AcDbEntity
  8
0
  6
Continuous
 62
     7
370
    15
100
AcDbLine
 10
1928.560693593203
 20
974.862192478915
 30
0.0
 11
1929.560695619761
 21
974.862192478915
 31
0.0
  0
LINE
  5
C02
330
BD1
100
AcDbEntity
  8
0
  6
Continuous
 62
     7
370
    15
100
AcDbLine
 10
1929.560695619761
 20
974.862192478915
 30
0.0
 11
1929.560695619761
 21
974.5622619064052
 31
0.0
  0
LINE
  5
C03
330
BD1
100
AcDbEntity
  8
0
  6
Continuous
 62
     7
370
    15
100
AcDbLine
 10
1929.560695619761
 20
974.5622619064052
 30
0.0
 11
1928.127647222458
 21
974.5622619064052
 31
0.0
  0
LINE
  5
C04
330
BD1
100
AcDbEntity
  8
0
  6
Continuous
 62
     7
370
    15
100
AcDbLine
 10
1928.178601743161
 20
974.6770604522426
 30
0.0
 11
1928.127647222458
 21
974.5622619064052
 31
0.0
  0
LINE
  5
C05
330
BD1
100
AcDbEntity
  8
0
  6
Continuous
 62
     7
370
    15
100
AcDbLine
 10
1928.560693593203
 20
974.862192478915
 30
0.0
 11
1928.178601743161
 21
974.6770604522426
 31
0.0
  0
LINE
  5
C06
330
BD1
100
AcDbEntity
  8
0
  6
Continuous
 62
     7
370
    15
100
AcDbLine
 10
1949.443743409096
 20
974.5622619064052
 30
0.0
 11
1949.392788888394
 21
974.6770604522426
 31
0.0
  0
LINE
  5
C07
330
BD1
100
AcDbEntity
  8
0
  6
Continuous
 62
     7
370
    15
100
AcDbLine
 10
1949.443743409096
 20
974.5622619064052
 30
0.0
 11
1948.010695011793
 21
974.5622619064052
 31
0.0
  0
LINE
  5
C08
330
BD1
100
AcDbEntity
  8
0
  6
Continuous
 62
     7
370
    15
100
AcDbLine
 10
1948.010695011793
 20
974.5622619064052
 30
0.0
 11
1948.010695011793
 21
974.862192478915
 31
0.0
  0
LINE
  5
C09
330
BD1
100
AcDbEntity
  8
0
  6
Continuous
 62
     7
370
    15
100
AcDbLine
 10
1904.110694149016
 20
974.862192478915
 30
0.0
 11
1905.110694312929
 21
974.862192478915
 31
0.0
  0
LINE
  5
C0A
330
BD1
100
AcDbEntity
  8
0
  6
Continuous
 62
     7
370
    15
100
AcDbLine
 10
1905.110694312929
 20
974.862192478915
 30
0.0
 11
1905.110694312929
 21
974.5622619064052
 31
0.0
  0
LINE
  5
C0B
330
BD1
100
AcDbEntity
  8
0
  6
Continuous
 62
     7
370
    15
100
AcDbLine
 10
1905.110694312929
 20
974.5622619064052
 30
0.0
 11
1903.677646846949
 21
974.5622619064052
 31
0.0
  0
LINE
  5
C0C
330
BD1
100
AcDbEntity
  8
0
  6
Continuous
 62
     7
370
    15
100
AcDbLine
 10
1903.72860090199
 20
974.6770604522426
 30
0.0
 11
1903.677646846949
 21
974.5622619064052
 31
0.0
  0
LINE
  5
C0D
330
BD1
100
AcDbEntity
  8
0
  6
Continuous
 62
     7
370
    15
100
AcDbLine
 10
1904.110694149016
 20
974.862192478915
 30
0.0
 11
1903.72860090199
 21
974.6770604522426
 31
0.0
  0
LINE
  5
C0E
330
BD1
100
AcDbEntity
  8
0
  6
Continuous
 62
     7
370
    15
100
AcDbLine
 10
1916.410694675027
 20
974.862192478915
 30
0.0
 11
1916.410694675027
 21
975.5621894271572
 31
0.0
  0
LINE
  5
C0F
330
BD1
100
AcDbEntity
  8
0
  6
Continuous
 62
     7
370
    15
100
AcDbLine
 10
1916.410694675027
 20
975.5621894271572
 30
0.0
 11
1916.792788387715
 21
975.5621894271572
 31
0.0
  0
LINE
  5
C10
330
BD1
100
AcDbEntity
  8
0
  6
Continuous
 62
     7
370
    15
100
AcDbLine
 10
1916.792788387715
 20
975.5621894271572
 30
0.0
 11
1916.792788387715
 21
974.6770604522426
 31
0.0
  0
LINE
  5
C11
330
BD1
100
AcDbEntity
  8
0
  6
Continuous
 62
     7
370
    15
100
AcDbLine
 10
1916.792788387715
 20
974.6770604522426
 30
0.0
 11
1916.410694675027
 21
974.862192478915
 31
0.0
  0
LINE
  5
C12
330
BD1
100
AcDbEntity
  8
0
  6
Continuous
 62
     7
370
    15
100
AcDbLine
 10
1915.410694511114
 20
975.5621894271572
 30
0.0
 11
1916.410694675027
 21
975.5621894271572
 31
0.0
  0
LINE
  5
C13
330
BD1
100
AcDbEntity
  8
0
  6
Continuous
 62
     7
370
    15
100
AcDbLine
 10
1915.410694511114
 20
974.862192478915
 30
0.0
 11
1916.410694675027
 21
974.862192478915
 31
0.0
  0
LINE
  5
C14
330
BD1
100
AcDbEntity
  8
0
  6
Continuous
 62
     7
370
    15
100
AcDbLine
 10
1915.410694511114
 20
975.5621894271572
 30
0.0
 11
1915.410694511114
 21
974.862192478915
 31
0.0
  0
LINE
  5
C15
330
BD1
100
AcDbEntity
  8
0
  6
Continuous
 62
     7
370
    15
100
AcDbLine
 10
1954.01069599527
 20
974.862192478915
 30
0.0
 11
1954.01069599527
 21
974.5622619064052
 31
0.0
  0
LINE
  5
C16
330
BD1
100
AcDbEntity
  8
0
  6
Continuous
 62
     7
370
    15
100
AcDbLine
 10
1954.01069599527
 20
974.5622619064052
 30
0.0
 11
1952.577647597967
 21
974.5622619064052
 31
0.0
  0
LINE
  5
C17
330
BD1
100
AcDbEntity
  8
0
  6
Continuous
 62
     7
370
    15
100
AcDbLine
 10
1952.62860211867
 20
974.6770604522426
 30
0.0
 11
1952.577647597967
 21
974.5622619064052
 31
0.0
  0
LINE
  5
C18
330
BD1
100
AcDbEntity
  8
0
  6
Continuous
 62
     7
370
    15
100
AcDbLine
 10
1903.72860090199
 20
974.6770604522426
 30
0.0
 11
1903.72860090199
 21
975.5621894271572
 31
0.0
  0
LINE
  5
C19
330
BD1
100
AcDbEntity
  8
0
  6
Continuous
 62
     7
370
    15
100
AcDbLine
 10
1904.110694149016
 20
975.5621894271572
 30
0.0
 11
1904.110694149016
 21
974.862192478915
 31
0.0
  0
LINE
  5
C1A
330
BD1
100
AcDbEntity
  8
0
  6
Continuous
 62
     7
370
    15
100
AcDbLine
 10
1903.72860090199
 20
975.5621894271572
 30
0.0
 11
1904.110694149016
 21
975.5621894271572
 31
0.0
  0
LINE
  5
C1B
330
BD1
100
AcDbEntity
  8
0
  6
Continuous
 62
     7
370
    15
100
AcDbLine
 10
1937.710695744931
 20
975.5621894271572
 30
0.0
 11
1937.710695744931
 21
974.862192478915
 31
0.0
  0
LINE
  5
C1C
330
BD1
100
AcDbEntity
  8
0
  6
Continuous
 62
     7
370
    15
100
AcDbLine
 10
1936.710693718373
 20
974.862192478915
 30
0.0
 11
1937.710695744931
 21
974.862192478915
 31
0.0
  0
LINE
  5
C1D
330
BD1
100
AcDbEntity
  8
0
  6
Continuous
 62
     7
370
    15
100
AcDbLine
 10
1936.710693718373
 20
975.5621894271572
 30
0.0
 11
1936.710693718373
 21
974.862192478915
 31
0.0
  0
LINE
  5
C1E
330
BD1
100
AcDbEntity
  8
0
  6
Continuous
 62
     7
370
    15
100
AcDbLine
 10
1936.710693718373
 20
975.5621894271572
 30
0.0
 11
1937.710695744931
 21
975.5621894271572
 31
0.0
  0
LINE
  5
C1F
330
BD1
100
AcDbEntity
  8
0
  6
Continuous
 62
     7
370
    15
100
AcDbLine
 10
1936.32860186833
 20
974.6770604522426
 30
0.0
 11
1936.32860186833
 21
975.5621894271572
 31
0.0
  0
LINE
  5
C20
330
BD1
100
AcDbEntity
  8
0
  6
Continuous
 62
     7
370
    15
100
AcDbLine
 10
1936.710693718373
 20
974.862192478915
 30
0.0
 11
1936.32860186833
 21
974.6770604522426
 31
0.0
  0
LINE
  5
C21
330
BD1
100
AcDbEntity
  8
0
  6
Continuous
 62
     7
370
    15
100
AcDbLine
 10
1936.32860186833
 20
975.5621894271572
 30
0.0
 11
1936.710693718373
 21
975.5621894271572
 31
0.0
  0
LINE
  5
C22
330
BD1
100
AcDbEntity
  8
0
  6
Continuous
 62
     7
370
    15
100
AcDbLine
 10
1933.143743158757
 20
974.5622619064052
 30
0.0
 11
1933.092788638054
 21
974.6770604522426
 31
0.0
  0
LINE
  5
C23
330
BD1
100
AcDbEntity
  8
0
  6
Continuous
 62
     7
370
    15
100
AcDbLine
 10
1933.143743158757
 20
974.5622619064052
 30
0.0
 11
1931.710694761454
 21
974.5622619064052
 31
0.0
  0
LINE
  5
C24
330
BD1
100
AcDbEntity
  8
0
  6
Continuous
 62
     7
370
    15
100
AcDbLine
 10
1931.710694761454
 20
974.5622619064052
 30
0.0
 11
1931.710694761454
 21
974.862192478915
 31
0.0
  0
LINE
  5
C25
330
BD1
100
AcDbEntity
  8
0
  6
Continuous
 62
     7
370
    15
100
AcDbLine
 10
1931.710694761454
 20
974.862192478915
 30
0.0
 11
1932.710693062722
 21
974.862192478915
 31
0.0
  0
LINE
  5
C26
330
BD1
100
AcDbEntity
  8
0
  6
Continuous
 62
     7
370
    15
100
AcDbLine
 10
1933.092788638054
 20
974.6770604522426
 30
0.0
 11
1932.710693062722
 21
974.862192478915
 31
0.0
  0
LINE
  5
C27
330
BD1
100
AcDbEntity
  8
0
  6
Continuous
 62
     7
370
    15
100
AcDbLine
 10
1895.960694256677
 20
975.5621894271572
 30
0.0
 11
1896.960694304175
 21
975.5621894271572
 31
0.0
  0
LINE
  5
C28
330
BD1
100
AcDbEntity
  8
0
  6
Continuous
 62
     7
370
    15
100
AcDbLine
 10
1896.960694304175
 20
974.862192478915
 30
0.0
 11
1896.960694304175
 21
975.5621894271572
 31
0.0
  0
LINE
  5
C29
330
BD1
100
AcDbEntity
  8
0
  6
Continuous
 62
     7
370
    15
100
AcDbLine
 10
1929.560695619761
 20
975.5621894271572
 30
0.0
 11
1928.560693593203
 21
975.5621894271572
 31
0.0
  0
LINE
  5
C2A
330
BD1
100
AcDbEntity
  8
0
  6
Continuous
 62
     7
370
    15
100
AcDbLine
 10
1928.560693593203
 20
974.862192478915
 30
0.0
 11
1928.560693593203
 21
975.5621894271572
 31
0.0
  0
LINE
  5
C2B
330
BD1
100
AcDbEntity
  8
0
  6
Continuous
 62
     7
370
    15
100
AcDbLine
 10
1929.560695619761
 20
975.5621894271572
 30
0.0
 11
1929.560695619761
 21
974.862192478915
 31
0.0
  0
LINE
  5
C2C
330
BD1
100
AcDbEntity
  8
0
  6
Continuous
 62
     7
370
    15
100
AcDbLine
 10
1937.710695744931
 20
974.862192478915
 30
0.0
 11
1937.710695744931
 21
974.5622619064052
 31
0.0
  0
LINE
  5
C2D
330
BD1
100
AcDbEntity
  8
0
  6
Continuous
 62
     7
370
    15
100
AcDbLine
 10
1937.710695744931
 20
974.5622619064052
 30
0.0
 11
1936.277647347628
 21
974.5622619064052
 31
0.0
  0
LINE
  5
C2E
330
BD1
100
AcDbEntity
  8
0
  6
Continuous
 62
     7
370
    15
100
AcDbLine
 10
1936.32860186833
 20
974.6770604522426
 30
0.0
 11
1936.277647347628
 21
974.5622619064052
 31
0.0
  0
LINE
  5
C2F
330
BD1
100
AcDbEntity
  8
0
  6
Continuous
 62
     7
370
    15
100
AcDbLine
 10
1941.293743283926
 20
974.5622619064052
 30
0.0
 11
1941.242788763224
 21
974.6770604522426
 31
0.0
  0
LINE
  5
C30
330
BD1
100
AcDbEntity
  8
0
  6
Continuous
 62
     7
370
    15
100
AcDbLine
 10
1941.293743283926
 20
974.5622619064052
 30
0.0
 11
1939.860694886624
 21
974.5622619064052
 31
0.0
  0
LINE
  5
C31
330
BD1
100
AcDbEntity
  8
0
  6
Continuous
 62
     7
370
    15
100
AcDbLine
 10
1939.860694886624
 20
974.5622619064052
 30
0.0
 11
1939.860694886624
 21
974.862192478915
 31
0.0
  0
LINE
  5
C32
330
BD1
100
AcDbEntity
  8
0
  6
Continuous
 62
     7
370
    15
100
AcDbLine
 10
1939.860694886624
 20
974.862192478915
 30
0.0
 11
1940.860693187891
 21
974.862192478915
 31
0.0
  0
LINE
  5
C33
330
BD1
100
AcDbEntity
  8
0
  6
Continuous
 62
     7
370
    15
100
AcDbLine
 10
1941.242788763224
 20
974.6770604522426
 30
0.0
 11
1940.860693187891
 21
974.862192478915
 31
0.0
  0
LINE
  5
C34
330
BD1
100
AcDbEntity
  8
0
  6
Continuous
 62
     7
370
    15
100
AcDbLine
 10
1945.8606958701
 20
974.5622619064052
 30
0.0
 11
1944.427647472798
 21
974.5622619064052
 31
0.0
  0
LINE
  5
C35
330
BD1
100
AcDbEntity
  8
0
  6
Continuous
 62
     7
370
    15
100
AcDbLine
 10
1944.4786019935
 20
974.6770604522426
 30
0.0
 11
1944.427647472798
 21
974.5622619064052
 31
0.0
  0
LINE
  5
C36
330
BD1
100
AcDbEntity
  8
0
  6
Continuous
 62
     7
370
    15
100
AcDbLine
 10
1945.8606958701
 20
974.862192478915
 30
0.0
 11
1945.8606958701
 21
974.5622619064052
 31
0.0
  0
LINE
  5
C37
330
BD1
100
AcDbEntity
  8
0
  6
Continuous
 62
     7
370
    15
100
AcDbLine
 10
1940.860693187891
 20
975.5621894271572
 30
0.0
 11
1940.860693187891
 21
974.862192478915
 31
0.0
  0
LINE
  5
C38
330
BD1
100
AcDbEntity
  8
0
  6
Continuous
 62
     7
370
    15
100
AcDbLine
 10
1941.242788763224
 20
974.6770604522426
 30
0.0
 11
1941.242788763224
 21
975.5621894271572
 31
0.0
  0
LINE
  5
C39
330
BD1
100
AcDbEntity
  8
0
  6
Continuous
 62
     7
370
    15
100
AcDbLine
 10
1941.242788763224
 20
975.5621894271572
 30
0.0
 11
1940.860693187891
 21
975.5621894271572
 31
0.0
  0
LINE
  5
C3A
330
BD1
100
AcDbEntity
  8
0
  6
Continuous
 62
     7
370
    15
100
AcDbLine
 10
1939.860694886624
 20
975.5621894271572
 30
0.0
 11
1939.860694886624
 21
974.862192478915
 31
0.0
  0
LINE
  5
C3B
330
BD1
100
AcDbEntity
  8
0
  6
Continuous
 62
     7
370
    15
100
AcDbLine
 10
1940.860693187891
 20
975.5621894271572
 30
0.0
 11
1939.860694886624
 21
975.5621894271572
 31
0.0
  0
LINE
  5
C3C
330
BD1
100
AcDbEntity
  8
0
  6
Continuous
 62
     7
370
    15
100
AcDbLine
 10
1957.593743534266
 20
974.5622619064052
 30
0.0
 11
1957.542789013563
 21
974.6770604522426
 31
0.0
  0
LINE
  5
C3D
330
BD1
100
AcDbEntity
  8
0
  6
Continuous
 62
     7
370
    15
100
AcDbLine
 10
1957.593743534266
 20
974.5622619064052
 30
0.0
 11
1956.160695136963
 21
974.5622619064052
 31
0.0
  0
LINE
  5
C3E
330
BD1
100
AcDbEntity
  8
0
  6
Continuous
 62
     7
370
    15
100
AcDbLine
 10
1956.160695136963
 20
974.862192478915
 30
0.0
 11
1957.160693438231
 21
974.862192478915
 31
0.0
  0
LINE
  5
C3F
330
BD1
100
AcDbEntity
  8
0
  6
Continuous
 62
     7
370
    15
100
AcDbLine
 10
1957.542789013563
 20
974.6770604522426
 30
0.0
 11
1957.160693438231
 21
974.862192478915
 31
0.0
  0
LINE
  5
C40
330
BD1
100
AcDbEntity
  8
0
  6
Continuous
 62
     7
370
    15
100
AcDbLine
 10
1956.160695136963
 20
974.5622619064052
 30
0.0
 11
1956.160695136963
 21
974.862192478915
 31
0.0
  0
LINE
  5
C41
330
BD1
100
AcDbEntity
  8
0
  6
Continuous
 62
     7
370
    15
100
AcDbLine
 10
1928.178601743161
 20
975.5621894271572
 30
0.0
 11
1928.178601743161
 21
974.6770604522426
 31
0.0
  0
LINE
  5
C42
330
BD1
100
AcDbEntity
  8
0
  6
Continuous
 62
     7
370
    15
100
AcDbLine
 10
1928.560693593203
 20
975.5621894271572
 30
0.0
 11
1928.178601743161
 21
975.5621894271572
 31
0.0
  0
LINE
  5
C43
330
BD1
100
AcDbEntity
  8
0
  6
Continuous
 62
     7
370
    15
100
AcDbLine
 10
1923.560694636284
 20
974.862192478915
 30
0.0
 11
1924.560694800197
 21
974.862192478915
 31
0.0
  0
LINE
  5
C44
330
BD1
100
AcDbEntity
  8
0
  6
Continuous
 62
     7
370
    15
100
AcDbLine
 10
1924.942786650239
 20
974.6770604522426
 30
0.0
 11
1924.560694800197
 21
974.862192478915
 31
0.0
  0
LINE
  5
C45
330
BD1
100
AcDbEntity
  8
0
  6
Continuous
 62
     7
370
    15
100
AcDbLine
 10
1924.993741170942
 20
974.5622619064052
 30
0.0
 11
1924.942786650239
 21
974.6770604522426
 31
0.0
  0
LINE
  5
C46
330
BD1
100
AcDbEntity
  8
0
  6
Continuous
 62
     7
370
    15
100
AcDbLine
 10
1924.993741170942
 20
974.5622619064052
 30
0.0
 11
1923.560694636284
 21
974.5622619064052
 31
0.0
  0
LINE
  5
C47
330
BD1
100
AcDbEntity
  8
0
  6
Continuous
 62
     7
370
    15
100
AcDbLine
 10
1923.560694636284
 20
974.5622619064052
 30
0.0
 11
1923.560694636284
 21
974.862192478915
 31
0.0
  0
LINE
  5
C48
330
BD1
100
AcDbEntity
  8
0
  6
Continuous
 62
     7
370
    15
100
AcDbLine
 10
1969.310694219052
 20
975.5621894271572
 30
0.0
 11
1968.928598643719
 21
975.5621894271572
 31
0.0
  0
LINE
  5
C49
330
BD1
100
AcDbEntity
  8
0
  6
Continuous
 62
     7
370
    15
100
AcDbLine
 10
1969.310694219052
 20
974.862192478915
 30
0.0
 11
1969.310694219052
 21
975.5621894271572
 31
0.0
  0
LINE
  5
C4A
330
BD1
100
AcDbEntity
  8
0
  6
Continuous
 62
     7
370
    15
100
AcDbLine
 10
1968.928598643719
 20
974.6770604522426
 30
0.0
 11
1969.310694219052
 21
974.862192478915
 31
0.0
  0
LINE
  5
C4B
330
BD1
100
AcDbEntity
  8
0
  6
Continuous
 62
     7
370
    15
100
AcDbLine
 10
1968.928598643719
 20
975.5621894271572
 30
0.0
 11
1968.928598643719
 21
974.6770604522426
 31
0.0
  0
LINE
  5
C4C
330
BD1
100
AcDbEntity
  8
0
  6
Continuous
 62
     7
370
    15
100
AcDbLine
 10
1907.260694385945
 20
974.862192478915
 30
0.0
 11
1908.260694549857
 21
974.862192478915
 31
0.0
  0
LINE
  5
C4D
330
BD1
100
AcDbEntity
  8
0
  6
Continuous
 62
     7
370
    15
100
AcDbLine
 10
1908.642787331222
 20
974.6770604522426
 30
0.0
 11
1908.260694549857
 21
974.862192478915
 31
0.0
  0
LINE
  5
C4E
330
BD1
100
AcDbEntity
  8
0
  6
Continuous
 62
     7
370
    15
100
AcDbLine
 10
1908.693741851925
 20
974.5622619064052
 30
0.0
 11
1908.642787331222
 21
974.6770604522426
 31
0.0
  0
LINE
  5
C4F
330
BD1
100
AcDbEntity
  8
0
  6
Continuous
 62
     7
370
    15
100
AcDbLine
 10
1908.693741851925
 20
974.5622619064052
 30
0.0
 11
1907.260694385945
 21
974.5622619064052
 31
0.0
  0
LINE
  5
C50
330
BD1
100
AcDbEntity
  8
0
  6
Continuous
 62
     7
370
    15
100
AcDbLine
 10
1907.260694385945
 20
974.5622619064052
 30
0.0
 11
1907.260694385945
 21
974.862192478915
 31
0.0
  0
LINE
  5
C51
330
BD1
100
AcDbEntity
  8
0
  6
Continuous
 62
     7
370
    15
100
AcDbLine
 10
1890.960694135605
 20
974.862192478915
 30
0.0
 11
1890.960694135605
 21
975.5621894271572
 31
0.0
  0
LINE
  5
C52
330
BD1
100
AcDbEntity
  8
0
  6
Continuous
 62
     7
370
    15
100
AcDbLine
 10
1891.960694299518
 20
974.862192478915
 30
0.0
 11
1891.960694299518
 21
975.5621894271572
 31
0.0
  0
LINE
  5
C53
330
BD1
100
AcDbEntity
  8
0
  6
Continuous
 62
     7
370
    15
100
AcDbLine
 10
1890.960694135605
 20
975.5621894271572
 30
0.0
 11
1891.960694299518
 21
975.5621894271572
 31
0.0
  0
LINE
  5
C54
330
BD1
100
AcDbEntity
  8
0
  6
Continuous
 62
     7
370
    15
100
AcDbLine
 10
1924.560694800197
 20
975.5621894271572
 30
0.0
 11
1923.560694636284
 21
975.5621894271572
 31
0.0
  0
LINE
  5
C55
330
BD1
100
AcDbEntity
  8
0
  6
Continuous
 62
     7
370
    15
100
AcDbLine
 10
1924.560694800197
 20
975.5621894271572
 30
0.0
 11
1924.560694800197
 21
974.862192478915
 31
0.0
  0
LINE
  5
C56
330
BD1
100
AcDbEntity
  8
0
  6
Continuous
 62
     7
370
    15
100
AcDbLine
 10
1923.560694636284
 20
975.5621894271572
 30
0.0
 11
1923.560694636284
 21
974.862192478915
 31
0.0
  0
LINE
  5
C57
330
BD1
100
AcDbEntity
  8
0
  6
Continuous
 62
     7
370
    15
100
AcDbLine
 10
1916.843741045772
 20
974.5622619064052
 30
0.0
 11
1916.792788387715
 21
974.6770604522426
 31
0.0
  0
LINE
  5
C58
330
BD1
100
AcDbEntity
  8
0
  6
Continuous
 62
     7
370
    15
100
AcDbLine
 10
1916.843741045772
 20
974.5622619064052
 30
0.0
 11
1915.410694511114
 21
974.5622619064052
 31
0.0
  0
LINE
  5
C59
330
BD1
100
AcDbEntity
  8
0
  6
Continuous
 62
     7
370
    15
100
AcDbLine
 10
1915.410694511114
 20
974.5622619064052
 30
0.0
 11
1915.410694511114
 21
974.862192478915
 31
0.0
  0
LINE
  5
C5A
330
BD1
100
AcDbEntity
  8
0
  6
Continuous
 62
     7
370
    15
100
AcDbLine
 10
1892.342787546544
 20
975.5621894271572
 30
0.0
 11
1892.342787546544
 21
974.6770604522426
 31
0.0
  0
LINE
  5
C5B
330
BD1
100
AcDbEntity
  8
0
  6
Continuous
 62
     7
370
    15
100
AcDbLine
 10
1891.960694299518
 20
975.5621894271572
 30
0.0
 11
1892.342787546544
 21
975.5621894271572
 31
0.0
  0
LINE
  5
C5C
330
BD1
100
AcDbEntity
  8
0
  6
Continuous
 62
     7
370
    15
100
AcDbLine
 10
1900.110694191857
 20
974.862192478915
 30
0.0
 11
1900.110694191857
 21
975.5621894271572
 31
0.0
  0
LINE
  5
C5D
330
BD1
100
AcDbEntity
  8
0
  6
Continuous
 62
     7
370
    15
100
AcDbLine
 10
1900.492787671714
 20
975.5621894271572
 30
0.0
 11
1900.492787671714
 21
974.6770604522426
 31
0.0
  0
LINE
  5
C5E
330
BD1
100
AcDbEntity
  8
0
  6
Continuous
 62
     7
370
    15
100
AcDbLine
 10
1900.492787671714
 20
974.6770604522426
 30
0.0
 11
1900.110694191857
 21
974.862192478915
 31
0.0
  0
LINE
  5
C5F
330
BD1
100
AcDbEntity
  8
0
  6
Continuous
 62
     7
370
    15
100
AcDbLine
 10
1900.110694191857
 20
975.5621894271572
 30
0.0
 11
1900.492787671714
 21
975.5621894271572
 31
0.0
  0
LINE
  5
C60
330
BD1
100
AcDbEntity
  8
0
  6
Continuous
 62
     7
370
    15
100
AcDbLine
 10
1962.16069239515
 20
974.5622619064052
 30
0.0
 11
1960.727647723137
 21
974.5622619064052
 31
0.0
  0
LINE
  5
C61
330
BD1
100
AcDbEntity
  8
0
  6
Continuous
 62
     7
370
    15
100
AcDbLine
 10
1960.77860224384
 20
974.6770604522426
 30
0.0
 11
1960.727647723137
 21
974.5622619064052
 31
0.0
  0
LINE
  5
C62
330
BD1
100
AcDbEntity
  8
0
  6
Continuous
 62
     7
370
    15
100
AcDbLine
 10
1962.16069239515
 20
974.862192478915
 30
0.0
 11
1962.16069239515
 21
974.5622619064052
 31
0.0
  0
LINE
  5
C63
330
BD1
100
AcDbEntity
  8
0
  6
Continuous
 62
     7
370
    15
100
AcDbLine
 10
1932.710693062722
 20
974.862192478915
 30
0.0
 11
1932.710693062722
 21
975.5621894271572
 31
0.0
  0
LINE
  5
C64
330
BD1
100
AcDbEntity
  8
0
  6
Continuous
 62
     7
370
    15
100
AcDbLine
 10
1933.092788638054
 20
975.5621894271572
 30
0.0
 11
1933.092788638054
 21
974.6770604522426
 31
0.0
  0
LINE
  5
C65
330
BD1
100
AcDbEntity
  8
0
  6
Continuous
 62
     7
370
    15
100
AcDbLine
 10
1932.710693062722
 20
975.5621894271572
 30
0.0
 11
1933.092788638054
 21
975.5621894271572
 31
0.0
  0
LINE
  5
C66
330
BD1
100
AcDbEntity
  8
0
  6
Continuous
 62
     7
370
    15
100
AcDbLine
 10
1931.710694761454
 20
975.5621894271572
 30
0.0
 11
1931.710694761454
 21
974.862192478915
 31
0.0
  0
LINE
  5
C67
330
BD1
100
AcDbEntity
  8
0
  6
Continuous
 62
     7
370
    15
100
AcDbLine
 10
1931.710694761454
 20
975.5621894271572
 30
0.0
 11
1932.710693062722
 21
975.5621894271572
 31
0.0
  0
LINE
  5
C68
330
BD1
100
AcDbEntity
  8
0
  6
Continuous
 62
     7
370
    15
100
AcDbLine
 10
1912.260694274186
 20
974.862192478915
 30
0.0
 11
1913.260694438099
 21
974.862192478915
 31
0.0
  0
LINE
  5
C69
330
BD1
100
AcDbEntity
  8
0
  6
Continuous
 62
     7
370
    15
100
AcDbLine
 10
1913.260694438099
 20
975.5621894271572
 30
0.0
 11
1912.260694274186
 21
975.5621894271572
 31
0.0
  0
LINE
  5
C6A
330
BD1
100
AcDbEntity
  8
0
  6
Continuous
 62
     7
370
    15
100
AcDbLine
 10
1913.260694438099
 20
975.5621894271572
 30
0.0
 11
1913.260694438099
 21
974.862192478915
 31
0.0
  0
LINE
  5
C6B
330
BD1
100
AcDbEntity
  8
0
  6
Continuous
 62
     7
370
    15
100
AcDbLine
 10
1970.31069624561
 20
974.862192478915
 30
0.0
 11
1970.31069624561
 21
975.5621894271572
 31
0.0
  0
LINE
  5
C6C
330
BD1
100
AcDbEntity
  8
0
  6
Continuous
 62
     7
370
    15
100
AcDbLine
 10
1970.31069624561
 20
974.862192478915
 30
0.0
 11
1969.310694219052
 21
974.862192478915
 31
0.0
  0
LINE
  5
C6D
330
BD1
100
AcDbEntity
  8
0
  6
Continuous
 62
     7
370
    15
100
AcDbLine
 10
1970.31069624561
 20
975.5621894271572
 30
0.0
 11
1969.310694219052
 21
975.5621894271572
 31
0.0
  0
LINE
  5
C6E
330
BD1
100
AcDbEntity
  8
0
  6
Continuous
 62
     7
370
    15
100
AcDbLine
 10
1924.942786650239
 20
975.5621894271572
 30
0.0
 11
1924.560694800197
 21
975.5621894271572
 31
0.0
  0
LINE
  5
C6F
330
BD1
100
AcDbEntity
  8
0
  6
Continuous
 62
     7
370
    15
100
AcDbLine
 10
1924.942786650239
 20
974.6770604522426
 30
0.0
 11
1924.942786650239
 21
975.5621894271572
 31
0.0
  0
LINE
  5
C70
330
BD1
100
AcDbEntity
  8
0
  6
Continuous
 62
     7
370
    15
100
AcDbLine
 10
1965.692789138733
 20
974.6770604522426
 30
0.0
 11
1965.692789138733
 21
975.5621894271572
 31
0.0
  0
LINE
  5
C71
330
BD1
100
AcDbEntity
  8
0
  6
Continuous
 62
     7
370
    15
100
AcDbLine
 10
1965.310693563401
 20
974.862192478915
 30
0.0
 11
1965.692789138733
 21
974.6770604522426
 31
0.0
  0
LINE
  5
C72
330
BD1
100
AcDbEntity
  8
0
  6
Continuous
 62
     7
370
    15
100
AcDbLine
 10
1965.310693563401
 20
975.5621894271572
 30
0.0
 11
1965.310693563401
 21
974.862192478915
 31
0.0
  0
LINE
  5
C73
330
BD1
100
AcDbEntity
  8
0
  6
Continuous
 62
     7
370
    15
100
AcDbLine
 10
1965.692789138733
 20
975.5621894271572
 30
0.0
 11
1965.310693563401
 21
975.5621894271572
 31
0.0
  0
LINE
  5
C74
330
BD1
100
AcDbEntity
  8
0
  6
Continuous
 62
     7
370
    15
100
AcDbLine
 10
1920.410693468033
 20
974.862192478915
 30
0.0
 11
1921.410693631946
 21
974.862192478915
 31
0.0
  0
LINE
  5
C75
330
BD1
100
AcDbEntity
  8
0
  6
Continuous
 62
     7
370
    15
100
AcDbLine
 10
1921.410693631946
 20
974.5622619064052
 30
0.0
 11
1919.977647097288
 21
974.5622619064052
 31
0.0
  0
LINE
  5
C76
330
BD1
100
AcDbEntity
  8
0
  6
Continuous
 62
     7
370
    15
100
AcDbLine
 10
1920.028601617991
 20
974.6770604522426
 30
0.0
 11
1919.977647097288
 21
974.5622619064052
 31
0.0
  0
LINE
  5
C77
330
BD1
100
AcDbEntity
  8
0
  6
Continuous
 62
     7
370
    15
100
AcDbLine
 10
1920.410693468033
 20
974.862192478915
 30
0.0
 11
1920.028601617991
 21
974.6770604522426
 31
0.0
  0
LINE
  5
C78
330
BD1
100
AcDbEntity
  8
0
  6
Continuous
 62
     7
370
    15
100
AcDbLine
 10
1921.410693631946
 20
974.862192478915
 30
0.0
 11
1921.410693631946
 21
974.5622619064052
 31
0.0
  0
LINE
  5
C79
330
BD1
100
AcDbEntity
  8
0
  6
Continuous
 62
     7
370
    15
100
AcDbLine
 10
1905.110694312929
 20
975.5621894271572
 30
0.0
 11
1905.110694312929
 21
974.862192478915
 31
0.0
  0
LINE
  5
C7A
330
BD1
100
AcDbEntity
  8
0
  6
Continuous
 62
     7
370
    15
100
AcDbLine
 10
1904.110694149016
 20
975.5621894271572
 30
0.0
 11
1905.110694312929
 21
975.5621894271572
 31
0.0
  0
LINE
  5
C7B
330
BD1
100
AcDbEntity
  8
0
  6
Continuous
 62
     7
370
    15
100
AcDbLine
 10
1908.260694549857
 20
975.5621894271572
 30
0.0
 11
1908.260694549857
 21
974.862192478915
 31
0.0
  0
LINE
  5
C7C
330
BD1
100
AcDbEntity
  8
0
  6
Continuous
 62
     7
370
    15
100
AcDbLine
 10
1908.642787331222
 20
974.6770604522426
 30
0.0
 11
1908.642787331222
 21
975.5621894271572
 31
0.0
  0
LINE
  5
C7D
330
BD1
100
AcDbEntity
  8
0
  6
Continuous
 62
     7
370
    15
100
AcDbLine
 10
1908.642787331222
 20
975.5621894271572
 30
0.0
 11
1908.260694549857
 21
975.5621894271572
 31
0.0
  0
LINE
  5
C7E
330
BD1
100
AcDbEntity
  8
0
  6
Continuous
 62
     7
370
    15
100
AcDbLine
 10
1968.877644123017
 20
974.5622619064052
 30
0.0
 11
1970.31069624561
 21
974.5622619064052
 31
0.0
  0
LINE
  5
C7F
330
BD1
100
AcDbEntity
  8
0
  6
Continuous
 62
     7
370
    15
100
AcDbLine
 10
1968.928598643719
 20
974.6770604522426
 30
0.0
 11
1968.877644123017
 21
974.5622619064052
 31
0.0
  0
LINE
  5
C80
330
BD1
100
AcDbEntity
  8
0
  6
Continuous
 62
     7
370
    15
100
AcDbLine
 10
1970.31069624561
 20
974.5622619064052
 30
0.0
 11
1970.31069624561
 21
974.862192478915
 31
0.0
  0
LINE
  5
C81
330
BD1
100
AcDbEntity
  8
0
  6
Continuous
 62
     7
370
    15
100
AcDbLine
 10
1899.110694260775
 20
974.862192478915
 30
0.0
 11
1900.110694191857
 21
974.862192478915
 31
0.0
  0
LINE
  5
C82
330
BD1
100
AcDbEntity
  8
0
  6
Continuous
 62
     7
370
    15
100
AcDbLine
 10
1900.543741726755
 20
974.5622619064052
 30
0.0
 11
1900.492787671714
 21
974.6770604522426
 31
0.0
  0
LINE
  5
C83
330
BD1
100
AcDbEntity
  8
0
  6
Continuous
 62
     7
370
    15
100
AcDbLine
 10
1900.543741726755
 20
974.5622619064052
 30
0.0
 11
1899.110694260775
 21
974.5622619064052
 31
0.0
  0
LINE
  5
C84
330
BD1
100
AcDbEntity
  8
0
  6
Continuous
 62
     7
370
    15
100
AcDbLine
 10
1899.110694260775
 20
974.5622619064052
 30
0.0
 11
1899.110694260775
 21
974.862192478915
 31
0.0
  0
LINE
  5
C85
330
BD1
100
AcDbEntity
  8
0
  6
Continuous
 62
     7
370
    15
100
AcDbLine
 10
1920.410693468033
 20
975.5621894271572
 30
0.0
 11
1920.410693468033
 21
974.862192478915
 31
0.0
  0
LINE
  5
C86
330
BD1
100
AcDbEntity
  8
0
  6
Continuous
 62
     7
370
    15
100
AcDbLine
 10
1921.410693631946
 20
975.5621894271572
 30
0.0
 11
1921.410693631946
 21
974.862192478915
 31
0.0
  0
LINE
  5
C87
330
BD1
100
AcDbEntity
  8
0
  6
Continuous
 62
     7
370
    15
100
AcDbLine
 10
1920.410693468033
 20
975.5621894271572
 30
0.0
 11
1921.410693631946
 21
975.5621894271572
 31
0.0
  0
LINE
  5
C88
330
BD1
100
AcDbEntity
  8
0
  6
Continuous
 62
     7
370
    15
100
AcDbLine
 10
1920.028601617991
 20
974.6770604522426
 30
0.0
 11
1920.028601617991
 21
975.5621894271572
 31
0.0
  0
LINE
  5
C89
330
BD1
100
AcDbEntity
  8
0
  6
Continuous
 62
     7
370
    15
100
AcDbLine
 10
1920.028601617991
 20
975.5621894271572
 30
0.0
 11
1920.410693468033
 21
975.5621894271572
 31
0.0
  0
LINE
  5
C8A
330
BD1
100
AcDbEntity
  8
0
  6
Continuous
 62
     7
370
    15
100
AcDbLine
 10
1908.260694549857
 20
975.5621894271572
 30
0.0
 11
1907.260694385945
 21
975.5621894271572
 31
0.0
  0
LINE
  5
C8B
330
BD1
100
AcDbEntity
  8
0
  6
Continuous
 62
     7
370
    15
100
AcDbLine
 10
1907.260694385945
 20
975.5621894271572
 30
0.0
 11
1907.260694385945
 21
974.862192478915
 31
0.0
  0
LINE
  5
C8C
330
BD1
100
AcDbEntity
  8
0
  6
Continuous
 62
     7
370
    15
100
AcDbLine
 10
1957.160693438231
 20
975.5621894271572
 30
0.0
 11
1957.160693438231
 21
974.862192478915
 31
0.0
  0
LINE
  5
C8D
330
BD1
100
AcDbEntity
  8
0
  6
Continuous
 62
     7
370
    15
100
AcDbLine
 10
1957.160693438231
 20
975.5621894271572
 30
0.0
 11
1956.160695136963
 21
975.5621894271572
 31
0.0
  0
LINE
  5
C8E
330
BD1
100
AcDbEntity
  8
0
  6
Continuous
 62
     7
370
    15
100
AcDbLine
 10
1956.160695136963
 20
975.5621894271572
 30
0.0
 11
1956.160695136963
 21
974.862192478915
 31
0.0
  0
LINE
  5
C8F
330
BD1
100
AcDbEntity
  8
0
  6
Continuous
 62
     7
370
    15
100
AcDbLine
 10
1899.110694260775
 20
975.5621894271572
 30
0.0
 11
1899.110694260775
 21
974.862192478915
 31
0.0
  0
LINE
  5
C90
330
BD1
100
AcDbEntity
  8
0
  6
Continuous
 62
     7
370
    15
100
AcDbLine
 10
1899.110694260775
 20
975.5621894271572
 30
0.0
 11
1900.110694191857
 21
975.5621894271572
 31
0.0
  0
LINE
  5
C91
330
BD1
100
AcDbEntity
  8
0
  6
Continuous
 62
     7
370
    15
100
AcDbLine
 10
1957.542789013563
 20
974.6770604522426
 30
0.0
 11
1957.542789013563
 21
975.5621894271572
 31
0.0
  0
LINE
  5
C92
330
BD1
100
AcDbEntity
  8
0
  6
Continuous
 62
     7
370
    15
100
AcDbLine
 10
1957.542789013563
 20
975.5621894271572
 30
0.0
 11
1957.160693438231
 21
975.5621894271572
 31
0.0
  0
LINE
  5
C93
330
BD1
100
AcDbEntity
  8
0
  6
Continuous
 62
     7
370
    15
100
AcDbLine
 10
1913.260694438099
 20
974.5622619064052
 30
0.0
 11
1911.827646972119
 21
974.5622619064052
 31
0.0
  0
LINE
  5
C94
330
BD1
100
AcDbEntity
  8
0
  6
Continuous
 62
     7
370
    15
100
AcDbLine
 10
1911.878600561498
 20
974.6770604522426
 30
0.0
 11
1911.827646972119
 21
974.5622619064052
 31
0.0
  0
LINE
  5
C95
330
BD1
100
AcDbEntity
  8
0
  6
Continuous
 62
     7
370
    15
100
AcDbLine
 10
1913.260694438099
 20
974.862192478915
 30
0.0
 11
1913.260694438099
 21
974.5622619064052
 31
0.0
  0
LINE
  5
C96
330
BD1
100
AcDbEntity
  8
0
  6
Continuous
 62
     7
370
    15
100
AcDbLine
 10
1965.310693563401
 20
974.862192478915
 30
0.0
 11
1964.310691536843
 21
974.862192478915
 31
0.0
  0
LINE
  5
C97
330
BD1
100
AcDbEntity
  8
0
  6
Continuous
 62
     7
370
    15
100
AcDbLine
 10
1965.743743659436
 20
974.5622619064052
 30
0.0
 11
1965.692789138733
 21
974.6770604522426
 31
0.0
  0
LINE
  5
C98
330
BD1
100
AcDbEntity
  8
0
  6
Continuous
 62
     7
370
    15
100
AcDbLine
 10
1964.310691536843
 20
974.5622619064052
 30
0.0
 11
1965.743743659436
 21
974.5622619064052
 31
0.0
  0
LINE
  5
C99
330
BD1
100
AcDbEntity
  8
0
  6
Continuous
 62
     7
370
    15
100
AcDbLine
 10
1964.310691536843
 20
974.862192478915
 30
0.0
 11
1964.310691536843
 21
974.5622619064052
 31
0.0
  0
LINE
  5
C9A
330
BD1
100
AcDbEntity
  8
0
  6
Continuous
 62
     7
370
    15
100
AcDbLine
 10
1964.310691536843
 20
974.862192478915
 30
0.0
 11
1964.310691536843
 21
975.5621894271572
 31
0.0
  0
LINE
  5
C9B
330
BD1
100
AcDbEntity
  8
0
  6
Continuous
 62
     7
370
    15
100
AcDbLine
 10
1965.310693563401
 20
975.5621894271572
 30
0.0
 11
1964.310691536843
 21
975.5621894271572
 31
0.0
  0
LINE
  5
C9C
330
BD1
100
AcDbEntity
  8
0
  6
Continuous
 62
     7
370
    15
100
AcDbLine
 10
1908.765259975075
 20
974.5622619064052
 30
0.0
 11
1908.765259975075
 21
975.5621894271572
 31
0.0
  0
LINE
  5
C9D
330
BD1
100
AcDbEntity
  8
0
  6
Continuous
 62
     7
370
    15
100
AcDbLine
 10
1908.765259975075
 20
974.5622619064052
 30
0.0
 11
1908.693741851925
 21
974.5622619064052
 31
0.0
  0
LINE
  5
C9E
330
BD1
100
AcDbEntity
  8
0
  6
Continuous
 62
     7
370
    15
100
AcDbLine
 10
1908.765259975075
 20
975.5621894271572
 30
0.0
 11
1908.642787331222
 21
975.5621894271572
 31
0.0
  0
LINE
  5
C9F
330
BD1
100
AcDbEntity
  8
0
  6
Continuous
 62
     7
370
    15
100
AcDbLine
 10
1895.45612883146
 20
974.5622619064052
 30
0.0
 11
1895.527646721779
 21
974.5622619064052
 31
0.0
  0
LINE
  5
CA0
330
BD1
100
AcDbEntity
  8
0
  6
Continuous
 62
     7
370
    15
100
AcDbLine
 10
1895.45612883146
 20
974.5622619064052
 30
0.0
 11
1895.45612883146
 21
975.5621894271572
 31
0.0
  0
LINE
  5
CA1
330
BD1
100
AcDbEntity
  8
0
  6
Continuous
 62
     7
370
    15
100
AcDbLine
 10
1895.45612883146
 20
975.5621894271572
 30
0.0
 11
1895.578601009651
 21
975.5621894271572
 31
0.0
  0
LINE
  5
CA2
330
BD1
100
AcDbEntity
  8
0
  6
Continuous
 62
     7
370
    15
100
AcDbLine
 10
1952.506129474818
 20
974.5622619064052
 30
0.0
 11
1952.577647597967
 21
974.5622619064052
 31
0.0
  0
LINE
  5
CA3
330
BD1
100
AcDbEntity
  8
0
  6
Continuous
 62
     7
370
    15
100
AcDbLine
 10
1952.506129474818
 20
974.5622619064052
 30
0.0
 11
1952.506129474818
 21
975.5621894271572
 31
0.0
  0
LINE
  5
CA4
330
BD1
100
AcDbEntity
  8
0
  6
Continuous
 62
     7
370
    15
100
AcDbLine
 10
1952.506129474818
 20
975.5621894271572
 30
0.0
 11
1952.62860211867
 21
975.5621894271572
 31
0.0
  0
LINE
  5
CA5
330
BD1
100
AcDbEntity
  8
0
  6
Continuous
 62
     7
370
    15
100
AcDbLine
 10
1968.877644123017
 20
974.5622619064052
 30
0.0
 11
1968.806125999867
 21
974.5622619064052
 31
0.0
  0
LINE
  5
CA6
330
BD1
100
AcDbEntity
  8
0
  6
Continuous
 62
     7
370
    15
100
AcDbLine
 10
1968.806125999867
 20
974.5622619064052
 30
0.0
 11
1968.806125999867
 21
975.5621894271572
 31
0.0
  0
LINE
  5
CA7
330
BD1
100
AcDbEntity
  8
0
  6
Continuous
 62
     7
370
    15
100
AcDbLine
 10
1968.928598643719
 20
975.5621894271572
 30
0.0
 11
1968.806125999867
 21
975.5621894271572
 31
0.0
  0
LINE
  5
CA8
330
BD1
100
AcDbEntity
  8
0
  6
Continuous
 62
     7
370
    15
100
AcDbLine
 10
1957.665257932125
 20
974.5622619064052
 30
0.0
 11
1957.665257932125
 21
975.5621894271572
 31
0.0
  0
LINE
  5
CA9
330
BD1
100
AcDbEntity
  8
0
  6
Continuous
 62
     7
370
    15
100
AcDbLine
 10
1957.665257932125
 20
974.5622619064052
 30
0.0
 11
1957.593743534266
 21
974.5622619064052
 31
0.0
  0
LINE
  5
CAA
330
BD1
100
AcDbEntity
  8
0
  6
Continuous
 62
     7
370
    15
100
AcDbLine
 10
1957.665257932125
 20
975.5621894271572
 30
0.0
 11
1957.542789013563
 21
975.5621894271572
 31
0.0
  0
LINE
  5
CAB
330
BD1
100
AcDbEntity
  8
0
  6
Continuous
 62
     7
370
    15
100
AcDbLine
 10
1933.215261281906
 20
974.5622619064052
 30
0.0
 11
1933.215261281906
 21
975.5621894271572
 31
0.0
  0
LINE
  5
CAC
330
BD1
100
AcDbEntity
  8
0
  6
Continuous
 62
     7
370
    15
100
AcDbLine
 10
1933.143743158757
 20
974.5622619064052
 30
0.0
 11
1933.215261281906
 21
974.5622619064052
 31
0.0
  0
LINE
  5
CAD
330
BD1
100
AcDbEntity
  8
0
  6
Continuous
 62
     7
370
    15
100
AcDbLine
 10
1933.092788638054
 20
975.5621894271572
 30
0.0
 11
1933.215261281906
 21
975.5621894271572
 31
0.0
  0
LINE
  5
CAE
330
BD1
100
AcDbEntity
  8
0
  6
Continuous
 62
     7
370
    15
100
AcDbLine
 10
1936.206129224478
 20
974.5622619064052
 30
0.0
 11
1936.277647347628
 21
974.5622619064052
 31
0.0
  0
LINE
  5
CAF
330
BD1
100
AcDbEntity
  8
0
  6
Continuous
 62
     7
370
    15
100
AcDbLine
 10
1936.206129224478
 20
974.5622619064052
 30
0.0
 11
1936.206129224478
 21
975.5621894271572
 31
0.0
  0
LINE
  5
CB0
330
BD1
100
AcDbEntity
  8
0
  6
Continuous
 62
     7
370
    15
100
AcDbLine
 10
1936.206129224478
 20
975.5621894271572
 30
0.0
 11
1936.32860186833
 21
975.5621894271572
 31
0.0
  0
LINE
  5
CB1
330
BD1
100
AcDbEntity
  8
0
  6
Continuous
 62
     7
370
    15
100
AcDbLine
 10
1944.427647472798
 20
974.5622619064052
 30
0.0
 11
1944.356129349648
 21
974.5622619064052
 31
0.0
  0
LINE
  5
CB2
330
BD1
100
AcDbEntity
  8
0
  6
Continuous
 62
     7
370
    15
100
AcDbLine
 10
1944.356129349648
 20
974.5622619064052
 30
0.0
 11
1944.356129349648
 21
975.5621894271572
 31
0.0
  0
LINE
  5
CB3
330
BD1
100
AcDbEntity
  8
0
  6
Continuous
 62
     7
370
    15
100
AcDbLine
 10
1944.4786019935
 20
975.5621894271572
 30
0.0
 11
1944.356129349648
 21
975.5621894271572
 31
0.0
  0
LINE
  5
CB4
330
BD1
100
AcDbEntity
  8
0
  6
Continuous
 62
     7
370
    15
100
AcDbLine
 10
1892.465259724735
 20
974.5622619064052
 30
0.0
 11
1892.465259724735
 21
975.5621894271572
 31
0.0
  0
LINE
  5
CB5
330
BD1
100
AcDbEntity
  8
0
  6
Continuous
 62
     7
370
    15
100
AcDbLine
 10
1892.393741601585
 20
974.5622619064052
 30
0.0
 11
1892.465259724735
 21
974.5622619064052
 31
0.0
  0
LINE
  5
CB6
330
BD1
100
AcDbEntity
  8
0
  6
Continuous
 62
     7
370
    15
100
AcDbLine
 10
1892.342787546544
 20
975.5621894271572
 30
0.0
 11
1892.465259724735
 21
975.5621894271572
 31
0.0
  0
LINE
  5
CB7
330
BD1
100
AcDbEntity
  8
0
  6
Continuous
 62
     7
370
    15
100
AcDbLine
 10
1941.365261407076
 20
974.5622619064052
 30
0.0
 11
1941.365261407076
 21
975.5621894271572
 31
0.0
  0
LINE
  5
CB8
330
BD1
100
AcDbEntity
  8
0
  6
Continuous
 62
     7
370
    15
100
AcDbLine
 10
1941.365261407076
 20
974.5622619064052
 30
0.0
 11
1941.293743283926
 21
974.5622619064052
 31
0.0
  0
LINE
  5
CB9
330
BD1
100
AcDbEntity
  8
0
  6
Continuous
 62
     7
370
    15
100
AcDbLine
 10
1941.365261407076
 20
975.5621894271572
 30
0.0
 11
1941.242788763224
 21
975.5621894271572
 31
0.0
  0
LINE
  5
CBA
330
BD1
100
AcDbEntity
  8
0
  6
Continuous
 62
     7
370
    15
100
AcDbLine
 10
1949.515261532246
 20
974.5622619064052
 30
0.0
 11
1949.515261532246
 21
975.5621894271572
 31
0.0
  0
LINE
  5
CBB
330
BD1
100
AcDbEntity
  8
0
  6
Continuous
 62
     7
370
    15
100
AcDbLine
 10
1949.443743409096
 20
974.5622619064052
 30
0.0
 11
1949.515261532246
 21
974.5622619064052
 31
0.0
  0
LINE
  5
CBC
330
BD1
100
AcDbEntity
  8
0
  6
Continuous
 62
     7
370
    15
100
AcDbLine
 10
1949.392788888394
 20
975.5621894271572
 30
0.0
 11
1949.515261532246
 21
975.5621894271572
 31
0.0
  0
LINE
  5
CBD
330
BD1
100
AcDbEntity
  8
0
  6
Continuous
 62
     7
370
    15
100
AcDbLine
 10
1911.827646972119
 20
974.5622619064052
 30
0.0
 11
1911.756128848969
 21
974.5622619064052
 31
0.0
  0
LINE
  5
CBE
330
BD1
100
AcDbEntity
  8
0
  6
Continuous
 62
     7
370
    15
100
AcDbLine
 10
1911.756128848969
 20
974.5622619064052
 30
0.0
 11
1911.756128848969
 21
975.5621894271572
 31
0.0
  0
LINE
  5
CBF
330
BD1
100
AcDbEntity
  8
0
  6
Continuous
 62
     7
370
    15
100
AcDbLine
 10
1911.878600561498
 20
975.5621894271572
 30
0.0
 11
1911.756128848969
 21
975.5621894271572
 31
0.0
  0
LINE
  5
CC0
330
BD1
100
AcDbEntity
  8
0
  6
Continuous
 62
     7
370
    15
100
AcDbLine
 10
1928.127647222458
 20
974.5622619064052
 30
0.0
 11
1928.056129099308
 21
974.5622619064052
 31
0.0
  0
LINE
  5
CC1
330
BD1
100
AcDbEntity
  8
0
  6
Continuous
 62
     7
370
    15
100
AcDbLine
 10
1928.056129099308
 20
974.5622619064052
 30
0.0
 11
1928.056129099308
 21
975.5621894271572
 31
0.0
  0
LINE
  5
CC2
330
BD1
100
AcDbEntity
  8
0
  6
Continuous
 62
     7
370
    15
100
AcDbLine
 10
1928.178601743161
 20
975.5621894271572
 30
0.0
 11
1928.056129099308
 21
975.5621894271572
 31
0.0
  0
LINE
  5
CC3
330
BD1
100
AcDbEntity
  8
0
  6
Continuous
 62
     7
370
    15
100
AcDbLine
 10
1903.606128723799
 20
974.5622619064052
 30
0.0
 11
1903.677646846949
 21
974.5622619064052
 31
0.0
  0
LINE
  5
CC4
330
BD1
100
AcDbEntity
  8
0
  6
Continuous
 62
     7
370
    15
100
AcDbLine
 10
1903.606128723799
 20
974.5622619064052
 30
0.0
 11
1903.606128723799
 21
975.5621894271572
 31
0.0
  0
LINE
  5
CC5
330
BD1
100
AcDbEntity
  8
0
  6
Continuous
 62
     7
370
    15
100
AcDbLine
 10
1903.606128723799
 20
975.5621894271572
 30
0.0
 11
1903.72860090199
 21
975.5621894271572
 31
0.0
  0
LINE
  5
CC6
330
BD1
100
AcDbEntity
  8
0
  6
Continuous
 62
     7
370
    15
100
AcDbLine
 10
1960.727647723137
 20
974.5622619064052
 30
0.0
 11
1960.656129599987
 21
974.5622619064052
 31
0.0
  0
LINE
  5
CC7
330
BD1
100
AcDbEntity
  8
0
  6
Continuous
 62
     7
370
    15
100
AcDbLine
 10
1960.656129599987
 20
974.5622619064052
 30
0.0
 11
1960.656129599987
 21
975.5621894271572
 31
0.0
  0
LINE
  5
CC8
330
BD1
100
AcDbEntity
  8
0
  6
Continuous
 62
     7
370
    15
100
AcDbLine
 10
1960.77860224384
 20
975.5621894271572
 30
0.0
 11
1960.656129599987
 21
975.5621894271572
 31
0.0
  0
LINE
  5
CC9
330
BD1
100
AcDbEntity
  8
0
  6
Continuous
 62
     7
370
    15
100
AcDbLine
 10
1919.906128974139
 20
974.5622619064052
 30
0.0
 11
1919.977647097288
 21
974.5622619064052
 31
0.0
  0
LINE
  5
CCA
330
BD1
100
AcDbEntity
  8
0
  6
Continuous
 62
     7
370
    15
100
AcDbLine
 10
1919.906128974139
 20
974.5622619064052
 30
0.0
 11
1919.906128974139
 21
975.5621894271572
 31
0.0
  0
LINE
  5
CCB
330
BD1
100
AcDbEntity
  8
0
  6
Continuous
 62
     7
370
    15
100
AcDbLine
 10
1919.906128974139
 20
975.5621894271572
 30
0.0
 11
1920.028601617991
 21
975.5621894271572
 31
0.0
  0
LINE
  5
CCC
330
BD1
100
AcDbEntity
  8
0
  6
Continuous
 62
     7
370
    15
100
AcDbLine
 10
1965.815261782585
 20
974.5622619064052
 30
0.0
 11
1965.815261782585
 21
975.5621894271572
 31
0.0
  0
LINE
  5
CCD
330
BD1
100
AcDbEntity
  8
0
  6
Continuous
 62
     7
370
    15
100
AcDbLine
 10
1965.815261782585
 20
974.5622619064052
 30
0.0
 11
1965.743743659436
 21
974.5622619064052
 31
0.0
  0
LINE
  5
CCE
330
BD1
100
AcDbEntity
  8
0
  6
Continuous
 62
     7
370
    15
100
AcDbLine
 10
1965.815261782585
 20
975.5621894271572
 30
0.0
 11
1965.692789138733
 21
975.5621894271572
 31
0.0
  0
LINE
  5
CCF
330
BD1
100
AcDbEntity
  8
0
  6
Continuous
 62
     7
370
    15
100
AcDbLine
 10
1916.915259168922
 20
974.5622619064052
 30
0.0
 11
1916.915259168922
 21
975.5621894271572
 31
0.0
  0
LINE
  5
CD0
330
BD1
100
AcDbEntity
  8
0
  6
Continuous
 62
     7
370
    15
100
AcDbLine
 10
1916.843741045772
 20
974.5622619064052
 30
0.0
 11
1916.915259168922
 21
974.5622619064052
 31
0.0
  0
LINE
  5
CD1
330
BD1
100
AcDbEntity
  8
0
  6
Continuous
 62
     7
370
    15
100
AcDbLine
 10
1916.792788387715
 20
975.5621894271572
 30
0.0
 11
1916.915259168922
 21
975.5621894271572
 31
0.0
  0
LINE
  5
CD2
330
BD1
100
AcDbEntity
  8
0
  6
Continuous
 62
     7
370
    15
100
AcDbLine
 10
1900.615259617074
 20
974.5622619064052
 30
0.0
 11
1900.615259617074
 21
975.5621894271572
 31
0.0
  0
LINE
  5
CD3
330
BD1
100
AcDbEntity
  8
0
  6
Continuous
 62
     7
370
    15
100
AcDbLine
 10
1900.543741726755
 20
974.5622619064052
 30
0.0
 11
1900.615259617074
 21
974.5622619064052
 31
0.0
  0
LINE
  5
CD4
330
BD1
100
AcDbEntity
  8
0
  6
Continuous
 62
     7
370
    15
100
AcDbLine
 10
1900.492787671714
 20
975.5621894271572
 30
0.0
 11
1900.615259617074
 21
975.5621894271572
 31
0.0
  0
LINE
  5
CD5
330
BD1
100
AcDbEntity
  8
0
  6
Continuous
 62
     7
370
    15
100
AcDbLine
 10
1925.065259294092
 20
974.5622619064052
 30
0.0
 11
1925.065259294092
 21
975.5621894271572
 31
0.0
  0
LINE
  5
CD6
330
BD1
100
AcDbEntity
  8
0
  6
Continuous
 62
     7
370
    15
100
AcDbLine
 10
1925.065259294092
 20
974.5622619064052
 30
0.0
 11
1924.993741170942
 21
974.5622619064052
 31
0.0
  0
LINE
  5
CD7
330
BD1
100
AcDbEntity
  8
0
  6
Continuous
 62
     7
370
    15
100
AcDbLine
 10
1925.065259294092
 20
975.5621894271572
 30
0.0
 11
1924.942786650239
 21
975.5621894271572
 31
0.0
  0
LINE
  5
CD8
330
BD1
100
AcDbEntity
  8
0
  6
Continuous
 62
     7
370
    15
100
AcDbLine
 10
1960.656129599987
 20
974.5622619064052
 30
0.0
 11
1957.665257932125
 21
974.5622619064052
 31
0.0
  0
LINE
  5
CD9
330
BD1
100
AcDbEntity
  8
0
  6
Continuous
 62
     7
370
    15
100
AcDbLine
 10
1960.656129599987
 20
975.5621894271572
 30
0.0
 11
1957.665257932125
 21
975.5621894271572
 31
0.0
  0
LINE
  5
CDA
330
BD1
100
AcDbEntity
  8
0
  6
Continuous
 62
     7
370
    15
100
AcDbLine
 10
1900.615259617074
 20
974.5622619064052
 30
0.0
 11
1903.606128723799
 21
974.5622619064052
 31
0.0
  0
LINE
  5
CDB
330
BD1
100
AcDbEntity
  8
0
  6
Continuous
 62
     7
370
    15
100
AcDbLine
 10
1900.615259617074
 20
975.5621894271572
 30
0.0
 11
1903.606128723799
 21
975.5621894271572
 31
0.0
  0
LINE
  5
CDC
330
BD1
100
AcDbEntity
  8
0
  6
Continuous
 62
     7
370
    15
100
AcDbLine
 10
1949.515261532246
 20
974.5622619064052
 30
0.0
 11
1952.506129474818
 21
974.5622619064052
 31
0.0
  0
LINE
  5
CDD
330
BD1
100
AcDbEntity
  8
0
  6
Continuous
 62
     7
370
    15
100
AcDbLine
 10
1949.515261532246
 20
975.5621894271572
 30
0.0
 11
1952.506129474818
 21
975.5621894271572
 31
0.0
  0
LINE
  5
CDE
330
BD1
100
AcDbEntity
  8
0
  6
Continuous
 62
     7
370
    15
100
AcDbLine
 10
1892.465259724735
 20
974.5622619064052
 30
0.0
 11
1895.45612883146
 21
974.5622619064052
 31
0.0
  0
LINE
  5
CDF
330
BD1
100
AcDbEntity
  8
0
  6
Continuous
 62
     7
370
    15
100
AcDbLine
 10
1892.465259724735
 20
975.5621894271572
 30
0.0
 11
1895.45612883146
 21
975.5621894271572
 31
0.0
  0
LINE
  5
CE0
330
BD1
100
AcDbEntity
  8
0
  6
Continuous
 62
     7
370
    15
100
AcDbLine
 10
1968.806125999867
 20
974.5622619064052
 30
0.0
 11
1965.815261782585
 21
974.5622619064052
 31
0.0
  0
LINE
  5
CE1
330
BD1
100
AcDbEntity
  8
0
  6
Continuous
 62
     7
370
    15
100
AcDbLine
 10
1968.806125999867
 20
975.5621894271572
 30
0.0
 11
1965.815261782585
 21
975.5621894271572
 31
0.0
  0
LINE
  5
CE2
330
BD1
100
AcDbEntity
  8
0
  6
Continuous
 62
     7
370
    15
100
AcDbLine
 10
1933.215261281906
 20
974.5622619064052
 30
0.0
 11
1936.206129224478
 21
974.5622619064052
 31
0.0
  0
LINE
  5
CE3
330
BD1
100
AcDbEntity
  8
0
  6
Continuous
 62
     7
370
    15
100
AcDbLine
 10
1933.215261281906
 20
975.5621894271572
 30
0.0
 11
1936.206129224478
 21
975.5621894271572
 31
0.0
  0
LINE
  5
CE4
330
BD1
100
AcDbEntity
  8
0
  6
Continuous
 62
     7
370
    15
100
AcDbLine
 10
1928.056129099308
 20
974.5622619064052
 30
0.0
 11
1925.065259294092
 21
974.5622619064052
 31
0.0
  0
LINE
  5
CE5
330
BD1
100
AcDbEntity
  8
0
  6
Continuous
 62
     7
370
    15
100
AcDbLine
 10
1928.056129099308
 20
975.5621894271572
 30
0.0
 11
1925.065259294092
 21
975.5621894271572
 31
0.0
  0
LINE
  5
CE6
330
BD1
100
AcDbEntity
  8
0
  6
Continuous
 62
     7
370
    15
100
AcDbLine
 10
1944.356129349648
 20
974.5622619064052
 30
0.0
 11
1941.365261407076
 21
974.5622619064052
 31
0.0
  0
LINE
  5
CE7
330
BD1
100
AcDbEntity
  8
0
  6
Continuous
 62
     7
370
    15
100
AcDbLine
 10
1944.356129349648
 20
975.5621894271572
 30
0.0
 11
1941.365261407076
 21
975.5621894271572
 31
0.0
  0
LINE
  5
CE8
330
BD1
100
AcDbEntity
  8
0
  6
Continuous
 62
     7
370
    15
100
AcDbLine
 10
1916.915259168922
 20
974.5622619064052
 30
0.0
 11
1919.906128974139
 21
974.5622619064052
 31
0.0
  0
LINE
  5
CE9
330
BD1
100
AcDbEntity
  8
0
  6
Continuous
 62
     7
370
    15
100
AcDbLine
 10
1916.915259168922
 20
975.5621894271572
 30
0.0
 11
1919.906128974139
 21
975.5621894271572
 31
0.0
  0
LINE
  5
CEA
330
BD1
100
AcDbEntity
  8
0
  6
Continuous
 62
     7
370
    15
100
AcDbLine
 10
1911.756128848969
 20
974.5622619064052
 30
0.0
 11
1908.765259975075
 21
974.5622619064052
 31
0.0
  0
LINE
  5
CEB
330
BD1
100
AcDbEntity
  8
0
  6
Continuous
 62
     7
370
    15
100
AcDbLine
 10
1911.756128848969
 20
975.5621894271572
 30
0.0
 11
1908.765259975075
 21
975.5621894271572
 31
0.0
  0
LINE
  5
CEC
330
BD1
100
AcDbEntity
  8
0
  6
Continuous
 62
     7
370
    15
100
AcDbLine
 10
1898.635694252766
 20
989.9371608169277
 30
0.0
 11
1897.435694253976
 21
989.9371608169277
 31
0.0
  0
LINE
  5
CED
330
BD1
100
AcDbEntity
  8
0
  6
Continuous
 62
     7
370
    15
100
AcDbLine
 10
1897.435694253976
 20
989.9371608169277
 30
0.0
 11
1897.435694253976
 21
982.9371913345058
 31
0.0
  0
LINE
  5
CEE
330
BD1
100
AcDbEntity
  8
0
  6
Continuous
 62
     7
370
    15
100
AcDbLine
 10
1897.435694253976
 20
982.9371913345058
 30
0.0
 11
1898.635694252766
 21
982.9371913345058
 31
0.0
  0
LINE
  5
CEF
330
BD1
100
AcDbEntity
  8
0
  6
Continuous
 62
     7
370
    15
100
AcDbLine
 10
1898.635694252766
 20
989.9371608169277
 30
0.0
 11
1898.635694252766
 21
982.9371913345058
 31
0.0
  0
LINE
  5
CF0
330
BD1
100
AcDbEntity
  8
0
  6
Continuous
 62
     7
370
    15
100
AcDbLine
 10
1913.735694096862
 20
989.9371608169277
 30
0.0
 11
1914.935693921028
 21
989.9371608169277
 31
0.0
  0
LINE
  5
CF1
330
BD1
100
AcDbEntity
  8
0
  6
Continuous
 62
     7
370
    15
100
AcDbLine
 10
1914.935693921028
 20
989.9371608169277
 30
0.0
 11
1914.935693921028
 21
982.9371913345058
 31
0.0
  0
LINE
  5
CF2
330
BD1
100
AcDbEntity
  8
0
  6
Continuous
 62
     7
370
    15
100
AcDbLine
 10
1913.735694096862
 20
989.9371608169277
 30
0.0
 11
1913.735694096862
 21
982.9371913345058
 31
0.0
  0
LINE
  5
CF3
330
BD1
100
AcDbEntity
  8
0
  6
Continuous
 62
     7
370
    15
100
AcDbLine
 10
1914.935693921028
 20
982.9371913345058
 30
0.0
 11
1913.735694096862
 21
982.9371913345058
 31
0.0
  0
LINE
  5
CF4
330
BD1
100
AcDbEntity
  8
0
  6
Continuous
 62
     7
370
    15
100
AcDbLine
 10
1947.535694421707
 20
989.9371608169277
 30
0.0
 11
1947.535694421707
 21
982.9371913345058
 31
0.0
  0
LINE
  5
CF5
330
BD1
100
AcDbEntity
  8
0
  6
Continuous
 62
     7
370
    15
100
AcDbLine
 10
1946.335692734896
 20
982.9371913345058
 30
0.0
 11
1947.535694421707
 21
982.9371913345058
 31
0.0
  0
LINE
  5
CF6
330
BD1
100
AcDbEntity
  8
0
  6
Continuous
 62
     7
370
    15
100
AcDbLine
 10
1946.335692734896
 20
989.9371608169277
 30
0.0
 11
1946.335692734896
 21
982.9371913345058
 31
0.0
  0
LINE
  5
CF7
330
BD1
100
AcDbEntity
  8
0
  6
Continuous
 62
     7
370
    15
100
AcDbLine
 10
1946.335692734896
 20
989.9371608169277
 30
0.0
 11
1947.535694421707
 21
989.9371608169277
 31
0.0
  0
LINE
  5
CF8
330
BD1
100
AcDbEntity
  8
0
  6
Continuous
 62
     7
370
    15
100
AcDbLine
 10
1962.635696710526
 20
989.9371608169277
 30
0.0
 11
1963.835694672047
 21
989.9371608169277
 31
0.0
  0
LINE
  5
CF9
330
BD1
100
AcDbEntity
  8
0
  6
Continuous
 62
     7
370
    15
100
AcDbLine
 10
1963.835694672047
 20
982.9371913345058
 30
0.0
 11
1962.635696710526
 21
982.9371913345058
 31
0.0
  0
LINE
  5
CFA
330
BD1
100
AcDbEntity
  8
0
  6
Continuous
 62
     7
370
    15
100
AcDbLine
 10
1962.635696710526
 20
982.9371913345058
 30
0.0
 11
1962.635696710526
 21
983.2671626479823
 31
0.0
  0
LINE
  5
CFB
330
BD1
100
AcDbEntity
  8
0
  6
Continuous
 62
     7
370
    15
100
AcDbLine
 10
1962.635696710526
 20
983.2671626479823
 30
0.0
 11
1962.635696710526
 21
989.9371608169277
 31
0.0
  0
LINE
  5
CFC
330
BD1
100
AcDbEntity
  8
0
  6
Continuous
 62
     7
370
    15
100
AcDbLine
 10
1963.835694672047
 20
989.9371608169277
 30
0.0
 11
1963.835694672047
 21
982.9371913345058
 31
0.0
  0
LINE
  5
CFD
330
BD1
100
AcDbEntity
  8
0
  6
Continuous
 62
     7
370
    15
100
AcDbLine
 10
1930.035692484556
 20
989.9371608169277
 30
0.0
 11
1931.235694171368
 21
989.9371608169277
 31
0.0
  0
LINE
  5
CFE
330
BD1
100
AcDbEntity
  8
0
  6
Continuous
 62
     7
370
    15
100
AcDbLine
 10
1930.035692484556
 20
989.9371608169277
 30
0.0
 11
1930.035692484556
 21
982.9371913345058
 31
0.0
  0
LINE
  5
CFF
330
BD1
100
AcDbEntity
  8
0
  6
Continuous
 62
     7
370
    15
100
AcDbLine
 10
1931.235694171368
 20
989.9371608169277
 30
0.0
 11
1931.235694171368
 21
982.9371913345058
 31
0.0
  0
LINE
  5
D00
330
BD1
100
AcDbEntity
  8
0
  6
Continuous
 62
     7
370
    15
100
AcDbLine
 10
1931.235694171368
 20
982.9371913345058
 30
0.0
 11
1930.035692484556
 21
982.9371913345058
 31
0.0
  0
LINE
  5
D01
330
BD1
100
AcDbEntity
  8
0
  6
Continuous
 62
     7
370
    15
100
AcDbLine
 10
1952.110693634926
 20
979.8621877105434
 30
0.0
 11
1952.110693634926
 21
977.8622134597499
 31
0.0
  0
LINE
  5
D02
330
BD1
100
AcDbEntity
  8
0
  6
Continuous
 62
     7
370
    15
100
AcDbLine
 10
1949.910693646847
 20
979.8621877105434
 30
0.0
 11
1952.110693634926
 21
979.8621877105434
 31
0.0
  0
LINE
  5
D03
330
BD1
100
AcDbEntity
  8
0
  6
Continuous
 62
     7
370
    15
100
AcDbLine
 10
1949.910693646847
 20
977.8622134597499
 30
0.0
 11
1949.910693646847
 21
979.8621877105434
 31
0.0
  0
LINE
  5
D04
330
BD1
100
AcDbEntity
  8
0
  6
Continuous
 62
     7
370
    15
100
AcDbLine
 10
1952.110693634926
 20
977.8622134597499
 30
0.0
 11
1949.910693646847
 21
977.8622134597499
 31
0.0
  0
LINE
  5
D05
330
BD1
100
AcDbEntity
  8
0
  6
Continuous
 62
     7
370
    15
100
AcDbLine
 10
1968.410693885266
 20
979.8621877105434
 30
0.0
 11
1968.410693885266
 21
977.8622134597499
 31
0.0
  0
LINE
  5
D06
330
BD1
100
AcDbEntity
  8
0
  6
Continuous
 62
     7
370
    15
100
AcDbLine
 10
1966.210693897187
 20
979.8621877105434
 30
0.0
 11
1968.410693885266
 21
979.8621877105434
 31
0.0
  0
LINE
  5
D07
330
BD1
100
AcDbEntity
  8
0
  6
Continuous
 62
     7
370
    15
100
AcDbLine
 10
1966.210693897187
 20
977.8622134597499
 30
0.0
 11
1966.210693897187
 21
979.8621877105434
 31
0.0
  0
LINE
  5
D08
330
BD1
100
AcDbEntity
  8
0
  6
Continuous
 62
     7
370
    15
100
AcDbLine
 10
1968.410693885266
 20
977.8622134597499
 30
0.0
 11
1966.210693897187
 21
977.8622134597499
 31
0.0
  0
LINE
  5
D09
330
BD1
100
AcDbEntity
  8
0
  6
Continuous
 62
     7
370
    15
100
AcDbLine
 10
1960.260693760096
 20
979.8621877105434
 30
0.0
 11
1960.260693760096
 21
977.8622134597499
 31
0.0
  0
LINE
  5
D0A
330
BD1
100
AcDbEntity
  8
0
  6
Continuous
 62
     7
370
    15
100
AcDbLine
 10
1958.060693772017
 20
979.8621877105434
 30
0.0
 11
1960.260693760096
 21
979.8621877105434
 31
0.0
  0
LINE
  5
D0B
330
BD1
100
AcDbEntity
  8
0
  6
Continuous
 62
     7
370
    15
100
AcDbLine
 10
1958.060693772017
 20
977.8622134597499
 30
0.0
 11
1958.060693772017
 21
979.8621877105434
 31
0.0
  0
LINE
  5
D0C
330
BD1
100
AcDbEntity
  8
0
  6
Continuous
 62
     7
370
    15
100
AcDbLine
 10
1960.260693760096
 20
977.8622134597499
 30
0.0
 11
1958.060693772017
 21
977.8622134597499
 31
0.0
  0
LINE
  5
D0D
330
BD1
100
AcDbEntity
  8
0
  6
Continuous
 62
     7
370
    15
100
AcDbLine
 10
1935.810693384587
 20
979.8621877105434
 30
0.0
 11
1935.810693384587
 21
977.8622134597499
 31
0.0
  0
LINE
  5
D0E
330
BD1
100
AcDbEntity
  8
0
  6
Continuous
 62
     7
370
    15
100
AcDbLine
 10
1933.610693396508
 20
979.8621877105434
 30
0.0
 11
1935.810693384587
 21
979.8621877105434
 31
0.0
  0
LINE
  5
D0F
330
BD1
100
AcDbEntity
  8
0
  6
Continuous
 62
     7
370
    15
100
AcDbLine
 10
1933.610693396508
 20
977.8622134597499
 30
0.0
 11
1933.610693396508
 21
979.8621877105434
 31
0.0
  0
LINE
  5
D10
330
BD1
100
AcDbEntity
  8
0
  6
Continuous
 62
     7
370
    15
100
AcDbLine
 10
1935.810693384587
 20
977.8622134597499
 30
0.0
 11
1933.610693396508
 21
977.8622134597499
 31
0.0
  0
LINE
  5
D11
330
BD1
100
AcDbEntity
  8
0
  6
Continuous
 62
     7
370
    15
100
AcDbLine
 10
1943.960693509756
 20
979.8621877105434
 30
0.0
 11
1943.960693509756
 21
977.8622134597499
 31
0.0
  0
LINE
  5
D12
330
BD1
100
AcDbEntity
  8
0
  6
Continuous
 62
     7
370
    15
100
AcDbLine
 10
1941.760693521677
 20
979.8621877105434
 30
0.0
 11
1943.960693509756
 21
979.8621877105434
 31
0.0
  0
LINE
  5
D13
330
BD1
100
AcDbEntity
  8
0
  6
Continuous
 62
     7
370
    15
100
AcDbLine
 10
1941.760693521677
 20
977.8622134597499
 30
0.0
 11
1941.760693521677
 21
979.8621877105434
 31
0.0
  0
LINE
  5
D14
330
BD1
100
AcDbEntity
  8
0
  6
Continuous
 62
     7
370
    15
100
AcDbLine
 10
1943.960693509756
 20
977.8622134597499
 30
0.0
 11
1941.760693521677
 21
977.8622134597499
 31
0.0
  0
LINE
  5
D15
330
BD1
100
AcDbEntity
  8
0
  6
Continuous
 62
     7
370
    15
100
AcDbLine
 10
1927.660695122062
 20
977.8622134597499
 30
0.0
 11
1927.660695122062
 21
979.8621877105434
 31
0.0
  0
LINE
  5
D16
330
BD1
100
AcDbEntity
  8
0
  6
Continuous
 62
     7
370
    15
100
AcDbLine
 10
1927.660695122062
 20
979.8621877105434
 30
0.0
 11
1925.460695133983
 21
979.8621877105434
 31
0.0
  0
LINE
  5
D17
330
BD1
100
AcDbEntity
  8
0
  6
Continuous
 62
     7
370
    15
100
AcDbLine
 10
1925.460695133983
 20
979.8621877105434
 30
0.0
 11
1925.460695133983
 21
977.8622134597499
 31
0.0
  0
LINE
  5
D18
330
BD1
100
AcDbEntity
  8
0
  6
Continuous
 62
     7
370
    15
100
AcDbLine
 10
1925.460695133983
 20
977.8622134597499
 30
0.0
 11
1927.660695122062
 21
977.8622134597499
 31
0.0
  0
LINE
  5
D19
330
BD1
100
AcDbEntity
  8
0
  6
Continuous
 62
     7
370
    15
100
AcDbLine
 10
1919.510694996892
 20
977.8622134597499
 30
0.0
 11
1919.510694996892
 21
979.8621877105434
 31
0.0
  0
LINE
  5
D1A
330
BD1
100
AcDbEntity
  8
0
  6
Continuous
 62
     7
370
    15
100
AcDbLine
 10
1919.510694996892
 20
979.8621877105434
 30
0.0
 11
1917.310695008813
 21
979.8621877105434
 31
0.0
  0
LINE
  5
D1B
330
BD1
100
AcDbEntity
  8
0
  6
Continuous
 62
     7
370
    15
100
AcDbLine
 10
1917.310695008813
 20
979.8621877105434
 30
0.0
 11
1917.310695008813
 21
977.8622134597499
 31
0.0
  0
LINE
  5
D1C
330
BD1
100
AcDbEntity
  8
0
  6
Continuous
 62
     7
370
    15
100
AcDbLine
 10
1917.310695008813
 20
977.8622134597499
 30
0.0
 11
1919.510694996892
 21
977.8622134597499
 31
0.0
  0
LINE
  5
D1D
330
BD1
100
AcDbEntity
  8
0
  6
Continuous
 62
     7
370
    15
100
AcDbLine
 10
1911.3606939404
 20
977.8622134597499
 30
0.0
 11
1911.3606939404
 21
979.8621877105434
 31
0.0
  0
LINE
  5
D1E
330
BD1
100
AcDbEntity
  8
0
  6
Continuous
 62
     7
370
    15
100
AcDbLine
 10
1911.3606939404
 20
979.8621877105434
 30
0.0
 11
1909.160693952321
 21
979.8621877105434
 31
0.0
  0
LINE
  5
D1F
330
BD1
100
AcDbEntity
  8
0
  6
Continuous
 62
     7
370
    15
100
AcDbLine
 10
1909.160693952321
 20
979.8621877105434
 30
0.0
 11
1909.160693952321
 21
977.8622134597499
 31
0.0
  0
LINE
  5
D20
330
BD1
100
AcDbEntity
  8
0
  6
Continuous
 62
     7
370
    15
100
AcDbLine
 10
1909.160693952321
 20
977.8622134597499
 30
0.0
 11
1911.3606939404
 21
977.8622134597499
 31
0.0
  0
LINE
  5
D21
330
BD1
100
AcDbEntity
  8
0
  6
Continuous
 62
     7
370
    15
100
AcDbLine
 10
1895.060694155722
 20
977.8622134597499
 30
0.0
 11
1895.060694155722
 21
979.8621877105434
 31
0.0
  0
LINE
  5
D22
330
BD1
100
AcDbEntity
  8
0
  6
Continuous
 62
     7
370
    15
100
AcDbLine
 10
1895.060694155722
 20
979.8621877105434
 30
0.0
 11
1892.860694167643
 21
979.8621877105434
 31
0.0
  0
LINE
  5
D23
330
BD1
100
AcDbEntity
  8
0
  6
Continuous
 62
     7
370
    15
100
AcDbLine
 10
1892.860694167643
 20
979.8621877105434
 30
0.0
 11
1892.860694167643
 21
977.8622134597499
 31
0.0
  0
LINE
  5
D24
330
BD1
100
AcDbEntity
  8
0
  6
Continuous
 62
     7
370
    15
100
AcDbLine
 10
1892.860694167643
 20
977.8622134597499
 30
0.0
 11
1895.060694155722
 21
977.8622134597499
 31
0.0
  0
LINE
  5
D25
330
BD1
100
AcDbEntity
  8
0
  6
Continuous
 62
     7
370
    15
100
AcDbLine
 10
1903.210694280891
 20
977.8622134597499
 30
0.0
 11
1903.210694280891
 21
979.8621877105434
 31
0.0
  0
LINE
  5
D26
330
BD1
100
AcDbEntity
  8
0
  6
Continuous
 62
     7
370
    15
100
AcDbLine
 10
1903.210694280891
 20
979.8621877105434
 30
0.0
 11
1901.010694292812
 21
979.8621877105434
 31
0.0
  0
LINE
  5
D27
330
BD1
100
AcDbEntity
  8
0
  6
Continuous
 62
     7
370
    15
100
AcDbLine
 10
1901.010694292812
 20
979.8621877105434
 30
0.0
 11
1901.010694292812
 21
977.8622134597499
 31
0.0
  0
LINE
  5
D28
330
BD1
100
AcDbEntity
  8
0
  6
Continuous
 62
     7
370
    15
100
AcDbLine
 10
1901.010694292812
 20
977.8622134597499
 30
0.0
 11
1903.210694280891
 21
977.8622134597499
 31
0.0
  0
LINE
  5
D29
330
BD1
100
AcDbEntity
  8
0
  6
Continuous
 62
     7
370
    15
100
AcDbLine
 10
1954.560694129645
 20
979.4372065932948
 30
0.0
 11
1954.560694129645
 21
980.5872186095912
 31
0.0
  0
LINE
  5
D2A
330
BD1
100
AcDbEntity
  8
0
  6
Continuous
 62
     7
370
    15
100
AcDbLine
 10
1954.310693623005
 20
979.4372065932948
 30
0.0
 11
1954.560694129645
 21
979.4372065932948
 31
0.0
  0
LINE
  5
D2B
330
BD1
100
AcDbEntity
  8
0
  6
Continuous
 62
     7
370
    15
100
AcDbLine
 10
1939.310693026959
 20
979.4372065932948
 30
0.0
 11
1939.560693533598
 21
979.4372065932948
 31
0.0
  0
LINE
  5
D2C
330
BD1
100
AcDbEntity
  8
0
  6
Continuous
 62
     7
370
    15
100
AcDbLine
 10
1939.310693026959
 20
980.5872186095912
 30
0.0
 11
1939.310693026959
 21
979.4372065932948
 31
0.0
  0
LINE
  5
D2D
330
BD1
100
AcDbEntity
  8
0
  6
Continuous
 62
     7
370
    15
100
AcDbLine
 10
1939.560693533598
 20
980.5872186095912
 30
0.0
 11
1939.310693026959
 21
980.5872186095912
 31
0.0
  0
LINE
  5
D2E
330
BD1
100
AcDbEntity
  8
0
  6
Continuous
 62
     7
370
    15
100
AcDbLine
 10
1939.560693533598
 20
982.9371913345058
 30
0.0
 11
1939.560693533598
 21
980.5872186095912
 31
0.0
  0
LINE
  5
D2F
330
BD1
100
AcDbEntity
  8
0
  6
Continuous
 62
     7
370
    15
100
AcDbLine
 10
1938.010693372666
 20
982.9371913345058
 30
0.0
 11
1939.560693533598
 21
982.9371913345058
 31
0.0
  0
LINE
  5
D30
330
BD1
100
AcDbEntity
  8
0
  6
Continuous
 62
     7
370
    15
100
AcDbLine
 10
1938.010693372666
 20
982.9371913345058
 30
0.0
 11
1938.010693372666
 21
980.5872186095912
 31
0.0
  0
LINE
  5
D31
330
BD1
100
AcDbEntity
  8
0
  6
Continuous
 62
     7
370
    15
100
AcDbLine
 10
1938.260693879305
 20
980.5872186095912
 30
0.0
 11
1938.010693372666
 21
980.5872186095912
 31
0.0
  0
LINE
  5
D32
330
BD1
100
AcDbEntity
  8
0
  6
Continuous
 62
     7
370
    15
100
AcDbLine
 10
1938.260693879305
 20
979.4372065932948
 30
0.0
 11
1938.260693879305
 21
980.5872186095912
 31
0.0
  0
LINE
  5
D33
330
BD1
100
AcDbEntity
  8
0
  6
Continuous
 62
     7
370
    15
100
AcDbLine
 10
1938.010693372666
 20
979.4372065932948
 30
0.0
 11
1938.260693879305
 21
979.4372065932948
 31
0.0
  0
LINE
  5
D34
330
BD1
100
AcDbEntity
  8
0
  6
Continuous
 62
     7
370
    15
100
AcDbLine
 10
1923.010694639264
 20
979.4372065932948
 30
0.0
 11
1923.260695145904
 21
979.4372065932948
 31
0.0
  0
LINE
  5
D35
330
BD1
100
AcDbEntity
  8
0
  6
Continuous
 62
     7
370
    15
100
AcDbLine
 10
1923.010694639264
 20
980.5872186095912
 30
0.0
 11
1923.010694639264
 21
979.4372065932948
 31
0.0
  0
LINE
  5
D36
330
BD1
100
AcDbEntity
  8
0
  6
Continuous
 62
     7
370
    15
100
AcDbLine
 10
1923.260695145904
 20
980.5872186095912
 30
0.0
 11
1923.010694639264
 21
980.5872186095912
 31
0.0
  0
LINE
  5
D37
330
BD1
100
AcDbEntity
  8
0
  6
Continuous
 62
     7
370
    15
100
AcDbLine
 10
1923.260695145904
 20
982.9371913345058
 30
0.0
 11
1923.260695145904
 21
980.5872186095912
 31
0.0
  0
LINE
  5
D38
330
BD1
100
AcDbEntity
  8
0
  6
Continuous
 62
     7
370
    15
100
AcDbLine
 10
1923.260695145904
 20
982.9371913345058
 30
0.0
 11
1921.710694984971
 21
982.9371913345058
 31
0.0
  0
LINE
  5
D39
330
BD1
100
AcDbEntity
  8
0
  6
Continuous
 62
     7
370
    15
100
AcDbLine
 10
1921.710694984971
 20
982.9371913345058
 30
0.0
 11
1921.710694984971
 21
980.5872186095912
 31
0.0
  0
LINE
  5
D3A
330
BD1
100
AcDbEntity
  8
0
  6
Continuous
 62
     7
370
    15
100
AcDbLine
 10
1921.960693628966
 20
980.5872186095912
 30
0.0
 11
1921.710694984971
 21
980.5872186095912
 31
0.0
  0
LINE
  5
D3B
330
BD1
100
AcDbEntity
  8
0
  6
Continuous
 62
     7
370
    15
100
AcDbLine
 10
1921.960693628966
 20
979.4372065932948
 30
0.0
 11
1921.960693628966
 21
980.5872186095912
 31
0.0
  0
LINE
  5
D3C
330
BD1
100
AcDbEntity
  8
0
  6
Continuous
 62
     7
370
    15
100
AcDbLine
 10
1921.710694984971
 20
979.4372065932948
 30
0.0
 11
1921.960693628966
 21
979.4372065932948
 31
0.0
  0
LINE
  5
D3D
330
BD1
100
AcDbEntity
  8
0
  6
Continuous
 62
     7
370
    15
100
AcDbLine
 10
1906.710694388925
 20
979.4372065932948
 30
0.0
 11
1906.960693964242
 21
979.4372065932948
 31
0.0
  0
LINE
  5
D3E
330
BD1
100
AcDbEntity
  8
0
  6
Continuous
 62
     7
370
    15
100
AcDbLine
 10
1906.710694388925
 20
980.5872186095912
 30
0.0
 11
1906.710694388925
 21
979.4372065932948
 31
0.0
  0
LINE
  5
D3F
330
BD1
100
AcDbEntity
  8
0
  6
Continuous
 62
     7
370
    15
100
AcDbLine
 10
1906.960693964242
 20
980.5872186095912
 30
0.0
 11
1906.710694388925
 21
980.5872186095912
 31
0.0
  0
LINE
  5
D40
330
BD1
100
AcDbEntity
  8
0
  6
Continuous
 62
     7
370
    15
100
AcDbLine
 10
1906.960693964242
 20
982.9371913345058
 30
0.0
 11
1906.960693964242
 21
980.5872186095912
 31
0.0
  0
LINE
  5
D41
330
BD1
100
AcDbEntity
  8
0
  6
Continuous
 62
     7
370
    15
100
AcDbLine
 10
1906.960693964242
 20
982.9371913345058
 30
0.0
 11
1905.410694268971
 21
982.9371913345058
 31
0.0
  0
LINE
  5
D42
330
BD1
100
AcDbEntity
  8
0
  6
Continuous
 62
     7
370
    15
100
AcDbLine
 10
1905.410694268971
 20
982.9371913345058
 30
0.0
 11
1905.410694268971
 21
980.5872186095912
 31
0.0
  0
LINE
  5
D43
330
BD1
100
AcDbEntity
  8
0
  6
Continuous
 62
     7
370
    15
100
AcDbLine
 10
1905.660694309949
 20
980.5872186095912
 30
0.0
 11
1905.410694268971
 21
980.5872186095912
 31
0.0
  0
LINE
  5
D44
330
BD1
100
AcDbEntity
  8
0
  6
Continuous
 62
     7
370
    15
100
AcDbLine
 10
1905.660694309949
 20
979.4372065932948
 30
0.0
 11
1905.660694309949
 21
980.5872186095912
 31
0.0
  0
LINE
  5
D45
330
BD1
100
AcDbEntity
  8
0
  6
Continuous
 62
     7
370
    15
100
AcDbLine
 10
1905.410694268971
 20
979.4372065932948
 30
0.0
 11
1905.660694309949
 21
979.4372065932948
 31
0.0
  0
LINE
  5
D46
330
BD1
100
AcDbEntity
  8
0
  6
Continuous
 62
     7
370
    15
100
AcDbLine
 10
1890.660694179564
 20
979.4372065932948
 30
0.0
 11
1890.660694179564
 21
975.8622392089565
 31
0.0
  0
LINE
  5
D47
330
BD1
100
AcDbEntity
  8
0
  6
Continuous
 62
     7
370
    15
100
AcDbLine
 10
1890.410694138585
 20
979.4372065932948
 30
0.0
 11
1890.660694179564
 21
979.4372065932948
 31
0.0
  0
LINE
  5
D48
330
BD1
100
AcDbEntity
  8
0
  6
Continuous
 62
     7
370
    15
100
AcDbLine
 10
1890.410694138585
 20
980.5872186095912
 30
0.0
 11
1890.410694138585
 21
979.4372065932948
 31
0.0
  0
LINE
  5
D49
330
BD1
100
AcDbEntity
  8
0
  6
Continuous
 62
     7
370
    15
100
AcDbLine
 10
1890.660694179564
 20
980.5872186095912
 30
0.0
 11
1890.410694138585
 21
980.5872186095912
 31
0.0
  0
LINE
  5
D4A
330
BD1
100
AcDbEntity
  8
0
  6
Continuous
 62
     7
370
    15
100
AcDbLine
 10
1890.660694179564
 20
980.5872186095912
 30
0.0
 11
1890.660694179564
 21
986.5371926696498
 31
0.0
  0
ARC
  5
D4B
330
BD1
100
AcDbEntity
  8
0
  6
Continuous
 62
     7
370
    15
100
AcDbCircle
 10
1894.660694266735
 20
986.5372045722564
 30
0.0
 40
4.000000000000028
100
AcDbArc
 50
90.0
 51
180.0
  0
LINE
  5
D4C
330
BD1
100
AcDbEntity
  8
0
  6
Continuous
 62
     7
370
    15
100
AcDbLine
 10
1894.660694369553
 20
990.5372603805263
 30
0.0
 11
1966.610693217694
 21
990.5372603805263
 31
0.0
  0
ARC
  5
D4D
330
BD1
100
AcDbEntity
  8
0
  6
Continuous
 62
     7
370
    15
100
AcDbCircle
 10
1966.610694266736
 20
986.5372045722564
 30
0.0
 40
4.000000000000028
100
AcDbArc
 50
0.0
 51
90.0
  0
LINE
  5
D4E
330
BD1
100
AcDbEntity
  8
0
  6
Continuous
 62
     7
370
    15
100
AcDbLine
 10
1970.610693873345
 20
986.5371926696498
 30
0.0
 11
1970.610693873345
 21
980.5872186095912
 31
0.0
  0
LINE
  5
D4F
330
BD1
100
AcDbEntity
  8
0
  6
Continuous
 62
     7
370
    15
100
AcDbLine
 10
1970.860690654694
 20
980.5872186095912
 30
0.0
 11
1970.610693873345
 21
980.5872186095912
 31
0.0
  0
LINE
  5
D50
330
BD1
100
AcDbEntity
  8
0
  6
Continuous
 62
     7
370
    15
100
AcDbLine
 10
1970.860690654694
 20
979.4372065932948
 30
0.0
 11
1970.860690654694
 21
980.5872186095912
 31
0.0
  0
LINE
  5
D51
330
BD1
100
AcDbEntity
  8
0
  6
Continuous
 62
     7
370
    15
100
AcDbLine
 10
1970.610693873345
 20
979.4372065932948
 30
0.0
 11
1970.860690654694
 21
979.4372065932948
 31
0.0
  0
LINE
  5
D52
330
BD1
100
AcDbEntity
  8
0
  6
Continuous
 62
     7
370
    15
100
AcDbLine
 10
1970.610693873345
 20
975.8622392089565
 30
0.0
 11
1970.610693873345
 21
979.4372065932948
 31
0.0
  0
LINE
  5
D53
330
BD1
100
AcDbEntity
  8
0
  6
Continuous
 62
     7
370
    15
100
AcDbLine
 10
1955.610693277298
 20
979.4372065932948
 30
0.0
 11
1955.860693783938
 21
979.4372065932948
 31
0.0
  0
LINE
  5
D54
330
BD1
100
AcDbEntity
  8
0
  6
Continuous
 62
     7
370
    15
100
AcDbLine
 10
1955.610693277298
 20
980.5872186095912
 30
0.0
 11
1955.610693277298
 21
979.4372065932948
 31
0.0
  0
LINE
  5
D55
330
BD1
100
AcDbEntity
  8
0
  6
Continuous
 62
     7
370
    15
100
AcDbLine
 10
1955.860693783938
 20
980.5872186095912
 30
0.0
 11
1955.610693277298
 21
980.5872186095912
 31
0.0
  0
LINE
  5
D56
330
BD1
100
AcDbEntity
  8
0
  6
Continuous
 62
     7
370
    15
100
AcDbLine
 10
1955.860693783938
 20
982.9371913345058
 30
0.0
 11
1955.860693783938
 21
980.5872186095912
 31
0.0
  0
LINE
  5
D57
330
BD1
100
AcDbEntity
  8
0
  6
Continuous
 62
     7
370
    15
100
AcDbLine
 10
1954.310693623005
 20
982.9371913345058
 30
0.0
 11
1955.860693783938
 21
982.9371913345058
 31
0.0
  0
LINE
  5
D58
330
BD1
100
AcDbEntity
  8
0
  6
Continuous
 62
     7
370
    15
100
AcDbLine
 10
1954.310693623005
 20
982.9371913345058
 30
0.0
 11
1954.310693623005
 21
980.5872186095912
 31
0.0
  0
LINE
  5
D59
330
BD1
100
AcDbEntity
  8
0
  6
Continuous
 62
     7
370
    15
100
AcDbLine
 10
1954.560694129645
 20
980.5872186095912
 30
0.0
 11
1954.310693623005
 21
980.5872186095912
 31
0.0
  0
LINE
  5
D5A
330
BD1
100
AcDbEntity
  8
0
  6
Continuous
 62
     7
370
    15
100
AcDbLine
 10
1962.460697473465
 20
976.7281754882533
 30
0.0
 11
1962.460697473465
 21
982.9371913345058
 31
0.0
  0
LINE
  5
D5B
330
BD1
100
AcDbEntity
  8
0
  6
Continuous
 62
     7
370
    15
100
AcDbLine
 10
1929.860693247496
 20
976.7281754882533
 30
0.0
 11
1929.360695959507
 21
975.8622392089565
 31
0.0
  0
LINE
  5
D5C
330
BD1
100
AcDbEntity
  8
0
  6
Continuous
 62
     7
370
    15
100
AcDbLine
 10
1913.560693928479
 20
976.7281754882533
 30
0.0
 11
1913.560693928479
 21
982.9371913345058
 31
0.0
  0
LINE
  5
D5D
330
BD1
100
AcDbEntity
  8
0
  6
Continuous
 62
     7
370
    15
100
AcDbLine
 10
1915.610694171368
 20
975.8622392089565
 30
0.0
 11
1921.210693971692
 21
975.8622392089565
 31
0.0
  0
LINE
  5
D5E
330
BD1
100
AcDbEntity
  8
0
  6
Continuous
 62
     7
370
    15
100
AcDbLine
 10
1964.010693909107
 20
982.9371913345058
 30
0.0
 11
1964.010693909107
 21
976.7281754882533
 31
0.0
  0
LINE
  5
D5F
330
BD1
100
AcDbEntity
  8
0
  6
Continuous
 62
     7
370
    15
100
AcDbLine
 10
1929.360695959507
 20
975.8622392089565
 30
0.0
 11
1923.760694296538
 21
975.8622392089565
 31
0.0
  0
LINE
  5
D60
330
BD1
100
AcDbEntity
  8
0
  6
Continuous
 62
     7
370
    15
100
AcDbLine
 10
1915.110695020734
 20
976.7281754882533
 30
0.0
 11
1915.110695020734
 21
982.9371913345058
 31
0.0
  0
LINE
  5
D61
330
BD1
100
AcDbEntity
  8
0
  6
Continuous
 62
     7
370
    15
100
AcDbLine
 10
1897.260694260216
 20
982.9371913345058
 30
0.0
 11
1897.260694260216
 21
976.7281754882533
 31
0.0
  0
LINE
  5
D62
330
BD1
100
AcDbEntity
  8
0
  6
Continuous
 62
     7
370
    15
100
AcDbLine
 10
1923.760694296538
 20
975.8622392089565
 30
0.0
 11
1923.260695145904
 21
976.7281754882533
 31
0.0
  0
LINE
  5
D63
330
BD1
100
AcDbEntity
  8
0
  6
Continuous
 62
     7
370
    15
100
AcDbLine
 10
1921.710694984971
 20
979.4372065932948
 30
0.0
 11
1921.710694984971
 21
976.7281754882533
 31
0.0
  0
LINE
  5
D64
330
BD1
100
AcDbEntity
  8
0
  6
Continuous
 62
     7
370
    15
100
AcDbLine
 10
1905.410694268971
 20
979.4372065932948
 30
0.0
 11
1905.410694268971
 21
976.7281754882533
 31
0.0
  0
LINE
  5
D65
330
BD1
100
AcDbEntity
  8
0
  6
Continuous
 62
     7
370
    15
100
AcDbLine
 10
1940.060694546877
 20
975.8622392089565
 30
0.0
 11
1939.560693533598
 21
976.7281754882533
 31
0.0
  0
LINE
  5
D66
330
BD1
100
AcDbEntity
  8
0
  6
Continuous
 62
     7
370
    15
100
AcDbLine
 10
1946.160693497835
 20
976.7281754882533
 30
0.0
 11
1945.660692484556
 21
975.8622392089565
 31
0.0
  0
LINE
  5
D67
330
BD1
100
AcDbEntity
  8
0
  6
Continuous
 62
     7
370
    15
100
AcDbLine
 10
1945.660692484556
 20
975.8622392089565
 30
0.0
 11
1940.060694546877
 21
975.8622392089565
 31
0.0
  0
LINE
  5
D68
330
BD1
100
AcDbEntity
  8
0
  6
Continuous
 62
     7
370
    15
100
AcDbLine
 10
1915.110695020734
 20
976.7281754882533
 30
0.0
 11
1915.610694171368
 21
975.8622392089565
 31
0.0
  0
LINE
  5
D69
330
BD1
100
AcDbEntity
  8
0
  6
Continuous
 62
     7
370
    15
100
AcDbLine
 10
1931.410693408428
 20
976.7281754882533
 30
0.0
 11
1931.410693408428
 21
982.9371913345058
 31
0.0
  0
LINE
  5
D6A
330
BD1
100
AcDbEntity
  8
0
  6
Continuous
 62
     7
370
    15
100
AcDbLine
 10
1961.960696460186
 20
975.8622392089565
 30
0.0
 11
1956.360694797217
 21
975.8622392089565
 31
0.0
  0
LINE
  5
D6B
330
BD1
100
AcDbEntity
  8
0
  6
Continuous
 62
     7
370
    15
100
AcDbLine
 10
1953.810692609726
 20
975.8622392089565
 30
0.0
 11
1954.310693623005
 21
976.7281754882533
 31
0.0
  0
LINE
  5
D6C
330
BD1
100
AcDbEntity
  8
0
  6
Continuous
 62
     7
370
    15
100
AcDbLine
 10
1938.010693372666
 20
979.4372065932948
 30
0.0
 11
1938.010693372666
 21
976.7281754882533
 31
0.0
  0
LINE
  5
D6D
330
BD1
100
AcDbEntity
  8
0
  6
Continuous
 62
     7
370
    15
100
AcDbLine
 10
1898.810694246526
 20
976.7281754882533
 30
0.0
 11
1898.810694246526
 21
982.9371913345058
 31
0.0
  0
LINE
  5
D6E
330
BD1
100
AcDbEntity
  8
0
  6
Continuous
 62
     7
370
    15
100
AcDbLine
 10
1948.210694672047
 20
975.8622392089565
 30
0.0
 11
1953.810692609726
 21
975.8622392089565
 31
0.0
  0
LINE
  5
D6F
330
BD1
100
AcDbEntity
  8
0
  6
Continuous
 62
     7
370
    15
100
AcDbLine
 10
1921.210693971692
 20
975.8622392089565
 30
0.0
 11
1921.710694984971
 21
976.7281754882533
 31
0.0
  0
LINE
  5
D70
330
BD1
100
AcDbEntity
  8
0
  6
Continuous
 62
     7
370
    15
100
AcDbLine
 10
1947.710693658768
 20
976.7281754882533
 30
0.0
 11
1948.210694672047
 21
975.8622392089565
 31
0.0
  0
LINE
  5
D71
330
BD1
100
AcDbEntity
  8
0
  6
Continuous
 62
     7
370
    15
100
AcDbLine
 10
1929.860693247496
 20
976.7281754882533
 30
0.0
 11
1929.860693247496
 21
982.9371913345058
 31
0.0
  0
LINE
  5
D72
330
BD1
100
AcDbEntity
  8
0
  6
Continuous
 62
     7
370
    15
100
AcDbLine
 10
1904.910694187014
 20
975.8622392089565
 30
0.0
 11
1905.410694268971
 21
976.7281754882533
 31
0.0
  0
LINE
  5
D73
330
BD1
100
AcDbEntity
  8
0
  6
Continuous
 62
     7
370
    15
100
AcDbLine
 10
1898.810694246526
 20
976.7281754882533
 30
0.0
 11
1899.310694270274
 21
975.8622392089565
 31
0.0
  0
LINE
  5
D74
330
BD1
100
AcDbEntity
  8
0
  6
Continuous
 62
     7
370
    15
100
AcDbLine
 10
1939.560693533598
 20
979.4372065932948
 30
0.0
 11
1939.560693533598
 21
976.7281754882533
 31
0.0
  0
LINE
  5
D75
330
BD1
100
AcDbEntity
  8
0
  6
Continuous
 62
     7
370
    15
100
AcDbLine
 10
1955.860693783938
 20
979.4372065932948
 30
0.0
 11
1955.860693783938
 21
976.7281754882533
 31
0.0
  0
LINE
  5
D76
330
BD1
100
AcDbEntity
  8
0
  6
Continuous
 62
     7
370
    15
100
AcDbLine
 10
1913.060693846523
 20
975.8622392089565
 30
0.0
 11
1907.460694046198
 21
975.8622392089565
 31
0.0
  0
LINE
  5
D77
330
BD1
100
AcDbEntity
  8
0
  6
Continuous
 62
     7
370
    15
100
AcDbLine
 10
1890.660694179564
 20
975.8622392089565
 30
0.0
 11
1896.760694294675
 21
975.8622392089565
 31
0.0
  0
LINE
  5
D78
330
BD1
100
AcDbEntity
  8
0
  6
Continuous
 62
     7
370
    15
100
AcDbLine
 10
1931.910694421707
 20
975.8622392089565
 30
0.0
 11
1937.510696084677
 21
975.8622392089565
 31
0.0
  0
LINE
  5
D79
330
BD1
100
AcDbEntity
  8
0
  6
Continuous
 62
     7
370
    15
100
AcDbLine
 10
1931.410693408428
 20
976.7281754882533
 30
0.0
 11
1931.910694421707
 21
975.8622392089565
 31
0.0
  0
LINE
  5
D7A
330
BD1
100
AcDbEntity
  8
0
  6
Continuous
 62
     7
370
    15
100
AcDbLine
 10
1962.460697473465
 20
976.7281754882533
 30
0.0
 11
1961.960696460186
 21
975.8622392089565
 31
0.0
  0
LINE
  5
D7B
330
BD1
100
AcDbEntity
  8
0
  6
Continuous
 62
     7
370
    15
100
AcDbLine
 10
1906.960693964242
 20
979.4372065932948
 30
0.0
 11
1906.960693964242
 21
976.7281754882533
 31
0.0
  0
LINE
  5
D7C
330
BD1
100
AcDbEntity
  8
0
  6
Continuous
 62
     7
370
    15
100
AcDbLine
 10
1899.310694270274
 20
975.8622392089565
 30
0.0
 11
1904.910694187014
 21
975.8622392089565
 31
0.0
  0
LINE
  5
D7D
330
BD1
100
AcDbEntity
  8
0
  6
Continuous
 62
     7
370
    15
100
AcDbLine
 10
1970.610693873345
 20
975.8622392089565
 30
0.0
 11
1964.510694922386
 21
975.8622392089565
 31
0.0
  0
LINE
  5
D7E
330
BD1
100
AcDbEntity
  8
0
  6
Continuous
 62
     7
370
    15
100
AcDbLine
 10
1947.710693658768
 20
976.7281754882533
 30
0.0
 11
1947.710693658768
 21
982.9371913345058
 31
0.0
  0
LINE
  5
D7F
330
BD1
100
AcDbEntity
  8
0
  6
Continuous
 62
     7
370
    15
100
AcDbLine
 10
1946.160693497835
 20
976.7281754882533
 30
0.0
 11
1946.160693497835
 21
982.9371913345058
 31
0.0
  0
LINE
  5
D80
330
BD1
100
AcDbEntity
  8
0
  6
Continuous
 62
     7
370
    15
100
AcDbLine
 10
1937.510696084677
 20
975.8622392089565
 30
0.0
 11
1938.010693372666
 21
976.7281754882533
 31
0.0
  0
LINE
  5
D81
330
BD1
100
AcDbEntity
  8
0
  6
Continuous
 62
     7
370
    15
100
AcDbLine
 10
1896.760694294675
 20
975.8622392089565
 30
0.0
 11
1897.260694260216
 21
976.7281754882533
 31
0.0
  0
LINE
  5
D82
330
BD1
100
AcDbEntity
  8
0
  6
Continuous
 62
     7
370
    15
100
AcDbLine
 10
1956.360694797217
 20
975.8622392089565
 30
0.0
 11
1955.860693783938
 21
976.7281754882533
 31
0.0
  0
LINE
  5
D83
330
BD1
100
AcDbEntity
  8
0
  6
Continuous
 62
     7
370
    15
100
AcDbLine
 10
1913.560693928479
 20
976.7281754882533
 30
0.0
 11
1913.060693846523
 21
975.8622392089565
 31
0.0
  0
LINE
  5
D84
330
BD1
100
AcDbEntity
  8
0
  6
Continuous
 62
     7
370
    15
100
AcDbLine
 10
1954.310693623005
 20
979.4372065932948
 30
0.0
 11
1954.310693623005
 21
976.7281754882533
 31
0.0
  0
LINE
  5
D85
330
BD1
100
AcDbEntity
  8
0
  6
Continuous
 62
     7
370
    15
100
AcDbLine
 10
1907.460694046198
 20
975.8622392089565
 30
0.0
 11
1906.960693964242
 21
976.7281754882533
 31
0.0
  0
LINE
  5
D86
330
BD1
100
AcDbEntity
  8
0
  6
Continuous
 62
     7
370
    15
100
AcDbLine
 10
1964.510694922386
 20
975.8622392089565
 30
0.0
 11
1964.010693909107
 21
976.7281754882533
 31
0.0
  0
LINE
  5
D87
330
BD1
100
AcDbEntity
  8
0
  6
Continuous
 62
     7
370
    15
100
AcDbLine
 10
1923.260695145904
 20
979.4372065932948
 30
0.0
 11
1923.260695145904
 21
976.7281754882533
 31
0.0
  0
LINE
  5
D88
330
BD1
100
AcDbEntity
  8
0
  6
Continuous
 62
     7
370
    15
100
AcDbLine
 10
1946.160693497835
 20
982.9371913345058
 30
0.0
 11
1946.335692734896
 21
982.9371913345058
 31
0.0
  0
LINE
  5
D89
330
BD1
100
AcDbEntity
  8
0
  6
Continuous
 62
     7
370
    15
100
AcDbLine
 10
1947.710693658768
 20
982.9371913345058
 30
0.0
 11
1947.535694421707
 21
982.9371913345058
 31
0.0
  0
LINE
  5
D8A
330
BD1
100
AcDbEntity
  8
0
  6
Continuous
 62
     7
370
    15
100
AcDbLine
 10
1962.460697473465
 20
982.9371913345058
 30
0.0
 11
1962.635696710526
 21
982.9371913345058
 31
0.0
  0
LINE
  5
D8B
330
BD1
100
AcDbEntity
  8
0
  6
Continuous
 62
     7
370
    15
100
AcDbLine
 10
1963.835694672047
 20
982.9371913345058
 30
0.0
 11
1964.010693909107
 21
982.9371913345058
 31
0.0
  0
LINE
  5
D8C
330
BD1
100
AcDbEntity
  8
0
  6
Continuous
 62
     7
370
    15
100
AcDbLine
 10
1897.435694253976
 20
982.9371913345058
 30
0.0
 11
1897.260694260216
 21
982.9371913345058
 31
0.0
  0
LINE
  5
D8D
330
BD1
100
AcDbEntity
  8
0
  6
Continuous
 62
     7
370
    15
100
AcDbLine
 10
1898.810694246526
 20
982.9371913345058
 30
0.0
 11
1898.635694252766
 21
982.9371913345058
 31
0.0
  0
LINE
  5
D8E
330
BD1
100
AcDbEntity
  8
0
  6
Continuous
 62
     7
370
    15
100
AcDbLine
 10
1913.560693928479
 20
982.9371913345058
 30
0.0
 11
1913.735694096862
 21
982.9371913345058
 31
0.0
  0
LINE
  5
D8F
330
BD1
100
AcDbEntity
  8
0
  6
Continuous
 62
     7
370
    15
100
AcDbLine
 10
1915.110695020734
 20
982.9371913345058
 30
0.0
 11
1914.935693921028
 21
982.9371913345058
 31
0.0
  0
LINE
  5
D90
330
BD1
100
AcDbEntity
  8
0
  6
Continuous
 62
     7
370
    15
100
AcDbLine
 10
1929.860693247496
 20
982.9371913345058
 30
0.0
 11
1930.035692484556
 21
982.9371913345058
 31
0.0
  0
LINE
  5
D91
330
BD1
100
AcDbEntity
  8
0
  6
Continuous
 62
     7
370
    15
100
AcDbLine
 10
1931.410693408428
 20
982.9371913345058
 30
0.0
 11
1931.235694171368
 21
982.9371913345058
 31
0.0
  0
LINE
  5
D92
330
BD1
100
AcDbEntity
  8
0
  6
Continuous
 62
     7
370
    15
100
AcDbLine
 10
1919.410695166765
 20
977.8622134597499
 30
0.0
 11
1919.410695166765
 21
979.8621877105434
 31
0.0
  0
LINE
  5
D93
330
BD1
100
AcDbEntity
  8
0
  6
Continuous
 62
     7
370
    15
100
AcDbLine
 10
1917.41069483894
 20
977.8622134597499
 30
0.0
 11
1917.41069483894
 21
979.8621877105434
 31
0.0
  0
LINE
  5
D94
330
BD1
100
AcDbEntity
  8
0
  6
Continuous
 62
     7
370
    15
100
AcDbLine
 10
1903.110694450765
 20
977.8622134597499
 30
0.0
 11
1903.110694450765
 21
979.8621877105434
 31
0.0
  0
LINE
  5
D95
330
BD1
100
AcDbEntity
  8
0
  6
Continuous
 62
     7
370
    15
100
AcDbLine
 10
1901.11069435577
 20
977.8622134597499
 30
0.0
 11
1901.11069435577
 21
979.8621877105434
 31
0.0
  0
LINE
  5
D96
330
BD1
100
AcDbEntity
  8
0
  6
Continuous
 62
     7
370
    15
100
AcDbLine
 10
1966.310695589958
 20
977.8622134597499
 30
0.0
 11
1966.310695589958
 21
979.8621877105434
 31
0.0
  0
LINE
  5
D97
330
BD1
100
AcDbEntity
  8
0
  6
Continuous
 62
     7
370
    15
100
AcDbLine
 10
1968.310692192494
 20
977.8622134597499
 30
0.0
 11
1968.310692192494
 21
979.8621877105434
 31
0.0
  0
LINE
  5
D98
330
BD1
100
AcDbEntity
  8
0
  6
Continuous
 62
     7
370
    15
100
AcDbLine
 10
1909.26069471377
 20
977.8622134597499
 30
0.0
 11
1909.26069471377
 21
979.8621877105434
 31
0.0
  0
LINE
  5
D99
330
BD1
100
AcDbEntity
  8
0
  6
Continuous
 62
     7
370
    15
100
AcDbLine
 10
1911.260694110273
 20
977.8622134597499
 30
0.0
 11
1911.260694110273
 21
979.8621877105434
 31
0.0
  0
LINE
  5
D9A
330
BD1
100
AcDbEntity
  8
0
  6
Continuous
 62
     7
370
    15
100
AcDbLine
 10
1950.010695339619
 20
977.8622134597499
 30
0.0
 11
1950.010695339619
 21
979.8621877105434
 31
0.0
  0
LINE
  5
D9B
330
BD1
100
AcDbEntity
  8
0
  6
Continuous
 62
     7
370
    15
100
AcDbLine
 10
1952.010695667445
 20
977.8622134597499
 30
0.0
 11
1952.010695667445
 21
979.8621877105434
 31
0.0
  0
LINE
  5
D9C
330
BD1
100
AcDbEntity
  8
0
  6
Continuous
 62
     7
370
    15
100
AcDbLine
 10
1927.56069342929
 20
977.8622134597499
 30
0.0
 11
1927.56069342929
 21
979.8621877105434
 31
0.0
  0
LINE
  5
D9D
330
BD1
100
AcDbEntity
  8
0
  6
Continuous
 62
     7
370
    15
100
AcDbLine
 10
1925.56069496411
 20
977.8622134597499
 30
0.0
 11
1925.56069496411
 21
979.8621877105434
 31
0.0
  0
LINE
  5
D9E
330
BD1
100
AcDbEntity
  8
0
  6
Continuous
 62
     7
370
    15
100
AcDbLine
 10
1935.710695417105
 20
977.8622134597499
 30
0.0
 11
1935.710695417105
 21
979.8621877105434
 31
0.0
  0
LINE
  5
D9F
330
BD1
100
AcDbEntity
  8
0
  6
Continuous
 62
     7
370
    15
100
AcDbLine
 10
1933.710695089279
 20
977.8622134597499
 30
0.0
 11
1933.710695089279
 21
979.8621877105434
 31
0.0
  0
LINE
  5
DA0
330
BD1
100
AcDbEntity
  8
0
  6
Continuous
 62
     7
370
    15
100
AcDbLine
 10
1943.860695542275
 20
977.8622134597499
 30
0.0
 11
1943.860695542275
 21
979.8621877105434
 31
0.0
  0
LINE
  5
DA1
330
BD1
100
AcDbEntity
  8
0
  6
Continuous
 62
     7
370
    15
100
AcDbLine
 10
1941.860695214449
 20
977.8622134597499
 30
0.0
 11
1941.860695214449
 21
979.8621877105434
 31
0.0
  0
LINE
  5
DA2
330
BD1
100
AcDbEntity
  8
0
  6
Continuous
 62
     7
370
    15
100
AcDbLine
 10
1894.960694325595
 20
977.8622134597499
 30
0.0
 11
1894.960694325595
 21
979.8621877105434
 31
0.0
  0
LINE
  5
DA3
330
BD1
100
AcDbEntity
  8
0
  6
Continuous
 62
     7
370
    15
100
AcDbLine
 10
1892.960694463431
 20
977.8622134597499
 30
0.0
 11
1892.960694463431
 21
979.8621877105434
 31
0.0
  0
LINE
  5
DA4
330
BD1
100
AcDbEntity
  8
0
  6
Continuous
 62
     7
370
    15
100
AcDbLine
 10
1960.160695792614
 20
977.8622134597499
 30
0.0
 11
1960.160695792614
 21
979.8621877105434
 31
0.0
  0
LINE
  5
DA5
330
BD1
100
AcDbEntity
  8
0
  6
Continuous
 62
     7
370
    15
100
AcDbLine
 10
1958.160695464789
 20
977.8622134597499
 30
0.0
 11
1958.160695464789
 21
979.8621877105434
 31
0.0
  0
LINE
  5
DA6
330
BD1
100
AcDbEntity
  8
0
  6
Continuous
 62
     7
370
    15
100
AcDbLine
 10
1904.310694274931
 20
975.7622226150234
 30
0.0
 11
1899.910694298773
 21
975.7622226150234
 31
0.0
  0
LINE
  5
DA7
330
BD1
100
AcDbEntity
  8
0
  6
Continuous
 62
     7
370
    15
100
AcDbLine
 10
1899.910694298773
 20
975.7622226150234
 30
0.0
 11
1899.910694298773
 21
975.5621894271572
 31
0.0
  0
LINE
  5
DA8
330
BD1
100
AcDbEntity
  8
0
  6
Continuous
 62
     7
370
    15
100
AcDbLine
 10
1904.310694274931
 20
975.5621894271572
 30
0.0
 11
1904.310694274931
 21
975.7622226150234
 31
0.0
  0
LINE
  5
DA9
330
BD1
100
AcDbEntity
  8
0
  6
Continuous
 62
     7
370
    15
100
AcDbLine
 10
1920.610694990932
 20
975.7622226150234
 30
0.0
 11
1916.210695014774
 21
975.7622226150234
 31
0.0
  0
LINE
  5
DAA
330
BD1
100
AcDbEntity
  8
0
  6
Continuous
 62
     7
370
    15
100
AcDbLine
 10
1916.210695014774
 20
975.7622226150234
 30
0.0
 11
1916.210695014774
 21
975.5621894271572
 31
0.0
  0
LINE
  5
DAB
330
BD1
100
AcDbEntity
  8
0
  6
Continuous
 62
     7
370
    15
100
AcDbLine
 10
1920.610694990932
 20
975.5621894271572
 30
0.0
 11
1920.610694990932
 21
975.7622226150234
 31
0.0
  0
LINE
  5
DAC
330
BD1
100
AcDbEntity
  8
0
  6
Continuous
 62
     7
370
    15
100
AcDbLine
 10
1896.160694266177
 20
975.7622226150234
 30
0.0
 11
1891.760694173603
 21
975.7622226150234
 31
0.0
  0
LINE
  5
DAD
330
BD1
100
AcDbEntity
  8
0
  6
Continuous
 62
     7
370
    15
100
AcDbLine
 10
1891.760694173603
 20
975.7622226150234
 30
0.0
 11
1891.760694173603
 21
975.5621894271572
 31
0.0
  0
LINE
  5
DAE
330
BD1
100
AcDbEntity
  8
0
  6
Continuous
 62
     7
370
    15
100
AcDbLine
 10
1896.160694266177
 20
975.5621894271572
 30
0.0
 11
1896.160694266177
 21
975.7622226150234
 31
0.0
  0
LINE
  5
DAF
330
BD1
100
AcDbEntity
  8
0
  6
Continuous
 62
     7
370
    15
100
AcDbLine
 10
1953.210693628966
 20
975.7622226150234
 30
0.0
 11
1948.810693652808
 21
975.7622226150234
 31
0.0
  0
LINE
  5
DB0
330
BD1
100
AcDbEntity
  8
0
  6
Continuous
 62
     7
370
    15
100
AcDbLine
 10
1948.810693652808
 20
975.7622226150234
 30
0.0
 11
1948.810693652808
 21
975.5621894271572
 31
0.0
  0
LINE
  5
DB1
330
BD1
100
AcDbEntity
  8
0
  6
Continuous
 62
     7
370
    15
100
AcDbLine
 10
1953.210693628966
 20
975.5621894271572
 30
0.0
 11
1953.210693628966
 21
975.7622226150234
 31
0.0
  0
LINE
  5
DB2
330
BD1
100
AcDbEntity
  8
0
  6
Continuous
 62
     7
370
    15
100
AcDbLine
 10
1956.960693777977
 20
975.7622226150234
 30
0.0
 11
1961.360693754135
 21
975.7622226150234
 31
0.0
  0
LINE
  5
DB3
330
BD1
100
AcDbEntity
  8
0
  6
Continuous
 62
     7
370
    15
100
AcDbLine
 10
1961.360693754135
 20
975.7622226150234
 30
0.0
 11
1961.360693754135
 21
975.5621894271572
 31
0.0
  0
LINE
  5
DB4
330
BD1
100
AcDbEntity
  8
0
  6
Continuous
 62
     7
370
    15
100
AcDbLine
 10
1956.960693777977
 20
975.5621894271572
 30
0.0
 11
1956.960693777977
 21
975.7622226150234
 31
0.0
  0
LINE
  5
DB5
330
BD1
100
AcDbEntity
  8
0
  6
Continuous
 62
     7
370
    15
100
AcDbLine
 10
1936.910693378626
 20
975.7622226150234
 30
0.0
 11
1932.510693402468
 21
975.7622226150234
 31
0.0
  0
LINE
  5
DB6
330
BD1
100
AcDbEntity
  8
0
  6
Continuous
 62
     7
370
    15
100
AcDbLine
 10
1932.510693402468
 20
975.7622226150234
 30
0.0
 11
1932.510693402468
 21
975.5621894271572
 31
0.0
  0
LINE
  5
DB7
330
BD1
100
AcDbEntity
  8
0
  6
Continuous
 62
     7
370
    15
100
AcDbLine
 10
1936.910693378626
 20
975.5621894271572
 30
0.0
 11
1936.910693378626
 21
975.7622226150234
 31
0.0
  0
LINE
  5
DB8
330
BD1
100
AcDbEntity
  8
0
  6
Continuous
 62
     7
370
    15
100
AcDbLine
 10
1924.360695139943
 20
975.7622226150234
 30
0.0
 11
1928.760695116102
 21
975.7622226150234
 31
0.0
  0
LINE
  5
DB9
330
BD1
100
AcDbEntity
  8
0
  6
Continuous
 62
     7
370
    15
100
AcDbLine
 10
1928.760695116102
 20
975.7622226150234
 30
0.0
 11
1928.760695116102
 21
975.5621894271572
 31
0.0
  0
LINE
  5
DBA
330
BD1
100
AcDbEntity
  8
0
  6
Continuous
 62
     7
370
    15
100
AcDbLine
 10
1924.360695139943
 20
975.5621894271572
 30
0.0
 11
1924.360695139943
 21
975.7622226150234
 31
0.0
  0
LINE
  5
DBB
330
BD1
100
AcDbEntity
  8
0
  6
Continuous
 62
     7
370
    15
100
AcDbLine
 10
1908.060693958281
 20
975.7622226150234
 30
0.0
 11
1912.460693934439
 21
975.7622226150234
 31
0.0
  0
LINE
  5
DBC
330
BD1
100
AcDbEntity
  8
0
  6
Continuous
 62
     7
370
    15
100
AcDbLine
 10
1912.460693934439
 20
975.7622226150234
 30
0.0
 11
1912.460693934439
 21
975.5621894271572
 31
0.0
  0
LINE
  5
DBD
330
BD1
100
AcDbEntity
  8
0
  6
Continuous
 62
     7
370
    15
100
AcDbLine
 10
1908.060693958281
 20
975.5621894271572
 30
0.0
 11
1908.060693958281
 21
975.7622226150234
 31
0.0
  0
LINE
  5
DBE
330
BD1
100
AcDbEntity
  8
0
  6
Continuous
 62
     7
370
    15
100
AcDbLine
 10
1940.660693527638
 20
975.7622226150234
 30
0.0
 11
1945.060693503796
 21
975.7622226150234
 31
0.0
  0
LINE
  5
DBF
330
BD1
100
AcDbEntity
  8
0
  6
Continuous
 62
     7
370
    15
100
AcDbLine
 10
1945.060693503796
 20
975.7622226150234
 30
0.0
 11
1945.060693503796
 21
975.5621894271572
 31
0.0
  0
LINE
  5
DC0
330
BD1
100
AcDbEntity
  8
0
  6
Continuous
 62
     7
370
    15
100
AcDbLine
 10
1940.660693527638
 20
975.5621894271572
 30
0.0
 11
1940.660693527638
 21
975.7622226150234
 31
0.0
  0
LINE
  5
DC1
330
BD1
100
AcDbEntity
  8
0
  6
Continuous
 62
     7
370
    15
100
AcDbLine
 10
1965.110697628437
 20
975.7622226150234
 30
0.0
 11
1969.510697604595
 21
975.7622226150234
 31
0.0
  0
LINE
  5
DC2
330
BD1
100
AcDbEntity
  8
0
  6
Continuous
 62
     7
370
    15
100
AcDbLine
 10
1969.510697604595
 20
975.7622226150234
 30
0.0
 11
1969.510697604595
 21
975.5621894271572
 31
0.0
  0
LINE
  5
DC3
330
BD1
100
AcDbEntity
  8
0
  6
Continuous
 62
     7
370
    15
100
AcDbLine
 10
1965.110697628437
 20
975.5621894271572
 30
0.0
 11
1965.110697628437
 21
975.7622226150234
 31
0.0
  0
LINE
  5
DC4
330
BD1
100
AcDbEntity
  8
0
  6
Continuous
 62
     7
370
    15
100
AcDbLine
 10
1920.610694990932
 20
975.8622392089565
 30
0.0
 11
1920.610694990932
 21
975.7622226150234
 31
0.0
  0
LINE
  5
DC5
330
BD1
100
AcDbEntity
  8
0
  6
Continuous
 62
     7
370
    15
100
AcDbLine
 10
1916.210695014774
 20
975.7622226150234
 30
0.0
 11
1916.210695014774
 21
975.8622392089565
 31
0.0
  0
LINE
  5
DC6
330
BD1
100
AcDbEntity
  8
0
  6
Continuous
 62
     7
370
    15
100
AcDbLine
 10
1896.160694266177
 20
975.7622226150234
 30
0.0
 11
1896.160694266177
 21
975.8622392089565
 31
0.0
  0
LINE
  5
DC7
330
BD1
100
AcDbEntity
  8
0
  6
Continuous
 62
     7
370
    15
100
AcDbLine
 10
1891.760694173603
 20
975.8622392089565
 30
0.0
 11
1891.760694173603
 21
975.7622226150234
 31
0.0
  0
LINE
  5
DC8
330
BD1
100
AcDbEntity
  8
0
  6
Continuous
 62
     7
370
    15
100
AcDbLine
 10
1936.910693378626
 20
975.8622392089565
 30
0.0
 11
1936.910693378626
 21
975.7622226150234
 31
0.0
  0
LINE
  5
DC9
330
BD1
100
AcDbEntity
  8
0
  6
Continuous
 62
     7
370
    15
100
AcDbLine
 10
1932.510693402468
 20
975.7622226150234
 30
0.0
 11
1932.510693402468
 21
975.8622392089565
 31
0.0
  0
LINE
  5
DCA
330
BD1
100
AcDbEntity
  8
0
  6
Continuous
 62
     7
370
    15
100
AcDbLine
 10
1953.210693628966
 20
975.8622392089565
 30
0.0
 11
1953.210693628966
 21
975.7622226150234
 31
0.0
  0
LINE
  5
DCB
330
BD1
100
AcDbEntity
  8
0
  6
Continuous
 62
     7
370
    15
100
AcDbLine
 10
1948.810693652808
 20
975.7622226150234
 30
0.0
 11
1948.810693652808
 21
975.8622392089565
 31
0.0
  0
LINE
  5
DCC
330
BD1
100
AcDbEntity
  8
0
  6
Continuous
 62
     7
370
    15
100
AcDbLine
 10
1912.460693934439
 20
975.7622226150234
 30
0.0
 11
1912.460693934439
 21
975.8622392089565
 31
0.0
  0
LINE
  5
DCD
330
BD1
100
AcDbEntity
  8
0
  6
Continuous
 62
     7
370
    15
100
AcDbLine
 10
1908.060693958281
 20
975.8622392089565
 30
0.0
 11
1908.060693958281
 21
975.7622226150234
 31
0.0
  0
LINE
  5
DCE
330
BD1
100
AcDbEntity
  8
0
  6
Continuous
 62
     7
370
    15
100
AcDbLine
 10
1924.360695139943
 20
975.8622392089565
 30
0.0
 11
1924.360695139943
 21
975.7622226150234
 31
0.0
  0
LINE
  5
DCF
330
BD1
100
AcDbEntity
  8
0
  6
Continuous
 62
     7
370
    15
100
AcDbLine
 10
1928.760695116102
 20
975.7622226150234
 30
0.0
 11
1928.760695116102
 21
975.8622392089565
 31
0.0
  0
LINE
  5
DD0
330
BD1
100
AcDbEntity
  8
0
  6
Continuous
 62
     7
370
    15
100
AcDbLine
 10
1945.060693503796
 20
975.7622226150234
 30
0.0
 11
1945.060693503796
 21
975.8622392089565
 31
0.0
  0
LINE
  5
DD1
330
BD1
100
AcDbEntity
  8
0
  6
Continuous
 62
     7
370
    15
100
AcDbLine
 10
1940.660693527638
 20
975.8622392089565
 30
0.0
 11
1940.660693527638
 21
975.7622226150234
 31
0.0
  0
LINE
  5
DD2
330
BD1
100
AcDbEntity
  8
0
  6
Continuous
 62
     7
370
    15
100
AcDbLine
 10
1965.110697628437
 20
975.7622226150234
 30
0.0
 11
1965.110697628437
 21
975.8622392089565
 31
0.0
  0
LINE
  5
DD3
330
BD1
100
AcDbEntity
  8
0
  6
Continuous
 62
     7
370
    15
100
AcDbLine
 10
1969.510697604595
 20
975.8622392089565
 30
0.0
 11
1969.510697604595
 21
975.7622226150234
 31
0.0
  0
LINE
  5
DD4
330
BD1
100
AcDbEntity
  8
0
  6
Continuous
 62
     7
370
    15
100
AcDbLine
 10
1899.910694298773
 20
975.7622226150234
 30
0.0
 11
1899.910694298773
 21
975.8622392089565
 31
0.0
  0
LINE
  5
DD5
330
BD1
100
AcDbEntity
  8
0
  6
Continuous
 62
     7
370
    15
100
AcDbLine
 10
1904.310694274931
 20
975.8622392089565
 30
0.0
 11
1904.310694274931
 21
975.7622226150234
 31
0.0
  0
LINE
  5
DD6
330
BD1
100
AcDbEntity
  8
0
  6
Continuous
 62
     7
370
    15
100
AcDbLine
 10
1956.960693777977
 20
975.8622392089565
 30
0.0
 11
1956.960693777977
 21
975.7622226150234
 31
0.0
  0
LINE
  5
DD7
330
BD1
100
AcDbEntity
  8
0
  6
Continuous
 62
     7
370
    15
100
AcDbLine
 10
1961.360693754135
 20
975.7622226150234
 30
0.0
 11
1961.360693754135
 21
975.8622392089565
 31
0.0
  0
ENDBLK
  5
BD3
330
BD1
100
AcDbEntity
  8
0
100
AcDbBlockEnd
  0
BLOCK
  5
DDA
330
DD9
100
AcDbEntity
  8
0
100
AcDbBlockBegin
  2
2
 70
     0
 10
0.0
 20
0.0
 30
0.0
  3
2
  1

  0
LINE
  5
DDC
330
DD9
100
AcDbEntity
  8
0
  6
Continuous
 62
     7
370
    15
100
AcDbLine
 10
1894.660694369553
 20
956.7821548043211
 30
0.0
 11
1894.660694369553
 21
954.182080989929
 31
0.0
  0
LINE
  5
DDD
330
DD9
100
AcDbEntity
  8
0
  6
Continuous
 62
     7
370
    15
100
AcDbLine
 10
1894.660694369553
 20
956.7821548043211
 30
0.0
 11
1966.610693217694
 21
956.7821548043211
 31
0.0
  0
LINE
  5
DDE
330
DD9
100
AcDbEntity
  8
0
  6
Continuous
 62
     7
370
    15
100
AcDbLine
 10
1966.610693217694
 20
956.7821548043211
 30
0.0
 11
1966.610693217694
 21
954.182080989929
 31
0.0
  0
LINE
  5
DDF
330
DD9
100
AcDbEntity
  8
0
  6
Continuous
 62
     7
370
    15
100
AcDbLine
 10
1894.660694369553
 20
954.182080989929
 30
0.0
 11
1966.610693217694
 21
954.182080989929
 31
0.0
  0
LINE
  5
DE0
330
DD9
100
AcDbEntity
  8
0
  6
Continuous
 62
     7
370
    15
100
AcDbLine
 10
1894.660694369553
 20
954.182080989929
 30
0.0
 11
1890.660694179564
 21
954.182080989929
 31
0.0
  0
LINE
  5
DE1
330
DD9
100
AcDbEntity
  8
0
  6
Continuous
 62
     7
370
    15
100
AcDbLine
 10
1890.660694179564
 20
954.182080989929
 30
0.0
 11
1890.660694179564
 21
956.7821548043211
 31
0.0
  0
LINE
  5
DE2
330
DD9
100
AcDbEntity
  8
0
  6
Continuous
 62
     7
370
    15
100
AcDbLine
 10
1890.660694179564
 20
956.7821548043211
 30
0.0
 11
1894.660694369553
 21
956.7821548043211
 31
0.0
  0
LINE
  5
DE3
330
DD9
100
AcDbEntity
  8
0
  6
Continuous
 62
     7
370
    15
100
AcDbLine
 10
1966.610693217694
 20
956.7821548043211
 30
0.0
 11
1970.610693873345
 21
956.7821548043211
 31
0.0
  0
LINE
  5
DE4
330
DD9
100
AcDbEntity
  8
0
  6
Continuous
 62
     7
370
    15
100
AcDbLine
 10
1970.610693873345
 20
954.182080989929
 30
0.0
 11
1970.610693873345
 21
956.7821548043211
 31
0.0
  0
LINE
  5
DE5
330
DD9
100
AcDbEntity
  8
0
  6
Continuous
 62
     7
370
    15
100
AcDbLine
 10
1970.610693873345
 20
954.182080989929
 30
0.0
 11
1966.610693217694
 21
954.182080989929
 31
0.0
  0
LINE
  5
DE6
330
DD9
100
AcDbEntity
  8
0
  6
Continuous
 62
     7
370
    15
100
AcDbLine
 10
1962.635696710526
 20
951.9820735512693
 30
0.0
 11
1962.635696710526
 21
952.0857856331785
 31
0.0
  0
LINE
  5
DE7
330
DD9
100
AcDbEntity
  8
0
  6
Continuous
 62
     7
370
    15
100
AcDbLine
 10
1962.635696710526
 20
952.0857856331785
 30
0.0
 11
1962.635696710526
 21
954.182080989929
 31
0.0
  0
LINE
  5
DE8
330
DD9
100
AcDbEntity
  8
0
  6
Continuous
 62
     7
370
    15
100
AcDbLine
 10
1963.835694672047
 20
951.9820735512693
 30
0.0
 11
1962.635696710526
 21
951.9820735512693
 31
0.0
  0
LINE
  5
DE9
330
DD9
100
AcDbEntity
  8
0
  6
Continuous
 62
     7
370
    15
100
AcDbLine
 10
1963.835694672047
 20
954.182080989929
 30
0.0
 11
1963.835694672047
 21
951.9820735512693
 31
0.0
  0
LINE
  5
DEA
330
DD9
100
AcDbEntity
  8
0
  6
Continuous
 62
     7
370
    15
100
AcDbLine
 10
1946.335692734896
 20
951.9820735512693
 30
0.0
 11
1947.535694421707
 21
951.9820735512693
 31
0.0
  0
LINE
  5
DEB
330
DD9
100
AcDbEntity
  8
0
  6
Continuous
 62
     7
370
    15
100
AcDbLine
 10
1946.335692734896
 20
954.182080989929
 30
0.0
 11
1946.335692734896
 21
951.9820735512693
 31
0.0
  0
LINE
  5
DEC
330
DD9
100
AcDbEntity
  8
0
  6
Continuous
 62
     7
370
    15
100
AcDbLine
 10
1947.535694421707
 20
954.182080989929
 30
0.0
 11
1947.535694421707
 21
951.9820735512693
 31
0.0
  0
LINE
  5
DED
330
DD9
100
AcDbEntity
  8
0
  6
Continuous
 62
     7
370
    15
100
AcDbLine
 10
1931.235694171368
 20
951.9820735512693
 30
0.0
 11
1930.035692484556
 21
951.9820735512693
 31
0.0
  0
LINE
  5
DEE
330
DD9
100
AcDbEntity
  8
0
  6
Continuous
 62
     7
370
    15
100
AcDbLine
 10
1930.035692484556
 20
954.182080989929
 30
0.0
 11
1930.035692484556
 21
951.9820735512693
 31
0.0
  0
LINE
  5
DEF
330
DD9
100
AcDbEntity
  8
0
  6
Continuous
 62
     7
370
    15
100
AcDbLine
 10
1931.235694171368
 20
954.182080989929
 30
0.0
 11
1931.235694171368
 21
951.9820735512693
 31
0.0
  0
LINE
  5
DF0
330
DD9
100
AcDbEntity
  8
0
  6
Continuous
 62
     7
370
    15
100
AcDbLine
 10
1914.935693921028
 20
951.9820735512693
 30
0.0
 11
1913.735694096862
 21
951.9820735512693
 31
0.0
  0
LINE
  5
DF1
330
DD9
100
AcDbEntity
  8
0
  6
Continuous
 62
     7
370
    15
100
AcDbLine
 10
1913.735694096862
 20
954.182080989929
 30
0.0
 11
1913.735694096862
 21
951.9820735512693
 31
0.0
  0
LINE
  5
DF2
330
DD9
100
AcDbEntity
  8
0
  6
Continuous
 62
     7
370
    15
100
AcDbLine
 10
1914.935693921028
 20
954.182080989929
 30
0.0
 11
1914.935693921028
 21
951.9820735512693
 31
0.0
  0
LINE
  5
DF3
330
DD9
100
AcDbEntity
  8
0
  6
Continuous
 62
     7
370
    15
100
AcDbLine
 10
1897.435694253976
 20
951.9820735512693
 30
0.0
 11
1898.635694252766
 21
951.9820735512693
 31
0.0
  0
LINE
  5
DF4
330
DD9
100
AcDbEntity
  8
0
  6
Continuous
 62
     7
370
    15
100
AcDbLine
 10
1898.635694252766
 20
954.182080989929
 30
0.0
 11
1898.635694252766
 21
951.9820735512693
 31
0.0
  0
LINE
  5
DF5
330
DD9
100
AcDbEntity
  8
0
  6
Continuous
 62
     7
370
    15
100
AcDbLine
 10
1897.435694253976
 20
954.182080989929
 30
0.0
 11
1897.435694253976
 21
951.9820735512693
 31
0.0
  0
LINE
  5
DF6
330
DD9
100
AcDbEntity
  8
0
  6
Continuous
 62
     7
370
    15
100
AcDbLine
 10
1898.635694252766
 20
956.7821548043211
 30
0.0
 11
1898.635694252766
 21
958.9821622429807
 31
0.0
  0
LINE
  5
DF7
330
DD9
100
AcDbEntity
  8
0
  6
Continuous
 62
     7
370
    15
100
AcDbLine
 10
1897.435694253976
 20
956.7821548043211
 30
0.0
 11
1897.435694253976
 21
958.9821622429807
 31
0.0
  0
LINE
  5
DF8
330
DD9
100
AcDbEntity
  8
0
  6
Continuous
 62
     7
370
    15
100
AcDbLine
 10
1898.635694252766
 20
958.9821622429807
 30
0.0
 11
1897.435694253976
 21
958.9821622429807
 31
0.0
  0
LINE
  5
DF9
330
DD9
100
AcDbEntity
  8
0
  6
Continuous
 62
     7
370
    15
100
AcDbLine
 10
1930.035692484556
 20
956.7821548043211
 30
0.0
 11
1930.035692484556
 21
958.9821622429807
 31
0.0
  0
LINE
  5
DFA
330
DD9
100
AcDbEntity
  8
0
  6
Continuous
 62
     7
370
    15
100
AcDbLine
 10
1931.235694171368
 20
958.9821622429807
 30
0.0
 11
1930.035692484556
 21
958.9821622429807
 31
0.0
  0
LINE
  5
DFB
330
DD9
100
AcDbEntity
  8
0
  6
Continuous
 62
     7
370
    15
100
AcDbLine
 10
1931.235694171368
 20
956.7821548043211
 30
0.0
 11
1931.235694171368
 21
958.9821622429807
 31
0.0
  0
LINE
  5
DFC
330
DD9
100
AcDbEntity
  8
0
  6
Continuous
 62
     7
370
    15
100
AcDbLine
 10
1914.935693921028
 20
958.9821622429807
 30
0.0
 11
1913.735694096862
 21
958.9821622429807
 31
0.0
  0
LINE
  5
DFD
330
DD9
100
AcDbEntity
  8
0
  6
Continuous
 62
     7
370
    15
100
AcDbLine
 10
1914.935693921028
 20
956.7821548043211
 30
0.0
 11
1914.935693921028
 21
958.9821622429807
 31
0.0
  0
LINE
  5
DFE
330
DD9
100
AcDbEntity
  8
0
  6
Continuous
 62
     7
370
    15
100
AcDbLine
 10
1913.735694096862
 20
956.7821548043211
 30
0.0
 11
1913.735694096862
 21
958.9821622429807
 31
0.0
  0
LINE
  5
DFF
330
DD9
100
AcDbEntity
  8
0
  6
Continuous
 62
     7
370
    15
100
AcDbLine
 10
1947.535694421707
 20
956.7821548043211
 30
0.0
 11
1947.535694421707
 21
958.9821622429807
 31
0.0
  0
LINE
  5
E00
330
DD9
100
AcDbEntity
  8
0
  6
Continuous
 62
     7
370
    15
100
AcDbLine
 10
1947.535694421707
 20
958.9821622429807
 30
0.0
 11
1946.335692734896
 21
958.9821622429807
 31
0.0
  0
LINE
  5
E01
330
DD9
100
AcDbEntity
  8
0
  6
Continuous
 62
     7
370
    15
100
AcDbLine
 10
1946.335692734896
 20
958.9821622429807
 30
0.0
 11
1946.335692734896
 21
956.7821548043211
 31
0.0
  0
LINE
  5
E02
330
DD9
100
AcDbEntity
  8
0
  6
Continuous
 62
     7
370
    15
100
AcDbLine
 10
1962.635696710526
 20
958.9821622429807
 30
0.0
 11
1962.635696710526
 21
956.7821548043211
 31
0.0
  0
LINE
  5
E03
330
DD9
100
AcDbEntity
  8
0
  6
Continuous
 62
     7
370
    15
100
AcDbLine
 10
1962.635696710526
 20
958.9821622429807
 30
0.0
 11
1963.835694672047
 21
958.9821622429807
 31
0.0
  0
LINE
  5
E04
330
DD9
100
AcDbEntity
  8
0
  6
Continuous
 62
     7
370
    15
100
AcDbLine
 10
1963.835694672047
 20
958.9821622429807
 30
0.0
 11
1963.835694672047
 21
956.7821548043211
 31
0.0
  0
LINE
  5
E05
330
DD9
100
AcDbEntity
  8
0
  6
Continuous
 62
     7
370
    15
100
AcDbLine
 10
1890.410694138585
 20
954.182080989929
 30
0.0
 11
1890.410694138585
 21
956.7821548043211
 31
0.0
  0
LINE
  5
E06
330
DD9
100
AcDbEntity
  8
0
  6
Continuous
 62
     7
370
    15
100
AcDbLine
 10
1890.660694179564
 20
954.182080989929
 30
0.0
 11
1890.410694138585
 21
954.182080989929
 31
0.0
  0
LINE
  5
E07
330
DD9
100
AcDbEntity
  8
0
  6
Continuous
 62
     7
370
    15
100
AcDbLine
 10
1890.410694138585
 20
956.7821548043211
 30
0.0
 11
1890.660694179564
 21
956.7821548043211
 31
0.0
  0
LINE
  5
E08
330
DD9
100
AcDbEntity
  8
0
  6
Continuous
 62
     7
370
    15
100
AcDbLine
 10
1970.860690654694
 20
954.182080989929
 30
0.0
 11
1970.860690654694
 21
956.7821548043211
 31
0.0
  0
LINE
  5
E09
330
DD9
100
AcDbEntity
  8
0
  6
Continuous
 62
     7
370
    15
100
AcDbLine
 10
1970.860690654694
 20
954.182080989929
 30
0.0
 11
1970.610693873345
 21
954.182080989929
 31
0.0
  0
LINE
  5
E0A
330
DD9
100
AcDbEntity
  8
0
  6
Continuous
 62
     7
370
    15
100
AcDbLine
 10
1970.610693873345
 20
956.7821548043211
 30
0.0
 11
1970.860690654694
 21
956.7821548043211
 31
0.0
  0
LINE
  5
E0B
330
DD9
100
AcDbEntity
  8
0
  6
Continuous
 62
     7
370
    15
100
AcDbLine
 10
1941.242788763224
 20
949.1957948265989
 30
0.0
 11
1940.860693187891
 21
948.1460378228147
 31
0.0
  0
LINE
  5
E0C
330
DD9
100
AcDbEntity
  8
0
  6
Continuous
 62
     7
370
    15
100
AcDbLine
 10
1940.860693187891
 20
948.1460378228147
 30
0.0
 11
1939.860694886624
 21
948.1460378228147
 31
0.0
  0
LINE
  5
E0D
330
DD9
100
AcDbEntity
  8
0
  6
Continuous
 62
     7
370
    15
100
AcDbLine
 10
1939.860694886624
 20
948.1460378228147
 30
0.0
 11
1939.860694886624
 21
951.6460225640257
 31
0.0
  0
ARC
  5
E0E
330
DD9
100
AcDbEntity
  8
0
  6
Continuous
 62
     7
370
    15
100
AcDbCircle
 10
1942.860694266736
 20
951.6460507337059
 30
0.0
 40
3.0
100
AcDbArc
 50
137.1665719339571
 51
180.0
  0
ARC
  5
E0F
330
DD9
100
AcDbEntity
  8
0
  6
Continuous
 62
     7
370
    15
100
AcDbCircle
 10
1942.860694266736
 20
951.6460507337059
 30
0.0
 40
3.000000000000281
100
AcDbArc
 50
0.0
 51
42.83342811979109
  0
LINE
  5
E10
330
DD9
100
AcDbEntity
  8
0
  6
Continuous
 62
     7
370
    15
100
AcDbLine
 10
1945.8606958701
 20
948.1460378228147
 30
0.0
 11
1944.860693843542
 21
948.1460378228147
 31
0.0
  0
LINE
  5
E11
330
DD9
100
AcDbEntity
  8
0
  6
Continuous
 62
     7
370
    15
100
AcDbLine
 10
1944.860693843542
 20
948.1460378228147
 30
0.0
 11
1944.4786019935
 21
949.1957948265989
 31
0.0
  0
LINE
  5
E12
330
DD9
100
AcDbEntity
  8
0
  6
Continuous
 62
     7
370
    15
100
AcDbLine
 10
1944.4786019935
 20
949.1957948265989
 30
0.0
 11
1944.356129349648
 21
950.7619664727171
 31
0.0
  0
ARC
  5
E13
330
DD9
100
AcDbEntity
  8
0
  6
Continuous
 62
     7
370
    15
100
AcDbCircle
 10
1942.860694266736
 20
950.6450507312061
 30
0.0
 40
1.499999999999977
100
AcDbArc
 50
4.471403166191148
 51
175.5285968338023
  0
LINE
  5
E14
330
DD9
100
AcDbEntity
  8
0
  6
Continuous
 62
     7
370
    15
100
AcDbLine
 10
1941.365261407076
 20
950.7619664727171
 30
0.0
 11
1941.242788763224
 21
949.1957948265989
 31
0.0
  0
LINE
  5
E15
330
DD9
100
AcDbEntity
  8
0
  6
Continuous
 62
     7
370
    15
100
AcDbLine
 10
1945.8606958701
 20
951.6460225640257
 30
0.0
 11
1945.8606958701
 21
948.1460378228147
 31
0.0
  0
LINE
  5
E16
330
DD9
100
AcDbEntity
  8
0
  6
Continuous
 62
     7
370
    15
100
AcDbLine
 10
1945.060693503796
 20
954.182080989929
 30
0.0
 11
1945.060693503796
 21
953.6856935082395
 31
0.0
  0
LINE
  5
E17
330
DD9
100
AcDbEntity
  8
0
  6
Continuous
 62
     7
370
    15
100
AcDbLine
 10
1940.660693527638
 20
953.6856935082395
 30
0.0
 11
1940.660693527638
 21
954.182080989929
 31
0.0
  0
ARC
  5
E18
330
DD9
100
AcDbEntity
  8
0
  6
Continuous
 62
     7
370
    15
100
AcDbCircle
 10
1951.010694266735
 20
950.6450507312061
 30
0.0
 40
1.500000000000091
100
AcDbArc
 50
4.471403166191148
 51
175.5285968338023
  0
LINE
  5
E19
330
DD9
100
AcDbEntity
  8
0
  6
Continuous
 62
     7
370
    15
100
AcDbLine
 10
1949.392788888394
 20
949.1957948265989
 30
0.0
 11
1949.515261532246
 21
950.7619664727171
 31
0.0
  0
LINE
  5
E1A
330
DD9
100
AcDbEntity
  8
0
  6
Continuous
 62
     7
370
    15
100
AcDbLine
 10
1949.010693313061
 20
948.1460378228147
 30
0.0
 11
1949.392788888394
 21
949.1957948265989
 31
0.0
  0
LINE
  5
E1B
330
DD9
100
AcDbEntity
  8
0
  6
Continuous
 62
     7
370
    15
100
AcDbLine
 10
1948.010695011793
 20
948.1460378228147
 30
0.0
 11
1949.010693313061
 21
948.1460378228147
 31
0.0
  0
ARC
  5
E1C
330
DD9
100
AcDbEntity
  8
0
  6
Continuous
 62
     7
370
    15
100
AcDbCircle
 10
1951.010694266735
 20
951.6460507337059
 30
0.0
 40
3.0
100
AcDbArc
 50
137.1665718802041
 51
180.0
  0
ARC
  5
E1D
330
DD9
100
AcDbEntity
  8
0
  6
Continuous
 62
     7
370
    15
100
AcDbCircle
 10
1951.010694266735
 20
951.6460507337059
 30
0.0
 40
3.000000000001897
100
AcDbArc
 50
0.0
 51
42.83342806610289
  0
LINE
  5
E1E
330
DD9
100
AcDbEntity
  8
0
  6
Continuous
 62
     7
370
    15
100
AcDbLine
 10
1954.01069599527
 20
948.1460378228147
 30
0.0
 11
1954.01069599527
 21
951.6460225640257
 31
0.0
  0
LINE
  5
E1F
330
DD9
100
AcDbEntity
  8
0
  6
Continuous
 62
     7
370
    15
100
AcDbLine
 10
1953.010693968712
 20
948.1460378228147
 30
0.0
 11
1954.01069599527
 21
948.1460378228147
 31
0.0
  0
LINE
  5
E20
330
DD9
100
AcDbEntity
  8
0
  6
Continuous
 62
     7
370
    15
100
AcDbLine
 10
1952.62860211867
 20
949.1957948265989
 30
0.0
 11
1953.010693968712
 21
948.1460378228147
 31
0.0
  0
LINE
  5
E21
330
DD9
100
AcDbEntity
  8
0
  6
Continuous
 62
     7
370
    15
100
AcDbLine
 10
1952.506129474818
 20
950.7619664727171
 30
0.0
 11
1952.62860211867
 21
949.1957948265989
 31
0.0
  0
LINE
  5
E22
330
DD9
100
AcDbEntity
  8
0
  6
Continuous
 62
     7
370
    15
100
AcDbLine
 10
1948.010695011793
 20
951.6460225640257
 30
0.0
 11
1948.010695011793
 21
948.1460378228147
 31
0.0
  0
LINE
  5
E23
330
DD9
100
AcDbEntity
  8
0
  6
Continuous
 62
     7
370
    15
100
AcDbLine
 10
1953.210693628966
 20
953.6856935082395
 30
0.0
 11
1953.210693628966
 21
954.182080989929
 31
0.0
  0
LINE
  5
E24
330
DD9
100
AcDbEntity
  8
0
  6
Continuous
 62
     7
370
    15
100
AcDbLine
 10
1948.810693652808
 20
954.182080989929
 30
0.0
 11
1948.810693652808
 21
953.6856935082395
 31
0.0
  0
LINE
  5
E25
330
DD9
100
AcDbEntity
  8
0
  6
Continuous
 62
     7
370
    15
100
AcDbLine
 10
1924.942786650239
 20
949.1957948265989
 30
0.0
 11
1924.560694800197
 21
948.1460378228147
 31
0.0
  0
LINE
  5
E26
330
DD9
100
AcDbEntity
  8
0
  6
Continuous
 62
     7
370
    15
100
AcDbLine
 10
1924.560694800197
 20
948.1460378228147
 30
0.0
 11
1923.560694636284
 21
948.1460378228147
 31
0.0
  0
ARC
  5
E27
330
DD9
100
AcDbEntity
  8
0
  6
Continuous
 62
     7
370
    15
100
AcDbCircle
 10
1926.560694266735
 20
951.6460507337059
 30
0.0
 40
3.0
100
AcDbArc
 50
137.1665719339571
 51
180.0
  0
LINE
  5
E28
330
DD9
100
AcDbEntity
  8
0
  6
Continuous
 62
     7
370
    15
100
AcDbLine
 10
1929.560695619761
 20
951.6460225640257
 30
0.0
 11
1929.560695619761
 21
948.1460378228147
 31
0.0
  0
LINE
  5
E29
330
DD9
100
AcDbEntity
  8
0
  6
Continuous
 62
     7
370
    15
100
AcDbLine
 10
1929.560695619761
 20
948.1460378228147
 30
0.0
 11
1928.560693593203
 21
948.1460378228147
 31
0.0
  0
LINE
  5
E2A
330
DD9
100
AcDbEntity
  8
0
  6
Continuous
 62
     7
370
    15
100
AcDbLine
 10
1928.560693593203
 20
948.1460378228147
 30
0.0
 11
1928.178601743161
 21
949.1957948265989
 31
0.0
  0
LINE
  5
E2B
330
DD9
100
AcDbEntity
  8
0
  6
Continuous
 62
     7
370
    15
100
AcDbLine
 10
1928.178601743161
 20
949.1957948265989
 30
0.0
 11
1928.056129099308
 21
950.7619664727171
 31
0.0
  0
LINE
  5
E2C
330
DD9
100
AcDbEntity
  8
0
  6
Continuous
 62
     7
370
    15
100
AcDbLine
 10
1925.065259294092
 20
950.7619664727171
 30
0.0
 11
1924.942786650239
 21
949.1957948265989
 31
0.0
  0
ARC
  5
E2D
330
DD9
100
AcDbEntity
  8
0
  6
Continuous
 62
     7
370
    15
100
AcDbCircle
 10
1926.560694266735
 20
950.6450507312061
 30
0.0
 40
1.499999999999921
100
AcDbArc
 50
4.471403166191148
 51
175.5285968338088
  0
LINE
  5
E2E
330
DD9
100
AcDbEntity
  8
0
  6
Continuous
 62
     7
370
    15
100
AcDbLine
 10
1923.560694636284
 20
948.1460378228147
 30
0.0
 11
1923.560694636284
 21
951.6460225640257
 31
0.0
  0
ARC
  5
E2F
330
DD9
100
AcDbEntity
  8
0
  6
Continuous
 62
     7
370
    15
100
AcDbCircle
 10
1926.560694266735
 20
951.6460507337059
 30
0.0
 40
3.000000000000177
100
AcDbArc
 50
0.0
 51
42.83342811979109
  0
LINE
  5
E30
330
DD9
100
AcDbEntity
  8
0
  6
Continuous
 62
     7
370
    15
100
AcDbLine
 10
1928.760695116102
 20
954.182080989929
 30
0.0
 11
1928.760695116102
 21
953.6856935082395
 31
0.0
  0
LINE
  5
E31
330
DD9
100
AcDbEntity
  8
0
  6
Continuous
 62
     7
370
    15
100
AcDbLine
 10
1924.360695139943
 20
953.6856935082395
 30
0.0
 11
1924.360695139943
 21
954.182080989929
 31
0.0
  0
LINE
  5
E32
330
DD9
100
AcDbEntity
  8
0
  6
Continuous
 62
     7
370
    15
100
AcDbLine
 10
1957.542789013563
 20
949.1957948265989
 30
0.0
 11
1957.160693438231
 21
948.1460378228147
 31
0.0
  0
LINE
  5
E33
330
DD9
100
AcDbEntity
  8
0
  6
Continuous
 62
     7
370
    15
100
AcDbLine
 10
1957.160693438231
 20
948.1460378228147
 30
0.0
 11
1956.160695136963
 21
948.1460378228147
 31
0.0
  0
ARC
  5
E34
330
DD9
100
AcDbEntity
  8
0
  6
Continuous
 62
     7
370
    15
100
AcDbCircle
 10
1959.160694266736
 20
951.6460507337059
 30
0.0
 40
3.000000000001897
100
AcDbArc
 50
137.1665719338971
 51
180.0
  0
ARC
  5
E35
330
DD9
100
AcDbEntity
  8
0
  6
Continuous
 62
     7
370
    15
100
AcDbCircle
 10
1959.160694266736
 20
951.6460507337059
 30
0.0
 40
3.000000000000261
100
AcDbArc
 50
0.0
 51
42.83342811979109
  0
LINE
  5
E36
330
DD9
100
AcDbEntity
  8
0
  6
Continuous
 62
     7
370
    15
100
AcDbLine
 10
1962.16069239515
 20
948.1460378228147
 30
0.0
 11
1961.160697819172
 21
948.1460378228147
 31
0.0
  0
LINE
  5
E37
330
DD9
100
AcDbEntity
  8
0
  6
Continuous
 62
     7
370
    15
100
AcDbLine
 10
1961.160697819172
 20
948.1460378228147
 30
0.0
 11
1960.77860224384
 21
949.1957948265989
 31
0.0
  0
LINE
  5
E38
330
DD9
100
AcDbEntity
  8
0
  6
Continuous
 62
     7
370
    15
100
AcDbLine
 10
1960.77860224384
 20
949.1957948265989
 30
0.0
 11
1960.656129599987
 21
950.7619664727171
 31
0.0
  0
LINE
  5
E39
330
DD9
100
AcDbEntity
  8
0
  6
Continuous
 62
     7
370
    15
100
AcDbLine
 10
1957.665257932125
 20
950.7619664727171
 30
0.0
 11
1957.542789013563
 21
949.1957948265989
 31
0.0
  0
ARC
  5
E3A
330
DD9
100
AcDbEntity
  8
0
  6
Continuous
 62
     7
370
    15
100
AcDbCircle
 10
1959.160694266736
 20
950.6450507312061
 30
0.0
 40
1.500000000000062
100
AcDbArc
 50
4.471403166191148
 51
175.5285968338023
  0
LINE
  5
E3B
330
DD9
100
AcDbEntity
  8
0
  6
Continuous
 62
     7
370
    15
100
AcDbLine
 10
1956.160695136963
 20
948.1460378228147
 30
0.0
 11
1956.160695136963
 21
951.6460225640257
 31
0.0
  0
LINE
  5
E3C
330
DD9
100
AcDbEntity
  8
0
  6
Continuous
 62
     7
370
    15
100
AcDbLine
 10
1962.16069239515
 20
951.6460225640257
 30
0.0
 11
1962.16069239515
 21
948.1460378228147
 31
0.0
  0
LINE
  5
E3D
330
DD9
100
AcDbEntity
  8
0
  6
Continuous
 62
     7
370
    15
100
AcDbLine
 10
1956.960693777977
 20
953.6856935082395
 30
0.0
 11
1956.960693777977
 21
954.182080989929
 31
0.0
  0
LINE
  5
E3E
330
DD9
100
AcDbEntity
  8
0
  6
Continuous
 62
     7
370
    15
100
AcDbLine
 10
1961.360693754135
 20
954.182080989929
 30
0.0
 11
1961.360693754135
 21
953.6856935082395
 31
0.0
  0
ARC
  5
E3F
330
DD9
100
AcDbEntity
  8
0
  6
Continuous
 62
     7
370
    15
100
AcDbCircle
 10
1934.710694266735
 20
950.6450507312061
 30
0.0
 40
1.500000000000034
100
AcDbArc
 50
4.471403166191148
 51
175.5285968338023
  0
LINE
  5
E40
330
DD9
100
AcDbEntity
  8
0
  6
Continuous
 62
     7
370
    15
100
AcDbLine
 10
1933.092788638054
 20
949.1957948265989
 30
0.0
 11
1933.215261281906
 21
950.7619664727171
 31
0.0
  0
LINE
  5
E41
330
DD9
100
AcDbEntity
  8
0
  6
Continuous
 62
     7
370
    15
100
AcDbLine
 10
1932.710693062722
 20
948.1460378228147
 30
0.0
 11
1933.092788638054
 21
949.1957948265989
 31
0.0
  0
LINE
  5
E42
330
DD9
100
AcDbEntity
  8
0
  6
Continuous
 62
     7
370
    15
100
AcDbLine
 10
1931.710694761454
 20
948.1460378228147
 30
0.0
 11
1932.710693062722
 21
948.1460378228147
 31
0.0
  0
ARC
  5
E43
330
DD9
100
AcDbEntity
  8
0
  6
Continuous
 62
     7
370
    15
100
AcDbCircle
 10
1934.710694266735
 20
951.6460507337059
 30
0.0
 40
3.0
100
AcDbArc
 50
137.1665718802041
 51
180.0
  0
LINE
  5
E44
330
DD9
100
AcDbEntity
  8
0
  6
Continuous
 62
     7
370
    15
100
AcDbLine
 10
1937.710695744931
 20
948.1460378228147
 30
0.0
 11
1937.710695744931
 21
951.6460225640257
 31
0.0
  0
LINE
  5
E45
330
DD9
100
AcDbEntity
  8
0
  6
Continuous
 62
     7
370
    15
100
AcDbLine
 10
1936.710693718373
 20
948.1460378228147
 30
0.0
 11
1937.710695744931
 21
948.1460378228147
 31
0.0
  0
LINE
  5
E46
330
DD9
100
AcDbEntity
  8
0
  6
Continuous
 62
     7
370
    15
100
AcDbLine
 10
1936.32860186833
 20
949.1957948265989
 30
0.0
 11
1936.710693718373
 21
948.1460378228147
 31
0.0
  0
LINE
  5
E47
330
DD9
100
AcDbEntity
  8
0
  6
Continuous
 62
     7
370
    15
100
AcDbLine
 10
1936.206129224478
 20
950.7619664727171
 30
0.0
 11
1936.32860186833
 21
949.1957948265989
 31
0.0
  0
ARC
  5
E48
330
DD9
100
AcDbEntity
  8
0
  6
Continuous
 62
     7
370
    15
100
AcDbCircle
 10
1934.710694266735
 20
951.6460507337059
 30
0.0
 40
3.0
100
AcDbArc
 50
0.0
 51
42.83342806604289
  0
LINE
  5
E49
330
DD9
100
AcDbEntity
  8
0
  6
Continuous
 62
     7
370
    15
100
AcDbLine
 10
1931.710694761454
 20
951.6460225640257
 30
0.0
 11
1931.710694761454
 21
948.1460378228147
 31
0.0
  0
LINE
  5
E4A
330
DD9
100
AcDbEntity
  8
0
  6
Continuous
 62
     7
370
    15
100
AcDbLine
 10
1936.910693378626
 20
953.6856935082395
 30
0.0
 11
1936.910693378626
 21
954.182080989929
 31
0.0
  0
LINE
  5
E4B
330
DD9
100
AcDbEntity
  8
0
  6
Continuous
 62
     7
370
    15
100
AcDbLine
 10
1932.510693402468
 20
954.182080989929
 30
0.0
 11
1932.510693402468
 21
953.6856935082395
 31
0.0
  0
LINE
  5
E4C
330
DD9
100
AcDbEntity
  8
0
  6
Continuous
 62
     7
370
    15
100
AcDbLine
 10
1908.642787331222
 20
949.1957948265989
 30
0.0
 11
1908.260694549857
 21
948.1460378228147
 31
0.0
  0
LINE
  5
E4D
330
DD9
100
AcDbEntity
  8
0
  6
Continuous
 62
     7
370
    15
100
AcDbLine
 10
1908.260694549857
 20
948.1460378228147
 30
0.0
 11
1907.260694385945
 21
948.1460378228147
 31
0.0
  0
LINE
  5
E4E
330
DD9
100
AcDbEntity
  8
0
  6
Continuous
 62
     7
370
    15
100
AcDbLine
 10
1907.260694385945
 20
948.1460378228147
 30
0.0
 11
1907.260694385945
 21
951.6460225640257
 31
0.0
  0
ARC
  5
E4F
330
DD9
100
AcDbEntity
  8
0
  6
Continuous
 62
     7
370
    15
100
AcDbCircle
 10
1910.260694266735
 20
951.6460507337059
 30
0.0
 40
3.000000000000156
100
AcDbArc
 50
0.0
 51
42.83342811979109
  0
LINE
  5
E50
330
DD9
100
AcDbEntity
  8
0
  6
Continuous
 62
     7
370
    15
100
AcDbLine
 10
1913.260694438099
 20
951.6460225640257
 30
0.0
 11
1913.260694438099
 21
948.1460378228147
 31
0.0
  0
LINE
  5
E51
330
DD9
100
AcDbEntity
  8
0
  6
Continuous
 62
     7
370
    15
100
AcDbLine
 10
1913.260694438099
 20
948.1460378228147
 30
0.0
 11
1912.260694274186
 21
948.1460378228147
 31
0.0
  0
LINE
  5
E52
330
DD9
100
AcDbEntity
  8
0
  6
Continuous
 62
     7
370
    15
100
AcDbLine
 10
1912.260694274186
 20
948.1460378228147
 30
0.0
 11
1911.878600561498
 21
949.1957948265989
 31
0.0
  0
LINE
  5
E53
330
DD9
100
AcDbEntity
  8
0
  6
Continuous
 62
     7
370
    15
100
AcDbLine
 10
1911.878600561498
 20
949.1957948265989
 30
0.0
 11
1911.756128848969
 21
950.7619664727171
 31
0.0
  0
LINE
  5
E54
330
DD9
100
AcDbEntity
  8
0
  6
Continuous
 62
     7
370
    15
100
AcDbLine
 10
1908.765259975075
 20
950.7619664727171
 30
0.0
 11
1908.642787331222
 21
949.1957948265989
 31
0.0
  0
ARC
  5
E55
330
DD9
100
AcDbEntity
  8
0
  6
Continuous
 62
     7
370
    15
100
AcDbCircle
 10
1910.260694266735
 20
951.6460507337059
 30
0.0
 40
2.999999999999971
100
AcDbArc
 50
137.1665719339571
 51
180.0
  0
ARC
  5
E56
330
DD9
100
AcDbEntity
  8
0
  6
Continuous
 62
     7
370
    15
100
AcDbCircle
 10
1910.260694266735
 20
950.6450507312061
 30
0.0
 40
1.499999999999892
100
AcDbArc
 50
4.471403166191148
 51
175.5285968338088
  0
LINE
  5
E57
330
DD9
100
AcDbEntity
  8
0
  6
Continuous
 62
     7
370
    15
100
AcDbLine
 10
1912.460693934439
 20
954.182080989929
 30
0.0
 11
1912.460693934439
 21
953.6856935082395
 31
0.0
  0
LINE
  5
E58
330
DD9
100
AcDbEntity
  8
0
  6
Continuous
 62
     7
370
    15
100
AcDbLine
 10
1908.060693958281
 20
953.6856935082395
 30
0.0
 11
1908.060693958281
 21
954.182080989929
 31
0.0
  0
LINE
  5
E59
330
DD9
100
AcDbEntity
  8
0
  6
Continuous
 62
     7
370
    15
100
AcDbLine
 10
1916.792788387715
 20
949.1957948265989
 30
0.0
 11
1916.915259168922
 21
950.7619664727171
 31
0.0
  0
LINE
  5
E5A
330
DD9
100
AcDbEntity
  8
0
  6
Continuous
 62
     7
370
    15
100
AcDbLine
 10
1916.410694675027
 20
948.1460378228147
 30
0.0
 11
1916.792788387715
 21
949.1957948265989
 31
0.0
  0
LINE
  5
E5B
330
DD9
100
AcDbEntity
  8
0
  6
Continuous
 62
     7
370
    15
100
AcDbLine
 10
1915.410694511114
 20
948.1460378228147
 30
0.0
 11
1916.410694675027
 21
948.1460378228147
 31
0.0
  0
LINE
  5
E5C
330
DD9
100
AcDbEntity
  8
0
  6
Continuous
 62
     7
370
    15
100
AcDbLine
 10
1915.410694511114
 20
951.6460225640257
 30
0.0
 11
1915.410694511114
 21
948.1460378228147
 31
0.0
  0
LINE
  5
E5D
330
DD9
100
AcDbEntity
  8
0
  6
Continuous
 62
     7
370
    15
100
AcDbLine
 10
1921.410693631946
 20
948.1460378228147
 30
0.0
 11
1921.410693631946
 21
951.6460225640257
 31
0.0
  0
LINE
  5
E5E
330
DD9
100
AcDbEntity
  8
0
  6
Continuous
 62
     7
370
    15
100
AcDbLine
 10
1920.410693468033
 20
948.1460378228147
 30
0.0
 11
1921.410693631946
 21
948.1460378228147
 31
0.0
  0
LINE
  5
E5F
330
DD9
100
AcDbEntity
  8
0
  6
Continuous
 62
     7
370
    15
100
AcDbLine
 10
1920.028601617991
 20
949.1957948265989
 30
0.0
 11
1920.410693468033
 21
948.1460378228147
 31
0.0
  0
LINE
  5
E60
330
DD9
100
AcDbEntity
  8
0
  6
Continuous
 62
     7
370
    15
100
AcDbLine
 10
1919.906128974139
 20
950.7619664727171
 30
0.0
 11
1920.028601617991
 21
949.1957948265989
 31
0.0
  0
ARC
  5
E61
330
DD9
100
AcDbEntity
  8
0
  6
Continuous
 62
     7
370
    15
100
AcDbCircle
 10
1918.410694266735
 20
951.6460507337059
 30
0.0
 40
3.0
100
AcDbArc
 50
0.0
 51
42.83342806604289
  0
ARC
  5
E62
330
DD9
100
AcDbEntity
  8
0
  6
Continuous
 62
     7
370
    15
100
AcDbCircle
 10
1918.410694266735
 20
951.6460507337059
 30
0.0
 40
3.000000000000073
100
AcDbArc
 50
137.1665718802089
 51
180.0
  0
ARC
  5
E63
330
DD9
100
AcDbEntity
  8
0
  6
Continuous
 62
     7
370
    15
100
AcDbCircle
 10
1918.410694266735
 20
950.6450507312061
 30
0.0
 40
1.499999999999921
100
AcDbArc
 50
4.471403166191148
 51
175.5285968338088
  0
LINE
  5
E64
330
DD9
100
AcDbEntity
  8
0
  6
Continuous
 62
     7
370
    15
100
AcDbLine
 10
1916.210695014774
 20
954.182080989929
 30
0.0
 11
1916.210695014774
 21
953.6856935082395
 31
0.0
  0
LINE
  5
E65
330
DD9
100
AcDbEntity
  8
0
  6
Continuous
 62
     7
370
    15
100
AcDbLine
 10
1920.610694990932
 20
953.6856935082395
 30
0.0
 11
1920.610694990932
 21
954.182080989929
 31
0.0
  0
LINE
  5
E66
330
DD9
100
AcDbEntity
  8
0
  6
Continuous
 62
     7
370
    15
100
AcDbLine
 10
1892.342787546544
 20
949.1957948265989
 30
0.0
 11
1892.465259724735
 21
950.7619664727171
 31
0.0
  0
LINE
  5
E67
330
DD9
100
AcDbEntity
  8
0
  6
Continuous
 62
     7
370
    15
100
AcDbLine
 10
1891.960694299518
 20
948.1460378228147
 30
0.0
 11
1892.342787546544
 21
949.1957948265989
 31
0.0
  0
LINE
  5
E68
330
DD9
100
AcDbEntity
  8
0
  6
Continuous
 62
     7
370
    15
100
AcDbLine
 10
1890.960694135605
 20
948.1460378228147
 30
0.0
 11
1891.960694299518
 21
948.1460378228147
 31
0.0
  0
LINE
  5
E69
330
DD9
100
AcDbEntity
  8
0
  6
Continuous
 62
     7
370
    15
100
AcDbLine
 10
1895.960694256677
 20
948.1460378228147
 30
0.0
 11
1896.960694304175
 21
948.1460378228147
 31
0.0
  0
LINE
  5
E6A
330
DD9
100
AcDbEntity
  8
0
  6
Continuous
 62
     7
370
    15
100
AcDbLine
 10
1895.578601009651
 20
949.1957948265989
 30
0.0
 11
1895.960694256677
 21
948.1460378228147
 31
0.0
  0
LINE
  5
E6B
330
DD9
100
AcDbEntity
  8
0
  6
Continuous
 62
     7
370
    15
100
AcDbLine
 10
1895.45612883146
 20
950.7619664727171
 30
0.0
 11
1895.578601009651
 21
949.1957948265989
 31
0.0
  0
LINE
  5
E6C
330
DD9
100
AcDbEntity
  8
0
  6
Continuous
 62
     7
370
    15
100
AcDbLine
 10
1890.960694135605
 20
951.6460225640257
 30
0.0
 11
1890.960694135605
 21
948.1460378228147
 31
0.0
  0
LINE
  5
E6D
330
DD9
100
AcDbEntity
  8
0
  6
Continuous
 62
     7
370
    15
100
AcDbLine
 10
1896.960694304175
 20
948.1460378228147
 30
0.0
 11
1896.960694304175
 21
951.6460225640257
 31
0.0
  0
ARC
  5
E6E
330
DD9
100
AcDbEntity
  8
0
  6
Continuous
 62
     7
370
    15
100
AcDbCircle
 10
1893.960694266736
 20
951.6460507337059
 30
0.0
 40
3.000000000000177
100
AcDbArc
 50
137.1665718802089
 51
180.0
  0
ARC
  5
E6F
330
DD9
100
AcDbEntity
  8
0
  6
Continuous
 62
     7
370
    15
100
AcDbCircle
 10
1893.960694266736
 20
950.6450507312061
 30
0.0
 40
1.499999999999864
100
AcDbArc
 50
4.471403166191148
 51
175.5285968338088
  0
ARC
  5
E70
330
DD9
100
AcDbEntity
  8
0
  6
Continuous
 62
     7
370
    15
100
AcDbCircle
 10
1893.960694266736
 20
951.6460507337059
 30
0.0
 40
3.000000000000028
100
AcDbArc
 50
0.0
 51
42.83342806604289
  0
LINE
  5
E71
330
DD9
100
AcDbEntity
  8
0
  6
Continuous
 62
     7
370
    15
100
AcDbLine
 10
1896.160694266177
 20
954.182080989929
 30
0.0
 11
1896.160694266177
 21
953.6856935082395
 31
0.0
  0
LINE
  5
E72
330
DD9
100
AcDbEntity
  8
0
  6
Continuous
 62
     7
370
    15
100
AcDbLine
 10
1891.760694173603
 20
953.6856935082395
 30
0.0
 11
1891.760694173603
 21
954.182080989929
 31
0.0
  0
LINE
  5
E73
330
DD9
100
AcDbEntity
  8
0
  6
Continuous
 62
     7
370
    15
100
AcDbLine
 10
1965.692789138733
 20
949.1957948265989
 30
0.0
 11
1965.310693563401
 21
948.1460378228147
 31
0.0
  0
LINE
  5
E74
330
DD9
100
AcDbEntity
  8
0
  6
Continuous
 62
     7
370
    15
100
AcDbLine
 10
1965.310693563401
 20
948.1460378228147
 30
0.0
 11
1964.310691536843
 21
948.1460378228147
 31
0.0
  0
ARC
  5
E75
330
DD9
100
AcDbEntity
  8
0
  6
Continuous
 62
     7
370
    15
100
AcDbCircle
 10
1967.310694266735
 20
951.6460507337059
 30
0.0
 40
3.000000000000344
100
AcDbArc
 50
0.0
 51
42.83342811979109
  0
LINE
  5
E76
330
DD9
100
AcDbEntity
  8
0
  6
Continuous
 62
     7
370
    15
100
AcDbLine
 10
1970.31069624561
 20
948.1460378228147
 30
0.0
 11
1969.310694219052
 21
948.1460378228147
 31
0.0
  0
LINE
  5
E77
330
DD9
100
AcDbEntity
  8
0
  6
Continuous
 62
     7
370
    15
100
AcDbLine
 10
1969.310694219052
 20
948.1460378228147
 30
0.0
 11
1968.928598643719
 21
949.1957948265989
 31
0.0
  0
LINE
  5
E78
330
DD9
100
AcDbEntity
  8
0
  6
Continuous
 62
     7
370
    15
100
AcDbLine
 10
1968.928598643719
 20
949.1957948265989
 30
0.0
 11
1968.806125999867
 21
950.7619664727171
 31
0.0
  0
LINE
  5
E79
330
DD9
100
AcDbEntity
  8
0
  6
Continuous
 62
     7
370
    15
100
AcDbLine
 10
1965.815261782585
 20
950.7619664727171
 30
0.0
 11
1965.692789138733
 21
949.1957948265989
 31
0.0
  0
ARC
  5
E7A
330
DD9
100
AcDbEntity
  8
0
  6
Continuous
 62
     7
370
    15
100
AcDbCircle
 10
1967.310694266735
 20
951.6460507337059
 30
0.0
 40
3.000000000001897
100
AcDbArc
 50
137.1665719338971
 51
180.0
  0
ARC
  5
E7B
330
DD9
100
AcDbEntity
  8
0
  6
Continuous
 62
     7
370
    15
100
AcDbCircle
 10
1967.310694266735
 20
950.6450507312061
 30
0.0
 40
1.500000000000062
100
AcDbArc
 50
4.471403166191148
 51
175.5285968338023
  0
LINE
  5
E7C
330
DD9
100
AcDbEntity
  8
0
  6
Continuous
 62
     7
370
    15
100
AcDbLine
 10
1970.31069624561
 20
951.6460225640257
 30
0.0
 11
1970.31069624561
 21
948.1460378228147
 31
0.0
  0
LINE
  5
E7D
330
DD9
100
AcDbEntity
  8
0
  6
Continuous
 62
     7
370
    15
100
AcDbLine
 10
1964.310691536843
 20
948.1460378228147
 30
0.0
 11
1964.310691536843
 21
951.6460225640257
 31
0.0
  0
LINE
  5
E7E
330
DD9
100
AcDbEntity
  8
0
  6
Continuous
 62
     7
370
    15
100
AcDbLine
 10
1969.510697604595
 20
953.6856935082395
 30
0.0
 11
1969.510697604595
 21
954.182080989929
 31
0.0
  0
LINE
  5
E7F
330
DD9
100
AcDbEntity
  8
0
  6
Continuous
 62
     7
370
    15
100
AcDbLine
 10
1965.110697628437
 20
954.182080989929
 30
0.0
 11
1965.110697628437
 21
953.6856935082395
 31
0.0
  0
LINE
  5
E80
330
DD9
100
AcDbEntity
  8
0
  6
Continuous
 62
     7
370
    15
100
AcDbLine
 10
1900.492787671714
 20
949.1957948265989
 30
0.0
 11
1900.615259617074
 21
950.7619664727171
 31
0.0
  0
LINE
  5
E81
330
DD9
100
AcDbEntity
  8
0
  6
Continuous
 62
     7
370
    15
100
AcDbLine
 10
1900.110694191857
 20
948.1460378228147
 30
0.0
 11
1900.492787671714
 21
949.1957948265989
 31
0.0
  0
LINE
  5
E82
330
DD9
100
AcDbEntity
  8
0
  6
Continuous
 62
     7
370
    15
100
AcDbLine
 10
1899.110694260775
 20
948.1460378228147
 30
0.0
 11
1900.110694191857
 21
948.1460378228147
 31
0.0
  0
LINE
  5
E83
330
DD9
100
AcDbEntity
  8
0
  6
Continuous
 62
     7
370
    15
100
AcDbLine
 10
1904.110694149016
 20
948.1460378228147
 30
0.0
 11
1905.110694312929
 21
948.1460378228147
 31
0.0
  0
LINE
  5
E84
330
DD9
100
AcDbEntity
  8
0
  6
Continuous
 62
     7
370
    15
100
AcDbLine
 10
1903.72860090199
 20
949.1957948265989
 30
0.0
 11
1904.110694149016
 21
948.1460378228147
 31
0.0
  0
LINE
  5
E85
330
DD9
100
AcDbEntity
  8
0
  6
Continuous
 62
     7
370
    15
100
AcDbLine
 10
1903.606128723799
 20
950.7619664727171
 30
0.0
 11
1903.72860090199
 21
949.1957948265989
 31
0.0
  0
LINE
  5
E86
330
DD9
100
AcDbEntity
  8
0
  6
Continuous
 62
     7
370
    15
100
AcDbLine
 10
1905.110694312929
 20
948.1460378228147
 30
0.0
 11
1905.110694312929
 21
951.6460225640257
 31
0.0
  0
LINE
  5
E87
330
DD9
100
AcDbEntity
  8
0
  6
Continuous
 62
     7
370
    15
100
AcDbLine
 10
1899.110694260775
 20
951.6460225640257
 30
0.0
 11
1899.110694260775
 21
948.1460378228147
 31
0.0
  0
ARC
  5
E88
330
DD9
100
AcDbEntity
  8
0
  6
Continuous
 62
     7
370
    15
100
AcDbCircle
 10
1902.110694266735
 20
951.6460507337059
 30
0.0
 40
3.000000000000135
100
AcDbArc
 50
137.1665718802089
 51
180.0
  0
ARC
  5
E89
330
DD9
100
AcDbEntity
  8
0
  6
Continuous
 62
     7
370
    15
100
AcDbCircle
 10
1902.110694266735
 20
950.6450507312061
 30
0.0
 40
1.499999999999836
100
AcDbArc
 50
4.471403166191148
 51
175.5285968338088
  0
ARC
  5
E8A
330
DD9
100
AcDbEntity
  8
0
  6
Continuous
 62
     7
370
    15
100
AcDbCircle
 10
1902.110694266735
 20
951.6460507337059
 30
0.0
 40
2.999999999999971
100
AcDbArc
 50
0.0
 51
42.83342806604289
  0
LINE
  5
E8B
330
DD9
100
AcDbEntity
  8
0
  6
Continuous
 62
     7
370
    15
100
AcDbLine
 10
1904.310694274931
 20
953.6856935082395
 30
0.0
 11
1904.310694274931
 21
954.182080989929
 31
0.0
  0
LINE
  5
E8C
330
DD9
100
AcDbEntity
  8
0
  6
Continuous
 62
     7
370
    15
100
AcDbLine
 10
1899.910694298773
 20
954.182080989929
 30
0.0
 11
1899.910694298773
 21
953.6856935082395
 31
0.0
  0
ENDBLK
  5
DDB
330
DD9
100
AcDbEntity
  8
0
100
AcDbBlockEnd
  0
BLOCK
  5
E8F
330
E8E
100
AcDbEntity
  8
0
100
AcDbBlockBegin
  2
3
 70
     0
 10
0.0
 20
0.0
 30
0.0
  3
3
  1

  0
LINE
  5
E91
330
E8E
100
AcDbEntity
  8
0
  6
Continuous
 62
     7
370
    15
100
AcDbLine
 10
1866.036042689205
 20
980.5872186095912
 30
0.0
 11
1868.636116503597
 21
980.5872186095912
 31
0.0
  0
LINE
  5
E92
330
E8E
100
AcDbEntity
  8
0
  6
Continuous
 62
     7
370
    15
100
AcDbLine
 10
1868.636116503597
 20
980.5872186095912
 30
0.0
 11
1868.636116503597
 21
979.4372065932948
 31
0.0
  0
LINE
  5
E93
330
E8E
100
AcDbEntity
  8
0
  6
Continuous
 62
     7
370
    15
100
AcDbLine
 10
1866.036042689205
 20
979.4372065932948
 30
0.0
 11
1868.636116503597
 21
979.4372065932948
 31
0.0
  0
LINE
  5
E94
330
E8E
100
AcDbEntity
  8
0
  6
Continuous
 62
     7
370
    15
100
AcDbLine
 10
1866.036042689205
 20
979.4372065932948
 30
0.0
 11
1866.036042689205
 21
980.5872186095912
 31
0.0
  0
LINE
  5
E95
330
E8E
100
AcDbEntity
  8
0
  6
Continuous
 62
     7
370
    15
100
AcDbLine
 10
1868.636116503597
 20
975.8622392089565
 30
0.0
 11
1866.036042689205
 21
975.8622392089565
 31
0.0
  0
LINE
  5
E96
330
E8E
100
AcDbEntity
  8
0
  6
Continuous
 62
     7
370
    15
100
AcDbLine
 10
1868.636116503597
 20
975.8622392089565
 30
0.0
 11
1868.636116503597
 21
979.4372065932948
 31
0.0
  0
LINE
  5
E97
330
E8E
100
AcDbEntity
  8
0
  6
Continuous
 62
     7
370
    15
100
AcDbLine
 10
1866.036042689205
 20
975.8622392089565
 30
0.0
 11
1866.036042689205
 21
979.4372065932948
 31
0.0
  0
LINE
  5
E98
330
E8E
100
AcDbEntity
  8
0
  6
Continuous
 62
     7
370
    15
100
AcDbLine
 10
1866.036042689205
 20
986.5371926696498
 30
0.0
 11
1868.636116503597
 21
986.5371926696498
 31
0.0
  0
LINE
  5
E99
330
E8E
100
AcDbEntity
  8
0
  6
Continuous
 62
     7
370
    15
100
AcDbLine
 10
1868.636116503597
 20
990.5372603805263
 30
0.0
 11
1866.036042689205
 21
990.5372603805263
 31
0.0
  0
LINE
  5
E9A
330
E8E
100
AcDbEntity
  8
0
  6
Continuous
 62
     7
370
    15
100
AcDbLine
 10
1868.636116503597
 20
990.5372603805263
 30
0.0
 11
1868.636116503597
 21
986.5371926696498
 31
0.0
  0
LINE
  5
E9B
330
E8E
100
AcDbEntity
  8
0
  6
Continuous
 62
     7
370
    15
100
AcDbLine
 10
1866.036042689205
 20
986.5371926696498
 30
0.0
 11
1866.036042689205
 21
990.5372603805263
 31
0.0
  0
LINE
  5
E9C
330
E8E
100
AcDbEntity
  8
0
  6
Continuous
 62
     7
370
    15
100
AcDbLine
 10
1868.636116503597
 20
986.5371926696498
 30
0.0
 11
1868.636116503597
 21
980.5872186095912
 31
0.0
  0
LINE
  5
E9D
330
E8E
100
AcDbEntity
  8
0
  6
Continuous
 62
     7
370
    15
100
AcDbLine
 10
1866.036042689205
 20
986.5371926696498
 30
0.0
 11
1866.036042689205
 21
980.5872186095912
 31
0.0
  0
LINE
  5
E9E
330
E8E
100
AcDbEntity
  8
0
  6
Continuous
 62
     7
370
    15
100
AcDbLine
 10
1865.539655207515
 20
974.5622619064052
 30
0.0
 11
1865.539655207515
 21
975.5621894271572
 31
0.0
  0
LINE
  5
E9F
330
E8E
100
AcDbEntity
  8
0
  6
Continuous
 62
     7
370
    15
100
AcDbLine
 10
1865.539655207515
 20
974.5622619064052
 30
0.0
 11
1863.499984263301
 21
974.5622619064052
 31
0.0
  0
LINE
  5
EA0
330
E8E
100
AcDbEntity
  8
0
  6
Continuous
 62
     7
370
    15
100
AcDbLine
 10
1863.499984263301
 20
974.5622619064052
 30
0.0
 11
1863.499984263301
 21
975.5621894271572
 31
0.0
  0
LINE
  5
EA1
330
E8E
100
AcDbEntity
  8
0
  6
Continuous
 62
     7
370
    15
100
AcDbLine
 10
1865.539655207515
 20
975.5621894271572
 30
0.0
 11
1863.499984263301
 21
975.5621894271572
 31
0.0
  0
LINE
  5
EA2
330
E8E
100
AcDbEntity
  8
0
  6
Continuous
 62
     7
370
    15
100
AcDbLine
 10
1859.99999952209
 20
974.862192478915
 30
0.0
 11
1859.99999952209
 21
975.5621894271572
 31
0.0
  0
LINE
  5
EA3
330
E8E
100
AcDbEntity
  8
0
  6
Continuous
 62
     7
370
    15
100
AcDbLine
 10
1861.701354502559
 20
974.5622619064052
 30
0.0
 11
1859.99999952209
 21
974.862192478915
 31
0.0
  0
LINE
  5
EA4
330
E8E
100
AcDbEntity
  8
0
  6
Continuous
 62
     7
370
    15
100
AcDbLine
 10
1863.499984263301
 20
974.5622619064052
 30
0.0
 11
1861.701354502559
 21
974.5622619064052
 31
0.0
  0
LINE
  5
EA5
330
E8E
100
AcDbEntity
  8
0
  6
Continuous
 62
     7
370
    15
100
AcDbLine
 10
1863.499984263301
 20
975.5621894271572
 30
0.0
 11
1859.99999952209
 21
975.5621894271572
 31
0.0
  0
ARC
  5
EA6
330
E8E
100
AcDbEntity
  8
0
  6
Continuous
 62
     7
370
    15
100
AcDbCircle
 10
1866.636080410481
 20
975.7622073950701
 30
0.0
 40
0.1999999999999602
100
AcDbArc
 50
270.0
 51
0.0
  0
LINE
  5
EA7
330
E8E
100
AcDbEntity
  8
0
  6
Continuous
 62
     7
370
    15
100
AcDbLine
 10
1866.83605623138
 20
975.7622226150234
 30
0.0
 11
1867.836102961421
 21
975.7622226150234
 31
0.0
  0
ARC
  5
EA8
330
E8E
100
AcDbEntity
  8
0
  6
Continuous
 62
     7
370
    15
100
AcDbCircle
 10
1866.636080410481
 20
975.7622073950701
 30
0.0
 40
1.200000000000045
100
AcDbArc
 50
270.0
 51
0.0
  0
LINE
  5
EA9
330
E8E
100
AcDbEntity
  8
0
  6
Continuous
 62
     7
370
    15
100
AcDbLine
 10
1865.539655207515
 20
974.5622619064052
 30
0.0
 11
1866.636023043514
 21
974.5622619064052
 31
0.0
  0
LINE
  5
EAA
330
E8E
100
AcDbEntity
  8
0
  6
Continuous
 62
     7
370
    15
100
AcDbLine
 10
1865.539655207515
 20
975.5621894271572
 30
0.0
 11
1866.636023043514
 21
975.5621894271572
 31
0.0
  0
LINE
  5
EAB
330
E8E
100
AcDbEntity
  8
0
  6
Continuous
 62
     7
370
    15
100
AcDbLine
 10
1866.83605623138
 20
975.8622392089565
 30
0.0
 11
1866.83605623138
 21
975.7622226150234
 31
0.0
  0
LINE
  5
EAC
330
E8E
100
AcDbEntity
  8
0
  6
Continuous
 62
     7
370
    15
100
AcDbLine
 10
1867.836102961421
 20
975.8622392089565
 30
0.0
 11
1867.836102961421
 21
975.7622226150234
 31
0.0
  0
LINE
  5
EAD
330
E8E
100
AcDbEntity
  8
0
  6
Continuous
 62
     7
370
    15
100
AcDbLine
 10
1870.836123942256
 20
982.9371913345058
 30
0.0
 11
1868.636116503597
 21
989.9371608169277
 31
0.0
  0
LINE
  5
EAE
330
E8E
100
AcDbEntity
  8
0
  6
Continuous
 62
     7
370
    15
100
AcDbLine
 10
1870.836123942256
 20
982.9371913345058
 30
0.0
 11
1868.636116503597
 21
982.9371913345058
 31
0.0
  0
LINE
  5
EAF
330
E8E
100
AcDbEntity
  8
0
  6
Continuous
 62
     7
370
    15
100
AcDbLine
 10
1866.036042689205
 20
989.9371608169277
 30
0.0
 11
1863.836035250545
 21
982.9371913345058
 31
0.0
  0
LINE
  5
EB0
330
E8E
100
AcDbEntity
  8
0
  6
Continuous
 62
     7
370
    15
100
AcDbLine
 10
1866.036042689205
 20
982.9371913345058
 30
0.0
 11
1863.836035250545
 21
982.9371913345058
 31
0.0
  0
ENDBLK
  5
E90
330
E8E
100
AcDbEntity
  8
0
100
AcDbBlockEnd
  0
BLOCK
  5
EB3
330
EB2
100
AcDbEntity
  8
0
100
AcDbBlockBegin
  2
4
 70
     0
 10
0.0
 20
0.0
 30
0.0
  3
4
  1

  0
LINE
  5
EB5
330
EB2
100
AcDbEntity
  8
0
  6
Continuous
 62
     7
370
    15
100
AcDbLine
 10
2048.471071215916
 20
986.3419321525812
 30
0.0
 11
2046.632541390174
 21
987.403292829285
 31
0.0
  0
LINE
  5
EB6
330
EB2
100
AcDbEntity
  8
0
  6
Continuous
 62
     7
370
    15
100
AcDbLine
 10
2036.218186832034
 20
971.508315526502
 30
0.0
 11
2036.218186832034
 21
969.8752549280085
 31
0.0
  0
LINE
  5
EB7
330
EB2
100
AcDbEntity
  8
0
  6
Continuous
 62
     7
370
    15
100
AcDbLine
 10
2034.662551921853
 20
970.6102666083632
 30
0.0
 11
2036.218186832034
 21
971.508315526502
 31
0.0
  0
LINE
  5
EB8
330
EB2
100
AcDbEntity
  8
0
  6
Continuous
 62
     7
370
    15
100
AcDbLine
 10
2034.662551921853
 20
968.9772060098697
 30
0.0
 11
2034.662551921853
 21
970.6102666083632
 31
0.0
  0
LINE
  5
EB9
330
EB2
100
AcDbEntity
  8
0
  6
Continuous
 62
     7
370
    15
100
AcDbLine
 10
2036.218186832034
 20
969.8752549280085
 30
0.0
 11
2034.662551921853
 21
968.9772060098697
 31
0.0
  0
LINE
  5
EBA
330
EB2
100
AcDbEntity
  8
0
  6
Continuous
 62
     7
370
    15
100
AcDbLine
 10
2047.744027542391
 20
978.1620417400466
 30
0.0
 11
2047.744027542391
 21
976.5289811415533
 31
0.0
  0
LINE
  5
EBB
330
EB2
100
AcDbEntity
  8
0
  6
Continuous
 62
     7
370
    15
100
AcDbLine
 10
2046.18839263221
 20
977.2639928219078
 30
0.0
 11
2047.744027542391
 21
978.1620417400466
 31
0.0
  0
LINE
  5
EBC
330
EB2
100
AcDbEntity
  8
0
  6
Continuous
 62
     7
370
    15
100
AcDbLine
 10
2046.18839263221
 20
975.6309322234145
 30
0.0
 11
2046.18839263221
 21
977.2639928219078
 31
0.0
  0
LINE
  5
EBD
330
EB2
100
AcDbEntity
  8
0
  6
Continuous
 62
     7
370
    15
100
AcDbLine
 10
2047.744027542391
 20
976.5289811415533
 30
0.0
 11
2046.18839263221
 21
975.6309322234145
 31
0.0
  0
LINE
  5
EBE
330
EB2
100
AcDbEntity
  8
0
  6
Continuous
 62
     7
370
    15
100
AcDbLine
 10
2041.981107187212
 20
974.8351786332744
 30
0.0
 11
2041.981107187212
 21
973.2021180347809
 31
0.0
  0
LINE
  5
EBF
330
EB2
100
AcDbEntity
  8
0
  6
Continuous
 62
     7
370
    15
100
AcDbLine
 10
2040.425472277032
 20
973.9371297151354
 30
0.0
 11
2041.981107187212
 21
974.8351786332744
 31
0.0
  0
LINE
  5
EC0
330
EB2
100
AcDbEntity
  8
0
  6
Continuous
 62
     7
370
    15
100
AcDbLine
 10
2040.425472277032
 20
972.3040691166421
 30
0.0
 11
2040.425472277032
 21
973.9371297151354
 31
0.0
  0
LINE
  5
EC1
330
EB2
100
AcDbEntity
  8
0
  6
Continuous
 62
     7
370
    15
100
AcDbLine
 10
2041.981107187212
 20
973.2021180347809
 30
0.0
 11
2040.425472277032
 21
972.3040691166421
 31
0.0
  0
LINE
  5
EC2
330
EB2
100
AcDbEntity
  8
0
  6
Continuous
 62
     7
370
    15
100
AcDbLine
 10
2024.692346121676
 20
964.8545893129574
 30
0.0
 11
2024.692346121676
 21
963.2215287144639
 31
0.0
  0
LINE
  5
EC3
330
EB2
100
AcDbEntity
  8
0
  6
Continuous
 62
     7
370
    15
100
AcDbLine
 10
2023.136711211495
 20
963.9565403948184
 30
0.0
 11
2024.692346121676
 21
964.8545893129574
 31
0.0
  0
LINE
  5
EC4
330
EB2
100
AcDbEntity
  8
0
  6
Continuous
 62
     7
370
    15
100
AcDbLine
 10
2023.136711211495
 20
962.3234797963251
 30
0.0
 11
2023.136711211495
 21
963.9565403948184
 31
0.0
  0
LINE
  5
EC5
330
EB2
100
AcDbEntity
  8
0
  6
Continuous
 62
     7
370
    15
100
AcDbLine
 10
2024.692346121676
 20
963.2215287144639
 30
0.0
 11
2023.136711211495
 21
962.3234797963251
 31
0.0
  0
LINE
  5
EC6
330
EB2
100
AcDbEntity
  8
0
  6
Continuous
 62
     7
370
    15
100
AcDbLine
 10
2030.455266476855
 20
968.1814524197296
 30
0.0
 11
2030.455266476855
 21
966.5483918212363
 31
0.0
  0
LINE
  5
EC7
330
EB2
100
AcDbEntity
  8
0
  6
Continuous
 62
     7
370
    15
100
AcDbLine
 10
2028.899631566674
 20
967.2834035015908
 30
0.0
 11
2030.455266476855
 21
968.1814524197296
 31
0.0
  0
LINE
  5
EC8
330
EB2
100
AcDbEntity
  8
0
  6
Continuous
 62
     7
370
    15
100
AcDbLine
 10
2028.899631566674
 20
965.6503429030975
 30
0.0
 11
2028.899631566674
 21
967.2834035015908
 31
0.0
  0
LINE
  5
EC9
330
EB2
100
AcDbEntity
  8
0
  6
Continuous
 62
     7
370
    15
100
AcDbLine
 10
2030.455266476855
 20
966.5483918212363
 30
0.0
 11
2028.899631566674
 21
965.6503429030975
 31
0.0
  0
LINE
  5
ECA
330
EB2
100
AcDbEntity
  8
0
  6
Continuous
 62
     7
370
    15
100
AcDbLine
 10
2018.929427083586
 20
959.8946663680308
 30
0.0
 11
2018.929427083586
 21
961.5277269665243
 31
0.0
  0
LINE
  5
ECB
330
EB2
100
AcDbEntity
  8
0
  6
Continuous
 62
     7
370
    15
100
AcDbLine
 10
2018.929427083586
 20
961.5277269665243
 30
0.0
 11
2017.373792173405
 21
960.6296780483855
 31
0.0
  0
LINE
  5
ECC
330
EB2
100
AcDbEntity
  8
0
  6
Continuous
 62
     7
370
    15
100
AcDbLine
 10
2017.373792173405
 20
960.6296780483855
 30
0.0
 11
2017.373792173405
 21
958.996617449892
 31
0.0
  0
LINE
  5
ECD
330
EB2
100
AcDbEntity
  8
0
  6
Continuous
 62
     7
370
    15
100
AcDbLine
 10
2017.373792173405
 20
958.996617449892
 30
0.0
 11
2018.929427083586
 21
959.8946663680308
 31
0.0
  0
LINE
  5
ECE
330
EB2
100
AcDbEntity
  8
0
  6
Continuous
 62
     7
370
    15
100
AcDbLine
 10
2013.166506728408
 20
956.5678032612584
 30
0.0
 11
2013.166506728408
 21
958.2008638597519
 31
0.0
  0
LINE
  5
ECF
330
EB2
100
AcDbEntity
  8
0
  6
Continuous
 62
     7
370
    15
100
AcDbLine
 10
2013.166506728408
 20
958.2008638597519
 30
0.0
 11
2011.610871818227
 21
957.3028149416131
 31
0.0
  0
LINE
  5
ED0
330
EB2
100
AcDbEntity
  8
0
  6
Continuous
 62
     7
370
    15
100
AcDbLine
 10
2011.610871818227
 20
957.3028149416131
 30
0.0
 11
2011.610871818227
 21
955.6697543431196
 31
0.0
  0
LINE
  5
ED1
330
EB2
100
AcDbEntity
  8
0
  6
Continuous
 62
     7
370
    15
100
AcDbLine
 10
2011.610871818227
 20
955.6697543431196
 30
0.0
 11
2013.166506728408
 21
956.5678032612584
 31
0.0
  0
LINE
  5
ED2
330
EB2
100
AcDbEntity
  8
0
  6
Continuous
 62
     7
370
    15
100
AcDbLine
 10
2007.403585714684
 20
953.2409397743165
 30
0.0
 11
2007.403585714684
 21
954.8740003728099
 31
0.0
  0
LINE
  5
ED3
330
EB2
100
AcDbEntity
  8
0
  6
Continuous
 62
     7
370
    15
100
AcDbLine
 10
2007.403585714684
 20
954.8740003728099
 30
0.0
 11
2005.847950804503
 21
953.9759514546712
 31
0.0
  0
LINE
  5
ED4
330
EB2
100
AcDbEntity
  8
0
  6
Continuous
 62
     7
370
    15
100
AcDbLine
 10
2005.847950804503
 20
953.9759514546712
 30
0.0
 11
2005.847950804503
 21
952.3428908561777
 31
0.0
  0
LINE
  5
ED5
330
EB2
100
AcDbEntity
  8
0
  6
Continuous
 62
     7
370
    15
100
AcDbLine
 10
2005.847950804503
 20
952.3428908561777
 30
0.0
 11
2007.403585714684
 21
953.2409397743165
 31
0.0
  0
LINE
  5
ED6
330
EB2
100
AcDbEntity
  8
0
  6
Continuous
 62
     7
370
    15
100
AcDbLine
 10
1995.877745333599
 20
946.5872137508567
 30
0.0
 11
1995.877745333599
 21
948.22027434935
 31
0.0
  0
LINE
  5
ED7
330
EB2
100
AcDbEntity
  8
0
  6
Continuous
 62
     7
370
    15
100
AcDbLine
 10
1995.877745333599
 20
948.22027434935
 30
0.0
 11
1994.322110423418
 21
947.3222254312114
 31
0.0
  0
LINE
  5
ED8
330
EB2
100
AcDbEntity
  8
0
  6
Continuous
 62
     7
370
    15
100
AcDbLine
 10
1994.322110423418
 20
947.3222254312114
 30
0.0
 11
1994.322110423418
 21
945.6891648327179
 31
0.0
  0
LINE
  5
ED9
330
EB2
100
AcDbEntity
  8
0
  6
Continuous
 62
     7
370
    15
100
AcDbLine
 10
1994.322110423418
 20
945.6891648327179
 30
0.0
 11
1995.877745333599
 21
946.5872137508567
 31
0.0
  0
LINE
  5
EDA
330
EB2
100
AcDbEntity
  8
0
  6
Continuous
 62
     7
370
    15
100
AcDbLine
 10
2001.640665688778
 20
949.9140768576289
 30
0.0
 11
2001.640665688778
 21
951.5471374561224
 31
0.0
  0
LINE
  5
EDB
330
EB2
100
AcDbEntity
  8
0
  6
Continuous
 62
     7
370
    15
100
AcDbLine
 10
2001.640665688778
 20
951.5471374561224
 30
0.0
 11
2000.085030778597
 21
950.6490885379836
 31
0.0
  0
LINE
  5
EDC
330
EB2
100
AcDbEntity
  8
0
  6
Continuous
 62
     7
370
    15
100
AcDbLine
 10
2000.085030778597
 20
950.6490885379836
 30
0.0
 11
2000.085030778597
 21
949.0160279394901
 31
0.0
  0
LINE
  5
EDD
330
EB2
100
AcDbEntity
  8
0
  6
Continuous
 62
     7
370
    15
100
AcDbLine
 10
2000.085030778597
 20
949.0160279394901
 30
0.0
 11
2001.640665688778
 21
949.9140768576289
 31
0.0
  0
LINE
  5
EDE
330
EB2
100
AcDbEntity
  8
0
  6
Continuous
 62
     7
370
    15
100
AcDbLine
 10
2037.95059879576
 20
972.1614012389167
 30
0.0
 11
2037.95059879576
 21
973.1004329843818
 31
0.0
  0
LINE
  5
EDF
330
EB2
100
AcDbEntity
  8
0
  6
Continuous
 62
     7
370
    15
100
AcDbLine
 10
2037.773821742215
 20
972.0593500181266
 30
0.0
 11
2037.95059879576
 21
972.1614012389167
 31
0.0
  0
LINE
  5
EE0
330
EB2
100
AcDbEntity
  8
0
  6
Continuous
 62
     7
370
    15
100
AcDbLine
 10
2037.773821742215
 20
972.0593500181266
 30
0.0
 11
2037.773821742215
 21
969.8473155601922
 31
0.0
  0
LINE
  5
EE1
330
EB2
100
AcDbEntity
  8
0
  6
Continuous
 62
     7
370
    15
100
AcDbLine
 10
2037.420267635125
 20
968.9361408060735
 30
0.0
 11
2037.773821742215
 21
969.8473155601922
 31
0.0
  0
LINE
  5
EE2
330
EB2
100
AcDbEntity
  8
0
  6
Continuous
 62
     7
370
    15
100
AcDbLine
 10
2033.460471118761
 20
966.6501989348176
 30
0.0
 11
2037.420267635125
 21
968.9361408060735
 31
0.0
  0
LINE
  5
EE3
330
EB2
100
AcDbEntity
  8
0
  6
Continuous
 62
     7
370
    15
100
AcDbLine
 10
2033.106917011672
 20
967.1531688057758
 30
0.0
 11
2033.460471118761
 21
966.6501989348176
 31
0.0
  0
LINE
  5
EE4
330
EB2
100
AcDbEntity
  8
0
  6
Continuous
 62
     7
370
    15
100
AcDbLine
 10
2033.106917011672
 20
967.1531688057758
 30
0.0
 11
2033.106917011672
 21
971.1005674140317
 31
0.0
  0
LINE
  5
EE5
330
EB2
100
AcDbEntity
  8
0
  6
Continuous
 62
     7
370
    15
100
AcDbLine
 10
2032.134644534264
 20
977.3775634562321
 30
0.0
 11
2032.983173864443
 21
977.867409011889
 31
0.0
  0
LINE
  5
EE6
330
EB2
100
AcDbEntity
  8
0
  6
Continuous
 62
     7
370
    15
100
AcDbLine
 10
2032.134644534264
 20
971.66180269188
 30
0.0
 11
2032.134644534264
 21
977.3775634562321
 31
0.0
  0
LINE
  5
EE7
330
EB2
100
AcDbEntity
  8
0
  6
Continuous
 62
     7
370
    15
100
AcDbLine
 10
2032.010901387036
 20
971.5903672935304
 30
0.0
 11
2032.134644534264
 21
971.66180269188
 31
0.0
  0
LINE
  5
EE8
330
EB2
100
AcDbEntity
  8
0
  6
Continuous
 62
     7
370
    15
100
AcDbLine
 10
2032.010901387036
 20
966.52045245342
 30
0.0
 11
2032.010901387036
 21
971.5903672935304
 31
0.0
  0
LINE
  5
EE9
330
EB2
100
AcDbEntity
  8
0
  6
Continuous
 62
     7
370
    15
100
AcDbLine
 10
2032.010901387036
 20
966.52045245342
 30
0.0
 11
2031.657347279946
 21
965.6092776993011
 31
0.0
  0
LINE
  5
EEA
330
EB2
100
AcDbEntity
  8
0
  6
Continuous
 62
     7
370
    15
100
AcDbLine
 10
2031.657347279946
 20
965.6092776993011
 30
0.0
 11
2027.697550763582
 21
963.3233358280454
 31
0.0
  0
LINE
  5
EEB
330
EB2
100
AcDbEntity
  8
0
  6
Continuous
 62
     7
370
    15
100
AcDbLine
 10
2027.697550763582
 20
963.3233358280454
 30
0.0
 11
2027.343996656493
 21
963.8263056990034
 31
0.0
  0
LINE
  5
EEC
330
EB2
100
AcDbEntity
  8
0
  6
Continuous
 62
     7
370
    15
100
AcDbLine
 10
2027.343996656493
 20
966.0383401569378
 30
0.0
 11
2027.343996656493
 21
963.8263056990034
 31
0.0
  0
LINE
  5
EED
330
EB2
100
AcDbEntity
  8
0
  6
Continuous
 62
     7
370
    15
100
AcDbLine
 10
2027.167219602948
 20
965.9362889361478
 30
0.0
 11
2027.343996656493
 21
966.0383401569378
 31
0.0
  0
LINE
  5
EEE
330
EB2
100
AcDbEntity
  8
0
  6
Continuous
 62
     7
370
    15
100
AcDbLine
 10
2027.167219602948
 20
966.8753206816127
 30
0.0
 11
2027.167219602948
 21
965.9362889361478
 31
0.0
  0
LINE
  5
EEF
330
EB2
100
AcDbEntity
  8
0
  6
Continuous
 62
     7
370
    15
100
AcDbLine
 10
2027.343996656493
 20
966.9773719024028
 30
0.0
 11
2027.167219602948
 21
966.8753206816127
 31
0.0
  0
LINE
  5
EF0
330
EB2
100
AcDbEntity
  8
0
  6
Continuous
 62
     7
370
    15
100
AcDbLine
 10
2027.343996656493
 20
968.896220539114
 30
0.0
 11
2027.343996656493
 21
966.9773719024028
 31
0.0
  0
LINE
  5
EF1
330
EB2
100
AcDbEntity
  8
0
  6
Continuous
 62
     7
370
    15
100
AcDbLine
 10
2026.247981031857
 20
968.2635041867582
 30
0.0
 11
2027.343996656493
 21
968.896220539114
 31
0.0
  0
LINE
  5
EF2
330
EB2
100
AcDbEntity
  8
0
  6
Continuous
 62
     7
370
    15
100
AcDbLine
 10
2026.247981031857
 20
968.2635041867582
 30
0.0
 11
2026.247981031857
 21
966.344655550047
 31
0.0
  0
LINE
  5
EF3
330
EB2
100
AcDbEntity
  8
0
  6
Continuous
 62
     7
370
    15
100
AcDbLine
 10
2026.424758085402
 20
966.4467067708372
 30
0.0
 11
2026.247981031857
 21
966.344655550047
 31
0.0
  0
LINE
  5
EF4
330
EB2
100
AcDbEntity
  8
0
  6
Continuous
 62
     7
370
    15
100
AcDbLine
 10
2026.424758085402
 20
965.5076750253721
 30
0.0
 11
2026.424758085402
 21
966.4467067708372
 31
0.0
  0
LINE
  5
EF5
330
EB2
100
AcDbEntity
  8
0
  6
Continuous
 62
     7
370
    15
100
AcDbLine
 10
2026.247981031857
 20
965.4056238045818
 30
0.0
 11
2026.424758085402
 21
965.5076750253721
 31
0.0
  0
LINE
  5
EF6
330
EB2
100
AcDbEntity
  8
0
  6
Continuous
 62
     7
370
    15
100
AcDbLine
 10
2026.247981031857
 20
965.4056238045818
 30
0.0
 11
2026.247981031857
 21
963.1935893466474
 31
0.0
  0
LINE
  5
EF7
330
EB2
100
AcDbEntity
  8
0
  6
Continuous
 62
     7
370
    15
100
AcDbLine
 10
2025.894429558945
 20
962.2824161132076
 30
0.0
 11
2026.247981031857
 21
963.1935893466474
 31
0.0
  0
LINE
  5
EF8
330
EB2
100
AcDbEntity
  8
0
  6
Continuous
 62
     7
370
    15
100
AcDbLine
 10
2021.934630408404
 20
959.996472721273
 30
0.0
 11
2025.894429558945
 21
962.2824161132076
 31
0.0
  0
LINE
  5
EF9
330
EB2
100
AcDbEntity
  8
0
  6
Continuous
 62
     7
370
    15
100
AcDbLine
 10
2021.581076301314
 20
960.4994425922312
 30
0.0
 11
2021.934630408404
 21
959.996472721273
 31
0.0
  0
LINE
  5
EFA
330
EB2
100
AcDbEntity
  8
0
  6
Continuous
 62
     7
370
    15
100
AcDbLine
 10
2021.581076301314
 20
960.4994425922312
 30
0.0
 11
2021.581076301314
 21
964.4468412004869
 31
0.0
  0
LINE
  5
EFB
330
EB2
100
AcDbEntity
  8
0
  6
Continuous
 62
     7
370
    15
100
AcDbLine
 10
2020.608803823906
 20
970.7238372426875
 30
0.0
 11
2021.457333154086
 21
971.2136827983444
 31
0.0
  0
LINE
  5
EFC
330
EB2
100
AcDbEntity
  8
0
  6
Continuous
 62
     7
370
    15
100
AcDbLine
 10
2020.608803823906
 20
965.0080764783352
 30
0.0
 11
2020.608803823906
 21
970.7238372426875
 31
0.0
  0
LINE
  5
EFD
330
EB2
100
AcDbEntity
  8
0
  6
Continuous
 62
     7
370
    15
100
AcDbLine
 10
2020.485060676678
 20
964.9366410799856
 30
0.0
 11
2020.608803823906
 21
965.0080764783352
 31
0.0
  0
LINE
  5
EFE
330
EB2
100
AcDbEntity
  8
0
  6
Continuous
 62
     7
370
    15
100
AcDbLine
 10
2020.485060676678
 20
959.8667262398752
 30
0.0
 11
2020.485060676678
 21
964.9366410799856
 31
0.0
  0
LINE
  5
EFF
330
EB2
100
AcDbEntity
  8
0
  6
Continuous
 62
     7
370
    15
100
AcDbLine
 10
2020.485060676678
 20
959.8667262398752
 30
0.0
 11
2020.131509203767
 21
958.9555530064352
 31
0.0
  0
LINE
  5
F00
330
EB2
100
AcDbEntity
  8
0
  6
Continuous
 62
     7
370
    15
100
AcDbLine
 10
2020.131509203767
 20
958.9555530064352
 30
0.0
 11
2016.171710053225
 21
956.6696096145006
 31
0.0
  0
LINE
  5
F01
330
EB2
100
AcDbEntity
  8
0
  6
Continuous
 62
     7
370
    15
100
AcDbLine
 10
2016.171710053225
 20
956.6696096145006
 30
0.0
 11
2015.818157263224
 21
957.1725802457981
 31
0.0
  0
LINE
  5
F02
330
EB2
100
AcDbEntity
  8
0
  6
Continuous
 62
     7
370
    15
100
AcDbLine
 10
2015.818157263224
 20
959.3846147037325
 30
0.0
 11
2015.818157263224
 21
957.1725802457981
 31
0.0
  0
LINE
  5
F03
330
EB2
100
AcDbEntity
  8
0
  6
Continuous
 62
     7
370
    15
100
AcDbLine
 10
2015.64138020968
 20
959.2825634829424
 30
0.0
 11
2015.818157263224
 21
959.3846147037325
 31
0.0
  0
LINE
  5
F04
330
EB2
100
AcDbEntity
  8
0
  6
Continuous
 62
     7
370
    15
100
AcDbLine
 10
2015.64138020968
 20
960.2215952284074
 30
0.0
 11
2015.64138020968
 21
959.2825634829424
 31
0.0
  0
LINE
  5
F05
330
EB2
100
AcDbEntity
  8
0
  6
Continuous
 62
     7
370
    15
100
AcDbLine
 10
2015.818157263224
 20
960.3236464491976
 30
0.0
 11
2015.64138020968
 21
960.2215952284074
 31
0.0
  0
LINE
  5
F06
330
EB2
100
AcDbEntity
  8
0
  6
Continuous
 62
     7
370
    15
100
AcDbLine
 10
2015.818157263224
 20
962.2424950859086
 30
0.0
 11
2015.818157263224
 21
960.3236464491976
 31
0.0
  0
LINE
  5
F07
330
EB2
100
AcDbEntity
  8
0
  6
Continuous
 62
     7
370
    15
100
AcDbLine
 10
2015.818157263224
 20
962.2424950859086
 30
0.0
 11
2014.722141638589
 21
961.6097787335528
 31
0.0
  0
LINE
  5
F08
330
EB2
100
AcDbEntity
  8
0
  6
Continuous
 62
     7
370
    15
100
AcDbLine
 10
2014.722141638589
 20
961.6097787335528
 30
0.0
 11
2014.722141638589
 21
959.6909300968416
 31
0.0
  0
LINE
  5
F09
330
EB2
100
AcDbEntity
  8
0
  6
Continuous
 62
     7
370
    15
100
AcDbLine
 10
2014.898917375044
 20
959.7929805572924
 30
0.0
 11
2014.722141638589
 21
959.6909300968416
 31
0.0
  0
LINE
  5
F0A
330
EB2
100
AcDbEntity
  8
0
  6
Continuous
 62
     7
370
    15
100
AcDbLine
 10
2014.898917375044
 20
958.8539488118273
 30
0.0
 11
2014.898917375044
 21
959.7929805572924
 31
0.0
  0
LINE
  5
F0B
330
EB2
100
AcDbEntity
  8
0
  6
Continuous
 62
     7
370
    15
100
AcDbLine
 10
2014.722141638589
 20
958.7518983513765
 30
0.0
 11
2014.898917375044
 21
958.8539488118273
 31
0.0
  0
LINE
  5
F0C
330
EB2
100
AcDbEntity
  8
0
  6
Continuous
 62
     7
370
    15
100
AcDbLine
 10
2014.722141638589
 20
958.7518983513765
 30
0.0
 11
2014.722141638589
 21
956.5398638934421
 31
0.0
  0
LINE
  5
F0D
330
EB2
100
AcDbEntity
  8
0
  6
Continuous
 62
     7
370
    15
100
AcDbLine
 10
2014.368587531499
 20
955.6286891393236
 30
0.0
 11
2014.722141638589
 21
956.5398638934421
 31
0.0
  0
LINE
  5
F0E
330
EB2
100
AcDbEntity
  8
0
  6
Continuous
 62
     7
370
    15
100
AcDbLine
 10
2010.408789698046
 20
953.3427465077283
 30
0.0
 11
2014.368587531499
 21
955.6286891393236
 31
0.0
  0
LINE
  5
F0F
330
EB2
100
AcDbEntity
  8
0
  6
Continuous
 62
     7
370
    15
100
AcDbLine
 10
2010.055236908045
 20
953.8457171390257
 30
0.0
 11
2010.408789698046
 21
953.3427465077283
 31
0.0
  0
LINE
  5
F10
330
EB2
100
AcDbEntity
  8
0
  6
Continuous
 62
     7
370
    15
100
AcDbLine
 10
2010.055236908045
 20
953.8457171390257
 30
0.0
 11
2010.055236908045
 21
957.7931157472814
 31
0.0
  0
LINE
  5
F11
330
EB2
100
AcDbEntity
  8
0
  6
Continuous
 62
     7
370
    15
100
AcDbLine
 10
2009.082964430638
 20
964.070111789482
 30
0.0
 11
2009.931492443729
 21
964.5599565847996
 31
0.0
  0
LINE
  5
F12
330
EB2
100
AcDbEntity
  8
0
  6
Continuous
 62
     7
370
    15
100
AcDbLine
 10
2009.082964430638
 20
958.3543510251299
 30
0.0
 11
2009.082964430638
 21
964.070111789482
 31
0.0
  0
LINE
  5
F13
330
EB2
100
AcDbEntity
  8
0
  6
Continuous
 62
     7
370
    15
100
AcDbLine
 10
2008.959220624865
 20
958.2829152466107
 30
0.0
 11
2009.082964430638
 21
958.3543510251299
 31
0.0
  0
LINE
  5
F14
330
EB2
100
AcDbEntity
  8
0
  6
Continuous
 62
     7
370
    15
100
AcDbLine
 10
2008.959220624865
 20
953.2130004065002
 30
0.0
 11
2008.959220624865
 21
958.2829152466107
 31
0.0
  0
LINE
  5
F15
330
EB2
100
AcDbEntity
  8
0
  6
Continuous
 62
     7
370
    15
100
AcDbLine
 10
2008.959220624865
 20
953.2130004065002
 30
0.0
 11
2008.60566717632
 21
952.3018260325512
 31
0.0
  0
LINE
  5
F16
330
EB2
100
AcDbEntity
  8
0
  6
Continuous
 62
     7
370
    15
100
AcDbLine
 10
2008.60566717632
 20
952.3018260325512
 30
0.0
 11
2004.645869342867
 21
950.015883400956
 31
0.0
  0
LINE
  5
F17
330
EB2
100
AcDbEntity
  8
0
  6
Continuous
 62
     7
370
    15
100
AcDbLine
 10
2004.645869342867
 20
950.015883400956
 30
0.0
 11
2004.292315894322
 21
950.5188536520837
 31
0.0
  0
LINE
  5
F18
330
EB2
100
AcDbEntity
  8
0
  6
Continuous
 62
     7
370
    15
100
AcDbLine
 10
2004.292315894322
 20
952.730888110018
 30
0.0
 11
2004.292315894322
 21
950.5188536520837
 31
0.0
  0
LINE
  5
F19
330
EB2
100
AcDbEntity
  8
0
  6
Continuous
 62
     7
370
    15
100
AcDbLine
 10
2004.115539499322
 20
952.6288372693977
 30
0.0
 11
2004.292315894322
 21
952.730888110018
 31
0.0
  0
LINE
  5
F1A
330
EB2
100
AcDbEntity
  8
0
  6
Continuous
 62
     7
370
    15
100
AcDbLine
 10
2004.115539499322
 20
953.5678690148627
 30
0.0
 11
2004.115539499322
 21
952.6288372693977
 31
0.0
  0
LINE
  5
F1B
330
EB2
100
AcDbEntity
  8
0
  6
Continuous
 62
     7
370
    15
100
AcDbLine
 10
2004.292315894322
 20
953.6699198554831
 30
0.0
 11
2004.115539499322
 21
953.5678690148627
 31
0.0
  0
LINE
  5
F1C
330
EB2
100
AcDbEntity
  8
0
  6
Continuous
 62
     7
370
    15
100
AcDbLine
 10
2004.292315894322
 20
955.5887684921943
 30
0.0
 11
2004.292315894322
 21
953.6699198554831
 31
0.0
  0
LINE
  5
F1D
330
EB2
100
AcDbEntity
  8
0
  6
Continuous
 62
     7
370
    15
100
AcDbLine
 10
2004.292315894322
 20
955.5887684921943
 30
0.0
 11
2003.196300598959
 21
954.9560523299232
 31
0.0
  0
LINE
  5
F1E
330
EB2
100
AcDbEntity
  8
0
  6
Continuous
 62
     7
370
    15
100
AcDbLine
 10
2003.196300598959
 20
954.9560523299232
 30
0.0
 11
2003.196300598959
 21
953.0372036932121
 31
0.0
  0
LINE
  5
F1F
330
EB2
100
AcDbEntity
  8
0
  6
Continuous
 62
     7
370
    15
100
AcDbLine
 10
2003.373077323232
 20
953.1392547239175
 30
0.0
 11
2003.196300598959
 21
953.0372036932121
 31
0.0
  0
LINE
  5
F20
330
EB2
100
AcDbEntity
  8
0
  6
Continuous
 62
     7
370
    15
100
AcDbLine
 10
2003.373077323232
 20
952.2002229784524
 30
0.0
 11
2003.373077323232
 21
953.1392547239175
 31
0.0
  0
LINE
  5
F21
330
EB2
100
AcDbEntity
  8
0
  6
Continuous
 62
     7
370
    15
100
AcDbLine
 10
2003.196300598959
 20
952.0981719477472
 30
0.0
 11
2003.373077323232
 21
952.2002229784524
 31
0.0
  0
LINE
  5
F22
330
EB2
100
AcDbEntity
  8
0
  6
Continuous
 62
     7
370
    15
100
AcDbLine
 10
2003.196300598959
 20
952.0981719477472
 30
0.0
 11
2003.196300598959
 21
949.8861374898126
 31
0.0
  0
LINE
  5
F23
330
EB2
100
AcDbEntity
  8
0
  6
Continuous
 62
     7
370
    15
100
AcDbLine
 10
2002.842747150413
 20
948.9749631158638
 30
0.0
 11
2003.196300598959
 21
949.8861374898126
 31
0.0
  0
LINE
  5
F24
330
EB2
100
AcDbEntity
  8
0
  6
Continuous
 62
     7
370
    15
100
AcDbLine
 10
1998.882949234642
 20
946.6890204367471
 30
0.0
 11
2002.842747150413
 21
948.9749631158638
 31
0.0
  0
LINE
  5
F25
330
EB2
100
AcDbEntity
  8
0
  6
Continuous
 62
     7
370
    15
100
AcDbLine
 10
1998.529395827256
 20
947.1919907116356
 30
0.0
 11
1998.882949234642
 21
946.6890204367471
 31
0.0
  0
LINE
  5
F26
330
EB2
100
AcDbEntity
  8
0
  6
Continuous
 62
     7
370
    15
100
AcDbLine
 10
1998.529395827256
 20
947.1919907116356
 30
0.0
 11
1998.529395827256
 21
951.1393893198913
 31
0.0
  0
LINE
  5
F27
330
EB2
100
AcDbEntity
  8
0
  6
Continuous
 62
     7
370
    15
100
AcDbLine
 10
1998.405652144961
 20
957.906230608861
 30
0.0
 11
1997.557124008393
 21
957.4163857422616
 31
0.0
  0
LINE
  5
F28
330
EB2
100
AcDbEntity
  8
0
  6
Continuous
 62
     7
370
    15
100
AcDbLine
 10
1997.557124008393
 20
951.7006249779095
 30
0.0
 11
1997.557124008393
 21
957.4163857422616
 31
0.0
  0
LINE
  5
F29
330
EB2
100
AcDbEntity
  8
0
  6
Continuous
 62
     7
370
    15
100
AcDbLine
 10
1997.557124008393
 20
951.7006249779095
 30
0.0
 11
1997.433380326098
 21
951.6291892706721
 31
0.0
  0
LINE
  5
F2A
330
EB2
100
AcDbEntity
  8
0
  6
Continuous
 62
     7
370
    15
100
AcDbLine
 10
1997.433380326098
 20
951.6291892706721
 30
0.0
 11
1997.433380326098
 21
946.5592744305615
 31
0.0
  0
LINE
  5
F2B
330
EB2
100
AcDbEntity
  8
0
  6
Continuous
 62
     7
370
    15
100
AcDbLine
 10
1997.079826959871
 20
945.6481001041337
 30
0.0
 11
1997.433380326098
 21
946.5592744305615
 31
0.0
  0
LINE
  5
F2C
330
EB2
100
AcDbEntity
  8
0
  6
Continuous
 62
     7
370
    15
100
AcDbLine
 10
1992.766475513237
 20
943.1580553160856
 30
0.0
 11
1997.079826959871
 21
945.6481001041337
 31
0.0
  0
LINE
  5
F2D
330
EB2
100
AcDbEntity
  8
0
  6
Continuous
 62
     7
370
    15
100
AcDbLine
 10
1992.766475513237
 20
946.0771620865584
 30
0.0
 11
1992.766475513237
 21
943.1580553160856
 31
0.0
  0
LINE
  5
F2E
330
EB2
100
AcDbEntity
  8
0
  6
Continuous
 62
     7
370
    15
100
AcDbLine
 10
1992.589698788964
 20
945.975111055853
 30
0.0
 11
1992.766475513237
 21
946.0771620865584
 31
0.0
  0
LINE
  5
F2F
330
EB2
100
AcDbEntity
  8
0
  6
Continuous
 62
     7
370
    15
100
AcDbLine
 10
1992.589698788964
 20
946.914142801318
 30
0.0
 11
1992.589698788964
 21
945.975111055853
 31
0.0
  0
LINE
  5
F30
330
EB2
100
AcDbEntity
  8
0
  6
Continuous
 62
     7
370
    15
100
AcDbLine
 10
1992.766475513237
 20
947.0161938320234
 30
0.0
 11
1992.589698788964
 21
946.914142801318
 31
0.0
  0
LINE
  5
F31
330
EB2
100
AcDbEntity
  8
0
  6
Continuous
 62
     7
370
    15
100
AcDbLine
 10
1992.766475513237
 20
947.0161938320234
 30
0.0
 11
1992.766475513237
 21
951.8745904817228
 31
0.0
  0
ARC
  5
F32
330
EB2
100
AcDbEntity
  8
0
  6
Continuous
 62
     7
370
    15
100
AcDbCircle
 10
1998.890323677673
 20
951.605029726708
 30
0.0
 40
6.129778082582389
100
AcDbArc
 50
122.5209881612647
 51
177.4795701118526
  0
LINE
  5
F33
330
EB2
100
AcDbEntity
  8
0
  6
Continuous
 62
     7
370
    15
100
AcDbLine
 10
1995.594902772326
 20
956.7736253191599
 30
0.0
 11
2046.471234864211
 21
986.1439066717879
 31
0.0
  0
ARC
  5
F34
330
EB2
100
AcDbEntity
  8
0
  6
Continuous
 62
     7
370
    15
100
AcDbCircle
 10
2047.569606975842
 20
984.7802886601737
 30
0.0
 40
1.750964127904423
100
AcDbArc
 50
351.136706497604
 51
128.8508782252559
  0
LINE
  5
F35
330
EB2
100
AcDbEntity
  8
0
  6
Continuous
 62
     7
370
    15
100
AcDbLine
 10
2049.299662452572
 20
984.5105046268356
 30
0.0
 11
2049.299662452572
 21
979.6521079771363
 31
0.0
  0
LINE
  5
F36
330
EB2
100
AcDbEntity
  8
0
  6
Continuous
 62
     7
370
    15
100
AcDbLine
 10
2049.476436871939
 20
979.7541576772477
 30
0.0
 11
2049.299662452572
 21
979.6521079771363
 31
0.0
  0
LINE
  5
F37
330
EB2
100
AcDbEntity
  8
0
  6
Continuous
 62
     7
370
    15
100
AcDbLine
 10
2049.476436871939
 20
978.8151259317828
 30
0.0
 11
2049.476436871939
 21
979.7541576772477
 31
0.0
  0
LINE
  5
F38
330
EB2
100
AcDbEntity
  8
0
  6
Continuous
 62
     7
370
    15
100
AcDbLine
 10
2049.299662452572
 20
978.7130762316712
 30
0.0
 11
2049.476436871939
 21
978.8151259317828
 31
0.0
  0
LINE
  5
F39
330
EB2
100
AcDbEntity
  8
0
  6
Continuous
 62
     7
370
    15
100
AcDbLine
 10
2049.299662452572
 20
975.7939694611984
 30
0.0
 11
2049.299662452572
 21
978.7130762316712
 31
0.0
  0
LINE
  5
F3A
330
EB2
100
AcDbEntity
  8
0
  6
Continuous
 62
     7
370
    15
100
AcDbLine
 10
2049.299662452572
 20
975.7939694611984
 30
0.0
 11
2044.986311829119
 21
973.3039251483623
 31
0.0
  0
LINE
  5
F3B
330
EB2
100
AcDbEntity
  8
0
  6
Continuous
 62
     7
370
    15
100
AcDbLine
 10
2044.986311829119
 20
973.3039251483623
 30
0.0
 11
2044.632757722029
 21
973.8068950193204
 31
0.0
  0
LINE
  5
F3C
330
EB2
100
AcDbEntity
  8
0
  6
Continuous
 62
     7
370
    15
100
AcDbLine
 10
2044.632757722029
 20
977.7542936275763
 30
0.0
 11
2044.632757722029
 21
973.8068950193204
 31
0.0
  0
LINE
  5
F3D
330
EB2
100
AcDbEntity
  8
0
  6
Continuous
 62
     7
370
    15
100
AcDbLine
 10
2043.660487878799
 20
984.0312911904554
 30
0.0
 11
2044.509014574801
 21
984.5211352254336
 31
0.0
  0
LINE
  5
F3E
330
EB2
100
AcDbEntity
  8
0
  6
Continuous
 62
     7
370
    15
100
AcDbLine
 10
2043.660487878799
 20
978.3155304261033
 30
0.0
 11
2043.660487878799
 21
984.0312911904554
 31
0.0
  0
LINE
  5
F3F
330
EB2
100
AcDbEntity
  8
0
  6
Continuous
 62
     7
370
    15
100
AcDbLine
 10
2043.536744731571
 20
978.2440950277537
 30
0.0
 11
2043.660487878799
 21
978.3155304261033
 31
0.0
  0
LINE
  5
F40
330
EB2
100
AcDbEntity
  8
0
  6
Continuous
 62
     7
370
    15
100
AcDbLine
 10
2043.536744731571
 20
973.1741801876431
 30
0.0
 11
2043.536744731571
 21
978.2440950277537
 31
0.0
  0
LINE
  5
F41
330
EB2
100
AcDbEntity
  8
0
  6
Continuous
 62
     7
370
    15
100
AcDbLine
 10
2043.536744731571
 20
973.1741801876431
 30
0.0
 11
2043.183190624482
 21
972.2630054335246
 31
0.0
  0
LINE
  5
F42
330
EB2
100
AcDbEntity
  8
0
  6
Continuous
 62
     7
370
    15
100
AcDbLine
 10
2043.183190624482
 20
972.2630054335246
 30
0.0
 11
2039.22339147394
 21
969.97706204159
 31
0.0
  0
LINE
  5
F43
330
EB2
100
AcDbEntity
  8
0
  6
Continuous
 62
     7
370
    15
100
AcDbLine
 10
2039.22339147394
 20
969.97706204159
 30
0.0
 11
2038.86983736685
 21
970.4800319125482
 31
0.0
  0
LINE
  5
F44
330
EB2
100
AcDbEntity
  8
0
  6
Continuous
 62
     7
370
    15
100
AcDbLine
 10
2038.86983736685
 20
972.6920663704825
 30
0.0
 11
2038.86983736685
 21
970.4800319125482
 31
0.0
  0
LINE
  5
F45
330
EB2
100
AcDbEntity
  8
0
  6
Continuous
 62
     7
370
    15
100
AcDbLine
 10
2038.693060313305
 20
972.5900151496924
 30
0.0
 11
2038.86983736685
 21
972.6920663704825
 31
0.0
  0
LINE
  5
F46
330
EB2
100
AcDbEntity
  8
0
  6
Continuous
 62
     7
370
    15
100
AcDbLine
 10
2038.693060313305
 20
973.5290468951573
 30
0.0
 11
2038.693060313305
 21
972.5900151496924
 31
0.0
  0
LINE
  5
F47
330
EB2
100
AcDbEntity
  8
0
  6
Continuous
 62
     7
370
    15
100
AcDbLine
 10
2038.86983736685
 20
973.6310981159475
 30
0.0
 11
2038.693060313305
 21
973.5290468951573
 31
0.0
  0
LINE
  5
F48
330
EB2
100
AcDbEntity
  8
0
  6
Continuous
 62
     7
370
    15
100
AcDbLine
 10
2038.86983736685
 20
975.5499467526586
 30
0.0
 11
2038.86983736685
 21
973.6310981159475
 31
0.0
  0
LINE
  5
F49
330
EB2
100
AcDbEntity
  8
0
  6
Continuous
 62
     7
370
    15
100
AcDbLine
 10
2037.773821742215
 20
974.9172304003026
 30
0.0
 11
2038.86983736685
 21
975.5499467526586
 31
0.0
  0
LINE
  5
F4A
330
EB2
100
AcDbEntity
  8
0
  6
Continuous
 62
     7
370
    15
100
AcDbLine
 10
2037.773821742215
 20
974.9172304003026
 30
0.0
 11
2037.773821742215
 21
972.9983817635917
 31
0.0
  0
LINE
  5
F4B
330
EB2
100
AcDbEntity
  8
0
  6
Continuous
 62
     7
370
    15
100
AcDbLine
 10
2037.95059879576
 20
973.1004329843818
 30
0.0
 11
2037.773821742215
 21
972.9983817635917
 31
0.0
  0
LINE
  5
F4C
330
EB2
100
AcDbEntity
  8
0
  6
Continuous
 62
     7
370
    15
100
AcDbLine
 10
1992.766475513237
 20
951.8745904817228
 30
0.0
 11
1990.927945687495
 21
952.9359511584265
 31
0.0
  0
ARC
  5
F4D
330
EB2
100
AcDbEntity
  8
0
  6
Continuous
 62
     7
370
    15
100
AcDbCircle
 10
1997.051807371747
 20
952.6663825978301
 30
0.0
 40
6.129791932579162
100
AcDbArc
 50
122.5210554930002
 51
177.4795027801223
  0
LINE
  5
F4E
330
EB2
100
AcDbEntity
  8
0
  6
Continuous
 62
     7
370
    15
100
AcDbLine
 10
1993.756372946584
 20
957.8349859958636
 30
0.0
 11
1995.594902772326
 21
956.7736253191599
 31
0.0
  0
LINE
  5
F4F
330
EB2
100
AcDbEntity
  8
0
  6
Continuous
 62
     7
370
    15
100
AcDbLine
 10
1990.927945687495
 20
948.0775545087272
 30
0.0
 11
1992.766475513237
 21
947.0161938320234
 31
0.0
  0
LINE
  5
F50
330
EB2
100
AcDbEntity
  8
0
  6
Continuous
 62
     7
370
    15
100
AcDbLine
 10
1990.927945687495
 20
948.0775545087272
 30
0.0
 11
1990.927945687495
 21
952.9359511584265
 31
0.0
  0
LINE
  5
F51
330
EB2
100
AcDbEntity
  8
0
  6
Continuous
 62
     7
370
    15
100
AcDbLine
 10
2044.632705038468
 20
987.2052673484917
 30
0.0
 11
2046.471234864211
 21
986.1439066717879
 31
0.0
  0
LINE
  5
F52
330
EB2
100
AcDbEntity
  8
0
  6
Continuous
 62
     7
370
    15
100
AcDbLine
 10
1993.756372946584
 20
957.8349859958636
 30
0.0
 11
2044.632705038468
 21
987.2052673484917
 31
0.0
  0
LINE
  5
F53
330
EB2
100
AcDbEntity
  8
0
  6
Continuous
 62
     7
370
    15
100
AcDbLine
 10
1997.557124008393
 20
957.4163857422616
 30
0.0
 11
1999.112764186931
 21
950.8025730184135
 31
0.0
  0
LINE
  5
F54
330
EB2
100
AcDbEntity
  8
0
  6
Continuous
 62
     7
370
    15
100
AcDbLine
 10
1998.405652144961
 20
957.906230608861
 30
0.0
 11
1999.961292323498
 21
951.2924178850127
 31
0.0
  0
LINE
  5
F55
330
EB2
100
AcDbEntity
  8
0
  6
Continuous
 62
     7
370
    15
100
AcDbLine
 10
1999.112764186931
 20
950.8025730184135
 30
0.0
 11
1999.961292323498
 21
951.2924178850127
 31
0.0
  0
LINE
  5
F56
330
EB2
100
AcDbEntity
  8
0
  6
Continuous
 62
     7
370
    15
100
AcDbLine
 10
1997.557124008393
 20
951.7006249779095
 30
0.0
 11
1999.112764186931
 21
950.8025730184135
 31
0.0
  0
LINE
  5
F57
330
EB2
100
AcDbEntity
  8
0
  6
Continuous
 62
     7
370
    15
100
AcDbLine
 10
1997.246734571511
 20
940.000000243571
 30
0.0
 11
1997.246734571511
 21
940.5715763200063
 31
0.0
  0
LINE
  5
F58
330
EB2
100
AcDbEntity
  8
0
  6
Continuous
 62
     7
370
    15
100
AcDbLine
 10
1997.246734571511
 20
940.5715763200063
 30
0.0
 11
1997.953841468601
 21
940.9797804428276
 31
0.0
  0
LINE
  5
F59
330
EB2
100
AcDbEntity
  8
0
  6
Continuous
 62
     7
370
    15
100
AcDbLine
 10
1997.953841468601
 20
940.4082043663922
 30
0.0
 11
1997.953841468601
 21
940.9797804428276
 31
0.0
  0
LINE
  5
F5A
330
EB2
100
AcDbEntity
  8
0
  6
Continuous
 62
     7
370
    15
100
AcDbLine
 10
1997.953841468601
 20
940.4082043663922
 30
0.0
 11
1997.246734571511
 21
940.000000243571
 31
0.0
  0
LINE
  5
F5B
330
EB2
100
AcDbEntity
  8
0
  6
Continuous
 62
     7
370
    15
100
AcDbLine
 10
1994.771871626951
 20
941.1838026573748
 30
0.0
 11
1996.043694927616
 21
940.4495946939571
 31
0.0
  0
LINE
  5
F5C
330
EB2
100
AcDbEntity
  8
0
  6
Continuous
 62
     7
370
    15
100
AcDbLine
 10
1994.771871626951
 20
941.1838026573748
 30
0.0
 11
1994.771871626951
 21
942.0002842869966
 31
0.0
  0
LINE
  5
F5D
330
EB2
100
AcDbEntity
  8
0
  6
Continuous
 62
     7
370
    15
100
AcDbLine
 10
1994.771871626951
 20
942.0002842869966
 30
0.0
 11
1997.246734571511
 21
940.5715763200063
 31
0.0
  0
LINE
  5
F5E
330
EB2
100
AcDbEntity
  8
0
  6
Continuous
 62
     7
370
    15
100
AcDbLine
 10
1997.246734571511
 20
940.000000243571
 30
0.0
 11
1996.043694927616
 21
940.4495946939571
 31
0.0
  0
LWPOLYLINE
  5
F5F
330
EB2
100
AcDbEntity
  8
0
  6
Continuous
 62
     7
370
    15
100
AcDbPolyline
 90
       16
 70
   128
 43
0.0
 10
1996.460882214878
 20
942.2535787807387
 10
1996.29066097191
 20
942.3948251125134
 10
1996.172185522202
 20
942.5527076682735
 10
1996.110066335853
 20
942.7210315835347
 10
1996.106853955743
 20
942.8930940871568
 10
1996.162712359454
 20
943.0620798777825
 10
1996.275227981366
 20
943.2214374917936
 10
1996.440185148809
 20
943.3647430124901
 10
1996.650944416055
 20
943.4864117476793
 10
1996.899183920792
 20
943.5816395885071
 10
1997.175229150289
 20
943.6465933794119
 10
1997.467953007268
 20
943.6788398445337
 10
1997.766006300314
 20
943.6769853769698
 10
1998.057583466669
 20
943.6411247340057
 10
1998.331073708111
 20
943.5727303127052
 10
1998.575746041885
 20
943.4744636808039
  0
LINE
  5
F60
330
EB2
100
AcDbEntity
  8
0
  6
Continuous
 62
     7
370
    15
100
AcDbLine
 10
1997.481731898645
 20
941.5642675226662
 30
0.0
 11
1996.460882214878
 21
942.2535787807387
 31
0.0
  0
LINE
  5
F61
330
EB2
100
AcDbEntity
  8
0
  6
Continuous
 62
     7
370
    15
100
AcDbLine
 10
1997.953841468601
 20
940.9797804428276
 30
0.0
 11
1997.481731898645
 21
941.5642675226662
 31
0.0
  0
ARC
  5
F62
330
EB2
100
AcDbEntity
  8
0
  6
Continuous
 62
     7
370
    15
100
AcDbCircle
 10
1995.424063387917
 20
943.4045069355576
 30
0.0
 40
1.54828787368624
100
AcDbArc
 50
189.1068666553058
 51
245.0874695087468
  0
LINE
  5
F63
330
EB2
100
AcDbEntity
  8
0
  6
Continuous
 62
     7
370
    15
100
AcDbLine
 10
1993.895291922726
 20
943.1594494993891
 30
0.0
 11
1993.332125732923
 21
943.4845584206243
 31
0.0
  0
LINE
  5
F64
330
EB2
100
AcDbEntity
  8
0
  6
Continuous
 62
     7
370
    15
100
AcDbLine
 10
1996.443395635603
 20
945.2806563044232
 30
0.0
 11
1997.006561825406
 21
944.955547383188
 31
0.0
  0
ARC
  5
F65
330
EB2
100
AcDbEntity
  8
0
  6
Continuous
 62
     7
370
    15
100
AcDbCircle
 10
1996.996698883704
 20
940.6796397598636
 30
0.0
 40
4.275918998393643
100
AcDbArc
 50
61.8421874354279
 51
89.86784000482275
  0
LINE
  5
F66
330
EB2
100
AcDbEntity
  8
0
  6
Continuous
 62
     7
370
    15
100
AcDbLine
 10
2001.489375377827
 20
943.0208007242852
 30
0.0
 11
1999.014512433267
 21
944.4495086912754
 31
0.0
  0
LINE
  5
F67
330
EB2
100
AcDbEntity
  8
0
  6
Continuous
 62
     7
370
    15
100
AcDbLine
 10
2000.782268563054
 20
942.6125966489852
 30
0.0
 11
2001.489375377827
 21
943.0208007242852
 31
0.0
  0
LINE
  5
F68
330
EB2
100
AcDbEntity
  8
0
  6
Continuous
 62
     7
370
    15
100
AcDbLine
 10
1999.769797541063
 20
942.8851397024789
 30
0.0
 11
2000.782268563054
 21
942.6125966489852
 31
0.0
  0
LINE
  5
F69
330
EB2
100
AcDbEntity
  8
0
  6
Continuous
 62
     7
370
    15
100
AcDbLine
 10
1998.575746041885
 20
943.4744636808039
 30
0.0
 11
1999.769797541063
 21
942.8851397024789
 31
0.0
  0
LINE
  5
F6A
330
EB2
100
AcDbEntity
  8
0
  6
Continuous
 62
     7
370
    15
100
AcDbLine
 10
1992.589698788964
 20
945.975111055853
 30
0.0
 11
1990.751168963222
 21
947.0364717325567
 31
0.0
  0
LINE
  5
F6B
330
EB2
100
AcDbEntity
  8
0
  6
Continuous
 62
     7
370
    15
100
AcDbLine
 10
1992.589698788964
 20
946.914142801318
 30
0.0
 11
1990.751168963222
 21
947.9755034780218
 31
0.0
  0
LINE
  5
F6C
330
EB2
100
AcDbEntity
  8
0
  6
Continuous
 62
     7
370
    15
100
AcDbLine
 10
1990.751168963222
 20
947.0364717325567
 30
0.0
 11
1990.751168963222
 21
947.9755034780218
 31
0.0
  0
LINE
  5
F6D
330
EB2
100
AcDbEntity
  8
0
  6
Continuous
 62
     7
370
    15
100
AcDbLine
 10
1990.751168963222
 20
947.9755034780218
 30
0.0
 11
1990.927945687495
 21
948.0775545087272
 31
0.0
  0
LINE
  5
F6E
330
EB2
100
AcDbEntity
  8
0
  6
Continuous
 62
     7
370
    15
100
AcDbLine
 10
1990.927945687495
 20
944.2194159927893
 30
0.0
 11
1992.766475513237
 21
943.1580553160856
 31
0.0
  0
LINE
  5
F6F
330
EB2
100
AcDbEntity
  8
0
  6
Continuous
 62
     7
370
    15
100
AcDbLine
 10
1990.927945687495
 20
946.9344023558567
 30
0.0
 11
1990.927945687495
 21
944.2194159927893
 31
0.0
  0
LINE
  5
F70
330
EB2
100
AcDbEntity
  8
0
  6
Continuous
 62
     7
370
    15
100
AcDbLine
 10
1993.895291922726
 20
942.3429678697676
 30
0.0
 11
1993.895291922726
 21
943.1594494993891
 31
0.0
  0
ARC
  5
F71
330
EB2
100
AcDbEntity
  8
0
  6
Continuous
 62
     7
370
    15
100
AcDbCircle
 10
1995.424063387917
 20
942.5880253059359
 30
0.0
 40
1.548287873686158
100
AcDbArc
 50
189.1068666553058
 51
245.0874695087468
  0
LINE
  5
F72
330
EB2
100
AcDbEntity
  8
0
  6
Continuous
 62
     7
370
    15
100
AcDbLine
 10
1995.594867540195
 20
946.6688749525143
 30
0.0
 11
1995.354461916289
 21
947.9182016692071
 31
0.0
  0
LINE
  5
F73
330
EB2
100
AcDbEntity
  8
0
  6
Continuous
 62
     7
370
    15
100
AcDbLine
 10
1995.594867540195
 20
946.6688749525143
 30
0.0
 11
1994.322075191287
 21
945.9341075694531
 31
0.0
  0
LINE
  5
F74
330
EB2
100
AcDbEntity
  8
0
  6
Continuous
 62
     7
370
    15
100
AcDbLine
 10
1998.575746041885
 20
942.657982051182
 30
0.0
 11
1998.575746041885
 21
943.4744636808039
 31
0.0
  0
ARC
  5
F75
330
EB2
100
AcDbEntity
  8
0
  6
Continuous
 62
     7
370
    15
100
AcDbCircle
 10
1997.623131652497
 20
940.7291628230424
 30
0.0
 40
2.151236339807741
100
AcDbArc
 50
63.71593661977802
 51
128.6980068456682
  0
LINE
  5
F76
330
EB2
100
AcDbEntity
  8
0
  6
Continuous
 62
     7
370
    15
100
AcDbLine
 10
2000.782268563054
 20
942.6125966489852
 30
0.0
 11
2000.782268563054
 21
942.0410205725499
 31
0.0
  0
LINE
  5
F77
330
EB2
100
AcDbEntity
  8
0
  6
Continuous
 62
     7
370
    15
100
AcDbLine
 10
1999.769797541063
 20
942.1623957706785
 30
0.0
 11
2000.782268563054
 21
942.0410205725499
 31
0.0
  0
LINE
  5
F78
330
EB2
100
AcDbEntity
  8
0
  6
Continuous
 62
     7
370
    15
100
AcDbLine
 10
1999.769797541063
 20
942.1623957706785
 30
0.0
 11
1999.769797541063
 21
942.8851397024789
 31
0.0
  0
LINE
  5
F79
330
EB2
100
AcDbEntity
  8
0
  6
Continuous
 62
     7
370
    15
100
AcDbLine
 10
2001.489375377827
 20
942.4492246478498
 30
0.0
 11
2001.489375377827
 21
943.0208007242852
 31
0.0
  0
LINE
  5
F7A
330
EB2
100
AcDbEntity
  8
0
  6
Continuous
 62
     7
370
    15
100
AcDbLine
 10
2001.489375377827
 20
942.4492246478498
 30
0.0
 11
2000.782268563054
 21
942.0410205725499
 31
0.0
  0
LINE
  5
F7B
330
EB2
100
AcDbEntity
  8
0
  6
Continuous
 62
     7
370
    15
100
AcDbLine
 10
1999.769797541063
 20
942.1623957706785
 30
0.0
 11
1999.273018070657
 21
942.3138432627879
 31
0.0
  0
LINE
  5
F7C
330
EB2
100
AcDbEntity
  8
0
  6
Continuous
 62
     7
370
    15
100
AcDbLine
 10
1998.575746041885
 20
942.657982051182
 30
0.0
 11
1999.273018070657
 21
942.3138432627879
 31
0.0
  0
LINE
  5
F7D
330
EB2
100
AcDbEntity
  8
0
  6
Continuous
 62
     7
370
    15
100
AcDbLine
 10
1995.577238303716
 20
946.7606927666032
 30
0.0
 11
1995.877745333599
 21
946.5872137508567
 31
0.0
  0
ARC
  5
F7E
330
EB2
100
AcDbEntity
  8
0
  6
Continuous
 62
     7
370
    15
100
AcDbCircle
 10
1993.955143508235
 20
944.1634399577754
 30
0.0
 40
1.606963219978254
100
AcDbArc
 50
215.7381476267756
 51
238.6894584593973
  0
LINE
  5
F7F
330
EB2
100
AcDbEntity
  8
0
  6
Continuous
 62
     7
370
    15
100
AcDbLine
 10
1993.895291922726
 20
942.3429678697676
 30
0.0
 11
1993.120042791217
 21
942.7905096671928
 31
0.0
  0
LINE
  5
F80
330
EB2
100
AcDbEntity
  8
0
  6
Continuous
 62
     7
370
    15
100
AcDbLine
 10
1997.433324884882
 20
947.8247389982424
 30
0.0
 11
1998.529395827256
 21
947.1919907116356
 31
0.0
  0
LINE
  5
F81
330
EB2
100
AcDbEntity
  8
0
  6
Continuous
 62
     7
370
    15
100
AcDbLine
 10
2000.53479198213
 20
945.3271473937689
 30
0.0
 11
2000.53479198213
 21
944.5106657641472
 31
0.0
  0
LINE
  5
F82
330
EB2
100
AcDbEntity
  8
0
  6
Continuous
 62
     7
370
    15
100
AcDbLine
 10
2000.53479198213
 20
945.3271473937689
 30
0.0
 11
2003.00965492669
 21
943.8984394267787
 31
0.0
  0
LINE
  5
F83
330
EB2
100
AcDbEntity
  8
0
  6
Continuous
 62
     7
370
    15
100
AcDbLine
 10
2003.00965492669
 20
943.8984394267787
 30
0.0
 11
2003.00965492669
 21
943.3268633503434
 31
0.0
  0
LINE
  5
F84
330
EB2
100
AcDbEntity
  8
0
  6
Continuous
 62
     7
370
    15
100
AcDbLine
 10
2001.806615282795
 20
943.7764578007293
 30
0.0
 11
2003.00965492669
 21
943.3268633503434
 31
0.0
  0
LINE
  5
F85
330
EB2
100
AcDbEntity
  8
0
  6
Continuous
 62
     7
370
    15
100
AcDbLine
 10
2000.53479198213
 20
944.5106657641472
 30
0.0
 11
2001.806615282795
 21
943.7764578007293
 31
0.0
  0
LINE
  5
F86
330
EB2
100
AcDbEntity
  8
0
  6
Continuous
 62
     7
370
    15
100
AcDbLine
 10
2003.00965492669
 20
943.8984394267787
 30
0.0
 11
2003.716761659144
 21
944.3066434545574
 31
0.0
  0
LINE
  5
F87
330
EB2
100
AcDbEntity
  8
0
  6
Continuous
 62
     7
370
    15
100
AcDbLine
 10
2003.716761659144
 20
943.7350673781223
 30
0.0
 11
2003.716761659144
 21
944.3066434545574
 31
0.0
  0
LINE
  5
F88
330
EB2
100
AcDbEntity
  8
0
  6
Continuous
 62
     7
370
    15
100
AcDbLine
 10
2003.00965492669
 20
943.3268633503434
 30
0.0
 11
2003.716761659144
 21
943.7350673781223
 31
0.0
  0
LWPOLYLINE
  5
F89
330
EB2
100
AcDbEntity
  8
0
  6
Continuous
 62
     7
370
    15
100
AcDbPolyline
 90
       16
 70
   128
 43
0.0
 10
2002.223802405421
 20
945.5804417924687
 10
2002.053581327089
 20
945.7216882192858
 10
2001.935105877381
 20
945.8795707750459
 10
2001.872986526396
 20
946.0478945952646
 10
2001.869774146285
 20
946.2199570988868
 10
2001.925632714633
 20
946.3889429845549
 10
2002.038148171909
 20
946.5483005035236
 10
2002.203105503988
 20
946.6916061192625
 10
2002.413864771234
 20
946.8132748544517
 10
2002.662104111335
 20
946.9085026002371
 10
2002.938149505468
 20
946.9734564861841
 10
2003.230873197811
 20
947.0057028562637
 10
2003.528926490857
 20
947.0038483886996
 10
2003.820503657212
 20
946.9679877457355
 10
2004.093993898654
 20
946.899593324435
 10
2004.338666232428
 20
946.8013266925337
  0
LINE
  5
F8A
330
EB2
100
AcDbEntity
  8
0
  6
Continuous
 62
     7
370
    15
100
AcDbLine
 10
2003.244652253824
 20
944.8911306294386
 30
0.0
 11
2002.223802405421
 21
945.5804417924687
 31
0.0
  0
LINE
  5
F8B
330
EB2
100
AcDbEntity
  8
0
  6
Continuous
 62
     7
370
    15
100
AcDbLine
 10
2003.716761659144
 20
944.3066434545574
 30
0.0
 11
2003.244652253824
 21
944.8911306294386
 31
0.0
  0
ARC
  5
F8C
330
EB2
100
AcDbEntity
  8
0
  6
Continuous
 62
     7
370
    15
100
AcDbCircle
 10
2001.186983010264
 20
946.7313694881507
 30
0.0
 40
1.548287062378618
100
AcDbArc
 50
189.1068506982139
 51
245.0874854658307
  0
LINE
  5
F8D
330
EB2
100
AcDbEntity
  8
0
  6
Continuous
 62
     7
370
    15
100
AcDbLine
 10
1999.095046088102
 20
946.8114215273967
 30
0.0
 11
1999.658212277905
 21
946.4863126061615
 31
0.0
  0
LINE
  5
F8E
330
EB2
100
AcDbEntity
  8
0
  6
Continuous
 62
     7
370
    15
100
AcDbLine
 10
2002.769482098267
 20
948.2824104424391
 30
0.0
 11
2002.206315908464
 21
948.6075193636741
 31
0.0
  0
ARC
  5
F8F
330
EB2
100
AcDbEntity
  8
0
  6
Continuous
 62
     7
370
    15
100
AcDbCircle
 10
2002.759618749786
 20
944.0065012050245
 30
0.0
 40
4.275920613417737
100
AcDbArc
 50
61.84219283621323
 51
89.86783460404131
  0
LINE
  5
F90
330
EB2
100
AcDbEntity
  8
0
  6
Continuous
 62
     7
370
    15
100
AcDbLine
 10
2007.252295650687
 20
946.3476637835363
 30
0.0
 11
2004.777432706128
 21
947.7763717505265
 31
0.0
  0
LINE
  5
F91
330
EB2
100
AcDbEntity
  8
0
  6
Continuous
 62
     7
370
    15
100
AcDbLine
 10
2006.545188753597
 20
945.939459660715
 30
0.0
 11
2007.252295650687
 21
946.3476637835363
 31
0.0
  0
LINE
  5
F92
330
EB2
100
AcDbEntity
  8
0
  6
Continuous
 62
     7
370
    15
100
AcDbLine
 10
2005.532717731605
 20
946.2120027142088
 30
0.0
 11
2006.545188753597
 21
945.939459660715
 31
0.0
  0
LINE
  5
F93
330
EB2
100
AcDbEntity
  8
0
  6
Continuous
 62
     7
370
    15
100
AcDbLine
 10
2004.338666232428
 20
946.8013266925337
 30
0.0
 11
2005.532717731605
 21
946.2120027142088
 31
0.0
  0
LINE
  5
F94
330
EB2
100
AcDbEntity
  8
0
  6
Continuous
 62
     7
370
    15
100
AcDbLine
 10
1999.658212277905
 20
946.4863126061615
 30
0.0
 11
1999.658212277905
 21
945.6698309765398
 31
0.0
  0
ARC
  5
F95
330
EB2
100
AcDbEntity
  8
0
  6
Continuous
 62
     7
370
    15
100
AcDbCircle
 10
2001.186983010264
 20
945.9148878585288
 30
0.0
 40
1.548287062378491
100
AcDbArc
 50
189.1068506982139
 51
245.0874854658426
  0
LINE
  5
F96
330
EB2
100
AcDbEntity
  8
0
  6
Continuous
 62
     7
370
    15
100
AcDbLine
 10
2001.357787895374
 20
949.9957380592865
 30
0.0
 11
2001.117382271468
 21
951.2450647759795
 31
0.0
  0
LINE
  5
F97
330
EB2
100
AcDbEntity
  8
0
  6
Continuous
 62
     7
370
    15
100
AcDbLine
 10
2001.357787895374
 20
949.9957380592865
 30
0.0
 11
2000.084995546465
 21
949.2609706762255
 31
0.0
  0
LINE
  5
F98
330
EB2
100
AcDbEntity
  8
0
  6
Continuous
 62
     7
370
    15
100
AcDbLine
 10
2011.487132622265
 20
957.9461438609515
 30
0.0
 11
2010.638604609175
 21
957.4562990656339
 31
0.0
  0
LINE
  5
F99
330
EB2
100
AcDbEntity
  8
0
  6
Continuous
 62
     7
370
    15
100
AcDbLine
 10
2009.082964430638
 20
964.070111789482
 30
0.0
 11
2010.638604609175
 21
957.4562990656339
 31
0.0
  0
LINE
  5
F9A
330
EB2
100
AcDbEntity
  8
0
  6
Continuous
 62
     7
370
    15
100
AcDbLine
 10
2009.931492443729
 20
964.5599565847996
 30
0.0
 11
2011.487132622265
 21
957.9461438609515
 31
0.0
  0
LINE
  5
F9B
330
EB2
100
AcDbEntity
  8
0
  6
Continuous
 62
     7
370
    15
100
AcDbLine
 10
2009.082964430638
 20
958.3543510251299
 30
0.0
 11
2010.638604609175
 21
957.4562990656339
 31
0.0
  0
LINE
  5
F9C
330
EB2
100
AcDbEntity
  8
0
  6
Continuous
 62
     7
370
    15
100
AcDbLine
 10
2004.338666232428
 20
945.984845062912
 30
0.0
 11
2004.338666232428
 21
946.8013266925337
 31
0.0
  0
ARC
  5
F9D
330
EB2
100
AcDbEntity
  8
0
  6
Continuous
 62
     7
370
    15
100
AcDbCircle
 10
2003.386051841439
 20
944.0560258494942
 30
0.0
 40
2.151236327316992
100
AcDbArc
 50
63.71593640790358
 51
128.6980070575272
  0
LINE
  5
F9E
330
EB2
100
AcDbEntity
  8
0
  6
Continuous
 62
     7
370
    15
100
AcDbLine
 10
1997.433350526959
 20
947.5258559581481
 30
0.0
 11
1998.882949234642
 21
946.6890204367471
 31
0.0
  0
LINE
  5
F9F
330
EB2
100
AcDbEntity
  8
0
  6
Continuous
 62
     7
370
    15
100
AcDbLine
 10
2005.532717731605
 20
945.4892587824083
 30
0.0
 11
2005.532717731605
 21
946.2120027142088
 31
0.0
  0
LINE
  5
FA0
330
EB2
100
AcDbEntity
  8
0
  6
Continuous
 62
     7
370
    15
100
AcDbLine
 10
2006.545188753597
 20
945.939459660715
 30
0.0
 11
2006.545188753597
 21
945.3678835842797
 31
0.0
  0
LINE
  5
FA1
330
EB2
100
AcDbEntity
  8
0
  6
Continuous
 62
     7
370
    15
100
AcDbLine
 10
2006.545188753597
 20
945.3678835842797
 30
0.0
 11
2005.532717731605
 21
945.4892587824083
 31
0.0
  0
LINE
  5
FA2
330
EB2
100
AcDbEntity
  8
0
  6
Continuous
 62
     7
370
    15
100
AcDbLine
 10
2007.252295650687
 20
946.3476637835363
 30
0.0
 11
2007.252295650687
 21
945.7760877071009
 31
0.0
  0
LINE
  5
FA3
330
EB2
100
AcDbEntity
  8
0
  6
Continuous
 62
     7
370
    15
100
AcDbLine
 10
2006.545188753597
 20
945.3678835842797
 30
0.0
 11
2007.252295650687
 21
945.7760877071009
 31
0.0
  0
LINE
  5
FA4
330
EB2
100
AcDbEntity
  8
0
  6
Continuous
 62
     7
370
    15
100
AcDbLine
 10
2005.532717731605
 20
945.4892587824083
 30
0.0
 11
2005.035938425836
 21
945.6407063695605
 31
0.0
  0
LINE
  5
FA5
330
EB2
100
AcDbEntity
  8
0
  6
Continuous
 62
     7
370
    15
100
AcDbLine
 10
2004.338666232428
 20
945.984845062912
 30
0.0
 11
2005.035938425836
 21
945.6407063695605
 31
0.0
  0
LINE
  5
FA6
330
EB2
100
AcDbEntity
  8
0
  6
Continuous
 62
     7
370
    15
100
AcDbLine
 10
2001.340158658895
 20
950.0875558733754
 30
0.0
 11
2001.640665688778
 21
949.9140768576289
 31
0.0
  0
ARC
  5
FA7
330
EB2
100
AcDbEntity
  8
0
  6
Continuous
 62
     7
370
    15
100
AcDbCircle
 10
1999.884994067348
 20
947.6786101689503
 30
0.0
 40
1.855135620391159
100
AcDbArc
 50
197.0620232128758
 51
237.3069048500217
  0
LINE
  5
FA8
330
EB2
100
AcDbEntity
  8
0
  6
Continuous
 62
     7
370
    15
100
AcDbLine
 10
1998.882963146396
 20
946.1173727739652
 30
0.0
 11
1999.658212277905
 21
945.6698309765398
 31
0.0
  0
LINE
  5
FA9
330
EB2
100
AcDbEntity
  8
0
  6
Continuous
 62
     7
370
    15
100
AcDbLine
 10
2003.196244951948
 20
954.3026681420899
 30
0.0
 11
2004.292315894322
 21
953.6699198554831
 31
0.0
  0
LINE
  5
FAA
330
EB2
100
AcDbEntity
  8
0
  6
Continuous
 62
     7
370
    15
100
AcDbLine
 10
2003.373077323232
 20
953.1392547239175
 30
0.0
 11
2003.196313440577
 21
953.2412983413145
 31
0.0
  0
LINE
  5
FAB
330
EB2
100
AcDbEntity
  8
0
  6
Continuous
 62
     7
370
    15
100
AcDbLine
 10
2006.297712337309
 20
948.6540105005413
 30
0.0
 11
2006.297712337309
 21
947.8375288709194
 31
0.0
  0
LINE
  5
FAC
330
EB2
100
AcDbEntity
  8
0
  6
Continuous
 62
     7
370
    15
100
AcDbLine
 10
2008.772575281868
 20
947.2253025335509
 30
0.0
 11
2006.297712337309
 21
948.6540105005413
 31
0.0
  0
LINE
  5
FAD
330
EB2
100
AcDbEntity
  8
0
  6
Continuous
 62
     7
370
    15
100
AcDbLine
 10
2008.772575281868
 20
947.2253025335509
 30
0.0
 11
2008.772575281868
 21
946.6537264571156
 31
0.0
  0
LINE
  5
FAE
330
EB2
100
AcDbEntity
  8
0
  6
Continuous
 62
     7
370
    15
100
AcDbLine
 10
2007.569535637973
 20
947.1033209075017
 30
0.0
 11
2008.772575281868
 21
946.6537264571156
 31
0.0
  0
LINE
  5
FAF
330
EB2
100
AcDbEntity
  8
0
  6
Continuous
 62
     7
370
    15
100
AcDbLine
 10
2007.569535637973
 20
947.1033209075017
 30
0.0
 11
2006.297712337309
 21
947.8375288709194
 31
0.0
  0
LINE
  5
FB0
330
EB2
100
AcDbEntity
  8
0
  6
Continuous
 62
     7
370
    15
100
AcDbLine
 10
2009.007572279731
 20
948.2179935461259
 30
0.0
 11
2009.479682178959
 21
947.6335066563722
 31
0.0
  0
LINE
  5
FB1
330
EB2
100
AcDbEntity
  8
0
  6
Continuous
 62
     7
370
    15
100
AcDbLine
 10
2009.479682178959
 20
947.6335066563722
 30
0.0
 11
2008.772575281868
 21
947.2253025335509
 31
0.0
  0
ARC
  5
FB2
330
EB2
100
AcDbEntity
  8
0
  6
Continuous
 62
     7
370
    15
100
AcDbCircle
 10
2006.949904220941
 20
950.0582337163127
 30
0.0
 40
1.548288439789888
100
AcDbArc
 50
189.1068916793593
 51
245.087474233519
  0
LINE
  5
FB3
330
EB2
100
AcDbEntity
  8
0
  6
Continuous
 62
     7
370
    15
100
AcDbLine
 10
2005.421132303812
 20
949.813175522849
 30
0.0
 11
2004.857966114009
 21
950.138284444084
 31
0.0
  0
LINE
  5
FB4
330
EB2
100
AcDbEntity
  8
0
  6
Continuous
 62
     7
370
    15
100
AcDbLine
 10
2007.969235934371
 20
951.9343822803618
 30
0.0
 11
2008.532402124174
 21
951.6092733591268
 31
0.0
  0
ARC
  5
FB5
330
EB2
100
AcDbEntity
  8
0
  6
Continuous
 62
     7
370
    15
100
AcDbCircle
 10
2008.522539388792
 20
947.3333638254279
 30
0.0
 40
4.275920908286845
100
AcDbArc
 50
61.84219926475249
 51
89.86784282847398
  0
LINE
  5
FB6
330
EB2
100
AcDbEntity
  8
0
  6
Continuous
 62
     7
370
    15
100
AcDbLine
 10
2010.540353061307
 20
951.1032348572989
 30
0.0
 11
2013.015216005866
 21
949.6745268903087
 31
0.0
  0
LINE
  5
FB7
330
EB2
100
AcDbEntity
  8
0
  6
Continuous
 62
     7
370
    15
100
AcDbLine
 10
2013.015216005866
 20
949.6745268903087
 30
0.0
 11
2012.308109108776
 21
949.2663227674874
 31
0.0
  0
LINE
  5
FB8
330
EB2
100
AcDbEntity
  8
0
  6
Continuous
 62
     7
370
    15
100
AcDbLine
 10
2012.308109108776
 20
949.2663227674874
 30
0.0
 11
2011.295637757512
 21
949.5388656308962
 31
0.0
  0
LINE
  5
FB9
330
EB2
100
AcDbEntity
  8
0
  6
Continuous
 62
     7
370
    15
100
AcDbLine
 10
2011.295637757512
 20
949.5388656308962
 30
0.0
 11
2010.101586587606
 21
950.1281897993059
 31
0.0
  0
LWPOLYLINE
  5
FBA
330
EB2
100
AcDbEntity
  8
0
  6
Continuous
 62
     7
370
    15
100
AcDbPolyline
 90
       16
 70
   128
 43
0.0
 10
2010.101586587606
 20
950.1281897993059
 10
2009.856914253833
 20
950.2264564312074
 10
2009.58342401239
 20
950.2948508525079
 10
2009.291846846036
 20
950.330711495472
 10
2008.99379355299
 20
950.3325659630361
 10
2008.701069860647
 20
950.3003195929565
 10
2008.425024466513
 20
950.2353657070095
 10
2008.176784797141
 20
950.1401377711392
 10
2007.966025529895
 20
950.0184690359501
 10
2007.801068691724
 20
949.8751637053384
 10
2007.688553069812
 20
949.7158060913273
 10
2007.632694666101
 20
949.5468203007014
 10
2007.635907046211
 20
949.3747577970793
 10
2007.69802623256
 20
949.2064338818183
 10
2007.816501682268
 20
949.0485513260582
 10
2007.986722925236
 20
948.9073049942835
  0
LINE
  5
FBB
330
EB2
100
AcDbEntity
  8
0
  6
Continuous
 62
     7
370
    15
100
AcDbLine
 10
2007.986722925236
 20
948.9073049942835
 30
0.0
 11
2009.007572279731
 21
948.2179935461259
 31
0.0
  0
LINE
  5
FBC
330
EB2
100
AcDbEntity
  8
0
  6
Continuous
 62
     7
370
    15
100
AcDbLine
 10
2009.479682178959
 20
947.6335066563722
 30
0.0
 11
2009.479682178959
 21
947.061930579937
 31
0.0
  0
LINE
  5
FBD
330
EB2
100
AcDbEntity
  8
0
  6
Continuous
 62
     7
370
    15
100
AcDbLine
 10
2008.772575281868
 20
946.6537264571156
 30
0.0
 11
2009.479682178959
 21
947.061930579937
 31
0.0
  0
LINE
  5
FBE
330
EB2
100
AcDbEntity
  8
0
  6
Continuous
 62
     7
370
    15
100
AcDbLine
 10
2004.115539499322
 20
953.5678690148627
 30
0.0
 11
2003.196232439602
 21
954.0985736840724
 31
0.0
  0
LINE
  5
FBF
330
EB2
100
AcDbEntity
  8
0
  6
Continuous
 62
     7
370
    15
100
AcDbLine
 10
2004.115539499322
 20
952.6288372693977
 30
0.0
 11
2003.373080615954
 21
953.0574496594947
 31
0.0
  0
LINE
  5
FC0
330
EB2
100
AcDbEntity
  8
0
  6
Continuous
 62
     7
370
    15
100
AcDbLine
 10
2004.292315894322
 20
950.5188536520837
 30
0.0
 11
2003.196244951948
 21
951.1516019386904
 31
0.0
  0
LINE
  5
FC1
330
EB2
100
AcDbEntity
  8
0
  6
Continuous
 62
     7
370
    15
100
AcDbLine
 10
2005.421132303812
 20
949.813175522849
 30
0.0
 11
2005.421132303812
 21
948.9966938932273
 31
0.0
  0
ARC
  5
FC2
330
EB2
100
AcDbEntity
  8
0
  6
Continuous
 62
     7
370
    15
100
AcDbCircle
 10
2006.949904220941
 20
949.241752086691
 30
0.0
 40
1.548288439789893
100
AcDbArc
 50
189.1068916793593
 51
245.087474233519
  0
LINE
  5
FC3
330
EB2
100
AcDbEntity
  8
0
  6
Continuous
 62
     7
370
    15
100
AcDbLine
 10
2007.12070792128
 20
953.3226009759742
 30
0.0
 11
2006.880302297374
 21
954.571927692667
 31
0.0
  0
LINE
  5
FC4
330
EB2
100
AcDbEntity
  8
0
  6
Continuous
 62
     7
370
    15
100
AcDbLine
 10
2007.12070792128
 20
953.3226009759742
 30
0.0
 11
2005.847915901644
 21
952.5878337829977
 31
0.0
  0
LINE
  5
FC5
330
EB2
100
AcDbEntity
  8
0
  6
Continuous
 62
     7
370
    15
100
AcDbLine
 10
2010.101586587606
 20
949.3117081696842
 30
0.0
 11
2010.101586587606
 21
950.1281897993059
 31
0.0
  0
ARC
  5
FC6
330
EB2
100
AcDbEntity
  8
0
  6
Continuous
 62
     7
370
    15
100
AcDbCircle
 10
2009.146741216188
 20
947.4034024860362
 30
0.0
 40
2.133860413795314
100
AcDbArc
 50
63.41831699577784
 51
128.9956226674689
  0
LINE
  5
FC7
330
EB2
100
AcDbEntity
  8
0
  6
Continuous
 62
     7
370
    15
100
AcDbLine
 10
2003.196270635184
 20
950.8527189223569
 30
0.0
 11
2004.645869342867
 21
950.015883400956
 31
0.0
  0
LINE
  5
FC8
330
EB2
100
AcDbEntity
  8
0
  6
Continuous
 62
     7
370
    15
100
AcDbLine
 10
2011.295637757512
 20
949.5388656308962
 30
0.0
 11
2011.295637757512
 21
948.8161216990958
 31
0.0
  0
LINE
  5
FC9
330
EB2
100
AcDbEntity
  8
0
  6
Continuous
 62
     7
370
    15
100
AcDbLine
 10
2012.308109108776
 20
948.6947466910521
 30
0.0
 11
2012.308109108776
 21
949.2663227674874
 31
0.0
  0
LINE
  5
FCA
330
EB2
100
AcDbEntity
  8
0
  6
Continuous
 62
     7
370
    15
100
AcDbLine
 10
2012.308109108776
 20
948.6947466910521
 30
0.0
 11
2011.295637757512
 21
948.8161216990958
 31
0.0
  0
LINE
  5
FCB
330
EB2
100
AcDbEntity
  8
0
  6
Continuous
 62
     7
370
    15
100
AcDbLine
 10
2013.015216005866
 20
949.6745268903087
 30
0.0
 11
2013.015216005866
 21
949.1029508138733
 31
0.0
  0
LINE
  5
FCC
330
EB2
100
AcDbEntity
  8
0
  6
Continuous
 62
     7
370
    15
100
AcDbLine
 10
2012.308109108776
 20
948.6947466910521
 30
0.0
 11
2013.015216005866
 21
949.1029508138733
 31
0.0
  0
LINE
  5
FCD
330
EB2
100
AcDbEntity
  8
0
  6
Continuous
 62
     7
370
    15
100
AcDbLine
 10
2011.295637757512
 20
948.8161216990958
 30
0.0
 11
2010.798858781015
 21
948.9675694763327
 31
0.0
  0
LINE
  5
FCE
330
EB2
100
AcDbEntity
  8
0
  6
Continuous
 62
     7
370
    15
100
AcDbLine
 10
2010.798858781015
 20
948.9675694763327
 30
0.0
 11
2010.101586587606
 21
949.3117081696842
 31
0.0
  0
LINE
  5
FCF
330
EB2
100
AcDbEntity
  8
0
  6
Continuous
 62
     7
370
    15
100
AcDbLine
 10
2007.103078684801
 20
953.4144187900631
 30
0.0
 11
2007.403585714684
 21
953.2409397743165
 31
0.0
  0
ARC
  5
FD0
330
EB2
100
AcDbEntity
  8
0
  6
Continuous
 62
     7
370
    15
100
AcDbCircle
 10
2005.647914093254
 20
951.0054730856378
 30
0.0
 40
1.855135620391214
100
AcDbArc
 50
197.0620232128758
 51
237.3069048500217
  0
LINE
  5
FD1
330
EB2
100
AcDbEntity
  8
0
  6
Continuous
 62
     7
370
    15
100
AcDbLine
 10
2005.421132303812
 20
948.9966938932273
 30
0.0
 11
2004.645883172302
 21
949.4442356906526
 31
0.0
  0
LINE
  5
FD2
330
EB2
100
AcDbEntity
  8
0
  6
Continuous
 62
     7
370
    15
100
AcDbLine
 10
2008.959165965671
 20
954.4784654256325
 30
0.0
 11
2010.055236908045
 21
953.8457171390257
 31
0.0
  0
LINE
  5
FD3
330
EB2
100
AcDbEntity
  8
0
  6
Continuous
 62
     7
370
    15
100
AcDbLine
 10
2014.535495637047
 20
950.5521656403233
 30
0.0
 11
2015.242602534137
 21
950.9603697631446
 31
0.0
  0
LINE
  5
FD4
330
EB2
100
AcDbEntity
  8
0
  6
Continuous
 62
     7
370
    15
100
AcDbLine
 10
2015.242602534137
 20
950.3887936867092
 30
0.0
 11
2015.242602534137
 21
950.9603697631446
 31
0.0
  0
LINE
  5
FD5
330
EB2
100
AcDbEntity
  8
0
  6
Continuous
 62
     7
370
    15
100
AcDbLine
 10
2014.535495637047
 20
949.980589563888
 30
0.0
 11
2015.242602534137
 21
950.3887936867092
 31
0.0
  0
LINE
  5
FD6
330
EB2
100
AcDbEntity
  8
0
  6
Continuous
 62
     7
370
    15
100
AcDbLine
 10
2014.535495637047
 20
950.5521656403233
 30
0.0
 11
2014.535495637047
 21
949.980589563888
 31
0.0
  0
LINE
  5
FD7
330
EB2
100
AcDbEntity
  8
0
  6
Continuous
 62
     7
370
    15
100
AcDbLine
 10
2012.060632692488
 20
951.9808736073137
 30
0.0
 11
2012.060632692488
 21
951.1643919776918
 31
0.0
  0
LINE
  5
FD8
330
EB2
100
AcDbEntity
  8
0
  6
Continuous
 62
     7
370
    15
100
AcDbLine
 10
2012.060632692488
 20
951.9808736073137
 30
0.0
 11
2014.535495637047
 21
950.5521656403233
 31
0.0
  0
LINE
  5
FD9
330
EB2
100
AcDbEntity
  8
0
  6
Continuous
 62
     7
370
    15
100
AcDbLine
 10
2013.332455993152
 20
950.4301840142741
 30
0.0
 11
2014.535495637047
 21
949.980589563888
 31
0.0
  0
LINE
  5
FDA
330
EB2
100
AcDbEntity
  8
0
  6
Continuous
 62
     7
370
    15
100
AcDbLine
 10
2012.060632692488
 20
951.1643919776918
 30
0.0
 11
2013.332455993152
 21
950.4301840142741
 31
0.0
  0
LWPOLYLINE
  5
FDB
330
EB2
100
AcDbEntity
  8
0
  6
Continuous
 62
     7
370
    15
100
AcDbPolyline
 90
       16
 70
   128
 43
0.0
 10
2013.74964262187
 20
952.2341677208862
 10
2013.579422037447
 20
952.3754144328304
 10
2013.460945929194
 20
952.5332966084208
 10
2013.398826742845
 20
952.7016205236821
 10
2013.395614362735
 20
952.8736830273041
 10
2013.451473424991
 20
953.0426691980995
 10
2013.563988388358
 20
953.2020264319411
 10
2013.728945885073
 20
953.3453321427224
 10
2013.939705152319
 20
953.4670008779116
 10
2014.187944821692
 20
953.5622288137819
 10
2014.463989557282
 20
953.6271823195592
 10
2014.756713908169
 20
953.6594290698085
 10
2015.054767201215
 20
953.6575746022444
 10
2015.346344367569
 20
953.6217139592803
 10
2015.619833950467
 20
953.55331915781
 10
2015.864506942785
 20
953.4550529060783
  0
LINE
  5
FDC
330
EB2
100
AcDbEntity
  8
0
  6
Continuous
 62
     7
370
    15
100
AcDbLine
 10
2014.770493293454
 20
951.5448570330679
 30
0.0
 11
2013.74964262187
 21
952.2341677208862
 31
0.0
  0
LINE
  5
FDD
330
EB2
100
AcDbEntity
  8
0
  6
Continuous
 62
     7
370
    15
100
AcDbLine
 10
2015.242602534137
 20
950.9603697631446
 30
0.0
 11
2014.770493293454
 21
951.5448570330679
 31
0.0
  0
ARC
  5
FDE
330
EB2
100
AcDbEntity
  8
0
  6
Continuous
 62
     7
370
    15
100
AcDbCircle
 10
2012.712824330796
 20
953.3850956886709
 30
0.0
 40
1.548287307591983
100
AcDbArc
 50
189.1068416314302
 51
245.0874647838027
  0
LINE
  5
FDF
330
EB2
100
AcDbEntity
  8
0
  6
Continuous
 62
     7
370
    15
100
AcDbLine
 10
2010.620887127732
 20
953.4651479310262
 30
0.0
 11
2011.184053317535
 21
953.140039009791
 31
0.0
  0
LINE
  5
FE0
330
EB2
100
AcDbEntity
  8
0
  6
Continuous
 62
     7
370
    15
100
AcDbLine
 10
2014.295323137897
 20
954.9361368460687
 30
0.0
 11
2013.732156948094
 21
955.2612457673037
 31
0.0
  0
ARC
  5
FE1
330
EB2
100
AcDbEntity
  8
0
  6
Continuous
 62
     7
370
    15
100
AcDbCircle
 10
2014.285457950076
 20
950.6602284973466
 30
0.0
 40
4.275919728970884
100
AcDbArc
 50
61.84217355110281
 51
89.86780993014395
  0
LINE
  5
FE2
330
EB2
100
AcDbEntity
  8
0
  6
Continuous
 62
     7
370
    15
100
AcDbLine
 10
2018.7781357025
 20
953.0013896169114
 30
0.0
 11
2016.303272757941
 21
954.4300975839016
 31
0.0
  0
LINE
  5
FE3
330
EB2
100
AcDbEntity
  8
0
  6
Continuous
 62
     7
370
    15
100
AcDbLine
 10
2018.07102880541
 20
952.5931854940901
 30
0.0
 11
2018.7781357025
 21
953.0013896169114
 31
0.0
  0
LINE
  5
FE4
330
EB2
100
AcDbEntity
  8
0
  6
Continuous
 62
     7
370
    15
100
AcDbLine
 10
2017.058558771235
 20
952.8657291178383
 30
0.0
 11
2018.07102880541
 21
952.5931854940901
 31
0.0
  0
LINE
  5
FE5
330
EB2
100
AcDbEntity
  8
0
  6
Continuous
 62
     7
370
    15
100
AcDbLine
 10
2015.864506942785
 20
953.4550529060783
 30
0.0
 11
2017.058558771235
 21
952.8657291178383
 31
0.0
  0
LINE
  5
FE6
330
EB2
100
AcDbEntity
  8
0
  6
Continuous
 62
     7
370
    15
100
AcDbLine
 10
2011.184053317535
 20
953.140039009791
 30
0.0
 11
2011.184053317535
 21
952.3235573801693
 31
0.0
  0
ARC
  5
FE7
330
EB2
100
AcDbEntity
  8
0
  6
Continuous
 62
     7
370
    15
100
AcDbCircle
 10
2012.712824330796
 20
952.5686140590492
 30
0.0
 40
1.548287307592083
100
AcDbArc
 50
189.1068416314302
 51
245.0874647838027
  0
LINE
  5
FE8
330
EB2
100
AcDbEntity
  8
0
  6
Continuous
 62
     7
370
    15
100
AcDbLine
 10
2012.883628935004
 20
956.6494644629161
 30
0.0
 11
2012.643223311098
 21
957.898791179609
 31
0.0
  0
LINE
  5
FE9
330
EB2
100
AcDbEntity
  8
0
  6
Continuous
 62
     7
370
    15
100
AcDbLine
 10
2012.883628935004
 20
956.6494644629161
 30
0.0
 11
2011.610836256823
 21
955.9146968897701
 31
0.0
  0
LINE
  5
FEA
330
EB2
100
AcDbEntity
  8
0
  6
Continuous
 62
     7
370
    15
100
AcDbLine
 10
2020.608803823906
 20
970.7238372426875
 30
0.0
 11
2022.164444002443
 21
964.1100245188393
 31
0.0
  0
LINE
  5
FEB
330
EB2
100
AcDbEntity
  8
0
  6
Continuous
 62
     7
370
    15
100
AcDbLine
 10
2021.457333154086
 20
971.2136827983444
 30
0.0
 11
2023.012973332623
 21
964.5998700744961
 31
0.0
  0
LINE
  5
FEC
330
EB2
100
AcDbEntity
  8
0
  6
Continuous
 62
     7
370
    15
100
AcDbLine
 10
2023.012973332623
 20
964.5998700744961
 30
0.0
 11
2022.164444002443
 21
964.1100245188393
 31
0.0
  0
LINE
  5
FED
330
EB2
100
AcDbEntity
  8
0
  6
Continuous
 62
     7
370
    15
100
AcDbLine
 10
2022.164444002443
 20
964.1100245188393
 30
0.0
 11
2020.608803823906
 21
965.0080764783352
 31
0.0
  0
LINE
  5
FEE
330
EB2
100
AcDbEntity
  8
0
  6
Continuous
 62
     7
370
    15
100
AcDbLine
 10
2015.864506942785
 20
952.6385712764565
 30
0.0
 11
2015.864506942785
 21
953.4550529060783
 31
0.0
  0
ARC
  5
FEF
330
EB2
100
AcDbEntity
  8
0
  6
Continuous
 62
     7
370
    15
100
AcDbCircle
 10
2014.911892520572
 20
950.7097516074281
 30
0.0
 40
2.151236749648622
100
AcDbArc
 50
63.71594103577191
 51
128.6980138362268
  0
LINE
  5
FF0
330
EB2
100
AcDbEntity
  8
0
  6
Continuous
 62
     7
370
    15
100
AcDbLine
 10
2008.959190990363
 20
954.1795820291291
 30
0.0
 11
2010.408789698046
 21
953.3427465077283
 31
0.0
  0
LINE
  5
FF1
330
EB2
100
AcDbEntity
  8
0
  6
Continuous
 62
     7
370
    15
100
AcDbLine
 10
2017.058558771235
 20
952.1429851860379
 30
0.0
 11
2017.058558771235
 21
952.8657291178383
 31
0.0
  0
LINE
  5
FF2
330
EB2
100
AcDbEntity
  8
0
  6
Continuous
 62
     7
370
    15
100
AcDbLine
 10
2018.07102880541
 20
952.5931854940901
 30
0.0
 11
2018.07102880541
 21
952.0216094176548
 31
0.0
  0
LINE
  5
FF3
330
EB2
100
AcDbEntity
  8
0
  6
Continuous
 62
     7
370
    15
100
AcDbLine
 10
2018.07102880541
 20
952.0216094176548
 30
0.0
 11
2017.058558771235
 21
952.1429851860379
 31
0.0
  0
LINE
  5
FF4
330
EB2
100
AcDbEntity
  8
0
  6
Continuous
 62
     7
370
    15
100
AcDbLine
 10
2018.7781357025
 20
953.0013896169114
 30
0.0
 11
2018.7781357025
 21
952.4298135404761
 31
0.0
  0
LINE
  5
FF5
330
EB2
100
AcDbEntity
  8
0
  6
Continuous
 62
     7
370
    15
100
AcDbLine
 10
2018.07102880541
 20
952.0216094176548
 30
0.0
 11
2018.7781357025
 21
952.4298135404761
 31
0.0
  0
LINE
  5
FF6
330
EB2
100
AcDbEntity
  8
0
  6
Continuous
 62
     7
370
    15
100
AcDbLine
 10
2017.058558771235
 20
952.1429851860379
 30
0.0
 11
2016.561779136193
 21
952.2944325831051
 31
0.0
  0
LINE
  5
FF7
330
EB2
100
AcDbEntity
  8
0
  6
Continuous
 62
     7
370
    15
100
AcDbLine
 10
2015.864506942785
 20
952.6385712764565
 30
0.0
 11
2016.561779136193
 21
952.2944325831051
 31
0.0
  0
LINE
  5
FF8
330
EB2
100
AcDbEntity
  8
0
  6
Continuous
 62
     7
370
    15
100
AcDbLine
 10
2012.865999698525
 20
956.741282277005
 30
0.0
 11
2013.166506728408
 21
956.5678032612584
 31
0.0
  0
ARC
  5
FF9
330
EB2
100
AcDbEntity
  8
0
  6
Continuous
 62
     7
370
    15
100
AcDbCircle
 10
2011.410835106977
 20
954.3323365725795
 30
0.0
 40
1.855135620390617
100
AcDbArc
 50
197.0620232128695
 51
237.3069048500362
  0
LINE
  5
FFA
330
EB2
100
AcDbEntity
  8
0
  6
Continuous
 62
     7
370
    15
100
AcDbLine
 10
2010.408804186026
 20
952.7710991775947
 30
0.0
 11
2011.184053317535
 21
952.3235573801693
 31
0.0
  0
LINE
  5
FFB
330
EB2
100
AcDbEntity
  8
0
  6
Continuous
 62
     7
370
    15
100
AcDbLine
 10
2014.72208632085
 20
960.9563947358042
 30
0.0
 11
2015.818157263224
 21
960.3236464491976
 31
0.0
  0
LINE
  5
FFC
330
EB2
100
AcDbEntity
  8
0
  6
Continuous
 62
     7
370
    15
100
AcDbLine
 10
2014.898917375044
 20
959.7929805572924
 30
0.0
 11
2014.72215349239
 21
959.8950241746894
 31
0.0
  0
LINE
  5
FFD
330
EB2
100
AcDbEntity
  8
0
  6
Continuous
 62
     7
370
    15
100
AcDbLine
 10
2017.823553047666
 20
955.3077367140859
 30
0.0
 11
2017.823553047666
 21
954.4912550844642
 31
0.0
  0
LINE
  5
FFE
330
EB2
100
AcDbEntity
  8
0
  6
Continuous
 62
     7
370
    15
100
AcDbLine
 10
2020.298415992226
 20
953.8790287470957
 30
0.0
 11
2017.823553047666
 21
955.3077367140859
 31
0.0
  0
LINE
  5
FFF
330
EB2
100
AcDbEntity
  8
0
  6
Continuous
 62
     7
370
    15
100
AcDbLine
 10
2020.298415992226
 20
953.8790287470957
 30
0.0
 11
2020.298415992226
 21
953.3074526706604
 31
0.0
  0
LINE
  5
1000
330
EB2
100
AcDbEntity
  8
0
  6
Continuous
 62
     7
370
    15
100
AcDbLine
 10
2019.095376348331
 20
953.7570471210463
 30
0.0
 11
2020.298415992226
 21
953.3074526706604
 31
0.0
  0
LINE
  5
1001
330
EB2
100
AcDbEntity
  8
0
  6
Continuous
 62
     7
370
    15
100
AcDbLine
 10
2019.095376348331
 20
953.7570471210463
 30
0.0
 11
2017.823553047666
 21
954.4912550844642
 31
0.0
  0
LINE
  5
1002
330
EB2
100
AcDbEntity
  8
0
  6
Continuous
 62
     7
370
    15
100
AcDbLine
 10
2021.005522889316
 20
954.287232869917
 30
0.0
 11
2020.298415992226
 21
953.8790287470957
 31
0.0
  0
LINE
  5
1003
330
EB2
100
AcDbEntity
  8
0
  6
Continuous
 62
     7
370
    15
100
AcDbLine
 10
2021.005522889316
 20
954.287232869917
 30
0.0
 11
2021.005522889316
 21
953.7156567934816
 31
0.0
  0
LINE
  5
1004
330
EB2
100
AcDbEntity
  8
0
  6
Continuous
 62
     7
370
    15
100
AcDbLine
 10
2020.298415992226
 20
953.3074526706604
 30
0.0
 11
2021.005522889316
 21
953.7156567934816
 31
0.0
  0
LINE
  5
1005
330
EB2
100
AcDbEntity
  8
0
  6
Continuous
 62
     7
370
    15
100
AcDbLine
 10
2020.533412331543
 20
954.871719379501
 30
0.0
 11
2021.005522889316
 21
954.287232869917
 31
0.0
  0
ARC
  5
1006
330
EB2
100
AcDbEntity
  8
0
  6
Continuous
 62
     7
370
    15
100
AcDbCircle
 10
2018.475739851952
 20
956.7119551398787
 30
0.0
 40
1.548281955917816
100
AcDbArc
 50
189.1067363723335
 51
245.0875700428988
  0
LINE
  5
1007
330
EB2
100
AcDbEntity
  8
0
  6
Continuous
 62
     7
370
    15
100
AcDbLine
 10
2016.946973672713
 20
956.4669021165634
 30
0.0
 11
2016.383807482911
 21
956.7920110377984
 31
0.0
  0
LINE
  5
1008
330
EB2
100
AcDbEntity
  8
0
  6
Continuous
 62
     7
370
    15
100
AcDbLine
 10
2019.495077303273
 20
958.5881088740761
 30
0.0
 11
2020.058243493076
 21
958.262999952841
 31
0.0
  0
ARC
  5
1009
330
EB2
100
AcDbEntity
  8
0
  6
Continuous
 62
     7
370
    15
100
AcDbCircle
 10
2020.048377148859
 20
953.9870760993542
 30
0.0
 40
4.27593523636238
100
AcDbArc
 50
61.84224717896312
 51
89.86779491427398
  0
LINE
  5
100A
330
EB2
100
AcDbEntity
  8
0
  6
Continuous
 62
     7
370
    15
100
AcDbLine
 10
2022.066194430209
 20
957.7569614510132
 30
0.0
 11
2024.541057374768
 21
956.3282534840229
 31
0.0
  0
LINE
  5
100B
330
EB2
100
AcDbEntity
  8
0
  6
Continuous
 62
     7
370
    15
100
AcDbLine
 10
2024.541057374768
 20
956.3282534840229
 30
0.0
 11
2023.833949160589
 21
955.9200486008625
 31
0.0
  0
LINE
  5
100C
330
EB2
100
AcDbEntity
  8
0
  6
Continuous
 62
     7
370
    15
100
AcDbLine
 10
2023.833949160589
 20
955.9200486008625
 30
0.0
 11
2022.821479126414
 21
956.1925922246105
 31
0.0
  0
LINE
  5
100D
330
EB2
100
AcDbEntity
  8
0
  6
Continuous
 62
     7
370
    15
100
AcDbLine
 10
2022.821479126414
 20
956.1925922246105
 30
0.0
 11
2021.627427297964
 21
956.7819160128507
 31
0.0
  0
LWPOLYLINE
  5
100E
330
EB2
100
AcDbEntity
  8
0
  6
Continuous
 62
     7
370
    15
100
AcDbPolyline
 90
       16
 70
   128
 43
0.0
 10
2021.627427297964
 20
956.7819160128507
 10
2021.382754305646
 20
956.8801822645824
 10
2021.109264722748
 20
956.9485770660525
 10
2020.817687556393
 20
956.9844377090166
 10
2020.519634263347
 20
956.9862921765807
 10
2020.226909912461
 20
956.9540454263316
 10
2019.950865176871
 20
956.8890919205541
 10
2019.702625507498
 20
956.7938639846838
 10
2019.491866240252
 20
956.6721952494948
 10
2019.326908743536
 20
956.5288895387134
 10
2019.21439378017
 20
956.3695323048719
 10
2019.158534717913
 20
956.2005461340765
 10
2019.161747098023
 20
956.0284836304544
 10
2019.223866284372
 20
955.8601597151932
 10
2019.342342392626
 20
955.7022775396028
 10
2019.512562977049
 20
955.5610308276584
  0
LINE
  5
100F
330
EB2
100
AcDbEntity
  8
0
  6
Continuous
 62
     7
370
    15
100
AcDbLine
 10
2019.512562977049
 20
955.5610308276584
 30
0.0
 11
2020.533412331543
 21
954.871719379501
 31
0.0
  0
LINE
  5
1010
330
EB2
100
AcDbEntity
  8
0
  6
Continuous
 62
     7
370
    15
100
AcDbLine
 10
2015.64138020968
 20
960.2215952284074
 30
0.0
 11
2014.72207314996
 21
960.7522998976172
 31
0.0
  0
LINE
  5
1011
330
EB2
100
AcDbEntity
  8
0
  6
Continuous
 62
     7
370
    15
100
AcDbLine
 10
2015.64138020968
 20
959.2825634829424
 30
0.0
 11
2014.898921326312
 21
959.7111758730394
 31
0.0
  0
LINE
  5
1012
330
EB2
100
AcDbEntity
  8
0
  6
Continuous
 62
     7
370
    15
100
AcDbLine
 10
2015.818157263224
 20
957.1725802457981
 30
0.0
 11
2014.72208632085
 21
957.8053285324047
 31
0.0
  0
LINE
  5
1013
330
EB2
100
AcDbEntity
  8
0
  6
Continuous
 62
     7
370
    15
100
AcDbLine
 10
2016.946973672713
 20
956.4669021165634
 30
0.0
 11
2016.946973672713
 21
955.6504204869415
 31
0.0
  0
ARC
  5
1014
330
EB2
100
AcDbEntity
  8
0
  6
Continuous
 62
     7
370
    15
100
AcDbCircle
 10
2018.475739851953
 20
955.8954735102568
 30
0.0
 40
1.548281955917885
100
AcDbArc
 50
189.1067363723335
 51
245.0875700428988
  0
LINE
  5
1015
330
EB2
100
AcDbEntity
  8
0
  6
Continuous
 62
     7
370
    15
100
AcDbLine
 10
2018.646547973093
 20
959.9763268093491
 30
0.0
 11
2018.406142349187
 21
961.2256535260421
 31
0.0
  0
LINE
  5
1016
330
EB2
100
AcDbEntity
  8
0
  6
Continuous
 62
     7
370
    15
100
AcDbLine
 10
2018.646547973093
 20
959.9763268093491
 30
0.0
 11
2017.373756612002
 21
959.2415599965425
 31
0.0
  0
LINE
  5
1017
330
EB2
100
AcDbEntity
  8
0
  6
Continuous
 62
     7
370
    15
100
AcDbLine
 10
2021.627427297964
 20
955.965434383229
 30
0.0
 11
2021.627427297964
 21
956.7819160128507
 31
0.0
  0
ARC
  5
1018
330
EB2
100
AcDbEntity
  8
0
  6
Continuous
 62
     7
370
    15
100
AcDbCircle
 10
2020.67258193935
 20
954.0571275662401
 30
0.0
 40
2.133861421609359
100
AcDbArc
 50
63.41833092033994
 51
128.9956239516758
  0
LINE
  5
1019
330
EB2
100
AcDbEntity
  8
0
  6
Continuous
 62
     7
370
    15
100
AcDbLine
 10
2014.722111345541
 20
957.5064451359015
 30
0.0
 11
2016.171710053225
 21
956.6696096145006
 31
0.0
  0
LINE
  5
101A
330
EB2
100
AcDbEntity
  8
0
  6
Continuous
 62
     7
370
    15
100
AcDbLine
 10
2022.821479126414
 20
956.1925922246105
 30
0.0
 11
2022.821479126414
 21
955.4698482928101
 31
0.0
  0
LINE
  5
101B
330
EB2
100
AcDbEntity
  8
0
  6
Continuous
 62
     7
370
    15
100
AcDbLine
 10
2023.833949160589
 20
955.3484725244272
 30
0.0
 11
2023.833949160589
 21
955.9200486008625
 31
0.0
  0
LINE
  5
101C
330
EB2
100
AcDbEntity
  8
0
  6
Continuous
 62
     7
370
    15
100
AcDbLine
 10
2023.833949160589
 20
955.3484725244272
 30
0.0
 11
2022.821479126414
 21
955.4698482928101
 31
0.0
  0
LINE
  5
101D
330
EB2
100
AcDbEntity
  8
0
  6
Continuous
 62
     7
370
    15
100
AcDbLine
 10
2024.541057374768
 20
956.3282534840229
 30
0.0
 11
2024.541057374768
 21
955.7566774075876
 31
0.0
  0
LINE
  5
101E
330
EB2
100
AcDbEntity
  8
0
  6
Continuous
 62
     7
370
    15
100
AcDbLine
 10
2023.833949160589
 20
955.3484725244272
 30
0.0
 11
2024.541057374768
 21
955.7566774075876
 31
0.0
  0
LINE
  5
101F
330
EB2
100
AcDbEntity
  8
0
  6
Continuous
 62
     7
370
    15
100
AcDbLine
 10
2022.821479126414
 20
955.4698482928101
 30
0.0
 11
2022.324699491372
 21
955.6212956898773
 31
0.0
  0
LINE
  5
1020
330
EB2
100
AcDbEntity
  8
0
  6
Continuous
 62
     7
370
    15
100
AcDbLine
 10
2022.324699491372
 20
955.6212956898773
 30
0.0
 11
2021.627427297964
 21
955.965434383229
 31
0.0
  0
LINE
  5
1021
330
EB2
100
AcDbEntity
  8
0
  6
Continuous
 62
     7
370
    15
100
AcDbLine
 10
2018.628920053703
 20
960.0681453837776
 30
0.0
 11
2018.929427083586
 21
959.8946663680308
 31
0.0
  0
ARC
  5
1022
330
EB2
100
AcDbEntity
  8
0
  6
Continuous
 62
     7
370
    15
100
AcDbCircle
 10
2017.173755462156
 20
957.6591996793521
 30
0.0
 40
1.855135620391068
100
AcDbArc
 50
197.0620232128758
 51
237.3069048500217
  0
LINE
  5
1023
330
EB2
100
AcDbEntity
  8
0
  6
Continuous
 62
     7
370
    15
100
AcDbLine
 10
2016.946973672713
 20
955.6504204869415
 30
0.0
 11
2016.171724541204
 21
956.0979622843669
 31
0.0
  0
LINE
  5
1024
330
EB2
100
AcDbEntity
  8
0
  6
Continuous
 62
     7
370
    15
100
AcDbLine
 10
2020.48500535894
 20
961.1321908788378
 30
0.0
 11
2021.581076301314
 21
960.4994425922312
 31
0.0
  0
LINE
  5
1025
330
EB2
100
AcDbEntity
  8
0
  6
Continuous
 62
     7
370
    15
100
AcDbLine
 10
2023.586473402845
 20
958.6345998208583
 30
0.0
 11
2023.586473402845
 21
957.8181181912365
 31
0.0
  0
LINE
  5
1026
330
EB2
100
AcDbEntity
  8
0
  6
Continuous
 62
     7
370
    15
100
AcDbLine
 10
2023.586473402845
 20
958.6345998208583
 30
0.0
 11
2026.061336347405
 21
957.2058918538679
 31
0.0
  0
LINE
  5
1027
330
EB2
100
AcDbEntity
  8
0
  6
Continuous
 62
     7
370
    15
100
AcDbLine
 10
2026.061336347405
 20
957.2058918538679
 30
0.0
 11
2026.061336347405
 21
956.6343157774326
 31
0.0
  0
LINE
  5
1028
330
EB2
100
AcDbEntity
  8
0
  6
Continuous
 62
     7
370
    15
100
AcDbLine
 10
2024.858296703509
 20
957.0839102278187
 30
0.0
 11
2026.061336347405
 21
956.6343157774326
 31
0.0
  0
LINE
  5
1029
330
EB2
100
AcDbEntity
  8
0
  6
Continuous
 62
     7
370
    15
100
AcDbLine
 10
2023.586473402845
 20
957.8181181912365
 30
0.0
 11
2024.858296703509
 21
957.0839102278187
 31
0.0
  0
LWPOLYLINE
  5
102A
330
EB2
100
AcDbEntity
  8
0
  6
Continuous
 62
     7
370
    15
100
AcDbPolyline
 90
       16
 70
   128
 43
0.0
 10
2025.275484649317
 20
958.88789469477
 10
2025.105261430715
 20
959.0291398860358
 10
2024.986786639551
 20
959.1870228219656
 10
2024.924667453202
 20
959.3553467372268
 10
2024.921456390181
 20
959.5274100011881
 10
2024.977314135349
 20
959.6963954116443
 10
2025.089830415804
 20
959.8557534058251
 10
2025.254785278342
 20
959.9990575959278
 10
2025.465545862676
 20
960.1207270914562
 10
2025.71378553205
 20
960.2159550273265
 10
2025.989831584728
 20
960.2809092934432
 10
2026.282554618526
 20
960.3131552833531
 10
2026.580606594483
 20
960.3113000554499
 10
2026.872183760838
 20
960.2754394124856
 10
2027.145674660825
 20
960.2070453713547
 10
2027.390347653142
 20
960.108779119623
  0
LINE
  5
102B
330
EB2
100
AcDbEntity
  8
0
  6
Continuous
 62
     7
370
    15
100
AcDbLine
 10
2026.296334003811
 20
958.1985832466125
 30
0.0
 11
2025.275484649317
 21
958.88789469477
 31
0.0
  0
LINE
  5
102C
330
EB2
100
AcDbEntity
  8
0
  6
Continuous
 62
     7
370
    15
100
AcDbLine
 10
2026.768441927406
 20
957.6140952163498
 30
0.0
 11
2026.296334003811
 21
958.1985832466125
 31
0.0
  0
LINE
  5
102D
330
EB2
100
AcDbEntity
  8
0
  6
Continuous
 62
     7
370
    15
100
AcDbLine
 10
2026.061336347405
 20
957.2058918538679
 30
0.0
 11
2026.768441927406
 21
957.6140952163498
 31
0.0
  0
ARC
  5
102E
330
EB2
100
AcDbEntity
  8
0
  6
Continuous
 62
     7
370
    15
100
AcDbCircle
 10
2024.238670365881
 20
960.038827826661
 30
0.0
 40
1.548294923738241
100
AcDbArc
 50
189.1070469866716
 51
245.0873784238293
  0
LINE
  5
102F
330
EB2
100
AcDbEntity
  8
0
  6
Continuous
 62
     7
370
    15
100
AcDbLine
 10
2022.146726521
 20
960.1188733842315
 30
0.0
 11
2022.709892710803
 21
959.7937644629965
 31
0.0
  0
LINE
  5
1030
330
EB2
100
AcDbEntity
  8
0
  6
Continuous
 62
     7
370
    15
100
AcDbLine
 10
2025.821162531165
 20
961.5898622992741
 30
0.0
 11
2025.257996341363
 21
961.9149712205091
 31
0.0
  0
ARC
  5
1031
330
EB2
100
AcDbEntity
  8
0
  6
Continuous
 62
     7
370
    15
100
AcDbCircle
 10
2025.811306440954
 20
957.3139682173115
 30
0.0
 40
4.27590544126933
100
AcDbArc
 50
61.84216931132194
 51
89.86793139385088
  0
LINE
  5
1032
330
EB2
100
AcDbEntity
  8
0
  6
Continuous
 62
     7
370
    15
100
AcDbLine
 10
2030.303977729947
 20
959.6551165907952
 30
0.0
 11
2027.829114785387
 21
961.0838245577856
 31
0.0
  0
LINE
  5
1033
330
EB2
100
AcDbEntity
  8
0
  6
Continuous
 62
     7
370
    15
100
AcDbLine
 10
2029.596869515768
 20
959.2469117076348
 30
0.0
 11
2030.303977729947
 21
959.6551165907952
 31
0.0
  0
LINE
  5
1034
330
EB2
100
AcDbEntity
  8
0
  6
Continuous
 62
     7
370
    15
100
AcDbLine
 10
2028.584399481593
 20
959.5194553313829
 30
0.0
 11
2029.596869515768
 21
959.2469117076348
 31
0.0
  0
LINE
  5
1035
330
EB2
100
AcDbEntity
  8
0
  6
Continuous
 62
     7
370
    15
100
AcDbLine
 10
2027.390347653142
 20
960.108779119623
 30
0.0
 11
2028.584399481593
 21
959.5194553313829
 31
0.0
  0
LINE
  5
1036
330
EB2
100
AcDbEntity
  8
0
  6
Continuous
 62
     7
370
    15
100
AcDbLine
 10
2026.768441927406
 20
957.0425191399147
 30
0.0
 11
2026.768441927406
 21
957.6140952163498
 31
0.0
  0
LINE
  5
1037
330
EB2
100
AcDbEntity
  8
0
  6
Continuous
 62
     7
370
    15
100
AcDbLine
 10
2026.061336347405
 20
956.6343157774326
 30
0.0
 11
2026.768441927406
 21
957.0425191399147
 31
0.0
  0
LINE
  5
1038
330
EB2
100
AcDbEntity
  8
0
  6
Continuous
 62
     7
370
    15
100
AcDbLine
 10
2022.709892710803
 20
959.7937644629965
 30
0.0
 11
2022.709892710803
 21
958.9772828333746
 31
0.0
  0
ARC
  5
1039
330
EB2
100
AcDbEntity
  8
0
  6
Continuous
 62
     7
370
    15
100
AcDbCircle
 10
2024.238670365881
 20
959.2223461970393
 30
0.0
 40
1.548294923738255
100
AcDbArc
 50
189.1070469866716
 51
245.0873784238293
  0
LINE
  5
103A
330
EB2
100
AcDbEntity
  8
0
  6
Continuous
 62
     7
370
    15
100
AcDbLine
 10
2023.136676967181
 20
962.5684231033147
 30
0.0
 11
2024.409469645361
 21
963.3031906764609
 31
0.0
  0
LINE
  5
103B
330
EB2
100
AcDbEntity
  8
0
  6
Continuous
 62
     7
370
    15
100
AcDbLine
 10
2024.409469645361
 20
963.3031906764609
 30
0.0
 11
2024.169064021455
 21
964.5525173931536
 31
0.0
  0
LINE
  5
103C
330
EB2
100
AcDbEntity
  8
0
  6
Continuous
 62
     7
370
    15
100
AcDbLine
 10
2032.134644534264
 20
971.66180269188
 30
0.0
 11
2033.690284712801
 21
970.7637507323839
 31
0.0
  0
LINE
  5
103D
330
EB2
100
AcDbEntity
  8
0
  6
Continuous
 62
     7
370
    15
100
AcDbLine
 10
2032.134644534264
 20
977.3775634562321
 30
0.0
 11
2033.690284712801
 21
970.7637507323839
 31
0.0
  0
LINE
  5
103E
330
EB2
100
AcDbEntity
  8
0
  6
Continuous
 62
     7
370
    15
100
AcDbLine
 10
2032.983173864443
 20
977.867409011889
 30
0.0
 11
2034.538814042981
 21
971.2535962880409
 31
0.0
  0
LINE
  5
103F
330
EB2
100
AcDbEntity
  8
0
  6
Continuous
 62
     7
370
    15
100
AcDbLine
 10
2033.690284712801
 20
970.7637507323839
 30
0.0
 11
2034.538814042981
 21
971.2535962880409
 31
0.0
  0
LINE
  5
1040
330
EB2
100
AcDbEntity
  8
0
  6
Continuous
 62
     7
370
    15
100
AcDbLine
 10
2027.390347653142
 20
959.2922974900014
 30
0.0
 11
2027.390347653142
 21
960.108779119623
 31
0.0
  0
ARC
  5
1041
330
EB2
100
AcDbEntity
  8
0
  6
Continuous
 62
     7
370
    15
100
AcDbCircle
 10
2026.437733593748
 20
957.3634744849599
 30
0.0
 40
2.151239580087105
100
AcDbArc
 50
63.71598904501368
 51
128.6979658269888
  0
LINE
  5
1042
330
EB2
100
AcDbEntity
  8
0
  6
Continuous
 62
     7
370
    15
100
AcDbLine
 10
2020.48503170072
 20
960.8333082426739
 30
0.0
 11
2021.934630408404
 21
959.996472721273
 31
0.0
  0
LINE
  5
1043
330
EB2
100
AcDbEntity
  8
0
  6
Continuous
 62
     7
370
    15
100
AcDbLine
 10
2028.584399481593
 20
958.7967113995826
 30
0.0
 11
2028.584399481593
 21
959.5194553313829
 31
0.0
  0
LINE
  5
1044
330
EB2
100
AcDbEntity
  8
0
  6
Continuous
 62
     7
370
    15
100
AcDbLine
 10
2029.596869515768
 20
959.2469117076348
 30
0.0
 11
2029.596869515768
 21
958.6753356311994
 31
0.0
  0
LINE
  5
1045
330
EB2
100
AcDbEntity
  8
0
  6
Continuous
 62
     7
370
    15
100
AcDbLine
 10
2029.596869515768
 20
958.6753356311994
 30
0.0
 11
2028.584399481593
 21
958.7967113995826
 31
0.0
  0
LINE
  5
1046
330
EB2
100
AcDbEntity
  8
0
  6
Continuous
 62
     7
370
    15
100
AcDbLine
 10
2030.303977729947
 20
959.6551165907952
 30
0.0
 11
2030.303977729947
 21
959.08354051436
 31
0.0
  0
LINE
  5
1047
330
EB2
100
AcDbEntity
  8
0
  6
Continuous
 62
     7
370
    15
100
AcDbLine
 10
2029.596869515768
 20
958.6753356311994
 30
0.0
 11
2030.303977729947
 21
959.08354051436
 31
0.0
  0
LINE
  5
1048
330
EB2
100
AcDbEntity
  8
0
  6
Continuous
 62
     7
370
    15
100
AcDbLine
 10
2028.584399481593
 20
958.7967113995826
 30
0.0
 11
2028.087619846551
 21
958.9481587966497
 31
0.0
  0
LINE
  5
1049
330
EB2
100
AcDbEntity
  8
0
  6
Continuous
 62
     7
370
    15
100
AcDbLine
 10
2027.390347653142
 20
959.2922974900014
 30
0.0
 11
2028.087619846551
 21
958.9481587966497
 31
0.0
  0
LINE
  5
104A
330
EB2
100
AcDbEntity
  8
0
  6
Continuous
 62
     7
370
    15
100
AcDbLine
 10
2024.391839091793
 20
963.3950077302104
 30
0.0
 11
2024.692346121676
 21
963.2215287144639
 31
0.0
  0
ARC
  5
104B
330
EB2
100
AcDbEntity
  8
0
  6
Continuous
 62
     7
370
    15
100
AcDbCircle
 10
2022.936674500246
 20
960.9860620257853
 30
0.0
 40
1.855135620391261
100
AcDbArc
 50
197.0620232128758
 51
237.3069048500217
  0
LINE
  5
104C
330
EB2
100
AcDbEntity
  8
0
  6
Continuous
 62
     7
370
    15
100
AcDbLine
 10
2021.934643579294
 20
959.4248246308
 30
0.0
 11
2022.709892710803
 21
958.9772828333746
 31
0.0
  0
LINE
  5
104D
330
EB2
100
AcDbEntity
  8
0
  6
Continuous
 62
     7
370
    15
100
AcDbLine
 10
2026.247925714119
 20
967.6101201890096
 30
0.0
 11
2027.343996656493
 21
966.9773719024028
 31
0.0
  0
LINE
  5
104E
330
EB2
100
AcDbEntity
  8
0
  6
Continuous
 62
     7
370
    15
100
AcDbLine
 10
2026.424758085402
 20
966.4467067708372
 30
0.0
 11
2026.247994202747
 21
966.5487503882342
 31
0.0
  0
LINE
  5
104F
330
EB2
100
AcDbEntity
  8
0
  6
Continuous
 62
     7
370
    15
100
AcDbLine
 10
2032.05925435899
 20
961.5254463533849
 30
0.0
 11
2032.531362282585
 21
960.9409583231222
 31
0.0
  0
LINE
  5
1050
330
EB2
100
AcDbEntity
  8
0
  6
Continuous
 62
     7
370
    15
100
AcDbLine
 10
2032.531362282585
 20
960.9409583231222
 30
0.0
 11
2031.824256702583
 21
960.5327549606403
 31
0.0
  0
LINE
  5
1051
330
EB2
100
AcDbEntity
  8
0
  6
Continuous
 62
     7
370
    15
100
AcDbLine
 10
2031.824256702583
 20
960.5327549606403
 30
0.0
 11
2029.349393758024
 21
961.9614629276307
 31
0.0
  0
ARC
  5
1052
330
EB2
100
AcDbEntity
  8
0
  6
Continuous
 62
     7
370
    15
100
AcDbCircle
 10
2030.001590721059
 20
963.3656909334334
 30
0.0
 40
1.548294923738189
100
AcDbArc
 50
189.1070469866716
 51
245.0873784238293
  0
LINE
  5
1053
330
EB2
100
AcDbEntity
  8
0
  6
Continuous
 62
     7
370
    15
100
AcDbLine
 10
2028.472813065982
 20
963.1206275697687
 30
0.0
 11
2027.909646876179
 21
963.4457364910037
 31
0.0
  0
LINE
  5
1054
330
EB2
100
AcDbEntity
  8
0
  6
Continuous
 62
     7
370
    15
100
AcDbLine
 10
2031.020916696542
 20
965.2418343272813
 30
0.0
 11
2031.584082886344
 21
964.9167254060463
 31
0.0
  0
ARC
  5
1055
330
EB2
100
AcDbEntity
  8
0
  6
Continuous
 62
     7
370
    15
100
AcDbCircle
 10
2031.574226796133
 20
960.6408313240844
 30
0.0
 40
4.275905441268783
100
AcDbArc
 50
61.84216931132194
 51
89.86793139385088
  0
LINE
  5
1056
330
EB2
100
AcDbEntity
  8
0
  6
Continuous
 62
     7
370
    15
100
AcDbLine
 10
2033.592035140566
 20
964.4106876645579
 30
0.0
 11
2036.066898085126
 21
962.9819796975677
 31
0.0
  0
LINE
  5
1057
330
EB2
100
AcDbEntity
  8
0
  6
Continuous
 62
     7
370
    15
100
AcDbLine
 10
2036.066898085126
 20
962.9819796975677
 30
0.0
 11
2035.359789870947
 21
962.5737748144072
 31
0.0
  0
LINE
  5
1058
330
EB2
100
AcDbEntity
  8
0
  6
Continuous
 62
     7
370
    15
100
AcDbLine
 10
2035.359789870947
 20
962.5737748144072
 30
0.0
 11
2034.347319836772
 21
962.8463184381553
 31
0.0
  0
LINE
  5
1059
330
EB2
100
AcDbEntity
  8
0
  6
Continuous
 62
     7
370
    15
100
AcDbLine
 10
2034.347319836772
 20
962.8463184381553
 30
0.0
 11
2033.153268008321
 21
963.4356422263953
 31
0.0
  0
LWPOLYLINE
  5
105A
330
EB2
100
AcDbEntity
  8
0
  6
Continuous
 62
     7
370
    15
100
AcDbPolyline
 90
       16
 70
   128
 43
0.0
 10
2033.153268008321
 20
963.4356422263953
 10
2032.908595016003
 20
963.5339084781271
 10
2032.635104116016
 20
963.602302519258
 10
2032.343526949662
 20
963.6381631622221
 10
2032.045474973705
 20
963.6400183901255
 10
2031.752751939907
 20
963.6077724002156
 10
2031.476705887229
 20
963.5428181340989
 10
2031.228466217855
 20
963.4475901982286
 10
2031.017705633521
 20
963.3259207027002
 10
2030.852750770983
 20
963.1826165125973
 10
2030.740234490528
 20
963.0232585184165
 10
2030.68437674536
 20
962.8542731079605
 10
2030.687587808381
 20
962.6822098439991
 10
2030.74970699473
 20
962.513885928738
 10
2030.868181785894
 20
962.3560029928082
 10
2031.038405004496
 20
962.2147578015423
  0
LINE
  5
105B
330
EB2
100
AcDbEntity
  8
0
  6
Continuous
 62
     7
370
    15
100
AcDbLine
 10
2031.038405004496
 20
962.2147578015423
 30
0.0
 11
2032.05925435899
 21
961.5254463533849
 31
0.0
  0
LINE
  5
105C
330
EB2
100
AcDbEntity
  8
0
  6
Continuous
 62
     7
370
    15
100
AcDbLine
 10
2032.531362282585
 20
960.9409583231222
 30
0.0
 11
2032.531362282585
 21
960.3693822466869
 31
0.0
  0
LINE
  5
105D
330
EB2
100
AcDbEntity
  8
0
  6
Continuous
 62
     7
370
    15
100
AcDbLine
 10
2031.824256702583
 20
959.961178884205
 30
0.0
 11
2032.531362282585
 21
960.3693822466869
 31
0.0
  0
LINE
  5
105E
330
EB2
100
AcDbEntity
  8
0
  6
Continuous
 62
     7
370
    15
100
AcDbLine
 10
2031.824256702583
 20
960.5327549606403
 30
0.0
 11
2031.824256702583
 21
959.961178884205
 31
0.0
  0
LINE
  5
105F
330
EB2
100
AcDbEntity
  8
0
  6
Continuous
 62
     7
370
    15
100
AcDbLine
 10
2029.349393758024
 20
961.9614629276307
 30
0.0
 11
2029.349393758024
 21
961.1449812980088
 31
0.0
  0
LINE
  5
1060
330
EB2
100
AcDbEntity
  8
0
  6
Continuous
 62
     7
370
    15
100
AcDbLine
 10
2030.621217058688
 20
960.4107733345911
 30
0.0
 11
2031.824256702583
 21
959.961178884205
 31
0.0
  0
LINE
  5
1061
330
EB2
100
AcDbEntity
  8
0
  6
Continuous
 62
     7
370
    15
100
AcDbLine
 10
2030.621217058688
 20
960.4107733345911
 30
0.0
 11
2029.349393758024
 21
961.1449812980088
 31
0.0
  0
LINE
  5
1062
330
EB2
100
AcDbEntity
  8
0
  6
Continuous
 62
     7
370
    15
100
AcDbLine
 10
2027.167219602948
 20
966.8753206816127
 30
0.0
 11
2026.247912543228
 21
967.4060253508224
 31
0.0
  0
LINE
  5
1063
330
EB2
100
AcDbEntity
  8
0
  6
Continuous
 62
     7
370
    15
100
AcDbLine
 10
2027.167219602948
 20
965.9362889361478
 30
0.0
 11
2026.42476071958
 21
966.3649013262448
 31
0.0
  0
LINE
  5
1064
330
EB2
100
AcDbEntity
  8
0
  6
Continuous
 62
     7
370
    15
100
AcDbLine
 10
2027.343996656493
 20
963.8263056990034
 30
0.0
 11
2026.247925714119
 21
964.4590539856102
 31
0.0
  0
LINE
  5
1065
330
EB2
100
AcDbEntity
  8
0
  6
Continuous
 62
     7
370
    15
100
AcDbLine
 10
2028.472813065982
 20
963.1206275697687
 30
0.0
 11
2028.472813065982
 21
962.304145940147
 31
0.0
  0
ARC
  5
1066
330
EB2
100
AcDbEntity
  8
0
  6
Continuous
 62
     7
370
    15
100
AcDbCircle
 10
2030.001590721059
 20
962.5492093038117
 30
0.0
 40
1.548294923738219
100
AcDbArc
 50
189.1070469866716
 51
245.0873784238293
  0
LINE
  5
1067
330
EB2
100
AcDbEntity
  8
0
  6
Continuous
 62
     7
370
    15
100
AcDbLine
 10
2028.899597322359
 20
965.8952862100871
 30
0.0
 11
2030.17239000054
 21
966.6300537832331
 31
0.0
  0
LINE
  5
1068
330
EB2
100
AcDbEntity
  8
0
  6
Continuous
 62
     7
370
    15
100
AcDbLine
 10
2030.17239000054
 20
966.6300537832331
 30
0.0
 11
2029.931984376634
 21
967.879380499926
 31
0.0
  0
LINE
  5
1069
330
EB2
100
AcDbEntity
  8
0
  6
Continuous
 62
     7
370
    15
100
AcDbLine
 10
2033.153268008321
 20
962.6191605967736
 30
0.0
 11
2033.153268008321
 21
963.4356422263953
 31
0.0
  0
ARC
  5
106A
330
EB2
100
AcDbEntity
  8
0
  6
Continuous
 62
     7
370
    15
100
AcDbCircle
 10
2032.198422898545
 20
960.7108514917852
 30
0.0
 40
2.133863356413471
100
AcDbArc
 50
63.4183643858261
 51
128.995590486177
  0
LINE
  5
106B
330
EB2
100
AcDbEntity
  8
0
  6
Continuous
 62
     7
370
    15
100
AcDbLine
 10
2026.247952055899
 20
964.1601713494463
 30
0.0
 11
2027.697550763582
 21
963.3233358280454
 31
0.0
  0
LINE
  5
106C
330
EB2
100
AcDbEntity
  8
0
  6
Continuous
 62
     7
370
    15
100
AcDbLine
 10
2034.347319836772
 20
962.8463184381553
 30
0.0
 11
2034.347319836772
 21
962.1235745063549
 31
0.0
  0
LINE
  5
106D
330
EB2
100
AcDbEntity
  8
0
  6
Continuous
 62
     7
370
    15
100
AcDbLine
 10
2035.359789870947
 20
962.0021987379718
 30
0.0
 11
2035.359789870947
 21
962.5737748144072
 31
0.0
  0
LINE
  5
106E
330
EB2
100
AcDbEntity
  8
0
  6
Continuous
 62
     7
370
    15
100
AcDbLine
 10
2035.359789870947
 20
962.0021987379718
 30
0.0
 11
2034.347319836772
 21
962.1235745063549
 31
0.0
  0
LINE
  5
106F
330
EB2
100
AcDbEntity
  8
0
  6
Continuous
 62
     7
370
    15
100
AcDbLine
 10
2036.066898085126
 20
962.9819796975677
 30
0.0
 11
2036.066898085126
 21
962.4104036211322
 31
0.0
  0
LINE
  5
1070
330
EB2
100
AcDbEntity
  8
0
  6
Continuous
 62
     7
370
    15
100
AcDbLine
 10
2035.359789870947
 20
962.0021987379718
 30
0.0
 11
2036.066898085126
 21
962.4104036211322
 31
0.0
  0
LINE
  5
1071
330
EB2
100
AcDbEntity
  8
0
  6
Continuous
 62
     7
370
    15
100
AcDbLine
 10
2034.347319836772
 20
962.1235745063549
 30
0.0
 11
2033.850540201729
 21
962.2750219034221
 31
0.0
  0
LINE
  5
1072
330
EB2
100
AcDbEntity
  8
0
  6
Continuous
 62
     7
370
    15
100
AcDbLine
 10
2033.850540201729
 20
962.2750219034221
 30
0.0
 11
2033.153268008321
 21
962.6191605967736
 31
0.0
  0
LINE
  5
1073
330
EB2
100
AcDbEntity
  8
0
  6
Continuous
 62
     7
370
    15
100
AcDbLine
 10
2030.154759446972
 20
966.7218708369828
 30
0.0
 11
2030.455266476855
 21
966.5483918212363
 31
0.0
  0
ARC
  5
1074
330
EB2
100
AcDbEntity
  8
0
  6
Continuous
 62
     7
370
    15
100
AcDbCircle
 10
2028.699594855424
 20
964.3129251325573
 30
0.0
 40
1.855135620391026
100
AcDbArc
 50
197.0620232128758
 51
237.3069048500217
  0
LINE
  5
1075
330
EB2
100
AcDbEntity
  8
0
  6
Continuous
 62
     7
370
    15
100
AcDbLine
 10
2028.472813065982
 20
962.304145940147
 30
0.0
 11
2027.697563934473
 21
962.7516877375724
 31
0.0
  0
LINE
  5
1076
330
EB2
100
AcDbEntity
  8
0
  6
Continuous
 62
     7
370
    15
100
AcDbLine
 10
2032.010846069297
 20
967.7859170923825
 30
0.0
 11
2033.106917011672
 21
967.1531688057758
 31
0.0
  0
LINE
  5
1077
330
EB2
100
AcDbEntity
  8
0
  6
Continuous
 62
     7
370
    15
100
AcDbLine
 10
2035.112314113202
 20
965.2883260344029
 30
0.0
 11
2035.112314113202
 21
964.4718444047812
 31
0.0
  0
LINE
  5
1078
330
EB2
100
AcDbEntity
  8
0
  6
Continuous
 62
     7
370
    15
100
AcDbLine
 10
2035.112314113202
 20
965.2883260344029
 30
0.0
 11
2037.587177057762
 21
963.8596180674127
 31
0.0
  0
LINE
  5
1079
330
EB2
100
AcDbEntity
  8
0
  6
Continuous
 62
     7
370
    15
100
AcDbLine
 10
2037.587177057762
 20
963.8596180674127
 30
0.0
 11
2037.587177057762
 21
963.2880419909774
 31
0.0
  0
LINE
  5
107A
330
EB2
100
AcDbEntity
  8
0
  6
Continuous
 62
     7
370
    15
100
AcDbLine
 10
2036.384137413867
 20
963.7376364413634
 30
0.0
 11
2037.587177057762
 21
963.2880419909774
 31
0.0
  0
LINE
  5
107B
330
EB2
100
AcDbEntity
  8
0
  6
Continuous
 62
     7
370
    15
100
AcDbLine
 10
2035.112314113202
 20
964.4718444047812
 30
0.0
 11
2036.384137413867
 21
963.7376364413634
 31
0.0
  0
LWPOLYLINE
  5
107C
330
EB2
100
AcDbEntity
  8
0
  6
Continuous
 62
     7
370
    15
100
AcDbPolyline
 90
       16
 70
   128
 43
0.0
 10
2036.801325359674
 20
965.5416209083147
 10
2036.631102141073
 20
965.6828660995804
 10
2036.512627349909
 20
965.8407490355102
 10
2036.450508163559
 20
966.0090729507714
 10
2036.447294466361
 20
966.1811346940542
 10
2036.503154845706
 20
966.3501216251889
 10
2036.615668491984
 20
966.5094780986912
 10
2036.780625988699
 20
966.6527838094724
 10
2036.991386573034
 20
966.7744533050008
 10
2037.239626242407
 20
966.8696812408711
 10
2037.515672295086
 20
966.9346355069878
 10
2037.808395328884
 20
966.9668814968977
 10
2038.106447304841
 20
966.9650262689943
 10
2038.398024471195
 20
966.9291656260304
 10
2038.671515371182
 20
966.8607715848994
 10
2038.9161883635
 20
966.7625053331677
  0
LINE
  5
107D
330
EB2
100
AcDbEntity
  8
0
  6
Continuous
 62
     7
370
    15
100
AcDbLine
 10
2037.822174714169
 20
964.8523094601573
 30
0.0
 11
2036.801325359674
 21
965.5416209083147
 31
0.0
  0
LINE
  5
107E
330
EB2
100
AcDbEntity
  8
0
  6
Continuous
 62
     7
370
    15
100
AcDbLine
 10
2038.294282637764
 20
964.2678214298946
 30
0.0
 11
2037.822174714169
 21
964.8523094601573
 31
0.0
  0
LINE
  5
107F
330
EB2
100
AcDbEntity
  8
0
  6
Continuous
 62
     7
370
    15
100
AcDbLine
 10
2037.587177057762
 20
963.8596180674127
 30
0.0
 11
2038.294282637764
 21
964.2678214298946
 31
0.0
  0
ARC
  5
1080
330
EB2
100
AcDbEntity
  8
0
  6
Continuous
 62
     7
370
    15
100
AcDbCircle
 10
2035.764511076238
 20
966.6925540402059
 30
0.0
 40
1.548294923738315
100
AcDbArc
 50
189.1070469866716
 51
245.0873784238293
  0
LINE
  5
1081
330
EB2
100
AcDbEntity
  8
0
  6
Continuous
 62
     7
370
    15
100
AcDbLine
 10
2033.672567231358
 20
966.7725995977761
 30
0.0
 11
2034.235733421161
 21
966.4474906765411
 31
0.0
  0
LINE
  5
1082
330
EB2
100
AcDbEntity
  8
0
  6
Continuous
 62
     7
370
    15
100
AcDbLine
 10
2037.347003241523
 20
968.2435885128187
 30
0.0
 11
2036.78383705172
 21
968.5686974340537
 31
0.0
  0
ARC
  5
1083
330
EB2
100
AcDbEntity
  8
0
  6
Continuous
 62
     7
370
    15
100
AcDbCircle
 10
2037.337147151311
 20
963.9676944308556
 30
0.0
 40
4.275905441270005
100
AcDbArc
 50
61.84216931133342
 51
89.86793139383784
  0
LINE
  5
1084
330
EB2
100
AcDbEntity
  8
0
  6
Continuous
 62
     7
370
    15
100
AcDbLine
 10
2041.829818440304
 20
966.3088428043399
 30
0.0
 11
2039.354955495745
 21
967.7375507713302
 31
0.0
  0
LINE
  5
1085
330
EB2
100
AcDbEntity
  8
0
  6
Continuous
 62
     7
370
    15
100
AcDbLine
 10
2041.122710226125
 20
965.9006379211795
 30
0.0
 11
2041.829818440304
 21
966.3088428043399
 31
0.0
  0
LINE
  5
1086
330
EB2
100
AcDbEntity
  8
0
  6
Continuous
 62
     7
370
    15
100
AcDbLine
 10
2040.11024019195
 20
966.1731815449275
 30
0.0
 11
2041.122710226125
 21
965.9006379211795
 31
0.0
  0
LINE
  5
1087
330
EB2
100
AcDbEntity
  8
0
  6
Continuous
 62
     7
370
    15
100
AcDbLine
 10
2038.9161883635
 20
966.7625053331677
 30
0.0
 11
2040.11024019195
 21
966.1731815449275
 31
0.0
  0
LINE
  5
1088
330
EB2
100
AcDbEntity
  8
0
  6
Continuous
 62
     7
370
    15
100
AcDbLine
 10
2038.294282637764
 20
963.6962453534593
 30
0.0
 11
2038.294282637764
 21
964.2678214298946
 31
0.0
  0
LINE
  5
1089
330
EB2
100
AcDbEntity
  8
0
  6
Continuous
 62
     7
370
    15
100
AcDbLine
 10
2037.587177057762
 20
963.2880419909774
 30
0.0
 11
2038.294282637764
 21
963.6962453534593
 31
0.0
  0
LINE
  5
108A
330
EB2
100
AcDbEntity
  8
0
  6
Continuous
 62
     7
370
    15
100
AcDbLine
 10
2034.235733421161
 20
966.4474906765411
 30
0.0
 11
2034.235733421161
 21
965.6310090469192
 31
0.0
  0
ARC
  5
108B
330
EB2
100
AcDbEntity
  8
0
  6
Continuous
 62
     7
370
    15
100
AcDbCircle
 10
2035.764511076238
 20
965.8760724105841
 30
0.0
 40
1.548294923738203
100
AcDbArc
 50
189.1070469866716
 51
245.0873784238293
  0
LINE
  5
108C
330
EB2
100
AcDbEntity
  8
0
  6
Continuous
 62
     7
370
    15
100
AcDbLine
 10
2034.662517677538
 20
969.2221493168595
 30
0.0
 11
2035.935310355719
 21
969.9569168900055
 31
0.0
  0
LINE
  5
108D
330
EB2
100
AcDbEntity
  8
0
  6
Continuous
 62
     7
370
    15
100
AcDbLine
 10
2035.935310355719
 20
969.9569168900055
 30
0.0
 11
2035.694904731812
 21
971.2062436066982
 31
0.0
  0
LINE
  5
108E
330
EB2
100
AcDbEntity
  8
0
  6
Continuous
 62
     7
370
    15
100
AcDbLine
 10
2045.216128057337
 20
977.4174784666072
 30
0.0
 11
2045.142792540927
 21
977.7292492032946
 31
0.0
  0
LINE
  5
108F
330
EB2
100
AcDbEntity
  8
0
  6
Continuous
 62
     7
370
    15
100
AcDbLine
 10
2045.142792540927
 20
977.7292492032946
 30
0.0
 11
2043.660487878799
 21
984.0312911904554
 31
0.0
  0
LINE
  5
1090
330
EB2
100
AcDbEntity
  8
0
  6
Continuous
 62
     7
370
    15
100
AcDbLine
 10
2044.509014574801
 20
984.5211352254336
 30
0.0
 11
2046.064654753338
 21
977.9073225015855
 31
0.0
  0
LINE
  5
1091
330
EB2
100
AcDbEntity
  8
0
  6
Continuous
 62
     7
370
    15
100
AcDbLine
 10
2046.064654753338
 20
977.9073225015855
 30
0.0
 11
2045.216128057337
 21
977.4174784666072
 31
0.0
  0
LINE
  5
1092
330
EB2
100
AcDbEntity
  8
0
  6
Continuous
 62
     7
370
    15
100
AcDbLine
 10
2045.216128057337
 20
977.4174784666072
 30
0.0
 11
2043.660487878799
 21
978.3155304261033
 31
0.0
  0
LINE
  5
1093
330
EB2
100
AcDbEntity
  8
0
  6
Continuous
 62
     7
370
    15
100
AcDbLine
 10
2038.9161883635
 20
965.9460237035458
 30
0.0
 11
2038.9161883635
 21
966.7625053331677
 31
0.0
  0
ARC
  5
1094
330
EB2
100
AcDbEntity
  8
0
  6
Continuous
 62
     7
370
    15
100
AcDbCircle
 10
2037.963574304106
 20
964.0172006985046
 30
0.0
 40
2.151239580087053
100
AcDbArc
 50
63.71598904501368
 51
128.6979658269888
  0
LINE
  5
1095
330
EB2
100
AcDbEntity
  8
0
  6
Continuous
 62
     7
370
    15
100
AcDbLine
 10
2032.010872411078
 20
967.4870344562185
 30
0.0
 11
2033.460471118761
 21
966.6501989348176
 31
0.0
  0
LINE
  5
1096
330
EB2
100
AcDbEntity
  8
0
  6
Continuous
 62
     7
370
    15
100
AcDbLine
 10
2040.11024019195
 20
965.4504376131271
 30
0.0
 11
2040.11024019195
 21
966.1731815449275
 31
0.0
  0
LINE
  5
1097
330
EB2
100
AcDbEntity
  8
0
  6
Continuous
 62
     7
370
    15
100
AcDbLine
 10
2041.122710226125
 20
965.9006379211795
 30
0.0
 11
2041.122710226125
 21
965.329061844744
 31
0.0
  0
LINE
  5
1098
330
EB2
100
AcDbEntity
  8
0
  6
Continuous
 62
     7
370
    15
100
AcDbLine
 10
2041.122710226125
 20
965.329061844744
 30
0.0
 11
2040.11024019195
 21
965.4504376131271
 31
0.0
  0
LINE
  5
1099
330
EB2
100
AcDbEntity
  8
0
  6
Continuous
 62
     7
370
    15
100
AcDbLine
 10
2041.829818440304
 20
966.3088428043399
 30
0.0
 11
2041.829818440304
 21
965.7372667279046
 31
0.0
  0
LINE
  5
109A
330
EB2
100
AcDbEntity
  8
0
  6
Continuous
 62
     7
370
    15
100
AcDbLine
 10
2041.122710226125
 20
965.329061844744
 30
0.0
 11
2041.829818440304
 21
965.7372667279046
 31
0.0
  0
LINE
  5
109B
330
EB2
100
AcDbEntity
  8
0
  6
Continuous
 62
     7
370
    15
100
AcDbLine
 10
2040.11024019195
 20
965.4504376131271
 30
0.0
 11
2039.613460556908
 21
965.6018850101943
 31
0.0
  0
LINE
  5
109C
330
EB2
100
AcDbEntity
  8
0
  6
Continuous
 62
     7
370
    15
100
AcDbLine
 10
2038.9161883635
 20
965.9460237035458
 30
0.0
 11
2039.613460556908
 21
965.6018850101943
 31
0.0
  0
LINE
  5
109D
330
EB2
100
AcDbEntity
  8
0
  6
Continuous
 62
     7
370
    15
100
AcDbLine
 10
2035.917679802151
 20
970.0487339437552
 30
0.0
 11
2036.218186832034
 21
969.8752549280085
 31
0.0
  0
ARC
  5
109E
330
EB2
100
AcDbEntity
  8
0
  6
Continuous
 62
     7
370
    15
100
AcDbCircle
 10
2034.462515210603
 20
967.6397882393295
 30
0.0
 40
1.855135620390901
100
AcDbArc
 50
197.0620232128695
 51
237.3069048500217
  0
LINE
  5
109F
330
EB2
100
AcDbEntity
  8
0
  6
Continuous
 62
     7
370
    15
100
AcDbLine
 10
2033.460484289651
 20
966.0785508443447
 30
0.0
 11
2034.235733421161
 21
965.6310090469192
 31
0.0
  0
LINE
  5
10A0
330
EB2
100
AcDbEntity
  8
0
  6
Continuous
 62
     7
370
    15
100
AcDbLine
 10
2037.773766424476
 20
974.2638464025544
 30
0.0
 11
2038.86983736685
 21
973.6310981159475
 31
0.0
  0
LINE
  5
10A1
330
EB2
100
AcDbEntity
  8
0
  6
Continuous
 62
     7
370
    15
100
AcDbLine
 10
2037.95059879576
 20
973.1004329843818
 30
0.0
 11
2037.773834913105
 21
973.2024766017788
 31
0.0
  0
LINE
  5
10A2
330
EB2
100
AcDbEntity
  8
0
  6
Continuous
 62
     7
370
    15
100
AcDbLine
 10
2043.585095069348
 20
968.1791725669297
 30
0.0
 11
2044.057202992942
 21
967.5946845366668
 31
0.0
  0
LINE
  5
10A3
330
EB2
100
AcDbEntity
  8
0
  6
Continuous
 62
     7
370
    15
100
AcDbLine
 10
2044.057202992942
 20
967.5946845366668
 30
0.0
 11
2043.350097412941
 21
967.1864811741849
 31
0.0
  0
LINE
  5
10A4
330
EB2
100
AcDbEntity
  8
0
  6
Continuous
 62
     7
370
    15
100
AcDbLine
 10
2043.350097412941
 20
967.1864811741849
 30
0.0
 11
2040.875234468381
 21
968.6151891411752
 31
0.0
  0
ARC
  5
10A5
330
EB2
100
AcDbEntity
  8
0
  6
Continuous
 62
     7
370
    15
100
AcDbCircle
 10
2041.527431431416
 20
970.0194171469776
 30
0.0
 40
1.548294923737747
100
AcDbArc
 50
189.1070469866587
 51
245.0873784238439
  0
LINE
  5
10A6
330
EB2
100
AcDbEntity
  8
0
  6
Continuous
 62
     7
370
    15
100
AcDbLine
 10
2039.99865377634
 20
969.7743537833135
 30
0.0
 11
2039.435487586537
 21
970.0994627045485
 31
0.0
  0
LINE
  5
10A7
330
EB2
100
AcDbEntity
  8
0
  6
Continuous
 62
     7
370
    15
100
AcDbLine
 10
2042.546757406899
 20
971.8955605408261
 30
0.0
 11
2043.109923596702
 21
971.5704516195911
 31
0.0
  0
ARC
  5
10A8
330
EB2
100
AcDbEntity
  8
0
  6
Continuous
 62
     7
370
    15
100
AcDbCircle
 10
2043.100067358065
 20
967.294578780983
 30
0.0
 40
4.275884198313417
100
AcDbArc
 50
61.84205473239525
 51
89.86792874884695
  0
LINE
  5
10A9
330
EB2
100
AcDbEntity
  8
0
  6
Continuous
 62
     7
370
    15
100
AcDbLine
 10
2045.117873216746
 20
971.0644123574239
 30
0.0
 11
2047.592736161305
 21
969.6357043904336
 31
0.0
  0
LINE
  5
10AA
330
EB2
100
AcDbEntity
  8
0
  6
Continuous
 62
     7
370
    15
100
AcDbLine
 10
2047.592736161305
 20
969.6357043904336
 30
0.0
 11
2046.885633215482
 21
969.2275025486303
 31
0.0
  0
LINE
  5
10AB
330
EB2
100
AcDbEntity
  8
0
  6
Continuous
 62
     7
370
    15
100
AcDbLine
 10
2046.885633215482
 20
969.2275025486303
 30
0.0
 11
2045.873160547129
 21
969.5000446516999
 31
0.0
  0
LINE
  5
10AC
330
EB2
100
AcDbEntity
  8
0
  6
Continuous
 62
     7
370
    15
100
AcDbLine
 10
2045.873160547129
 20
969.5000446516999
 30
0.0
 11
2044.679108718679
 21
970.08936843994
 31
0.0
  0
LWPOLYLINE
  5
10AD
330
EB2
100
AcDbEntity
  8
0
  6
Continuous
 62
     7
370
    15
100
AcDbPolyline
 90
       16
 70
   128
 43
0.0
 10
2044.679108718679
 20
970.08936843994
 10
2044.434435726361
 20
970.1876346916717
 10
2044.160944826374
 20
970.2560287328026
 10
2043.869367660019
 20
970.2918893757667
 10
2043.571315684062
 20
970.2937446036701
 10
2043.278590016086
 20
970.2614970930817
 10
2043.002546597586
 20
970.1965443476435
 10
2042.754306928213
 20
970.1013164117732
 10
2042.543546343878
 20
969.9796469162448
 10
2042.378588847162
 20
969.8363412054634
 10
2042.266075200885
 20
969.6769847319613
 10
2042.210214821539
 20
969.5079978008266
 10
2042.213428518738
 20
969.3359360575438
 10
2042.275547705088
 20
969.1676121422826
 10
2042.394022496251
 20
969.0097292063528
 10
2042.564243080675
 20
968.8684824944084
  0
LINE
  5
10AE
330
EB2
100
AcDbEntity
  8
0
  6
Continuous
 62
     7
370
    15
100
AcDbLine
 10
2042.564243080675
 20
968.8684824944084
 30
0.0
 11
2043.585095069348
 21
968.1791725669297
 31
0.0
  0
LINE
  5
10AF
330
EB2
100
AcDbEntity
  8
0
  6
Continuous
 62
     7
370
    15
100
AcDbLine
 10
2044.057202992942
 20
967.5946845366668
 30
0.0
 11
2044.057202992942
 21
967.0231084602317
 31
0.0
  0
LINE
  5
10B0
330
EB2
100
AcDbEntity
  8
0
  6
Continuous
 62
     7
370
    15
100
AcDbLine
 10
2043.350097412941
 20
966.6149050977498
 30
0.0
 11
2044.057202992942
 21
967.0231084602317
 31
0.0
  0
LINE
  5
10B1
330
EB2
100
AcDbEntity
  8
0
  6
Continuous
 62
     7
370
    15
100
AcDbLine
 10
2043.350097412941
 20
967.1864811741849
 30
0.0
 11
2043.350097412941
 21
966.6149050977498
 31
0.0
  0
LINE
  5
10B2
330
EB2
100
AcDbEntity
  8
0
  6
Continuous
 62
     7
370
    15
100
AcDbLine
 10
2040.875234468381
 20
968.6151891411752
 30
0.0
 11
2040.875234468381
 21
967.7987075115535
 31
0.0
  0
LINE
  5
10B3
330
EB2
100
AcDbEntity
  8
0
  6
Continuous
 62
     7
370
    15
100
AcDbLine
 10
2042.147057769046
 20
967.0644995481357
 30
0.0
 11
2043.350097412941
 21
966.6149050977498
 31
0.0
  0
LINE
  5
10B4
330
EB2
100
AcDbEntity
  8
0
  6
Continuous
 62
     7
370
    15
100
AcDbLine
 10
2042.147057769046
 20
967.0644995481357
 30
0.0
 11
2040.875234468381
 21
967.7987075115535
 31
0.0
  0
LINE
  5
10B5
330
EB2
100
AcDbEntity
  8
0
  6
Continuous
 62
     7
370
    15
100
AcDbLine
 10
2038.693060313305
 20
973.5290468951573
 30
0.0
 11
2037.773753253586
 21
974.0597515643671
 31
0.0
  0
LINE
  5
10B6
330
EB2
100
AcDbEntity
  8
0
  6
Continuous
 62
     7
370
    15
100
AcDbLine
 10
2038.693060313305
 20
972.5900151496924
 30
0.0
 11
2037.950601429938
 21
973.0186275397894
 31
0.0
  0
ARC
  5
10B7
330
EB2
100
AcDbEntity
  8
0
  6
Continuous
 62
     7
370
    15
100
AcDbCircle
 10
2045.796159684872
 20
985.6527442495293
 30
0.0
 40
1.940091412034259
100
AcDbArc
 50
64.46233924121718
 51
126.8477440575951
  0
LINE
  5
10B8
330
EB2
100
AcDbEntity
  8
0
  6
Continuous
 62
     7
370
    15
100
AcDbLine
 10
2038.86983736685
 20
970.4800319125482
 30
0.0
 11
2037.773766424476
 21
971.1127801991549
 31
0.0
  0
LINE
  5
10B9
330
EB2
100
AcDbEntity
  8
0
  6
Continuous
 62
     7
370
    15
100
AcDbLine
 10
2039.99865377634
 20
969.7743537833135
 30
0.0
 11
2039.99865377634
 21
968.9578721536916
 31
0.0
  0
ARC
  5
10BA
330
EB2
100
AcDbEntity
  8
0
  6
Continuous
 62
     7
370
    15
100
AcDbCircle
 10
2041.527431431416
 20
969.2029355173559
 30
0.0
 40
1.548294923737705
100
AcDbArc
 50
189.1070469866587
 51
245.0873784238439
  0
LINE
  5
10BB
330
EB2
100
AcDbEntity
  8
0
  6
Continuous
 62
     7
370
    15
100
AcDbLine
 10
2040.425438032717
 20
972.5490124236319
 30
0.0
 11
2041.698230710897
 21
973.2837799967779
 31
0.0
  0
LINE
  5
10BC
330
EB2
100
AcDbEntity
  8
0
  6
Continuous
 62
     7
370
    15
100
AcDbLine
 10
2041.698230710897
 20
973.2837799967779
 30
0.0
 11
2041.457825086991
 21
974.5331067134706
 31
0.0
  0
LINE
  5
10BD
330
EB2
100
AcDbEntity
  8
0
  6
Continuous
 62
     7
370
    15
100
AcDbLine
 10
2044.679108718679
 20
969.2728868103182
 30
0.0
 11
2044.679108718679
 21
970.08936843994
 31
0.0
  0
ARC
  5
10BE
330
EB2
100
AcDbEntity
  8
0
  6
Continuous
 62
     7
370
    15
100
AcDbCircle
 10
2043.724263836863
 20
967.3645756093034
 30
0.0
 40
2.133865128879788
100
AcDbArc
 50
63.41839504337452
 51
128.9955598286373
  0
LINE
  5
10BF
330
EB2
100
AcDbEntity
  8
0
  6
Continuous
 62
     7
370
    15
100
AcDbLine
 10
2037.773792766256
 20
970.8138975629909
 30
0.0
 11
2039.22339147394
 21
969.97706204159
 31
0.0
  0
LINE
  5
10C0
330
EB2
100
AcDbEntity
  8
0
  6
Continuous
 62
     7
370
    15
100
AcDbLine
 10
2045.873160547129
 20
969.5000446516999
 30
0.0
 11
2045.873160547129
 21
968.7773007198996
 31
0.0
  0
LINE
  5
10C1
330
EB2
100
AcDbEntity
  8
0
  6
Continuous
 62
     7
370
    15
100
AcDbLine
 10
2046.885633215482
 20
968.6559264721951
 30
0.0
 11
2046.885633215482
 21
969.2275025486303
 31
0.0
  0
LINE
  5
10C2
330
EB2
100
AcDbEntity
  8
0
  6
Continuous
 62
     7
370
    15
100
AcDbLine
 10
2046.885633215482
 20
968.6559264721951
 30
0.0
 11
2045.873160547129
 21
968.7773007198996
 31
0.0
  0
LINE
  5
10C3
330
EB2
100
AcDbEntity
  8
0
  6
Continuous
 62
     7
370
    15
100
AcDbLine
 10
2047.592736161305
 20
969.6357043904336
 30
0.0
 11
2047.592736161305
 21
969.0641283139983
 31
0.0
  0
LINE
  5
10C4
330
EB2
100
AcDbEntity
  8
0
  6
Continuous
 62
     7
370
    15
100
AcDbLine
 10
2046.885633215482
 20
968.6559264721951
 30
0.0
 11
2047.592736161305
 21
969.0641283139983
 31
0.0
  0
LINE
  5
10C5
330
EB2
100
AcDbEntity
  8
0
  6
Continuous
 62
     7
370
    15
100
AcDbLine
 10
2045.873160547129
 20
968.7773007198996
 30
0.0
 11
2045.376380912087
 21
968.9287481169667
 31
0.0
  0
LINE
  5
10C6
330
EB2
100
AcDbEntity
  8
0
  6
Continuous
 62
     7
370
    15
100
AcDbLine
 10
2045.376380912087
 20
968.9287481169667
 30
0.0
 11
2044.679108718679
 21
969.2728868103182
 31
0.0
  0
LINE
  5
10C7
330
EB2
100
AcDbEntity
  8
0
  6
Continuous
 62
     7
370
    15
100
AcDbLine
 10
2041.680600157329
 20
973.3755970505274
 30
0.0
 11
2041.981107187212
 21
973.2021180347809
 31
0.0
  0
ARC
  5
10C8
330
EB2
100
AcDbEntity
  8
0
  6
Continuous
 62
     7
370
    15
100
AcDbCircle
 10
2040.225435565782
 20
970.9666513461021
 30
0.0
 40
1.855135620391073
100
AcDbArc
 50
197.0620232128758
 51
237.3069048500217
  0
LINE
  5
10C9
330
EB2
100
AcDbEntity
  8
0
  6
Continuous
 62
     7
370
    15
100
AcDbLine
 10
2039.99865377634
 20
968.9578721536916
 30
0.0
 11
2039.22340464483
 21
969.405413951117
 31
0.0
  0
LINE
  5
10CA
330
EB2
100
AcDbEntity
  8
0
  6
Continuous
 62
     7
370
    15
100
AcDbLine
 10
2044.632757722029
 20
973.8068950193204
 30
0.0
 11
2043.536686779654
 21
974.4396433059272
 31
0.0
  0
LINE
  5
10CB
330
EB2
100
AcDbEntity
  8
0
  6
Continuous
 62
     7
370
    15
100
AcDbLine
 10
2047.909975490046
 20
970.3913611342294
 30
0.0
 11
2046.638152189382
 21
971.1255690976472
 31
0.0
  0
LINE
  5
10CC
330
EB2
100
AcDbEntity
  8
0
  6
Continuous
 62
     7
370
    15
100
AcDbLine
 10
2046.638152189382
 20
971.1255690976472
 30
0.0
 11
2046.638152189382
 21
971.942050727269
 31
0.0
  0
LINE
  5
10CD
330
EB2
100
AcDbEntity
  8
0
  6
Continuous
 62
     7
370
    15
100
AcDbLine
 10
2049.113015133942
 20
970.5133427602788
 30
0.0
 11
2046.638152189382
 21
971.942050727269
 31
0.0
  0
LINE
  5
10CE
330
EB2
100
AcDbEntity
  8
0
  6
Continuous
 62
     7
370
    15
100
AcDbLine
 10
2049.113015133942
 20
969.9417666838435
 30
0.0
 11
2049.113015133942
 21
970.5133427602788
 31
0.0
  0
LINE
  5
10CF
330
EB2
100
AcDbEntity
  8
0
  6
Continuous
 62
     7
370
    15
100
AcDbLine
 10
2049.113015133942
 20
969.9417666838435
 30
0.0
 11
2047.909975490046
 21
970.3913611342294
 31
0.0
  0
LINE
  5
10D0
330
EB2
100
AcDbEntity
  8
0
  6
Continuous
 62
     7
370
    15
100
AcDbLine
 10
2049.820123348121
 20
970.9215476434392
 30
0.0
 11
2049.113015133942
 21
970.5133427602788
 31
0.0
  0
LINE
  5
10D1
330
EB2
100
AcDbEntity
  8
0
  6
Continuous
 62
     7
370
    15
100
AcDbLine
 10
2049.820123348121
 20
970.9215476434392
 30
0.0
 11
2049.820123348121
 21
970.3499715670039
 31
0.0
  0
LINE
  5
10D2
330
EB2
100
AcDbEntity
  8
0
  6
Continuous
 62
     7
370
    15
100
AcDbLine
 10
2049.820123348121
 20
970.3499715670039
 30
0.0
 11
2049.113015133942
 21
969.9417666838435
 31
0.0
  0
LINE
  5
10D3
330
EB2
100
AcDbEntity
  8
0
  6
Continuous
 62
     7
370
    15
100
AcDbLine
 10
2049.348015424526
 20
971.5060356737019
 30
0.0
 11
2049.820123348121
 21
970.9215476434392
 31
0.0
  0
ARC
  5
10D4
330
EB2
100
AcDbEntity
  8
0
  6
Continuous
 62
     7
370
    15
100
AcDbCircle
 10
2047.29034309517
 20
973.3462665613329
 30
0.0
 40
1.548281333035968
100
AcDbArc
 50
189.1065574441921
 51
245.0873919850197
  0
LINE
  5
10D5
330
EB2
100
AcDbEntity
  8
0
  6
Continuous
 62
     7
370
    15
100
AcDbLine
 10
2045.198410575894
 20
973.4263273319994
 30
0.0
 11
2045.761576765696
 21
973.1012184107644
 31
0.0
  0
LINE
  5
10D6
330
EB2
100
AcDbEntity
  8
0
  6
Continuous
 62
     7
370
    15
100
AcDbLine
 10
2048.872846586059
 20
974.897316247042
 30
0.0
 11
2048.309680396256
 21
975.222425168277
 31
0.0
  0
ARC
  5
10D7
330
EB2
100
AcDbEntity
  8
0
  6
Continuous
 62
     7
370
    15
100
AcDbCircle
 10
2048.862964062941
 20
970.621339112349
 30
0.0
 40
4.275988554788296
100
AcDbArc
 50
61.84240370697398
 51
89.86757977427087
  0
LINE
  5
10D8
330
EB2
100
AcDbEntity
  8
0
  6
Continuous
 62
     7
370
    15
100
AcDbLine
 10
2050.880796206103
 20
974.3912769848749
 30
0.0
 11
2053.355659150662
 21
972.9625690178847
 31
0.0
  0
LINE
  5
10D9
330
EB2
100
AcDbEntity
  8
0
  6
Continuous
 62
     7
370
    15
100
AcDbLine
 10
2053.355659150662
 20
972.9625690178847
 30
0.0
 11
2052.648550936483
 21
972.5543641347242
 31
0.0
  0
LINE
  5
10DA
330
EB2
100
AcDbEntity
  8
0
  6
Continuous
 62
     7
370
    15
100
AcDbLine
 10
2052.648550936483
 20
972.5543641347242
 30
0.0
 11
2051.636078268129
 21
972.8269062377938
 31
0.0
  0
LINE
  5
10DB
330
EB2
100
AcDbEntity
  8
0
  6
Continuous
 62
     7
370
    15
100
AcDbLine
 10
2051.636078268129
 20
972.8269062377938
 30
0.0
 11
2050.44202643968
 21
973.4162300260338
 31
0.0
  0
LWPOLYLINE
  5
10DC
330
EB2
100
AcDbEntity
  8
0
  6
Continuous
 62
     7
370
    15
100
AcDbPolyline
 90
       16
 70
   128
 43
0.0
 10
2050.44202643968
 20
973.4162300260338
 10
2050.197353447362
 20
973.5144962777654
 10
2049.923867815731
 20
973.5828933602535
 10
2049.632290649376
 20
973.6187540032176
 10
2049.334233405063
 20
973.6206061897638
 10
2049.041513005443
 20
973.5883617205326
 10
2048.765466952765
 20
973.5234074544159
 10
2048.517227283392
 20
973.4281795185456
 10
2048.306466699057
 20
973.3065100230172
 10
2048.141509202341
 20
973.1632043122358
 10
2048.028992921885
 20
973.003846318055
 10
2047.973137810896
 20
972.8348624282775
 10
2047.976346239739
 20
972.6627976436375
 10
2048.038465426088
 20
972.4944737283763
 10
2048.156945485608
 20
972.3365938338037
 10
2048.327166070032
 20
972.1953471218593
  0
LINE
  5
10DD
330
EB2
100
AcDbEntity
  8
0
  6
Continuous
 62
     7
370
    15
100
AcDbLine
 10
2048.327166070032
 20
972.1953471218593
 30
0.0
 11
2049.348015424526
 21
971.5060356737019
 31
0.0
  0
LINE
  5
10DE
330
EB2
100
AcDbEntity
  8
0
  6
Continuous
 62
     7
370
    15
100
AcDbLine
 10
2045.761576765696
 20
972.2847367811425
 30
0.0
 11
2045.761576765696
 21
973.1012184107644
 31
0.0
  0
ARC
  5
10DF
330
EB2
100
AcDbEntity
  8
0
  6
Continuous
 62
     7
370
    15
100
AcDbCircle
 10
2047.29034309517
 20
972.5297849317112
 30
0.0
 40
1.548281333036024
100
AcDbArc
 50
189.1065574441921
 51
245.0873919850197
  0
LINE
  5
10E0
330
EB2
100
AcDbEntity
  8
0
  6
Continuous
 62
     7
370
    15
100
AcDbLine
 10
2046.188355753718
 20
975.8758740097254
 30
0.0
 11
2047.461148431898
 21
976.6106415828716
 31
0.0
  0
LINE
  5
10E1
330
EB2
100
AcDbEntity
  8
0
  6
Continuous
 62
     7
370
    15
100
AcDbLine
 10
2047.461148431898
 20
976.6106415828716
 30
0.0
 11
2047.220742807992
 21
977.8599682995645
 31
0.0
  0
LINE
  5
10E2
330
EB2
100
AcDbEntity
  8
0
  6
Continuous
 62
     7
370
    15
100
AcDbLine
 10
2050.44202643968
 20
972.5997483964119
 30
0.0
 11
2050.44202643968
 21
973.4162300260338
 31
0.0
  0
ARC
  5
10E3
330
EB2
100
AcDbEntity
  8
0
  6
Continuous
 62
     7
370
    15
100
AcDbCircle
 10
2049.487179801811
 20
970.691457404307
 30
0.0
 40
2.133847841904009
100
AcDbArc
 50
63.41811006500757
 51
128.9957839719402
  0
LINE
  5
10E4
330
EB2
100
AcDbEntity
  8
0
  6
Continuous
 62
     7
370
    15
100
AcDbLine
 10
2043.536713121435
 20
974.1407606697633
 30
0.0
 11
2044.986311829119
 21
973.3039251483623
 31
0.0
  0
LINE
  5
10E5
330
EB2
100
AcDbEntity
  8
0
  6
Continuous
 62
     7
370
    15
100
AcDbLine
 10
2052.648550936483
 20
971.9827880582888
 30
0.0
 11
2052.648550936483
 21
972.5543641347242
 31
0.0
  0
LINE
  5
10E6
330
EB2
100
AcDbEntity
  8
0
  6
Continuous
 62
     7
370
    15
100
AcDbLine
 10
2051.636078268129
 20
972.1041623059933
 30
0.0
 11
2052.648550936483
 21
971.9827880582888
 31
0.0
  0
LINE
  5
10E7
330
EB2
100
AcDbEntity
  8
0
  6
Continuous
 62
     7
370
    15
100
AcDbLine
 10
2051.636078268129
 20
972.8269062377938
 30
0.0
 11
2051.636078268129
 21
972.1041623059933
 31
0.0
  0
LINE
  5
10E8
330
EB2
100
AcDbEntity
  8
0
  6
Continuous
 62
     7
370
    15
100
AcDbLine
 10
2053.355659150662
 20
972.3909929414492
 30
0.0
 11
2053.355659150662
 21
972.9625690178847
 31
0.0
  0
LINE
  5
10E9
330
EB2
100
AcDbEntity
  8
0
  6
Continuous
 62
     7
370
    15
100
AcDbLine
 10
2053.355659150662
 20
972.3909929414492
 30
0.0
 11
2052.648550936483
 21
971.9827880582888
 31
0.0
  0
LINE
  5
10EA
330
EB2
100
AcDbEntity
  8
0
  6
Continuous
 62
     7
370
    15
100
AcDbLine
 10
2051.636078268129
 20
972.1041623059933
 30
0.0
 11
2051.139298633088
 21
972.2556097030604
 31
0.0
  0
LINE
  5
10EB
330
EB2
100
AcDbEntity
  8
0
  6
Continuous
 62
     7
370
    15
100
AcDbLine
 10
2051.139298633088
 20
972.2556097030604
 30
0.0
 11
2050.44202643968
 21
972.5997483964119
 31
0.0
  0
LINE
  5
10EC
330
EB2
100
AcDbEntity
  8
0
  6
Continuous
 62
     7
370
    15
100
AcDbLine
 10
2047.443520512508
 20
976.7024601572998
 30
0.0
 11
2047.744027542391
 21
976.5289811415533
 31
0.0
  0
ARC
  5
10ED
330
EB2
100
AcDbEntity
  8
0
  6
Continuous
 62
     7
370
    15
100
AcDbCircle
 10
2045.988358555139
 20
974.2935159735534
 30
0.0
 40
1.85513562039154
100
AcDbArc
 50
197.0620232128796
 51
237.3069048500217
  0
LINE
  5
10EE
330
EB2
100
AcDbEntity
  8
0
  6
Continuous
 62
     7
370
    15
100
AcDbLine
 10
2044.986327634187
 20
972.7322785785679
 30
0.0
 11
2045.761576765696
 21
972.2847367811425
 31
0.0
  0
LINE
  5
10EF
330
EB2
100
AcDbEntity
  8
0
  6
Continuous
 62
     7
370
    15
100
AcDbLine
 10
2049.476436871939
 20
979.7541576772477
 30
0.0
 11
2049.299672989284
 21
979.8562012946449
 31
0.0
  0
ENDBLK
  5
EB4
330
EB2
100
AcDbEntity
  8
0
100
AcDbBlockEnd
  0
ENDSEC
  0
SECTION
  2
ENTITIES
  0
INSERT
  5
DD8
330
1F
100
AcDbEntity
  8
0
100
AcDbBlockReference
  2
1
 10
0.0
 20
0.0
 30
0.0
  0
INSERT
  5
E8D
330
1F
100
AcDbEntity
  8
0
100
AcDbBlockReference
  2
2
 10
0.0
 20
0.0
 30
0.0
  0
INSERT
  5
EB1
330
1F
100
AcDbEntity
  8
0
100
AcDbBlockReference
  2
3
 10
8.850931303210018
 20
0.0
 30
0.0
  0
INSERT
  5
10F0
330
1F
100
AcDbEntity
  8
0
100
AcDbBlockReference
  2
4
 10
0.0
 20
8.136744687121336
 30
0.0
  0
ENDSEC
  0
SECTION
  2
OBJECTS
  0
DICTIONARY
  5
C
330
0
100
AcDbDictionary
281
     1
  3
ACAD_COLOR
350
6B
  3
ACAD_GROUP
350
D
  3
ACAD_LAYOUT
350
1A
  3
ACAD_MATERIAL
350
6A
  3
ACAD_MLEADERSTYLE
350
12D
  3
ACAD_MLINESTYLE
350
17
  3
ACAD_PLOTSETTINGS
350
19
  3
ACAD_PLOTSTYLENAME
350
E
  3
ACAD_SCALELIST
350
10C
  3
ACAD_TABLESTYLE
350
7E
  3
ACAD_VISUALSTYLE
350
EF
  3
ACDB_RECOMPOSE_DATA
350
15D
  3
AcDbVariableDictionary
350
5E
  3
DWGPROPS
350
10FE
  0
DICTIONARY
  5
13C
330
10
100
AcDbDictionary
280
     1
281
     1
  3
ADSK_XREC_LAYER_RECONCILED
360
10F1
  0
DICTIONARY
  5
6B
102
{ACAD_REACTORS
330
C
102
}
330
C
100
AcDbDictionary
281
     1
  0
DICTIONARY
  5
D
102
{ACAD_REACTORS
330
C
102
}
330
C
100
AcDbDictionary
281
     1
  0
DICTIONARY
  5
1A
102
{ACAD_REACTORS
330
C
102
}
330
C
100
AcDbDictionary
281
     1
  3
Layout1
350
D3
  3
Layout2
350
D7
  3
Model
350
22
  0
DICTIONARY
  5
6A
102
{ACAD_REACTORS
330
C
102
}
330
C
100
AcDbDictionary
281
     1
  3
ByBlock
350
ED
  3
ByLayer
350
EC
  3
Global
350
EE
  0
DICTIONARY
  5
12D
102
{ACAD_REACTORS
330
C
102
}
330
C
100
AcDbDictionary
281
     1
  3
Annotative
350
13B
  3
Standard
350
12E
  0
DICTIONARY
  5
17
102
{ACAD_REACTORS
330
C
102
}
330
C
100
AcDbDictionary
281
     1
  3
Standard
350
18
  0
DICTIONARY
  5
19
102
{ACAD_REACTORS
330
C
102
}
330
C
100
AcDbDictionary
281
     1
  0
ACDBDICTIONARYWDFLT
  5
E
102
{ACAD_REACTORS
330
C
102
}
330
C
100
AcDbDictionary
281
     1
  3
Normal
350
F
100
AcDbDictionaryWithDefault
340
F
  0
DICTIONARY
  5
10C
102
{ACAD_REACTORS
330
C
102
}
330
C
100
AcDbDictionary
281
     1
  3
A0
350
10D
  3
A1
350
188
  3
A2
350
189
  3
A3
350
18A
  3
A4
350
18B
  3
A5
350
18C
  3
A6
350
18D
  3
A7
350
18E
  3
A8
350
18F
  3
A9
350
190
  3
B0
350
191
  3
B1
350
192
  3
B2
350
193
  3
B3
350
194
  3
B4
350
195
  3
B5
350
196
  3
B6
350
197
  3
B7
350
198
  3
B8
350
199
  3
B9
350
19A
  3
C0
350
19B
  3
C1
350
19C
  3
C2
350
19D
  3
C3
350
19E
  3
C4
350
19F
  3
C5
350
1A0
  3
C6
350
1A1
  3
C7
350
1A2
  3
C8
350
1A3
  3
C9
350
1A4
  3
D0
350
1A5
  3
D1
350
1A6
  3
D2
350
1A7
  0
DICTIONARY
  5
7E
102
{ACAD_REACTORS
330
C
102
}
330
C
100
AcDbDictionary
281
     1
  3
Standard
350
7F
  0
DICTIONARY
  5
EF
102
{ACAD_REACTORS
330
C
102
}
330
C
100
AcDbDictionary
281
     1
  3
2dWireframe
350
F5
  3
3D Hidden
350
F7
  3
3dWireframe
350
F6
  3
Basic
350
F4
  3
Brighten
350
FB
  3
ColorChange
350
FF
  3
Conceptual
350
F8
  3
Dim
350
FA
  3
Facepattern
350
FE
  3
Flat
350
F0
  3
FlatWithEdges
350
F1
  3
Gouraud
350
F2
  3
GouraudWithEdges
350
F3
  3
Linepattern
350
FD
  3
Realistic
350
F9
  3
Thicken
350
FC
  0
XRECORD
  5
15D
102
{ACAD_REACTORS
330
C
102
}
330
C
100
AcDbXrecord
280
     1
 90
        1
330
7F
  0
DICTIONARY
  5
5E
102
{ACAD_REACTORS
330
C
102
}
330
C
100
AcDbDictionary
281
     1
  3
CANNOSCALE
350
146
  3
CMLEADERSTYLE
350
145
  3
CTABLESTYLE
350
84
  3
DIMASSOC
350
5F
  3
HIDETEXT
350
63
  3
INDEXCTL
350
10FA
  3
LIGHTINGUNITS
350
10F8
  3
MSLTSCALE
350
10F7
  3
PSOLHEIGHT
350
10FC
  3
PSOLWIDTH
350
10FB
  3
SORTENTS
350
10F9
  0
XRECORD
  5
10FE
102
{ACAD_REACTORS
330
C
102
}
330
C
100
AcDbXrecord
280
     1
  1
DWGPROPS COOKIE
  2

  3

  4

  6

  7

  8
orhan kara
  9

300
=
301
=
302
=
303
=
304
=
305
=
306
=
307
=
308
=
309
=
 40
0.00068875
 41
2458556.693010116
 42
2458956.455377535
  1

 90
        0
  0
XRECORD
  5
10F1
102
{ACAD_REACTORS
330
13C
102
}
330
13C
100
AcDbXrecord
280
     1
290
     1
  0
LAYOUT
  5
D3
102
{ACAD_XDICTIONARY
360
1102
102
}
102
{ACAD_REACTORS
330
1A
102
}
330
1A
100
AcDbPlotSettings
  1

  2
C:\Documents and Settings\basas\Application Data\Autodesk\AutoCAD 2005\R16.1\enu\plotters\Default Windows System Printer.pc3
  4

  6

 40
0.0
 41
0.0
 42
0.0
 43
0.0
 44
0.0
 45
0.0
 46
0.0
 47
0.0
 48
0.0
 49
0.0
140
0.0
141
0.0
142
1.0
143
1.0
 70
   688
 72
     0
 73
     0
 74
     5
  7

 75
    16
147
1.0
148
0.0
149
0.0
100
AcDbLayout
  1
Layout1
 70
     1
 71
     1
 10
0.0
 20
0.0
 11
12.0
 21
9.0
 12
0.0
 22
0.0
 32
0.0
 14
0.0
 24
0.0
 34
0.0
 15
0.0
 25
0.0
 35
0.0
146
0.0
 13
0.0
 23
0.0
 33
0.0
 16
1.0
 26
0.0
 36
0.0
 17
0.0
 27
1.0
 37
0.0
 76
     0
330
D2
  0
LAYOUT
  5
D7
102
{ACAD_XDICTIONARY
360
1104
102
}
102
{ACAD_REACTORS
330
1A
102
}
330
1A
100
AcDbPlotSettings
  1

  2
C:\Documents and Settings\basas\Application Data\Autodesk\AutoCAD 2005\R16.1\enu\plotters\Default Windows System Printer.pc3
  4

  6

 40
0.0
 41
0.0
 42
0.0
 43
0.0
 44
0.0
 45
0.0
 46
0.0
 47
0.0
 48
0.0
 49
0.0
140
0.0
141
0.0
142
1.0
143
1.0
 70
   688
 72
     0
 73
     0
 74
     5
  7

 75
    16
147
1.0
148
0.0
149
0.0
100
AcDbLayout
  1
Layout2
 70
     1
 71
     2
 10
0.0
 20
0.0
 11
12.0
 21
9.0
 12
0.0
 22
0.0
 32
0.0
 14
0.0
 24
0.0
 34
0.0
 15
0.0
 25
0.0
 35
0.0
146
0.0
 13
0.0
 23
0.0
 33
0.0
 16
1.0
 26
0.0
 36
0.0
 17
0.0
 27
1.0
 37
0.0
 76
     0
330
D6
  0
LAYOUT
  5
22
102
{ACAD_XDICTIONARY
360
10FF
102
}
102
{ACAD_REACTORS
330
1A
102
}
330
1A
100
AcDbPlotSettings
  1

  2
none_device
  4
ISO_A4_(210.00_x_297.00_MM)
  6

 40
7.5
 41
20.0
 42
7.5
 43
20.0
 44
210.0
 45
297.0
 46
11.54999923706054
 47
-13.65000009536743
 48
0.0
 49
0.0
140
0.0
141
0.0
142
1.0
143
8.704084754739808
 70
 11952
 72
     1
 73
     0
 74
     0
  7

 75
     0
147
0.1148885871608098
148
0.0
149
0.0
100
AcDbLayout
  1
Model
 70
     1
 71
     0
 10
0.0
 20
0.0
 11
12.0
 21
9.0
 12
0.0
 22
0.0
 32
0.0
 14
0.0
 24
0.0
 34
0.0
 15
0.0
 25
0.0
 35
0.0
146
0.0
 13
0.0
 23
0.0
 33
0.0
 16
1.0
 26
0.0
 36
0.0
 17
0.0
 27
1.0
 37
0.0
 76
     0
330
1F
331
EA
1001
ACAD_PSEXT
1000
None
1000
None
1000
Not applicable
1000
The layout will not be plotted unless a new plotter configuration name is selected.
1070
     0
  0
MATERIAL
  5
ED
102
{ACAD_XDICTIONARY
360
1108
102
}
102
{ACAD_REACTORS
330
6A
102
}
330
6A
100
AcDbMaterial
  1
ByBlock
  0
MATERIAL
  5
EC
102
{ACAD_XDICTIONARY
360
1106
102
}
102
{ACAD_REACTORS
330
6A
102
}
330
6A
100
AcDbMaterial
  1
ByLayer
  0
MATERIAL
  5
EE
102
{ACAD_XDICTIONARY
360
173
102
}
102
{ACAD_REACTORS
330
6A
102
}
330
6A
100
AcDbMaterial
  1
Global
 43
0.0007999999797903
 43
0.0
 43
0.0
 43
0.0
 43
0.0
 43
0.0007999999797903
 43
0.0
 43
0.0
 43
0.0
 43
0.0
 43
1.0
 43
0.0
 43
0.0
 43
0.0
 43
0.0
 43
1.0
 49
0.0007999999797903
 49
0.0
 49
0.0
 49
0.0
 49
0.0
 49
0.0007999999797903
 49
0.0
 49
0.0
 49
0.0
 49
0.0
 49
1.0
 49
0.0
 49
0.0
 49
0.0
 49
0.0
 49
1.0
142
0.0007999999797903
142
0.0
142
0.0
142
0.0
142
0.0
142
0.0007999999797903
142
0.0
142
0.0
142
0.0
142
0.0
142
1.0
142
0.0
142
0.0
142
0.0
142
0.0
142
1.0
144
0.0007999999797903
144
0.0
144
0.0
144
0.0
144
0.0
144
0.0007999999797903
144
0.0
144
0.0
144
0.0
144
0.0
144
1.0
144
0.0
144
0.0
144
0.0
144
0.0
144
1.0
1001
ACAD
1070
    -1
1070
     3
1070
     0
1000

1071
        0
1070
     0
  0
MLEADERSTYLE
  5
13B
102
{ACAD_REACTORS
330
12D
102
}
330
12D
100
AcDbMLeaderStyle
170
     2
171
     1
172
     0
 90
        2
 40
0.0
 41
0.0
173
     1
 91
-1056964608
340
14
 92
       -2
290
     1
 42
2.0
291
     1
 43
8.0
  3
Standard
 44
4.0
300

342
11
174
     1
178
     1
175
     1
176
     0
 93
-1056964608
 45
4.0
292
     0
297
     0
 46
4.0
 94
-1056964608
 47
1.0
 49
1.0
140
1.0
293
     1
141
0.0
294
     1
177
     0
142
1.0
295
     0
296
     1
143
3.75
1001
ACAD_MLEADERVER
1070
     2
  0
MLEADERSTYLE
  5
12E
102
{ACAD_REACTORS
330
12D
102
}
330
12D
100
AcDbMLeaderStyle
170
     2
171
     1
172
     0
 90
        2
 40
0.0
 41
0.0
173
     1
 91
-1056964608
340
14
 92
       -2
290
     1
 42
2.0
291
     1
 43
8.0
  3
Standard
 44
4.0
300

342
11
174
     1
178
     1
175
     1
176
     0
 93
-1056964608
 45
4.0
292
     0
297
     0
 46
4.0
 94
-1056964608
 47
1.0
 49
1.0
140
1.0
293
     1
141
0.0
294
     1
177
     0
142
1.0
295
     0
296
     0
143
3.75
1001
ACAD_MLEADERVER
1070
     2
  0
MLINESTYLE
  5
18
102
{ACAD_REACTORS
330
17
102
}
330
17
100
AcDbMlineStyle
  2
STANDARD
 70
     0
  3

 62
   256
 51
90.0
 52
90.0
 71
     2
 49
0.5
 62
   256
  6
BYLAYER
 49
-0.5
 62
   256
  6
BYLAYER
  0
ACDBPLACEHOLDER
  5
F
102
{ACAD_REACTORS
330
E
102
}
330
E
  0
SCALE
  5
10D
102
{ACAD_REACTORS
330
10C
102
}
330
10C
100
AcDbScale
 70
     0
300
1:1
140
1.0
141
1.0
290
     1
  0
SCALE
  5
188
102
{ACAD_REACTORS
330
10C
102
}
330
10C
100
AcDbScale
 70
     0
300
1:2
140
1.0
141
2.0
290
     0
  0
SCALE
  5
189
102
{ACAD_REACTORS
330
10C
102
}
330
10C
100
AcDbScale
 70
     0
300
1:4
140
1.0
141
4.0
290
     0
  0
SCALE
  5
18A
102
{ACAD_REACTORS
330
10C
102
}
330
10C
100
AcDbScale
 70
     0
300
1:5
140
1.0
141
5.0
290
     0
  0
SCALE
  5
18B
102
{ACAD_REACTORS
330
10C
102
}
330
10C
100
AcDbScale
 70
     0
300
1:8
140
1.0
141
8.0
290
     0
  0
SCALE
  5
18C
102
{ACAD_REACTORS
330
10C
102
}
330
10C
100
AcDbScale
 70
     0
300
1:10
140
1.0
141
10.0
290
     0
  0
SCALE
  5
18D
102
{ACAD_REACTORS
330
10C
102
}
330
10C
100
AcDbScale
 70
     0
300
1:16
140
1.0
141
16.0
290
     0
  0
SCALE
  5
18E
102
{ACAD_REACTORS
330
10C
102
}
330
10C
100
AcDbScale
 70
     0
300
1:20
140
1.0
141
20.0
290
     0
  0
SCALE
  5
18F
102
{ACAD_REACTORS
330
10C
102
}
330
10C
100
AcDbScale
 70
     0
300
1:30
140
1.0
141
30.0
290
     0
  0
SCALE
  5
190
102
{ACAD_REACTORS
330
10C
102
}
330
10C
100
AcDbScale
 70
     0
300
1:40
140
1.0
141
40.0
290
     0
  0
SCALE
  5
191
102
{ACAD_REACTORS
330
10C
102
}
330
10C
100
AcDbScale
 70
     0
300
1:50
140
1.0
141
50.0
290
     0
  0
SCALE
  5
192
102
{ACAD_REACTORS
330
10C
102
}
330
10C
100
AcDbScale
 70
     0
300
1:100
140
1.0
141
100.0
290
     0
  0
SCALE
  5
193
102
{ACAD_REACTORS
330
10C
102
}
330
10C
100
AcDbScale
 70
     0
300
2:1
140
2.0
141
1.0
290
     0
  0
SCALE
  5
194
102
{ACAD_REACTORS
330
10C
102
}
330
10C
100
AcDbScale
 70
     0
300
4:1
140
4.0
141
1.0
290
     0
  0
SCALE
  5
195
102
{ACAD_REACTORS
330
10C
102
}
330
10C
100
AcDbScale
 70
     0
300
8:1
140
8.0
141
1.0
290
     0
  0
SCALE
  5
196
102
{ACAD_REACTORS
330
10C
102
}
330
10C
100
AcDbScale
 70
     0
300
10:1
140
10.0
141
1.0
290
     0
  0
SCALE
  5
197
102
{ACAD_REACTORS
330
10C
102
}
330
10C
100
AcDbScale
 70
     0
300
100:1
140
100.0
141
1.0
290
     0
  0
SCALE
  5
198
102
{ACAD_REACTORS
330
10C
102
}
330
10C
100
AcDbScale
 70
     0
300
1/128" = 1'-0"
140
0.0078125
141
12.0
290
     0
  0
SCALE
  5
199
102
{ACAD_REACTORS
330
10C
102
}
330
10C
100
AcDbScale
 70
     0
300
1/64" = 1'-0"
140
0.015625
141
12.0
290
     0
  0
SCALE
  5
19A
102
{ACAD_REACTORS
330
10C
102
}
330
10C
100
AcDbScale
 70
     0
300
1/32" = 1'-0"
140
0.03125
141
12.0
290
     0
  0
SCALE
  5
19B
102
{ACAD_REACTORS
330
10C
102
}
330
10C
100
AcDbScale
 70
     0
300
1/16" = 1'-0"
140
0.0625
141
12.0
290
     0
  0
SCALE
  5
19C
102
{ACAD_REACTORS
330
10C
102
}
330
10C
100
AcDbScale
 70
     0
300
3/32" = 1'-0"
140
0.09375
141
12.0
290
     0
  0
SCALE
  5
19D
102
{ACAD_REACTORS
330
10C
102
}
330
10C
100
AcDbScale
 70
     0
300
1/8" = 1'-0"
140
0.125
141
12.0
290
     0
  0
SCALE
  5
19E
102
{ACAD_REACTORS
330
10C
102
}
330
10C
100
AcDbScale
 70
     0
300
3/16" = 1'-0"
140
0.1875
141
12.0
290
     0
  0
SCALE
  5
19F
102
{ACAD_REACTORS
330
10C
102
}
330
10C
100
AcDbScale
 70
     0
300
1/4" = 1'-0"
140
0.25
141
12.0
290
     0
  0
SCALE
  5
1A0
102
{ACAD_REACTORS
330
10C
102
}
330
10C
100
AcDbScale
 70
     0
300
3/8" = 1'-0"
140
0.375
141
12.0
290
     0
  0
SCALE
  5
1A1
102
{ACAD_REACTORS
330
10C
102
}
330
10C
100
AcDbScale
 70
     0
300
1/2" = 1'-0"
140
0.5
141
12.0
290
     0
  0
SCALE
  5
1A2
102
{ACAD_REACTORS
330
10C
102
}
330
10C
100
AcDbScale
 70
     0
300
3/4" = 1'-0"
140
0.75
141
12.0
290
     0
  0
SCALE
  5
1A3
102
{ACAD_REACTORS
330
10C
102
}
330
10C
100
AcDbScale
 70
     0
300
1" = 1'-0"
140
1.0
141
12.0
290
     0
  0
SCALE
  5
1A4
102
{ACAD_REACTORS
330
10C
102
}
330
10C
100
AcDbScale
 70
     0
300
1-1/2" = 1'-0"
140
1.5
141
12.0
290
     0
  0
SCALE
  5
1A5
102
{ACAD_REACTORS
330
10C
102
}
330
10C
100
AcDbScale
 70
     0
300
3" = 1'-0"
140
3.0
141
12.0
290
     0
  0
SCALE
  5
1A6
102
{ACAD_REACTORS
330
10C
102
}
330
10C
100
AcDbScale
 70
     0
300
6" = 1'-0"
140
6.0
141
12.0
290
     0
  0
SCALE
  5
1A7
102
{ACAD_REACTORS
330
10C
102
}
330
10C
100
AcDbScale
 70
     0
300
1'-0" = 1'-0"
140
12.0
141
12.0
290
     0
  0
TABLESTYLE
  5
7F
102
{ACAD_XDICTIONARY
360
162
102
}
102
{ACAD_REACTORS
330
7E
102
}
330
7E
100
AcDbTableStyle
  3
Standard
 70
     0
 71
     0
 40
1.5
 41
1.5
280
     0
281
     0
  7
Standard
140
4.5
170
     2
 62
     0
 63
     7
283
     0
274
    -2
284
     1
 64
     0
275
    -2
285
     1
 65
     0
276
    -2
286
     1
 66
     0
277
    -2
287
     1
 67
     0
278
    -2
288
     1
 68
     0
279
    -2
289
     1
 69
     0
  7
Standard
140
6.0
170
     5
 62
     0
 63
     7
283
     0
274
    -2
284
     1
 64
     0
275
    -2
285
     1
 65
     0
276
    -2
286
     1
 66
     0
277
    -2
287
     1
 67
     0
278
    -2
288
     1
 68
     0
279
    -2
289
     1
 69
     0
  7
Standard
140
4.5
170
     5
 62
     0
 63
     7
283
     0
274
    -2
284
     1
 64
     0
275
    -2
285
     1
 65
     0
276
    -2
286
     1
 66
     0
277
    -2
287
     1
 67
     0
278
    -2
288
     1
 68
     0
279
    -2
289
     1
 69
     0
  0
VISUALSTYLE
  5
F5
102
{ACAD_REACTORS
330
EF
102
}
330
EF
100
AcDbVisualStyle
  2
2dWireframe
 70
     4
 71
     0
 72
     2
 73
     1
 90
        0
 40
-0.6
 41
-30.0
 62
     5
 63
     7
 74
     1
 91
        4
 64
     7
 65
   257
 75
     1
175
     1
 42
1.0
 92
        0
 66
   257
 43
1.0
 76
     1
 77
     6
 78
     2
 67
     7
 79
     5
170
     0
171
     0
290
     0
174
     0
 93
        1
 44
0.0
173
     0
291
     0
 45
0.0
1001
ACAD
1000
AcDbSavedByObjectVersion
1070
     0
  0
VISUALSTYLE
  5
F7
102
{ACAD_REACTORS
330
EF
102
}
330
EF
100
AcDbVisualStyle
  2
3D Hidden
 70
     6
 71
     1
 72
     2
 73
     2
 90
        0
 40
-0.6
 41
-30.0
 62
     5
 63
     7
 74
     2
 91
        2
 64
     7
 65
   257
 75
     2
175
     1
 42
40.0
 92
        0
 66
   257
 43
1.0
 76
     1
 77
     6
 78
     2
 67
     7
 79
     3
170
     0
171
     0
290
     0
174
     0
 93
        1
 44
0.0
173
     0
291
     0
 45
0.0
1001
ACAD
1000
AcDbSavedByObjectVersion
1070
     0
  0
VISUALSTYLE
  5
F6
102
{ACAD_REACTORS
330
EF
102
}
330
EF
100
AcDbVisualStyle
  2
3dWireframe
 70
     5
 71
     0
 72
     2
 73
     1
 90
        0
 40
-0.6
 41
-30.0
 62
     5
 63
     7
 74
     1
 91
        4
 64
     7
 65
   257
 75
     1
175
     1
 42
1.0
 92
        0
 66
   257
 43
1.0
 76
     1
 77
     6
 78
     2
 67
     7
 79
     5
170
     0
171
     0
290
     0
174
     0
 93
        1
 44
0.0
173
     0
291
     0
 45
0.0
1001
ACAD
1000
AcDbSavedByObjectVersion
1070
     0
  0
VISUALSTYLE
  5
F4
102
{ACAD_REACTORS
330
EF
102
}
330
EF
100
AcDbVisualStyle
  2
Basic
 70
     7
 71
     1
 72
     0
 73
     1
 90
        0
 40
-0.6
 41
-30.0
 62
     5
 63
     7
 74
     0
 91
        4
 64
     7
 65
   257
 75
     1
175
     1
 42
1.0
 92
        8
 66
     7
 43
1.0
 76
     1
 77
     6
 78
     2
 67
     7
 79
     5
170
     0
171
     0
290
     0
174
     0
 93
        1
 44
0.0
173
     0
291
     1
 45
0.0
1001
ACAD
1000
AcDbSavedByObjectVersion
1070
     0
  0
VISUALSTYLE
  5
FB
102
{ACAD_REACTORS
330
EF
102
}
330
EF
100
AcDbVisualStyle
  2
Brighten
 70
    12
 71
     2
 72
     2
 73
     1
 90
        0
 40
-0.6
 41
-30.0
 62
     5
 63
     7
 74
     1
 91
        4
 64
     7
 65
   257
 75
     1
175
     1
 42
1.0
 92
        8
 66
     7
 43
1.0
 76
     1
 77
     6
 78
     2
 67
     7
 79
     5
170
     0
171
     0
290
     0
174
     0
 93
        1
 44
50.0
173
     0
291
     1
 45
0.0
1001
ACAD
1000
AcDbSavedByObjectVersion
1070
     0
  0
VISUALSTYLE
  5
FF
102
{ACAD_REACTORS
330
EF
102
}
330
EF
100
AcDbVisualStyle
  2
ColorChange
 70
    16
 71
     2
 72
     2
 73
     3
 90
        0
 40
-0.6
 41
-30.0
 62
     5
 63
     8
 74
     1
 91
        4
 64
     7
 65
   257
 75
     1
175
     1
 42
1.0
 92
        8
 66
     8
 43
1.0
 76
     1
 77
     6
 78
     2
 67
     7
 79
     5
170
     0
171
     0
290
     0
174
     0
 93
        1
 44
0.0
173
     0
291
     1
 45
0.0
1001
ACAD
1000
AcDbSavedByObjectVersion
1070
     0
  0
VISUALSTYLE
  5
F8
102
{ACAD_REACTORS
330
EF
102
}
330
EF
100
AcDbVisualStyle
  2
Conceptual
 70
     9
 71
     3
 72
     2
 73
     1
 90
        0
 40
-0.6
 41
-30.0
 62
     5
 63
     7
 74
     2
 91
        2
 64
     7
 65
   257
 75
     1
175
     1
 42
40.0
 92
        8
 66
     7
 43
1.0
 76
     1
 77
     6
 78
     2
 67
     7
 79
     3
170
     0
171
     0
290
     0
174
     0
 93
        1
 44
0.0
173
     0
291
     0
 45
0.0
1001
ACAD
1000
AcDbSavedByObjectVersion
1070
     0
  0
VISUALSTYLE
  5
FA
102
{ACAD_REACTORS
330
EF
102
}
330
EF
100
AcDbVisualStyle
  2
Dim
 70
    11
 71
     2
 72
     2
 73
     1
 90
        0
 40
-0.6
 41
-30.0
 62
     5
 63
     7
 74
     1
 91
        4
 64
     7
 65
   257
 75
     1
175
     1
 42
1.0
 92
        8
 66
     7
 43
1.0
 76
     1
 77
     6
 78
     2
 67
     7
 79
     5
170
     0
171
     0
290
     0
174
     0
 93
        1
 44
-50.0
173
     0
291
     1
 45
0.0
1001
ACAD
1000
AcDbSavedByObjectVersion
1070
     0
  0
VISUALSTYLE
  5
FE
102
{ACAD_REACTORS
330
EF
102
}
330
EF
100
AcDbVisualStyle
  2
Facepattern
 70
    15
 71
     2
 72
     2
 73
     1
 90
        0
 40
-0.6
 41
-30.0
 62
     5
 63
     7
 74
     1
 91
        4
 64
     7
 65
   257
 75
     1
175
     1
 42
1.0
 92
        8
 66
     7
 43
1.0
 76
     1
 77
     6
 78
     2
 67
     7
 79
     5
170
     0
171
     0
290
     0
174
     0
 93
        1
 44
0.0
173
     0
291
     1
 45
0.0
1001
ACAD
1000
AcDbSavedByObjectVersion
1070
     0
  0
VISUALSTYLE
  5
F0
102
{ACAD_REACTORS
330
EF
102
}
330
EF
100
AcDbVisualStyle
  2
Flat
 70
     0
 71
     2
 72
     1
 73
     1
 90
        2
 40
-0.6
 41
30.0
 62
     5
 63
     7
 74
     0
 91
        4
 64
     7
 65
   257
 75
     1
175
     1
 42
1.0
 92
        8
 66
     7
 43
1.0
 76
     1
 77
     6
 78
     2
 67
     7
 79
     5
170
     0
171
     0
290
     0
174
     0
 93
        1
 44
0.0
173
     0
291
     1
 45
0.0
1001
ACAD
1000
AcDbSavedByObjectVersion
1070
     0
  0
VISUALSTYLE
  5
F1
102
{ACAD_REACTORS
330
EF
102
}
330
EF
100
AcDbVisualStyle
  2
FlatWithEdges
 70
     1
 71
     2
 72
     1
 73
     1
 90
        2
 40
-0.6
 41
30.0
 62
     5
 63
     7
 74
     1
 91
        4
 64
     7
 65
   257
 75
     1
175
     1
 42
1.0
 92
        0
 66
   257
 43
1.0
 76
     1
 77
     6
 78
     2
 67
     7
 79
     5
170
     0
171
     0
290
     0
174
     0
 93
        1
 44
0.0
173
     0
291
     1
 45
0.0
1001
ACAD
1000
AcDbSavedByObjectVersion
1070
     0
  0
VISUALSTYLE
  5
F2
102
{ACAD_REACTORS
330
EF
102
}
330
EF
100
AcDbVisualStyle
  2
Gouraud
 70
     2
 71
     2
 72
     2
 73
     1
 90
        2
 40
-0.6
 41
30.0
 62
     5
 63
     7
 74
     0
 91
        4
 64
     7
 65
   257
 75
     1
175
     1
 42
1.0
 92
        0
 66
     7
 43
1.0
 76
     1
 77
     6
 78
     2
 67
     7
 79
     5
170
     0
171
     0
290
     0
174
     0
 93
        1
 44
0.0
173
     0
291
     1
 45
0.0
1001
ACAD
1000
AcDbSavedByObjectVersion
1070
     0
  0
VISUALSTYLE
  5
F3
102
{ACAD_REACTORS
330
EF
102
}
330
EF
100
AcDbVisualStyle
  2
GouraudWithEdges
 70
     3
 71
     2
 72
     2
 73
     1
 90
        2
 40
-0.6
 41
30.0
 62
     5
 63
     7
 74
     1
 91
        4
 64
     7
 65
   257
 75
     1
175
     1
 42
1.0
 92
        0
 66
   257
 43
1.0
 76
     1
 77
     6
 78
     2
 67
     7
 79
     5
170
     0
171
     0
290
     0
174
     0
 93
        1
 44
0.0
173
     0
291
     1
 45
0.0
1001
ACAD
1000
AcDbSavedByObjectVersion
1070
     0
  0
VISUALSTYLE
  5
FD
102
{ACAD_REACTORS
330
EF
102
}
330
EF
100
AcDbVisualStyle
  2
Linepattern
 70
    14
 71
     2
 72
     2
 73
     1
 90
        0
 40
-0.6
 41
-30.0
 62
     5
 63
     7
 74
     1
 91
        4
 64
     7
 65
   257
 75
     7
175
     7
 42
1.0
 92
        8
 66
     7
 43
1.0
 76
     1
 77
     6
 78
     2
 67
     7
 79
     5
170
     0
171
     0
290
     0
174
     0
 93
        1
 44
0.0
173
     0
291
     1
 45
0.0
1001
ACAD
1000
AcDbSavedByObjectVersion
1070
     0
  0
VISUALSTYLE
  5
F9
102
{ACAD_REACTORS
330
EF
102
}
330
EF
100
AcDbVisualStyle
  2
Realistic
 70
     8
 71
     2
 72
     2
 73
     1
 90
        0
 40
-0.6
 41
-30.0
 62
     5
 63
     7
 74
     1
 91
        0
 64
     7
 65
   257
 75
     1
175
     1
 42
1.0
 92
        8
 66
     8
 43
1.0
 76
     1
 77
     6
 78
     2
 67
     7
 79
     5
170
     0
171
     0
290
     0
174
     0
 93
       13
 44
0.0
173
     0
291
     0
 45
0.0
1001
ACAD
1000
AcDbSavedByObjectVersion
1070
     0
  0
VISUALSTYLE
  5
FC
102
{ACAD_REACTORS
330
EF
102
}
330
EF
100
AcDbVisualStyle
  2
Thicken
 70
    13
 71
     2
 72
     2
 73
     1
 90
        0
 40
-0.6
 41
-30.0
 62
     5
 63
     7
 74
     1
 91
        4
 64
     7
 65
   257
 75
     1
175
     1
 42
1.0
 92
       12
 66
     7
 43
1.0
 76
     1
 77
     6
 78
     2
 67
     7
 79
     5
170
     0
171
     0
290
     0
174
     0
 93
        1
 44
0.0
173
     0
291
     1
 45
0.0
1001
ACAD
1000
AcDbSavedByObjectVersion
1070
     0
  0
DICTIONARYVAR
  5
146
102
{ACAD_REACTORS
330
5E
102
}
330
5E
100
DictionaryVariables
280
     0
  1
1:1
  0
DICTIONARYVAR
  5
145
102
{ACAD_REACTORS
330
5E
102
}
330
5E
100
DictionaryVariables
280
     0
  1
STANDARD
  0
DICTIONARYVAR
  5
84
102
{ACAD_REACTORS
330
5E
102
}
330
5E
100
DictionaryVariables
280
     0
  1
STANDARD
  0
DICTIONARYVAR
  5
5F
102
{ACAD_REACTORS
330
5E
102
}
330
5E
100
DictionaryVariables
280
     0
  1
2
  0
DICTIONARYVAR
  5
63
102
{ACAD_REACTORS
330
5E
102
}
330
5E
100
DictionaryVariables
280
     0
  1
1
  0
DICTIONARYVAR
  5
10FA
102
{ACAD_REACTORS
330
5E
102
}
330
5E
100
DictionaryVariables
280
     0
  1
0
  0
DICTIONARYVAR
  5
10F8
102
{ACAD_REACTORS
330
5E
102
}
330
5E
100
DictionaryVariables
280
     0
  1
2
  0
DICTIONARYVAR
  5
10F7
102
{ACAD_REACTORS
330
5E
102
}
330
5E
100
DictionaryVariables
280
     0
  1
1
  0
DICTIONARYVAR
  5
10FC
102
{ACAD_REACTORS
330
5E
102
}
330
5E
100
DictionaryVariables
280
     0
  1
80.000000
  0
DICTIONARYVAR
  5
10FB
102
{ACAD_REACTORS
330
5E
102
}
330
5E
100
DictionaryVariables
280
     0
  1
5.000000
  0
DICTIONARYVAR
  5
10F9
102
{ACAD_REACTORS
330
5E
102
}
330
5E
100
DictionaryVariables
280
     0
  1
127
  0
DICTIONARY
  5
1102
330
D3
100
AcDbDictionary
280
     1
281
     1
  3
ACAD_XREC_ROUNDTRIP
360
1103
  0
DICTIONARY
  5
1104
330
D7
100
AcDbDictionary
280
     1
281
     1
  3
ACAD_XREC_ROUNDTRIP
360
1105
  0
DICTIONARY
  5
10FF
330
22
100
AcDbDictionary
280
     1
281
     1
  3
ACAD_XREC_ROUNDTRIP
360
1100
  0
DICTIONARY
  5
1108
330
ED
100
AcDbDictionary
280
     1
281
     1
  3
ACAD_XREC_ROUNDTRIP
360
1109
  0
DICTIONARY
  5
1106
330
EC
100
AcDbDictionary
280
     1
281
     1
  3
ACAD_XREC_ROUNDTRIP
360
1107
  0
DICTIONARY
  5
173
330
EE
100
AcDbDictionary
280
     1
281
     1
  3
ACAD_XREC_ROUNDTRIP
360
110A
  3
BUMPTILE
360
175
  3
DIFFUSETILE
360
174
  3
OPACITYTILE
360
176
  3
REFLECTIONTILE
360
177
  0
DICTIONARY
  5
162
330
7F
100
AcDbDictionary
280
     1
281
     1
  3
ACAD_ROUNDTRIP_2008_TABLESTYLE_CELLSTYLEMAP
360
10FD
  3
ACAD_XREC_ROUNDTRIP
360
1101
  0
XRECORD
  5
1103
102
{ACAD_REACTORS
330
1102
102
}
330
1102
100
AcDbXrecord
280
     1
102
SHADEPLOT
 70
     0
102
SHADEPLOTRESLEVEL
 70
     2
102
SHADEPLOTCUSTOMDPI
 70
   300
  0
XRECORD
  5
1105
102
{ACAD_REACTORS
330
1104
102
}
330
1104
100
AcDbXrecord
280
     1
102
SHADEPLOT
 70
     0
102
SHADEPLOTRESLEVEL
 70
     2
102
SHADEPLOTCUSTOMDPI
 70
   300
  0
XRECORD
  5
1100
102
{ACAD_REACTORS
330
10FF
102
}
330
10FF
100
AcDbXrecord
280
     1
102
SHADEPLOT
 70
     0
102
SHADEPLOTRESLEVEL
 70
     2
102
SHADEPLOTCUSTOMDPI
 70
   300
  0
XRECORD
  5
1109
102
{ACAD_REACTORS
330
1108
102
}
330
1108
100
AcDbXrecord
280
     1
102
MATERIAL
148
0.0
149
0.0
149
0.0
 93
        0
 94
       63
282
     0
 72
     1
 77
     1
171
     1
175
     1
179
     1
273
     0
  0
XRECORD
  5
1107
102
{ACAD_REACTORS
330
1106
102
}
330
1106
100
AcDbXrecord
280
     1
102
MATERIAL
148
0.0
149
0.0
149
0.0
 93
        0
 94
       63
282
     0
 72
     1
 77
     1
171
     1
175
     1
179
     1
273
     0
  0
XRECORD
  5
110A
102
{ACAD_REACTORS
330
173
102
}
330
173
100
AcDbXrecord
280
     1
102
MATERIAL
148
0.0
149
0.0
149
0.0
 93
        0
 94
       63
282
     0
 72
     1
 77
     1
171
     1
175
     1
179
     1
273
     0
  0
XRECORD
  5
175
102
{ACAD_REACTORS
330
173
102
}
330
173
100
AcDbXrecord
280
     1
270
     1
271
     1
  0
XRECORD
  5
174
102
{ACAD_REACTORS
330
173
102
}
330
173
100
AcDbXrecord
280
     1
270
     1
271
     1
  0
XRECORD
  5
176
102
{ACAD_REACTORS
330
173
102
}
330
173
100
AcDbXrecord
280
     1
270
     1
271
     1
  0
XRECORD
  5
177
102
{ACAD_REACTORS
330
173
102
}
330
173
100
AcDbXrecord
280
     1
270
     1
271
     1
  0
CELLSTYLEMAP
  5
10FD
102
{ACAD_REACTORS
330
162
102
}
330
162
100
AcDbCellStyleMap
 90
        3
300
CELLSTYLE
  1
TABLEFORMAT_BEGIN
 90
        5
170
     1
 91
        0
 92
    32768
 62
   257
 93
        1
300
CONTENTFORMAT
  1
CONTENTFORMAT_BEGIN
 90
        0
 91
        0
 92
      512
 93
        0
300

 40
0.0
140
1.0
 94
        5
 62
     0
340
11
144
6.0
309
CONTENTFORMAT_END
171
     1
301
MARGIN
  1
CELLMARGIN_BEGIN
 40
1.5
 40
1.5
 40
1.5
 40
1.5
 40
4.5
 40
4.5
309
CELLMARGIN_END
 94
        6
 95
        1
302
GRIDFORMAT
  1
GRIDFORMAT_BEGIN
 90
        0
 91
        1
 62
     0
 92
       -2
340
14
 93
        0
 40
1.125
309
GRIDFORMAT_END
 95
        2
302
GRIDFORMAT
  1
GRIDFORMAT_BEGIN
 90
        0
 91
        1
 62
     0
 92
       -2
340
14
 93
        0
 40
1.125
309
GRIDFORMAT_END
 95
        4
302
GRIDFORMAT
  1
GRIDFORMAT_BEGIN
 90
        0
 91
        1
 62
     0
 92
       -2
340
14
 93
        0
 40
1.125
309
GRIDFORMAT_END
 95
        8
302
GRIDFORMAT
  1
GRIDFORMAT_BEGIN
 90
        0
 91
        1
 62
     0
 92
       -2
340
14
 93
        0
 40
1.125
309
GRIDFORMAT_END
 95
       16
302
GRIDFORMAT
  1
GRIDFORMAT_BEGIN
 90
        0
 91
        1
 62
     0
 92
       -2
340
14
 93
        0
 40
1.125
309
GRIDFORMAT_END
 95
       32
302
GRIDFORMAT
  1
GRIDFORMAT_BEGIN
 90
        0
 91
        1
 62
     0
 92
       -2
340
14
 93
        0
 40
1.125
309
GRIDFORMAT_END
309
TABLEFORMAT_END
  1
CELLSTYLE_BEGIN
 90
        1
 91
        1
300
_TITLE
309
CELLSTYLE_END
300
CELLSTYLE
  1
TABLEFORMAT_BEGIN
 90
        5
170
     1
 91
        0
 92
        0
 62
   257
 93
        1
300
CONTENTFORMAT
  1
CONTENTFORMAT_BEGIN
 90
        0
 91
        0
 92
      512
 93
        0
300

 40
0.0
140
1.0
 94
        5
 62
     0
340
11
144
4.5
309
CONTENTFORMAT_END
171
     1
301
MARGIN
  1
CELLMARGIN_BEGIN
 40
1.5
 40
1.5
 40
1.5
 40
1.5
 40
4.5
 40
4.5
309
CELLMARGIN_END
 94
        6
 95
        1
302
GRIDFORMAT
  1
GRIDFORMAT_BEGIN
 90
        0
 91
        1
 62
     0
 92
       -2
340
14
 93
        0
 40
1.125
309
GRIDFORMAT_END
 95
        2
302
GRIDFORMAT
  1
GRIDFORMAT_BEGIN
 90
        0
 91
        1
 62
     0
 92
       -2
340
14
 93
        0
 40
1.125
309
GRIDFORMAT_END
 95
        4
302
GRIDFORMAT
  1
GRIDFORMAT_BEGIN
 90
        0
 91
        1
 62
     0
 92
       -2
340
14
 93
        0
 40
1.125
309
GRIDFORMAT_END
 95
        8
302
GRIDFORMAT
  1
GRIDFORMAT_BEGIN
 90
        0
 91
        1
 62
     0
 92
       -2
340
14
 93
        0
 40
1.125
309
GRIDFORMAT_END
 95
       16
302
GRIDFORMAT
  1
GRIDFORMAT_BEGIN
 90
        0
 91
        1
 62
     0
 92
       -2
340
14
 93
        0
 40
1.125
309
GRIDFORMAT_END
 95
       32
302
GRIDFORMAT
  1
GRIDFORMAT_BEGIN
 90
        0
 91
        1
 62
     0
 92
       -2
340
14
 93
        0
 40
1.125
309
GRIDFORMAT_END
309
TABLEFORMAT_END
  1
CELLSTYLE_BEGIN
 90
        2
 91
        1
300
_HEADER
309
CELLSTYLE_END
300
CELLSTYLE
  1
TABLEFORMAT_BEGIN
 90
        5
170
     1
 91
        0
 92
        0
 62
   257
 93
        1
300
CONTENTFORMAT
  1
CONTENTFORMAT_BEGIN
 90
        0
 91
        0
 92
      512
 93
        0
300

 40
0.0
140
1.0
 94
        2
 62
     0
340
11
144
4.5
309
CONTENTFORMAT_END
171
     1
301
MARGIN
  1
CELLMARGIN_BEGIN
 40
1.5
 40
1.5
 40
1.5
 40
1.5
 40
4.5
 40
4.5
309
CELLMARGIN_END
 94
        6
 95
        1
302
GRIDFORMAT
  1
GRIDFORMAT_BEGIN
 90
        0
 91
        1
 62
     0
 92
       -2
340
14
 93
        0
 40
1.125
309
GRIDFORMAT_END
 95
        2
302
GRIDFORMAT
  1
GRIDFORMAT_BEGIN
 90
        0
 91
        1
 62
     0
 92
       -2
340
14
 93
        0
 40
1.125
309
GRIDFORMAT_END
 95
        4
302
GRIDFORMAT
  1
GRIDFORMAT_BEGIN
 90
        0
 91
        1
 62
     0
 92
       -2
340
14
 93
        0
 40
1.125
309
GRIDFORMAT_END
 95
        8
302
GRIDFORMAT
  1
GRIDFORMAT_BEGIN
 90
        0
 91
        1
 62
     0
 92
       -2
340
14
 93
        0
 40
1.125
309
GRIDFORMAT_END
 95
       16
302
GRIDFORMAT
  1
GRIDFORMAT_BEGIN
 90
        0
 91
        1
 62
     0
 92
       -2
340
14
 93
        0
 40
1.125
309
GRIDFORMAT_END
 95
       32
302
GRIDFORMAT
  1
GRIDFORMAT_BEGIN
 90
        0
 91
        1
 62
     0
 92
       -2
340
14
 93
        0
 40
1.125
309
GRIDFORMAT_END
309
TABLEFORMAT_END
  1
CELLSTYLE_BEGIN
 90
        3
 91
        2
300
_DATA
309
CELLSTYLE_END
  0
XRECORD
  5
1101
102
{ACAD_REACTORS
330
162
102
}
330
162
100
AcDbXrecord
280
     1
102
ACAD_ROUNDTRIP_PRE2007_TABLESTYLE
 90
      512
 91
        0
  1

 92
      512
 93
        0
  2

 94
      512
 95
        0
  3

  0
ENDSEC
  0
EOF
