  0
SECTION
  2
HEADER
  9
$ACADVER
  1
AC1015
  9
$ACADMAINTVER
 70
    20
  9
$DWGCODEPAGE
  3
ANSI_1254
  9
$INSBASE
 10
0.0
 20
0.0
 30
0.0
  9
$EXTMIN
 10
1974.191004529613
 20
1203.012997641475
 30
0.0
  9
$EXTMAX
 10
2079.58489471502
 20
1242.586211834531
 30
0.0
  9
$LIMMIN
 10
0.0
 20
0.0
  9
$LIMMAX
 10
420.0
 20
297.0
  9
$ORTHOMODE
 70
     0
  9
$REGENMODE
 70
     1
  9
$FILLMODE
 70
     1
  9
$QTEXTMODE
 70
     0
  9
$MIRRTEXT
 70
     0
  9
$LTSCALE
 40
1.0
  9
$ATTMODE
 70
     1
  9
$TEXTSIZE
 40
2.5
  9
$TRACEWID
 40
1.0
  9
$TEXTSTYLE
  7
Standard
  9
$CLAYER
  8
0
  9
$CELTYPE
  6
ByLayer
  9
$CECOLOR
 62
   256
  9
$CELTSCALE
 40
1.0
  9
$DISPSILH
 70
     0
  9
$DIMSCALE
 40
1.0
  9
$DIMASZ
 40
2.5
  9
$DIMEXO
 40
0.625
  9
$DIMDLI
 40
3.75
  9
$DIMRND
 40
0.0
  9
$DIMDLE
 40
0.0
  9
$DIMEXE
 40
1.25
  9
$DIMTP
 40
0.0
  9
$DIMTM
 40
0.0
  9
$DIMTXT
 40
2.5
  9
$DIMCEN
 40
2.5
  9
$DIMTSZ
 40
0.0
  9
$DIMTOL
 70
     0
  9
$DIMLIM
 70
     0
  9
$DIMTIH
 70
     0
  9
$DIMTOH
 70
     0
  9
$DIMSE1
 70
     0
  9
$DIMSE2
 70
     0
  9
$DIMTAD
 70
     1
  9
$DIMZIN
 70
     8
  9
$DIMBLK
  1

  9
$DIMASO
 70
     1
  9
$DIMSHO
 70
     1
  9
$DIMPOST
  1

  9
$DIMAPOST
  1

  9
$DIMALT
 70
     0
  9
$DIMALTD
 70
     3
  9
$DIMALTF
 40
0.03937007874016
  9
$DIMLFAC
 40
1.0
  9
$DIMTOFL
 70
     1
  9
$DIMTVP
 40
0.0
  9
$DIMTIX
 70
     0
  9
$DIMSOXD
 70
     0
  9
$DIMSAH
 70
     0
  9
$DIMBLK1
  1

  9
$DIMBLK2
  1

  9
$DIMSTYLE
  2
ISO-25
  9
$DIMCLRD
 70
     0
  9
$DIMCLRE
 70
     0
  9
$DIMCLRT
 70
     0
  9
$DIMTFAC
 40
1.0
  9
$DIMGAP
 40
0.625
  9
$DIMJUST
 70
     0
  9
$DIMSD1
 70
     0
  9
$DIMSD2
 70
     0
  9
$DIMTOLJ
 70
     0
  9
$DIMTZIN
 70
     8
  9
$DIMALTZ
 70
     0
  9
$DIMALTTZ
 70
     0
  9
$DIMUPT
 70
     0
  9
$DIMDEC
 70
     2
  9
$DIMTDEC
 70
     2
  9
$DIMALTU
 70
     2
  9
$DIMALTTD
 70
     3
  9
$DIMTXSTY
  7
Standard
  9
$DIMAUNIT
 70
     0
  9
$DIMADEC
 70
     0
  9
$DIMALTRND
 40
0.0
  9
$DIMAZIN
 70
     0
  9
$DIMDSEP
 70
    44
  9
$DIMATFIT
 70
     3
  9
$DIMFRAC
 70
     0
  9
$DIMLDRBLK
  1

  9
$DIMLUNIT
 70
     2
  9
$DIMLWD
 70
    -2
  9
$DIMLWE
 70
    -2
  9
$DIMTMOVE
 70
     0
  9
$LUNITS
 70
     2
  9
$LUPREC
 70
     4
  9
$SKETCHINC
 40
1.0
  9
$FILLETRAD
 40
0.0
  9
$AUNITS
 70
     0
  9
$AUPREC
 70
     0
  9
$MENU
  1
.
  9
$ELEVATION
 40
0.0
  9
$PELEVATION
 40
0.0
  9
$THICKNESS
 40
0.0
  9
$LIMCHECK
 70
     0
  9
$CHAMFERA
 40
0.0
  9
$CHAMFERB
 40
0.0
  9
$CHAMFERC
 40
0.0
  9
$CHAMFERD
 40
0.0
  9
$SKPOLY
 70
     0
  9
$TDCREATE
 40
2458556.683283808
  9
$TDUCREATE
 40
2458556.558283808
  9
$TDUPDATE
 40
2458956.454595463
  9
$TDUUPDATE
 40
2458956.329595463
  9
$TDINDWG
 40
0.0004202083
  9
$TDUSRTIMER
 40
0.0004202083
  9
$USRTIMER
 70
     1
  9
$ANGBASE
 50
0.0
  9
$ANGDIR
 70
     0
  9
$PDMODE
 70
     0
  9
$PDSIZE
 40
0.0
  9
$PLINEWID
 40
0.0
  9
$SPLFRAME
 70
     0
  9
$SPLINETYPE
 70
     6
  9
$SPLINESEGS
 70
     8
  9
$HANDSEED
  5
853
  9
$SURFTAB1
 70
     6
  9
$SURFTAB2
 70
     6
  9
$SURFTYPE
 70
     6
  9
$SURFU
 70
     6
  9
$SURFV
 70
     6
  9
$UCSBASE
  2

  9
$UCSNAME
  2

  9
$UCSORG
 10
0.0
 20
0.0
 30
0.0
  9
$UCSXDIR
 10
1.0
 20
0.0
 30
0.0
  9
$UCSYDIR
 10
0.0
 20
1.0
 30
0.0
  9
$UCSORTHOREF
  2

  9
$UCSORTHOVIEW
 70
     0
  9
$UCSORGTOP
 10
0.0
 20
0.0
 30
0.0
  9
$UCSORGBOTTOM
 10
0.0
 20
0.0
 30
0.0
  9
$UCSORGLEFT
 10
0.0
 20
0.0
 30
0.0
  9
$UCSORGRIGHT
 10
0.0
 20
0.0
 30
0.0
  9
$UCSORGFRONT
 10
0.0
 20
0.0
 30
0.0
  9
$UCSORGBACK
 10
0.0
 20
0.0
 30
0.0
  9
$PUCSBASE
  2

  9
$PUCSNAME
  2

  9
$PUCSORG
 10
0.0
 20
0.0
 30
0.0
  9
$PUCSXDIR
 10
1.0
 20
0.0
 30
0.0
  9
$PUCSYDIR
 10
0.0
 20
1.0
 30
0.0
  9
$PUCSORTHOREF
  2

  9
$PUCSORTHOVIEW
 70
     0
  9
$PUCSORGTOP
 10
0.0
 20
0.0
 30
0.0
  9
$PUCSORGBOTTOM
 10
0.0
 20
0.0
 30
0.0
  9
$PUCSORGLEFT
 10
0.0
 20
0.0
 30
0.0
  9
$PUCSORGRIGHT
 10
0.0
 20
0.0
 30
0.0
  9
$PUCSORGFRONT
 10
0.0
 20
0.0
 30
0.0
  9
$PUCSORGBACK
 10
0.0
 20
0.0
 30
0.0
  9
$USERI1
 70
     0
  9
$USERI2
 70
     0
  9
$USERI3
 70
     0
  9
$USERI4
 70
     0
  9
$USERI5
 70
     0
  9
$USERR1
 40
0.0
  9
$USERR2
 40
0.0
  9
$USERR3
 40
0.0
  9
$USERR4
 40
0.0
  9
$USERR5
 40
0.0
  9
$WORLDVIEW
 70
     1
  9
$SHADEDGE
 70
     3
  9
$SHADEDIF
 70
    70
  9
$TILEMODE
 70
     1
  9
$MAXACTVP
 70
    64
  9
$PINSBASE
 10
0.0
 20
0.0
 30
0.0
  9
$PLIMCHECK
 70
     0
  9
$PEXTMIN
 10
0.0
 20
0.0
 30
0.0
  9
$PEXTMAX
 10
0.0
 20
0.0
 30
0.0
  9
$PLIMMIN
 10
0.0
 20
0.0
  9
$PLIMMAX
 10
12.0
 20
9.0
  9
$UNITMODE
 70
     0
  9
$VISRETAIN
 70
     1
  9
$PLINEGEN
 70
     0
  9
$PSLTSCALE
 70
     1
  9
$TREEDEPTH
 70
  3020
  9
$CMLSTYLE
  2
Standard
  9
$CMLJUST
 70
     0
  9
$CMLSCALE
 40
20.0
  9
$PROXYGRAPHICS
 70
     1
  9
$MEASUREMENT
 70
     1
  9
$CELWEIGHT
370
    -1
  9
$ENDCAPS
280
     0
  9
$JOINSTYLE
280
     0
  9
$LWDISPLAY
290
     0
  9
$INSUNITS
 70
     4
  9
$HYPERLINKBASE
  1

  9
$STYLESHEET
  1

  9
$XEDIT
290
     1
  9
$CEPSNTYPE
380
     0
  9
$PSTYLEMODE
290
     1
  9
$FINGERPRINTGUID
  2
{F35B2526-DC79-49FF-AB30-FEF42E0A2691}
  9
$VERSIONGUID
  2
{846FA3CF-86A4-4728-AFF7-9D64B5A2D433}
  9
$EXTNAMES
290
     1
  9
$PSVPSCALE
 40
0.0
  9
$OLESTARTUP
290
     0
  0
ENDSEC
  0
SECTION
  2
CLASSES
  0
CLASS
  1
ACDBDICTIONARYWDFLT
  2
AcDbDictionaryWithDefault
  3
ObjectDBX Classes
 90
        0
280
     0
281
     0
  0
CLASS
  1
ACDBPLACEHOLDER
  2
AcDbPlaceHolder
  3
ObjectDBX Classes
 90
        0
280
     0
281
     0
  0
CLASS
  1
LAYOUT
  2
AcDbLayout
  3
ObjectDBX Classes
 90
        0
280
     0
281
     0
  0
CLASS
  1
DICTIONARYVAR
  2
AcDbDictionaryVar
  3
ObjectDBX Classes
 90
        0
280
     0
281
     0
  0
CLASS
  1
TABLESTYLE
  2
AcDbTableStyle
  3
ObjectDBX Classes
 90
     4095
280
     0
281
     0
  0
CLASS
  1
MATERIAL
  2
AcDbMaterial
  3
ObjectDBX Classes
 90
     1153
280
     0
281
     0
  0
CLASS
  1
VISUALSTYLE
  2
AcDbVisualStyle
  3
ObjectDBX Classes
 90
     4095
280
     0
281
     0
  0
CLASS
  1
SCALE
  2
AcDbScale
  3
ObjectDBX Classes
 90
     1153
280
     0
281
     0
  0
CLASS
  1
MLEADERSTYLE
  2
AcDbMLeaderStyle
  3
ACDB_MLEADERSTYLE_CLASS
 90
     4095
280
     0
281
     0
  0
CLASS
  1
CELLSTYLEMAP
  2
AcDbCellStyleMap
  3
ObjectDBX Classes
 90
     1152
280
     0
281
     0
  0
ENDSEC
  0
SECTION
  2
TABLES
  0
TABLE
  2
VPORT
  5
8
330
0
100
AcDbSymbolTable
 70
     1
  0
VPORT
  5
EA
330
8
100
AcDbSymbolTableRecord
100
AcDbViewportTableRecord
  2
*Active
 70
     0
 10
0.0
 20
0.0
 11
1.0
 21
1.0
 12
2039.050210718177
 22
1226.323901356792
 13
0.0
 23
0.0
 14
10.0
 24
10.0
 15
10.0
 25
10.0
 16
0.0
 26
0.0
 36
1.0
 17
0.0
 27
0.0
 37
0.0
 40
125.0372155477017
 41
1.903110047846889
 42
50.0
 43
0.0
 44
0.0
 50
0.0
 51
0.0
 71
     0
 72
  1000
 73
     1
 74
     3
 75
     0
 76
     0
 77
     0
 78
     0
281
     0
 65
     1
110
0.0
120
0.0
130
0.0
111
1.0
121
0.0
131
0.0
112
0.0
122
1.0
132
0.0
 79
     0
146
0.0
  0
ENDTAB
  0
TABLE
  2
LTYPE
  5
5
330
0
100
AcDbSymbolTable
 70
     1
  0
LTYPE
  5
14
330
5
100
AcDbSymbolTableRecord
100
AcDbLinetypeTableRecord
  2
ByBlock
 70
     0
  3

 72
    65
 73
     0
 40
0.0
  0
LTYPE
  5
15
330
5
100
AcDbSymbolTableRecord
100
AcDbLinetypeTableRecord
  2
ByLayer
 70
     0
  3

 72
    65
 73
     0
 40
0.0
  0
LTYPE
  5
16
330
5
100
AcDbSymbolTableRecord
100
AcDbLinetypeTableRecord
  2
Continuous
 70
     0
  3
Solid line
 72
    65
 73
     0
 40
0.0
  0
ENDTAB
  0
TABLE
  2
LAYER
  5
2
330
0
100
AcDbSymbolTable
 70
     1
  0
LAYER
  5
10
102
{ACAD_XDICTIONARY
360
13C
102
}
330
2
100
AcDbSymbolTableRecord
100
AcDbLayerTableRecord
  2
0
 70
     0
 62
     7
  6
Continuous
370
    -3
390
F
  0
ENDTAB
  0
TABLE
  2
STYLE
  5
3
330
0
100
AcDbSymbolTable
 70
     2
  0
STYLE
  5
11
330
3
100
AcDbSymbolTableRecord
100
AcDbTextStyleTableRecord
  2
Standard
 70
     0
 40
0.0
 41
1.0
 50
0.0
 71
     0
 42
2.5
  3
txt
  4

  0
STYLE
  5
132
330
3
100
AcDbSymbolTableRecord
100
AcDbTextStyleTableRecord
  2
Annotative
 70
     0
 40
0.0
 41
1.0
 50
0.0
 71
     0
 42
2.5
  3
txt.shx
  4

1001
AcadAnnotative
1000
AnnotativeData
1002
{
1070
     1
1070
     1
1002
}
  0
ENDTAB
  0
TABLE
  2
VIEW
  5
6
330
0
100
AcDbSymbolTable
 70
     0
  0
ENDTAB
  0
TABLE
  2
UCS
  5
7
330
0
100
AcDbSymbolTable
 70
     0
  0
ENDTAB
  0
TABLE
  2
APPID
  5
9
330
0
100
AcDbSymbolTable
 70
     7
  0
APPID
  5
12
330
9
100
AcDbSymbolTableRecord
100
AcDbRegAppTableRecord
  2
ACAD
 70
     0
  0
APPID
  5
9E
330
9
100
AcDbSymbolTableRecord
100
AcDbRegAppTableRecord
  2
ACAD_PSEXT
 70
     0
  0
APPID
  5
133
330
9
100
AcDbSymbolTableRecord
100
AcDbRegAppTableRecord
  2
AcadAnnoPO
 70
     0
  0
APPID
  5
134
330
9
100
AcDbSymbolTableRecord
100
AcDbRegAppTableRecord
  2
AcadAnnotative
 70
     0
  0
APPID
  5
135
330
9
100
AcDbSymbolTableRecord
100
AcDbRegAppTableRecord
  2
ACAD_DSTYLE_DIMJAG
 70
     0
  0
APPID
  5
136
330
9
100
AcDbSymbolTableRecord
100
AcDbRegAppTableRecord
  2
ACAD_DSTYLE_DIMTALN
 70
     0
  0
APPID
  5
165
330
9
100
AcDbSymbolTableRecord
100
AcDbRegAppTableRecord
  2
ACAD_MLEADERVER
 70
     0
  0
ENDTAB
  0
TABLE
  2
DIMSTYLE
  5
A
330
0
100
AcDbSymbolTable
 70
     2
100
AcDbDimStyleTable
 71
     2
340
27
340
137
  0
DIMSTYLE
105
27
330
A
100
AcDbSymbolTableRecord
100
AcDbDimStyleTableRecord
  2
ISO-25
 70
     0
 41
2.5
 42
0.625
 43
3.75
 44
1.25
 73
     0
 74
     0
 77
     1
 78
     8
140
2.5
141
2.5
143
0.03937007874016
147
0.625
171
     3
172
     1
271
     2
272
     2
274
     3
278
    44
283
     0
284
     8
340
11
  0
DIMSTYLE
105
137
330
A
100
AcDbSymbolTableRecord
100
AcDbDimStyleTableRecord
  2
Annotative
 70
     0
 40
0.0
 41
2.5
 42
0.625
 43
3.75
 44
1.25
 73
     0
 74
     0
 77
     1
 78
     8
140
2.5
141
2.5
143
0.03937007874016
147
0.625
171
     3
172
     1
271
     2
272
     2
274
     3
278
    44
283
     0
284
     8
340
11
1001
AcadAnnotative
1000
AnnotativeData
1002
{
1070
     1
1070
     1
1002
}
1001
ACAD_DSTYLE_DIMJAG
1070
   388
1040
1.5
1001
ACAD_DSTYLE_DIMTALN
1070
   392
1070
     0
  0
ENDTAB
  0
TABLE
  2
BLOCK_RECORD
  5
1
330
0
100
AcDbSymbolTable
 70
     5
  0
BLOCK_RECORD
  5
1F
330
1
100
AcDbSymbolTableRecord
100
AcDbBlockTableRecord
  2
*Model_Space
340
22
  0
BLOCK_RECORD
  5
D2
330
1
100
AcDbSymbolTableRecord
100
AcDbBlockTableRecord
  2
*Paper_Space
340
D3
  0
BLOCK_RECORD
  5
D6
330
1
100
AcDbSymbolTableRecord
100
AcDbBlockTableRecord
  2
*Paper_Space0
340
D7
  0
BLOCK_RECORD
  5
601
330
1
100
AcDbSymbolTableRecord
100
AcDbBlockTableRecord
  2
1
340
0
310
2800000020000000200000000100080000000000000400000000000000000000000000000000000000000000000080000080000000808000800000008000800080800000C0C0C000C0DCC000F0CAA6000020400000206000002080000020A0000020C0000020E00000400000004020000040400000406000004080000040A0
310
000040C0000040E00000600000006020000060400000606000006080000060A0000060C0000060E00000800000008020000080400000806000008080000080A0000080C0000080E00000A0000000A0200000A0400000A0600000A0800000A0A00000A0C00000A0E00000C0000000C0200000C0400000C0600000C0800000C0
310
A00000C0C00000C0E00000E0000000E0200000E0400000E0600000E0800000E0A00000E0C00000E0E00040000000400020004000400040006000400080004000A0004000C0004000E00040200000402020004020400040206000402080004020A0004020C0004020E000404000004040200040404000404060004040800040
310
40A0004040C0004040E00040600000406020004060400040606000406080004060A0004060C0004060E00040800000408020004080400040806000408080004080A0004080C0004080E00040A0000040A0200040A0400040A0600040A0800040A0A00040A0C00040A0E00040C0000040C0200040C0400040C0600040C08000
310
40C0A00040C0C00040C0E00040E0000040E0200040E0400040E0600040E0800040E0A00040E0C00040E0E00080000000800020008000400080006000800080008000A0008000C0008000E00080200000802020008020400080206000802080008020A0008020C0008020E00080400000804020008040400080406000804080
310
008040A0008040C0008040E00080600000806020008060400080606000806080008060A0008060C0008060E00080800000808020008080400080806000808080008080A0008080C0008080E00080A0000080A0200080A0400080A0600080A0800080A0A00080A0C00080A0E00080C0000080C0200080C0400080C0600080C0
310
800080C0A00080C0C00080C0E00080E0000080E0200080E0400080E0600080E0800080E0A00080E0C00080E0E000C0000000C0002000C0004000C0006000C0008000C000A000C000C000C000E000C0200000C0202000C0204000C0206000C0208000C020A000C020C000C020E000C0400000C0402000C0404000C0406000C0
310
408000C040A000C040C000C040E000C0600000C0602000C0604000C0606000C0608000C060A000C060C000C060E000C0800000C0802000C0804000C0806000C0808000C080A000C080C000C080E000C0A00000C0A02000C0A04000C0A06000C0A08000C0A0A000C0A0C000C0A0E000C0C00000C0C02000C0C04000C0C06000
310
C0C08000C0C0A000F0FBFF00A4A0A000808080000000FF0000FF000000FFFF00FF000000FF00FF00FFFF0000FFFFFF0000000000000000000000000000000000000000000000000000000000000000000000000000000000000000000000000000000000000000000000000000000000000000000000000000000000000000
310
00000000000000000000000000000000000000000000000000000000000000000000000000000000000000000000000000000000000000000000000000000000000000000000000000000000000000000000000000000000000000000000000000000000000000000000000000000000000000000000000000000000000000
310
00000000000000000000000000000000000000000000000000000000000000000000000000000000000000000000000000000000FFFFFFFFFFFF00FFFFFFFFFFFFFFFFFFFFFFFFFFFF00FFFFFFFFFFFF00000000FFFFFFFFFFFF00FFFFFFFFFFFFFFFFFFFFFFFFFFFF00FFFFFFFFFFFF00000000FFFFFFFFFFFFFFFFFFFFFF
310
FFFFFFFFFFFFFFFFFFFFFFFFFFFFFFFFFF00000000FF00FFFFFF00FFFF00FFFFFF00FFFF00FFFFFF00FFFF00FFFFFF00FF00000000FF00FFFFFF00FFFF00FF00FF00FFFF00FF00FF00FFFF00FFFFFF00FF000000FFFF00FFFFFF00FFFF00FFFFFF00FFFF00FFFFFF00FFFF00FFFFFF00FFFF0000FFFF0000000000FFFF0000
310
000000FFFF0000000000FFFF0000000000FFFF000000FF0000000000FFFF0000000000FFFF0000000000FFFF0000000000FF00000000FF0000000000FFFF0000000000FFFF0000000000FFFF0000000000FF00000000FF0000000000FFFF000000000000000000000000FFFF0000000000FF00000000FF0000000000FFFF00
310
0000000000000000000000FFFF0000000000FF00000000FF0000000000FFFF000000000000000000000000FFFF0000000000FF0000000000FF00000000FFFF000000000000000000000000FFFF00000000FF00000000000000FF000000FFFF000000000000000000000000FFFF00000000FF00000000000000FF000000FFFF
310
000000000000000000000000FFFF000000FF000000000000000000FFFFFFFFFFFFFFFFFFFFFFFFFFFFFFFFFFFFFFFFFFFF000000000000000000000000000000000000000000000000000000000000000000000000000000000000000000000000000000000000000000000000000000000000000000000000000000000000
310
00000000000000000000000000000000000000000000000000000000000000000000000000000000000000000000000000000000000000000000000000000000000000000000000000000000000000000000000000000000000000000000000000000000000000000000000000000000000000000000000000000000000000
310
0000000000000000000000000000000000000000000000000000000000000000000000000000000000000000000000000000000000000000
102
{BLKREFS
331
6D2
102
}
1001
ACAD
1000
DesignCenter Data
1002
{
1070
     1
1070
     4
1002
}
  0
BLOCK_RECORD
  5
6D3
330
1
100
AcDbSymbolTableRecord
100
AcDbBlockTableRecord
  2
2
340
0
310
2800000020000000200000000100080000000000000400000000000000000000000000000000000000000000000080000080000000808000800000008000800080800000C0C0C000C0DCC000F0CAA6000020400000206000002080000020A0000020C0000020E00000400000004020000040400000406000004080000040A0
310
000040C0000040E00000600000006020000060400000606000006080000060A0000060C0000060E00000800000008020000080400000806000008080000080A0000080C0000080E00000A0000000A0200000A0400000A0600000A0800000A0A00000A0C00000A0E00000C0000000C0200000C0400000C0600000C0800000C0
310
A00000C0C00000C0E00000E0000000E0200000E0400000E0600000E0800000E0A00000E0C00000E0E00040000000400020004000400040006000400080004000A0004000C0004000E00040200000402020004020400040206000402080004020A0004020C0004020E000404000004040200040404000404060004040800040
310
40A0004040C0004040E00040600000406020004060400040606000406080004060A0004060C0004060E00040800000408020004080400040806000408080004080A0004080C0004080E00040A0000040A0200040A0400040A0600040A0800040A0A00040A0C00040A0E00040C0000040C0200040C0400040C0600040C08000
310
40C0A00040C0C00040C0E00040E0000040E0200040E0400040E0600040E0800040E0A00040E0C00040E0E00080000000800020008000400080006000800080008000A0008000C0008000E00080200000802020008020400080206000802080008020A0008020C0008020E00080400000804020008040400080406000804080
310
008040A0008040C0008040E00080600000806020008060400080606000806080008060A0008060C0008060E00080800000808020008080400080806000808080008080A0008080C0008080E00080A0000080A0200080A0400080A0600080A0800080A0A00080A0C00080A0E00080C0000080C0200080C0400080C0600080C0
310
800080C0A00080C0C00080C0E00080E0000080E0200080E0400080E0600080E0800080E0A00080E0C00080E0E000C0000000C0002000C0004000C0006000C0008000C000A000C000C000C000E000C0200000C0202000C0204000C0206000C0208000C020A000C020C000C020E000C0400000C0402000C0404000C0406000C0
310
408000C040A000C040C000C040E000C0600000C0602000C0604000C0606000C0608000C060A000C060C000C060E000C0800000C0802000C0804000C0806000C0808000C080A000C080C000C080E000C0A00000C0A02000C0A04000C0A06000C0A08000C0A0A000C0A0C000C0A0E000C0C00000C0C02000C0C04000C0C06000
310
C0C08000C0C0A000F0FBFF00A4A0A000808080000000FF0000FF000000FFFF00FF000000FF00FF00FFFF0000FFFFFF0000000000000000000000000000000000000000000000000000000000000000000000000000000000FFFFFFFFFFFFFFFFFFFFFF00000000000000000000000000000000000000FFFF00000000FF0000
310
00FF0000FF000000000000000000000000000000000000FFFFFFFFFFFFFFFFFFFFFFFFFFFF0000000000000000000000000000000000000000000000000000000000FFFFFFFFFF000000000000000000000000000000000000000000000000000000FF000000FF000000000000000000000000000000000000000000000000
310
000000FF000000FF000000000000000000000000000000000000000000000000000000FF000000FF000000000000000000000000000000000000000000000000000000FF000000FF000000000000000000000000000000000000000000000000000000FF000000FF0000000000000000000000000000000000000000000000
310
00000000FFFFFFFFFF000000000000000000000000000000000000000000000000000000FF000000FF000000000000000000000000000000000000000000000000000000FFFFFFFFFF000000000000000000000000000000000000000000000000000000FF000000FF00000000000000000000000000000000000000000000
310
0000000000FF000000FF000000000000000000000000000000000000000000000000000000FF000000FF0000000000000000000000000000000000000000000000FFFFFFFFFF000000FFFFFFFFFF00000000000000000000000000000000000000FF000000FF000000FF000000FF0000000000000000000000000000000000
310
000000FF0000FF000000FF0000FF000000000000000000000000000000000000000000FF0000FF000000FF0000FF000000000000000000000000000000000000000000FF0000FF000000FF0000FF00000000000000000000000000000000000000000000FF00FF000000FF00FF000000000000000000000000000000000000
310
0000000000FF00FF000000FF00FF0000000000000000000000000000000000000000000000FF00FFFFFFFFFF00FF0000000000000000000000000000000000000000000000FF00FF000000FF00FF000000000000000000000000000000000000000000000000FFFF000000FFFF000000000000000000000000000000000000
310
00000000000000FFFF000000FFFF00000000000000000000000000000000000000000000000000FFFF000000FFFF0000000000000000000000000000000000000000000000000000FF000000FF000000000000000000000000000000000000000000000000000000FF000000FF000000000000000000000000000000000000
310
000000000000000000FFFFFFFFFF000000000000000000000000000000000000000000000000000000000000000000000000000000000000
102
{BLKREFS
331
6F6
102
}
1001
ACAD
1000
DesignCenter Data
1002
{
1070
     1
1070
     4
1002
}
  0
BLOCK_RECORD
  5
6F7
330
1
100
AcDbSymbolTableRecord
100
AcDbBlockTableRecord
  2
3
340
0
310
2800000020000000200000000100080000000000000400000000000000000000000000000000000000000000000080000080000000808000800000008000800080800000C0C0C000C0DCC000F0CAA6000020400000206000002080000020A0000020C0000020E00000400000004020000040400000406000004080000040A0
310
000040C0000040E00000600000006020000060400000606000006080000060A0000060C0000060E00000800000008020000080400000806000008080000080A0000080C0000080E00000A0000000A0200000A0400000A0600000A0800000A0A00000A0C00000A0E00000C0000000C0200000C0400000C0600000C0800000C0
310
A00000C0C00000C0E00000E0000000E0200000E0400000E0600000E0800000E0A00000E0C00000E0E00040000000400020004000400040006000400080004000A0004000C0004000E00040200000402020004020400040206000402080004020A0004020C0004020E000404000004040200040404000404060004040800040
310
40A0004040C0004040E00040600000406020004060400040606000406080004060A0004060C0004060E00040800000408020004080400040806000408080004080A0004080C0004080E00040A0000040A0200040A0400040A0600040A0800040A0A00040A0C00040A0E00040C0000040C0200040C0400040C0600040C08000
310
40C0A00040C0C00040C0E00040E0000040E0200040E0400040E0600040E0800040E0A00040E0C00040E0E00080000000800020008000400080006000800080008000A0008000C0008000E00080200000802020008020400080206000802080008020A0008020C0008020E00080400000804020008040400080406000804080
310
008040A0008040C0008040E00080600000806020008060400080606000806080008060A0008060C0008060E00080800000808020008080400080806000808080008080A0008080C0008080E00080A0000080A0200080A0400080A0600080A0800080A0A00080A0C00080A0E00080C0000080C0200080C0400080C0600080C0
310
800080C0A00080C0C00080C0E00080E0000080E0200080E0400080E0600080E0800080E0A00080E0C00080E0E000C0000000C0002000C0004000C0006000C0008000C000A000C000C000C000E000C0200000C0202000C0204000C0206000C0208000C020A000C020C000C020E000C0400000C0402000C0404000C0406000C0
310
408000C040A000C040C000C040E000C0600000C0602000C0604000C0606000C0608000C060A000C060C000C060E000C0800000C0802000C0804000C0806000C0808000C080A000C080C000C080E000C0A00000C0A02000C0A04000C0A06000C0A08000C0A0A000C0A0C000C0A0E000C0C00000C0C02000C0C04000C0C06000
310
C0C08000C0C0A000F0FBFF00A4A0A000808080000000FF0000FF000000FFFF00FF000000FF00FF00FFFF0000FFFFFF0000000000000000000000000000000000000000000000000000000000000000000000000000000000000000000000000000000000000000000000000000000000000000000000000000000000000000
310
00000000000000000000000000000000000000000000000000000000000000000000000000000000000000000000000000000000000000000000000000000000000000000000000000000000000000000000000000000000000000000000000000000000000000000000000000000000000000000000000000000000000000
310
00000000000000000000000000000000000000000000000000000000000000000000000000000000000000000000000000000000000000000000000000000000000000000000000000000000000000000000000000000000000000000000000000000000000000000000000000000000000000000000000000000000000000
310
000000000000000000000000000000000000000000FFFF0000FFFF00FFFF000000FFFFFFFF000000FFFF00FFFF0000FFFF00000000FFFF0000FFFF00FFFF0000FF00FFFF00FF0000FFFF00FFFF0000FFFF00000000FFFFFFFFFFFF00FF00FFFFFF00FFFF00FFFFFF00FF00FFFFFFFFFFFF00000000FF00000000FFFFFF0000
310
000000FFFF0000000000FFFFFF00000000FF0000000000FF000000FFFFFFFF00000000FF00FF00000000FFFFFF00000000FF000000FFFFFFFFFFFFFFFFFFFFFFFFFFFFFFFFFFFFFFFFFFFFFFFFFFFFFFFFFFFF0000FFFF0000FF0000000000000000000000000000000000000000FF0000FFFF0000FFFFFFFFFFFFFFFFFFFF
310
FFFFFFFFFFFFFFFFFFFFFFFFFFFFFFFFFFFFFFFF000000000000000000FFFF000000000000000000000000FFFF00000000000000000000000000000000FFFF000000000000000000000000FFFF0000000000000000000000000000000000000000000000000000000000000000000000000000000000000000000000000000
310
00000000000000000000000000000000000000000000000000000000000000000000000000000000000000000000000000000000000000000000000000000000000000000000000000000000000000000000000000000000000000000000000000000000000000000000000000000000000000000000000000000000000000
310
00000000000000000000000000000000000000000000000000000000000000000000000000000000000000000000000000000000000000000000000000000000000000000000000000000000000000000000000000000000000000000000000000000000000000000000000000000000000000000000000000000000000000
310
0000000000000000000000000000000000000000000000000000000000000000000000000000000000000000000000000000000000000000
102
{BLKREFS
331
74A
102
}
1001
ACAD
1000
DesignCenter Data
1002
{
1070
     1
1070
     4
1002
}
  0
BLOCK_RECORD
  5
74B
330
1
100
AcDbSymbolTableRecord
100
AcDbBlockTableRecord
  2
4
340
0
310
2800000020000000200000000100080000000000000400000000000000000000000000000000000000000000000080000080000000808000800000008000800080800000C0C0C000C0DCC000F0CAA6000020400000206000002080000020A0000020C0000020E00000400000004020000040400000406000004080000040A0
310
000040C0000040E00000600000006020000060400000606000006080000060A0000060C0000060E00000800000008020000080400000806000008080000080A0000080C0000080E00000A0000000A0200000A0400000A0600000A0800000A0A00000A0C00000A0E00000C0000000C0200000C0400000C0600000C0800000C0
310
A00000C0C00000C0E00000E0000000E0200000E0400000E0600000E0800000E0A00000E0C00000E0E00040000000400020004000400040006000400080004000A0004000C0004000E00040200000402020004020400040206000402080004020A0004020C0004020E000404000004040200040404000404060004040800040
310
40A0004040C0004040E00040600000406020004060400040606000406080004060A0004060C0004060E00040800000408020004080400040806000408080004080A0004080C0004080E00040A0000040A0200040A0400040A0600040A0800040A0A00040A0C00040A0E00040C0000040C0200040C0400040C0600040C08000
310
40C0A00040C0C00040C0E00040E0000040E0200040E0400040E0600040E0800040E0A00040E0C00040E0E00080000000800020008000400080006000800080008000A0008000C0008000E00080200000802020008020400080206000802080008020A0008020C0008020E00080400000804020008040400080406000804080
310
008040A0008040C0008040E00080600000806020008060400080606000806080008060A0008060C0008060E00080800000808020008080400080806000808080008080A0008080C0008080E00080A0000080A0200080A0400080A0600080A0800080A0A00080A0C00080A0E00080C0000080C0200080C0400080C0600080C0
310
800080C0A00080C0C00080C0E00080E0000080E0200080E0400080E0600080E0800080E0A00080E0C00080E0E000C0000000C0002000C0004000C0006000C0008000C000A000C000C000C000E000C0200000C0202000C0204000C0206000C0208000C020A000C020C000C020E000C0400000C0402000C0404000C0406000C0
310
408000C040A000C040C000C040E000C0600000C0602000C0604000C0606000C0608000C060A000C060C000C060E000C0800000C0802000C0804000C0806000C0808000C080A000C080C000C080E000C0A00000C0A02000C0A04000C0A06000C0A08000C0A0A000C0A0C000C0A0E000C0C00000C0C02000C0C04000C0C06000
310
C0C08000C0C0A000F0FBFF00A4A0A000808080000000FF0000FF000000FFFF00FF000000FF00FF00FFFF0000FFFFFF000000000000000000000000000000000000000000000000000000000000000000000000000000000000000000000000000000000000000000000000000000000000000000000000FFFFFF0000000000
310
00000000000000000000000000000000000000000000FFFFFFFFFF0000000000000000000000000000000000000000000000000000FFFF00FFFFFFFFFFFF00000000000000000000000000000000000000000000FFFFFF00FFFFFFFF00FFFFFF00000000000000000000000000000000000000FFFF00FFFF000000FFFFFFFF
310
FF00000000000000000000000000000000000000FFFF00FF00FFFFFFFFFFFFFFFF00FFFFFF000000000000000000000000000000FFFF00FFFFFFFF00FF0000FFFFFFFFFFFF00FF000000000000000000000000FFFFFF00FFFFFFFFFF00FF00FFFFFFFFFFFFFFFF000000000000000000000000FFFFFF0000FFFFFFFF0000FF
310
FFFF0000FFFF00FF00FFFF00000000000000000000FFFF00000000FFFF00FF0000FFFFFF00FFFFFFFFFFFFFF000000000000000000FFFF00000000FFFFFFFFFF00FFFFFF0000FFFFFFFFFFFFFFFF00000000000000FFFF00000000FFFFFFFFFF00FFFFFFFF00FFFFFF00FFFF00FF00000000000000FFFF00000000FFFF00FF
310
0000FFFF00FFFFFF00FFFFFFFFFFFFFFFFFFFF000000FF00FF000000FFFFFF000000FFFF00FFFF00FFFFFF00FFFFFFFFFFFFFF000000FF0000FF0000FFFFFF000000FFFF00FFFF00FFFFFFFF000000FFFF000000000000FF00FF0000FFFFFF000000FFFF0000FF00FFFFFF00FFFFFF0000000000000000FF0000FF00FF00FF
310
000000000000000000FFFFFFFFFF00FF000000000000000000FFFF00FFFFFF00000000000000000000FFFFFF00FF00FF000000000000000000FF00000000FFFF000000000000000000FFFFFFFFFF00FF00000000000000000000FFFF00000000FF0000000000000000FFFFFF000000FF000000000000000000000000FFFF00
310
0000FFFF000000000000FFFFFF000000FF0000000000000000000000000000FFFF000000FFFF00000000FFFF00000000FF00000000000000000000000000000000FFFF000000FFFF0000FFFF00000000FF000000000000000000000000000000000000FFFF000000FF00FFFF00000000FF0000000000000000000000000000
310
000000000000FFFF0000FFFFFF00000000FF00000000000000000000000000000000000000000000FFFF0000FFFF00FFFF00000000000000000000000000000000000000000000000000FFFF0000FF00FF000000000000000000000000000000000000000000000000000000FFFFFFFF000000000000000000000000000000
310
0000000000000000000000000000000000000000000000000000000000000000000000000000000000000000000000000000000000000000
102
{BLKREFS
331
838
102
}
1001
ACAD
1000
DesignCenter Data
1002
{
1070
     1
1070
     4
1002
}
  0
ENDTAB
  0
ENDSEC
  0
SECTION
  2
BLOCKS
  0
BLOCK
  5
20
330
1F
100
AcDbEntity
  8
0
100
AcDbBlockBegin
  2
*Model_Space
 70
     0
 10
0.0
 20
0.0
 30
0.0
  3
*Model_Space
  1

  0
ENDBLK
  5
21
330
1F
100
AcDbEntity
  8
0
100
AcDbBlockEnd
  0
BLOCK
  5
D4
330
D2
100
AcDbEntity
 67
     1
  8
0
100
AcDbBlockBegin
  2
*Paper_Space
 70
     0
 10
0.0
 20
0.0
 30
0.0
  3
*Paper_Space
  1

  0
ENDBLK
  5
D5
330
D2
100
AcDbEntity
 67
     1
  8
0
100
AcDbBlockEnd
  0
BLOCK
  5
D8
330
D6
100
AcDbEntity
 67
     1
  8
0
100
AcDbBlockBegin
  2
*Paper_Space0
 70
     0
 10
0.0
 20
0.0
 30
0.0
  3
*Paper_Space0
  1

  0
ENDBLK
  5
D9
330
D6
100
AcDbEntity
 67
     1
  8
0
100
AcDbBlockEnd
  0
BLOCK
  5
602
330
601
100
AcDbEntity
  8
0
100
AcDbBlockBegin
  2
1
 70
     0
 10
0.0
 20
0.0
 30
0.0
  3
1
  1

  0
LINE
  5
604
330
601
100
AcDbEntity
  8
0
  6
Continuous
 62
     7
370
    15
100
AcDbLine
 10
2000.609671003111
 20
1227.611140881162
 30
0.0
 11
2000.991764250137
 21
1227.611140881162
 31
0.0
  0
LINE
  5
605
330
601
100
AcDbEntity
  8
0
  6
Continuous
 62
     7
370
    15
100
AcDbLine
 10
2000.991764250137
 20
1227.611140881162
 30
0.0
 11
2000.991764250137
 21
1226.726011906247
 31
0.0
  0
LINE
  5
606
330
601
100
AcDbEntity
  8
0
  6
Continuous
 62
     7
370
    15
100
AcDbLine
 10
2000.609671003111
 20
1226.91114393292
 30
0.0
 11
2000.991764250137
 21
1226.726011906247
 31
0.0
  0
LINE
  5
607
330
601
100
AcDbEntity
  8
0
  6
Continuous
 62
     7
370
    15
100
AcDbLine
 10
2000.609671003111
 20
1226.91114393292
 30
0.0
 11
2000.609671003111
 21
1227.611140881162
 31
0.0
  0
LINE
  5
608
330
601
100
AcDbEntity
  8
0
  6
Continuous
 62
     7
370
    15
100
AcDbLine
 10
1999.609670839198
 20
1226.91114393292
 30
0.0
 11
1999.609670839198
 21
1227.611140881162
 31
0.0
  0
LINE
  5
609
330
601
100
AcDbEntity
  8
0
  6
Continuous
 62
     7
370
    15
100
AcDbLine
 10
1999.609670839198
 20
1227.611140881162
 30
0.0
 11
2000.609671003111
 21
1227.611140881162
 31
0.0
  0
LINE
  5
60A
330
601
100
AcDbEntity
  8
0
  6
Continuous
 62
     7
370
    15
100
AcDbLine
 10
2000.609671003111
 20
1226.91114393292
 30
0.0
 11
1999.609670839198
 21
1226.91114393292
 31
0.0
  0
LINE
  5
60B
330
601
100
AcDbEntity
  8
0
  6
Continuous
 62
     7
370
    15
100
AcDbLine
 10
2004.60967096027
 20
1227.611140881162
 30
0.0
 11
2004.60967096027
 21
1226.91114393292
 31
0.0
  0
LINE
  5
60C
330
601
100
AcDbEntity
  8
0
  6
Continuous
 62
     7
370
    15
100
AcDbLine
 10
2004.60967096027
 20
1227.611140881162
 30
0.0
 11
2005.609671007767
 21
1227.611140881162
 31
0.0
  0
LINE
  5
60D
330
601
100
AcDbEntity
  8
0
  6
Continuous
 62
     7
370
    15
100
AcDbLine
 10
2005.609671007767
 20
1226.91114393292
 30
0.0
 11
2005.609671007767
 21
1227.611140881162
 31
0.0
  0
LINE
  5
60E
330
601
100
AcDbEntity
  8
0
  6
Continuous
 62
     7
370
    15
100
AcDbLine
 10
2005.609671007767
 20
1226.91114393292
 30
0.0
 11
2004.60967096027
 21
1226.91114393292
 31
0.0
  0
LINE
  5
60F
330
601
100
AcDbEntity
  8
0
  6
Continuous
 62
     7
370
    15
100
AcDbLine
 10
2004.227577713244
 20
1227.611140881162
 30
0.0
 11
2004.60967096027
 21
1227.611140881162
 31
0.0
  0
LINE
  5
610
330
601
100
AcDbEntity
  8
0
  6
Continuous
 62
     7
370
    15
100
AcDbLine
 10
2004.227577713244
 20
1226.726011906247
 30
0.0
 11
2004.60967096027
 21
1226.91114393292
 31
0.0
  0
LINE
  5
611
330
601
100
AcDbEntity
  8
0
  6
Continuous
 62
     7
370
    15
100
AcDbLine
 10
2004.227577713244
 20
1226.726011906247
 30
0.0
 11
2004.227577713244
 21
1227.611140881162
 31
0.0
  0
LINE
  5
612
330
601
100
AcDbEntity
  8
0
  6
Continuous
 62
     7
370
    15
100
AcDbLine
 10
2025.441765091307
 20
1227.611140881162
 30
0.0
 11
2025.05967137862
 21
1227.611140881162
 31
0.0
  0
LINE
  5
613
330
601
100
AcDbEntity
  8
0
  6
Continuous
 62
     7
370
    15
100
AcDbLine
 10
2025.441765091307
 20
1226.726011906247
 30
0.0
 11
2025.441765091307
 21
1227.611140881162
 31
0.0
  0
LINE
  5
614
330
601
100
AcDbEntity
  8
0
  6
Continuous
 62
     7
370
    15
100
AcDbLine
 10
2025.05967137862
 20
1226.91114393292
 30
0.0
 11
2025.441765091307
 21
1226.726011906247
 31
0.0
  0
LINE
  5
615
330
601
100
AcDbEntity
  8
0
  6
Continuous
 62
     7
370
    15
100
AcDbLine
 10
2025.05967137862
 20
1227.611140881162
 30
0.0
 11
2025.05967137862
 21
1226.91114393292
 31
0.0
  0
LINE
  5
616
330
601
100
AcDbEntity
  8
0
  6
Continuous
 62
     7
370
    15
100
AcDbLine
 10
2024.059671214707
 20
1226.91114393292
 30
0.0
 11
2024.059671214707
 21
1227.611140881162
 31
0.0
  0
LINE
  5
617
330
601
100
AcDbEntity
  8
0
  6
Continuous
 62
     7
370
    15
100
AcDbLine
 10
2025.05967137862
 20
1227.611140881162
 30
0.0
 11
2024.059671214707
 21
1227.611140881162
 31
0.0
  0
LINE
  5
618
330
601
100
AcDbEntity
  8
0
  6
Continuous
 62
     7
370
    15
100
AcDbLine
 10
2025.05967137862
 20
1226.91114393292
 30
0.0
 11
2024.059671214707
 21
1226.91114393292
 31
0.0
  0
LINE
  5
619
330
601
100
AcDbEntity
  8
0
  6
Continuous
 62
     7
370
    15
100
AcDbLine
 10
2004.227577713244
 20
1226.726011906247
 30
0.0
 11
2004.176623425372
 21
1226.61121336041
 31
0.0
  0
LINE
  5
61A
330
601
100
AcDbEntity
  8
0
  6
Continuous
 62
     7
370
    15
100
AcDbLine
 10
2005.609671007767
 20
1226.61121336041
 30
0.0
 11
2005.609671007767
 21
1226.91114393292
 31
0.0
  0
LINE
  5
61B
330
601
100
AcDbEntity
  8
0
  6
Continuous
 62
     7
370
    15
100
AcDbLine
 10
2004.176623425372
 20
1226.61121336041
 30
0.0
 11
2005.609671007767
 21
1226.61121336041
 31
0.0
  0
LINE
  5
61C
330
601
100
AcDbEntity
  8
0
  6
Continuous
 62
     7
370
    15
100
AcDbLine
 10
2016.90967125345
 20
1227.611140881162
 30
0.0
 11
2015.909671089537
 21
1227.611140881162
 31
0.0
  0
LINE
  5
61D
330
601
100
AcDbEntity
  8
0
  6
Continuous
 62
     7
370
    15
100
AcDbLine
 10
2016.90967125345
 20
1227.611140881162
 30
0.0
 11
2016.90967125345
 21
1226.91114393292
 31
0.0
  0
LINE
  5
61E
330
601
100
AcDbEntity
  8
0
  6
Continuous
 62
     7
370
    15
100
AcDbLine
 10
2015.909671089537
 20
1226.91114393292
 30
0.0
 11
2016.90967125345
 21
1226.91114393292
 31
0.0
  0
LINE
  5
61F
330
601
100
AcDbEntity
  8
0
  6
Continuous
 62
     7
370
    15
100
AcDbLine
 10
2015.909671089537
 20
1227.611140881162
 30
0.0
 11
2015.909671089537
 21
1226.91114393292
 31
0.0
  0
LINE
  5
620
330
601
100
AcDbEntity
  8
0
  6
Continuous
 62
     7
370
    15
100
AcDbLine
 10
2021.909671141691
 20
1227.611140881162
 30
0.0
 11
2020.909670977779
 21
1227.611140881162
 31
0.0
  0
LINE
  5
621
330
601
100
AcDbEntity
  8
0
  6
Continuous
 62
     7
370
    15
100
AcDbLine
 10
2021.909671141691
 20
1227.611140881162
 30
0.0
 11
2021.909671141691
 21
1226.91114393292
 31
0.0
  0
LINE
  5
622
330
601
100
AcDbEntity
  8
0
  6
Continuous
 62
     7
370
    15
100
AcDbLine
 10
2020.909670977779
 20
1226.91114393292
 30
0.0
 11
2021.909671141691
 21
1226.91114393292
 31
0.0
  0
LINE
  5
623
330
601
100
AcDbEntity
  8
0
  6
Continuous
 62
     7
370
    15
100
AcDbLine
 10
2020.909670977779
 20
1226.91114393292
 30
0.0
 11
2020.909670977779
 21
1227.611140881162
 31
0.0
  0
LINE
  5
624
330
601
100
AcDbEntity
  8
0
  6
Continuous
 62
     7
370
    15
100
AcDbLine
 10
2017.291764034815
 20
1227.611140881162
 30
0.0
 11
2016.90967125345
 21
1227.611140881162
 31
0.0
  0
LINE
  5
625
330
601
100
AcDbEntity
  8
0
  6
Continuous
 62
     7
370
    15
100
AcDbLine
 10
2017.291764034815
 20
1226.726011906247
 30
0.0
 11
2017.291764034815
 21
1227.611140881162
 31
0.0
  0
LINE
  5
626
330
601
100
AcDbEntity
  8
0
  6
Continuous
 62
     7
370
    15
100
AcDbLine
 10
2017.291764034815
 20
1226.726011906247
 30
0.0
 11
2016.90967125345
 21
1226.91114393292
 31
0.0
  0
LINE
  5
627
330
601
100
AcDbEntity
  8
0
  6
Continuous
 62
     7
370
    15
100
AcDbLine
 10
2007.759670964368
 20
1226.91114393292
 30
0.0
 11
2008.75967089545
 21
1226.91114393292
 31
0.0
  0
LINE
  5
628
330
601
100
AcDbEntity
  8
0
  6
Continuous
 62
     7
370
    15
100
AcDbLine
 10
2009.141764375307
 20
1226.726011906247
 30
0.0
 11
2008.75967089545
 21
1226.91114393292
 31
0.0
  0
LINE
  5
629
330
601
100
AcDbEntity
  8
0
  6
Continuous
 62
     7
370
    15
100
AcDbLine
 10
2009.192718430348
 20
1226.61121336041
 30
0.0
 11
2009.141764375307
 21
1226.726011906247
 31
0.0
  0
LINE
  5
62A
330
601
100
AcDbEntity
  8
0
  6
Continuous
 62
     7
370
    15
100
AcDbLine
 10
2009.192718430348
 20
1226.61121336041
 30
0.0
 11
2007.759670964368
 21
1226.61121336041
 31
0.0
  0
LINE
  5
62B
330
601
100
AcDbEntity
  8
0
  6
Continuous
 62
     7
370
    15
100
AcDbLine
 10
2007.759670964368
 20
1226.61121336041
 30
0.0
 11
2007.759670964368
 21
1226.91114393292
 31
0.0
  0
LINE
  5
62C
330
601
100
AcDbEntity
  8
0
  6
Continuous
 62
     7
370
    15
100
AcDbLine
 10
2017.342718555517
 20
1226.61121336041
 30
0.0
 11
2017.291764034815
 21
1226.726011906247
 31
0.0
  0
LINE
  5
62D
330
601
100
AcDbEntity
  8
0
  6
Continuous
 62
     7
370
    15
100
AcDbLine
 10
2017.342718555517
 20
1226.61121336041
 30
0.0
 11
2015.909671089537
 21
1226.61121336041
 31
0.0
  0
LINE
  5
62E
330
601
100
AcDbEntity
  8
0
  6
Continuous
 62
     7
370
    15
100
AcDbLine
 10
2015.909671089537
 20
1226.61121336041
 30
0.0
 11
2015.909671089537
 21
1226.91114393292
 31
0.0
  0
LINE
  5
62F
330
601
100
AcDbEntity
  8
0
  6
Continuous
 62
     7
370
    15
100
AcDbLine
 10
2020.527577265091
 20
1227.611140881162
 30
0.0
 11
2020.527577265091
 21
1226.726011906247
 31
0.0
  0
LINE
  5
630
330
601
100
AcDbEntity
  8
0
  6
Continuous
 62
     7
370
    15
100
AcDbLine
 10
2020.909670977779
 20
1227.611140881162
 30
0.0
 11
2020.527577265091
 21
1227.611140881162
 31
0.0
  0
LINE
  5
631
330
601
100
AcDbEntity
  8
0
  6
Continuous
 62
     7
370
    15
100
AcDbLine
 10
2020.909670977779
 20
1226.91114393292
 30
0.0
 11
2020.527577265091
 21
1226.726011906247
 31
0.0
  0
LINE
  5
632
330
601
100
AcDbEntity
  8
0
  6
Continuous
 62
     7
370
    15
100
AcDbLine
 10
2029.059670171626
 20
1226.91114393292
 30
0.0
 11
2029.059670171626
 21
1227.611140881162
 31
0.0
  0
LINE
  5
633
330
601
100
AcDbEntity
  8
0
  6
Continuous
 62
     7
370
    15
100
AcDbLine
 10
2030.059670335539
 20
1227.611140881162
 30
0.0
 11
2029.059670171626
 21
1227.611140881162
 31
0.0
  0
LINE
  5
634
330
601
100
AcDbEntity
  8
0
  6
Continuous
 62
     7
370
    15
100
AcDbLine
 10
2030.059670335539
 20
1226.91114393292
 30
0.0
 11
2029.059670171626
 21
1226.91114393292
 31
0.0
  0
LINE
  5
635
330
601
100
AcDbEntity
  8
0
  6
Continuous
 62
     7
370
    15
100
AcDbLine
 10
2030.059670335539
 20
1226.91114393292
 30
0.0
 11
2030.059670335539
 21
1227.611140881162
 31
0.0
  0
LINE
  5
636
330
601
100
AcDbEntity
  8
0
  6
Continuous
 62
     7
370
    15
100
AcDbLine
 10
2029.059670171626
 20
1227.611140881162
 30
0.0
 11
2028.677578321584
 21
1227.611140881162
 31
0.0
  0
LINE
  5
637
330
601
100
AcDbEntity
  8
0
  6
Continuous
 62
     7
370
    15
100
AcDbLine
 10
2028.677578321584
 20
1226.726011906247
 30
0.0
 11
2029.059670171626
 21
1226.91114393292
 31
0.0
  0
LINE
  5
638
330
601
100
AcDbEntity
  8
0
  6
Continuous
 62
     7
370
    15
100
AcDbLine
 10
2028.677578321584
 20
1227.611140881162
 30
0.0
 11
2028.677578321584
 21
1226.726011906247
 31
0.0
  0
LINE
  5
639
330
601
100
AcDbEntity
  8
0
  6
Continuous
 62
     7
370
    15
100
AcDbLine
 10
2001.042718305178
 20
1226.61121336041
 30
0.0
 11
2000.991764250137
 21
1226.726011906247
 31
0.0
  0
LINE
  5
63A
330
601
100
AcDbEntity
  8
0
  6
Continuous
 62
     7
370
    15
100
AcDbLine
 10
1999.609670839198
 20
1226.61121336041
 30
0.0
 11
2001.042718305178
 21
1226.61121336041
 31
0.0
  0
LINE
  5
63B
330
601
100
AcDbEntity
  8
0
  6
Continuous
 62
     7
370
    15
100
AcDbLine
 10
1999.609670839198
 20
1226.91114393292
 30
0.0
 11
1999.609670839198
 21
1226.61121336041
 31
0.0
  0
LINE
  5
63C
330
601
100
AcDbEntity
  8
0
  6
Continuous
 62
     7
370
    15
100
AcDbLine
 10
2012.759670852609
 20
1226.91114393292
 30
0.0
 11
2013.759671016522
 21
1226.91114393292
 31
0.0
  0
LINE
  5
63D
330
601
100
AcDbEntity
  8
0
  6
Continuous
 62
     7
370
    15
100
AcDbLine
 10
2013.759671016522
 20
1226.61121336041
 30
0.0
 11
2012.326623550542
 21
1226.61121336041
 31
0.0
  0
LINE
  5
63E
330
601
100
AcDbEntity
  8
0
  6
Continuous
 62
     7
370
    15
100
AcDbLine
 10
2012.377577605583
 20
1226.726011906247
 30
0.0
 11
2012.326623550542
 21
1226.61121336041
 31
0.0
  0
LINE
  5
63F
330
601
100
AcDbEntity
  8
0
  6
Continuous
 62
     7
370
    15
100
AcDbLine
 10
2012.759670852609
 20
1226.91114393292
 30
0.0
 11
2012.377577605583
 21
1226.726011906247
 31
0.0
  0
LINE
  5
640
330
601
100
AcDbEntity
  8
0
  6
Continuous
 62
     7
370
    15
100
AcDbLine
 10
2013.759671016522
 20
1226.91114393292
 30
0.0
 11
2013.759671016522
 21
1226.61121336041
 31
0.0
  0
LINE
  5
641
330
601
100
AcDbEntity
  8
0
  6
Continuous
 62
     7
370
    15
100
AcDbLine
 10
2021.909671141691
 20
1226.61121336041
 30
0.0
 11
2020.476623675711
 21
1226.61121336041
 31
0.0
  0
LINE
  5
642
330
601
100
AcDbEntity
  8
0
  6
Continuous
 62
     7
370
    15
100
AcDbLine
 10
2020.527577265091
 20
1226.726011906247
 30
0.0
 11
2020.476623675711
 21
1226.61121336041
 31
0.0
  0
LINE
  5
643
330
601
100
AcDbEntity
  8
0
  6
Continuous
 62
     7
370
    15
100
AcDbLine
 10
2021.909671141691
 20
1226.91114393292
 30
0.0
 11
2021.909671141691
 21
1226.61121336041
 31
0.0
  0
LINE
  5
644
330
601
100
AcDbEntity
  8
0
  6
Continuous
 62
     7
370
    15
100
AcDbLine
 10
2028.626623800881
 20
1226.61121336041
 30
0.0
 11
2030.059670335539
 21
1226.61121336041
 31
0.0
  0
LINE
  5
645
330
601
100
AcDbEntity
  8
0
  6
Continuous
 62
     7
370
    15
100
AcDbLine
 10
2028.677578321584
 20
1226.726011906247
 30
0.0
 11
2028.626623800881
 21
1226.61121336041
 31
0.0
  0
LINE
  5
646
330
601
100
AcDbEntity
  8
0
  6
Continuous
 62
     7
370
    15
100
AcDbLine
 10
2030.059670335539
 20
1226.61121336041
 30
0.0
 11
2030.059670335539
 21
1226.91114393292
 31
0.0
  0
LINE
  5
647
330
601
100
AcDbEntity
  8
0
  6
Continuous
 62
     7
370
    15
100
AcDbLine
 10
2025.492717749365
 20
1226.61121336041
 30
0.0
 11
2025.441765091307
 21
1226.726011906247
 31
0.0
  0
LINE
  5
648
330
601
100
AcDbEntity
  8
0
  6
Continuous
 62
     7
370
    15
100
AcDbLine
 10
2024.059671214707
 20
1226.61121336041
 30
0.0
 11
2025.492717749365
 21
1226.61121336041
 31
0.0
  0
LINE
  5
649
330
601
100
AcDbEntity
  8
0
  6
Continuous
 62
     7
370
    15
100
AcDbLine
 10
2024.059671214707
 20
1226.91114393292
 30
0.0
 11
2024.059671214707
 21
1226.61121336041
 31
0.0
  0
LINE
  5
64A
330
601
100
AcDbEntity
  8
0
  6
Continuous
 62
     7
370
    15
100
AcDbLine
 10
2012.377577605583
 20
1226.726011906247
 30
0.0
 11
2012.377577605583
 21
1227.611140881162
 31
0.0
  0
LINE
  5
64B
330
601
100
AcDbEntity
  8
0
  6
Continuous
 62
     7
370
    15
100
AcDbLine
 10
2012.759670852609
 20
1227.611140881162
 30
0.0
 11
2012.759670852609
 21
1226.91114393292
 31
0.0
  0
LINE
  5
64C
330
601
100
AcDbEntity
  8
0
  6
Continuous
 62
     7
370
    15
100
AcDbLine
 10
2012.377577605583
 20
1227.611140881162
 30
0.0
 11
2012.759670852609
 21
1227.611140881162
 31
0.0
  0
LINE
  5
64D
330
601
100
AcDbEntity
  8
0
  6
Continuous
 62
     7
370
    15
100
AcDbLine
 10
2012.759670852609
 20
1227.611140881162
 30
0.0
 11
2013.759671016522
 21
1227.611140881162
 31
0.0
  0
LINE
  5
64E
330
601
100
AcDbEntity
  8
0
  6
Continuous
 62
     7
370
    15
100
AcDbLine
 10
2013.759671016522
 20
1227.611140881162
 30
0.0
 11
2013.759671016522
 21
1226.91114393292
 31
0.0
  0
LINE
  5
64F
330
601
100
AcDbEntity
  8
0
  6
Continuous
 62
     7
370
    15
100
AcDbLine
 10
2008.75967089545
 20
1226.91114393292
 30
0.0
 11
2008.75967089545
 21
1227.611140881162
 31
0.0
  0
LINE
  5
650
330
601
100
AcDbEntity
  8
0
  6
Continuous
 62
     7
370
    15
100
AcDbLine
 10
2007.759670964368
 20
1227.611140881162
 30
0.0
 11
2008.75967089545
 21
1227.611140881162
 31
0.0
  0
LINE
  5
651
330
601
100
AcDbEntity
  8
0
  6
Continuous
 62
     7
370
    15
100
AcDbLine
 10
2007.759670964368
 20
1227.611140881162
 30
0.0
 11
2007.759670964368
 21
1226.91114393292
 31
0.0
  0
LINE
  5
652
330
601
100
AcDbEntity
  8
0
  6
Continuous
 62
     7
370
    15
100
AcDbLine
 10
2009.141764375307
 20
1227.611140881162
 30
0.0
 11
2009.141764375307
 21
1226.726011906247
 31
0.0
  0
LINE
  5
653
330
601
100
AcDbEntity
  8
0
  6
Continuous
 62
     7
370
    15
100
AcDbLine
 10
2008.75967089545
 20
1227.611140881162
 30
0.0
 11
2009.141764375307
 21
1227.611140881162
 31
0.0
  0
LINE
  5
654
330
601
100
AcDbEntity
  8
0
  6
Continuous
 62
     7
370
    15
100
AcDbLine
 10
2001.114236428328
 20
1226.61121336041
 30
0.0
 11
2001.114236428328
 21
1227.611140881162
 31
0.0
  0
LINE
  5
655
330
601
100
AcDbEntity
  8
0
  6
Continuous
 62
     7
370
    15
100
AcDbLine
 10
2001.042718305178
 20
1226.61121336041
 30
0.0
 11
2001.114236428328
 21
1226.61121336041
 31
0.0
  0
LINE
  5
656
330
601
100
AcDbEntity
  8
0
  6
Continuous
 62
     7
370
    15
100
AcDbLine
 10
2000.991764250137
 20
1227.611140881162
 30
0.0
 11
2001.114236428328
 21
1227.611140881162
 31
0.0
  0
LINE
  5
657
330
601
100
AcDbEntity
  8
0
  6
Continuous
 62
     7
370
    15
100
AcDbLine
 10
2028.626623800881
 20
1226.61121336041
 30
0.0
 11
2028.555105677731
 21
1226.61121336041
 31
0.0
  0
LINE
  5
658
330
601
100
AcDbEntity
  8
0
  6
Continuous
 62
     7
370
    15
100
AcDbLine
 10
2028.555105677731
 20
1226.61121336041
 30
0.0
 11
2028.555105677731
 21
1227.611140881162
 31
0.0
  0
LINE
  5
659
330
601
100
AcDbEntity
  8
0
  6
Continuous
 62
     7
370
    15
100
AcDbLine
 10
2028.677578321584
 20
1227.611140881162
 30
0.0
 11
2028.555105677731
 21
1227.611140881162
 31
0.0
  0
LINE
  5
65A
330
601
100
AcDbEntity
  8
0
  6
Continuous
 62
     7
370
    15
100
AcDbLine
 10
2004.105105535053
 20
1226.61121336041
 30
0.0
 11
2004.176623425372
 21
1226.61121336041
 31
0.0
  0
LINE
  5
65B
330
601
100
AcDbEntity
  8
0
  6
Continuous
 62
     7
370
    15
100
AcDbLine
 10
2004.105105535053
 20
1226.61121336041
 30
0.0
 11
2004.105105535053
 21
1227.611140881162
 31
0.0
  0
LINE
  5
65C
330
601
100
AcDbEntity
  8
0
  6
Continuous
 62
     7
370
    15
100
AcDbLine
 10
2004.105105535053
 20
1227.611140881162
 30
0.0
 11
2004.227577713244
 21
1227.611140881162
 31
0.0
  0
LINE
  5
65D
330
601
100
AcDbEntity
  8
0
  6
Continuous
 62
     7
370
    15
100
AcDbLine
 10
2009.264236320667
 20
1226.61121336041
 30
0.0
 11
2009.264236320667
 21
1227.611140881162
 31
0.0
  0
LINE
  5
65E
330
601
100
AcDbEntity
  8
0
  6
Continuous
 62
     7
370
    15
100
AcDbLine
 10
2009.192718430348
 20
1226.61121336041
 30
0.0
 11
2009.264236320667
 21
1226.61121336041
 31
0.0
  0
LINE
  5
65F
330
601
100
AcDbEntity
  8
0
  6
Continuous
 62
     7
370
    15
100
AcDbLine
 10
2009.141764375307
 20
1227.611140881162
 30
0.0
 11
2009.264236320667
 21
1227.611140881162
 31
0.0
  0
LINE
  5
660
330
601
100
AcDbEntity
  8
0
  6
Continuous
 62
     7
370
    15
100
AcDbLine
 10
2020.476623675711
 20
1226.61121336041
 30
0.0
 11
2020.405105552562
 21
1226.61121336041
 31
0.0
  0
LINE
  5
661
330
601
100
AcDbEntity
  8
0
  6
Continuous
 62
     7
370
    15
100
AcDbLine
 10
2020.405105552562
 20
1226.61121336041
 30
0.0
 11
2020.405105552562
 21
1227.611140881162
 31
0.0
  0
LINE
  5
662
330
601
100
AcDbEntity
  8
0
  6
Continuous
 62
     7
370
    15
100
AcDbLine
 10
2020.527577265091
 20
1227.611140881162
 30
0.0
 11
2020.405105552562
 21
1227.611140881162
 31
0.0
  0
LINE
  5
663
330
601
100
AcDbEntity
  8
0
  6
Continuous
 62
     7
370
    15
100
AcDbLine
 10
2025.564235872514
 20
1226.61121336041
 30
0.0
 11
2025.564235872514
 21
1227.611140881162
 31
0.0
  0
LINE
  5
664
330
601
100
AcDbEntity
  8
0
  6
Continuous
 62
     7
370
    15
100
AcDbLine
 10
2025.564235872514
 20
1226.61121336041
 30
0.0
 11
2025.492717749365
 21
1226.61121336041
 31
0.0
  0
LINE
  5
665
330
601
100
AcDbEntity
  8
0
  6
Continuous
 62
     7
370
    15
100
AcDbLine
 10
2025.564235872514
 20
1227.611140881162
 30
0.0
 11
2025.441765091307
 21
1227.611140881162
 31
0.0
  0
LINE
  5
666
330
601
100
AcDbEntity
  8
0
  6
Continuous
 62
     7
370
    15
100
AcDbLine
 10
2017.414236678667
 20
1226.61121336041
 30
0.0
 11
2017.414236678667
 21
1227.611140881162
 31
0.0
  0
LINE
  5
667
330
601
100
AcDbEntity
  8
0
  6
Continuous
 62
     7
370
    15
100
AcDbLine
 10
2017.414236678667
 20
1226.61121336041
 30
0.0
 11
2017.342718555517
 21
1226.61121336041
 31
0.0
  0
LINE
  5
668
330
601
100
AcDbEntity
  8
0
  6
Continuous
 62
     7
370
    15
100
AcDbLine
 10
2017.414236678667
 20
1227.611140881162
 30
0.0
 11
2017.291764034815
 21
1227.611140881162
 31
0.0
  0
LINE
  5
669
330
601
100
AcDbEntity
  8
0
  6
Continuous
 62
     7
370
    15
100
AcDbLine
 10
2012.255105427392
 20
1226.61121336041
 30
0.0
 11
2012.326623550542
 21
1226.61121336041
 31
0.0
  0
LINE
  5
66A
330
601
100
AcDbEntity
  8
0
  6
Continuous
 62
     7
370
    15
100
AcDbLine
 10
2012.255105427392
 20
1226.61121336041
 30
0.0
 11
2012.255105427392
 21
1227.611140881162
 31
0.0
  0
LINE
  5
66B
330
601
100
AcDbEntity
  8
0
  6
Continuous
 62
     7
370
    15
100
AcDbLine
 10
2012.255105427392
 20
1227.611140881162
 30
0.0
 11
2012.377577605583
 21
1227.611140881162
 31
0.0
  0
LINE
  5
66C
330
601
100
AcDbEntity
  8
0
  6
Continuous
 62
     7
370
    15
100
AcDbLine
 10
2001.114236428328
 20
1226.61121336041
 30
0.0
 11
2004.105105535053
 21
1226.61121336041
 31
0.0
  0
LINE
  5
66D
330
601
100
AcDbEntity
  8
0
  6
Continuous
 62
     7
370
    15
100
AcDbLine
 10
2001.114236428328
 20
1227.611140881162
 30
0.0
 11
2004.105105535053
 21
1227.611140881162
 31
0.0
  0
LINE
  5
66E
330
601
100
AcDbEntity
  8
0
  6
Continuous
 62
     7
370
    15
100
AcDbLine
 10
2020.405105552562
 20
1226.61121336041
 30
0.0
 11
2017.414236678667
 21
1226.61121336041
 31
0.0
  0
LINE
  5
66F
330
601
100
AcDbEntity
  8
0
  6
Continuous
 62
     7
370
    15
100
AcDbLine
 10
2020.405105552562
 20
1227.611140881162
 30
0.0
 11
2017.414236678667
 21
1227.611140881162
 31
0.0
  0
LINE
  5
670
330
601
100
AcDbEntity
  8
0
  6
Continuous
 62
     7
370
    15
100
AcDbLine
 10
2028.555105677731
 20
1226.61121336041
 30
0.0
 11
2025.564235872514
 21
1226.61121336041
 31
0.0
  0
LINE
  5
671
330
601
100
AcDbEntity
  8
0
  6
Continuous
 62
     7
370
    15
100
AcDbLine
 10
2028.555105677731
 20
1227.611140881162
 30
0.0
 11
2025.564235872514
 21
1227.611140881162
 31
0.0
  0
LINE
  5
672
330
601
100
AcDbEntity
  8
0
  6
Continuous
 62
     7
370
    15
100
AcDbLine
 10
2009.264236320667
 20
1226.61121336041
 30
0.0
 11
2012.255105427392
 21
1226.61121336041
 31
0.0
  0
LINE
  5
673
330
601
100
AcDbEntity
  8
0
  6
Continuous
 62
     7
370
    15
100
AcDbLine
 10
2009.264236320667
 20
1227.611140881162
 30
0.0
 11
2012.255105427392
 21
1227.611140881162
 31
0.0
  0
LINE
  5
674
330
601
100
AcDbEntity
  8
0
  6
Continuous
 62
     7
370
    15
100
AcDbLine
 10
2006.084670957569
 20
1241.986112270933
 30
0.0
 11
2006.084670957569
 21
1234.986142788511
 31
0.0
  0
LINE
  5
675
330
601
100
AcDbEntity
  8
0
  6
Continuous
 62
     7
370
    15
100
AcDbLine
 10
2007.284670956358
 20
1241.986112270933
 30
0.0
 11
2006.084670957569
 21
1241.986112270933
 31
0.0
  0
LINE
  5
676
330
601
100
AcDbEntity
  8
0
  6
Continuous
 62
     7
370
    15
100
AcDbLine
 10
2007.284670956358
 20
1241.986112270933
 30
0.0
 11
2007.284670956358
 21
1234.986142788511
 31
0.0
  0
LINE
  5
677
330
601
100
AcDbEntity
  8
0
  6
Continuous
 62
     7
370
    15
100
AcDbLine
 10
2006.084670957569
 20
1234.986142788511
 30
0.0
 11
2007.284670956358
 21
1234.986142788511
 31
0.0
  0
LINE
  5
678
330
601
100
AcDbEntity
  8
0
  6
Continuous
 62
     7
370
    15
100
AcDbLine
 10
2022.384670800455
 20
1241.986112270933
 30
0.0
 11
2023.584670624621
 21
1241.986112270933
 31
0.0
  0
LINE
  5
679
330
601
100
AcDbEntity
  8
0
  6
Continuous
 62
     7
370
    15
100
AcDbLine
 10
2023.584670624621
 20
1241.986112270933
 30
0.0
 11
2023.584670624621
 21
1234.986142788511
 31
0.0
  0
LINE
  5
67A
330
601
100
AcDbEntity
  8
0
  6
Continuous
 62
     7
370
    15
100
AcDbLine
 10
2022.384670800455
 20
1241.986112270933
 30
0.0
 11
2022.384670800455
 21
1234.986142788511
 31
0.0
  0
LINE
  5
67B
330
601
100
AcDbEntity
  8
0
  6
Continuous
 62
     7
370
    15
100
AcDbLine
 10
2023.584670624621
 20
1234.986142788511
 30
0.0
 11
2022.384670800455
 21
1234.986142788511
 31
0.0
  0
LINE
  5
67C
330
601
100
AcDbEntity
  8
0
  6
Continuous
 62
     7
370
    15
100
AcDbLine
 10
2020.009670643993
 20
1229.911164913755
 30
0.0
 11
2020.009670643993
 21
1231.911139164548
 31
0.0
  0
LINE
  5
67D
330
601
100
AcDbEntity
  8
0
  6
Continuous
 62
     7
370
    15
100
AcDbLine
 10
2020.009670643993
 20
1231.911139164548
 30
0.0
 11
2017.809670655914
 21
1231.911139164548
 31
0.0
  0
LINE
  5
67E
330
601
100
AcDbEntity
  8
0
  6
Continuous
 62
     7
370
    15
100
AcDbLine
 10
2017.809670655914
 20
1231.911139164548
 30
0.0
 11
2017.809670655914
 21
1229.911164913755
 31
0.0
  0
LINE
  5
67F
330
601
100
AcDbEntity
  8
0
  6
Continuous
 62
     7
370
    15
100
AcDbLine
 10
2017.809670655914
 20
1229.911164913755
 30
0.0
 11
2020.009670643993
 21
1229.911164913755
 31
0.0
  0
LINE
  5
680
330
601
100
AcDbEntity
  8
0
  6
Continuous
 62
     7
370
    15
100
AcDbLine
 10
2003.709670859314
 20
1229.911164913755
 30
0.0
 11
2003.709670859314
 21
1231.911139164548
 31
0.0
  0
LINE
  5
681
330
601
100
AcDbEntity
  8
0
  6
Continuous
 62
     7
370
    15
100
AcDbLine
 10
2003.709670859314
 20
1231.911139164548
 30
0.0
 11
2001.509670871235
 21
1231.911139164548
 31
0.0
  0
LINE
  5
682
330
601
100
AcDbEntity
  8
0
  6
Continuous
 62
     7
370
    15
100
AcDbLine
 10
2001.509670871235
 20
1231.911139164548
 30
0.0
 11
2001.509670871235
 21
1229.911164913755
 31
0.0
  0
LINE
  5
683
330
601
100
AcDbEntity
  8
0
  6
Continuous
 62
     7
370
    15
100
AcDbLine
 10
2001.509670871235
 20
1229.911164913755
 30
0.0
 11
2003.709670859314
 21
1229.911164913755
 31
0.0
  0
LINE
  5
684
330
601
100
AcDbEntity
  8
0
  6
Continuous
 62
     7
370
    15
100
AcDbLine
 10
2011.859670984484
 20
1229.911164913755
 30
0.0
 11
2011.859670984484
 21
1231.911139164548
 31
0.0
  0
LINE
  5
685
330
601
100
AcDbEntity
  8
0
  6
Continuous
 62
     7
370
    15
100
AcDbLine
 10
2011.859670984484
 20
1231.911139164548
 30
0.0
 11
2009.659670996405
 21
1231.911139164548
 31
0.0
  0
LINE
  5
686
330
601
100
AcDbEntity
  8
0
  6
Continuous
 62
     7
370
    15
100
AcDbLine
 10
2009.659670996405
 20
1231.911139164548
 30
0.0
 11
2009.659670996405
 21
1229.911164913755
 31
0.0
  0
LINE
  5
687
330
601
100
AcDbEntity
  8
0
  6
Continuous
 62
     7
370
    15
100
AcDbLine
 10
2009.659670996405
 20
1229.911164913755
 30
0.0
 11
2011.859670984484
 21
1229.911164913755
 31
0.0
  0
LINE
  5
688
330
601
100
AcDbEntity
  8
0
  6
Continuous
 62
     7
370
    15
100
AcDbLine
 10
2028.159671700485
 20
1229.911164913755
 30
0.0
 11
2028.159671700485
 21
1231.911139164548
 31
0.0
  0
LINE
  5
689
330
601
100
AcDbEntity
  8
0
  6
Continuous
 62
     7
370
    15
100
AcDbLine
 10
2028.159671700485
 20
1231.911139164548
 30
0.0
 11
2025.959671712406
 21
1231.911139164548
 31
0.0
  0
LINE
  5
68A
330
601
100
AcDbEntity
  8
0
  6
Continuous
 62
     7
370
    15
100
AcDbLine
 10
2025.959671712406
 20
1231.911139164548
 30
0.0
 11
2025.959671712406
 21
1229.911164913755
 31
0.0
  0
LINE
  5
68B
330
601
100
AcDbEntity
  8
0
  6
Continuous
 62
     7
370
    15
100
AcDbLine
 10
2025.959671712406
 20
1229.911164913755
 30
0.0
 11
2028.159671700485
 21
1229.911164913755
 31
0.0
  0
LINE
  5
68C
330
601
100
AcDbEntity
  8
0
  6
Continuous
 62
     7
370
    15
100
AcDbLine
 10
2014.309671013541
 20
1231.4861580473
 30
0.0
 11
2014.309671013541
 21
1232.636170063596
 31
0.0
  0
LINE
  5
68D
330
601
100
AcDbEntity
  8
0
  6
Continuous
 62
     7
370
    15
100
AcDbLine
 10
2014.059670972563
 20
1231.4861580473
 30
0.0
 11
2014.309671013541
 21
1231.4861580473
 31
0.0
  0
LINE
  5
68E
330
601
100
AcDbEntity
  8
0
  6
Continuous
 62
     7
370
    15
100
AcDbLine
 10
1999.309670883156
 20
1231.4861580473
 30
0.0
 11
1999.309670883156
 21
1227.911190662961
 31
0.0
  0
LINE
  5
68F
330
601
100
AcDbEntity
  8
0
  6
Continuous
 62
     7
370
    15
100
AcDbLine
 10
1999.059670842178
 20
1231.4861580473
 30
0.0
 11
1999.309670883156
 21
1231.4861580473
 31
0.0
  0
LINE
  5
690
330
601
100
AcDbEntity
  8
0
  6
Continuous
 62
     7
370
    15
100
AcDbLine
 10
1999.059670842178
 20
1232.636170063596
 30
0.0
 11
1999.059670842178
 21
1231.4861580473
 31
0.0
  0
LINE
  5
691
330
601
100
AcDbEntity
  8
0
  6
Continuous
 62
     7
370
    15
100
AcDbLine
 10
1999.309670883156
 20
1232.636170063596
 30
0.0
 11
1999.059670842178
 21
1232.636170063596
 31
0.0
  0
LINE
  5
692
330
601
100
AcDbEntity
  8
0
  6
Continuous
 62
     7
370
    15
100
AcDbLine
 10
1999.309670883156
 20
1232.636170063596
 30
0.0
 11
1999.309670883156
 21
1238.586144123655
 31
0.0
  0
ARC
  5
693
330
601
100
AcDbEntity
  8
0
  6
Continuous
 62
     7
370
    15
100
AcDbCircle
 10
2003.309670970328
 20
1238.586156026261
 30
0.0
 40
4.0
100
AcDbArc
 50
90.0
 51
180.0
  0
LINE
  5
694
330
601
100
AcDbEntity
  8
0
  6
Continuous
 62
     7
370
    15
100
AcDbLine
 10
2003.309671073146
 20
1242.586211834531
 30
0.0
 11
2026.359671032913
 21
1242.586211834531
 31
0.0
  0
ARC
  5
695
330
601
100
AcDbEntity
  8
0
  6
Continuous
 62
     7
370
    15
100
AcDbCircle
 10
2026.359670970328
 20
1238.586156026261
 30
0.0
 40
4.0
100
AcDbArc
 50
0.0
 51
90.0
  0
LINE
  5
696
330
601
100
AcDbEntity
  8
0
  6
Continuous
 62
     7
370
    15
100
AcDbLine
 10
2030.359671688564
 20
1238.586144123655
 30
0.0
 11
2030.359671688564
 21
1232.636170063596
 31
0.0
  0
LINE
  5
697
330
601
100
AcDbEntity
  8
0
  6
Continuous
 62
     7
370
    15
100
AcDbLine
 10
2030.609670332558
 20
1232.636170063596
 30
0.0
 11
2030.359671688564
 21
1232.636170063596
 31
0.0
  0
LINE
  5
698
330
601
100
AcDbEntity
  8
0
  6
Continuous
 62
     7
370
    15
100
AcDbLine
 10
2030.609670332558
 20
1231.4861580473
 30
0.0
 11
2030.609670332558
 21
1232.636170063596
 31
0.0
  0
LINE
  5
699
330
601
100
AcDbEntity
  8
0
  6
Continuous
 62
     7
370
    15
100
AcDbLine
 10
2030.359671688564
 20
1231.4861580473
 30
0.0
 11
2030.609670332558
 21
1231.4861580473
 31
0.0
  0
LINE
  5
69A
330
601
100
AcDbEntity
  8
0
  6
Continuous
 62
     7
370
    15
100
AcDbLine
 10
2030.359671688564
 20
1227.911190662961
 30
0.0
 11
2030.359671688564
 21
1231.4861580473
 31
0.0
  0
LINE
  5
69B
330
601
100
AcDbEntity
  8
0
  6
Continuous
 62
     7
370
    15
100
AcDbLine
 10
2023.759671724327
 20
1234.986142788511
 30
0.0
 11
2023.759671724327
 21
1228.777126942258
 31
0.0
  0
LINE
  5
69C
330
601
100
AcDbEntity
  8
0
  6
Continuous
 62
     7
370
    15
100
AcDbLine
 10
2015.359671092518
 20
1231.4861580473
 30
0.0
 11
2015.609670667835
 21
1231.4861580473
 31
0.0
  0
LINE
  5
69D
330
601
100
AcDbEntity
  8
0
  6
Continuous
 62
     7
370
    15
100
AcDbLine
 10
2015.359671092518
 20
1232.636170063596
 30
0.0
 11
2015.359671092518
 21
1231.4861580473
 31
0.0
  0
LINE
  5
69E
330
601
100
AcDbEntity
  8
0
  6
Continuous
 62
     7
370
    15
100
AcDbLine
 10
2015.609670667835
 20
1232.636170063596
 30
0.0
 11
2015.359671092518
 21
1232.636170063596
 31
0.0
  0
LINE
  5
69F
330
601
100
AcDbEntity
  8
0
  6
Continuous
 62
     7
370
    15
100
AcDbLine
 10
2015.609670667835
 20
1234.986142788511
 30
0.0
 11
2015.609670667835
 21
1232.636170063596
 31
0.0
  0
LINE
  5
6A0
330
601
100
AcDbEntity
  8
0
  6
Continuous
 62
     7
370
    15
100
AcDbLine
 10
2015.609670667835
 20
1234.986142788511
 30
0.0
 11
2014.059670972563
 21
1234.986142788511
 31
0.0
  0
LINE
  5
6A1
330
601
100
AcDbEntity
  8
0
  6
Continuous
 62
     7
370
    15
100
AcDbLine
 10
2014.059670972563
 20
1234.986142788511
 30
0.0
 11
2014.059670972563
 21
1232.636170063596
 31
0.0
  0
LINE
  5
6A2
330
601
100
AcDbEntity
  8
0
  6
Continuous
 62
     7
370
    15
100
AcDbLine
 10
2014.309671013541
 20
1232.636170063596
 30
0.0
 11
2014.059670972563
 21
1232.636170063596
 31
0.0
  0
LINE
  5
6A3
330
601
100
AcDbEntity
  8
0
  6
Continuous
 62
     7
370
    15
100
AcDbLine
 10
2022.209670632072
 20
1228.777126942258
 30
0.0
 11
2022.209670632072
 21
1234.986142788511
 31
0.0
  0
LINE
  5
6A4
330
601
100
AcDbEntity
  8
0
  6
Continuous
 62
     7
370
    15
100
AcDbLine
 10
2007.459670950118
 20
1228.777126942258
 30
0.0
 11
2007.959670973867
 21
1227.911190662961
 31
0.0
  0
LINE
  5
6A5
330
601
100
AcDbEntity
  8
0
  6
Continuous
 62
     7
370
    15
100
AcDbLine
 10
2015.609670667835
 20
1231.4861580473
 30
0.0
 11
2015.609670667835
 21
1228.777126942258
 31
0.0
  0
LINE
  5
6A6
330
601
100
AcDbEntity
  8
0
  6
Continuous
 62
     7
370
    15
100
AcDbLine
 10
2013.559670890607
 20
1227.911190662961
 30
0.0
 11
2014.059670972563
 21
1228.777126942258
 31
0.0
  0
LINE
  5
6A7
330
601
100
AcDbEntity
  8
0
  6
Continuous
 62
     7
370
    15
100
AcDbLine
 10
2024.259670874961
 20
1227.911190662961
 30
0.0
 11
2023.759671724327
 21
1228.777126942258
 31
0.0
  0
LINE
  5
6A8
330
601
100
AcDbEntity
  8
0
  6
Continuous
 62
     7
370
    15
100
AcDbLine
 10
2016.109670749791
 20
1227.911190662961
 30
0.0
 11
2015.609670667835
 21
1228.777126942258
 31
0.0
  0
LINE
  5
6A9
330
601
100
AcDbEntity
  8
0
  6
Continuous
 62
     7
370
    15
100
AcDbLine
 10
2021.709670550115
 20
1227.911190662961
 30
0.0
 11
2016.109670749791
 21
1227.911190662961
 31
0.0
  0
LINE
  5
6AA
330
601
100
AcDbEntity
  8
0
  6
Continuous
 62
     7
370
    15
100
AcDbLine
 10
2022.209670632072
 20
1228.777126942258
 30
0.0
 11
2021.709670550115
 21
1227.911190662961
 31
0.0
  0
LINE
  5
6AB
330
601
100
AcDbEntity
  8
0
  6
Continuous
 62
     7
370
    15
100
AcDbLine
 10
2005.909670963809
 20
1234.986142788511
 30
0.0
 11
2005.909670963809
 21
1228.777126942258
 31
0.0
  0
LINE
  5
6AC
330
601
100
AcDbEntity
  8
0
  6
Continuous
 62
     7
370
    15
100
AcDbLine
 10
2005.409670998268
 20
1227.911190662961
 30
0.0
 11
2005.909670963809
 21
1228.777126942258
 31
0.0
  0
LINE
  5
6AD
330
601
100
AcDbEntity
  8
0
  6
Continuous
 62
     7
370
    15
100
AcDbLine
 10
2007.459670950118
 20
1228.777126942258
 30
0.0
 11
2007.459670950118
 21
1234.986142788511
 31
0.0
  0
LINE
  5
6AE
330
601
100
AcDbEntity
  8
0
  6
Continuous
 62
     7
370
    15
100
AcDbLine
 10
2014.059670972563
 20
1231.4861580473
 30
0.0
 11
2014.059670972563
 21
1228.777126942258
 31
0.0
  0
LINE
  5
6AF
330
601
100
AcDbEntity
  8
0
  6
Continuous
 62
     7
370
    15
100
AcDbLine
 10
2030.359671688564
 20
1227.911190662961
 30
0.0
 11
2024.259670874961
 21
1227.911190662961
 31
0.0
  0
LINE
  5
6B0
330
601
100
AcDbEntity
  8
0
  6
Continuous
 62
     7
370
    15
100
AcDbLine
 10
2007.959670973867
 20
1227.911190662961
 30
0.0
 11
2013.559670890607
 21
1227.911190662961
 31
0.0
  0
LINE
  5
6B1
330
601
100
AcDbEntity
  8
0
  6
Continuous
 62
     7
370
    15
100
AcDbLine
 10
1999.309670883156
 20
1227.911190662961
 30
0.0
 11
2005.409670998268
 21
1227.911190662961
 31
0.0
  0
LINE
  5
6B2
330
601
100
AcDbEntity
  8
0
  6
Continuous
 62
     7
370
    15
100
AcDbLine
 10
2006.084670957569
 20
1234.986142788511
 30
0.0
 11
2005.909670963809
 21
1234.986142788511
 31
0.0
  0
LINE
  5
6B3
330
601
100
AcDbEntity
  8
0
  6
Continuous
 62
     7
370
    15
100
AcDbLine
 10
2007.459670950118
 20
1234.986142788511
 30
0.0
 11
2007.284670956358
 21
1234.986142788511
 31
0.0
  0
LINE
  5
6B4
330
601
100
AcDbEntity
  8
0
  6
Continuous
 62
     7
370
    15
100
AcDbLine
 10
2022.209670632072
 20
1234.986142788511
 30
0.0
 11
2022.384670800455
 21
1234.986142788511
 31
0.0
  0
LINE
  5
6B5
330
601
100
AcDbEntity
  8
0
  6
Continuous
 62
     7
370
    15
100
AcDbLine
 10
2023.584670624621
 20
1234.986142788511
 30
0.0
 11
2023.759671724327
 21
1234.986142788511
 31
0.0
  0
LINE
  5
6B6
330
601
100
AcDbEntity
  8
0
  6
Continuous
 62
     7
370
    15
100
AcDbLine
 10
2028.059671870358
 20
1229.911164913755
 30
0.0
 11
2028.059671870358
 21
1231.911139164548
 31
0.0
  0
LINE
  5
6B7
330
601
100
AcDbEntity
  8
0
  6
Continuous
 62
     7
370
    15
100
AcDbLine
 10
2026.059671542533
 20
1229.911164913755
 30
0.0
 11
2026.059671542533
 21
1231.911139164548
 31
0.0
  0
LINE
  5
6B8
330
601
100
AcDbEntity
  8
0
  6
Continuous
 62
     7
370
    15
100
AcDbLine
 10
2003.609671029188
 20
1229.911164913755
 30
0.0
 11
2003.609671029188
 21
1231.911139164548
 31
0.0
  0
LINE
  5
6B9
330
601
100
AcDbEntity
  8
0
  6
Continuous
 62
     7
370
    15
100
AcDbLine
 10
2001.609671167023
 20
1229.911164913755
 30
0.0
 11
2001.609671167023
 21
1231.911139164548
 31
0.0
  0
LINE
  5
6BA
330
601
100
AcDbEntity
  8
0
  6
Continuous
 62
     7
370
    15
100
AcDbLine
 10
2011.759671154357
 20
1229.911164913755
 30
0.0
 11
2011.759671154357
 21
1231.911139164548
 31
0.0
  0
LINE
  5
6BB
330
601
100
AcDbEntity
  8
0
  6
Continuous
 62
     7
370
    15
100
AcDbLine
 10
2009.759671059363
 20
1229.911164913755
 30
0.0
 11
2009.759671059363
 21
1231.911139164548
 31
0.0
  0
LINE
  5
6BC
330
601
100
AcDbEntity
  8
0
  6
Continuous
 62
     7
370
    15
100
AcDbLine
 10
2019.909670813866
 20
1229.911164913755
 30
0.0
 11
2019.909670813866
 21
1231.911139164548
 31
0.0
  0
LINE
  5
6BD
330
601
100
AcDbEntity
  8
0
  6
Continuous
 62
     7
370
    15
100
AcDbLine
 10
2017.909671417363
 20
1229.911164913755
 30
0.0
 11
2017.909671417363
 21
1231.911139164548
 31
0.0
  0
LINE
  5
6BE
330
601
100
AcDbEntity
  8
0
  6
Continuous
 62
     7
370
    15
100
AcDbLine
 10
2024.859671718366
 20
1227.811174069028
 30
0.0
 11
2029.259671694525
 21
1227.811174069028
 31
0.0
  0
LINE
  5
6BF
330
601
100
AcDbEntity
  8
0
  6
Continuous
 62
     7
370
    15
100
AcDbLine
 10
2029.259671694525
 20
1227.811174069028
 30
0.0
 11
2029.259671694525
 21
1227.611140881162
 31
0.0
  0
LINE
  5
6C0
330
601
100
AcDbEntity
  8
0
  6
Continuous
 62
     7
370
    15
100
AcDbLine
 10
2024.859671718366
 20
1227.611140881162
 30
0.0
 11
2024.859671718366
 21
1227.811174069028
 31
0.0
  0
LINE
  5
6C1
330
601
100
AcDbEntity
  8
0
  6
Continuous
 62
     7
370
    15
100
AcDbLine
 10
2016.709670661874
 20
1227.811174069028
 30
0.0
 11
2021.109670638032
 21
1227.811174069028
 31
0.0
  0
LINE
  5
6C2
330
601
100
AcDbEntity
  8
0
  6
Continuous
 62
     7
370
    15
100
AcDbLine
 10
2021.109670638032
 20
1227.811174069028
 30
0.0
 11
2021.109670638032
 21
1227.611140881162
 31
0.0
  0
LINE
  5
6C3
330
601
100
AcDbEntity
  8
0
  6
Continuous
 62
     7
370
    15
100
AcDbLine
 10
2016.709670661874
 20
1227.611140881162
 30
0.0
 11
2016.709670661874
 21
1227.811174069028
 31
0.0
  0
LINE
  5
6C4
330
601
100
AcDbEntity
  8
0
  6
Continuous
 62
     7
370
    15
100
AcDbLine
 10
2004.809670969769
 20
1227.811174069028
 30
0.0
 11
2000.409670877196
 21
1227.811174069028
 31
0.0
  0
LINE
  5
6C5
330
601
100
AcDbEntity
  8
0
  6
Continuous
 62
     7
370
    15
100
AcDbLine
 10
2000.409670877196
 20
1227.811174069028
 30
0.0
 11
2000.409670877196
 21
1227.611140881162
 31
0.0
  0
LINE
  5
6C6
330
601
100
AcDbEntity
  8
0
  6
Continuous
 62
     7
370
    15
100
AcDbLine
 10
2004.809670969769
 20
1227.611140881162
 30
0.0
 11
2004.809670969769
 21
1227.811174069028
 31
0.0
  0
LINE
  5
6C7
330
601
100
AcDbEntity
  8
0
  6
Continuous
 62
     7
370
    15
100
AcDbLine
 10
2012.959670978524
 20
1227.811174069028
 30
0.0
 11
2008.559671002366
 21
1227.811174069028
 31
0.0
  0
LINE
  5
6C8
330
601
100
AcDbEntity
  8
0
  6
Continuous
 62
     7
370
    15
100
AcDbLine
 10
2008.559671002366
 20
1227.811174069028
 30
0.0
 11
2008.559671002366
 21
1227.611140881162
 31
0.0
  0
LINE
  5
6C9
330
601
100
AcDbEntity
  8
0
  6
Continuous
 62
     7
370
    15
100
AcDbLine
 10
2012.959670978524
 20
1227.611140881162
 30
0.0
 11
2012.959670978524
 21
1227.811174069028
 31
0.0
  0
LINE
  5
6CA
330
601
100
AcDbEntity
  8
0
  6
Continuous
 62
     7
370
    15
100
AcDbLine
 10
2012.959670978524
 20
1227.911190662961
 30
0.0
 11
2012.959670978524
 21
1227.811174069028
 31
0.0
  0
LINE
  5
6CB
330
601
100
AcDbEntity
  8
0
  6
Continuous
 62
     7
370
    15
100
AcDbLine
 10
2008.559671002366
 20
1227.811174069028
 30
0.0
 11
2008.559671002366
 21
1227.911190662961
 31
0.0
  0
LINE
  5
6CC
330
601
100
AcDbEntity
  8
0
  6
Continuous
 62
     7
370
    15
100
AcDbLine
 10
2000.409670877196
 20
1227.911190662961
 30
0.0
 11
2000.409670877196
 21
1227.811174069028
 31
0.0
  0
LINE
  5
6CD
330
601
100
AcDbEntity
  8
0
  6
Continuous
 62
     7
370
    15
100
AcDbLine
 10
2004.809670969769
 20
1227.811174069028
 30
0.0
 11
2004.809670969769
 21
1227.911190662961
 31
0.0
  0
LINE
  5
6CE
330
601
100
AcDbEntity
  8
0
  6
Continuous
 62
     7
370
    15
100
AcDbLine
 10
2029.259671694525
 20
1227.911190662961
 30
0.0
 11
2029.259671694525
 21
1227.811174069028
 31
0.0
  0
LINE
  5
6CF
330
601
100
AcDbEntity
  8
0
  6
Continuous
 62
     7
370
    15
100
AcDbLine
 10
2024.859671718366
 20
1227.811174069028
 30
0.0
 11
2024.859671718366
 21
1227.911190662961
 31
0.0
  0
LINE
  5
6D0
330
601
100
AcDbEntity
  8
0
  6
Continuous
 62
     7
370
    15
100
AcDbLine
 10
2016.709670661874
 20
1227.911190662961
 30
0.0
 11
2016.709670661874
 21
1227.811174069028
 31
0.0
  0
LINE
  5
6D1
330
601
100
AcDbEntity
  8
0
  6
Continuous
 62
     7
370
    15
100
AcDbLine
 10
2021.109670638032
 20
1227.811174069028
 30
0.0
 11
2021.109670638032
 21
1227.911190662961
 31
0.0
  0
ENDBLK
  5
603
330
601
100
AcDbEntity
  8
0
100
AcDbBlockEnd
  0
BLOCK
  5
6D4
330
6D3
100
AcDbEntity
  8
0
100
AcDbBlockBegin
  2
2
 70
     0
 10
0.0
 20
0.0
 30
0.0
  3
2
  1

  0
LINE
  5
6D6
330
6D3
100
AcDbEntity
  8
0
  6
Continuous
 62
     7
370
    15
100
AcDbLine
 10
1980.227166906016
 20
1232.636170063596
 30
0.0
 11
1982.827121511119
 21
1232.636170063596
 31
0.0
  0
LINE
  5
6D7
330
6D3
100
AcDbEntity
  8
0
  6
Continuous
 62
     7
370
    15
100
AcDbLine
 10
1982.827121511119
 20
1232.636170063596
 30
0.0
 11
1982.827121511119
 21
1231.4861580473
 31
0.0
  0
LINE
  5
6D8
330
6D3
100
AcDbEntity
  8
0
  6
Continuous
 62
     7
370
    15
100
AcDbLine
 10
1980.227166906016
 20
1231.4861580473
 30
0.0
 11
1982.827121511119
 21
1231.4861580473
 31
0.0
  0
LINE
  5
6D9
330
6D3
100
AcDbEntity
  8
0
  6
Continuous
 62
     7
370
    15
100
AcDbLine
 10
1980.227166906016
 20
1231.4861580473
 30
0.0
 11
1980.227166906016
 21
1232.636170063596
 31
0.0
  0
LINE
  5
6DA
330
6D3
100
AcDbEntity
  8
0
  6
Continuous
 62
     7
370
    15
100
AcDbLine
 10
1980.227166906016
 20
1238.586144123655
 30
0.0
 11
1982.827121511119
 21
1238.586144123655
 31
0.0
  0
LINE
  5
6DB
330
6D3
100
AcDbEntity
  8
0
  6
Continuous
 62
     7
370
    15
100
AcDbLine
 10
1980.227166906016
 20
1238.586144123655
 30
0.0
 11
1980.227166906016
 21
1232.636170063596
 31
0.0
  0
LINE
  5
6DC
330
6D3
100
AcDbEntity
  8
0
  6
Continuous
 62
     7
370
    15
100
AcDbLine
 10
1982.827121511119
 20
1238.586144123655
 30
0.0
 11
1982.827121511119
 21
1232.636170063596
 31
0.0
  0
LINE
  5
6DD
330
6D3
100
AcDbEntity
  8
0
  6
Continuous
 62
     7
370
    15
100
AcDbLine
 10
1982.827121511119
 20
1227.911190662961
 30
0.0
 11
1980.227166906016
 21
1227.911190662961
 31
0.0
  0
LINE
  5
6DE
330
6D3
100
AcDbEntity
  8
0
  6
Continuous
 62
     7
370
    15
100
AcDbLine
 10
1980.227166906016
 20
1227.911190662961
 30
0.0
 11
1980.227166906016
 21
1231.4861580473
 31
0.0
  0
LINE
  5
6DF
330
6D3
100
AcDbEntity
  8
0
  6
Continuous
 62
     7
370
    15
100
AcDbLine
 10
1982.827121511119
 20
1227.911190662961
 30
0.0
 11
1982.827121511119
 21
1231.4861580473
 31
0.0
  0
LINE
  5
6E0
330
6D3
100
AcDbEntity
  8
0
  6
Continuous
 62
     7
370
    15
100
AcDbLine
 10
1982.827121511119
 20
1242.586211834531
 30
0.0
 11
1980.227166906016
 21
1242.586211834531
 31
0.0
  0
LINE
  5
6E1
330
6D3
100
AcDbEntity
  8
0
  6
Continuous
 62
     7
370
    15
100
AcDbLine
 10
1980.227166906016
 20
1238.586144123655
 30
0.0
 11
1980.227166906016
 21
1242.586211834531
 31
0.0
  0
LINE
  5
6E2
330
6D3
100
AcDbEntity
  8
0
  6
Continuous
 62
     7
370
    15
100
AcDbLine
 10
1982.827121511119
 20
1242.586211834531
 30
0.0
 11
1982.827121511119
 21
1238.586144123655
 31
0.0
  0
LINE
  5
6E3
330
6D3
100
AcDbEntity
  8
0
  6
Continuous
 62
     7
370
    15
100
AcDbLine
 10
1979.730660215037
 20
1226.61121336041
 30
0.0
 11
1979.730660215037
 21
1227.611140881162
 31
0.0
  0
LINE
  5
6E4
330
6D3
100
AcDbEntity
  8
0
  6
Continuous
 62
     7
370
    15
100
AcDbLine
 10
1977.691108480113
 20
1226.61121336041
 30
0.0
 11
1977.691108480113
 21
1227.611140881162
 31
0.0
  0
LINE
  5
6E5
330
6D3
100
AcDbEntity
  8
0
  6
Continuous
 62
     7
370
    15
100
AcDbLine
 10
1979.730660215037
 20
1227.611140881162
 30
0.0
 11
1977.691108480113
 21
1227.611140881162
 31
0.0
  0
LINE
  5
6E6
330
6D3
100
AcDbEntity
  8
0
  6
Continuous
 62
     7
370
    15
100
AcDbLine
 10
1979.730660215037
 20
1226.61121336041
 30
0.0
 11
1977.691108480113
 21
1226.61121336041
 31
0.0
  0
LINE
  5
6E7
330
6D3
100
AcDbEntity
  8
0
  6
Continuous
 62
     7
370
    15
100
AcDbLine
 10
1974.191004529613
 20
1226.91114393292
 30
0.0
 11
1974.191004529613
 21
1227.611140881162
 31
0.0
  0
LINE
  5
6E8
330
6D3
100
AcDbEntity
  8
0
  6
Continuous
 62
     7
370
    15
100
AcDbLine
 10
1975.892478719371
 20
1226.61121336041
 30
0.0
 11
1974.191004529613
 21
1226.91114393292
 31
0.0
  0
LINE
  5
6E9
330
6D3
100
AcDbEntity
  8
0
  6
Continuous
 62
     7
370
    15
100
AcDbLine
 10
1977.691108480113
 20
1227.611140881162
 30
0.0
 11
1974.191004529613
 21
1227.611140881162
 31
0.0
  0
LINE
  5
6EA
330
6D3
100
AcDbEntity
  8
0
  6
Continuous
 62
     7
370
    15
100
AcDbLine
 10
1977.691108480113
 20
1226.61121336041
 30
0.0
 11
1975.892478719371
 21
1226.61121336041
 31
0.0
  0
LINE
  5
6EB
330
6D3
100
AcDbEntity
  8
0
  6
Continuous
 62
     7
370
    15
100
AcDbLine
 10
1981.027180448192
 20
1227.811174069028
 30
0.0
 11
1982.027107968944
 21
1227.811174069028
 31
0.0
  0
LINE
  5
6EC
330
6D3
100
AcDbEntity
  8
0
  6
Continuous
 62
     7
370
    15
100
AcDbLine
 10
1981.027180448192
 20
1227.911190662961
 30
0.0
 11
1981.027180448192
 21
1227.811174069028
 31
0.0
  0
LINE
  5
6ED
330
6D3
100
AcDbEntity
  8
0
  6
Continuous
 62
     7
370
    15
100
AcDbLine
 10
1982.027107968944
 20
1227.911190662961
 30
0.0
 11
1982.027107968944
 21
1227.811174069028
 31
0.0
  0
ARC
  5
6EE
330
6D3
100
AcDbEntity
  8
0
  6
Continuous
 62
     7
370
    15
100
AcDbCircle
 10
1980.827123564976
 20
1227.811158849075
 30
0.0
 40
0.1999999999999886
100
AcDbArc
 50
270.0
 51
0.0
  0
ARC
  5
6EF
330
6D3
100
AcDbEntity
  8
0
  6
Continuous
 62
     7
370
    15
100
AcDbCircle
 10
1980.827123564976
 20
1227.811158849075
 30
0.0
 40
1.200000000000102
100
AcDbArc
 50
270.0
 51
0.0
  0
LINE
  5
6F0
330
6D3
100
AcDbEntity
  8
0
  6
Continuous
 62
     7
370
    15
100
AcDbLine
 10
1979.730660215037
 20
1227.611140881162
 30
0.0
 11
1980.827147260325
 21
1227.611140881162
 31
0.0
  0
LINE
  5
6F1
330
6D3
100
AcDbEntity
  8
0
  6
Continuous
 62
     7
370
    15
100
AcDbLine
 10
1979.730660215037
 20
1226.61121336041
 30
0.0
 11
1980.827147260325
 21
1226.61121336041
 31
0.0
  0
LINE
  5
6F2
330
6D3
100
AcDbEntity
  8
0
  6
Continuous
 62
     7
370
    15
100
AcDbLine
 10
1982.827121511119
 20
1241.986112270933
 30
0.0
 11
1985.027128949779
 21
1234.986142788511
 31
0.0
  0
LINE
  5
6F3
330
6D3
100
AcDbEntity
  8
0
  6
Continuous
 62
     7
370
    15
100
AcDbLine
 10
1982.827121511119
 20
1234.986142788511
 30
0.0
 11
1985.027128949779
 21
1234.986142788511
 31
0.0
  0
LINE
  5
6F4
330
6D3
100
AcDbEntity
  8
0
  6
Continuous
 62
     7
370
    15
100
AcDbLine
 10
1980.227166906016
 20
1241.986112270933
 30
0.0
 11
1978.027159467357
 21
1234.986142788511
 31
0.0
  0
LINE
  5
6F5
330
6D3
100
AcDbEntity
  8
0
  6
Continuous
 62
     7
370
    15
100
AcDbLine
 10
1978.027159467357
 20
1234.986142788511
 30
0.0
 11
1980.227166906016
 21
1234.986142788511
 31
0.0
  0
ENDBLK
  5
6D5
330
6D3
100
AcDbEntity
  8
0
100
AcDbBlockEnd
  0
BLOCK
  5
6F8
330
6F7
100
AcDbEntity
  8
0
100
AcDbBlockBegin
  2
3
 70
     0
 10
0.0
 20
0.0
 30
0.0
  3
3
  1

  0
LINE
  5
6FA
330
6F7
100
AcDbEntity
  8
0
  6
Continuous
 62
     7
370
    15
100
AcDbLine
 10
2003.309671073146
 20
1209.049160017879
 30
0.0
 11
1999.309670883156
 21
1209.049160017879
 31
0.0
  0
LINE
  5
6FB
330
6F7
100
AcDbEntity
  8
0
  6
Continuous
 62
     7
370
    15
100
AcDbLine
 10
1999.309670883156
 20
1209.049160017879
 30
0.0
 11
1999.309670883156
 21
1211.649114622981
 31
0.0
  0
LINE
  5
6FC
330
6F7
100
AcDbEntity
  8
0
  6
Continuous
 62
     7
370
    15
100
AcDbLine
 10
1999.309670883156
 20
1211.649114622981
 30
0.0
 11
2003.309671073146
 21
1211.649114622981
 31
0.0
  0
LINE
  5
6FD
330
6F7
100
AcDbEntity
  8
0
  6
Continuous
 62
     7
370
    15
100
AcDbLine
 10
2003.309671073146
 20
1211.649114622981
 30
0.0
 11
2003.309671073146
 21
1209.049160017879
 31
0.0
  0
LINE
  5
6FE
330
6F7
100
AcDbEntity
  8
0
  6
Continuous
 62
     7
370
    15
100
AcDbLine
 10
2026.359671032913
 20
1211.649114622981
 30
0.0
 11
2026.359671032913
 21
1209.049160017879
 31
0.0
  0
LINE
  5
6FF
330
6F7
100
AcDbEntity
  8
0
  6
Continuous
 62
     7
370
    15
100
AcDbLine
 10
2003.309671073146
 20
1211.649114622981
 30
0.0
 11
2026.359671032913
 21
1211.649114622981
 31
0.0
  0
LINE
  5
700
330
6F7
100
AcDbEntity
  8
0
  6
Continuous
 62
     7
370
    15
100
AcDbLine
 10
2003.309671073146
 20
1209.049160017879
 30
0.0
 11
2026.359671032913
 21
1209.049160017879
 31
0.0
  0
LINE
  5
701
330
6F7
100
AcDbEntity
  8
0
  6
Continuous
 62
     7
370
    15
100
AcDbLine
 10
2030.359671688564
 20
1209.049160017879
 30
0.0
 11
2030.359671688564
 21
1211.649114622981
 31
0.0
  0
LINE
  5
702
330
6F7
100
AcDbEntity
  8
0
  6
Continuous
 62
     7
370
    15
100
AcDbLine
 10
2026.359671032913
 20
1211.649114622981
 30
0.0
 11
2030.359671688564
 21
1211.649114622981
 31
0.0
  0
LINE
  5
703
330
6F7
100
AcDbEntity
  8
0
  6
Continuous
 62
     7
370
    15
100
AcDbLine
 10
2030.359671688564
 20
1209.049160017879
 30
0.0
 11
2026.359671032913
 21
1209.049160017879
 31
0.0
  0
LINE
  5
704
330
6F7
100
AcDbEntity
  8
0
  6
Continuous
 62
     7
370
    15
100
AcDbLine
 10
2022.384670800455
 20
1209.049160017879
 30
0.0
 11
2022.384670800455
 21
1206.849152579219
 31
0.0
  0
LINE
  5
705
330
6F7
100
AcDbEntity
  8
0
  6
Continuous
 62
     7
370
    15
100
AcDbLine
 10
2023.584670624621
 20
1206.849152579219
 30
0.0
 11
2022.384670800455
 21
1206.849152579219
 31
0.0
  0
LINE
  5
706
330
6F7
100
AcDbEntity
  8
0
  6
Continuous
 62
     7
370
    15
100
AcDbLine
 10
2023.584670624621
 20
1209.049160017879
 30
0.0
 11
2023.584670624621
 21
1206.849152579219
 31
0.0
  0
LINE
  5
707
330
6F7
100
AcDbEntity
  8
0
  6
Continuous
 62
     7
370
    15
100
AcDbLine
 10
2006.084670957569
 20
1209.049160017879
 30
0.0
 11
2006.084670957569
 21
1206.849152579219
 31
0.0
  0
LINE
  5
708
330
6F7
100
AcDbEntity
  8
0
  6
Continuous
 62
     7
370
    15
100
AcDbLine
 10
2006.084670957569
 20
1206.849152579219
 30
0.0
 11
2007.284670956358
 21
1206.849152579219
 31
0.0
  0
LINE
  5
709
330
6F7
100
AcDbEntity
  8
0
  6
Continuous
 62
     7
370
    15
100
AcDbLine
 10
2007.284670956358
 20
1209.049160017879
 30
0.0
 11
2007.284670956358
 21
1206.849152579219
 31
0.0
  0
LINE
  5
70A
330
6F7
100
AcDbEntity
  8
0
  6
Continuous
 62
     7
370
    15
100
AcDbLine
 10
2023.584670624621
 20
1211.649114622981
 30
0.0
 11
2023.584670624621
 21
1213.849122061641
 31
0.0
  0
LINE
  5
70B
330
6F7
100
AcDbEntity
  8
0
  6
Continuous
 62
     7
370
    15
100
AcDbLine
 10
2022.384670800455
 20
1211.649114622981
 30
0.0
 11
2022.384670800455
 21
1213.849122061641
 31
0.0
  0
LINE
  5
70C
330
6F7
100
AcDbEntity
  8
0
  6
Continuous
 62
     7
370
    15
100
AcDbLine
 10
2022.384670800455
 20
1213.849122061641
 30
0.0
 11
2023.584670624621
 21
1213.849122061641
 31
0.0
  0
LINE
  5
70D
330
6F7
100
AcDbEntity
  8
0
  6
Continuous
 62
     7
370
    15
100
AcDbLine
 10
2007.284670956358
 20
1213.849122061641
 30
0.0
 11
2006.084670957569
 21
1213.849122061641
 31
0.0
  0
LINE
  5
70E
330
6F7
100
AcDbEntity
  8
0
  6
Continuous
 62
     7
370
    15
100
AcDbLine
 10
2006.084670957569
 20
1211.649114622981
 30
0.0
 11
2006.084670957569
 21
1213.849122061641
 31
0.0
  0
LINE
  5
70F
330
6F7
100
AcDbEntity
  8
0
  6
Continuous
 62
     7
370
    15
100
AcDbLine
 10
2007.284670956358
 20
1211.649114622981
 30
0.0
 11
2007.284670956358
 21
1213.849122061641
 31
0.0
  0
LINE
  5
710
330
6F7
100
AcDbEntity
  8
0
  6
Continuous
 62
     7
370
    15
100
AcDbLine
 10
2030.609670332558
 20
1209.049160017879
 30
0.0
 11
2030.609670332558
 21
1211.649114622981
 31
0.0
  0
LINE
  5
711
330
6F7
100
AcDbEntity
  8
0
  6
Continuous
 62
     7
370
    15
100
AcDbLine
 10
2030.359671688564
 20
1211.649114622981
 30
0.0
 11
2030.609670332558
 21
1211.649114622981
 31
0.0
  0
LINE
  5
712
330
6F7
100
AcDbEntity
  8
0
  6
Continuous
 62
     7
370
    15
100
AcDbLine
 10
2030.609670332558
 20
1209.049160017879
 30
0.0
 11
2030.359671688564
 21
1209.049160017879
 31
0.0
  0
LINE
  5
713
330
6F7
100
AcDbEntity
  8
0
  6
Continuous
 62
     7
370
    15
100
AcDbLine
 10
1999.059670842178
 20
1209.049160017879
 30
0.0
 11
1999.059670842178
 21
1211.649114622981
 31
0.0
  0
LINE
  5
714
330
6F7
100
AcDbEntity
  8
0
  6
Continuous
 62
     7
370
    15
100
AcDbLine
 10
1999.059670842178
 20
1211.649114622981
 30
0.0
 11
1999.309670883156
 21
1211.649114622981
 31
0.0
  0
LINE
  5
715
330
6F7
100
AcDbEntity
  8
0
  6
Continuous
 62
     7
370
    15
100
AcDbLine
 10
1999.309670883156
 20
1209.049160017879
 30
0.0
 11
1999.059670842178
 21
1209.049160017879
 31
0.0
  0
LINE
  5
716
330
6F7
100
AcDbEntity
  8
0
  6
Continuous
 62
     7
370
    15
100
AcDbLine
 10
2000.609671003111
 20
1203.012997641475
 30
0.0
 11
2000.991764250137
 21
1204.062873854549
 31
0.0
  0
ARC
  5
717
330
6F7
100
AcDbEntity
  8
0
  6
Continuous
 62
     7
370
    15
100
AcDbCircle
 10
2002.609670970328
 20
1206.513048699339
 30
0.0
 40
3.000000000000056
100
AcDbArc
 50
0.0
 51
42.83342806602925
  0
LINE
  5
718
330
6F7
100
AcDbEntity
  8
0
  6
Continuous
 62
     7
370
    15
100
AcDbLine
 10
1999.609670839198
 20
1206.513101591976
 30
0.0
 11
1999.609670839198
 21
1203.012997641475
 31
0.0
  0
LINE
  5
719
330
6F7
100
AcDbEntity
  8
0
  6
Continuous
 62
     7
370
    15
100
AcDbLine
 10
2005.609671007767
 20
1203.012997641475
 30
0.0
 11
2005.609671007767
 21
1206.513101591976
 31
0.0
  0
LINE
  5
71A
330
6F7
100
AcDbEntity
  8
0
  6
Continuous
 62
     7
370
    15
100
AcDbLine
 10
2004.105105535053
 20
1205.629045500667
 30
0.0
 11
2004.227577713244
 21
1204.062873854549
 31
0.0
  0
ARC
  5
71B
330
6F7
100
AcDbEntity
  8
0
  6
Continuous
 62
     7
370
    15
100
AcDbCircle
 10
2002.609670970328
 20
1205.512048696839
 30
0.0
 40
1.499999999999864
100
AcDbArc
 50
4.471403166191148
 51
175.5285968338088
  0
ARC
  5
71C
330
6F7
100
AcDbEntity
  8
0
  6
Continuous
 62
     7
370
    15
100
AcDbCircle
 10
2002.609670970328
 20
1206.513048699339
 30
0.0
 40
3.000000000000042
100
AcDbArc
 50
137.1665718802089
 51
180.0
  0
LINE
  5
71D
330
6F7
100
AcDbEntity
  8
0
  6
Continuous
 62
     7
370
    15
100
AcDbLine
 10
2004.60967096027
 20
1203.012997641475
 30
0.0
 11
2005.609671007767
 21
1203.012997641475
 31
0.0
  0
LINE
  5
71E
330
6F7
100
AcDbEntity
  8
0
  6
Continuous
 62
     7
370
    15
100
AcDbLine
 10
2000.991764250137
 20
1204.062873854549
 30
0.0
 11
2001.114236428328
 21
1205.629045500667
 31
0.0
  0
LINE
  5
71F
330
6F7
100
AcDbEntity
  8
0
  6
Continuous
 62
     7
370
    15
100
AcDbLine
 10
2004.227577713244
 20
1204.062873854549
 30
0.0
 11
2004.60967096027
 21
1203.012997641475
 31
0.0
  0
LINE
  5
720
330
6F7
100
AcDbEntity
  8
0
  6
Continuous
 62
     7
370
    15
100
AcDbLine
 10
1999.609670839198
 20
1203.012997641475
 30
0.0
 11
2000.609671003111
 21
1203.012997641475
 31
0.0
  0
LINE
  5
721
330
6F7
100
AcDbEntity
  8
0
  6
Continuous
 62
     7
370
    15
100
AcDbLine
 10
2004.809670969769
 20
1209.049160017879
 30
0.0
 11
2004.809670969769
 21
1208.5526533269
 31
0.0
  0
LINE
  5
722
330
6F7
100
AcDbEntity
  8
0
  6
Continuous
 62
     7
370
    15
100
AcDbLine
 10
2000.409670877196
 20
1208.5526533269
 30
0.0
 11
2000.409670877196
 21
1209.049160017879
 31
0.0
  0
ARC
  5
723
330
6F7
100
AcDbEntity
  8
0
  6
Continuous
 62
     7
370
    15
100
AcDbCircle
 10
2018.909670970328
 20
1206.513048699339
 30
0.0
 40
3.0
100
AcDbArc
 50
137.1665719339707
 51
180.0
  0
ARC
  5
724
330
6F7
100
AcDbEntity
  8
0
  6
Continuous
 62
     7
370
    15
100
AcDbCircle
 10
2018.909670970328
 20
1206.513048699339
 30
0.0
 40
3.000000000000011
100
AcDbArc
 50
0.0
 51
42.83342811979109
  0
LINE
  5
725
330
6F7
100
AcDbEntity
  8
0
  6
Continuous
 62
     7
370
    15
100
AcDbLine
 10
2015.909671089537
 20
1203.012997641475
 30
0.0
 11
2015.909671089537
 21
1206.513101591976
 31
0.0
  0
LINE
  5
726
330
6F7
100
AcDbEntity
  8
0
  6
Continuous
 62
     7
370
    15
100
AcDbLine
 10
2021.909671141691
 20
1206.513101591976
 30
0.0
 11
2021.909671141691
 21
1203.012997641475
 31
0.0
  0
ARC
  5
727
330
6F7
100
AcDbEntity
  8
0
  6
Continuous
 62
     7
370
    15
100
AcDbCircle
 10
2018.909670970328
 20
1205.512048696839
 30
0.0
 40
1.499999999999878
100
AcDbArc
 50
4.471403166191148
 51
175.5285968338088
  0
LINE
  5
728
330
6F7
100
AcDbEntity
  8
0
  6
Continuous
 62
     7
370
    15
100
AcDbLine
 10
2017.291764034815
 20
1204.062873854549
 30
0.0
 11
2016.90967125345
 21
1203.012997641475
 31
0.0
  0
LINE
  5
729
330
6F7
100
AcDbEntity
  8
0
  6
Continuous
 62
     7
370
    15
100
AcDbLine
 10
2020.527577265091
 20
1204.062873854549
 30
0.0
 11
2020.405105552562
 21
1205.629045500667
 31
0.0
  0
LINE
  5
72A
330
6F7
100
AcDbEntity
  8
0
  6
Continuous
 62
     7
370
    15
100
AcDbLine
 10
2017.414236678667
 20
1205.629045500667
 30
0.0
 11
2017.291764034815
 21
1204.062873854549
 31
0.0
  0
LINE
  5
72B
330
6F7
100
AcDbEntity
  8
0
  6
Continuous
 62
     7
370
    15
100
AcDbLine
 10
2021.909671141691
 20
1203.012997641475
 30
0.0
 11
2020.909670977779
 21
1203.012997641475
 31
0.0
  0
LINE
  5
72C
330
6F7
100
AcDbEntity
  8
0
  6
Continuous
 62
     7
370
    15
100
AcDbLine
 10
2016.90967125345
 20
1203.012997641475
 30
0.0
 11
2015.909671089537
 21
1203.012997641475
 31
0.0
  0
LINE
  5
72D
330
6F7
100
AcDbEntity
  8
0
  6
Continuous
 62
     7
370
    15
100
AcDbLine
 10
2020.909670977779
 20
1203.012997641475
 30
0.0
 11
2020.527577265091
 21
1204.062873854549
 31
0.0
  0
LINE
  5
72E
330
6F7
100
AcDbEntity
  8
0
  6
Continuous
 62
     7
370
    15
100
AcDbLine
 10
2016.709670661874
 20
1208.5526533269
 30
0.0
 11
2016.709670661874
 21
1209.049160017879
 31
0.0
  0
LINE
  5
72F
330
6F7
100
AcDbEntity
  8
0
  6
Continuous
 62
     7
370
    15
100
AcDbLine
 10
2021.109670638032
 20
1209.049160017879
 30
0.0
 11
2021.109670638032
 21
1208.5526533269
 31
0.0
  0
ARC
  5
730
330
6F7
100
AcDbEntity
  8
0
  6
Continuous
 62
     7
370
    15
100
AcDbCircle
 10
2027.059670970328
 20
1206.513048699339
 30
0.0
 40
3.000000000000083
100
AcDbArc
 50
0.0
 51
42.83342811978223
  0
LINE
  5
731
330
6F7
100
AcDbEntity
  8
0
  6
Continuous
 62
     7
370
    15
100
AcDbLine
 10
2025.564235872514
 20
1205.629045500667
 30
0.0
 11
2025.441765091307
 21
1204.062873854549
 31
0.0
  0
ARC
  5
732
330
6F7
100
AcDbEntity
  8
0
  6
Continuous
 62
     7
370
    15
100
AcDbCircle
 10
2027.059670970328
 20
1205.512048696839
 30
0.0
 40
1.499999999999878
100
AcDbArc
 50
4.471403166191148
 51
175.5285968338088
  0
ARC
  5
733
330
6F7
100
AcDbEntity
  8
0
  6
Continuous
 62
     7
370
    15
100
AcDbCircle
 10
2027.059670970328
 20
1206.513048699339
 30
0.0
 40
3.000000000001731
100
AcDbArc
 50
137.1665719338971
 51
180.0
  0
LINE
  5
734
330
6F7
100
AcDbEntity
  8
0
  6
Continuous
 62
     7
370
    15
100
AcDbLine
 10
2024.059671214707
 20
1203.012997641475
 30
0.0
 11
2024.059671214707
 21
1206.513101591976
 31
0.0
  0
LINE
  5
735
330
6F7
100
AcDbEntity
  8
0
  6
Continuous
 62
     7
370
    15
100
AcDbLine
 10
2028.677578321584
 20
1204.062873854549
 30
0.0
 11
2028.555105677731
 21
1205.629045500667
 31
0.0
  0
LINE
  5
736
330
6F7
100
AcDbEntity
  8
0
  6
Continuous
 62
     7
370
    15
100
AcDbLine
 10
2029.059670171626
 20
1203.012997641475
 30
0.0
 11
2028.677578321584
 21
1204.062873854549
 31
0.0
  0
LINE
  5
737
330
6F7
100
AcDbEntity
  8
0
  6
Continuous
 62
     7
370
    15
100
AcDbLine
 10
2030.059670335539
 20
1203.012997641475
 30
0.0
 11
2029.059670171626
 21
1203.012997641475
 31
0.0
  0
LINE
  5
738
330
6F7
100
AcDbEntity
  8
0
  6
Continuous
 62
     7
370
    15
100
AcDbLine
 10
2030.059670335539
 20
1206.513101591976
 30
0.0
 11
2030.059670335539
 21
1203.012997641475
 31
0.0
  0
LINE
  5
739
330
6F7
100
AcDbEntity
  8
0
  6
Continuous
 62
     7
370
    15
100
AcDbLine
 10
2025.05967137862
 20
1203.012997641475
 30
0.0
 11
2024.059671214707
 21
1203.012997641475
 31
0.0
  0
LINE
  5
73A
330
6F7
100
AcDbEntity
  8
0
  6
Continuous
 62
     7
370
    15
100
AcDbLine
 10
2025.441765091307
 20
1204.062873854549
 30
0.0
 11
2025.05967137862
 21
1203.012997641475
 31
0.0
  0
LINE
  5
73B
330
6F7
100
AcDbEntity
  8
0
  6
Continuous
 62
     7
370
    15
100
AcDbLine
 10
2029.259671694525
 20
1208.5526533269
 30
0.0
 11
2029.259671694525
 21
1209.049160017879
 31
0.0
  0
LINE
  5
73C
330
6F7
100
AcDbEntity
  8
0
  6
Continuous
 62
     7
370
    15
100
AcDbLine
 10
2024.859671718366
 20
1209.049160017879
 30
0.0
 11
2024.859671718366
 21
1208.5526533269
 31
0.0
  0
ARC
  5
73D
330
6F7
100
AcDbEntity
  8
0
  6
Continuous
 62
     7
370
    15
100
AcDbCircle
 10
2010.759670970328
 20
1206.513048699339
 30
0.0
 40
2.999999999999943
100
AcDbArc
 50
0.0
 51
42.83342806602925
  0
ARC
  5
73E
330
6F7
100
AcDbEntity
  8
0
  6
Continuous
 62
     7
370
    15
100
AcDbCircle
 10
2010.759670970328
 20
1206.513048699339
 30
0.0
 40
3.0
100
AcDbArc
 50
137.1665718802089
 51
180.0
  0
LINE
  5
73F
330
6F7
100
AcDbEntity
  8
0
  6
Continuous
 62
     7
370
    15
100
AcDbLine
 10
2012.759670852609
 20
1203.012997641475
 30
0.0
 11
2013.759671016522
 21
1203.012997641475
 31
0.0
  0
LINE
  5
740
330
6F7
100
AcDbEntity
  8
0
  6
Continuous
 62
     7
370
    15
100
AcDbLine
 10
2013.759671016522
 20
1203.012997641475
 30
0.0
 11
2013.759671016522
 21
1206.513101591976
 31
0.0
  0
LINE
  5
741
330
6F7
100
AcDbEntity
  8
0
  6
Continuous
 62
     7
370
    15
100
AcDbLine
 10
2007.759670964368
 20
1206.513101591976
 30
0.0
 11
2007.759670964368
 21
1203.012997641475
 31
0.0
  0
LINE
  5
742
330
6F7
100
AcDbEntity
  8
0
  6
Continuous
 62
     7
370
    15
100
AcDbLine
 10
2012.255105427392
 20
1205.629045500667
 30
0.0
 11
2012.377577605583
 21
1204.062873854549
 31
0.0
  0
LINE
  5
743
330
6F7
100
AcDbEntity
  8
0
  6
Continuous
 62
     7
370
    15
100
AcDbLine
 10
2012.377577605583
 20
1204.062873854549
 30
0.0
 11
2012.759670852609
 21
1203.012997641475
 31
0.0
  0
ARC
  5
744
330
6F7
100
AcDbEntity
  8
0
  6
Continuous
 62
     7
370
    15
100
AcDbCircle
 10
2010.759670970328
 20
1205.512048696839
 30
0.0
 40
1.499999999999836
100
AcDbArc
 50
4.471403166191148
 51
175.5285968338088
  0
LINE
  5
745
330
6F7
100
AcDbEntity
  8
0
  6
Continuous
 62
     7
370
    15
100
AcDbLine
 10
2007.759670964368
 20
1203.012997641475
 30
0.0
 11
2008.75967089545
 21
1203.012997641475
 31
0.0
  0
LINE
  5
746
330
6F7
100
AcDbEntity
  8
0
  6
Continuous
 62
     7
370
    15
100
AcDbLine
 10
2008.75967089545
 20
1203.012997641475
 30
0.0
 11
2009.141764375307
 21
1204.062873854549
 31
0.0
  0
LINE
  5
747
330
6F7
100
AcDbEntity
  8
0
  6
Continuous
 62
     7
370
    15
100
AcDbLine
 10
2009.141764375307
 20
1204.062873854549
 30
0.0
 11
2009.264236320667
 21
1205.629045500667
 31
0.0
  0
LINE
  5
748
330
6F7
100
AcDbEntity
  8
0
  6
Continuous
 62
     7
370
    15
100
AcDbLine
 10
2008.559671002366
 20
1209.049160017879
 30
0.0
 11
2008.559671002366
 21
1208.5526533269
 31
0.0
  0
LINE
  5
749
330
6F7
100
AcDbEntity
  8
0
  6
Continuous
 62
     7
370
    15
100
AcDbLine
 10
2012.959670978524
 20
1208.5526533269
 30
0.0
 11
2012.959670978524
 21
1209.049160017879
 31
0.0
  0
ENDBLK
  5
6F9
330
6F7
100
AcDbEntity
  8
0
100
AcDbBlockEnd
  0
BLOCK
  5
74C
330
74B
100
AcDbEntity
  8
0
100
AcDbBlockBegin
  2
4
 70
     0
 10
0.0
 20
0.0
 30
0.0
  3
4
  1

  0
LINE
  5
74E
330
74B
100
AcDbEntity
  8
0
  6
Continuous
 62
     7
370
    15
100
AcDbLine
 10
2074.700226437844
 20
1240.564781911826
 30
0.0
 11
2072.861780905799
 21
1241.626093926814
 31
0.0
  0
LINE
  5
74F
330
74B
100
AcDbEntity
  8
0
  6
Continuous
 62
     7
370
    15
100
AcDbLine
 10
2068.210260433507
 20
1227.424966653516
 30
0.0
 11
2068.210260433507
 21
1229.05802725201
 31
0.0
  0
LINE
  5
750
330
74B
100
AcDbEntity
  8
0
  6
Continuous
 62
     7
370
    15
100
AcDbLine
 10
2068.210260433507
 20
1229.05802725201
 30
0.0
 11
2066.654625523326
 21
1228.159978333871
 31
0.0
  0
LINE
  5
751
330
74B
100
AcDbEntity
  8
0
  6
Continuous
 62
     7
370
    15
100
AcDbLine
 10
2066.654625523326
 20
1228.159978333871
 30
0.0
 11
2066.654625523326
 21
1226.526917735378
 31
0.0
  0
LINE
  5
752
330
74B
100
AcDbEntity
  8
0
  6
Continuous
 62
     7
370
    15
100
AcDbLine
 10
2066.654625523326
 20
1226.526917735378
 30
0.0
 11
2068.210260433507
 21
1227.424966653516
 31
0.0
  0
LINE
  5
753
330
74B
100
AcDbEntity
  8
0
  6
Continuous
 62
     7
370
    15
100
AcDbLine
 10
2056.684420052422
 20
1220.771240630056
 30
0.0
 11
2056.684420052422
 21
1222.40430122855
 31
0.0
  0
LINE
  5
754
330
74B
100
AcDbEntity
  8
0
  6
Continuous
 62
     7
370
    15
100
AcDbLine
 10
2056.684420052422
 20
1222.40430122855
 30
0.0
 11
2055.128785142241
 21
1221.506252310411
 31
0.0
  0
LINE
  5
755
330
74B
100
AcDbEntity
  8
0
  6
Continuous
 62
     7
370
    15
100
AcDbLine
 10
2055.128785142241
 20
1221.506252310411
 30
0.0
 11
2055.128785142241
 21
1219.873191711918
 31
0.0
  0
LINE
  5
756
330
74B
100
AcDbEntity
  8
0
  6
Continuous
 62
     7
370
    15
100
AcDbLine
 10
2055.128785142241
 20
1219.873191711918
 30
0.0
 11
2056.684420052422
 21
1220.771240630056
 31
0.0
  0
LINE
  5
757
330
74B
100
AcDbEntity
  8
0
  6
Continuous
 62
     7
370
    15
100
AcDbLine
 10
2062.447340407601
 20
1224.098103736829
 30
0.0
 11
2062.447340407601
 21
1225.731164335322
 31
0.0
  0
LINE
  5
758
330
74B
100
AcDbEntity
  8
0
  6
Continuous
 62
     7
370
    15
100
AcDbLine
 10
2062.447340407601
 20
1225.731164335322
 30
0.0
 11
2060.89170549742
 21
1224.833115417184
 31
0.0
  0
LINE
  5
759
330
74B
100
AcDbEntity
  8
0
  6
Continuous
 62
     7
370
    15
100
AcDbLine
 10
2060.89170549742
 20
1224.833115417184
 30
0.0
 11
2060.89170549742
 21
1223.20005481869
 31
0.0
  0
LINE
  5
75A
330
74B
100
AcDbEntity
  8
0
  6
Continuous
 62
     7
370
    15
100
AcDbLine
 10
2060.89170549742
 20
1223.20005481869
 30
0.0
 11
2062.447340407601
 21
1224.098103736829
 31
0.0
  0
LINE
  5
75B
330
74B
100
AcDbEntity
  8
0
  6
Continuous
 62
     7
370
    15
100
AcDbLine
 10
2073.973181447231
 20
1230.751830140458
 30
0.0
 11
2073.973181447231
 21
1232.384890738952
 31
0.0
  0
LINE
  5
75C
330
74B
100
AcDbEntity
  8
0
  6
Continuous
 62
     7
370
    15
100
AcDbLine
 10
2073.973181447231
 20
1232.384890738952
 30
0.0
 11
2072.41754653705
 21
1231.486841820813
 31
0.0
  0
LINE
  5
75D
330
74B
100
AcDbEntity
  8
0
  6
Continuous
 62
     7
370
    15
100
AcDbLine
 10
2072.41754653705
 20
1231.486841820813
 30
0.0
 11
2072.41754653705
 21
1229.85378122232
 31
0.0
  0
LINE
  5
75E
330
74B
100
AcDbEntity
  8
0
  6
Continuous
 62
     7
370
    15
100
AcDbLine
 10
2072.41754653705
 20
1229.85378122232
 30
0.0
 11
2073.973181447231
 21
1230.751830140458
 31
0.0
  0
LINE
  5
75F
330
74B
100
AcDbEntity
  8
0
  6
Continuous
 62
     7
370
    15
100
AcDbLine
 10
2064.179752042054
 20
1226.384249857652
 30
0.0
 11
2064.179752042054
 21
1227.323281603117
 31
0.0
  0
LINE
  5
760
330
74B
100
AcDbEntity
  8
0
  6
Continuous
 62
     7
370
    15
100
AcDbLine
 10
2064.002975317781
 20
1226.282198826947
 30
0.0
 11
2064.179752042054
 21
1226.384249857652
 31
0.0
  0
LINE
  5
761
330
74B
100
AcDbEntity
  8
0
  6
Continuous
 62
     7
370
    15
100
AcDbLine
 10
2064.002975317781
 20
1226.282198826947
 30
0.0
 11
2064.002975317781
 21
1224.070164369013
 31
0.0
  0
LINE
  5
762
330
74B
100
AcDbEntity
  8
0
  6
Continuous
 62
     7
370
    15
100
AcDbLine
 10
2063.649421869237
 20
1223.158989995063
 30
0.0
 11
2064.002975317781
 21
1224.070164369013
 31
0.0
  0
LINE
  5
763
330
74B
100
AcDbEntity
  8
0
  6
Continuous
 62
     7
370
    15
100
AcDbLine
 10
2059.689623953466
 20
1220.873047315947
 30
0.0
 11
2063.649421869237
 21
1223.158989995063
 31
0.0
  0
LINE
  5
764
330
74B
100
AcDbEntity
  8
0
  6
Continuous
 62
     7
370
    15
100
AcDbLine
 10
2059.33607054608
 20
1221.376017590835
 30
0.0
 11
2059.689623953466
 21
1220.873047315947
 31
0.0
  0
LINE
  5
765
330
74B
100
AcDbEntity
  8
0
  6
Continuous
 62
     7
370
    15
100
AcDbLine
 10
2059.33607054608
 20
1221.376017590835
 30
0.0
 11
2059.33607054608
 21
1225.323416199091
 31
0.0
  0
LINE
  5
766
330
74B
100
AcDbEntity
  8
0
  6
Continuous
 62
     7
370
    15
100
AcDbLine
 10
2059.212326863784
 20
1232.090257488061
 30
0.0
 11
2058.363798727217
 21
1231.600412621461
 31
0.0
  0
LINE
  5
767
330
74B
100
AcDbEntity
  8
0
  6
Continuous
 62
     7
370
    15
100
AcDbLine
 10
2058.363798727217
 20
1225.884651857109
 30
0.0
 11
2058.363798727217
 21
1231.600412621461
 31
0.0
  0
LINE
  5
768
330
74B
100
AcDbEntity
  8
0
  6
Continuous
 62
     7
370
    15
100
AcDbLine
 10
2058.363798727217
 20
1225.884651857109
 30
0.0
 11
2058.240055044921
 21
1225.813216149872
 31
0.0
  0
LINE
  5
769
330
74B
100
AcDbEntity
  8
0
  6
Continuous
 62
     7
370
    15
100
AcDbLine
 10
2058.240055044921
 20
1225.813216149872
 30
0.0
 11
2058.240055044921
 21
1220.743301309761
 31
0.0
  0
LINE
  5
76A
330
74B
100
AcDbEntity
  8
0
  6
Continuous
 62
     7
370
    15
100
AcDbLine
 10
2057.886501678694
 20
1219.832126983333
 30
0.0
 11
2058.240055044921
 21
1220.743301309761
 31
0.0
  0
LINE
  5
76B
330
74B
100
AcDbEntity
  8
0
  6
Continuous
 62
     7
370
    15
100
AcDbLine
 10
2053.57315023206
 20
1217.342082195285
 30
0.0
 11
2057.886501678694
 21
1219.832126983333
 31
0.0
  0
LINE
  5
76C
330
74B
100
AcDbEntity
  8
0
  6
Continuous
 62
     7
370
    15
100
AcDbLine
 10
2053.57315023206
 20
1220.261188965758
 30
0.0
 11
2053.57315023206
 21
1217.342082195285
 31
0.0
  0
LINE
  5
76D
330
74B
100
AcDbEntity
  8
0
  6
Continuous
 62
     7
370
    15
100
AcDbLine
 10
2053.396373507787
 20
1220.159137935053
 30
0.0
 11
2053.57315023206
 21
1220.261188965758
 31
0.0
  0
LINE
  5
76E
330
74B
100
AcDbEntity
  8
0
  6
Continuous
 62
     7
370
    15
100
AcDbLine
 10
2053.396373507787
 20
1221.098169680518
 30
0.0
 11
2053.396373507787
 21
1220.159137935053
 31
0.0
  0
LINE
  5
76F
330
74B
100
AcDbEntity
  8
0
  6
Continuous
 62
     7
370
    15
100
AcDbLine
 10
2053.57315023206
 20
1221.200220711223
 30
0.0
 11
2053.396373507787
 21
1221.098169680518
 31
0.0
  0
LINE
  5
770
330
74B
100
AcDbEntity
  8
0
  6
Continuous
 62
     7
370
    15
100
AcDbLine
 10
2053.57315023206
 20
1221.200220711223
 30
0.0
 11
2053.57315023206
 21
1226.058617360922
 31
0.0
  0
ARC
  5
771
330
74B
100
AcDbEntity
  8
0
  6
Continuous
 62
     7
370
    15
100
AcDbCircle
 10
2059.701890057134
 20
1225.786232436097
 30
0.0
 40
6.134789759292443
100
AcDbArc
 50
122.545329886462
 51
177.4552283866545
  0
LINE
  5
772
330
74B
100
AcDbEntity
  8
0
  6
Continuous
 62
     7
370
    15
100
AcDbLine
 10
2056.401577491149
 20
1230.95765219836
 30
0.0
 11
2072.70038876905
 21
1240.366755670693
 31
0.0
  0
ARC
  5
773
330
74B
100
AcDbEntity
  8
0
  6
Continuous
 62
     7
370
    15
100
AcDbCircle
 10
2073.800335679123
 20
1239.00586460764
 30
0.0
 40
1.749830760523694
100
AcDbArc
 50
351.040537601412
 51
128.9470471214539
  0
LINE
  5
774
330
74B
100
AcDbEntity
  8
0
  6
Continuous
 62
     7
370
    15
100
AcDbLine
 10
2075.528816357412
 20
1238.733353625741
 30
0.0
 11
2075.528816357412
 21
1233.874956976041
 31
0.0
  0
LINE
  5
775
330
74B
100
AcDbEntity
  8
0
  6
Continuous
 62
     7
370
    15
100
AcDbLine
 10
2075.705592093868
 20
1233.977007436492
 30
0.0
 11
2075.528816357412
 21
1233.874956976041
 31
0.0
  0
LINE
  5
776
330
74B
100
AcDbEntity
  8
0
  6
Continuous
 62
     7
370
    15
100
AcDbLine
 10
2075.705592093868
 20
1233.037975691027
 30
0.0
 11
2075.705592093868
 21
1233.977007436492
 31
0.0
  0
LINE
  5
777
330
74B
100
AcDbEntity
  8
0
  6
Continuous
 62
     7
370
    15
100
AcDbLine
 10
2075.528816357412
 20
1232.935925230576
 30
0.0
 11
2075.705592093868
 21
1233.037975691027
 31
0.0
  0
LINE
  5
778
330
74B
100
AcDbEntity
  8
0
  6
Continuous
 62
     7
370
    15
100
AcDbLine
 10
2075.528816357412
 20
1230.016818460103
 30
0.0
 11
2075.528816357412
 21
1232.935925230576
 31
0.0
  0
LINE
  5
779
330
74B
100
AcDbEntity
  8
0
  6
Continuous
 62
     7
370
    15
100
AcDbLine
 10
2075.528816357412
 20
1230.016818460103
 30
0.0
 11
2071.215464416869
 21
1227.526773386928
 31
0.0
  0
LINE
  5
77A
330
74B
100
AcDbEntity
  8
0
  6
Continuous
 62
     7
370
    15
100
AcDbLine
 10
2071.215464416869
 20
1227.526773386928
 30
0.0
 11
2070.861911626868
 21
1228.029744018226
 31
0.0
  0
LINE
  5
77B
330
74B
100
AcDbEntity
  8
0
  6
Continuous
 62
     7
370
    15
100
AcDbLine
 10
2070.861911626868
 20
1231.977142626481
 30
0.0
 11
2070.861911626868
 21
1228.029744018226
 31
0.0
  0
LINE
  5
77C
330
74B
100
AcDbEntity
  8
0
  6
Continuous
 62
     7
370
    15
100
AcDbLine
 10
2069.88963914946
 20
1238.254138668682
 30
0.0
 11
2070.738167162551
 21
1238.743983463999
 31
0.0
  0
LINE
  5
77D
330
74B
100
AcDbEntity
  8
0
  6
Continuous
 62
     7
370
    15
100
AcDbLine
 10
2069.88963914946
 20
1232.53837790433
 30
0.0
 11
2069.88963914946
 21
1238.254138668682
 31
0.0
  0
LINE
  5
77E
330
74B
100
AcDbEntity
  8
0
  6
Continuous
 62
     7
370
    15
100
AcDbLine
 10
2069.765895343688
 20
1232.46694212581
 30
0.0
 11
2069.88963914946
 21
1232.53837790433
 31
0.0
  0
LINE
  5
77F
330
74B
100
AcDbEntity
  8
0
  6
Continuous
 62
     7
370
    15
100
AcDbLine
 10
2069.765895343688
 20
1227.3970272857
 30
0.0
 11
2069.765895343688
 21
1232.46694212581
 31
0.0
  0
LINE
  5
780
330
74B
100
AcDbEntity
  8
0
  6
Continuous
 62
     7
370
    15
100
AcDbLine
 10
2069.765895343688
 20
1227.3970272857
 30
0.0
 11
2069.412341895143
 21
1226.485852911751
 31
0.0
  0
LINE
  5
781
330
74B
100
AcDbEntity
  8
0
  6
Continuous
 62
     7
370
    15
100
AcDbLine
 10
2069.412341895143
 20
1226.485852911751
 30
0.0
 11
2065.45254406169
 21
1224.199910280156
 31
0.0
  0
LINE
  5
782
330
74B
100
AcDbEntity
  8
0
  6
Continuous
 62
     7
370
    15
100
AcDbLine
 10
2065.45254406169
 20
1224.199910280156
 30
0.0
 11
2065.098990613145
 21
1224.702880531284
 31
0.0
  0
LINE
  5
783
330
74B
100
AcDbEntity
  8
0
  6
Continuous
 62
     7
370
    15
100
AcDbLine
 10
2065.098990613145
 20
1226.914914989218
 30
0.0
 11
2065.098990613145
 21
1224.702880531284
 31
0.0
  0
LINE
  5
784
330
74B
100
AcDbEntity
  8
0
  6
Continuous
 62
     7
370
    15
100
AcDbLine
 10
2064.922214218145
 20
1226.812864148598
 30
0.0
 11
2065.098990613145
 21
1226.914914989218
 31
0.0
  0
LINE
  5
785
330
74B
100
AcDbEntity
  8
0
  6
Continuous
 62
     7
370
    15
100
AcDbLine
 10
2064.922214218145
 20
1227.751895894062
 30
0.0
 11
2064.922214218145
 21
1226.812864148598
 31
0.0
  0
LINE
  5
786
330
74B
100
AcDbEntity
  8
0
  6
Continuous
 62
     7
370
    15
100
AcDbLine
 10
2065.098990613145
 20
1227.853946734683
 30
0.0
 11
2064.922214218145
 21
1227.751895894062
 31
0.0
  0
LINE
  5
787
330
74B
100
AcDbEntity
  8
0
  6
Continuous
 62
     7
370
    15
100
AcDbLine
 10
2065.098990613145
 20
1229.772795371394
 30
0.0
 11
2065.098990613145
 21
1227.853946734683
 31
0.0
  0
LINE
  5
788
330
74B
100
AcDbEntity
  8
0
  6
Continuous
 62
     7
370
    15
100
AcDbLine
 10
2065.098990613145
 20
1229.772795371394
 30
0.0
 11
2064.002975317781
 21
1229.140079209123
 31
0.0
  0
LINE
  5
789
330
74B
100
AcDbEntity
  8
0
  6
Continuous
 62
     7
370
    15
100
AcDbLine
 10
2064.002975317781
 20
1229.140079209123
 30
0.0
 11
2064.002975317781
 21
1227.221230572412
 31
0.0
  0
LINE
  5
78A
330
74B
100
AcDbEntity
  8
0
  6
Continuous
 62
     7
370
    15
100
AcDbLine
 10
2064.179752042054
 20
1227.323281603117
 30
0.0
 11
2064.002975317781
 21
1227.221230572412
 31
0.0
  0
LINE
  5
78B
330
74B
100
AcDbEntity
  8
0
  6
Continuous
 62
     7
370
    15
100
AcDbLine
 10
2053.57315023206
 20
1226.058617360922
 30
0.0
 11
2051.734704700014
 21
1227.119929375911
 31
0.0
  0
ARC
  5
78C
330
74B
100
AcDbEntity
  8
0
  6
Continuous
 62
     7
370
    15
100
AcDbCircle
 10
2057.863459047668
 20
1226.847536066564
 30
0.0
 40
6.134804639828515
100
AcDbArc
 50
122.5454020940477
 51
177.4551561790744
  0
LINE
  5
78D
330
74B
100
AcDbEntity
  8
0
  6
Continuous
 62
     7
370
    15
100
AcDbLine
 10
2054.563131959104
 20
1232.018964213348
 30
0.0
 11
2056.401577491149
 21
1230.95765219836
 31
0.0
  0
LINE
  5
78E
330
74B
100
AcDbEntity
  8
0
  6
Continuous
 62
     7
370
    15
100
AcDbLine
 10
2051.734704700014
 20
1222.261532726211
 30
0.0
 11
2053.57315023206
 21
1221.200220711223
 31
0.0
  0
LINE
  5
78F
330
74B
100
AcDbEntity
  8
0
  6
Continuous
 62
     7
370
    15
100
AcDbLine
 10
2051.734704700014
 20
1222.261532726211
 30
0.0
 11
2051.734704700014
 21
1227.119929375911
 31
0.0
  0
LINE
  5
790
330
74B
100
AcDbEntity
  8
0
  6
Continuous
 62
     7
370
    15
100
AcDbLine
 10
2070.861943237005
 20
1241.428067685681
 30
0.0
 11
2072.70038876905
 21
1240.366755670693
 31
0.0
  0
LINE
  5
791
330
74B
100
AcDbEntity
  8
0
  6
Continuous
 62
     7
370
    15
100
AcDbLine
 10
2054.563131959104
 20
1232.018964213348
 30
0.0
 11
2070.861943237005
 21
1241.428067685681
 31
0.0
  0
LINE
  5
792
330
74B
100
AcDbEntity
  8
0
  6
Continuous
 62
     7
370
    15
100
AcDbLine
 10
2058.363798727217
 20
1225.884651857109
 30
0.0
 11
2059.919438905753
 21
1224.986599897613
 31
0.0
  0
LINE
  5
793
330
74B
100
AcDbEntity
  8
0
  6
Continuous
 62
     7
370
    15
100
AcDbLine
 10
2058.363798727217
 20
1231.600412621461
 30
0.0
 11
2059.919438905753
 21
1224.986599897613
 31
0.0
  0
LINE
  5
794
330
74B
100
AcDbEntity
  8
0
  6
Continuous
 62
     7
370
    15
100
AcDbLine
 10
2059.212326863784
 20
1232.090257488061
 30
0.0
 11
2060.767967042322
 21
1225.476444764213
 31
0.0
  0
LINE
  5
795
330
74B
100
AcDbEntity
  8
0
  6
Continuous
 62
     7
370
    15
100
AcDbLine
 10
2059.919438905753
 20
1224.986599897613
 30
0.0
 11
2060.767967042322
 21
1225.476444764213
 31
0.0
  0
LINE
  5
796
330
74B
100
AcDbEntity
  8
0
  6
Continuous
 62
     7
370
    15
100
AcDbLine
 10
2058.053493584031
 20
1214.183978461055
 30
0.0
 11
2058.053493584031
 21
1214.755554537491
 31
0.0
  0
LINE
  5
797
330
74B
100
AcDbEntity
  8
0
  6
Continuous
 62
     7
370
    15
100
AcDbLine
 10
2058.053493584031
 20
1214.755554537491
 30
0.0
 11
2058.760600481121
 21
1215.163758660312
 31
0.0
  0
LINE
  5
798
330
74B
100
AcDbEntity
  8
0
  6
Continuous
 62
     7
370
    15
100
AcDbLine
 10
2058.760600481121
 20
1214.592182583877
 30
0.0
 11
2058.760600481121
 21
1215.163758660312
 31
0.0
  0
LINE
  5
799
330
74B
100
AcDbEntity
  8
0
  6
Continuous
 62
     7
370
    15
100
AcDbLine
 10
2058.760600481121
 20
1214.592182583877
 30
0.0
 11
2058.053493584031
 21
1214.183978461055
 31
0.0
  0
LINE
  5
79A
330
74B
100
AcDbEntity
  8
0
  6
Continuous
 62
     7
370
    15
100
AcDbLine
 10
2055.578546345774
 20
1215.367829536575
 30
0.0
 11
2056.850369646439
 21
1214.633621573157
 31
0.0
  0
LINE
  5
79B
330
74B
100
AcDbEntity
  8
0
  6
Continuous
 62
     7
370
    15
100
AcDbLine
 10
2055.578546345774
 20
1215.367829536575
 30
0.0
 11
2055.578546345774
 21
1216.184311166196
 31
0.0
  0
LINE
  5
79C
330
74B
100
AcDbEntity
  8
0
  6
Continuous
 62
     7
370
    15
100
AcDbLine
 10
2055.578546345774
 20
1216.184311166196
 30
0.0
 11
2058.053493584031
 21
1214.755554537491
 31
0.0
  0
LINE
  5
79D
330
74B
100
AcDbEntity
  8
0
  6
Continuous
 62
     7
370
    15
100
AcDbLine
 10
2058.053493584031
 20
1214.183978461055
 30
0.0
 11
2056.850369646439
 21
1214.633621573157
 31
0.0
  0
LWPOLYLINE
  5
79E
330
74B
100
AcDbEntity
  8
0
  6
Continuous
 62
     7
370
    15
100
AcDbPolyline
 90
       23
 70
   128
 43
0.0
 10
2057.267556933701
 20
1216.437605659938
 10
2057.146177961257
 20
1216.531817022159
 10
2057.047988975117
 20
1216.634646830397
 10
2056.974783191976
 20
1216.744210583686
 10
2056.928017970831
 20
1216.858429894538
 10
2056.908326831497
 20
1216.975334723814
 10
2056.916305427483
 20
1217.092641202327
 10
2056.951613620551
 20
1217.208303827264
 10
2057.01377067321
 20
1217.320098606159
 10
2057.101520082537
 20
1217.426034970711
 10
2057.213295829694
 20
1217.524138319747
 10
2057.347097585737
 20
1217.61257262393
 10
2057.500287056731
 20
1217.689814828591
 10
2057.670225290197
 20
1217.754341498892
 10
2057.853732668613
 20
1217.804998344724
 10
2058.047387723989
 20
1217.8408807524
 10
2058.247742975825
 20
1217.861263738394
 10
2058.450945774114
 20
1217.865869683817
 10
2058.653452984767
 20
1217.854502326086
 10
2058.851307907742
 20
1217.827505243523
 10
2059.041098459309
 20
1217.785244444462
 10
2059.219224047371
 20
1217.728561054259
 10
2059.382420760708
 20
1217.658490560004
  0
LINE
  5
79F
330
74B
100
AcDbEntity
  8
0
  6
Continuous
 62
     7
370
    15
100
AcDbLine
 10
2058.288406617468
 20
1215.748294401866
 30
0.0
 11
2057.267556933701
 21
1216.437605659938
 31
0.0
  0
LINE
  5
7A0
330
74B
100
AcDbEntity
  8
0
  6
Continuous
 62
     7
370
    15
100
AcDbLine
 10
2058.760600481121
 20
1215.163758660312
 30
0.0
 11
2058.288406617468
 21
1215.748294401866
 31
0.0
  0
ARC
  5
7A1
330
74B
100
AcDbEntity
  8
0
  6
Continuous
 62
     7
370
    15
100
AcDbCircle
 10
2056.230624806731
 20
1217.588347256223
 30
0.0
 40
1.548070948419428
100
AcDbArc
 50
189.1029847781368
 51
245.0883641713302
  0
LINE
  5
7A2
330
74B
100
AcDbEntity
  8
0
  6
Continuous
 62
     7
370
    15
100
AcDbLine
 10
2054.702050935246
 20
1217.343427716874
 30
0.0
 11
2054.138800451747
 21
1217.668585299824
 31
0.0
  0
LINE
  5
7A3
330
74B
100
AcDbEntity
  8
0
  6
Continuous
 62
     7
370
    15
100
AcDbLine
 10
2057.250070354426
 20
1219.464683183623
 30
0.0
 11
2057.813320837926
 21
1219.139525600672
 31
0.0
  0
ARC
  5
7A4
330
74B
100
AcDbEntity
  8
0
  6
Continuous
 62
     7
370
    15
100
AcDbCircle
 10
2057.803566658627
 20
1214.864023155891
 30
0.0
 40
4.275513571414263
100
AcDbArc
 50
61.84221379807566
 51
89.8692849918606
  0
LINE
  5
7A5
330
74B
100
AcDbEntity
  8
0
  6
Continuous
 62
     7
370
    15
100
AcDbLine
 10
2062.296134390346
 20
1217.20477894177
 30
0.0
 11
2059.82118715209
 21
1218.633535570475
 31
0.0
  0
LINE
  5
7A6
330
74B
100
AcDbEntity
  8
0
  6
Continuous
 62
     7
370
    15
100
AcDbLine
 10
2061.589027575574
 20
1216.796574866469
 30
0.0
 11
2062.296134390346
 21
1217.20477894177
 31
0.0
  0
LINE
  5
7A7
330
74B
100
AcDbEntity
  8
0
  6
Continuous
 62
     7
370
    15
100
AcDbLine
 10
2060.576472259886
 20
1217.069166581679
 30
0.0
 11
2061.589027575574
 21
1216.796574866469
 31
0.0
  0
LINE
  5
7A8
330
74B
100
AcDbEntity
  8
0
  6
Continuous
 62
     7
370
    15
100
AcDbLine
 10
2059.382420760708
 20
1217.658490560004
 30
0.0
 11
2060.576472259886
 21
1217.069166581679
 31
0.0
  0
LINE
  5
7A9
330
74B
100
AcDbEntity
  8
0
  6
Continuous
 62
     7
370
    15
100
AcDbLine
 10
2053.396373507787
 20
1221.098169680518
 30
0.0
 11
2051.557927975742
 21
1222.159481695506
 31
0.0
  0
LINE
  5
7AA
330
74B
100
AcDbEntity
  8
0
  6
Continuous
 62
     7
370
    15
100
AcDbLine
 10
2051.557927975742
 20
1222.159481695506
 30
0.0
 11
2051.734704700014
 21
1222.261532726211
 31
0.0
  0
LINE
  5
7AB
330
74B
100
AcDbEntity
  8
0
  6
Continuous
 62
     7
370
    15
100
AcDbLine
 10
2053.396373507787
 20
1220.159137935053
 30
0.0
 11
2051.557927975742
 21
1221.220449950041
 31
0.0
  0
LINE
  5
7AC
330
74B
100
AcDbEntity
  8
0
  6
Continuous
 62
     7
370
    15
100
AcDbLine
 10
2051.557927975742
 20
1221.220449950041
 30
0.0
 11
2051.557927975742
 21
1222.159481695506
 31
0.0
  0
LINE
  5
7AD
330
74B
100
AcDbEntity
  8
0
  6
Continuous
 62
     7
370
    15
100
AcDbLine
 10
2051.734704700014
 20
1218.403394210274
 30
0.0
 11
2053.57315023206
 21
1217.342082195285
 31
0.0
  0
LINE
  5
7AE
330
74B
100
AcDbEntity
  8
0
  6
Continuous
 62
     7
370
    15
100
AcDbLine
 10
2051.734704700014
 20
1221.118380573341
 30
0.0
 11
2051.734704700014
 21
1218.403394210274
 31
0.0
  0
LINE
  5
7AF
330
74B
100
AcDbEntity
  8
0
  6
Continuous
 62
     7
370
    15
100
AcDbLine
 10
2054.702050935246
 20
1216.526946087252
 30
0.0
 11
2054.702050935246
 21
1217.343427716874
 31
0.0
  0
ARC
  5
7B0
330
74B
100
AcDbEntity
  8
0
  6
Continuous
 62
     7
370
    15
100
AcDbCircle
 10
2056.230624806731
 20
1216.771865626601
 30
0.0
 40
1.548070948419372
100
AcDbArc
 50
189.1029847781368
 51
245.0883641713302
  0
LINE
  5
7B1
330
74B
100
AcDbEntity
  8
0
  6
Continuous
 62
     7
370
    15
100
AcDbLine
 10
2056.401626552715
 20
1220.852853169999
 30
0.0
 11
2056.161136635112
 21
1222.102228548407
 31
0.0
  0
LINE
  5
7B2
330
74B
100
AcDbEntity
  8
0
  6
Continuous
 62
     7
370
    15
100
AcDbLine
 10
2056.401626552715
 20
1220.852853169999
 30
0.0
 11
2055.128834203807
 21
1220.118085786938
 31
0.0
  0
LINE
  5
7B3
330
74B
100
AcDbEntity
  8
0
  6
Continuous
 62
     7
370
    15
100
AcDbLine
 10
2059.382420760708
 20
1216.842008930382
 30
0.0
 11
2059.382420760708
 21
1217.658490560004
 31
0.0
  0
ARC
  5
7B4
330
74B
100
AcDbEntity
  8
0
  6
Continuous
 62
     7
370
    15
100
AcDbCircle
 10
2058.425848209164
 20
1214.950356029246
 30
0.0
 40
2.119759831853712
100
AcDbArc
 50
63.17515227687043
 51
129.2416417742375
  0
LINE
  5
7B5
330
74B
100
AcDbEntity
  8
0
  6
Continuous
 62
     7
370
    15
100
AcDbLine
 10
2061.589027575574
 20
1216.796574866469
 30
0.0
 11
2061.589027575574
 21
1216.224998790034
 31
0.0
  0
LINE
  5
7B6
330
74B
100
AcDbEntity
  8
0
  6
Continuous
 62
     7
370
    15
100
AcDbLine
 10
2060.576472259886
 20
1216.346422649878
 30
0.0
 11
2061.589027575574
 21
1216.224998790034
 31
0.0
  0
LINE
  5
7B7
330
74B
100
AcDbEntity
  8
0
  6
Continuous
 62
     7
370
    15
100
AcDbLine
 10
2060.576472259886
 20
1216.346422649878
 30
0.0
 11
2060.576472259886
 21
1217.069166581679
 31
0.0
  0
LINE
  5
7B8
330
74B
100
AcDbEntity
  8
0
  6
Continuous
 62
     7
370
    15
100
AcDbLine
 10
2062.296134390346
 20
1216.633202865334
 30
0.0
 11
2062.296134390346
 21
1217.20477894177
 31
0.0
  0
LINE
  5
7B9
330
74B
100
AcDbEntity
  8
0
  6
Continuous
 62
     7
370
    15
100
AcDbLine
 10
2062.296134390346
 20
1216.633202865334
 30
0.0
 11
2061.589027575574
 21
1216.224998790034
 31
0.0
  0
LINE
  5
7BA
330
74B
100
AcDbEntity
  8
0
  6
Continuous
 62
     7
370
    15
100
AcDbLine
 10
2060.576472259886
 20
1216.346422649878
 30
0.0
 11
2060.07969278948
 21
1216.497870141988
 31
0.0
  0
LINE
  5
7BB
330
74B
100
AcDbEntity
  8
0
  6
Continuous
 62
     7
370
    15
100
AcDbLine
 10
2059.382420760708
 20
1216.842008930382
 30
0.0
 11
2060.07969278948
 21
1216.497870141988
 31
0.0
  0
LINE
  5
7BC
330
74B
100
AcDbEntity
  8
0
  6
Continuous
 62
     7
370
    15
100
AcDbLine
 10
2056.383913022539
 20
1220.944719645803
 30
0.0
 11
2056.684420052422
 21
1220.771240630056
 31
0.0
  0
ARC
  5
7BD
330
74B
100
AcDbEntity
  8
0
  6
Continuous
 62
     7
370
    15
100
AcDbCircle
 10
2054.767027447529
 20
1218.352946628664
 30
0.0
 40
1.614352856704899
100
AcDbArc
 50
215.7911733575235
 51
238.6325709767909
  0
LINE
  5
7BE
330
74B
100
AcDbEntity
  8
0
  6
Continuous
 62
     7
370
    15
100
AcDbLine
 10
2054.702050935246
 20
1216.526946087252
 30
0.0
 11
2053.926717510039
 21
1216.974536546393
 31
0.0
  0
LINE
  5
7BF
330
74B
100
AcDbEntity
  8
0
  6
Continuous
 62
     7
370
    15
100
AcDbLine
 10
2058.240083897402
 20
1222.008717215727
 30
0.0
 11
2059.33607054608
 21
1221.376017590835
 31
0.0
  0
LWPOLYLINE
  5
7C0
330
74B
100
AcDbEntity
  8
0
  6
Continuous
 62
     7
370
    15
100
AcDbPolyline
 90
       23
 70
   128
 43
0.0
 10
2063.030477124244
 20
1219.764468671668
 10
2062.909098316436
 20
1219.858680128931
 10
2062.810909165659
 20
1219.961509842126
 10
2062.737703382518
 20
1220.071073595416
 10
2062.690938161373
 20
1220.185292906268
 10
2062.671247186676
 20
1220.302197830586
 10
2062.679225782662
 20
1220.4195043091
 10
2062.714533811094
 20
1220.535166838994
 10
2062.776690863752
 20
1220.646961617889
 10
2062.864440437716
 20
1220.752898077483
 10
2062.976216184873
 20
1220.851001426519
 10
2063.110017940916
 20
1220.939435730702
 10
2063.263207247274
 20
1221.016677840321
 10
2063.433145645375
 20
1221.081204605664
 10
2063.616653023792
 20
1221.131861451496
 10
2063.810307914531
 20
1221.16774376413
 10
2064.010663166368
 20
1221.188126750125
 10
2064.213865964656
 20
1221.192732695547
 10
2064.416373339945
 20
1221.181365432858
 10
2064.614228098285
 20
1221.154368255253
 10
2064.804018649851
 20
1221.112107456192
 10
2064.982144402549
 20
1221.055424161031
 10
2065.145340951251
 20
1220.985353571733
  0
LINE
  5
7C1
330
74B
100
AcDbEntity
  8
0
  6
Continuous
 62
     7
370
    15
100
AcDbLine
 10
2064.051326972647
 20
1219.075157508638
 30
0.0
 11
2063.030477124244
 21
1219.764468671668
 31
0.0
  0
LINE
  5
7C2
330
74B
100
AcDbEntity
  8
0
  6
Continuous
 62
     7
370
    15
100
AcDbLine
 10
2064.523520671663
 20
1218.490621672042
 30
0.0
 11
2064.051326972647
 21
1219.075157508638
 31
0.0
  0
LINE
  5
7C3
330
74B
100
AcDbEntity
  8
0
  6
Continuous
 62
     7
370
    15
100
AcDbLine
 10
2063.816413939209
 20
1218.082417644263
 30
0.0
 11
2064.523520671663
 21
1218.490621672042
 31
0.0
  0
LINE
  5
7C4
330
74B
100
AcDbEntity
  8
0
  6
Continuous
 62
     7
370
    15
100
AcDbLine
 10
2061.341466700953
 20
1219.511174272969
 30
0.0
 11
2063.816413939209
 21
1218.082417644263
 31
0.0
  0
ARC
  5
7C5
330
74B
100
AcDbEntity
  8
0
  6
Continuous
 62
     7
370
    15
100
AcDbCircle
 10
2061.993544429281
 20
1220.915209808999
 30
0.0
 40
1.548070137370232
100
AcDbArc
 50
189.1029688222867
 51
245.0883801271797
  0
LINE
  5
7C6
330
74B
100
AcDbEntity
  8
0
  6
Continuous
 62
     7
370
    15
100
AcDbLine
 10
2059.901720806925
 20
1220.995448406596
 30
0.0
 11
2060.464971290425
 21
1220.670290823646
 31
0.0
  0
LINE
  5
7C7
330
74B
100
AcDbEntity
  8
0
  6
Continuous
 62
     7
370
    15
100
AcDbLine
 10
2063.576241110787
 20
1222.466388659924
 30
0.0
 11
2063.012990627287
 21
1222.791546242874
 31
0.0
  0
ARC
  5
7C8
330
74B
100
AcDbEntity
  8
0
  6
Continuous
 62
     7
370
    15
100
AcDbCircle
 10
2063.56648652491
 20
1218.190884601765
 30
0.0
 40
4.275515185714746
100
AcDbArc
 50
61.84221919723793
 51
89.86927959269486
  0
LINE
  5
7C9
330
74B
100
AcDbEntity
  8
0
  6
Continuous
 62
     7
370
    15
100
AcDbLine
 10
2068.059054663207
 20
1220.531642001021
 30
0.0
 11
2065.58410742495
 21
1221.960398629726
 31
0.0
  0
LINE
  5
7CA
330
74B
100
AcDbEntity
  8
0
  6
Continuous
 62
     7
370
    15
100
AcDbLine
 10
2067.351947766117
 20
1220.123437878199
 30
0.0
 11
2068.059054663207
 21
1220.531642001021
 31
0.0
  0
LINE
  5
7CB
330
74B
100
AcDbEntity
  8
0
  6
Continuous
 62
     7
370
    15
100
AcDbLine
 10
2066.339392450428
 20
1220.396029593408
 30
0.0
 11
2067.351947766117
 21
1220.123437878199
 31
0.0
  0
LINE
  5
7CC
330
74B
100
AcDbEntity
  8
0
  6
Continuous
 62
     7
370
    15
100
AcDbLine
 10
2065.145340951251
 20
1220.985353571733
 30
0.0
 11
2066.339392450428
 21
1220.396029593408
 31
0.0
  0
LINE
  5
7CD
330
74B
100
AcDbEntity
  8
0
  6
Continuous
 62
     7
370
    15
100
AcDbLine
 10
2064.523520671663
 20
1217.919045595606
 30
0.0
 11
2064.523520671663
 21
1218.490621672042
 31
0.0
  0
LINE
  5
7CE
330
74B
100
AcDbEntity
  8
0
  6
Continuous
 62
     7
370
    15
100
AcDbLine
 10
2063.816413939209
 20
1217.510841567828
 30
0.0
 11
2064.523520671663
 21
1217.919045595606
 31
0.0
  0
LINE
  5
7CF
330
74B
100
AcDbEntity
  8
0
  6
Continuous
 62
     7
370
    15
100
AcDbLine
 10
2063.816413939209
 20
1218.082417644263
 30
0.0
 11
2063.816413939209
 21
1217.510841567828
 31
0.0
  0
LINE
  5
7D0
330
74B
100
AcDbEntity
  8
0
  6
Continuous
 62
     7
370
    15
100
AcDbLine
 10
2061.341466700953
 20
1219.511174272969
 30
0.0
 11
2061.341466700953
 21
1218.694692643347
 31
0.0
  0
LINE
  5
7D1
330
74B
100
AcDbEntity
  8
0
  6
Continuous
 62
     7
370
    15
100
AcDbLine
 10
2062.613290001618
 20
1217.960484679929
 30
0.0
 11
2063.816413939209
 21
1217.510841567828
 31
0.0
  0
LINE
  5
7D2
330
74B
100
AcDbEntity
  8
0
  6
Continuous
 62
     7
370
    15
100
AcDbLine
 10
2061.341466700953
 20
1218.694692643347
 30
0.0
 11
2062.613290001618
 21
1217.960484679929
 31
0.0
  0
LINE
  5
7D3
330
74B
100
AcDbEntity
  8
0
  6
Continuous
 62
     7
370
    15
100
AcDbLine
 10
2060.464971290425
 20
1220.670290823646
 30
0.0
 11
2060.464971290425
 21
1219.853809194024
 31
0.0
  0
ARC
  5
7D4
330
74B
100
AcDbEntity
  8
0
  6
Continuous
 62
     7
370
    15
100
AcDbCircle
 10
2061.993544429281
 20
1220.098728179377
 30
0.0
 40
1.548070137370265
100
AcDbArc
 50
189.1029688222867
 51
245.0883801271797
  0
LINE
  5
7D5
330
74B
100
AcDbEntity
  8
0
  6
Continuous
 62
     7
370
    15
100
AcDbLine
 10
2062.164546907894
 20
1224.179716276771
 30
0.0
 11
2061.924056990291
 21
1225.429091655179
 31
0.0
  0
LINE
  5
7D6
330
74B
100
AcDbEntity
  8
0
  6
Continuous
 62
     7
370
    15
100
AcDbLine
 10
2062.164546907894
 20
1224.179716276771
 30
0.0
 11
2060.891754558985
 21
1223.44494889371
 31
0.0
  0
LINE
  5
7D7
330
74B
100
AcDbEntity
  8
0
  6
Continuous
 62
     7
370
    15
100
AcDbLine
 10
2069.88963914946
 20
1232.53837790433
 30
0.0
 11
2071.445279327997
 21
1231.640325944834
 31
0.0
  0
LINE
  5
7D8
330
74B
100
AcDbEntity
  8
0
  6
Continuous
 62
     7
370
    15
100
AcDbLine
 10
2069.88963914946
 20
1238.254138668682
 30
0.0
 11
2071.445279327997
 21
1231.640325944834
 31
0.0
  0
LINE
  5
7D9
330
74B
100
AcDbEntity
  8
0
  6
Continuous
 62
     7
370
    15
100
AcDbLine
 10
2070.738167162551
 20
1238.743983463999
 30
0.0
 11
2072.293807341088
 21
1232.130170740151
 31
0.0
  0
LINE
  5
7DA
330
74B
100
AcDbEntity
  8
0
  6
Continuous
 62
     7
370
    15
100
AcDbLine
 10
2072.293807341088
 20
1232.130170740151
 30
0.0
 11
2071.445279327997
 21
1231.640325944834
 31
0.0
  0
LINE
  5
7DB
330
74B
100
AcDbEntity
  8
0
  6
Continuous
 62
     7
370
    15
100
AcDbLine
 10
2065.145340951251
 20
1220.168871942111
 30
0.0
 11
2065.145340951251
 21
1220.985353571733
 31
0.0
  0
ARC
  5
7DC
330
74B
100
AcDbEntity
  8
0
  6
Continuous
 62
     7
370
    15
100
AcDbCircle
 10
2064.188768403656
 20
1218.277219004672
 30
0.0
 40
2.11975986246903
100
AcDbArc
 50
63.17515281493943
 51
129.2416412361658
  0
LINE
  5
7DD
330
74B
100
AcDbEntity
  8
0
  6
Continuous
 62
     7
370
    15
100
AcDbLine
 10
2058.240109539479
 20
1221.709834175632
 30
0.0
 11
2059.689623953466
 21
1220.873047315947
 31
0.0
  0
LINE
  5
7DE
330
74B
100
AcDbEntity
  8
0
  6
Continuous
 62
     7
370
    15
100
AcDbLine
 10
2066.339392450428
 20
1219.673285661608
 30
0.0
 11
2066.339392450428
 21
1220.396029593408
 31
0.0
  0
LINE
  5
7DF
330
74B
100
AcDbEntity
  8
0
  6
Continuous
 62
     7
370
    15
100
AcDbLine
 10
2067.351947766117
 20
1220.123437878199
 30
0.0
 11
2067.351947766117
 21
1219.551861801764
 31
0.0
  0
LINE
  5
7E0
330
74B
100
AcDbEntity
  8
0
  6
Continuous
 62
     7
370
    15
100
AcDbLine
 10
2067.351947766117
 20
1219.551861801764
 30
0.0
 11
2066.339392450428
 21
1219.673285661608
 31
0.0
  0
LINE
  5
7E1
330
74B
100
AcDbEntity
  8
0
  6
Continuous
 62
     7
370
    15
100
AcDbLine
 10
2068.059054663207
 20
1220.531642001021
 30
0.0
 11
2068.059054663207
 21
1219.960065924585
 31
0.0
  0
LINE
  5
7E2
330
74B
100
AcDbEntity
  8
0
  6
Continuous
 62
     7
370
    15
100
AcDbLine
 10
2067.351947766117
 20
1219.551861801764
 30
0.0
 11
2068.059054663207
 21
1219.960065924585
 31
0.0
  0
LINE
  5
7E3
330
74B
100
AcDbEntity
  8
0
  6
Continuous
 62
     7
370
    15
100
AcDbLine
 10
2066.339392450428
 20
1219.673285661608
 30
0.0
 11
2065.842613144659
 21
1219.82473324876
 31
0.0
  0
LINE
  5
7E4
330
74B
100
AcDbEntity
  8
0
  6
Continuous
 62
     7
370
    15
100
AcDbLine
 10
2065.145340951251
 20
1220.168871942111
 30
0.0
 11
2065.842613144659
 21
1219.82473324876
 31
0.0
  0
LINE
  5
7E5
330
74B
100
AcDbEntity
  8
0
  6
Continuous
 62
     7
370
    15
100
AcDbLine
 10
2062.146833377718
 20
1224.271582752575
 30
0.0
 11
2062.447340407601
 21
1224.098103736829
 31
0.0
  0
ARC
  5
7E6
330
74B
100
AcDbEntity
  8
0
  6
Continuous
 62
     7
370
    15
100
AcDbCircle
 10
2060.70810825282
 20
1221.874986531886
 30
0.0
 40
1.87442193630619
100
AcDbArc
 50
197.2776371182648
 51
237.0879020761726
  0
LINE
  5
7E7
330
74B
100
AcDbEntity
  8
0
  6
Continuous
 62
     7
370
    15
100
AcDbLine
 10
2059.689637865218
 20
1220.301399653165
 30
0.0
 11
2060.464971290425
 21
1219.853809194024
 31
0.0
  0
LINE
  5
7E8
330
74B
100
AcDbEntity
  8
0
  6
Continuous
 62
     7
370
    15
100
AcDbLine
 10
2064.003003964467
 20
1228.486646359574
 30
0.0
 11
2065.098990613145
 21
1227.853946734683
 31
0.0
  0
LINE
  5
7E9
330
74B
100
AcDbEntity
  8
0
  6
Continuous
 62
     7
370
    15
100
AcDbLine
 10
2064.002988159399
 20
1227.425325220514
 30
0.0
 11
2064.179752042054
 21
1227.323281603117
 31
0.0
  0
LINE
  5
7EA
330
74B
100
AcDbEntity
  8
0
  6
Continuous
 62
     7
370
    15
100
AcDbLine
 10
2067.104387056132
 20
1222.838037379741
 30
0.0
 11
2067.104387056132
 21
1222.021555750119
 31
0.0
  0
LINE
  5
7EB
330
74B
100
AcDbEntity
  8
0
  6
Continuous
 62
     7
370
    15
100
AcDbLine
 10
2069.579334294388
 20
1221.409280751035
 30
0.0
 11
2067.104387056132
 21
1222.838037379741
 31
0.0
  0
LINE
  5
7EC
330
74B
100
AcDbEntity
  8
0
  6
Continuous
 62
     7
370
    15
100
AcDbLine
 10
2069.579334294388
 20
1221.409280751035
 30
0.0
 11
2069.579334294388
 21
1220.8377046746
 31
0.0
  0
LINE
  5
7ED
330
74B
100
AcDbEntity
  8
0
  6
Continuous
 62
     7
370
    15
100
AcDbLine
 10
2068.376210356796
 20
1221.287347786701
 30
0.0
 11
2069.579334294388
 21
1220.8377046746
 31
0.0
  0
LINE
  5
7EE
330
74B
100
AcDbEntity
  8
0
  6
Continuous
 62
     7
370
    15
100
AcDbLine
 10
2068.376210356796
 20
1221.287347786701
 30
0.0
 11
2067.104387056132
 21
1222.021555750119
 31
0.0
  0
LINE
  5
7EF
330
74B
100
AcDbEntity
  8
0
  6
Continuous
 62
     7
370
    15
100
AcDbLine
 10
2070.286441191479
 20
1221.817484873857
 30
0.0
 11
2069.579334294388
 21
1221.409280751035
 31
0.0
  0
LINE
  5
7F0
330
74B
100
AcDbEntity
  8
0
  6
Continuous
 62
     7
370
    15
100
AcDbLine
 10
2070.286441191479
 20
1221.817484873857
 30
0.0
 11
2070.286441191479
 21
1221.245908797421
 31
0.0
  0
LINE
  5
7F1
330
74B
100
AcDbEntity
  8
0
  6
Continuous
 62
     7
370
    15
100
AcDbLine
 10
2069.579334294388
 20
1220.8377046746
 30
0.0
 11
2070.286441191479
 21
1221.245908797421
 31
0.0
  0
LINE
  5
7F2
330
74B
100
AcDbEntity
  8
0
  6
Continuous
 62
     7
370
    15
100
AcDbLine
 10
2069.814246998553
 20
1222.402020425326
 30
0.0
 11
2070.286441191479
 21
1221.817484873857
 31
0.0
  0
ARC
  5
7F3
330
74B
100
AcDbEntity
  8
0
  6
Continuous
 62
     7
370
    15
100
AcDbCircle
 10
2067.756465639865
 20
1224.242074036998
 30
0.0
 40
1.548071514590513
100
AcDbArc
 50
189.1030098072038
 51
245.0883688930122
  0
LINE
  5
7F4
330
74B
100
AcDbEntity
  8
0
  6
Continuous
 62
     7
370
    15
100
AcDbLine
 10
2066.227891316331
 20
1223.997153740333
 30
0.0
 11
2065.664640832832
 21
1224.322311323284
 31
0.0
  0
LINE
  5
7F5
330
74B
100
AcDbEntity
  8
0
  6
Continuous
 62
     7
370
    15
100
AcDbLine
 10
2068.775910653194
 20
1226.118409159562
 30
0.0
 11
2069.339161136694
 21
1225.793251576611
 31
0.0
  0
ARC
  5
7F6
330
74B
100
AcDbEntity
  8
0
  6
Continuous
 62
     7
370
    15
100
AcDbCircle
 10
2069.329407164016
 20
1221.517747222694
 30
0.0
 40
4.275515480073615
100
AcDbArc
 50
61.84222562424679
 51
89.86928781914638
  0
LINE
  5
7F7
330
74B
100
AcDbEntity
  8
0
  6
Continuous
 62
     7
370
    15
100
AcDbLine
 10
2071.347027780129
 20
1225.287261736499
 30
0.0
 11
2073.821975018386
 21
1223.858505107793
 31
0.0
  0
LINE
  5
7F8
330
74B
100
AcDbEntity
  8
0
  6
Continuous
 62
     7
370
    15
100
AcDbLine
 10
2073.821975018386
 20
1223.858505107793
 30
0.0
 11
2073.114868121296
 21
1223.450300984971
 31
0.0
  0
LINE
  5
7F9
330
74B
100
AcDbEntity
  8
0
  6
Continuous
 62
     7
370
    15
100
AcDbLine
 10
2073.114868121296
 20
1223.450300984971
 30
0.0
 11
2072.102312476335
 21
1223.722892510096
 31
0.0
  0
LINE
  5
7FA
330
74B
100
AcDbEntity
  8
0
  6
Continuous
 62
     7
370
    15
100
AcDbLine
 10
2072.102312476335
 20
1223.722892510096
 30
0.0
 11
2070.90826130643
 21
1224.312216678506
 31
0.0
  0
LWPOLYLINE
  5
7FB
330
74B
100
AcDbEntity
  8
0
  6
Continuous
 62
     7
370
    15
100
AcDbPolyline
 90
       23
 70
   128
 43
0.0
 10
2070.90826130643
 20
1224.312216678506
 10
2070.745064757728
 20
1224.382287267803
 10
2070.566939005031
 20
1224.438970562964
 10
2070.377148453464
 20
1224.481231362025
 10
2070.179293365852
 20
1224.508228349545
 10
2069.976786319835
 20
1224.519595802319
 10
2069.773583192274
 20
1224.514989666812
 10
2069.57322826971
 20
1224.494606870903
 10
2069.37957337897
 20
1224.458724558269
 10
2069.196066000554
 20
1224.408067712436
 10
2069.02612727318
 20
1224.343540757009
 10
2068.872937966822
 20
1224.26629864739
 10
2068.739136210779
 20
1224.177864343206
 10
2068.627360792895
 20
1224.079761184255
 10
2068.539611054295
 20
1223.973824629619
 10
2068.477454330909
 20
1223.862030040809
 10
2068.442145808569
 20
1223.746367225788
 10
2068.434167541855
 20
1223.629060937359
 10
2068.453858681188
 20
1223.512156108083
 10
2068.500623902334
 20
1223.397936797231
 10
2068.573829685474
 20
1223.288373043941
 10
2068.672018671614
 20
1223.185543235703
 10
2068.793397644059
 20
1223.091331873483
  0
LINE
  5
7FC
330
74B
100
AcDbEntity
  8
0
  6
Continuous
 62
     7
370
    15
100
AcDbLine
 10
2068.793397644059
 20
1223.091331873483
 30
0.0
 11
2069.814246998553
 21
1222.402020425326
 31
0.0
  0
LINE
  5
7FD
330
74B
100
AcDbEntity
  8
0
  6
Continuous
 62
     7
370
    15
100
AcDbLine
 10
2064.002991452122
 20
1228.282551901557
 30
0.0
 11
2064.922214218145
 21
1227.751895894062
 31
0.0
  0
LINE
  5
7FE
330
74B
100
AcDbEntity
  8
0
  6
Continuous
 62
     7
370
    15
100
AcDbLine
 10
2064.179755334777
 20
1227.241476538694
 30
0.0
 11
2064.922214218145
 21
1226.812864148598
 31
0.0
  0
ARC
  5
7FF
330
74B
100
AcDbEntity
  8
0
  6
Continuous
 62
     7
370
    15
100
AcDbCircle
 10
2072.032361821394
 20
1239.80522909304
 30
0.0
 40
2.000871000452369
100
AcDbArc
 50
65.51034019894444
 51
125.7997788440637
  0
LINE
  5
800
330
74B
100
AcDbEntity
  8
0
  6
Continuous
 62
     7
370
    15
100
AcDbLine
 10
2065.098990613145
 20
1224.702880531284
 30
0.0
 11
2064.003003964467
 21
1225.335580156175
 31
0.0
  0
LINE
  5
801
330
74B
100
AcDbEntity
  8
0
  6
Continuous
 62
     7
370
    15
100
AcDbLine
 10
2066.227891316331
 20
1223.997153740333
 30
0.0
 11
2066.227891316331
 21
1223.180672110712
 31
0.0
  0
ARC
  5
802
330
74B
100
AcDbEntity
  8
0
  6
Continuous
 62
     7
370
    15
100
AcDbCircle
 10
2067.756465639865
 20
1223.425592407376
 30
0.0
 40
1.548071514590663
100
AcDbArc
 50
189.1030098072167
 51
245.0883688930122
  0
LINE
  5
803
330
74B
100
AcDbEntity
  8
0
  6
Continuous
 62
     7
370
    15
100
AcDbLine
 10
2067.927466933801
 20
1227.506579193458
 30
0.0
 11
2067.686977016197
 21
1228.755954571867
 31
0.0
  0
LINE
  5
804
330
74B
100
AcDbEntity
  8
0
  6
Continuous
 62
     7
370
    15
100
AcDbLine
 10
2067.927466933801
 20
1227.506579193458
 30
0.0
 11
2066.654674914164
 21
1226.771812000482
 31
0.0
  0
LINE
  5
805
330
74B
100
AcDbEntity
  8
0
  6
Continuous
 62
     7
370
    15
100
AcDbLine
 10
2070.90826130643
 20
1223.495735048884
 30
0.0
 11
2070.90826130643
 21
1224.312216678506
 31
0.0
  0
ARC
  5
806
330
74B
100
AcDbEntity
  8
0
  6
Continuous
 62
     7
370
    15
100
AcDbCircle
 10
2069.951688758389
 20
1221.604082374551
 30
0.0
 40
2.119759627875831
100
AcDbArc
 50
63.17514959496745
 51
129.2416406540415
  0
LINE
  5
807
330
74B
100
AcDbEntity
  8
0
  6
Continuous
 62
     7
370
    15
100
AcDbLine
 10
2064.003029647704
 20
1225.036697139841
 30
0.0
 11
2065.45254406169
 21
1224.199910280156
 31
0.0
  0
LINE
  5
808
330
74B
100
AcDbEntity
  8
0
  6
Continuous
 62
     7
370
    15
100
AcDbLine
 10
2072.102312476335
 20
1223.722892510096
 30
0.0
 11
2072.102312476335
 21
1223.000148578295
 31
0.0
  0
LINE
  5
809
330
74B
100
AcDbEntity
  8
0
  6
Continuous
 62
     7
370
    15
100
AcDbLine
 10
2073.114868121296
 20
1222.878724908537
 30
0.0
 11
2073.114868121296
 21
1223.450300984971
 31
0.0
  0
LINE
  5
80A
330
74B
100
AcDbEntity
  8
0
  6
Continuous
 62
     7
370
    15
100
AcDbLine
 10
2073.114868121296
 20
1222.878724908537
 30
0.0
 11
2072.102312476335
 21
1223.000148578295
 31
0.0
  0
LINE
  5
80B
330
74B
100
AcDbEntity
  8
0
  6
Continuous
 62
     7
370
    15
100
AcDbLine
 10
2073.821975018386
 20
1223.858505107793
 30
0.0
 11
2073.821975018386
 21
1223.286929031358
 31
0.0
  0
LINE
  5
80C
330
74B
100
AcDbEntity
  8
0
  6
Continuous
 62
     7
370
    15
100
AcDbLine
 10
2073.114868121296
 20
1222.878724908537
 30
0.0
 11
2073.821975018386
 21
1223.286929031358
 31
0.0
  0
LINE
  5
80D
330
74B
100
AcDbEntity
  8
0
  6
Continuous
 62
     7
370
    15
100
AcDbLine
 10
2072.102312476335
 20
1223.000148578295
 30
0.0
 11
2071.605533499838
 21
1223.151596355532
 31
0.0
  0
LINE
  5
80E
330
74B
100
AcDbEntity
  8
0
  6
Continuous
 62
     7
370
    15
100
AcDbLine
 10
2071.605533499838
 20
1223.151596355532
 30
0.0
 11
2070.90826130643
 21
1223.495735048884
 31
0.0
  0
LINE
  5
80F
330
74B
100
AcDbEntity
  8
0
  6
Continuous
 62
     7
370
    15
100
AcDbLine
 10
2067.909753403625
 20
1227.598445669263
 30
0.0
 11
2068.210260433507
 21
1227.424966653516
 31
0.0
  0
ARC
  5
810
330
74B
100
AcDbEntity
  8
0
  6
Continuous
 62
     7
370
    15
100
AcDbCircle
 10
2066.471028278726
 20
1225.201849448574
 30
0.0
 40
1.874421936306127
100
AcDbArc
 50
197.2776371182648
 51
237.0879020761726
  0
LINE
  5
811
330
74B
100
AcDbEntity
  8
0
  6
Continuous
 62
     7
370
    15
100
AcDbLine
 10
2066.227891316331
 20
1223.180672110712
 30
0.0
 11
2065.452557891125
 21
1223.628262569852
 31
0.0
  0
LINE
  5
812
330
74B
100
AcDbEntity
  8
0
  6
Continuous
 62
     7
370
    15
100
AcDbLine
 10
2070.861911626868
 20
1228.029744018226
 30
0.0
 11
2069.765924978191
 21
1228.662443643117
 31
0.0
  0
LINE
  5
813
330
74B
100
AcDbEntity
  8
0
  6
Continuous
 62
     7
370
    15
100
AcDbLine
 10
2075.342254649567
 20
1224.164567781372
 30
0.0
 11
2075.342254649567
 21
1224.736143857808
 31
0.0
  0
LINE
  5
814
330
74B
100
AcDbEntity
  8
0
  6
Continuous
 62
     7
370
    15
100
AcDbLine
 10
2076.049361546657
 20
1225.144347980629
 30
0.0
 11
2075.342254649567
 21
1224.736143857808
 31
0.0
  0
LINE
  5
815
330
74B
100
AcDbEntity
  8
0
  6
Continuous
 62
     7
370
    15
100
AcDbLine
 10
2076.049361546657
 20
1225.144347980629
 30
0.0
 11
2076.049361546657
 21
1224.572771904194
 31
0.0
  0
LINE
  5
816
330
74B
100
AcDbEntity
  8
0
  6
Continuous
 62
     7
370
    15
100
AcDbLine
 10
2076.049361546657
 20
1224.572771904194
 30
0.0
 11
2075.342254649567
 21
1224.164567781372
 31
0.0
  0
LINE
  5
817
330
74B
100
AcDbEntity
  8
0
  6
Continuous
 62
     7
370
    15
100
AcDbLine
 10
2075.577168012276
 20
1225.728883912268
 30
0.0
 11
2076.049361546657
 21
1225.144347980629
 31
0.0
  0
LINE
  5
818
330
74B
100
AcDbEntity
  8
0
  6
Continuous
 62
     7
370
    15
100
AcDbLine
 10
2075.342254649567
 20
1224.736143857808
 30
0.0
 11
2072.867307411311
 21
1226.164900486513
 31
0.0
  0
ARC
  5
819
330
74B
100
AcDbEntity
  8
0
  6
Continuous
 62
     7
370
    15
100
AcDbCircle
 10
2073.519385749498
 20
1227.568936009316
 30
0.0
 40
1.548070382257935
100
AcDbArc
 50
189.102959749243
 51
245.0883594494672
  0
LINE
  5
81A
330
74B
100
AcDbEntity
  8
0
  6
Continuous
 62
     7
370
    15
100
AcDbLine
 10
2071.427561846555
 20
1227.649174810226
 30
0.0
 11
2071.990812330055
 21
1227.324017227275
 31
0.0
  0
LINE
  5
81B
330
74B
100
AcDbEntity
  8
0
  6
Continuous
 62
     7
370
    15
100
AcDbLine
 10
2075.102082150417
 20
1229.120115063553
 30
0.0
 11
2074.538831666917
 21
1229.445272646503
 31
0.0
  0
ARC
  5
81C
330
74B
100
AcDbEntity
  8
0
  6
Continuous
 62
     7
370
    15
100
AcDbCircle
 10
2075.092325724901
 20
1224.844611892512
 30
0.0
 40
4.275514302796388
100
AcDbArc
 50
61.84219991672316
 51
89.86925491280628
  0
LINE
  5
81D
330
74B
100
AcDbEntity
  8
0
  6
Continuous
 62
     7
370
    15
100
AcDbLine
 10
2077.109947476763
 20
1228.614124463101
 30
0.0
 11
2079.58489471502
 21
1227.185367834396
 31
0.0
  0
LINE
  5
81E
330
74B
100
AcDbEntity
  8
0
  6
Continuous
 62
     7
370
    15
100
AcDbLine
 10
2079.58489471502
 20
1227.185367834396
 30
0.0
 11
2078.87778781793
 21
1226.777163711574
 31
0.0
  0
LINE
  5
81F
330
74B
100
AcDbEntity
  8
0
  6
Continuous
 62
     7
370
    15
100
AcDbLine
 10
2078.87778781793
 20
1226.777163711574
 30
0.0
 11
2077.865233490058
 21
1227.049755997038
 31
0.0
  0
LINE
  5
820
330
74B
100
AcDbEntity
  8
0
  6
Continuous
 62
     7
370
    15
100
AcDbLine
 10
2077.865233490058
 20
1227.049755997038
 30
0.0
 11
2076.671181661608
 21
1227.639079785278
 31
0.0
  0
LWPOLYLINE
  5
821
330
74B
100
AcDbEntity
  8
0
  6
Continuous
 62
     7
370
    15
100
AcDbPolyline
 90
       23
 70
   128
 43
0.0
 10
2076.671181661608
 20
1227.639079785278
 10
2076.507985112907
 20
1227.709150374576
 10
2076.329859360209
 20
1227.765833669737
 10
2076.140068150098
 20
1227.808094088628
 10
2075.942213721031
 20
1227.835091456318
 10
2075.73970601647
 20
1227.846458528922
 10
2075.536504205997
 20
1227.841853153754
 10
2075.336148624889
 20
1227.821469977675
 10
2075.142493075604
 20
1227.785587284871
 10
2074.958985697188
 20
1227.734930439039
 10
2074.789048286903
 20
1227.670404243951
 10
2074.635858980545
 20
1227.593162134332
 10
2074.502057224502
 20
1227.504727830148
 10
2074.390281148073
 20
1227.406624291028
 10
2074.302531409474
 20
1227.300687736391
 10
2074.240374027543
 20
1227.188892767412
 10
2074.205066822292
 20
1227.073230712729
 10
2074.197087897033
 20
1226.955924044131
 10
2074.216778377822
 20
1226.839018834686
 10
2074.263544257512
 20
1226.724799904003
 10
2074.336749382108
 20
1226.615235770544
 10
2074.434938368248
 20
1226.512405962306
 10
2074.556317340693
 20
1226.418194600086
  0
LINE
  5
822
330
74B
100
AcDbEntity
  8
0
  6
Continuous
 62
     7
370
    15
100
AcDbLine
 10
2074.556317340693
 20
1226.418194600086
 30
0.0
 11
2075.577168012276
 21
1225.728883912268
 31
0.0
  0
LINE
  5
823
330
74B
100
AcDbEntity
  8
0
  6
Continuous
 62
     7
370
    15
100
AcDbLine
 10
2074.139130711975
 20
1224.614210893474
 30
0.0
 11
2072.867307411311
 21
1225.348418856891
 31
0.0
  0
LINE
  5
824
330
74B
100
AcDbEntity
  8
0
  6
Continuous
 62
     7
370
    15
100
AcDbLine
 10
2072.867307411311
 20
1225.348418856891
 30
0.0
 11
2072.867307411311
 21
1226.164900486513
 31
0.0
  0
LINE
  5
825
330
74B
100
AcDbEntity
  8
0
  6
Continuous
 62
     7
370
    15
100
AcDbLine
 10
2075.342254649567
 20
1224.164567781372
 30
0.0
 11
2074.139130711975
 21
1224.614210893474
 31
0.0
  0
LINE
  5
826
330
74B
100
AcDbEntity
  8
0
  6
Continuous
 62
     7
370
    15
100
AcDbLine
 10
2071.990812330055
 20
1226.507535597654
 30
0.0
 11
2071.990812330055
 21
1227.324017227275
 31
0.0
  0
ARC
  5
827
330
74B
100
AcDbEntity
  8
0
  6
Continuous
 62
     7
370
    15
100
AcDbCircle
 10
2073.519385749498
 20
1226.752454379694
 30
0.0
 40
1.548070382258006
100
AcDbArc
 50
189.102959749243
 51
245.0883594494672
  0
LINE
  5
828
330
74B
100
AcDbEntity
  8
0
  6
Continuous
 62
     7
370
    15
100
AcDbLine
 10
2073.690387947523
 20
1230.8334426804
 30
0.0
 11
2073.44989802992
 21
1232.082818058809
 31
0.0
  0
LINE
  5
829
330
74B
100
AcDbEntity
  8
0
  6
Continuous
 62
     7
370
    15
100
AcDbLine
 10
2073.690387947523
 20
1230.8334426804
 30
0.0
 11
2072.417595269342
 21
1230.098675107254
 31
0.0
  0
LINE
  5
82A
330
74B
100
AcDbEntity
  8
0
  6
Continuous
 62
     7
370
    15
100
AcDbLine
 10
2076.671181661608
 20
1226.822598155657
 30
0.0
 11
2076.671181661608
 21
1227.639079785278
 31
0.0
  0
ARC
  5
82B
330
74B
100
AcDbEntity
  8
0
  6
Continuous
 62
     7
370
    15
100
AcDbCircle
 10
2075.714609276788
 20
1224.930942944868
 30
0.0
 40
2.11976181772913
100
AcDbArc
 50
63.17518447008851
 51
129.2416209873317
  0
LINE
  5
82C
330
74B
100
AcDbEntity
  8
0
  6
Continuous
 62
     7
370
    15
100
AcDbLine
 10
2069.765950002882
 20
1228.363560246613
 30
0.0
 11
2071.215464416869
 21
1227.526773386928
 31
0.0
  0
LINE
  5
82D
330
74B
100
AcDbEntity
  8
0
  6
Continuous
 62
     7
370
    15
100
AcDbLine
 10
2078.87778781793
 20
1226.205587635139
 30
0.0
 11
2078.87778781793
 21
1226.777163711574
 31
0.0
  0
LINE
  5
82E
330
74B
100
AcDbEntity
  8
0
  6
Continuous
 62
     7
370
    15
100
AcDbLine
 10
2077.865233490058
 20
1226.327012065238
 30
0.0
 11
2078.87778781793
 21
1226.205587635139
 31
0.0
  0
LINE
  5
82F
330
74B
100
AcDbEntity
  8
0
  6
Continuous
 62
     7
370
    15
100
AcDbLine
 10
2077.865233490058
 20
1227.049755997038
 30
0.0
 11
2077.865233490058
 21
1226.327012065238
 31
0.0
  0
LINE
  5
830
330
74B
100
AcDbEntity
  8
0
  6
Continuous
 62
     7
370
    15
100
AcDbLine
 10
2079.58489471502
 20
1226.61379175796
 30
0.0
 11
2079.58489471502
 21
1227.185367834396
 31
0.0
  0
LINE
  5
831
330
74B
100
AcDbEntity
  8
0
  6
Continuous
 62
     7
370
    15
100
AcDbLine
 10
2079.58489471502
 20
1226.61379175796
 30
0.0
 11
2078.87778781793
 21
1226.205587635139
 31
0.0
  0
LINE
  5
832
330
74B
100
AcDbEntity
  8
0
  6
Continuous
 62
     7
370
    15
100
AcDbLine
 10
2077.865233490058
 20
1226.327012065238
 30
0.0
 11
2077.368453855016
 21
1226.478459462305
 31
0.0
  0
LINE
  5
833
330
74B
100
AcDbEntity
  8
0
  6
Continuous
 62
     7
370
    15
100
AcDbLine
 10
2077.368453855016
 20
1226.478459462305
 30
0.0
 11
2076.671181661608
 21
1226.822598155657
 31
0.0
  0
LINE
  5
834
330
74B
100
AcDbEntity
  8
0
  6
Continuous
 62
     7
370
    15
100
AcDbLine
 10
2073.672674417347
 20
1230.925309156205
 30
0.0
 11
2073.973181447231
 21
1230.751830140458
 31
0.0
  0
ARC
  5
835
330
74B
100
AcDbEntity
  8
0
  6
Continuous
 62
     7
370
    15
100
AcDbCircle
 10
2072.23394929245
 20
1228.528712935516
 30
0.0
 40
1.874421936306386
100
AcDbArc
 50
197.2776371182648
 51
237.0879020761726
  0
LINE
  5
836
330
74B
100
AcDbEntity
  8
0
  6
Continuous
 62
     7
370
    15
100
AcDbLine
 10
2071.215478904848
 20
1226.955126056794
 30
0.0
 11
2071.990812330055
 21
1226.507535597654
 31
0.0
  0
LINE
  5
837
330
74B
100
AcDbEntity
  8
0
  6
Continuous
 62
     7
370
    15
100
AcDbLine
 10
2075.705592093868
 20
1233.977007436492
 30
0.0
 11
2075.528828211213
 21
1234.079051053889
 31
0.0
  0
ENDBLK
  5
74D
330
74B
100
AcDbEntity
  8
0
100
AcDbBlockEnd
  0
ENDSEC
  0
SECTION
  2
ENTITIES
  0
INSERT
  5
6D2
330
1F
100
AcDbEntity
  8
0
100
AcDbBlockReference
  2
1
 10
0.0
 20
0.0
 30
0.0
  0
INSERT
  5
6F6
330
1F
100
AcDbEntity
  8
0
100
AcDbBlockReference
  2
2
 10
0.0
 20
0.0
 30
0.0
  0
INSERT
  5
74A
330
1F
100
AcDbEntity
  8
0
100
AcDbBlockReference
  2
3
 10
0.0
 20
0.0
 30
0.0
  0
INSERT
  5
838
330
1F
100
AcDbEntity
  8
0
100
AcDbBlockReference
  2
4
 10
0.0
 20
0.0
 30
0.0
  0
ENDSEC
  0
SECTION
  2
OBJECTS
  0
DICTIONARY
  5
C
330
0
100
AcDbDictionary
281
     1
  3
ACAD_COLOR
350
6B
  3
ACAD_GROUP
350
D
  3
ACAD_LAYOUT
350
1A
  3
ACAD_MATERIAL
350
6A
  3
ACAD_MLEADERSTYLE
350
12D
  3
ACAD_MLINESTYLE
350
17
  3
ACAD_PLOTSETTINGS
350
19
  3
ACAD_PLOTSTYLENAME
350
E
  3
ACAD_SCALELIST
350
10C
  3
ACAD_TABLESTYLE
350
7E
  3
ACAD_VISUALSTYLE
350
EF
  3
ACDB_RECOMPOSE_DATA
350
15D
  3
AcDbVariableDictionary
350
5E
  3
DWGPROPS
350
846
  0
DICTIONARY
  5
13C
330
10
100
AcDbDictionary
280
     1
281
     1
  3
ADSK_XREC_LAYER_RECONCILED
360
839
  0
DICTIONARY
  5
6B
102
{ACAD_REACTORS
330
C
102
}
330
C
100
AcDbDictionary
281
     1
  0
DICTIONARY
  5
D
102
{ACAD_REACTORS
330
C
102
}
330
C
100
AcDbDictionary
281
     1
  0
DICTIONARY
  5
1A
102
{ACAD_REACTORS
330
C
102
}
330
C
100
AcDbDictionary
281
     1
  3
Layout1
350
D3
  3
Layout2
350
D7
  3
Model
350
22
  0
DICTIONARY
  5
6A
102
{ACAD_REACTORS
330
C
102
}
330
C
100
AcDbDictionary
281
     1
  3
ByBlock
350
ED
  3
ByLayer
350
EC
  3
Global
350
EE
  0
DICTIONARY
  5
12D
102
{ACAD_REACTORS
330
C
102
}
330
C
100
AcDbDictionary
281
     1
  3
Annotative
350
13B
  3
Standard
350
12E
  0
DICTIONARY
  5
17
102
{ACAD_REACTORS
330
C
102
}
330
C
100
AcDbDictionary
281
     1
  3
Standard
350
18
  0
DICTIONARY
  5
19
102
{ACAD_REACTORS
330
C
102
}
330
C
100
AcDbDictionary
281
     1
  0
ACDBDICTIONARYWDFLT
  5
E
102
{ACAD_REACTORS
330
C
102
}
330
C
100
AcDbDictionary
281
     1
  3
Normal
350
F
100
AcDbDictionaryWithDefault
340
F
  0
DICTIONARY
  5
10C
102
{ACAD_REACTORS
330
C
102
}
330
C
100
AcDbDictionary
281
     1
  3
A0
350
10D
  3
A1
350
188
  3
A2
350
189
  3
A3
350
18A
  3
A4
350
18B
  3
A5
350
18C
  3
A6
350
18D
  3
A7
350
18E
  3
A8
350
18F
  3
A9
350
190
  3
B0
350
191
  3
B1
350
192
  3
B2
350
193
  3
B3
350
194
  3
B4
350
195
  3
B5
350
196
  3
B6
350
197
  3
B7
350
198
  3
B8
350
199
  3
B9
350
19A
  3
C0
350
19B
  3
C1
350
19C
  3
C2
350
19D
  3
C3
350
19E
  3
C4
350
19F
  3
C5
350
1A0
  3
C6
350
1A1
  3
C7
350
1A2
  3
C8
350
1A3
  3
C9
350
1A4
  3
D0
350
1A5
  3
D1
350
1A6
  3
D2
350
1A7
  0
DICTIONARY
  5
7E
102
{ACAD_REACTORS
330
C
102
}
330
C
100
AcDbDictionary
281
     1
  3
Standard
350
7F
  0
DICTIONARY
  5
EF
102
{ACAD_REACTORS
330
C
102
}
330
C
100
AcDbDictionary
281
     1
  3
2dWireframe
350
F5
  3
3D Hidden
350
F7
  3
3dWireframe
350
F6
  3
Basic
350
F4
  3
Brighten
350
FB
  3
ColorChange
350
FF
  3
Conceptual
350
F8
  3
Dim
350
FA
  3
Facepattern
350
FE
  3
Flat
350
F0
  3
FlatWithEdges
350
F1
  3
Gouraud
350
F2
  3
GouraudWithEdges
350
F3
  3
Linepattern
350
FD
  3
Realistic
350
F9
  3
Thicken
350
FC
  0
XRECORD
  5
15D
102
{ACAD_REACTORS
330
C
102
}
330
C
100
AcDbXrecord
280
     1
 90
        1
330
7F
  0
DICTIONARY
  5
5E
102
{ACAD_REACTORS
330
C
102
}
330
C
100
AcDbDictionary
281
     1
  3
CANNOSCALE
350
146
  3
CMLEADERSTYLE
350
145
  3
CTABLESTYLE
350
84
  3
DIMASSOC
350
5F
  3
HIDETEXT
350
63
  3
INDEXCTL
350
842
  3
LIGHTINGUNITS
350
840
  3
MSLTSCALE
350
83F
  3
PSOLHEIGHT
350
844
  3
PSOLWIDTH
350
843
  3
SORTENTS
350
841
  0
XRECORD
  5
846
102
{ACAD_REACTORS
330
C
102
}
330
C
100
AcDbXrecord
280
     1
  1
DWGPROPS COOKIE
  2

  3

  4

  6

  7

  8
orhan kara
  9

300
=
301
=
302
=
303
=
304
=
305
=
306
=
307
=
308
=
309
=
 40
0.0004202083333333
 41
2458556.683283808
 42
2458956.454595463
  1

 90
        0
  0
XRECORD
  5
839
102
{ACAD_REACTORS
330
13C
102
}
330
13C
100
AcDbXrecord
280
     1
290
     1
  0
LAYOUT
  5
D3
102
{ACAD_XDICTIONARY
360
84A
102
}
102
{ACAD_REACTORS
330
1A
102
}
330
1A
100
AcDbPlotSettings
  1

  2
C:\Documents and Settings\basas\Application Data\Autodesk\AutoCAD 2005\R16.1\enu\plotters\Default Windows System Printer.pc3
  4

  6

 40
0.0
 41
0.0
 42
0.0
 43
0.0
 44
0.0
 45
0.0
 46
0.0
 47
0.0
 48
0.0
 49
0.0
140
0.0
141
0.0
142
1.0
143
1.0
 70
   688
 72
     0
 73
     0
 74
     5
  7

 75
    16
147
1.0
148
0.0
149
0.0
100
AcDbLayout
  1
Layout1
 70
     1
 71
     1
 10
0.0
 20
0.0
 11
12.0
 21
9.0
 12
0.0
 22
0.0
 32
0.0
 14
0.0
 24
0.0
 34
0.0
 15
0.0
 25
0.0
 35
0.0
146
0.0
 13
0.0
 23
0.0
 33
0.0
 16
1.0
 26
0.0
 36
0.0
 17
0.0
 27
1.0
 37
0.0
 76
     0
330
D2
  0
LAYOUT
  5
D7
102
{ACAD_XDICTIONARY
360
84C
102
}
102
{ACAD_REACTORS
330
1A
102
}
330
1A
100
AcDbPlotSettings
  1

  2
C:\Documents and Settings\basas\Application Data\Autodesk\AutoCAD 2005\R16.1\enu\plotters\Default Windows System Printer.pc3
  4

  6

 40
0.0
 41
0.0
 42
0.0
 43
0.0
 44
0.0
 45
0.0
 46
0.0
 47
0.0
 48
0.0
 49
0.0
140
0.0
141
0.0
142
1.0
143
1.0
 70
   688
 72
     0
 73
     0
 74
     5
  7

 75
    16
147
1.0
148
0.0
149
0.0
100
AcDbLayout
  1
Layout2
 70
     1
 71
     2
 10
0.0
 20
0.0
 11
12.0
 21
9.0
 12
0.0
 22
0.0
 32
0.0
 14
0.0
 24
0.0
 34
0.0
 15
0.0
 25
0.0
 35
0.0
146
0.0
 13
0.0
 23
0.0
 33
0.0
 16
1.0
 26
0.0
 36
0.0
 17
0.0
 27
1.0
 37
0.0
 76
     0
330
D6
  0
LAYOUT
  5
22
102
{ACAD_XDICTIONARY
360
847
102
}
102
{ACAD_REACTORS
330
1A
102
}
330
1A
100
AcDbPlotSettings
  1

  2
none_device
  4
ISO_A4_(210.00_x_297.00_MM)
  6

 40
7.5
 41
20.0
 42
7.5
 43
20.0
 44
210.0
 45
297.0
 46
11.54999923706054
 47
-13.65000009536743
 48
0.0
 49
0.0
140
0.0
141
0.0
142
1.0
143
8.704084754739808
 70
 11952
 72
     1
 73
     0
 74
     0
  7

 75
     0
147
0.1148885871608098
148
0.0
149
0.0
100
AcDbLayout
  1
Model
 70
     1
 71
     0
 10
0.0
 20
0.0
 11
12.0
 21
9.0
 12
0.0
 22
0.0
 32
0.0
 14
0.0
 24
0.0
 34
0.0
 15
0.0
 25
0.0
 35
0.0
146
0.0
 13
0.0
 23
0.0
 33
0.0
 16
1.0
 26
0.0
 36
0.0
 17
0.0
 27
1.0
 37
0.0
 76
     0
330
1F
331
EA
1001
ACAD_PSEXT
1000
None
1000
None
1000
Not applicable
1000
The layout will not be plotted unless a new plotter configuration name is selected.
1070
     0
  0
MATERIAL
  5
ED
102
{ACAD_XDICTIONARY
360
850
102
}
102
{ACAD_REACTORS
330
6A
102
}
330
6A
100
AcDbMaterial
  1
ByBlock
  0
MATERIAL
  5
EC
102
{ACAD_XDICTIONARY
360
84E
102
}
102
{ACAD_REACTORS
330
6A
102
}
330
6A
100
AcDbMaterial
  1
ByLayer
  0
MATERIAL
  5
EE
102
{ACAD_XDICTIONARY
360
173
102
}
102
{ACAD_REACTORS
330
6A
102
}
330
6A
100
AcDbMaterial
  1
Global
 43
0.0007999999797903
 43
0.0
 43
0.0
 43
0.0
 43
0.0
 43
0.0007999999797903
 43
0.0
 43
0.0
 43
0.0
 43
0.0
 43
1.0
 43
0.0
 43
0.0
 43
0.0
 43
0.0
 43
1.0
 49
0.0007999999797903
 49
0.0
 49
0.0
 49
0.0
 49
0.0
 49
0.0007999999797903
 49
0.0
 49
0.0
 49
0.0
 49
0.0
 49
1.0
 49
0.0
 49
0.0
 49
0.0
 49
0.0
 49
1.0
142
0.0007999999797903
142
0.0
142
0.0
142
0.0
142
0.0
142
0.0007999999797903
142
0.0
142
0.0
142
0.0
142
0.0
142
1.0
142
0.0
142
0.0
142
0.0
142
0.0
142
1.0
144
0.0007999999797903
144
0.0
144
0.0
144
0.0
144
0.0
144
0.0007999999797903
144
0.0
144
0.0
144
0.0
144
0.0
144
1.0
144
0.0
144
0.0
144
0.0
144
0.0
144
1.0
1001
ACAD
1070
    -1
1070
     3
1070
     0
1000

1071
        0
1070
     0
  0
MLEADERSTYLE
  5
13B
102
{ACAD_REACTORS
330
12D
102
}
330
12D
100
AcDbMLeaderStyle
170
     2
171
     1
172
     0
 90
        2
 40
0.0
 41
0.0
173
     1
 91
-1056964608
340
14
 92
       -2
290
     1
 42
2.0
291
     1
 43
8.0
  3
Standard
 44
4.0
300

342
11
174
     1
178
     1
175
     1
176
     0
 93
-1056964608
 45
4.0
292
     0
297
     0
 46
4.0
 94
-1056964608
 47
1.0
 49
1.0
140
1.0
293
     1
141
0.0
294
     1
177
     0
142
1.0
295
     0
296
     1
143
3.75
1001
ACAD_MLEADERVER
1070
     2
  0
MLEADERSTYLE
  5
12E
102
{ACAD_REACTORS
330
12D
102
}
330
12D
100
AcDbMLeaderStyle
170
     2
171
     1
172
     0
 90
        2
 40
0.0
 41
0.0
173
     1
 91
-1056964608
340
14
 92
       -2
290
     1
 42
2.0
291
     1
 43
8.0
  3
Standard
 44
4.0
300

342
11
174
     1
178
     1
175
     1
176
     0
 93
-1056964608
 45
4.0
292
     0
297
     0
 46
4.0
 94
-1056964608
 47
1.0
 49
1.0
140
1.0
293
     1
141
0.0
294
     1
177
     0
142
1.0
295
     0
296
     0
143
3.75
1001
ACAD_MLEADERVER
1070
     2
  0
MLINESTYLE
  5
18
102
{ACAD_REACTORS
330
17
102
}
330
17
100
AcDbMlineStyle
  2
STANDARD
 70
     0
  3

 62
   256
 51
90.0
 52
90.0
 71
     2
 49
0.5
 62
   256
  6
BYLAYER
 49
-0.5
 62
   256
  6
BYLAYER
  0
ACDBPLACEHOLDER
  5
F
102
{ACAD_REACTORS
330
E
102
}
330
E
  0
SCALE
  5
10D
102
{ACAD_REACTORS
330
10C
102
}
330
10C
100
AcDbScale
 70
     0
300
1:1
140
1.0
141
1.0
290
     1
  0
SCALE
  5
188
102
{ACAD_REACTORS
330
10C
102
}
330
10C
100
AcDbScale
 70
     0
300
1:2
140
1.0
141
2.0
290
     0
  0
SCALE
  5
189
102
{ACAD_REACTORS
330
10C
102
}
330
10C
100
AcDbScale
 70
     0
300
1:4
140
1.0
141
4.0
290
     0
  0
SCALE
  5
18A
102
{ACAD_REACTORS
330
10C
102
}
330
10C
100
AcDbScale
 70
     0
300
1:5
140
1.0
141
5.0
290
     0
  0
SCALE
  5
18B
102
{ACAD_REACTORS
330
10C
102
}
330
10C
100
AcDbScale
 70
     0
300
1:8
140
1.0
141
8.0
290
     0
  0
SCALE
  5
18C
102
{ACAD_REACTORS
330
10C
102
}
330
10C
100
AcDbScale
 70
     0
300
1:10
140
1.0
141
10.0
290
     0
  0
SCALE
  5
18D
102
{ACAD_REACTORS
330
10C
102
}
330
10C
100
AcDbScale
 70
     0
300
1:16
140
1.0
141
16.0
290
     0
  0
SCALE
  5
18E
102
{ACAD_REACTORS
330
10C
102
}
330
10C
100
AcDbScale
 70
     0
300
1:20
140
1.0
141
20.0
290
     0
  0
SCALE
  5
18F
102
{ACAD_REACTORS
330
10C
102
}
330
10C
100
AcDbScale
 70
     0
300
1:30
140
1.0
141
30.0
290
     0
  0
SCALE
  5
190
102
{ACAD_REACTORS
330
10C
102
}
330
10C
100
AcDbScale
 70
     0
300
1:40
140
1.0
141
40.0
290
     0
  0
SCALE
  5
191
102
{ACAD_REACTORS
330
10C
102
}
330
10C
100
AcDbScale
 70
     0
300
1:50
140
1.0
141
50.0
290
     0
  0
SCALE
  5
192
102
{ACAD_REACTORS
330
10C
102
}
330
10C
100
AcDbScale
 70
     0
300
1:100
140
1.0
141
100.0
290
     0
  0
SCALE
  5
193
102
{ACAD_REACTORS
330
10C
102
}
330
10C
100
AcDbScale
 70
     0
300
2:1
140
2.0
141
1.0
290
     0
  0
SCALE
  5
194
102
{ACAD_REACTORS
330
10C
102
}
330
10C
100
AcDbScale
 70
     0
300
4:1
140
4.0
141
1.0
290
     0
  0
SCALE
  5
195
102
{ACAD_REACTORS
330
10C
102
}
330
10C
100
AcDbScale
 70
     0
300
8:1
140
8.0
141
1.0
290
     0
  0
SCALE
  5
196
102
{ACAD_REACTORS
330
10C
102
}
330
10C
100
AcDbScale
 70
     0
300
10:1
140
10.0
141
1.0
290
     0
  0
SCALE
  5
197
102
{ACAD_REACTORS
330
10C
102
}
330
10C
100
AcDbScale
 70
     0
300
100:1
140
100.0
141
1.0
290
     0
  0
SCALE
  5
198
102
{ACAD_REACTORS
330
10C
102
}
330
10C
100
AcDbScale
 70
     0
300
1/128" = 1'-0"
140
0.0078125
141
12.0
290
     0
  0
SCALE
  5
199
102
{ACAD_REACTORS
330
10C
102
}
330
10C
100
AcDbScale
 70
     0
300
1/64" = 1'-0"
140
0.015625
141
12.0
290
     0
  0
SCALE
  5
19A
102
{ACAD_REACTORS
330
10C
102
}
330
10C
100
AcDbScale
 70
     0
300
1/32" = 1'-0"
140
0.03125
141
12.0
290
     0
  0
SCALE
  5
19B
102
{ACAD_REACTORS
330
10C
102
}
330
10C
100
AcDbScale
 70
     0
300
1/16" = 1'-0"
140
0.0625
141
12.0
290
     0
  0
SCALE
  5
19C
102
{ACAD_REACTORS
330
10C
102
}
330
10C
100
AcDbScale
 70
     0
300
3/32" = 1'-0"
140
0.09375
141
12.0
290
     0
  0
SCALE
  5
19D
102
{ACAD_REACTORS
330
10C
102
}
330
10C
100
AcDbScale
 70
     0
300
1/8" = 1'-0"
140
0.125
141
12.0
290
     0
  0
SCALE
  5
19E
102
{ACAD_REACTORS
330
10C
102
}
330
10C
100
AcDbScale
 70
     0
300
3/16" = 1'-0"
140
0.1875
141
12.0
290
     0
  0
SCALE
  5
19F
102
{ACAD_REACTORS
330
10C
102
}
330
10C
100
AcDbScale
 70
     0
300
1/4" = 1'-0"
140
0.25
141
12.0
290
     0
  0
SCALE
  5
1A0
102
{ACAD_REACTORS
330
10C
102
}
330
10C
100
AcDbScale
 70
     0
300
3/8" = 1'-0"
140
0.375
141
12.0
290
     0
  0
SCALE
  5
1A1
102
{ACAD_REACTORS
330
10C
102
}
330
10C
100
AcDbScale
 70
     0
300
1/2" = 1'-0"
140
0.5
141
12.0
290
     0
  0
SCALE
  5
1A2
102
{ACAD_REACTORS
330
10C
102
}
330
10C
100
AcDbScale
 70
     0
300
3/4" = 1'-0"
140
0.75
141
12.0
290
     0
  0
SCALE
  5
1A3
102
{ACAD_REACTORS
330
10C
102
}
330
10C
100
AcDbScale
 70
     0
300
1" = 1'-0"
140
1.0
141
12.0
290
     0
  0
SCALE
  5
1A4
102
{ACAD_REACTORS
330
10C
102
}
330
10C
100
AcDbScale
 70
     0
300
1-1/2" = 1'-0"
140
1.5
141
12.0
290
     0
  0
SCALE
  5
1A5
102
{ACAD_REACTORS
330
10C
102
}
330
10C
100
AcDbScale
 70
     0
300
3" = 1'-0"
140
3.0
141
12.0
290
     0
  0
SCALE
  5
1A6
102
{ACAD_REACTORS
330
10C
102
}
330
10C
100
AcDbScale
 70
     0
300
6" = 1'-0"
140
6.0
141
12.0
290
     0
  0
SCALE
  5
1A7
102
{ACAD_REACTORS
330
10C
102
}
330
10C
100
AcDbScale
 70
     0
300
1'-0" = 1'-0"
140
12.0
141
12.0
290
     0
  0
TABLESTYLE
  5
7F
102
{ACAD_XDICTIONARY
360
162
102
}
102
{ACAD_REACTORS
330
7E
102
}
330
7E
100
AcDbTableStyle
  3
Standard
 70
     0
 71
     0
 40
1.5
 41
1.5
280
     0
281
     0
  7
Standard
140
4.5
170
     2
 62
     0
 63
     7
283
     0
274
    -2
284
     1
 64
     0
275
    -2
285
     1
 65
     0
276
    -2
286
     1
 66
     0
277
    -2
287
     1
 67
     0
278
    -2
288
     1
 68
     0
279
    -2
289
     1
 69
     0
  7
Standard
140
6.0
170
     5
 62
     0
 63
     7
283
     0
274
    -2
284
     1
 64
     0
275
    -2
285
     1
 65
     0
276
    -2
286
     1
 66
     0
277
    -2
287
     1
 67
     0
278
    -2
288
     1
 68
     0
279
    -2
289
     1
 69
     0
  7
Standard
140
4.5
170
     5
 62
     0
 63
     7
283
     0
274
    -2
284
     1
 64
     0
275
    -2
285
     1
 65
     0
276
    -2
286
     1
 66
     0
277
    -2
287
     1
 67
     0
278
    -2
288
     1
 68
     0
279
    -2
289
     1
 69
     0
  0
VISUALSTYLE
  5
F5
102
{ACAD_REACTORS
330
EF
102
}
330
EF
100
AcDbVisualStyle
  2
2dWireframe
 70
     4
 71
     0
 72
     2
 73
     1
 90
        0
 40
-0.6
 41
-30.0
 62
     5
 63
     7
 74
     1
 91
        4
 64
     7
 65
   257
 75
     1
175
     1
 42
1.0
 92
        0
 66
   257
 43
1.0
 76
     1
 77
     6
 78
     2
 67
     7
 79
     5
170
     0
171
     0
290
     0
174
     0
 93
        1
 44
0.0
173
     0
291
     0
 45
0.0
1001
ACAD
1000
AcDbSavedByObjectVersion
1070
     0
  0
VISUALSTYLE
  5
F7
102
{ACAD_REACTORS
330
EF
102
}
330
EF
100
AcDbVisualStyle
  2
3D Hidden
 70
     6
 71
     1
 72
     2
 73
     2
 90
        0
 40
-0.6
 41
-30.0
 62
     5
 63
     7
 74
     2
 91
        2
 64
     7
 65
   257
 75
     2
175
     1
 42
40.0
 92
        0
 66
   257
 43
1.0
 76
     1
 77
     6
 78
     2
 67
     7
 79
     3
170
     0
171
     0
290
     0
174
     0
 93
        1
 44
0.0
173
     0
291
     0
 45
0.0
1001
ACAD
1000
AcDbSavedByObjectVersion
1070
     0
  0
VISUALSTYLE
  5
F6
102
{ACAD_REACTORS
330
EF
102
}
330
EF
100
AcDbVisualStyle
  2
3dWireframe
 70
     5
 71
     0
 72
     2
 73
     1
 90
        0
 40
-0.6
 41
-30.0
 62
     5
 63
     7
 74
     1
 91
        4
 64
     7
 65
   257
 75
     1
175
     1
 42
1.0
 92
        0
 66
   257
 43
1.0
 76
     1
 77
     6
 78
     2
 67
     7
 79
     5
170
     0
171
     0
290
     0
174
     0
 93
        1
 44
0.0
173
     0
291
     0
 45
0.0
1001
ACAD
1000
AcDbSavedByObjectVersion
1070
     0
  0
VISUALSTYLE
  5
F4
102
{ACAD_REACTORS
330
EF
102
}
330
EF
100
AcDbVisualStyle
  2
Basic
 70
     7
 71
     1
 72
     0
 73
     1
 90
        0
 40
-0.6
 41
-30.0
 62
     5
 63
     7
 74
     0
 91
        4
 64
     7
 65
   257
 75
     1
175
     1
 42
1.0
 92
        8
 66
     7
 43
1.0
 76
     1
 77
     6
 78
     2
 67
     7
 79
     5
170
     0
171
     0
290
     0
174
     0
 93
        1
 44
0.0
173
     0
291
     1
 45
0.0
1001
ACAD
1000
AcDbSavedByObjectVersion
1070
     0
  0
VISUALSTYLE
  5
FB
102
{ACAD_REACTORS
330
EF
102
}
330
EF
100
AcDbVisualStyle
  2
Brighten
 70
    12
 71
     2
 72
     2
 73
     1
 90
        0
 40
-0.6
 41
-30.0
 62
     5
 63
     7
 74
     1
 91
        4
 64
     7
 65
   257
 75
     1
175
     1
 42
1.0
 92
        8
 66
     7
 43
1.0
 76
     1
 77
     6
 78
     2
 67
     7
 79
     5
170
     0
171
     0
290
     0
174
     0
 93
        1
 44
50.0
173
     0
291
     1
 45
0.0
1001
ACAD
1000
AcDbSavedByObjectVersion
1070
     0
  0
VISUALSTYLE
  5
FF
102
{ACAD_REACTORS
330
EF
102
}
330
EF
100
AcDbVisualStyle
  2
ColorChange
 70
    16
 71
     2
 72
     2
 73
     3
 90
        0
 40
-0.6
 41
-30.0
 62
     5
 63
     8
 74
     1
 91
        4
 64
     7
 65
   257
 75
     1
175
     1
 42
1.0
 92
        8
 66
     8
 43
1.0
 76
     1
 77
     6
 78
     2
 67
     7
 79
     5
170
     0
171
     0
290
     0
174
     0
 93
        1
 44
0.0
173
     0
291
     1
 45
0.0
1001
ACAD
1000
AcDbSavedByObjectVersion
1070
     0
  0
VISUALSTYLE
  5
F8
102
{ACAD_REACTORS
330
EF
102
}
330
EF
100
AcDbVisualStyle
  2
Conceptual
 70
     9
 71
     3
 72
     2
 73
     1
 90
        0
 40
-0.6
 41
-30.0
 62
     5
 63
     7
 74
     2
 91
        2
 64
     7
 65
   257
 75
     1
175
     1
 42
40.0
 92
        8
 66
     7
 43
1.0
 76
     1
 77
     6
 78
     2
 67
     7
 79
     3
170
     0
171
     0
290
     0
174
     0
 93
        1
 44
0.0
173
     0
291
     0
 45
0.0
1001
ACAD
1000
AcDbSavedByObjectVersion
1070
     0
  0
VISUALSTYLE
  5
FA
102
{ACAD_REACTORS
330
EF
102
}
330
EF
100
AcDbVisualStyle
  2
Dim
 70
    11
 71
     2
 72
     2
 73
     1
 90
        0
 40
-0.6
 41
-30.0
 62
     5
 63
     7
 74
     1
 91
        4
 64
     7
 65
   257
 75
     1
175
     1
 42
1.0
 92
        8
 66
     7
 43
1.0
 76
     1
 77
     6
 78
     2
 67
     7
 79
     5
170
     0
171
     0
290
     0
174
     0
 93
        1
 44
-50.0
173
     0
291
     1
 45
0.0
1001
ACAD
1000
AcDbSavedByObjectVersion
1070
     0
  0
VISUALSTYLE
  5
FE
102
{ACAD_REACTORS
330
EF
102
}
330
EF
100
AcDbVisualStyle
  2
Facepattern
 70
    15
 71
     2
 72
     2
 73
     1
 90
        0
 40
-0.6
 41
-30.0
 62
     5
 63
     7
 74
     1
 91
        4
 64
     7
 65
   257
 75
     1
175
     1
 42
1.0
 92
        8
 66
     7
 43
1.0
 76
     1
 77
     6
 78
     2
 67
     7
 79
     5
170
     0
171
     0
290
     0
174
     0
 93
        1
 44
0.0
173
     0
291
     1
 45
0.0
1001
ACAD
1000
AcDbSavedByObjectVersion
1070
     0
  0
VISUALSTYLE
  5
F0
102
{ACAD_REACTORS
330
EF
102
}
330
EF
100
AcDbVisualStyle
  2
Flat
 70
     0
 71
     2
 72
     1
 73
     1
 90
        2
 40
-0.6
 41
30.0
 62
     5
 63
     7
 74
     0
 91
        4
 64
     7
 65
   257
 75
     1
175
     1
 42
1.0
 92
        8
 66
     7
 43
1.0
 76
     1
 77
     6
 78
     2
 67
     7
 79
     5
170
     0
171
     0
290
     0
174
     0
 93
        1
 44
0.0
173
     0
291
     1
 45
0.0
1001
ACAD
1000
AcDbSavedByObjectVersion
1070
     0
  0
VISUALSTYLE
  5
F1
102
{ACAD_REACTORS
330
EF
102
}
330
EF
100
AcDbVisualStyle
  2
FlatWithEdges
 70
     1
 71
     2
 72
     1
 73
     1
 90
        2
 40
-0.6
 41
30.0
 62
     5
 63
     7
 74
     1
 91
        4
 64
     7
 65
   257
 75
     1
175
     1
 42
1.0
 92
        0
 66
   257
 43
1.0
 76
     1
 77
     6
 78
     2
 67
     7
 79
     5
170
     0
171
     0
290
     0
174
     0
 93
        1
 44
0.0
173
     0
291
     1
 45
0.0
1001
ACAD
1000
AcDbSavedByObjectVersion
1070
     0
  0
VISUALSTYLE
  5
F2
102
{ACAD_REACTORS
330
EF
102
}
330
EF
100
AcDbVisualStyle
  2
Gouraud
 70
     2
 71
     2
 72
     2
 73
     1
 90
        2
 40
-0.6
 41
30.0
 62
     5
 63
     7
 74
     0
 91
        4
 64
     7
 65
   257
 75
     1
175
     1
 42
1.0
 92
        0
 66
     7
 43
1.0
 76
     1
 77
     6
 78
     2
 67
     7
 79
     5
170
     0
171
     0
290
     0
174
     0
 93
        1
 44
0.0
173
     0
291
     1
 45
0.0
1001
ACAD
1000
AcDbSavedByObjectVersion
1070
     0
  0
VISUALSTYLE
  5
F3
102
{ACAD_REACTORS
330
EF
102
}
330
EF
100
AcDbVisualStyle
  2
GouraudWithEdges
 70
     3
 71
     2
 72
     2
 73
     1
 90
        2
 40
-0.6
 41
30.0
 62
     5
 63
     7
 74
     1
 91
        4
 64
     7
 65
   257
 75
     1
175
     1
 42
1.0
 92
        0
 66
   257
 43
1.0
 76
     1
 77
     6
 78
     2
 67
     7
 79
     5
170
     0
171
     0
290
     0
174
     0
 93
        1
 44
0.0
173
     0
291
     1
 45
0.0
1001
ACAD
1000
AcDbSavedByObjectVersion
1070
     0
  0
VISUALSTYLE
  5
FD
102
{ACAD_REACTORS
330
EF
102
}
330
EF
100
AcDbVisualStyle
  2
Linepattern
 70
    14
 71
     2
 72
     2
 73
     1
 90
        0
 40
-0.6
 41
-30.0
 62
     5
 63
     7
 74
     1
 91
        4
 64
     7
 65
   257
 75
     7
175
     7
 42
1.0
 92
        8
 66
     7
 43
1.0
 76
     1
 77
     6
 78
     2
 67
     7
 79
     5
170
     0
171
     0
290
     0
174
     0
 93
        1
 44
0.0
173
     0
291
     1
 45
0.0
1001
ACAD
1000
AcDbSavedByObjectVersion
1070
     0
  0
VISUALSTYLE
  5
F9
102
{ACAD_REACTORS
330
EF
102
}
330
EF
100
AcDbVisualStyle
  2
Realistic
 70
     8
 71
     2
 72
     2
 73
     1
 90
        0
 40
-0.6
 41
-30.0
 62
     5
 63
     7
 74
     1
 91
        0
 64
     7
 65
   257
 75
     1
175
     1
 42
1.0
 92
        8
 66
     8
 43
1.0
 76
     1
 77
     6
 78
     2
 67
     7
 79
     5
170
     0
171
     0
290
     0
174
     0
 93
       13
 44
0.0
173
     0
291
     0
 45
0.0
1001
ACAD
1000
AcDbSavedByObjectVersion
1070
     0
  0
VISUALSTYLE
  5
FC
102
{ACAD_REACTORS
330
EF
102
}
330
EF
100
AcDbVisualStyle
  2
Thicken
 70
    13
 71
     2
 72
     2
 73
     1
 90
        0
 40
-0.6
 41
-30.0
 62
     5
 63
     7
 74
     1
 91
        4
 64
     7
 65
   257
 75
     1
175
     1
 42
1.0
 92
       12
 66
     7
 43
1.0
 76
     1
 77
     6
 78
     2
 67
     7
 79
     5
170
     0
171
     0
290
     0
174
     0
 93
        1
 44
0.0
173
     0
291
     1
 45
0.0
1001
ACAD
1000
AcDbSavedByObjectVersion
1070
     0
  0
DICTIONARYVAR
  5
146
102
{ACAD_REACTORS
330
5E
102
}
330
5E
100
DictionaryVariables
280
     0
  1
1:1
  0
DICTIONARYVAR
  5
145
102
{ACAD_REACTORS
330
5E
102
}
330
5E
100
DictionaryVariables
280
     0
  1
STANDARD
  0
DICTIONARYVAR
  5
84
102
{ACAD_REACTORS
330
5E
102
}
330
5E
100
DictionaryVariables
280
     0
  1
STANDARD
  0
DICTIONARYVAR
  5
5F
102
{ACAD_REACTORS
330
5E
102
}
330
5E
100
DictionaryVariables
280
     0
  1
2
  0
DICTIONARYVAR
  5
63
102
{ACAD_REACTORS
330
5E
102
}
330
5E
100
DictionaryVariables
280
     0
  1
1
  0
DICTIONARYVAR
  5
842
102
{ACAD_REACTORS
330
5E
102
}
330
5E
100
DictionaryVariables
280
     0
  1
0
  0
DICTIONARYVAR
  5
840
102
{ACAD_REACTORS
330
5E
102
}
330
5E
100
DictionaryVariables
280
     0
  1
2
  0
DICTIONARYVAR
  5
83F
102
{ACAD_REACTORS
330
5E
102
}
330
5E
100
DictionaryVariables
280
     0
  1
1
  0
DICTIONARYVAR
  5
844
102
{ACAD_REACTORS
330
5E
102
}
330
5E
100
DictionaryVariables
280
     0
  1
80.000000
  0
DICTIONARYVAR
  5
843
102
{ACAD_REACTORS
330
5E
102
}
330
5E
100
DictionaryVariables
280
     0
  1
5.000000
  0
DICTIONARYVAR
  5
841
102
{ACAD_REACTORS
330
5E
102
}
330
5E
100
DictionaryVariables
280
     0
  1
127
  0
DICTIONARY
  5
84A
330
D3
100
AcDbDictionary
280
     1
281
     1
  3
ACAD_XREC_ROUNDTRIP
360
84B
  0
DICTIONARY
  5
84C
330
D7
100
AcDbDictionary
280
     1
281
     1
  3
ACAD_XREC_ROUNDTRIP
360
84D
  0
DICTIONARY
  5
847
330
22
100
AcDbDictionary
280
     1
281
     1
  3
ACAD_XREC_ROUNDTRIP
360
848
  0
DICTIONARY
  5
850
330
ED
100
AcDbDictionary
280
     1
281
     1
  3
ACAD_XREC_ROUNDTRIP
360
851
  0
DICTIONARY
  5
84E
330
EC
100
AcDbDictionary
280
     1
281
     1
  3
ACAD_XREC_ROUNDTRIP
360
84F
  0
DICTIONARY
  5
173
330
EE
100
AcDbDictionary
280
     1
281
     1
  3
ACAD_XREC_ROUNDTRIP
360
852
  3
BUMPTILE
360
175
  3
DIFFUSETILE
360
174
  3
OPACITYTILE
360
176
  3
REFLECTIONTILE
360
177
  0
DICTIONARY
  5
162
330
7F
100
AcDbDictionary
280
     1
281
     1
  3
ACAD_ROUNDTRIP_2008_TABLESTYLE_CELLSTYLEMAP
360
845
  3
ACAD_XREC_ROUNDTRIP
360
849
  0
XRECORD
  5
84B
102
{ACAD_REACTORS
330
84A
102
}
330
84A
100
AcDbXrecord
280
     1
102
SHADEPLOT
 70
     0
102
SHADEPLOTRESLEVEL
 70
     2
102
SHADEPLOTCUSTOMDPI
 70
   300
  0
XRECORD
  5
84D
102
{ACAD_REACTORS
330
84C
102
}
330
84C
100
AcDbXrecord
280
     1
102
SHADEPLOT
 70
     0
102
SHADEPLOTRESLEVEL
 70
     2
102
SHADEPLOTCUSTOMDPI
 70
   300
  0
XRECORD
  5
848
102
{ACAD_REACTORS
330
847
102
}
330
847
100
AcDbXrecord
280
     1
102
SHADEPLOT
 70
     0
102
SHADEPLOTRESLEVEL
 70
     2
102
SHADEPLOTCUSTOMDPI
 70
   300
  0
XRECORD
  5
851
102
{ACAD_REACTORS
330
850
102
}
330
850
100
AcDbXrecord
280
     1
102
MATERIAL
148
0.0
149
0.0
149
0.0
 93
        0
 94
       63
282
     0
 72
     1
 77
     1
171
     1
175
     1
179
     1
273
     0
  0
XRECORD
  5
84F
102
{ACAD_REACTORS
330
84E
102
}
330
84E
100
AcDbXrecord
280
     1
102
MATERIAL
148
0.0
149
0.0
149
0.0
 93
        0
 94
       63
282
     0
 72
     1
 77
     1
171
     1
175
     1
179
     1
273
     0
  0
XRECORD
  5
852
102
{ACAD_REACTORS
330
173
102
}
330
173
100
AcDbXrecord
280
     1
102
MATERIAL
148
0.0
149
0.0
149
0.0
 93
        0
 94
       63
282
     0
 72
     1
 77
     1
171
     1
175
     1
179
     1
273
     0
  0
XRECORD
  5
175
102
{ACAD_REACTORS
330
173
102
}
330
173
100
AcDbXrecord
280
     1
270
     1
271
     1
  0
XRECORD
  5
174
102
{ACAD_REACTORS
330
173
102
}
330
173
100
AcDbXrecord
280
     1
270
     1
271
     1
  0
XRECORD
  5
176
102
{ACAD_REACTORS
330
173
102
}
330
173
100
AcDbXrecord
280
     1
270
     1
271
     1
  0
XRECORD
  5
177
102
{ACAD_REACTORS
330
173
102
}
330
173
100
AcDbXrecord
280
     1
270
     1
271
     1
  0
CELLSTYLEMAP
  5
845
102
{ACAD_REACTORS
330
162
102
}
330
162
100
AcDbCellStyleMap
 90
        3
300
CELLSTYLE
  1
TABLEFORMAT_BEGIN
 90
        5
170
     1
 91
        0
 92
    32768
 62
   257
 93
        1
300
CONTENTFORMAT
  1
CONTENTFORMAT_BEGIN
 90
        0
 91
        0
 92
      512
 93
        0
300

 40
0.0
140
1.0
 94
        5
 62
     0
340
11
144
6.0
309
CONTENTFORMAT_END
171
     1
301
MARGIN
  1
CELLMARGIN_BEGIN
 40
1.5
 40
1.5
 40
1.5
 40
1.5
 40
4.5
 40
4.5
309
CELLMARGIN_END
 94
        6
 95
        1
302
GRIDFORMAT
  1
GRIDFORMAT_BEGIN
 90
        0
 91
        1
 62
     0
 92
       -2
340
14
 93
        0
 40
1.125
309
GRIDFORMAT_END
 95
        2
302
GRIDFORMAT
  1
GRIDFORMAT_BEGIN
 90
        0
 91
        1
 62
     0
 92
       -2
340
14
 93
        0
 40
1.125
309
GRIDFORMAT_END
 95
        4
302
GRIDFORMAT
  1
GRIDFORMAT_BEGIN
 90
        0
 91
        1
 62
     0
 92
       -2
340
14
 93
        0
 40
1.125
309
GRIDFORMAT_END
 95
        8
302
GRIDFORMAT
  1
GRIDFORMAT_BEGIN
 90
        0
 91
        1
 62
     0
 92
       -2
340
14
 93
        0
 40
1.125
309
GRIDFORMAT_END
 95
       16
302
GRIDFORMAT
  1
GRIDFORMAT_BEGIN
 90
        0
 91
        1
 62
     0
 92
       -2
340
14
 93
        0
 40
1.125
309
GRIDFORMAT_END
 95
       32
302
GRIDFORMAT
  1
GRIDFORMAT_BEGIN
 90
        0
 91
        1
 62
     0
 92
       -2
340
14
 93
        0
 40
1.125
309
GRIDFORMAT_END
309
TABLEFORMAT_END
  1
CELLSTYLE_BEGIN
 90
        1
 91
        1
300
_TITLE
309
CELLSTYLE_END
300
CELLSTYLE
  1
TABLEFORMAT_BEGIN
 90
        5
170
     1
 91
        0
 92
        0
 62
   257
 93
        1
300
CONTENTFORMAT
  1
CONTENTFORMAT_BEGIN
 90
        0
 91
        0
 92
      512
 93
        0
300

 40
0.0
140
1.0
 94
        5
 62
     0
340
11
144
4.5
309
CONTENTFORMAT_END
171
     1
301
MARGIN
  1
CELLMARGIN_BEGIN
 40
1.5
 40
1.5
 40
1.5
 40
1.5
 40
4.5
 40
4.5
309
CELLMARGIN_END
 94
        6
 95
        1
302
GRIDFORMAT
  1
GRIDFORMAT_BEGIN
 90
        0
 91
        1
 62
     0
 92
       -2
340
14
 93
        0
 40
1.125
309
GRIDFORMAT_END
 95
        2
302
GRIDFORMAT
  1
GRIDFORMAT_BEGIN
 90
        0
 91
        1
 62
     0
 92
       -2
340
14
 93
        0
 40
1.125
309
GRIDFORMAT_END
 95
        4
302
GRIDFORMAT
  1
GRIDFORMAT_BEGIN
 90
        0
 91
        1
 62
     0
 92
       -2
340
14
 93
        0
 40
1.125
309
GRIDFORMAT_END
 95
        8
302
GRIDFORMAT
  1
GRIDFORMAT_BEGIN
 90
        0
 91
        1
 62
     0
 92
       -2
340
14
 93
        0
 40
1.125
309
GRIDFORMAT_END
 95
       16
302
GRIDFORMAT
  1
GRIDFORMAT_BEGIN
 90
        0
 91
        1
 62
     0
 92
       -2
340
14
 93
        0
 40
1.125
309
GRIDFORMAT_END
 95
       32
302
GRIDFORMAT
  1
GRIDFORMAT_BEGIN
 90
        0
 91
        1
 62
     0
 92
       -2
340
14
 93
        0
 40
1.125
309
GRIDFORMAT_END
309
TABLEFORMAT_END
  1
CELLSTYLE_BEGIN
 90
        2
 91
        1
300
_HEADER
309
CELLSTYLE_END
300
CELLSTYLE
  1
TABLEFORMAT_BEGIN
 90
        5
170
     1
 91
        0
 92
        0
 62
   257
 93
        1
300
CONTENTFORMAT
  1
CONTENTFORMAT_BEGIN
 90
        0
 91
        0
 92
      512
 93
        0
300

 40
0.0
140
1.0
 94
        2
 62
     0
340
11
144
4.5
309
CONTENTFORMAT_END
171
     1
301
MARGIN
  1
CELLMARGIN_BEGIN
 40
1.5
 40
1.5
 40
1.5
 40
1.5
 40
4.5
 40
4.5
309
CELLMARGIN_END
 94
        6
 95
        1
302
GRIDFORMAT
  1
GRIDFORMAT_BEGIN
 90
        0
 91
        1
 62
     0
 92
       -2
340
14
 93
        0
 40
1.125
309
GRIDFORMAT_END
 95
        2
302
GRIDFORMAT
  1
GRIDFORMAT_BEGIN
 90
        0
 91
        1
 62
     0
 92
       -2
340
14
 93
        0
 40
1.125
309
GRIDFORMAT_END
 95
        4
302
GRIDFORMAT
  1
GRIDFORMAT_BEGIN
 90
        0
 91
        1
 62
     0
 92
       -2
340
14
 93
        0
 40
1.125
309
GRIDFORMAT_END
 95
        8
302
GRIDFORMAT
  1
GRIDFORMAT_BEGIN
 90
        0
 91
        1
 62
     0
 92
       -2
340
14
 93
        0
 40
1.125
309
GRIDFORMAT_END
 95
       16
302
GRIDFORMAT
  1
GRIDFORMAT_BEGIN
 90
        0
 91
        1
 62
     0
 92
       -2
340
14
 93
        0
 40
1.125
309
GRIDFORMAT_END
 95
       32
302
GRIDFORMAT
  1
GRIDFORMAT_BEGIN
 90
        0
 91
        1
 62
     0
 92
       -2
340
14
 93
        0
 40
1.125
309
GRIDFORMAT_END
309
TABLEFORMAT_END
  1
CELLSTYLE_BEGIN
 90
        3
 91
        2
300
_DATA
309
CELLSTYLE_END
  0
XRECORD
  5
849
102
{ACAD_REACTORS
330
162
102
}
330
162
100
AcDbXrecord
280
     1
102
ACAD_ROUNDTRIP_PRE2007_TABLESTYLE
 90
      512
 91
        0
  1

 92
      512
 93
        0
  2

 94
      512
 95
        0
  3

  0
ENDSEC
  0
EOF
