  0
SECTION
  2
HEADER
  9
$ACADVER
  1
AC1015
  9
$ACADMAINTVER
 70
    20
  9
$DWGCODEPAGE
  3
ANSI_1254
  9
$INSBASE
 10
0.0
 20
0.0
 30
0.0
  9
$EXTMIN
 10
2254.320867738252
 20
1048.56398496065
 30
0.0
  9
$EXTMAX
 10
2337.686256589987
 20
1086.331020466093
 30
0.0
  9
$LIMMIN
 10
0.0
 20
0.0
  9
$LIMMAX
 10
420.0
 20
297.0
  9
$ORTHOMODE
 70
     0
  9
$REGENMODE
 70
     1
  9
$FILLMODE
 70
     1
  9
$QTEXTMODE
 70
     0
  9
$MIRRTEXT
 70
     0
  9
$LTSCALE
 40
1.0
  9
$ATTMODE
 70
     1
  9
$TEXTSIZE
 40
2.5
  9
$TRACEWID
 40
1.0
  9
$TEXTSTYLE
  7
Standard
  9
$CLAYER
  8
0
  9
$CELTYPE
  6
ByLayer
  9
$CECOLOR
 62
   256
  9
$CELTSCALE
 40
1.0
  9
$DISPSILH
 70
     0
  9
$DIMSCALE
 40
1.0
  9
$DIMASZ
 40
2.5
  9
$DIMEXO
 40
0.625
  9
$DIMDLI
 40
3.75
  9
$DIMRND
 40
0.0
  9
$DIMDLE
 40
0.0
  9
$DIMEXE
 40
1.25
  9
$DIMTP
 40
0.0
  9
$DIMTM
 40
0.0
  9
$DIMTXT
 40
2.5
  9
$DIMCEN
 40
2.5
  9
$DIMTSZ
 40
0.0
  9
$DIMTOL
 70
     0
  9
$DIMLIM
 70
     0
  9
$DIMTIH
 70
     0
  9
$DIMTOH
 70
     0
  9
$DIMSE1
 70
     0
  9
$DIMSE2
 70
     0
  9
$DIMTAD
 70
     1
  9
$DIMZIN
 70
     8
  9
$DIMBLK
  1

  9
$DIMASO
 70
     1
  9
$DIMSHO
 70
     1
  9
$DIMPOST
  1

  9
$DIMAPOST
  1

  9
$DIMALT
 70
     0
  9
$DIMALTD
 70
     3
  9
$DIMALTF
 40
0.03937007874016
  9
$DIMLFAC
 40
1.0
  9
$DIMTOFL
 70
     1
  9
$DIMTVP
 40
0.0
  9
$DIMTIX
 70
     0
  9
$DIMSOXD
 70
     0
  9
$DIMSAH
 70
     0
  9
$DIMBLK1
  1

  9
$DIMBLK2
  1

  9
$DIMSTYLE
  2
ISO-25
  9
$DIMCLRD
 70
     0
  9
$DIMCLRE
 70
     0
  9
$DIMCLRT
 70
     0
  9
$DIMTFAC
 40
1.0
  9
$DIMGAP
 40
0.625
  9
$DIMJUST
 70
     0
  9
$DIMSD1
 70
     0
  9
$DIMSD2
 70
     0
  9
$DIMTOLJ
 70
     0
  9
$DIMTZIN
 70
     8
  9
$DIMALTZ
 70
     0
  9
$DIMALTTZ
 70
     0
  9
$DIMUPT
 70
     0
  9
$DIMDEC
 70
     2
  9
$DIMTDEC
 70
     2
  9
$DIMALTU
 70
     2
  9
$DIMALTTD
 70
     3
  9
$DIMTXSTY
  7
Standard
  9
$DIMAUNIT
 70
     0
  9
$DIMADEC
 70
     0
  9
$DIMALTRND
 40
0.0
  9
$DIMAZIN
 70
     0
  9
$DIMDSEP
 70
    44
  9
$DIMATFIT
 70
     3
  9
$DIMFRAC
 70
     0
  9
$DIMLDRBLK
  1

  9
$DIMLUNIT
 70
     2
  9
$DIMLWD
 70
    -2
  9
$DIMLWE
 70
    -2
  9
$DIMTMOVE
 70
     0
  9
$LUNITS
 70
     2
  9
$LUPREC
 70
     4
  9
$SKETCHINC
 40
1.0
  9
$FILLETRAD
 40
0.0
  9
$AUNITS
 70
     0
  9
$AUPREC
 70
     0
  9
$MENU
  1
.
  9
$ELEVATION
 40
0.0
  9
$PELEVATION
 40
0.0
  9
$THICKNESS
 40
0.0
  9
$LIMCHECK
 70
     0
  9
$CHAMFERA
 40
0.0
  9
$CHAMFERB
 40
0.0
  9
$CHAMFERC
 40
0.0
  9
$CHAMFERD
 40
0.0
  9
$SKPOLY
 70
     0
  9
$TDCREATE
 40
2458556.680855209
  9
$TDUCREATE
 40
2458556.555855209
  9
$TDUPDATE
 40
2458956.454100209
  9
$TDUUPDATE
 40
2458956.329100209
  9
$TDINDWG
 40
0.0005363889
  9
$TDUSRTIMER
 40
0.0005363889
  9
$USRTIMER
 70
     1
  9
$ANGBASE
 50
0.0
  9
$ANGDIR
 70
     0
  9
$PDMODE
 70
     0
  9
$PDSIZE
 40
0.0
  9
$PLINEWID
 40
0.0
  9
$SPLFRAME
 70
     0
  9
$SPLINETYPE
 70
     6
  9
$SPLINESEGS
 70
     8
  9
$HANDSEED
  5
718
  9
$SURFTAB1
 70
     6
  9
$SURFTAB2
 70
     6
  9
$SURFTYPE
 70
     6
  9
$SURFU
 70
     6
  9
$SURFV
 70
     6
  9
$UCSBASE
  2

  9
$UCSNAME
  2

  9
$UCSORG
 10
0.0
 20
0.0
 30
0.0
  9
$UCSXDIR
 10
1.0
 20
0.0
 30
0.0
  9
$UCSYDIR
 10
0.0
 20
1.0
 30
0.0
  9
$UCSORTHOREF
  2

  9
$UCSORTHOVIEW
 70
     0
  9
$UCSORGTOP
 10
0.0
 20
0.0
 30
0.0
  9
$UCSORGBOTTOM
 10
0.0
 20
0.0
 30
0.0
  9
$UCSORGLEFT
 10
0.0
 20
0.0
 30
0.0
  9
$UCSORGRIGHT
 10
0.0
 20
0.0
 30
0.0
  9
$UCSORGFRONT
 10
0.0
 20
0.0
 30
0.0
  9
$UCSORGBACK
 10
0.0
 20
0.0
 30
0.0
  9
$PUCSBASE
  2

  9
$PUCSNAME
  2

  9
$PUCSORG
 10
0.0
 20
0.0
 30
0.0
  9
$PUCSXDIR
 10
1.0
 20
0.0
 30
0.0
  9
$PUCSYDIR
 10
0.0
 20
1.0
 30
0.0
  9
$PUCSORTHOREF
  2

  9
$PUCSORTHOVIEW
 70
     0
  9
$PUCSORGTOP
 10
0.0
 20
0.0
 30
0.0
  9
$PUCSORGBOTTOM
 10
0.0
 20
0.0
 30
0.0
  9
$PUCSORGLEFT
 10
0.0
 20
0.0
 30
0.0
  9
$PUCSORGRIGHT
 10
0.0
 20
0.0
 30
0.0
  9
$PUCSORGFRONT
 10
0.0
 20
0.0
 30
0.0
  9
$PUCSORGBACK
 10
0.0
 20
0.0
 30
0.0
  9
$USERI1
 70
     0
  9
$USERI2
 70
     0
  9
$USERI3
 70
     0
  9
$USERI4
 70
     0
  9
$USERI5
 70
     0
  9
$USERR1
 40
0.0
  9
$USERR2
 40
0.0
  9
$USERR3
 40
0.0
  9
$USERR4
 40
0.0
  9
$USERR5
 40
0.0
  9
$WORLDVIEW
 70
     1
  9
$SHADEDGE
 70
     3
  9
$SHADEDIF
 70
    70
  9
$TILEMODE
 70
     1
  9
$MAXACTVP
 70
    64
  9
$PINSBASE
 10
0.0
 20
0.0
 30
0.0
  9
$PLIMCHECK
 70
     0
  9
$PEXTMIN
 10
0.0
 20
0.0
 30
0.0
  9
$PEXTMAX
 10
0.0
 20
0.0
 30
0.0
  9
$PLIMMIN
 10
0.0
 20
0.0
  9
$PLIMMAX
 10
12.0
 20
9.0
  9
$UNITMODE
 70
     0
  9
$VISRETAIN
 70
     1
  9
$PLINEGEN
 70
     0
  9
$PSLTSCALE
 70
     1
  9
$TREEDEPTH
 70
  3020
  9
$CMLSTYLE
  2
Standard
  9
$CMLJUST
 70
     0
  9
$CMLSCALE
 40
20.0
  9
$PROXYGRAPHICS
 70
     1
  9
$MEASUREMENT
 70
     1
  9
$CELWEIGHT
370
    -1
  9
$ENDCAPS
280
     0
  9
$JOINSTYLE
280
     0
  9
$LWDISPLAY
290
     0
  9
$INSUNITS
 70
     4
  9
$HYPERLINKBASE
  1

  9
$STYLESHEET
  1

  9
$XEDIT
290
     1
  9
$CEPSNTYPE
380
     0
  9
$PSTYLEMODE
290
     1
  9
$FINGERPRINTGUID
  2
{B35F5539-4527-4D03-B2AF-7084BFCE82BF}
  9
$VERSIONGUID
  2
{E4515DCF-595E-40DB-B8B9-592025D9677A}
  9
$EXTNAMES
290
     1
  9
$PSVPSCALE
 40
0.0
  9
$OLESTARTUP
290
     0
  0
ENDSEC
  0
SECTION
  2
CLASSES
  0
CLASS
  1
ACDBDICTIONARYWDFLT
  2
AcDbDictionaryWithDefault
  3
ObjectDBX Classes
 90
        0
280
     0
281
     0
  0
CLASS
  1
ACDBPLACEHOLDER
  2
AcDbPlaceHolder
  3
ObjectDBX Classes
 90
        0
280
     0
281
     0
  0
CLASS
  1
LAYOUT
  2
AcDbLayout
  3
ObjectDBX Classes
 90
        0
280
     0
281
     0
  0
CLASS
  1
DICTIONARYVAR
  2
AcDbDictionaryVar
  3
ObjectDBX Classes
 90
        0
280
     0
281
     0
  0
CLASS
  1
TABLESTYLE
  2
AcDbTableStyle
  3
ObjectDBX Classes
 90
     4095
280
     0
281
     0
  0
CLASS
  1
MATERIAL
  2
AcDbMaterial
  3
ObjectDBX Classes
 90
     1153
280
     0
281
     0
  0
CLASS
  1
VISUALSTYLE
  2
AcDbVisualStyle
  3
ObjectDBX Classes
 90
     4095
280
     0
281
     0
  0
CLASS
  1
SCALE
  2
AcDbScale
  3
ObjectDBX Classes
 90
     1153
280
     0
281
     0
  0
CLASS
  1
MLEADERSTYLE
  2
AcDbMLeaderStyle
  3
ACDB_MLEADERSTYLE_CLASS
 90
     4095
280
     0
281
     0
  0
CLASS
  1
CELLSTYLEMAP
  2
AcDbCellStyleMap
  3
ObjectDBX Classes
 90
     1152
280
     0
281
     0
  0
ENDSEC
  0
SECTION
  2
TABLES
  0
TABLE
  2
VPORT
  5
8
330
0
100
AcDbSymbolTable
 70
     1
  0
VPORT
  5
EA
330
8
100
AcDbSymbolTableRecord
100
AcDbViewportTableRecord
  2
*Active
 70
     0
 10
0.0
 20
0.0
 11
1.0
 21
1.0
 12
2300.553805643132
 22
1070.059731461229
 13
0.0
 23
0.0
 14
10.0
 24
10.0
 15
10.0
 25
10.0
 16
0.0
 26
0.0
 36
1.0
 17
0.0
 27
0.0
 37
0.0
 40
56.2466214487738
 41
1.903110047846889
 42
50.0
 43
0.0
 44
0.0
 50
0.0
 51
0.0
 71
     0
 72
  1000
 73
     1
 74
     3
 75
     0
 76
     0
 77
     0
 78
     0
281
     0
 65
     1
110
0.0
120
0.0
130
0.0
111
1.0
121
0.0
131
0.0
112
0.0
122
1.0
132
0.0
 79
     0
146
0.0
  0
ENDTAB
  0
TABLE
  2
LTYPE
  5
5
330
0
100
AcDbSymbolTable
 70
     1
  0
LTYPE
  5
14
330
5
100
AcDbSymbolTableRecord
100
AcDbLinetypeTableRecord
  2
ByBlock
 70
     0
  3

 72
    65
 73
     0
 40
0.0
  0
LTYPE
  5
15
330
5
100
AcDbSymbolTableRecord
100
AcDbLinetypeTableRecord
  2
ByLayer
 70
     0
  3

 72
    65
 73
     0
 40
0.0
  0
LTYPE
  5
16
330
5
100
AcDbSymbolTableRecord
100
AcDbLinetypeTableRecord
  2
Continuous
 70
     0
  3
Solid line
 72
    65
 73
     0
 40
0.0
  0
ENDTAB
  0
TABLE
  2
LAYER
  5
2
330
0
100
AcDbSymbolTable
 70
     1
  0
LAYER
  5
10
102
{ACAD_XDICTIONARY
360
13C
102
}
330
2
100
AcDbSymbolTableRecord
100
AcDbLayerTableRecord
  2
0
 70
     0
 62
     7
  6
Continuous
370
    -3
390
F
  0
ENDTAB
  0
TABLE
  2
STYLE
  5
3
330
0
100
AcDbSymbolTable
 70
     2
  0
STYLE
  5
11
330
3
100
AcDbSymbolTableRecord
100
AcDbTextStyleTableRecord
  2
Standard
 70
     0
 40
0.0
 41
1.0
 50
0.0
 71
     0
 42
2.5
  3
txt
  4

  0
STYLE
  5
132
330
3
100
AcDbSymbolTableRecord
100
AcDbTextStyleTableRecord
  2
Annotative
 70
     0
 40
0.0
 41
1.0
 50
0.0
 71
     0
 42
2.5
  3
txt.shx
  4

1001
AcadAnnotative
1000
AnnotativeData
1002
{
1070
     1
1070
     1
1002
}
  0
ENDTAB
  0
TABLE
  2
VIEW
  5
6
330
0
100
AcDbSymbolTable
 70
     0
  0
ENDTAB
  0
TABLE
  2
UCS
  5
7
330
0
100
AcDbSymbolTable
 70
     0
  0
ENDTAB
  0
TABLE
  2
APPID
  5
9
330
0
100
AcDbSymbolTable
 70
     7
  0
APPID
  5
12
330
9
100
AcDbSymbolTableRecord
100
AcDbRegAppTableRecord
  2
ACAD
 70
     0
  0
APPID
  5
9E
330
9
100
AcDbSymbolTableRecord
100
AcDbRegAppTableRecord
  2
ACAD_PSEXT
 70
     0
  0
APPID
  5
133
330
9
100
AcDbSymbolTableRecord
100
AcDbRegAppTableRecord
  2
AcadAnnoPO
 70
     0
  0
APPID
  5
134
330
9
100
AcDbSymbolTableRecord
100
AcDbRegAppTableRecord
  2
AcadAnnotative
 70
     0
  0
APPID
  5
135
330
9
100
AcDbSymbolTableRecord
100
AcDbRegAppTableRecord
  2
ACAD_DSTYLE_DIMJAG
 70
     0
  0
APPID
  5
136
330
9
100
AcDbSymbolTableRecord
100
AcDbRegAppTableRecord
  2
ACAD_DSTYLE_DIMTALN
 70
     0
  0
APPID
  5
165
330
9
100
AcDbSymbolTableRecord
100
AcDbRegAppTableRecord
  2
ACAD_MLEADERVER
 70
     0
  0
ENDTAB
  0
TABLE
  2
DIMSTYLE
  5
A
330
0
100
AcDbSymbolTable
 70
     2
100
AcDbDimStyleTable
 71
     2
340
27
340
137
  0
DIMSTYLE
105
27
330
A
100
AcDbSymbolTableRecord
100
AcDbDimStyleTableRecord
  2
ISO-25
 70
     0
 41
2.5
 42
0.625
 43
3.75
 44
1.25
 73
     0
 74
     0
 77
     1
 78
     8
140
2.5
141
2.5
143
0.03937007874016
147
0.625
171
     3
172
     1
271
     2
272
     2
274
     3
278
    44
283
     0
284
     8
340
11
  0
DIMSTYLE
105
137
330
A
100
AcDbSymbolTableRecord
100
AcDbDimStyleTableRecord
  2
Annotative
 70
     0
 40
0.0
 41
2.5
 42
0.625
 43
3.75
 44
1.25
 73
     0
 74
     0
 77
     1
 78
     8
140
2.5
141
2.5
143
0.03937007874016
147
0.625
171
     3
172
     1
271
     2
272
     2
274
     3
278
    44
283
     0
284
     8
340
11
1001
AcadAnnotative
1000
AnnotativeData
1002
{
1070
     1
1070
     1
1002
}
1001
ACAD_DSTYLE_DIMJAG
1070
   388
1040
1.5
1001
ACAD_DSTYLE_DIMTALN
1070
   392
1070
     0
  0
ENDTAB
  0
TABLE
  2
BLOCK_RECORD
  5
1
330
0
100
AcDbSymbolTable
 70
     5
  0
BLOCK_RECORD
  5
1F
330
1
100
AcDbSymbolTableRecord
100
AcDbBlockTableRecord
  2
*Model_Space
340
22
  0
BLOCK_RECORD
  5
D2
330
1
100
AcDbSymbolTableRecord
100
AcDbBlockTableRecord
  2
*Paper_Space
340
D3
  0
BLOCK_RECORD
  5
D6
330
1
100
AcDbSymbolTableRecord
100
AcDbBlockTableRecord
  2
*Paper_Space0
340
D7
  0
BLOCK_RECORD
  5
52F
330
1
100
AcDbSymbolTableRecord
100
AcDbBlockTableRecord
  2
1
340
0
310
2800000020000000200000000100080000000000000400000000000000000000000000000000000000000000000080000080000000808000800000008000800080800000C0C0C000C0DCC000F0CAA6000020400000206000002080000020A0000020C0000020E00000400000004020000040400000406000004080000040A0
310
000040C0000040E00000600000006020000060400000606000006080000060A0000060C0000060E00000800000008020000080400000806000008080000080A0000080C0000080E00000A0000000A0200000A0400000A0600000A0800000A0A00000A0C00000A0E00000C0000000C0200000C0400000C0600000C0800000C0
310
A00000C0C00000C0E00000E0000000E0200000E0400000E0600000E0800000E0A00000E0C00000E0E00040000000400020004000400040006000400080004000A0004000C0004000E00040200000402020004020400040206000402080004020A0004020C0004020E000404000004040200040404000404060004040800040
310
40A0004040C0004040E00040600000406020004060400040606000406080004060A0004060C0004060E00040800000408020004080400040806000408080004080A0004080C0004080E00040A0000040A0200040A0400040A0600040A0800040A0A00040A0C00040A0E00040C0000040C0200040C0400040C0600040C08000
310
40C0A00040C0C00040C0E00040E0000040E0200040E0400040E0600040E0800040E0A00040E0C00040E0E00080000000800020008000400080006000800080008000A0008000C0008000E00080200000802020008020400080206000802080008020A0008020C0008020E00080400000804020008040400080406000804080
310
008040A0008040C0008040E00080600000806020008060400080606000806080008060A0008060C0008060E00080800000808020008080400080806000808080008080A0008080C0008080E00080A0000080A0200080A0400080A0600080A0800080A0A00080A0C00080A0E00080C0000080C0200080C0400080C0600080C0
310
800080C0A00080C0C00080C0E00080E0000080E0200080E0400080E0600080E0800080E0A00080E0C00080E0E000C0000000C0002000C0004000C0006000C0008000C000A000C000C000C000E000C0200000C0202000C0204000C0206000C0208000C020A000C020C000C020E000C0400000C0402000C0404000C0406000C0
310
408000C040A000C040C000C040E000C0600000C0602000C0604000C0606000C0608000C060A000C060C000C060E000C0800000C0802000C0804000C0806000C0808000C080A000C080C000C080E000C0A00000C0A02000C0A04000C0A06000C0A08000C0A0A000C0A0C000C0A0E000C0C00000C0C02000C0C04000C0C06000
310
C0C08000C0C0A000F0FBFF00A4A0A000808080000000FF0000FF000000FFFF00FF000000FF00FF00FFFF0000FFFFFF0000000000000000000000000000000000000000000000000000000000000000000000000000000000000000000000000000000000000000000000000000000000000000000000000000000000000000
310
00000000000000000000000000000000000000000000000000000000000000000000000000000000000000000000000000000000000000000000000000000000000000000000000000000000000000000000000000000000000000000000000000000000000000000000000000000000000000FFFFFFFFFFFFFFFF0000FFFF
310
FFFFFFFFFFFF0000FFFFFFFFFFFFFFFF00000000FFFFFFFFFFFFFFFF0000FFFFFFFFFFFFFFFF0000FFFFFFFFFFFFFFFF00000000FF00000000000000FF00FF000000000000FF00FF00000000000000FF00000000FF00000000000000FF00FF000000000000FF00FF00000000000000FF00000000FF00FFFFFFFF0000FF00FF
310
00FFFFFFFF00FF00FF0000FFFFFFFF00FF00000000FF00FF0000FF0000FF00FF00FF0000FF00FF00FF0000FF0000FF00FF000000FFFF00FFFFFFFF0000FFFFFF00FFFFFFFF00FFFFFF0000FFFFFFFF00FFFF0000FFFF00000000000000FFFFFF000000000000FFFFFF00000000000000FFFF000000FF00000000000000FF00
310
FF000000000000FF00FF00000000000000FF00000000FF00000000000000FF00FF000000000000FF00FF00000000000000FF00000000FF00000000000000FFFFFF000000000000FFFFFF00000000000000FF00000000FF00000000000000FFFF0000000000000000FFFF00000000000000FF00000000FF00000000000000FF
310
FF0000000000000000FFFF00000000000000FF00000000FF00000000000000FFFF0000000000000000FFFF00000000000000FF00000000FF00000000000000FFFF0000000000000000FFFF00000000000000FF0000000000FF000000000000FFFF0000000000000000FFFF000000000000FF00000000000000FF0000000000
310
FFFF0000000000000000FFFF0000000000FF000000000000000000FF00000000FFFF0000000000000000FFFF00000000FF0000000000000000000000FF000000FFFF0000000000000000FFFF000000FF00000000000000000000000000FFFFFFFFFFFFFFFFFFFFFFFFFFFFFFFFFFFF00000000000000000000000000000000
310
00000000000000000000000000000000000000000000000000000000000000000000000000000000000000000000000000000000000000000000000000000000000000000000000000000000000000000000000000000000000000000000000000000000000000000000000000000000000000000000000000000000000000
310
0000000000000000000000000000000000000000000000000000000000000000000000000000000000000000000000000000000000000000
102
{BLKREFS
331
5D3
102
}
1001
ACAD
1000
DesignCenter Data
1002
{
1070
     1
1070
     4
1002
}
  0
BLOCK_RECORD
  5
5D4
330
1
100
AcDbSymbolTableRecord
100
AcDbBlockTableRecord
  2
2
340
0
310
2800000020000000200000000100080000000000000400000000000000000000000000000000000000000000000080000080000000808000800000008000800080800000C0C0C000C0DCC000F0CAA6000020400000206000002080000020A0000020C0000020E00000400000004020000040400000406000004080000040A0
310
000040C0000040E00000600000006020000060400000606000006080000060A0000060C0000060E00000800000008020000080400000806000008080000080A0000080C0000080E00000A0000000A0200000A0400000A0600000A0800000A0A00000A0C00000A0E00000C0000000C0200000C0400000C0600000C0800000C0
310
A00000C0C00000C0E00000E0000000E0200000E0400000E0600000E0800000E0A00000E0C00000E0E00040000000400020004000400040006000400080004000A0004000C0004000E00040200000402020004020400040206000402080004020A0004020C0004020E000404000004040200040404000404060004040800040
310
40A0004040C0004040E00040600000406020004060400040606000406080004060A0004060C0004060E00040800000408020004080400040806000408080004080A0004080C0004080E00040A0000040A0200040A0400040A0600040A0800040A0A00040A0C00040A0E00040C0000040C0200040C0400040C0600040C08000
310
40C0A00040C0C00040C0E00040E0000040E0200040E0400040E0600040E0800040E0A00040E0C00040E0E00080000000800020008000400080006000800080008000A0008000C0008000E00080200000802020008020400080206000802080008020A0008020C0008020E00080400000804020008040400080406000804080
310
008040A0008040C0008040E00080600000806020008060400080606000806080008060A0008060C0008060E00080800000808020008080400080806000808080008080A0008080C0008080E00080A0000080A0200080A0400080A0600080A0800080A0A00080A0C00080A0E00080C0000080C0200080C0400080C0600080C0
310
800080C0A00080C0C00080C0E00080E0000080E0200080E0400080E0600080E0800080E0A00080E0C00080E0E000C0000000C0002000C0004000C0006000C0008000C000A000C000C000C000E000C0200000C0202000C0204000C0206000C0208000C020A000C020C000C020E000C0400000C0402000C0404000C0406000C0
310
408000C040A000C040C000C040E000C0600000C0602000C0604000C0606000C0608000C060A000C060C000C060E000C0800000C0802000C0804000C0806000C0808000C080A000C080C000C080E000C0A00000C0A02000C0A04000C0A06000C0A08000C0A0A000C0A0C000C0A0E000C0C00000C0C02000C0C04000C0C06000
310
C0C08000C0C0A000F0FBFF00A4A0A000808080000000FF0000FF000000FFFF00FF000000FF00FF00FFFF0000FFFFFF0000000000000000000000000000000000000000000000000000000000000000000000000000000000FFFFFFFFFFFFFFFFFFFFFF00000000000000000000000000000000000000FFFF00000000FF0000
310
00FF0000FF000000000000000000000000000000000000FFFFFFFFFFFFFFFFFFFFFFFFFFFF0000000000000000000000000000000000000000000000000000000000FFFFFFFFFF000000000000000000000000000000000000000000000000000000FF000000FF000000000000000000000000000000000000000000000000
310
000000FF000000FF000000000000000000000000000000000000000000000000000000FF000000FF000000000000000000000000000000000000000000000000000000FF000000FF000000000000000000000000000000000000000000000000000000FF000000FF0000000000000000000000000000000000000000000000
310
00000000FFFFFFFFFF000000000000000000000000000000000000000000000000000000FF000000FF000000000000000000000000000000000000000000000000000000FFFFFFFFFF000000000000000000000000000000000000000000000000000000FF000000FF00000000000000000000000000000000000000000000
310
0000000000FF000000FF000000000000000000000000000000000000000000000000000000FF000000FF0000000000000000000000000000000000000000000000FFFFFFFFFF000000FFFFFFFFFF00000000000000000000000000000000000000FF000000FF000000FF000000FF0000000000000000000000000000000000
310
000000FF0000FF000000FF0000FF000000000000000000000000000000000000000000FF0000FF000000FF0000FF000000000000000000000000000000000000000000FF0000FF000000FF0000FF00000000000000000000000000000000000000000000FF00FF000000FF00FF000000000000000000000000000000000000
310
0000000000FF00FF000000FF00FF0000000000000000000000000000000000000000000000FF00FFFFFFFFFF00FF0000000000000000000000000000000000000000000000FF00FF000000FF00FF000000000000000000000000000000000000000000000000FFFF000000FFFF000000000000000000000000000000000000
310
00000000000000FFFF000000FFFF00000000000000000000000000000000000000000000000000FFFF000000FFFF0000000000000000000000000000000000000000000000000000FF000000FF000000000000000000000000000000000000000000000000000000FF000000FF000000000000000000000000000000000000
310
000000000000000000FFFFFFFFFF000000000000000000000000000000000000000000000000000000000000000000000000000000000000
102
{BLKREFS
331
5F7
102
}
1001
ACAD
1000
DesignCenter Data
1002
{
1070
     1
1070
     4
1002
}
  0
BLOCK_RECORD
  5
5F8
330
1
100
AcDbSymbolTableRecord
100
AcDbBlockTableRecord
  2
3
340
0
310
2800000020000000200000000100080000000000000400000000000000000000000000000000000000000000000080000080000000808000800000008000800080800000C0C0C000C0DCC000F0CAA6000020400000206000002080000020A0000020C0000020E00000400000004020000040400000406000004080000040A0
310
000040C0000040E00000600000006020000060400000606000006080000060A0000060C0000060E00000800000008020000080400000806000008080000080A0000080C0000080E00000A0000000A0200000A0400000A0600000A0800000A0A00000A0C00000A0E00000C0000000C0200000C0400000C0600000C0800000C0
310
A00000C0C00000C0E00000E0000000E0200000E0400000E0600000E0800000E0A00000E0C00000E0E00040000000400020004000400040006000400080004000A0004000C0004000E00040200000402020004020400040206000402080004020A0004020C0004020E000404000004040200040404000404060004040800040
310
40A0004040C0004040E00040600000406020004060400040606000406080004060A0004060C0004060E00040800000408020004080400040806000408080004080A0004080C0004080E00040A0000040A0200040A0400040A0600040A0800040A0A00040A0C00040A0E00040C0000040C0200040C0400040C0600040C08000
310
40C0A00040C0C00040C0E00040E0000040E0200040E0400040E0600040E0800040E0A00040E0C00040E0E00080000000800020008000400080006000800080008000A0008000C0008000E00080200000802020008020400080206000802080008020A0008020C0008020E00080400000804020008040400080406000804080
310
008040A0008040C0008040E00080600000806020008060400080606000806080008060A0008060C0008060E00080800000808020008080400080806000808080008080A0008080C0008080E00080A0000080A0200080A0400080A0600080A0800080A0A00080A0C00080A0E00080C0000080C0200080C0400080C0600080C0
310
800080C0A00080C0C00080C0E00080E0000080E0200080E0400080E0600080E0800080E0A00080E0C00080E0E000C0000000C0002000C0004000C0006000C0008000C000A000C000C000C000E000C0200000C0202000C0204000C0206000C0208000C020A000C020C000C020E000C0400000C0402000C0404000C0406000C0
310
408000C040A000C040C000C040E000C0600000C0602000C0604000C0606000C0608000C060A000C060C000C060E000C0800000C0802000C0804000C0806000C0808000C080A000C080C000C080E000C0A00000C0A02000C0A04000C0A06000C0A08000C0A0A000C0A0C000C0A0E000C0C00000C0C02000C0C04000C0C06000
310
C0C08000C0C0A000F0FBFF00A4A0A000808080000000FF0000FF000000FFFF00FF000000FF00FF00FFFF0000FFFFFF0000000000000000000000000000000000000000000000000000000000000000000000000000000000000000000000000000000000000000000000000000000000000000000000000000000000000000
310
00000000000000000000000000000000000000000000000000000000000000000000000000000000000000000000000000000000000000000000000000000000000000000000000000000000000000000000000000000000000000000000000000000000000000000000000000000000000000000000000000000000000000
310
000000000000000000000000000000000000000000000000000000000000000000000000000000000000000000000000000000000000000000000000000000000000000000000000000000000000000000000000FFFF00000000FFFF0000FFFF00000000FFFF0000FFFF00000000FFFF00000000FF00FF000000FFFF0000FF
310
00FF0000FF00FF0000FFFF000000FF00FF00000000FF00FF000000FFFF0000FF00FF0000FF00FF0000FF00FF0000FF00FF00000000FF00FFFFFFFF00FF0000FF00FFFFFFFF00FF0000FF00FFFFFFFF00FF00000000FF000000000000FF0000FF000000000000FF0000FF000000000000FF00000000FF000000000000FFFFFF
310
FF000000000000FFFFFFFF000000000000FF0000000000FF00000000FF00FFFF00FF00000000FF00FFFF00FF00000000FF00000000FFFFFFFFFFFFFFFFFFFFFFFFFFFFFFFFFFFFFFFFFFFFFFFFFFFFFFFFFFFF0000FFFF00000000FF00000000000000000000000000000000FF00000000FFFF0000FFFF00000000FF000000
310
00000000000000000000000000FF00000000FFFF0000FFFFFFFFFFFFFFFFFFFFFFFFFFFFFFFFFFFFFFFFFFFFFFFFFFFFFFFFFFFF0000000000000000000000FFFF0000000000000000FFFF0000000000000000000000000000000000000000FFFF0000000000000000FFFF0000000000000000000000000000000000000000
310
FFFF0000000000000000FFFF00000000000000000000000000000000000000000000000000000000000000000000000000000000000000000000000000000000000000000000000000000000000000000000000000000000000000000000000000000000000000000000000000000000000000000000000000000000000000
310
00000000000000000000000000000000000000000000000000000000000000000000000000000000000000000000000000000000000000000000000000000000000000000000000000000000000000000000000000000000000000000000000000000000000000000000000000000000000000000000000000000000000000
310
0000000000000000000000000000000000000000000000000000000000000000000000000000000000000000000000000000000000000000
102
{BLKREFS
331
63E
102
}
1001
ACAD
1000
DesignCenter Data
1002
{
1070
     1
1070
     4
1002
}
  0
BLOCK_RECORD
  5
63F
330
1
100
AcDbSymbolTableRecord
100
AcDbBlockTableRecord
  2
4
340
0
310
2800000020000000200000000100080000000000000400000000000000000000000000000000000000000000000080000080000000808000800000008000800080800000C0C0C000C0DCC000F0CAA6000020400000206000002080000020A0000020C0000020E00000400000004020000040400000406000004080000040A0
310
000040C0000040E00000600000006020000060400000606000006080000060A0000060C0000060E00000800000008020000080400000806000008080000080A0000080C0000080E00000A0000000A0200000A0400000A0600000A0800000A0A00000A0C00000A0E00000C0000000C0200000C0400000C0600000C0800000C0
310
A00000C0C00000C0E00000E0000000E0200000E0400000E0600000E0800000E0A00000E0C00000E0E00040000000400020004000400040006000400080004000A0004000C0004000E00040200000402020004020400040206000402080004020A0004020C0004020E000404000004040200040404000404060004040800040
310
40A0004040C0004040E00040600000406020004060400040606000406080004060A0004060C0004060E00040800000408020004080400040806000408080004080A0004080C0004080E00040A0000040A0200040A0400040A0600040A0800040A0A00040A0C00040A0E00040C0000040C0200040C0400040C0600040C08000
310
40C0A00040C0C00040C0E00040E0000040E0200040E0400040E0600040E0800040E0A00040E0C00040E0E00080000000800020008000400080006000800080008000A0008000C0008000E00080200000802020008020400080206000802080008020A0008020C0008020E00080400000804020008040400080406000804080
310
008040A0008040C0008040E00080600000806020008060400080606000806080008060A0008060C0008060E00080800000808020008080400080806000808080008080A0008080C0008080E00080A0000080A0200080A0400080A0600080A0800080A0A00080A0C00080A0E00080C0000080C0200080C0400080C0600080C0
310
800080C0A00080C0C00080C0E00080E0000080E0200080E0400080E0600080E0800080E0A00080E0C00080E0E000C0000000C0002000C0004000C0006000C0008000C000A000C000C000C000E000C0200000C0202000C0204000C0206000C0208000C020A000C020C000C020E000C0400000C0402000C0404000C0406000C0
310
408000C040A000C040C000C040E000C0600000C0602000C0604000C0606000C0608000C060A000C060C000C060E000C0800000C0802000C0804000C0806000C0808000C080A000C080C000C080E000C0A00000C0A02000C0A04000C0A06000C0A08000C0A0A000C0A0C000C0A0E000C0C00000C0C02000C0C04000C0C06000
310
C0C08000C0C0A000F0FBFF00A4A0A000808080000000FF0000FF000000FFFF00FF000000FF00FF00FFFF0000FFFFFF00000000000000000000000000000000000000000000000000000000000000000000000000000000000000FF000000000000000000000000000000000000000000000000000000000000FFFFFF000000
310
000000000000000000000000000000000000000000000000FFFFFFFFFF0000000000000000000000000000000000000000000000000000FFFF00FFFFFFFFFFFFFF000000000000000000000000000000000000000000FFFF0000FF0000FFFF00FF00FF0000000000000000000000000000000000FFFFFFFFFF0000FFFF00FF
310
FFFFFFFFFF00000000000000000000000000000000FF00FF0000FFFFFFFFFF00FFFFFFFF0000000000000000000000000000000000FF00FF00FF00FFFF0000FFFFFFFFFFFFFFFFFFFF000000000000000000000000FFFFFF00FFFFFFFF00FFFF00FFFFFFFFFFFFFFFFFF0000000000000000000000FFFFFF00FFFFFFFFFFFF
310
FFFF0000FFFFFFFFFFFFFFFF00000000000000000000FFFFFF0000FFFFFF00FF0000FFFFFFFF0000FFFF00FF000000FF000000000000FF00FF00000000FFFFFFFF000000FF00FFFFFFFFFFFFFFFFFFFF000000000000FF00FF00000000FFFFFFFFFFFF00FF00FFFF00FFFFFFFF0000FF000000000000FF00FF00000000FFFF
310
FFFF00FF00FFFF00FFFF000000FFFFFF00000000000000FF00FF00000000FFFFFFFFFFFF00FFFF000000FFFFFF00000000000000000000FFFF00FF000000FF00FFFF000000FFFF00FF000000FF0000000000000000000000FF00FF000000FFFFFF00000000FFFF00FFFFFF00FF0000000000000000000000FF0000FF0000FF
310
FFFF00000000FFFFFFFFFFFF00FF000000000000000000000000FF00FF0000FFFFFF00000000FFFFFFFFFFFF00FF000000000000000000000000FF0000FF00FFFFFF00000000FFFF00FF000000FF00000000000000000000000000FF00FF00FFFF0000000000FFFFFF00000000FF00000000000000000000000000FFFF00FF
310
FFFF0000000000FFFFFF00000000FF0000000000000000000000000000FFFF0000FFFF00000000FFFFFF00000000FF00000000000000000000000000000000FFFF0000FFFF0000FF00FF00000000FF000000000000000000000000000000000000FFFF0000FF00FFFF0000000000FF00000000000000000000000000000000
310
00000000FF0000FFFFFF0000000000FF000000000000000000000000000000000000000000FFFF0000FFFF0000FFFF000000000000000000000000000000000000000000000000FFFF0000FFFF00FF0000000000000000000000000000000000000000000000000000FFFFFFFFFF0000000000000000000000000000000000
310
0000000000000000000000000000000000000000000000000000000000000000000000000000000000000000000000000000000000000000
102
{BLKREFS
331
6FD
102
}
1001
ACAD
1000
DesignCenter Data
1002
{
1070
     1
1070
     4
1002
}
  0
ENDTAB
  0
ENDSEC
  0
SECTION
  2
BLOCKS
  0
BLOCK
  5
20
330
1F
100
AcDbEntity
  8
0
100
AcDbBlockBegin
  2
*Model_Space
 70
     0
 10
0.0
 20
0.0
 30
0.0
  3
*Model_Space
  1

  0
ENDBLK
  5
21
330
1F
100
AcDbEntity
  8
0
100
AcDbBlockEnd
  0
BLOCK
  5
D4
330
D2
100
AcDbEntity
 67
     1
  8
0
100
AcDbBlockBegin
  2
*Paper_Space
 70
     0
 10
0.0
 20
0.0
 30
0.0
  3
*Paper_Space
  1

  0
ENDBLK
  5
D5
330
D2
100
AcDbEntity
 67
     1
  8
0
100
AcDbBlockEnd
  0
BLOCK
  5
D8
330
D6
100
AcDbEntity
 67
     1
  8
0
100
AcDbBlockBegin
  2
*Paper_Space0
 70
     0
 10
0.0
 20
0.0
 30
0.0
  3
*Paper_Space0
  1

  0
ENDBLK
  5
D9
330
D6
100
AcDbEntity
 67
     1
  8
0
100
AcDbBlockEnd
  0
BLOCK
  5
530
330
52F
100
AcDbEntity
  8
0
100
AcDbBlockBegin
  2
1
 70
     0
 10
0.0
 20
0.0
 30
0.0
  3
1
  1

  0
LINE
  5
532
330
52F
100
AcDbEntity
  8
0
  6
Continuous
 62
     7
370
    15
100
AcDbLine
 10
2282.364955910848
 20
1071.134885032663
 30
0.0
 11
2283.364955910847
 21
1071.134885032663
 31
0.0
  0
LINE
  5
533
330
52F
100
AcDbEntity
  8
0
  6
Continuous
 62
     7
370
    15
100
AcDbLine
 10
2283.364955910847
 20
1070.434885032663
 30
0.0
 11
2283.364955910847
 21
1071.134885032663
 31
0.0
  0
LINE
  5
534
330
52F
100
AcDbEntity
  8
0
  6
Continuous
 62
     7
370
    15
100
AcDbLine
 10
2282.364955910848
 20
1070.434885032663
 30
0.0
 11
2283.364955910847
 21
1070.434885032663
 31
0.0
  0
LINE
  5
535
330
52F
100
AcDbEntity
  8
0
  6
Continuous
 62
     7
370
    15
100
AcDbLine
 10
2282.364955910848
 20
1071.134885032663
 30
0.0
 11
2282.364955910848
 21
1070.434885032663
 31
0.0
  0
LINE
  5
536
330
52F
100
AcDbEntity
  8
0
  6
Continuous
 62
     7
370
    15
100
AcDbLine
 10
2287.364955908941
 20
1070.434885032663
 30
0.0
 11
2288.364955908941
 21
1070.434885032663
 31
0.0
  0
LINE
  5
537
330
52F
100
AcDbEntity
  8
0
  6
Continuous
 62
     7
370
    15
100
AcDbLine
 10
2288.364955908941
 20
1070.434885032663
 30
0.0
 11
2288.364955908941
 21
1070.134885032663
 31
0.0
  0
LINE
  5
538
330
52F
100
AcDbEntity
  8
0
  6
Continuous
 62
     7
370
    15
100
AcDbLine
 10
2288.364955908941
 20
1070.134885032663
 30
0.0
 11
2286.931908443662
 21
1070.134885032663
 31
0.0
  0
LINE
  5
539
330
52F
100
AcDbEntity
  8
0
  6
Continuous
 62
     7
370
    15
100
AcDbLine
 10
2286.982862618143
 20
1070.249778257513
 30
0.0
 11
2286.931908443662
 21
1070.134885032663
 31
0.0
  0
LINE
  5
53A
330
52F
100
AcDbEntity
  8
0
  6
Continuous
 62
     7
370
    15
100
AcDbLine
 10
2287.364955908941
 20
1070.434885032663
 30
0.0
 11
2286.982862618143
 21
1070.249778257513
 31
0.0
  0
LINE
  5
53B
330
52F
100
AcDbEntity
  8
0
  6
Continuous
 62
     7
370
    15
100
AcDbLine
 10
2295.514955908941
 20
1071.134885032663
 30
0.0
 11
2295.132862618142
 21
1071.134885032663
 31
0.0
  0
LINE
  5
53C
330
52F
100
AcDbEntity
  8
0
  6
Continuous
 62
     7
370
    15
100
AcDbLine
 10
2295.514955908941
 20
1070.434885032663
 30
0.0
 11
2295.514955908941
 21
1071.134885032663
 31
0.0
  0
LINE
  5
53D
330
52F
100
AcDbEntity
  8
0
  6
Continuous
 62
     7
370
    15
100
AcDbLine
 10
2295.132862618142
 20
1070.249778257513
 30
0.0
 11
2295.514955908941
 21
1070.434885032663
 31
0.0
  0
LINE
  5
53E
330
52F
100
AcDbEntity
  8
0
  6
Continuous
 62
     7
370
    15
100
AcDbLine
 10
2295.132862618142
 20
1071.134885032663
 30
0.0
 11
2295.132862618142
 21
1070.249778257513
 31
0.0
  0
LINE
  5
53F
330
52F
100
AcDbEntity
  8
0
  6
Continuous
 62
     7
370
    15
100
AcDbLine
 10
2296.514955908941
 20
1070.434885032663
 30
0.0
 11
2295.514955908941
 21
1070.434885032663
 31
0.0
  0
LINE
  5
540
330
52F
100
AcDbEntity
  8
0
  6
Continuous
 62
     7
370
    15
100
AcDbLine
 10
2296.514955908941
 20
1070.134885032663
 30
0.0
 11
2296.514955908941
 21
1070.434885032663
 31
0.0
  0
LINE
  5
541
330
52F
100
AcDbEntity
  8
0
  6
Continuous
 62
     7
370
    15
100
AcDbLine
 10
2295.081908443663
 20
1070.134885032663
 30
0.0
 11
2296.514955908941
 21
1070.134885032663
 31
0.0
  0
LINE
  5
542
330
52F
100
AcDbEntity
  8
0
  6
Continuous
 62
     7
370
    15
100
AcDbLine
 10
2295.132862618142
 20
1070.249778257513
 30
0.0
 11
2295.081908443663
 21
1070.134885032663
 31
0.0
  0
LINE
  5
543
330
52F
100
AcDbEntity
  8
0
  6
Continuous
 62
     7
370
    15
100
AcDbLine
 10
2291.514955908941
 20
1070.434885032663
 30
0.0
 11
2291.897049199739
 21
1070.249778257513
 31
0.0
  0
LINE
  5
544
330
52F
100
AcDbEntity
  8
0
  6
Continuous
 62
     7
370
    15
100
AcDbLine
 10
2291.948003374219
 20
1070.134885032663
 30
0.0
 11
2291.897049199739
 21
1070.249778257513
 31
0.0
  0
LINE
  5
545
330
52F
100
AcDbEntity
  8
0
  6
Continuous
 62
     7
370
    15
100
AcDbLine
 10
2290.514955908941
 20
1070.134885032663
 30
0.0
 11
2291.948003374219
 21
1070.134885032663
 31
0.0
  0
LINE
  5
546
330
52F
100
AcDbEntity
  8
0
  6
Continuous
 62
     7
370
    15
100
AcDbLine
 10
2290.514955908941
 20
1070.434885032663
 30
0.0
 11
2290.514955908941
 21
1070.134885032663
 31
0.0
  0
LINE
  5
547
330
52F
100
AcDbEntity
  8
0
  6
Continuous
 62
     7
370
    15
100
AcDbLine
 10
2291.514955908941
 20
1070.434885032663
 30
0.0
 11
2290.514955908941
 21
1070.434885032663
 31
0.0
  0
LINE
  5
548
330
52F
100
AcDbEntity
  8
0
  6
Continuous
 62
     7
370
    15
100
AcDbLine
 10
2290.514955908941
 20
1070.434885032663
 30
0.0
 11
2290.514955908941
 21
1071.134885032663
 31
0.0
  0
LINE
  5
549
330
52F
100
AcDbEntity
  8
0
  6
Continuous
 62
     7
370
    15
100
AcDbLine
 10
2291.514955908941
 20
1071.134885032663
 30
0.0
 11
2290.514955908941
 21
1071.134885032663
 31
0.0
  0
LINE
  5
54A
330
52F
100
AcDbEntity
  8
0
  6
Continuous
 62
     7
370
    15
100
AcDbLine
 10
2291.514955908941
 20
1071.134885032663
 30
0.0
 11
2291.514955908941
 21
1070.434885032663
 31
0.0
  0
LINE
  5
54B
330
52F
100
AcDbEntity
  8
0
  6
Continuous
 62
     7
370
    15
100
AcDbLine
 10
2296.514955908941
 20
1071.134885032663
 30
0.0
 11
2295.514955908941
 21
1071.134885032663
 31
0.0
  0
LINE
  5
54C
330
52F
100
AcDbEntity
  8
0
  6
Continuous
 62
     7
370
    15
100
AcDbLine
 10
2296.514955908941
 20
1070.434885032663
 30
0.0
 11
2296.514955908941
 21
1071.134885032663
 31
0.0
  0
LINE
  5
54D
330
52F
100
AcDbEntity
  8
0
  6
Continuous
 62
     7
370
    15
100
AcDbLine
 10
2291.897049199739
 20
1071.134885032663
 30
0.0
 11
2291.514955908941
 21
1071.134885032663
 31
0.0
  0
LINE
  5
54E
330
52F
100
AcDbEntity
  8
0
  6
Continuous
 62
     7
370
    15
100
AcDbLine
 10
2291.897049199739
 20
1070.249778257513
 30
0.0
 11
2291.897049199739
 21
1071.134885032663
 31
0.0
  0
LINE
  5
54F
330
52F
100
AcDbEntity
  8
0
  6
Continuous
 62
     7
370
    15
100
AcDbLine
 10
2283.747049201646
 20
1070.249778257513
 30
0.0
 11
2283.364955910847
 21
1070.434885032663
 31
0.0
  0
LINE
  5
550
330
52F
100
AcDbEntity
  8
0
  6
Continuous
 62
     7
370
    15
100
AcDbLine
 10
2283.798003376126
 20
1070.134885032663
 30
0.0
 11
2283.747049201646
 21
1070.249778257513
 31
0.0
  0
LINE
  5
551
330
52F
100
AcDbEntity
  8
0
  6
Continuous
 62
     7
370
    15
100
AcDbLine
 10
2283.798003376126
 20
1070.134885032663
 30
0.0
 11
2282.364955910848
 21
1070.134885032663
 31
0.0
  0
LINE
  5
552
330
52F
100
AcDbEntity
  8
0
  6
Continuous
 62
     7
370
    15
100
AcDbLine
 10
2282.364955910848
 20
1070.134885032663
 30
0.0
 11
2282.364955910848
 21
1070.434885032663
 31
0.0
  0
LINE
  5
553
330
52F
100
AcDbEntity
  8
0
  6
Continuous
 62
     7
370
    15
100
AcDbLine
 10
2278.832862620049
 20
1071.134885032663
 30
0.0
 11
2279.214955910848
 21
1071.134885032663
 31
0.0
  0
LINE
  5
554
330
52F
100
AcDbEntity
  8
0
  6
Continuous
 62
     7
370
    15
100
AcDbLine
 10
2279.214955910848
 20
1071.134885032663
 30
0.0
 11
2279.214955910848
 21
1070.434885032663
 31
0.0
  0
LINE
  5
555
330
52F
100
AcDbEntity
  8
0
  6
Continuous
 62
     7
370
    15
100
AcDbLine
 10
2278.832862620049
 20
1070.249778257513
 30
0.0
 11
2279.214955910848
 21
1070.434885032663
 31
0.0
  0
LINE
  5
556
330
52F
100
AcDbEntity
  8
0
  6
Continuous
 62
     7
370
    15
100
AcDbLine
 10
2278.832862620049
 20
1070.249778257513
 30
0.0
 11
2278.832862620049
 21
1071.134885032663
 31
0.0
  0
LINE
  5
557
330
52F
100
AcDbEntity
  8
0
  6
Continuous
 62
     7
370
    15
100
AcDbLine
 10
2274.214955910847
 20
1070.134885032663
 30
0.0
 11
2275.648003376126
 21
1070.134885032663
 31
0.0
  0
LINE
  5
558
330
52F
100
AcDbEntity
  8
0
  6
Continuous
 62
     7
370
    15
100
AcDbLine
 10
2275.214955910847
 20
1070.434885032663
 30
0.0
 11
2274.214955910847
 21
1070.434885032663
 31
0.0
  0
LINE
  5
559
330
52F
100
AcDbEntity
  8
0
  6
Continuous
 62
     7
370
    15
100
AcDbLine
 10
2275.214955910847
 20
1070.434885032663
 30
0.0
 11
2275.597049201646
 21
1070.249778257513
 31
0.0
  0
LINE
  5
55A
330
52F
100
AcDbEntity
  8
0
  6
Continuous
 62
     7
370
    15
100
AcDbLine
 10
2275.648003376126
 20
1070.134885032663
 30
0.0
 11
2275.597049201646
 21
1070.249778257513
 31
0.0
  0
LINE
  5
55B
330
52F
100
AcDbEntity
  8
0
  6
Continuous
 62
     7
370
    15
100
AcDbLine
 10
2274.214955910847
 20
1070.434885032663
 30
0.0
 11
2274.214955910847
 21
1070.134885032663
 31
0.0
  0
LINE
  5
55C
330
52F
100
AcDbEntity
  8
0
  6
Continuous
 62
     7
370
    15
100
AcDbLine
 10
2283.364955910847
 20
1071.134885032663
 30
0.0
 11
2283.747049201646
 21
1071.134885032663
 31
0.0
  0
LINE
  5
55D
330
52F
100
AcDbEntity
  8
0
  6
Continuous
 62
     7
370
    15
100
AcDbLine
 10
2283.747049201646
 20
1071.134885032663
 30
0.0
 11
2283.747049201646
 21
1070.249778257513
 31
0.0
  0
LINE
  5
55E
330
52F
100
AcDbEntity
  8
0
  6
Continuous
 62
     7
370
    15
100
AcDbLine
 10
2278.781908445569
 20
1070.134885032663
 30
0.0
 11
2280.214955910848
 21
1070.134885032663
 31
0.0
  0
LINE
  5
55F
330
52F
100
AcDbEntity
  8
0
  6
Continuous
 62
     7
370
    15
100
AcDbLine
 10
2278.832862620049
 20
1070.249778257513
 30
0.0
 11
2278.781908445569
 21
1070.134885032663
 31
0.0
  0
LINE
  5
560
330
52F
100
AcDbEntity
  8
0
  6
Continuous
 62
     7
370
    15
100
AcDbLine
 10
2280.214955910848
 20
1070.434885032663
 30
0.0
 11
2279.214955910848
 21
1070.434885032663
 31
0.0
  0
LINE
  5
561
330
52F
100
AcDbEntity
  8
0
  6
Continuous
 62
     7
370
    15
100
AcDbLine
 10
2280.214955910848
 20
1070.134885032663
 30
0.0
 11
2280.214955910848
 21
1070.434885032663
 31
0.0
  0
LINE
  5
562
330
52F
100
AcDbEntity
  8
0
  6
Continuous
 62
     7
370
    15
100
AcDbLine
 10
2275.214955910847
 20
1070.434885032663
 30
0.0
 11
2275.214955910847
 21
1071.134885032663
 31
0.0
  0
LINE
  5
563
330
52F
100
AcDbEntity
  8
0
  6
Continuous
 62
     7
370
    15
100
AcDbLine
 10
2274.214955910847
 20
1071.134885032663
 30
0.0
 11
2275.214955910847
 21
1071.134885032663
 31
0.0
  0
LINE
  5
564
330
52F
100
AcDbEntity
  8
0
  6
Continuous
 62
     7
370
    15
100
AcDbLine
 10
2274.214955910847
 20
1070.434885032663
 30
0.0
 11
2274.214955910847
 21
1071.134885032663
 31
0.0
  0
LINE
  5
565
330
52F
100
AcDbEntity
  8
0
  6
Continuous
 62
     7
370
    15
100
AcDbLine
 10
2275.597049201646
 20
1071.134885032663
 30
0.0
 11
2275.597049201646
 21
1070.249778257513
 31
0.0
  0
LINE
  5
566
330
52F
100
AcDbEntity
  8
0
  6
Continuous
 62
     7
370
    15
100
AcDbLine
 10
2275.214955910847
 20
1071.134885032663
 30
0.0
 11
2275.597049201646
 21
1071.134885032663
 31
0.0
  0
LINE
  5
567
330
52F
100
AcDbEntity
  8
0
  6
Continuous
 62
     7
370
    15
100
AcDbLine
 10
2286.982862618143
 20
1071.134885032663
 30
0.0
 11
2286.982862618143
 21
1070.249778257513
 31
0.0
  0
LINE
  5
568
330
52F
100
AcDbEntity
  8
0
  6
Continuous
 62
     7
370
    15
100
AcDbLine
 10
2287.364955908941
 20
1070.434885032663
 30
0.0
 11
2287.364955908941
 21
1071.134885032663
 31
0.0
  0
LINE
  5
569
330
52F
100
AcDbEntity
  8
0
  6
Continuous
 62
     7
370
    15
100
AcDbLine
 10
2287.364955908941
 20
1071.134885032663
 30
0.0
 11
2286.982862618143
 21
1071.134885032663
 31
0.0
  0
LINE
  5
56A
330
52F
100
AcDbEntity
  8
0
  6
Continuous
 62
     7
370
    15
100
AcDbLine
 10
2280.214955910848
 20
1070.434885032663
 30
0.0
 11
2280.214955910848
 21
1071.134885032663
 31
0.0
  0
LINE
  5
56B
330
52F
100
AcDbEntity
  8
0
  6
Continuous
 62
     7
370
    15
100
AcDbLine
 10
2279.214955910848
 20
1071.134885032663
 30
0.0
 11
2280.214955910848
 21
1071.134885032663
 31
0.0
  0
LINE
  5
56C
330
52F
100
AcDbEntity
  8
0
  6
Continuous
 62
     7
370
    15
100
AcDbLine
 10
2288.364955908941
 20
1071.134885032663
 30
0.0
 11
2287.364955908941
 21
1071.134885032663
 31
0.0
  0
LINE
  5
56D
330
52F
100
AcDbEntity
  8
0
  6
Continuous
 62
     7
370
    15
100
AcDbLine
 10
2288.364955908941
 20
1071.134885032663
 30
0.0
 11
2288.364955908941
 21
1070.434885032663
 31
0.0
  0
LINE
  5
56E
330
52F
100
AcDbEntity
  8
0
  6
Continuous
 62
     7
370
    15
100
AcDbLine
 10
2292.01952135515
 20
1070.134885032663
 30
0.0
 11
2292.01952135515
 21
1071.134885032663
 31
0.0
  0
LINE
  5
56F
330
52F
100
AcDbEntity
  8
0
  6
Continuous
 62
     7
370
    15
100
AcDbLine
 10
2292.01952135515
 20
1070.134885032663
 30
0.0
 11
2291.948003374219
 21
1070.134885032663
 31
0.0
  0
LINE
  5
570
330
52F
100
AcDbEntity
  8
0
  6
Continuous
 62
     7
370
    15
100
AcDbLine
 10
2292.01952135515
 20
1071.134885032663
 30
0.0
 11
2291.897049199739
 21
1071.134885032663
 31
0.0
  0
LINE
  5
571
330
52F
100
AcDbEntity
  8
0
  6
Continuous
 62
     7
370
    15
100
AcDbLine
 10
2275.719521357057
 20
1070.134885032663
 30
0.0
 11
2275.719521357057
 21
1071.134885032663
 31
0.0
  0
LINE
  5
572
330
52F
100
AcDbEntity
  8
0
  6
Continuous
 62
     7
370
    15
100
AcDbLine
 10
2275.648003376126
 20
1070.134885032663
 30
0.0
 11
2275.719521357057
 21
1070.134885032663
 31
0.0
  0
LINE
  5
573
330
52F
100
AcDbEntity
  8
0
  6
Continuous
 62
     7
370
    15
100
AcDbLine
 10
2275.597049201646
 20
1071.134885032663
 30
0.0
 11
2275.719521357057
 21
1071.134885032663
 31
0.0
  0
LINE
  5
574
330
52F
100
AcDbEntity
  8
0
  6
Continuous
 62
     7
370
    15
100
AcDbLine
 10
2295.081908443663
 20
1070.134885032663
 30
0.0
 11
2295.010390462732
 21
1070.134885032663
 31
0.0
  0
LINE
  5
575
330
52F
100
AcDbEntity
  8
0
  6
Continuous
 62
     7
370
    15
100
AcDbLine
 10
2295.010390462732
 20
1070.134885032663
 30
0.0
 11
2295.010390462732
 21
1071.134885032663
 31
0.0
  0
LINE
  5
576
330
52F
100
AcDbEntity
  8
0
  6
Continuous
 62
     7
370
    15
100
AcDbLine
 10
2295.132862618142
 20
1071.134885032663
 30
0.0
 11
2295.010390462732
 21
1071.134885032663
 31
0.0
  0
LINE
  5
577
330
52F
100
AcDbEntity
  8
0
  6
Continuous
 62
     7
370
    15
100
AcDbLine
 10
2283.869521357057
 20
1070.134885032663
 30
0.0
 11
2283.869521357057
 21
1071.134885032663
 31
0.0
  0
LINE
  5
578
330
52F
100
AcDbEntity
  8
0
  6
Continuous
 62
     7
370
    15
100
AcDbLine
 10
2283.798003376126
 20
1070.134885032663
 30
0.0
 11
2283.869521357057
 21
1070.134885032663
 31
0.0
  0
LINE
  5
579
330
52F
100
AcDbEntity
  8
0
  6
Continuous
 62
     7
370
    15
100
AcDbLine
 10
2283.747049201646
 20
1071.134885032663
 30
0.0
 11
2283.869521357057
 21
1071.134885032663
 31
0.0
  0
LINE
  5
57A
330
52F
100
AcDbEntity
  8
0
  6
Continuous
 62
     7
370
    15
100
AcDbLine
 10
2278.710390464638
 20
1070.134885032663
 30
0.0
 11
2278.781908445569
 21
1070.134885032663
 31
0.0
  0
LINE
  5
57B
330
52F
100
AcDbEntity
  8
0
  6
Continuous
 62
     7
370
    15
100
AcDbLine
 10
2278.710390464638
 20
1070.134885032663
 30
0.0
 11
2278.710390464638
 21
1071.134885032663
 31
0.0
  0
LINE
  5
57C
330
52F
100
AcDbEntity
  8
0
  6
Continuous
 62
     7
370
    15
100
AcDbLine
 10
2278.710390464638
 20
1071.134885032663
 30
0.0
 11
2278.832862620049
 21
1071.134885032663
 31
0.0
  0
LINE
  5
57D
330
52F
100
AcDbEntity
  8
0
  6
Continuous
 62
     7
370
    15
100
AcDbLine
 10
2286.931908443662
 20
1070.134885032663
 30
0.0
 11
2286.860390462732
 21
1070.134885032663
 31
0.0
  0
LINE
  5
57E
330
52F
100
AcDbEntity
  8
0
  6
Continuous
 62
     7
370
    15
100
AcDbLine
 10
2286.860390462732
 20
1070.134885032663
 30
0.0
 11
2286.860390462732
 21
1071.134885032663
 31
0.0
  0
LINE
  5
57F
330
52F
100
AcDbEntity
  8
0
  6
Continuous
 62
     7
370
    15
100
AcDbLine
 10
2286.982862618143
 20
1071.134885032663
 30
0.0
 11
2286.860390462732
 21
1071.134885032663
 31
0.0
  0
LINE
  5
580
330
52F
100
AcDbEntity
  8
0
  6
Continuous
 62
     7
370
    15
100
AcDbLine
 10
2286.860390462732
 20
1070.134885032663
 30
0.0
 11
2283.869521357057
 21
1070.134885032663
 31
0.0
  0
LINE
  5
581
330
52F
100
AcDbEntity
  8
0
  6
Continuous
 62
     7
370
    15
100
AcDbLine
 10
2286.860390462732
 20
1071.134885032663
 30
0.0
 11
2283.869521357057
 21
1071.134885032663
 31
0.0
  0
LINE
  5
582
330
52F
100
AcDbEntity
  8
0
  6
Continuous
 62
     7
370
    15
100
AcDbLine
 10
2275.719521357057
 20
1070.134885032663
 30
0.0
 11
2278.710390464638
 21
1070.134885032663
 31
0.0
  0
LINE
  5
583
330
52F
100
AcDbEntity
  8
0
  6
Continuous
 62
     7
370
    15
100
AcDbLine
 10
2275.719521357057
 20
1071.134885032663
 30
0.0
 11
2278.710390464638
 21
1071.134885032663
 31
0.0
  0
LINE
  5
584
330
52F
100
AcDbEntity
  8
0
  6
Continuous
 62
     7
370
    15
100
AcDbLine
 10
2295.010390462732
 20
1070.134885032663
 30
0.0
 11
2292.01952135515
 21
1070.134885032663
 31
0.0
  0
LINE
  5
585
330
52F
100
AcDbEntity
  8
0
  6
Continuous
 62
     7
370
    15
100
AcDbLine
 10
2295.010390462732
 20
1071.134885032663
 30
0.0
 11
2292.01952135515
 21
1071.134885032663
 31
0.0
  0
LINE
  5
586
330
52F
100
AcDbEntity
  8
0
  6
Continuous
 62
     7
370
    15
100
AcDbLine
 10
2280.689955910847
 20
1085.509882209849
 30
0.0
 11
2280.689955910847
 21
1078.509882209849
 31
0.0
  0
LINE
  5
587
330
52F
100
AcDbEntity
  8
0
  6
Continuous
 62
     7
370
    15
100
AcDbLine
 10
2281.889955910848
 20
1085.509882209849
 30
0.0
 11
2280.689955910847
 21
1085.509882209849
 31
0.0
  0
LINE
  5
588
330
52F
100
AcDbEntity
  8
0
  6
Continuous
 62
     7
370
    15
100
AcDbLine
 10
2281.889955910848
 20
1085.509882209849
 30
0.0
 11
2281.889955910848
 21
1078.509882209849
 31
0.0
  0
LINE
  5
589
330
52F
100
AcDbEntity
  8
0
  6
Continuous
 62
     7
370
    15
100
AcDbLine
 10
2280.689955910847
 20
1078.509882209849
 30
0.0
 11
2281.889955910848
 21
1078.509882209849
 31
0.0
  0
LINE
  5
58A
330
52F
100
AcDbEntity
  8
0
  6
Continuous
 62
     7
370
    15
100
AcDbLine
 10
2288.839955908941
 20
1085.509882209849
 30
0.0
 11
2290.039955908941
 21
1085.509882209849
 31
0.0
  0
LINE
  5
58B
330
52F
100
AcDbEntity
  8
0
  6
Continuous
 62
     7
370
    15
100
AcDbLine
 10
2290.039955908941
 20
1078.509882209849
 30
0.0
 11
2288.839955908941
 21
1078.509882209849
 31
0.0
  0
LINE
  5
58C
330
52F
100
AcDbEntity
  8
0
  6
Continuous
 62
     7
370
    15
100
AcDbLine
 10
2290.039955908941
 20
1085.509882209849
 30
0.0
 11
2290.039955908941
 21
1078.509882209849
 31
0.0
  0
LINE
  5
58D
330
52F
100
AcDbEntity
  8
0
  6
Continuous
 62
     7
370
    15
100
AcDbLine
 10
2288.839955908941
 20
1085.509882209849
 30
0.0
 11
2288.839955908941
 21
1078.509882209849
 31
0.0
  0
LINE
  5
58E
330
52F
100
AcDbEntity
  8
0
  6
Continuous
 62
     7
370
    15
100
AcDbLine
 10
2278.314955910847
 20
1073.434885032663
 30
0.0
 11
2278.314955910847
 21
1075.434885032663
 31
0.0
  0
LINE
  5
58F
330
52F
100
AcDbEntity
  8
0
  6
Continuous
 62
     7
370
    15
100
AcDbLine
 10
2278.314955910847
 20
1075.434885032663
 30
0.0
 11
2276.114955910848
 21
1075.434885032663
 31
0.0
  0
LINE
  5
590
330
52F
100
AcDbEntity
  8
0
  6
Continuous
 62
     7
370
    15
100
AcDbLine
 10
2276.114955910848
 20
1075.434885032663
 30
0.0
 11
2276.114955910847
 21
1073.434885032663
 31
0.0
  0
LINE
  5
591
330
52F
100
AcDbEntity
  8
0
  6
Continuous
 62
     7
370
    15
100
AcDbLine
 10
2276.114955910847
 20
1073.434885032663
 30
0.0
 11
2278.314955910847
 21
1073.434885032663
 31
0.0
  0
LINE
  5
592
330
52F
100
AcDbEntity
  8
0
  6
Continuous
 62
     7
370
    15
100
AcDbLine
 10
2294.614955908941
 20
1073.434885032663
 30
0.0
 11
2294.614955908941
 21
1075.434885032663
 31
0.0
  0
LINE
  5
593
330
52F
100
AcDbEntity
  8
0
  6
Continuous
 62
     7
370
    15
100
AcDbLine
 10
2294.614955908941
 20
1075.434885032663
 30
0.0
 11
2292.414955908941
 21
1075.434885032663
 31
0.0
  0
LINE
  5
594
330
52F
100
AcDbEntity
  8
0
  6
Continuous
 62
     7
370
    15
100
AcDbLine
 10
2292.414955908941
 20
1075.434885032663
 30
0.0
 11
2292.414955908941
 21
1073.434885032663
 31
0.0
  0
LINE
  5
595
330
52F
100
AcDbEntity
  8
0
  6
Continuous
 62
     7
370
    15
100
AcDbLine
 10
2292.414955908941
 20
1073.434885032663
 30
0.0
 11
2294.614955908941
 21
1073.434885032663
 31
0.0
  0
LINE
  5
596
330
52F
100
AcDbEntity
  8
0
  6
Continuous
 62
     7
370
    15
100
AcDbLine
 10
2284.264955910847
 20
1073.434885032663
 30
0.0
 11
2286.464955908941
 21
1073.434885032663
 31
0.0
  0
LINE
  5
597
330
52F
100
AcDbEntity
  8
0
  6
Continuous
 62
     7
370
    15
100
AcDbLine
 10
2286.464955908941
 20
1073.434885032663
 30
0.0
 11
2286.464955908941
 21
1075.434885032663
 31
0.0
  0
LINE
  5
598
330
52F
100
AcDbEntity
  8
0
  6
Continuous
 62
     7
370
    15
100
AcDbLine
 10
2286.464955908941
 20
1075.434885032663
 30
0.0
 11
2284.264955910848
 21
1075.434885032663
 31
0.0
  0
LINE
  5
599
330
52F
100
AcDbEntity
  8
0
  6
Continuous
 62
     7
370
    15
100
AcDbLine
 10
2284.264955910848
 20
1075.434885032663
 30
0.0
 11
2284.264955910847
 21
1073.434885032663
 31
0.0
  0
LINE
  5
59A
330
52F
100
AcDbEntity
  8
0
  6
Continuous
 62
     7
370
    15
100
AcDbLine
 10
2297.064955908941
 20
1075.009882209843
 30
0.0
 11
2297.064955908941
 21
1076.159882209843
 31
0.0
  0
LINE
  5
59B
330
52F
100
AcDbEntity
  8
0
  6
Continuous
 62
     7
370
    15
100
AcDbLine
 10
2296.814955908941
 20
1075.009882209843
 30
0.0
 11
2297.064955908941
 21
1075.009882209843
 31
0.0
  0
LINE
  5
59C
330
52F
100
AcDbEntity
  8
0
  6
Continuous
 62
     7
370
    15
100
AcDbLine
 10
2296.814955908941
 20
1071.434885032663
 30
0.0
 11
2296.814955908941
 21
1075.009882209843
 31
0.0
  0
LINE
  5
59D
330
52F
100
AcDbEntity
  8
0
  6
Continuous
 62
     7
370
    15
100
AcDbLine
 10
2296.814955908941
 20
1071.434885032663
 30
0.0
 11
2290.714955908941
 21
1071.434885032663
 31
0.0
  0
LINE
  5
59E
330
52F
100
AcDbEntity
  8
0
  6
Continuous
 62
     7
370
    15
100
AcDbLine
 10
2290.714955908941
 20
1071.434885032663
 30
0.0
 11
2290.214955908941
 21
1072.300910436447
 31
0.0
  0
LINE
  5
59F
330
52F
100
AcDbEntity
  8
0
  6
Continuous
 62
     7
370
    15
100
AcDbLine
 10
2288.664955908941
 20
1076.159882209843
 30
0.0
 11
2288.664955908941
 21
1078.509882209849
 31
0.0
  0
LINE
  5
5A0
330
52F
100
AcDbEntity
  8
0
  6
Continuous
 62
     7
370
    15
100
AcDbLine
 10
2288.914955910847
 20
1076.159882209843
 30
0.0
 11
2288.664955908941
 21
1076.159882209843
 31
0.0
  0
LINE
  5
5A1
330
52F
100
AcDbEntity
  8
0
  6
Continuous
 62
     7
370
    15
100
AcDbLine
 10
2288.914955910847
 20
1075.009882209843
 30
0.0
 11
2288.914955910847
 21
1076.159882209843
 31
0.0
  0
LINE
  5
5A2
330
52F
100
AcDbEntity
  8
0
  6
Continuous
 62
     7
370
    15
100
AcDbLine
 10
2288.664955908941
 20
1075.009882209843
 30
0.0
 11
2288.914955910847
 21
1075.009882209843
 31
0.0
  0
LINE
  5
5A3
330
52F
100
AcDbEntity
  8
0
  6
Continuous
 62
     7
370
    15
100
AcDbLine
 10
2288.664955908941
 20
1072.300910436447
 30
0.0
 11
2288.664955908941
 21
1075.009882209843
 31
0.0
  0
LINE
  5
5A4
330
52F
100
AcDbEntity
  8
0
  6
Continuous
 62
     7
370
    15
100
AcDbLine
 10
2282.064955910847
 20
1072.300910436447
 30
0.0
 11
2282.064955910847
 21
1075.009882209843
 31
0.0
  0
LINE
  5
5A5
330
52F
100
AcDbEntity
  8
0
  6
Continuous
 62
     7
370
    15
100
AcDbLine
 10
2281.814955908941
 20
1075.009882209843
 30
0.0
 11
2282.064955910847
 21
1075.009882209843
 31
0.0
  0
LINE
  5
5A6
330
52F
100
AcDbEntity
  8
0
  6
Continuous
 62
     7
370
    15
100
AcDbLine
 10
2281.814955908941
 20
1076.159882209843
 30
0.0
 11
2281.814955908941
 21
1075.009882209843
 31
0.0
  0
LINE
  5
5A7
330
52F
100
AcDbEntity
  8
0
  6
Continuous
 62
     7
370
    15
100
AcDbLine
 10
2282.064955910847
 20
1076.159882209843
 30
0.0
 11
2281.814955908941
 21
1076.159882209843
 31
0.0
  0
LINE
  5
5A8
330
52F
100
AcDbEntity
  8
0
  6
Continuous
 62
     7
370
    15
100
AcDbLine
 10
2282.064955910847
 20
1076.159882209843
 30
0.0
 11
2282.064955910847
 21
1078.509882209849
 31
0.0
  0
LINE
  5
5A9
330
52F
100
AcDbEntity
  8
0
  6
Continuous
 62
     7
370
    15
100
AcDbLine
 10
2273.914955910847
 20
1075.009882209843
 30
0.0
 11
2273.914955910847
 21
1071.434885032663
 31
0.0
  0
LINE
  5
5AA
330
52F
100
AcDbEntity
  8
0
  6
Continuous
 62
     7
370
    15
100
AcDbLine
 10
2273.664955910847
 20
1075.009882209843
 30
0.0
 11
2273.914955910847
 21
1075.009882209843
 31
0.0
  0
LINE
  5
5AB
330
52F
100
AcDbEntity
  8
0
  6
Continuous
 62
     7
370
    15
100
AcDbLine
 10
2273.664955910848
 20
1076.159882209843
 30
0.0
 11
2273.664955910847
 21
1075.009882209843
 31
0.0
  0
LINE
  5
5AC
330
52F
100
AcDbEntity
  8
0
  6
Continuous
 62
     7
370
    15
100
AcDbLine
 10
2273.914955910847
 20
1076.159882209843
 30
0.0
 11
2273.664955910848
 21
1076.159882209843
 31
0.0
  0
LINE
  5
5AD
330
52F
100
AcDbEntity
  8
0
  6
Continuous
 62
     7
370
    15
100
AcDbLine
 10
2273.914955910847
 20
1076.159882209843
 30
0.0
 11
2273.914955910847
 21
1082.109882209849
 31
0.0
  0
ARC
  5
5AE
330
52F
100
AcDbEntity
  8
0
  6
Continuous
 62
     7
370
    15
100
AcDbCircle
 10
2277.914955910847
 20
1082.109882209849
 30
0.0
 40
4.0
100
AcDbArc
 50
90.0
 51
180.0
  0
LINE
  5
5AF
330
52F
100
AcDbEntity
  8
0
  6
Continuous
 62
     7
370
    15
100
AcDbLine
 10
2292.814955908941
 20
1086.109882209849
 30
0.0
 11
2277.914955910847
 21
1086.109882209849
 31
0.0
  0
ARC
  5
5B0
330
52F
100
AcDbEntity
  8
0
  6
Continuous
 62
     7
370
    15
100
AcDbCircle
 10
2292.814955908941
 20
1082.109882209849
 30
0.0
 40
4.000000000000085
100
AcDbArc
 50
0.0
 51
90.0
  0
LINE
  5
5B1
330
52F
100
AcDbEntity
  8
0
  6
Continuous
 62
     7
370
    15
100
AcDbLine
 10
2296.814955908941
 20
1082.109882209849
 30
0.0
 11
2296.814955908941
 21
1076.159882209843
 31
0.0
  0
LINE
  5
5B2
330
52F
100
AcDbEntity
  8
0
  6
Continuous
 62
     7
370
    15
100
AcDbLine
 10
2297.064955908941
 20
1076.159882209843
 30
0.0
 11
2296.814955908941
 21
1076.159882209843
 31
0.0
  0
LINE
  5
5B3
330
52F
100
AcDbEntity
  8
0
  6
Continuous
 62
     7
370
    15
100
AcDbLine
 10
2280.514955910848
 20
1078.509882209849
 30
0.0
 11
2280.514955910848
 21
1072.300910436447
 31
0.0
  0
LINE
  5
5B4
330
52F
100
AcDbEntity
  8
0
  6
Continuous
 62
     7
370
    15
100
AcDbLine
 10
2290.214955908941
 20
1078.509882209849
 30
0.0
 11
2290.214955908941
 21
1072.300910436447
 31
0.0
  0
LINE
  5
5B5
330
52F
100
AcDbEntity
  8
0
  6
Continuous
 62
     7
370
    15
100
AcDbLine
 10
2280.014955910848
 20
1071.434885032663
 30
0.0
 11
2280.514955910848
 21
1072.300910436447
 31
0.0
  0
LINE
  5
5B6
330
52F
100
AcDbEntity
  8
0
  6
Continuous
 62
     7
370
    15
100
AcDbLine
 10
2273.914955910847
 20
1071.434885032663
 30
0.0
 11
2280.014955910848
 21
1071.434885032663
 31
0.0
  0
LINE
  5
5B7
330
52F
100
AcDbEntity
  8
0
  6
Continuous
 62
     7
370
    15
100
AcDbLine
 10
2288.164955908941
 20
1071.434885032663
 30
0.0
 11
2282.564955910848
 21
1071.434885032663
 31
0.0
  0
LINE
  5
5B8
330
52F
100
AcDbEntity
  8
0
  6
Continuous
 62
     7
370
    15
100
AcDbLine
 10
2282.064955910847
 20
1072.300910436447
 30
0.0
 11
2282.564955910848
 21
1071.434885032663
 31
0.0
  0
LINE
  5
5B9
330
52F
100
AcDbEntity
  8
0
  6
Continuous
 62
     7
370
    15
100
AcDbLine
 10
2288.664955908941
 20
1072.300910436447
 30
0.0
 11
2288.164955908941
 21
1071.434885032663
 31
0.0
  0
LINE
  5
5BA
330
52F
100
AcDbEntity
  8
0
  6
Continuous
 62
     7
370
    15
100
AcDbLine
 10
2288.664955908941
 20
1078.509882209849
 30
0.0
 11
2288.839955908941
 21
1078.509882209849
 31
0.0
  0
LINE
  5
5BB
330
52F
100
AcDbEntity
  8
0
  6
Continuous
 62
     7
370
    15
100
AcDbLine
 10
2290.039955908941
 20
1078.509882209849
 30
0.0
 11
2290.214955908941
 21
1078.509882209849
 31
0.0
  0
LINE
  5
5BC
330
52F
100
AcDbEntity
  8
0
  6
Continuous
 62
     7
370
    15
100
AcDbLine
 10
2282.064955910847
 20
1078.509882209849
 30
0.0
 11
2281.889955910848
 21
1078.509882209849
 31
0.0
  0
LINE
  5
5BD
330
52F
100
AcDbEntity
  8
0
  6
Continuous
 62
     7
370
    15
100
AcDbLine
 10
2280.689955910847
 20
1078.509882209849
 30
0.0
 11
2280.514955910848
 21
1078.509882209849
 31
0.0
  0
LINE
  5
5BE
330
52F
100
AcDbEntity
  8
0
  6
Continuous
 62
     7
370
    15
100
AcDbLine
 10
2286.364955910848
 20
1073.434885032663
 30
0.0
 11
2286.364955910848
 21
1075.434885032663
 31
0.0
  0
LINE
  5
5BF
330
52F
100
AcDbEntity
  8
0
  6
Continuous
 62
     7
370
    15
100
AcDbLine
 10
2284.364955912755
 20
1073.434885032663
 30
0.0
 11
2284.364955912755
 21
1075.434885032663
 31
0.0
  0
LINE
  5
5C0
330
52F
100
AcDbEntity
  8
0
  6
Continuous
 62
     7
370
    15
100
AcDbLine
 10
2276.214955912754
 20
1073.434885032663
 30
0.0
 11
2276.214955912754
 21
1075.434885032663
 31
0.0
  0
LINE
  5
5C1
330
52F
100
AcDbEntity
  8
0
  6
Continuous
 62
     7
370
    15
100
AcDbLine
 10
2278.214955912754
 20
1073.434885032663
 30
0.0
 11
2278.214955912754
 21
1075.434885032663
 31
0.0
  0
LINE
  5
5C2
330
52F
100
AcDbEntity
  8
0
  6
Continuous
 62
     7
370
    15
100
AcDbLine
 10
2294.514955910848
 20
1073.434885032663
 30
0.0
 11
2294.514955910848
 21
1075.434885032663
 31
0.0
  0
LINE
  5
5C3
330
52F
100
AcDbEntity
  8
0
  6
Continuous
 62
     7
370
    15
100
AcDbLine
 10
2292.514955910847
 20
1073.434885032663
 30
0.0
 11
2292.514955910847
 21
1075.434885032673
 31
0.0
  0
LINE
  5
5C4
330
52F
100
AcDbEntity
  8
0
  6
Continuous
 62
     7
370
    15
100
AcDbLine
 10
2279.41495591276
 20
1071.334885032663
 30
0.0
 11
2275.01495591276
 21
1071.334885032663
 31
0.0
  0
LINE
  5
5C5
330
52F
100
AcDbEntity
  8
0
  6
Continuous
 62
     7
370
    15
100
AcDbLine
 10
2275.01495591276
 20
1071.334885032663
 30
0.0
 11
2275.01495591276
 21
1071.134885032663
 31
0.0
  0
LINE
  5
5C6
330
52F
100
AcDbEntity
  8
0
  6
Continuous
 62
     7
370
    15
100
AcDbLine
 10
2279.41495591276
 20
1071.134885032663
 30
0.0
 11
2279.41495591276
 21
1071.334885032663
 31
0.0
  0
LINE
  5
5C7
330
52F
100
AcDbEntity
  8
0
  6
Continuous
 62
     7
370
    15
100
AcDbLine
 10
2291.314955907028
 20
1071.334885032663
 30
0.0
 11
2295.714955907028
 21
1071.334885032663
 31
0.0
  0
LINE
  5
5C8
330
52F
100
AcDbEntity
  8
0
  6
Continuous
 62
     7
370
    15
100
AcDbLine
 10
2295.714955907028
 20
1071.334885032663
 30
0.0
 11
2295.714955907028
 21
1071.134885032663
 31
0.0
  0
LINE
  5
5C9
330
52F
100
AcDbEntity
  8
0
  6
Continuous
 62
     7
370
    15
100
AcDbLine
 10
2291.314955907028
 20
1071.134885032663
 30
0.0
 11
2291.314955907028
 21
1071.334885032663
 31
0.0
  0
LINE
  5
5CA
330
52F
100
AcDbEntity
  8
0
  6
Continuous
 62
     7
370
    15
100
AcDbLine
 10
2283.16495591276
 20
1071.334885032663
 30
0.0
 11
2287.564955907029
 21
1071.334885032663
 31
0.0
  0
LINE
  5
5CB
330
52F
100
AcDbEntity
  8
0
  6
Continuous
 62
     7
370
    15
100
AcDbLine
 10
2287.564955907029
 20
1071.334885032663
 30
0.0
 11
2287.564955907029
 21
1071.134885032663
 31
0.0
  0
LINE
  5
5CC
330
52F
100
AcDbEntity
  8
0
  6
Continuous
 62
     7
370
    15
100
AcDbLine
 10
2283.16495591276
 20
1071.334885032663
 30
0.0
 11
2283.16495591276
 21
1071.134885032663
 31
0.0
  0
LINE
  5
5CD
330
52F
100
AcDbEntity
  8
0
  6
Continuous
 62
     7
370
    15
100
AcDbLine
 10
2283.16495591276
 20
1071.334885032663
 30
0.0
 11
2283.16495591276
 21
1071.434885032663
 31
0.0
  0
LINE
  5
5CE
330
52F
100
AcDbEntity
  8
0
  6
Continuous
 62
     7
370
    15
100
AcDbLine
 10
2287.564955907029
 20
1071.334885032663
 30
0.0
 11
2287.564955907029
 21
1071.434885032663
 31
0.0
  0
LINE
  5
5CF
330
52F
100
AcDbEntity
  8
0
  6
Continuous
 62
     7
370
    15
100
AcDbLine
 10
2279.41495591276
 20
1071.334885032663
 30
0.0
 11
2279.41495591276
 21
1071.434885032663
 31
0.0
  0
LINE
  5
5D0
330
52F
100
AcDbEntity
  8
0
  6
Continuous
 62
     7
370
    15
100
AcDbLine
 10
2275.01495591276
 20
1071.434885032663
 30
0.0
 11
2275.01495591276
 21
1071.334885032663
 31
0.0
  0
LINE
  5
5D1
330
52F
100
AcDbEntity
  8
0
  6
Continuous
 62
     7
370
    15
100
AcDbLine
 10
2291.314955907028
 20
1071.334885032663
 30
0.0
 11
2291.314955907028
 21
1071.434885032663
 31
0.0
  0
LINE
  5
5D2
330
52F
100
AcDbEntity
  8
0
  6
Continuous
 62
     7
370
    15
100
AcDbLine
 10
2295.714955907028
 20
1071.434885032663
 30
0.0
 11
2295.714955907028
 21
1071.334885032663
 31
0.0
  0
ENDBLK
  5
531
330
52F
100
AcDbEntity
  8
0
100
AcDbBlockEnd
  0
BLOCK
  5
5D5
330
5D4
100
AcDbEntity
  8
0
100
AcDbBlockBegin
  2
2
 70
     0
 10
0.0
 20
0.0
 30
0.0
  3
2
  1

  0
LINE
  5
5D7
330
5D4
100
AcDbEntity
  8
0
  6
Continuous
 62
     7
370
    15
100
AcDbLine
 10
2260.356935718257
 20
1076.159882209843
 30
0.0
 11
2262.956935718257
 21
1076.159882209843
 31
0.0
  0
LINE
  5
5D8
330
5D4
100
AcDbEntity
  8
0
  6
Continuous
 62
     7
370
    15
100
AcDbLine
 10
2262.956935718257
 20
1076.159882209843
 30
0.0
 11
2262.956935718257
 21
1075.009882209843
 31
0.0
  0
LINE
  5
5D9
330
5D4
100
AcDbEntity
  8
0
  6
Continuous
 62
     7
370
    15
100
AcDbLine
 10
2260.356935718257
 20
1075.009882209843
 30
0.0
 11
2262.956935718257
 21
1075.009882209843
 31
0.0
  0
LINE
  5
5DA
330
5D4
100
AcDbEntity
  8
0
  6
Continuous
 62
     7
370
    15
100
AcDbLine
 10
2260.356935718257
 20
1075.009882209843
 30
0.0
 11
2260.356935718257
 21
1076.159882209843
 31
0.0
  0
LINE
  5
5DB
330
5D4
100
AcDbEntity
  8
0
  6
Continuous
 62
     7
370
    15
100
AcDbLine
 10
2262.956935718257
 20
1071.434885032663
 30
0.0
 11
2260.356935718257
 21
1071.434885032663
 31
0.0
  0
LINE
  5
5DC
330
5D4
100
AcDbEntity
  8
0
  6
Continuous
 62
     7
370
    15
100
AcDbLine
 10
2260.356935718257
 20
1071.434885032663
 30
0.0
 11
2260.356935718257
 21
1075.009882209843
 31
0.0
  0
LINE
  5
5DD
330
5D4
100
AcDbEntity
  8
0
  6
Continuous
 62
     7
370
    15
100
AcDbLine
 10
2262.956935718257
 20
1071.434885032663
 30
0.0
 11
2262.956935718257
 21
1075.009882209843
 31
0.0
  0
LINE
  5
5DE
330
5D4
100
AcDbEntity
  8
0
  6
Continuous
 62
     7
370
    15
100
AcDbLine
 10
2260.356935718257
 20
1082.109882209849
 30
0.0
 11
2262.956935718257
 21
1082.109882209849
 31
0.0
  0
LINE
  5
5DF
330
5D4
100
AcDbEntity
  8
0
  6
Continuous
 62
     7
370
    15
100
AcDbLine
 10
2260.356935718257
 20
1082.109882209849
 30
0.0
 11
2260.356935718257
 21
1076.159882209843
 31
0.0
  0
LINE
  5
5E0
330
5D4
100
AcDbEntity
  8
0
  6
Continuous
 62
     7
370
    15
100
AcDbLine
 10
2262.956935718257
 20
1082.109882209849
 30
0.0
 11
2262.956935718257
 21
1076.159882209843
 31
0.0
  0
LINE
  5
5E1
330
5D4
100
AcDbEntity
  8
0
  6
Continuous
 62
     7
370
    15
100
AcDbLine
 10
2262.956935718257
 20
1086.109882209849
 30
0.0
 11
2260.356935718257
 21
1086.109882209849
 31
0.0
  0
LINE
  5
5E2
330
5D4
100
AcDbEntity
  8
0
  6
Continuous
 62
     7
370
    15
100
AcDbLine
 10
2260.356935718257
 20
1082.109882209849
 30
0.0
 11
2260.356935718257
 21
1086.109882209849
 31
0.0
  0
LINE
  5
5E3
330
5D4
100
AcDbEntity
  8
0
  6
Continuous
 62
     7
370
    15
100
AcDbLine
 10
2262.956935718257
 20
1086.109882209849
 30
0.0
 11
2262.956935718257
 21
1082.109882209849
 31
0.0
  0
LINE
  5
5E4
330
5D4
100
AcDbEntity
  8
0
  6
Continuous
 62
     7
370
    15
100
AcDbLine
 10
2254.320867738252
 20
1070.434885032663
 30
0.0
 11
2254.320867738252
 21
1071.134885032663
 31
0.0
  0
LINE
  5
5E5
330
5D4
100
AcDbEntity
  8
0
  6
Continuous
 62
     7
370
    15
100
AcDbLine
 10
2257.820867740753
 20
1070.134885032663
 30
0.0
 11
2257.820867740753
 21
1071.134885032663
 31
0.0
  0
LINE
  5
5E6
330
5D4
100
AcDbEntity
  8
0
  6
Continuous
 62
     7
370
    15
100
AcDbLine
 10
2256.022252284137
 20
1070.134885032663
 30
0.0
 11
2254.320867738252
 21
1070.434885032663
 31
0.0
  0
LINE
  5
5E7
330
5D4
100
AcDbEntity
  8
0
  6
Continuous
 62
     7
370
    15
100
AcDbLine
 10
2257.820867740753
 20
1070.134885032663
 30
0.0
 11
2256.022252284137
 21
1070.134885032663
 31
0.0
  0
LINE
  5
5E8
330
5D4
100
AcDbEntity
  8
0
  6
Continuous
 62
     7
370
    15
100
AcDbLine
 10
2257.820867740753
 20
1071.134885032663
 30
0.0
 11
2254.320867738252
 21
1071.134885032663
 31
0.0
  0
LINE
  5
5E9
330
5D4
100
AcDbEntity
  8
0
  6
Continuous
 62
     7
370
    15
100
AcDbLine
 10
2259.860475548253
 20
1070.134885032663
 30
0.0
 11
2259.860475548253
 21
1071.134885032663
 31
0.0
  0
LINE
  5
5EA
330
5D4
100
AcDbEntity
  8
0
  6
Continuous
 62
     7
370
    15
100
AcDbLine
 10
2259.860475548253
 20
1070.134885032663
 30
0.0
 11
2257.820867740753
 21
1070.134885032663
 31
0.0
  0
LINE
  5
5EB
330
5D4
100
AcDbEntity
  8
0
  6
Continuous
 62
     7
370
    15
100
AcDbLine
 10
2259.860475548253
 20
1071.134885032663
 30
0.0
 11
2257.820867740753
 21
1071.134885032663
 31
0.0
  0
ARC
  5
5EC
330
5D4
100
AcDbEntity
  8
0
  6
Continuous
 62
     7
370
    15
100
AcDbCircle
 10
2260.956935718253
 20
1071.334885032663
 30
0.0
 40
0.1999999999999886
100
AcDbArc
 50
270.0
 51
0.0
  0
LINE
  5
5ED
330
5D4
100
AcDbEntity
  8
0
  6
Continuous
 62
     7
370
    15
100
AcDbLine
 10
2261.156935718253
 20
1071.334885032663
 30
0.0
 11
2262.156935718253
 21
1071.334885032663
 31
0.0
  0
ARC
  5
5EE
330
5D4
100
AcDbEntity
  8
0
  6
Continuous
 62
     7
370
    15
100
AcDbCircle
 10
2260.956935718253
 20
1071.334885032663
 30
0.0
 40
1.200000000000102
100
AcDbArc
 50
270.0
 51
0.0
  0
LINE
  5
5EF
330
5D4
100
AcDbEntity
  8
0
  6
Continuous
 62
     7
370
    15
100
AcDbLine
 10
2259.860475548253
 20
1070.134885032663
 30
0.0
 11
2260.956935718253
 21
1070.134885032663
 31
0.0
  0
LINE
  5
5F0
330
5D4
100
AcDbEntity
  8
0
  6
Continuous
 62
     7
370
    15
100
AcDbLine
 10
2259.860475548253
 20
1071.134885032663
 30
0.0
 11
2260.956935718253
 21
1071.134885032663
 31
0.0
  0
LINE
  5
5F1
330
5D4
100
AcDbEntity
  8
0
  6
Continuous
 62
     7
370
    15
100
AcDbLine
 10
2261.156935718257
 20
1071.434885032663
 30
0.0
 11
2261.156935718253
 21
1071.334885032663
 31
0.0
  0
LINE
  5
5F2
330
5D4
100
AcDbEntity
  8
0
  6
Continuous
 62
     7
370
    15
100
AcDbLine
 10
2262.156935718257
 20
1071.434885032663
 30
0.0
 11
2262.156935718253
 21
1071.334885032663
 31
0.0
  0
LINE
  5
5F3
330
5D4
100
AcDbEntity
  8
0
  6
Continuous
 62
     7
370
    15
100
AcDbLine
 10
2260.356935718257
 20
1085.509882209849
 30
0.0
 11
2258.156935718257
 21
1078.509882209849
 31
0.0
  0
LINE
  5
5F4
330
5D4
100
AcDbEntity
  8
0
  6
Continuous
 62
     7
370
    15
100
AcDbLine
 10
2260.356935718257
 20
1078.509882209849
 30
0.0
 11
2258.156935718257
 21
1078.509882209849
 31
0.0
  0
LINE
  5
5F5
330
5D4
100
AcDbEntity
  8
0
  6
Continuous
 62
     7
370
    15
100
AcDbLine
 10
2265.156935718257
 20
1078.509882209849
 30
0.0
 11
2262.956935718257
 21
1085.509882209849
 31
0.0
  0
LINE
  5
5F6
330
5D4
100
AcDbEntity
  8
0
  6
Continuous
 62
     7
370
    15
100
AcDbLine
 10
2262.956935718257
 20
1078.509882209849
 30
0.0
 11
2265.156935718257
 21
1078.509882209849
 31
0.0
  0
ENDBLK
  5
5D6
330
5D4
100
AcDbEntity
  8
0
100
AcDbBlockEnd
  0
BLOCK
  5
5F9
330
5F8
100
AcDbEntity
  8
0
100
AcDbBlockBegin
  2
3
 70
     0
 10
0.0
 20
0.0
 30
0.0
  3
3
  1

  0
LINE
  5
5FB
330
5F8
100
AcDbEntity
  8
0
  6
Continuous
 62
     7
370
    15
100
AcDbLine
 10
2296.814955908941
 20
1054.600052940655
 30
0.0
 11
2296.814955908941
 21
1057.200052940655
 31
0.0
  0
LINE
  5
5FC
330
5F8
100
AcDbEntity
  8
0
  6
Continuous
 62
     7
370
    15
100
AcDbLine
 10
2296.814955908941
 20
1054.600052940655
 30
0.0
 11
2292.814955908941
 21
1054.600052940655
 31
0.0
  0
LINE
  5
5FD
330
5F8
100
AcDbEntity
  8
0
  6
Continuous
 62
     7
370
    15
100
AcDbLine
 10
2292.814955908941
 20
1057.200052940655
 30
0.0
 11
2292.814955908941
 21
1054.600052940655
 31
0.0
  0
LINE
  5
5FE
330
5F8
100
AcDbEntity
  8
0
  6
Continuous
 62
     7
370
    15
100
AcDbLine
 10
2292.814955908941
 20
1057.200052940655
 30
0.0
 11
2296.814955908941
 21
1057.200052940655
 31
0.0
  0
LINE
  5
5FF
330
5F8
100
AcDbEntity
  8
0
  6
Continuous
 62
     7
370
    15
100
AcDbLine
 10
2292.814955908941
 20
1054.600052940655
 30
0.0
 11
2277.914955910847
 21
1054.600052940655
 31
0.0
  0
LINE
  5
600
330
5F8
100
AcDbEntity
  8
0
  6
Continuous
 62
     7
370
    15
100
AcDbLine
 10
2277.914955910847
 20
1057.200052940655
 30
0.0
 11
2277.914955910847
 21
1054.600052940655
 31
0.0
  0
LINE
  5
601
330
5F8
100
AcDbEntity
  8
0
  6
Continuous
 62
     7
370
    15
100
AcDbLine
 10
2292.814955908941
 20
1057.200052940655
 30
0.0
 11
2277.914955910847
 21
1057.200052940655
 31
0.0
  0
LINE
  5
602
330
5F8
100
AcDbEntity
  8
0
  6
Continuous
 62
     7
370
    15
100
AcDbLine
 10
2277.914955910847
 20
1054.600052940655
 30
0.0
 11
2273.914955910847
 21
1054.600052940655
 31
0.0
  0
LINE
  5
603
330
5F8
100
AcDbEntity
  8
0
  6
Continuous
 62
     7
370
    15
100
AcDbLine
 10
2273.914955910847
 20
1054.600052940655
 30
0.0
 11
2273.914955910847
 21
1057.200052940655
 31
0.0
  0
LINE
  5
604
330
5F8
100
AcDbEntity
  8
0
  6
Continuous
 62
     7
370
    15
100
AcDbLine
 10
2273.914955910847
 20
1057.200052940655
 30
0.0
 11
2277.914955910847
 21
1057.200052940655
 31
0.0
  0
LINE
  5
605
330
5F8
100
AcDbEntity
  8
0
  6
Continuous
 62
     7
370
    15
100
AcDbLine
 10
2280.689955910847
 20
1054.600052940655
 30
0.0
 11
2280.689955910847
 21
1052.400052940655
 31
0.0
  0
LINE
  5
606
330
5F8
100
AcDbEntity
  8
0
  6
Continuous
 62
     7
370
    15
100
AcDbLine
 10
2280.689955910847
 20
1052.400052940655
 30
0.0
 11
2281.889955910848
 21
1052.400052940655
 31
0.0
  0
LINE
  5
607
330
5F8
100
AcDbEntity
  8
0
  6
Continuous
 62
     7
370
    15
100
AcDbLine
 10
2281.889955910848
 20
1054.600052940655
 30
0.0
 11
2281.889955910848
 21
1052.400052940655
 31
0.0
  0
LINE
  5
608
330
5F8
100
AcDbEntity
  8
0
  6
Continuous
 62
     7
370
    15
100
AcDbLine
 10
2290.039955908941
 20
1054.600052940655
 30
0.0
 11
2290.039955908941
 21
1052.400052940655
 31
0.0
  0
LINE
  5
609
330
5F8
100
AcDbEntity
  8
0
  6
Continuous
 62
     7
370
    15
100
AcDbLine
 10
2290.039955908941
 20
1052.400052940655
 30
0.0
 11
2288.839955908941
 21
1052.400052940655
 31
0.0
  0
LINE
  5
60A
330
5F8
100
AcDbEntity
  8
0
  6
Continuous
 62
     7
370
    15
100
AcDbLine
 10
2288.839955908941
 20
1054.600052940655
 30
0.0
 11
2288.839955908941
 21
1052.400052940655
 31
0.0
  0
LINE
  5
60B
330
5F8
100
AcDbEntity
  8
0
  6
Continuous
 62
     7
370
    15
100
AcDbLine
 10
2280.689955910847
 20
1057.200052940655
 30
0.0
 11
2280.689955910847
 21
1059.400052940655
 31
0.0
  0
LINE
  5
60C
330
5F8
100
AcDbEntity
  8
0
  6
Continuous
 62
     7
370
    15
100
AcDbLine
 10
2281.889955910848
 20
1059.400052940655
 30
0.0
 11
2280.689955910847
 21
1059.400052940655
 31
0.0
  0
LINE
  5
60D
330
5F8
100
AcDbEntity
  8
0
  6
Continuous
 62
     7
370
    15
100
AcDbLine
 10
2281.889955910848
 20
1057.200052940655
 30
0.0
 11
2281.889955910848
 21
1059.400052940655
 31
0.0
  0
LINE
  5
60E
330
5F8
100
AcDbEntity
  8
0
  6
Continuous
 62
     7
370
    15
100
AcDbLine
 10
2290.039955908941
 20
1059.400052940655
 30
0.0
 11
2290.039955908941
 21
1057.200052940655
 31
0.0
  0
LINE
  5
60F
330
5F8
100
AcDbEntity
  8
0
  6
Continuous
 62
     7
370
    15
100
AcDbLine
 10
2288.839955908941
 20
1057.200052940655
 30
0.0
 11
2288.839955908941
 21
1059.400052940655
 31
0.0
  0
LINE
  5
610
330
5F8
100
AcDbEntity
  8
0
  6
Continuous
 62
     7
370
    15
100
AcDbLine
 10
2288.839955908941
 20
1059.400052940655
 30
0.0
 11
2290.039955908941
 21
1059.400052940655
 31
0.0
  0
LINE
  5
611
330
5F8
100
AcDbEntity
  8
0
  6
Continuous
 62
     7
370
    15
100
AcDbLine
 10
2273.664955910848
 20
1054.600052940655
 30
0.0
 11
2273.664955910847
 21
1057.200052940655
 31
0.0
  0
LINE
  5
612
330
5F8
100
AcDbEntity
  8
0
  6
Continuous
 62
     7
370
    15
100
AcDbLine
 10
2273.914955910847
 20
1054.600052940655
 30
0.0
 11
2273.664955910848
 21
1054.600052940655
 31
0.0
  0
LINE
  5
613
330
5F8
100
AcDbEntity
  8
0
  6
Continuous
 62
     7
370
    15
100
AcDbLine
 10
2273.664955910847
 20
1057.200052940655
 30
0.0
 11
2273.914955910847
 21
1057.200052940655
 31
0.0
  0
LINE
  5
614
330
5F8
100
AcDbEntity
  8
0
  6
Continuous
 62
     7
370
    15
100
AcDbLine
 10
2297.064955908941
 20
1054.600052940655
 30
0.0
 11
2297.064955908941
 21
1057.200052940655
 31
0.0
  0
LINE
  5
615
330
5F8
100
AcDbEntity
  8
0
  6
Continuous
 62
     7
370
    15
100
AcDbLine
 10
2297.064955908941
 20
1054.600052940655
 30
0.0
 11
2296.814955908941
 21
1054.600052940655
 31
0.0
  0
LINE
  5
616
330
5F8
100
AcDbEntity
  8
0
  6
Continuous
 62
     7
370
    15
100
AcDbLine
 10
2296.814955908941
 20
1057.200052940655
 30
0.0
 11
2297.064955908941
 21
1057.200052940655
 31
0.0
  0
LINE
  5
617
330
5F8
100
AcDbEntity
  8
0
  6
Continuous
 62
     7
370
    15
100
AcDbLine
 10
2291.897049199739
 20
1049.613777649245
 30
0.0
 11
2291.514955908941
 21
1048.56398496065
 31
0.0
  0
LINE
  5
618
330
5F8
100
AcDbEntity
  8
0
  6
Continuous
 62
     7
370
    15
100
AcDbLine
 10
2291.514955908941
 20
1048.56398496065
 30
0.0
 11
2290.514955908941
 21
1048.56398496065
 31
0.0
  0
LINE
  5
619
330
5F8
100
AcDbEntity
  8
0
  6
Continuous
 62
     7
370
    15
100
AcDbLine
 10
2290.514955908941
 20
1048.56398496065
 30
0.0
 11
2290.514955908941
 21
1052.063984963151
 31
0.0
  0
ARC
  5
61A
330
5F8
100
AcDbEntity
  8
0
  6
Continuous
 62
     7
370
    15
100
AcDbCircle
 10
2293.514955908941
 20
1052.063984963151
 30
0.0
 40
3.000000000000698
100
AcDbArc
 50
137.1665719339155
 51
180.0
  0
ARC
  5
61B
330
5F8
100
AcDbEntity
  8
0
  6
Continuous
 62
     7
370
    15
100
AcDbCircle
 10
2293.514955908941
 20
1052.063984963151
 30
0.0
 40
3.000000000000156
100
AcDbArc
 50
0.0
 51
42.83342811978223
  0
LINE
  5
61C
330
5F8
100
AcDbEntity
  8
0
  6
Continuous
 62
     7
370
    15
100
AcDbLine
 10
2296.514955908941
 20
1052.063984963151
 30
0.0
 11
2296.514955908941
 21
1048.56398496065
 31
0.0
  0
LINE
  5
61D
330
5F8
100
AcDbEntity
  8
0
  6
Continuous
 62
     7
370
    15
100
AcDbLine
 10
2296.514955908941
 20
1048.56398496065
 30
0.0
 11
2295.514955908941
 21
1048.56398496065
 31
0.0
  0
LINE
  5
61E
330
5F8
100
AcDbEntity
  8
0
  6
Continuous
 62
     7
370
    15
100
AcDbLine
 10
2295.514955908941
 20
1048.56398496065
 30
0.0
 11
2295.132862618142
 21
1049.613777649245
 31
0.0
  0
LINE
  5
61F
330
5F8
100
AcDbEntity
  8
0
  6
Continuous
 62
     7
370
    15
100
AcDbLine
 10
2295.132862618142
 20
1049.613777649245
 30
0.0
 11
2295.010390462732
 21
1051.179927234139
 31
0.0
  0
ARC
  5
620
330
5F8
100
AcDbEntity
  8
0
  6
Continuous
 62
     7
370
    15
100
AcDbCircle
 10
2293.514955908941
 20
1051.062984960651
 30
0.0
 40
1.500000000000136
100
AcDbArc
 50
4.471403166309055
 51
175.5285968336909
  0
LINE
  5
621
330
5F8
100
AcDbEntity
  8
0
  6
Continuous
 62
     7
370
    15
100
AcDbLine
 10
2292.01952135515
 20
1051.179927234139
 30
0.0
 11
2291.897049199739
 21
1049.613777649245
 31
0.0
  0
LINE
  5
622
330
5F8
100
AcDbEntity
  8
0
  6
Continuous
 62
     7
370
    15
100
AcDbLine
 10
2291.314955908075
 20
1054.600052940655
 30
0.0
 11
2291.314955908941
 21
1054.103592768589
 31
0.0
  0
LINE
  5
623
330
5F8
100
AcDbEntity
  8
0
  6
Continuous
 62
     7
370
    15
100
AcDbLine
 10
2295.714955907028
 20
1054.103592770651
 30
0.0
 11
2295.714955907028
 21
1054.600052940655
 31
0.0
  0
ARC
  5
624
330
5F8
100
AcDbEntity
  8
0
  6
Continuous
 62
     7
370
    15
100
AcDbCircle
 10
2285.364955908941
 20
1052.063984963151
 30
0.0
 40
3.000000000000135
100
AcDbArc
 50
0.0
 51
42.83342811978223
  0
LINE
  5
625
330
5F8
100
AcDbEntity
  8
0
  6
Continuous
 62
     7
370
    15
100
AcDbLine
 10
2288.364955908941
 20
1052.063984963151
 30
0.0
 11
2288.364955908941
 21
1048.56398496065
 31
0.0
  0
LINE
  5
626
330
5F8
100
AcDbEntity
  8
0
  6
Continuous
 62
     7
370
    15
100
AcDbLine
 10
2288.364955908941
 20
1048.56398496065
 30
0.0
 11
2287.364955908941
 21
1048.56398496065
 31
0.0
  0
LINE
  5
627
330
5F8
100
AcDbEntity
  8
0
  6
Continuous
 62
     7
370
    15
100
AcDbLine
 10
2287.364955908941
 20
1048.56398496065
 30
0.0
 11
2286.982862618143
 21
1049.613777649245
 31
0.0
  0
LINE
  5
628
330
5F8
100
AcDbEntity
  8
0
  6
Continuous
 62
     7
370
    15
100
AcDbLine
 10
2286.982862618143
 20
1049.613777649245
 30
0.0
 11
2286.860390462732
 21
1051.179927234137
 31
0.0
  0
ARC
  5
629
330
5F8
100
AcDbEntity
  8
0
  6
Continuous
 62
     7
370
    15
100
AcDbCircle
 10
2285.364955908941
 20
1051.062984960651
 30
0.0
 40
1.499999999999922
100
AcDbArc
 50
4.471403166244115
 51
175.5285968280846
  0
LINE
  5
62A
330
5F8
100
AcDbEntity
  8
0
  6
Continuous
 62
     7
370
    15
100
AcDbLine
 10
2283.747049201646
 20
1049.613777649245
 30
0.0
 11
2283.869521357057
 21
1051.179927234137
 31
0.0
  0
LINE
  5
62B
330
5F8
100
AcDbEntity
  8
0
  6
Continuous
 62
     7
370
    15
100
AcDbLine
 10
2283.364955910847
 20
1048.56398496065
 30
0.0
 11
2283.747049201646
 21
1049.613777649245
 31
0.0
  0
LINE
  5
62C
330
5F8
100
AcDbEntity
  8
0
  6
Continuous
 62
     7
370
    15
100
AcDbLine
 10
2282.364955910848
 20
1048.56398496065
 30
0.0
 11
2283.364955910847
 21
1048.56398496065
 31
0.0
  0
LINE
  5
62D
330
5F8
100
AcDbEntity
  8
0
  6
Continuous
 62
     7
370
    15
100
AcDbLine
 10
2282.364955910848
 20
1052.063984963151
 30
0.0
 11
2282.364955910848
 21
1048.56398496065
 31
0.0
  0
ARC
  5
62E
330
5F8
100
AcDbEntity
  8
0
  6
Continuous
 62
     7
370
    15
100
AcDbCircle
 10
2285.364955910848
 20
1052.063984963151
 30
0.0
 40
3.000000000000135
100
AcDbArc
 50
137.1665718802177
 51
180.0
  0
LINE
  5
62F
330
5F8
100
AcDbEntity
  8
0
  6
Continuous
 62
     7
370
    15
100
AcDbLine
 10
2283.16495591276
 20
1054.600052940655
 30
0.0
 11
2283.16495591276
 21
1054.103592770651
 31
0.0
  0
LINE
  5
630
330
5F8
100
AcDbEntity
  8
0
  6
Continuous
 62
     7
370
    15
100
AcDbLine
 10
2287.564955907029
 20
1054.600052940655
 30
0.0
 11
2287.564955907029
 21
1054.103592770651
 31
0.0
  0
ARC
  5
631
330
5F8
100
AcDbEntity
  8
0
  6
Continuous
 62
     7
370
    15
100
AcDbCircle
 10
2277.214955910848
 20
1051.062984960651
 30
0.0
 40
1.49999999999995
100
AcDbArc
 50
4.471403166244115
 51
175.5285968337559
  0
LINE
  5
632
330
5F8
100
AcDbEntity
  8
0
  6
Continuous
 62
     7
370
    15
100
AcDbLine
 10
2275.597049201646
 20
1049.613777649245
 30
0.0
 11
2275.719521357057
 21
1051.179927234137
 31
0.0
  0
LINE
  5
633
330
5F8
100
AcDbEntity
  8
0
  6
Continuous
 62
     7
370
    15
100
AcDbLine
 10
2275.214955910847
 20
1048.56398496065
 30
0.0
 11
2275.597049201646
 21
1049.613777649245
 31
0.0
  0
LINE
  5
634
330
5F8
100
AcDbEntity
  8
0
  6
Continuous
 62
     7
370
    15
100
AcDbLine
 10
2274.214955910847
 20
1048.56398496065
 30
0.0
 11
2275.214955910847
 21
1048.56398496065
 31
0.0
  0
LINE
  5
635
330
5F8
100
AcDbEntity
  8
0
  6
Continuous
 62
     7
370
    15
100
AcDbLine
 10
2274.214955910847
 20
1052.063984963151
 30
0.0
 11
2274.214955910847
 21
1048.56398496065
 31
0.0
  0
ARC
  5
636
330
5F8
100
AcDbEntity
  8
0
  6
Continuous
 62
     7
370
    15
100
AcDbCircle
 10
2277.214955910848
 20
1052.063984963151
 30
0.0
 40
3.000000000000177
100
AcDbArc
 50
137.1665718802177
 51
180.0
  0
ARC
  5
637
330
5F8
100
AcDbEntity
  8
0
  6
Continuous
 62
     7
370
    15
100
AcDbCircle
 10
2277.214955910848
 20
1052.063984963151
 30
0.0
 40
3.000000000000678
100
AcDbArc
 50
0.0
 51
42.83342806608448
  0
LINE
  5
638
330
5F8
100
AcDbEntity
  8
0
  6
Continuous
 62
     7
370
    15
100
AcDbLine
 10
2280.214955910848
 20
1048.56398496065
 30
0.0
 11
2280.214955910848
 21
1052.063984963151
 31
0.0
  0
LINE
  5
639
330
5F8
100
AcDbEntity
  8
0
  6
Continuous
 62
     7
370
    15
100
AcDbLine
 10
2279.214955910848
 20
1048.56398496065
 30
0.0
 11
2280.214955910848
 21
1048.56398496065
 31
0.0
  0
LINE
  5
63A
330
5F8
100
AcDbEntity
  8
0
  6
Continuous
 62
     7
370
    15
100
AcDbLine
 10
2278.832862620049
 20
1049.613777649245
 30
0.0
 11
2279.214955910848
 21
1048.56398496065
 31
0.0
  0
LINE
  5
63B
330
5F8
100
AcDbEntity
  8
0
  6
Continuous
 62
     7
370
    15
100
AcDbLine
 10
2278.710390464638
 20
1051.179927234137
 30
0.0
 11
2278.832862620049
 21
1049.613777649245
 31
0.0
  0
LINE
  5
63C
330
5F8
100
AcDbEntity
  8
0
  6
Continuous
 62
     7
370
    15
100
AcDbLine
 10
2275.01495591276
 20
1054.103592770651
 30
0.0
 11
2275.01495591276
 21
1054.600052940655
 31
0.0
  0
LINE
  5
63D
330
5F8
100
AcDbEntity
  8
0
  6
Continuous
 62
     7
370
    15
100
AcDbLine
 10
2279.414955911713
 20
1054.600052940655
 30
0.0
 11
2279.414955910847
 21
1054.103592768589
 31
0.0
  0
ENDBLK
  5
5FA
330
5F8
100
AcDbEntity
  8
0
100
AcDbBlockEnd
  0
BLOCK
  5
640
330
63F
100
AcDbEntity
  8
0
100
AcDbBlockBegin
  2
4
 70
     0
 10
0.0
 20
0.0
 30
0.0
  3
4
  1

  0
LINE
  5
642
330
63F
100
AcDbEntity
  8
0
  6
Continuous
 62
     7
370
    15
100
AcDbLine
 10
2332.801654364505
 20
1085.084301553338
 30
0.0
 11
2330.963176733419
 21
1086.145632098708
 31
0.0
  0
LINE
  5
643
330
63F
100
AcDbEntity
  8
0
  6
Continuous
 62
     7
370
    15
100
AcDbLine
 10
2320.548768573376
 20
1068.617658055713
 30
0.0
 11
2320.548768573376
 21
1070.250739679485
 31
0.0
  0
LINE
  5
644
330
63F
100
AcDbEntity
  8
0
  6
Continuous
 62
     7
370
    15
100
AcDbLine
 10
2320.548768573376
 20
1070.250739679485
 30
0.0
 11
2318.993133654765
 21
1069.35269075648
 31
0.0
  0
LINE
  5
645
330
63F
100
AcDbEntity
  8
0
  6
Continuous
 62
     7
370
    15
100
AcDbLine
 10
2318.993133654765
 20
1069.35269075648
 30
0.0
 11
2318.993133654765
 21
1067.719609132708
 31
0.0
  0
LINE
  5
646
330
63F
100
AcDbEntity
  8
0
  6
Continuous
 62
     7
370
    15
100
AcDbLine
 10
2318.993133654765
 20
1067.719609132708
 30
0.0
 11
2320.548768573376
 21
1068.617658055713
 31
0.0
  0
LINE
  5
647
330
63F
100
AcDbEntity
  8
0
  6
Continuous
 62
     7
370
    15
100
AcDbLine
 10
2332.074609105368
 20
1075.27138416629
 30
0.0
 11
2332.074609105368
 21
1076.904465790061
 31
0.0
  0
LINE
  5
648
330
63F
100
AcDbEntity
  8
0
  6
Continuous
 62
     7
370
    15
100
AcDbLine
 10
2332.074609105368
 20
1076.904465790061
 30
0.0
 11
2330.518974186758
 21
1076.006416867056
 31
0.0
  0
LINE
  5
649
330
63F
100
AcDbEntity
  8
0
  6
Continuous
 62
     7
370
    15
100
AcDbLine
 10
2330.518974186758
 20
1076.006416867056
 30
0.0
 11
2330.518974186758
 21
1074.373335243285
 31
0.0
  0
LINE
  5
64A
330
63F
100
AcDbEntity
  8
0
  6
Continuous
 62
     7
370
    15
100
AcDbLine
 10
2330.518974186758
 20
1074.373335243285
 30
0.0
 11
2332.074609105368
 21
1075.27138416629
 31
0.0
  0
LINE
  5
64B
330
63F
100
AcDbEntity
  8
0
  6
Continuous
 62
     7
370
    15
100
AcDbLine
 10
2324.756053921436
 20
1071.046472188386
 30
0.0
 11
2326.311688838698
 21
1071.944521110612
 31
0.0
  0
LINE
  5
64C
330
63F
100
AcDbEntity
  8
0
  6
Continuous
 62
     7
370
    15
100
AcDbLine
 10
2326.311688838698
 20
1071.944521110612
 30
0.0
 11
2326.311688838698
 21
1073.577602734384
 31
0.0
  0
LINE
  5
64D
330
63F
100
AcDbEntity
  8
0
  6
Continuous
 62
     7
370
    15
100
AcDbLine
 10
2326.311688838698
 20
1073.577602734384
 30
0.0
 11
2324.756053921436
 21
1072.679553812157
 31
0.0
  0
LINE
  5
64E
330
63F
100
AcDbEntity
  8
0
  6
Continuous
 62
     7
370
    15
100
AcDbLine
 10
2324.756053921436
 20
1072.679553812157
 30
0.0
 11
2324.756053921436
 21
1071.046472188386
 31
0.0
  0
LINE
  5
64F
330
63F
100
AcDbEntity
  8
0
  6
Continuous
 62
     7
370
    15
100
AcDbLine
 10
2333.807020719275
 20
1077.557533577045
 30
0.0
 11
2333.807020719275
 21
1078.496555510713
 31
0.0
  0
LINE
  5
650
330
63F
100
AcDbEntity
  8
0
  6
Continuous
 62
     7
370
    15
100
AcDbLine
 10
2333.630244023979
 20
1077.455482563067
 30
0.0
 11
2333.807020719275
 21
1077.557533577045
 31
0.0
  0
LINE
  5
651
330
63F
100
AcDbEntity
  8
0
  6
Continuous
 62
     7
370
    15
100
AcDbLine
 10
2333.630244023979
 20
1074.536351465523
 30
0.0
 11
2333.630244023979
 21
1077.455482563067
 31
0.0
  0
LINE
  5
652
330
63F
100
AcDbEntity
  8
0
  6
Continuous
 62
     7
370
    15
100
AcDbLine
 10
2333.630244023979
 20
1074.536351465523
 30
0.0
 11
2329.316892658743
 21
1072.046306724462
 31
0.0
  0
LINE
  5
653
330
63F
100
AcDbEntity
  8
0
  6
Continuous
 62
     7
370
    15
100
AcDbLine
 10
2329.316892658743
 20
1072.046306724462
 30
0.0
 11
2328.96333926815
 21
1072.549349782826
 31
0.0
  0
LINE
  5
654
330
63F
100
AcDbEntity
  8
0
  6
Continuous
 62
     7
370
    15
100
AcDbLine
 10
2328.963339268148
 20
1076.496667481901
 30
0.0
 11
2328.96333926815
 21
1072.549349782826
 31
0.0
  0
LINE
  5
655
330
63F
100
AcDbEntity
  8
0
  6
Continuous
 62
     7
370
    15
100
AcDbLine
 10
2327.991067444016
 20
1082.773733741979
 30
0.0
 11
2328.83959558144
 21
1083.263578609073
 31
0.0
  0
LINE
  5
656
330
63F
100
AcDbEntity
  8
0
  6
Continuous
 62
     7
370
    15
100
AcDbLine
 10
2327.991067444016
 20
1077.057948058779
 30
0.0
 11
2327.991067444016
 21
1082.773733741979
 31
0.0
  0
LINE
  5
657
330
63F
100
AcDbEntity
  8
0
  6
Continuous
 62
     7
370
    15
100
AcDbLine
 10
2327.867323757308
 20
1076.986512348995
 30
0.0
 11
2327.991067444016
 21
1077.057948058779
 31
0.0
  0
LINE
  5
658
330
63F
100
AcDbEntity
  8
0
  6
Continuous
 62
     7
370
    15
100
AcDbLine
 10
2327.867323757308
 20
1075.067641441058
 30
0.0
 11
2327.867323757308
 21
1076.986512348995
 31
0.0
  0
LINE
  5
659
330
63F
100
AcDbEntity
  8
0
  6
Continuous
 62
     7
370
    15
100
AcDbLine
 10
2328.044100453953
 20
1075.169692455814
 30
0.0
 11
2327.867323757308
 21
1075.067641441058
 31
0.0
  0
LINE
  5
65A
330
63F
100
AcDbEntity
  8
0
  6
Continuous
 62
     7
370
    15
100
AcDbLine
 10
2328.044100453953
 20
1074.230670522146
 30
0.0
 11
2328.044100453953
 21
1075.169692455814
 31
0.0
  0
LINE
  5
65B
330
63F
100
AcDbEntity
  8
0
  6
Continuous
 62
     7
370
    15
100
AcDbLine
 10
2327.867323757308
 20
1074.12861950739
 30
0.0
 11
2328.044100453953
 21
1074.230670522146
 31
0.0
  0
LINE
  5
65C
330
63F
100
AcDbEntity
  8
0
  6
Continuous
 62
     7
370
    15
100
AcDbLine
 10
2327.867323757311
 20
1071.916633496164
 30
0.0
 11
2327.867323757308
 21
1074.12861950739
 31
0.0
  0
LINE
  5
65D
330
63F
100
AcDbEntity
  8
0
  6
Continuous
 62
     7
370
    15
100
AcDbLine
 10
2327.867323757311
 20
1071.916633496164
 30
0.0
 11
2327.513770366717
 21
1071.005386381888
 31
0.0
  0
LINE
  5
65E
330
63F
100
AcDbEntity
  8
0
  6
Continuous
 62
     7
370
    15
100
AcDbLine
 10
2327.513770366717
 20
1071.005386381888
 30
0.0
 11
2323.553972393421
 21
1068.719443669563
 31
0.0
  0
LINE
  5
65F
330
63F
100
AcDbEntity
  8
0
  6
Continuous
 62
     7
370
    15
100
AcDbLine
 10
2323.200419002828
 20
1069.222486727927
 30
0.0
 11
2323.553972393421
 21
1068.719443669563
 31
0.0
  0
LINE
  5
660
330
63F
100
AcDbEntity
  8
0
  6
Continuous
 62
     7
370
    15
100
AcDbLine
 10
2323.200419002828
 20
1069.222486727927
 30
0.0
 11
2323.200419002825
 21
1071.434472739153
 31
0.0
  0
LINE
  5
661
330
63F
100
AcDbEntity
  8
0
  6
Continuous
 62
     7
370
    15
100
AcDbLine
 10
2323.02364230618
 20
1071.332421724397
 30
0.0
 11
2323.200419002825
 21
1071.434472739153
 31
0.0
  0
LINE
  5
662
330
63F
100
AcDbEntity
  8
0
  6
Continuous
 62
     7
370
    15
100
AcDbLine
 10
2323.02364230618
 20
1072.271443658065
 30
0.0
 11
2323.02364230618
 21
1071.332421724397
 31
0.0
  0
LINE
  5
663
330
63F
100
AcDbEntity
  8
0
  6
Continuous
 62
     7
370
    15
100
AcDbLine
 10
2323.200419002825
 20
1072.373494672821
 30
0.0
 11
2323.02364230618
 21
1072.271443658065
 31
0.0
  0
LINE
  5
664
330
63F
100
AcDbEntity
  8
0
  6
Continuous
 62
     7
370
    15
100
AcDbLine
 10
2323.200419002825
 20
1072.373494672821
 30
0.0
 11
2323.200419002825
 21
1073.169804427002
 31
0.0
  0
LINE
  5
665
330
63F
100
AcDbEntity
  8
0
  6
Continuous
 62
     7
370
    15
100
AcDbLine
 10
2323.076675316118
 20
1079.936715554174
 30
0.0
 11
2322.228147178694
 21
1079.44687068708
 31
0.0
  0
LINE
  5
666
330
63F
100
AcDbEntity
  8
0
  6
Continuous
 62
     7
370
    15
100
AcDbLine
 10
2322.228147178694
 20
1073.73108500388
 30
0.0
 11
2322.228147178694
 21
1079.44687068708
 31
0.0
  0
LINE
  5
667
330
63F
100
AcDbEntity
  8
0
  6
Continuous
 62
     7
370
    15
100
AcDbLine
 10
2322.228147178694
 20
1073.73108500388
 30
0.0
 11
2322.104403491986
 21
1073.659649294095
 31
0.0
  0
LINE
  5
668
330
63F
100
AcDbEntity
  8
0
  6
Continuous
 62
     7
370
    15
100
AcDbLine
 10
2322.104403491986
 20
1073.659649294095
 30
0.0
 11
2322.104403491989
 21
1068.589770441264
 31
0.0
  0
LINE
  5
669
330
63F
100
AcDbEntity
  8
0
  6
Continuous
 62
     7
370
    15
100
AcDbLine
 10
2321.750850101395
 20
1067.678523326989
 30
0.0
 11
2322.104403491989
 21
1068.589770441264
 31
0.0
  0
LINE
  5
66A
330
63F
100
AcDbEntity
  8
0
  6
Continuous
 62
     7
370
    15
100
AcDbLine
 10
2317.437498736155
 20
1065.188478585932
 30
0.0
 11
2321.750850101395
 21
1067.678523326989
 31
0.0
  0
LINE
  5
66B
330
63F
100
AcDbEntity
  8
0
  6
Continuous
 62
     7
370
    15
100
AcDbLine
 10
2317.437498736155
 20
1068.107609683475
 30
0.0
 11
2317.437498736155
 21
1065.188478585932
 31
0.0
  0
LINE
  5
66C
330
63F
100
AcDbEntity
  8
0
  6
Continuous
 62
     7
370
    15
100
AcDbLine
 10
2317.260722040858
 20
1068.005558669498
 30
0.0
 11
2317.437498736155
 21
1068.107609683475
 31
0.0
  0
LINE
  5
66D
330
63F
100
AcDbEntity
  8
0
  6
Continuous
 62
     7
370
    15
100
AcDbLine
 10
2317.260722040858
 20
1068.944580603166
 30
0.0
 11
2317.260722040858
 21
1068.005558669498
 31
0.0
  0
LINE
  5
66E
330
63F
100
AcDbEntity
  8
0
  6
Continuous
 62
     7
370
    15
100
AcDbLine
 10
2317.437498736155
 20
1069.046631617144
 30
0.0
 11
2317.260722040858
 21
1068.944580603166
 31
0.0
  0
LINE
  5
66F
330
63F
100
AcDbEntity
  8
0
  6
Continuous
 62
     7
370
    15
100
AcDbLine
 10
2317.437498736155
 20
1069.046631617144
 30
0.0
 11
2317.437498736155
 21
1073.905049447869
 31
0.0
  0
ARC
  5
670
330
63F
100
AcDbEntity
  8
0
  6
Continuous
 62
     7
370
    15
100
AcDbCircle
 10
2323.568145734604
 20
1073.631505061539
 30
0.0
 40
6.136746625931404
100
AcDbArc
 50
122.5547955107987
 51
177.4452043435874
  0
LINE
  5
671
330
63F
100
AcDbEntity
  8
0
  6
Continuous
 62
     7
370
    15
100
AcDbLine
 10
2330.801816899232
 20
1084.886269351359
 30
0.0
 11
2320.265925860901
 21
1078.804028919058
 31
0.0
  0
ARC
  5
672
330
63F
100
AcDbEntity
  8
0
  6
Continuous
 62
     7
370
    15
100
AcDbCircle
 10
2331.9025400139
 20
1083.526732092352
 30
0.0
 40
1.749266398748724
100
AcDbArc
 50
350.9945542985728
 51
128.9946939466865
  0
LINE
  5
673
330
63F
100
AcDbEntity
  8
0
  6
Continuous
 62
     7
370
    15
100
AcDbLine
 10
2333.630244023979
 20
1083.252922327461
 30
0.0
 11
2333.630244023979
 21
1078.394504496736
 31
0.0
  0
LINE
  5
674
330
63F
100
AcDbEntity
  8
0
  6
Continuous
 62
     7
370
    15
100
AcDbLine
 10
2333.807020719275
 20
1078.496555510713
 30
0.0
 11
2333.630244023979
 21
1078.394504496736
 31
0.0
  0
LINE
  5
675
330
63F
100
AcDbEntity
  8
0
  6
Continuous
 62
     7
370
    15
100
AcDbLine
 10
2317.437498736155
 20
1073.905049447869
 30
0.0
 11
2315.59902110507
 21
1074.966379993239
 31
0.0
  0
ARC
  5
676
330
63F
100
AcDbEntity
  8
0
  6
Continuous
 62
     7
370
    15
100
AcDbCircle
 10
2321.729660001569
 20
1074.692840284571
 30
0.0
 40
6.136738323530221
100
AcDbArc
 50
122.5547552529324
 51
177.4452446014516
  0
LINE
  5
677
330
63F
100
AcDbEntity
  8
0
  6
Continuous
 62
     7
370
    15
100
AcDbLine
 10
2318.427448229816
 20
1079.865359464427
 30
0.0
 11
2320.265925860901
 21
1078.804028919058
 31
0.0
  0
LINE
  5
678
330
63F
100
AcDbEntity
  8
0
  6
Continuous
 62
     7
370
    15
100
AcDbLine
 10
2315.59902110507
 20
1070.107962162513
 30
0.0
 11
2317.437498736155
 21
1069.046631617144
 31
0.0
  0
LINE
  5
679
330
63F
100
AcDbEntity
  8
0
  6
Continuous
 62
     7
370
    15
100
AcDbLine
 10
2315.59902110507
 20
1070.107962162513
 30
0.0
 11
2315.59902110507
 21
1074.966379993239
 31
0.0
  0
LINE
  5
67A
330
63F
100
AcDbEntity
  8
0
  6
Continuous
 62
     7
370
    15
100
AcDbLine
 10
2328.963339268147
 20
1085.947599896728
 30
0.0
 11
2330.801816899232
 21
1084.886269351359
 31
0.0
  0
LINE
  5
67B
330
63F
100
AcDbEntity
  8
0
  6
Continuous
 62
     7
370
    15
100
AcDbLine
 10
2328.963339268147
 20
1085.947599896728
 30
0.0
 11
2318.427448229816
 21
1079.865359464427
 31
0.0
  0
LINE
  5
67C
330
63F
100
AcDbEntity
  8
0
  6
Continuous
 62
     7
370
    15
100
AcDbLine
 10
2322.228147178694
 20
1079.44687068708
 30
0.0
 11
2323.783782097304
 21
1072.833036080875
 31
0.0
  0
LINE
  5
67D
330
63F
100
AcDbEntity
  8
0
  6
Continuous
 62
     7
370
    15
100
AcDbLine
 10
2323.076675316118
 20
1079.936715554174
 30
0.0
 11
2324.632310234728
 21
1073.322880947968
 31
0.0
  0
LINE
  5
67E
330
63F
100
AcDbEntity
  8
0
  6
Continuous
 62
     7
370
    15
100
AcDbLine
 10
2323.783782097304
 20
1072.833036080875
 30
0.0
 11
2324.632310234728
 21
1073.322880947968
 31
0.0
  0
LINE
  5
67F
330
63F
100
AcDbEntity
  8
0
  6
Continuous
 62
     7
370
    15
100
AcDbLine
 10
2322.228147178694
 20
1073.73108500388
 30
0.0
 11
2323.783782097304
 21
1072.833036080875
 31
0.0
  0
LWPOLYLINE
  5
680
330
63F
100
AcDbEntity
  8
0
  6
Continuous
 62
     7
370
    15
100
AcDbPolyline
 90
       26
 70
   128
 43
0.0
 10
2321.131913279853
 20
1064.284038091539
 10
2321.023905849313
 20
1064.366459084321
 10
2320.93367716124
 20
1064.455721404377
 10
2320.862512460428
 20
1064.550553572154
 10
2320.811425438455
 20
1064.649604769497
 10
2320.781143794354
 20
1064.751464081115
 10
2320.772098869044
 20
1064.854680592087
 10
2320.784419501187
 20
1064.957784055129
 10
2320.81793019196
 20
1065.059305833252
 10
2320.872153604923
 20
1065.157799819461
 10
2320.946317365339
 20
1065.251863035551
 10
2321.039365062117
 20
1065.340155616548
 10
2321.149971295647
 20
1065.421419896155
 10
2321.276560557199
 20
1065.494498321331
 10
2321.417329670945
 20
1065.558349940828
 10
2321.570273478944
 20
1065.612065232816
 10
2321.733213403215
 20
1065.654879060386
 10
2321.903828478068
 20
1065.686181570397
 10
2322.079688410641
 20
1065.705526880404
 10
2322.258288198726
 20
1065.712639429944
 10
2322.437083812786
 20
1065.707417905707
 10
2322.613528433874
 20
1065.689936684665
 10
2322.785108731306
 20
1065.660444774633
 10
2322.949380663293
 20
1065.61936226732
 10
2323.104004290625
 20
1065.567274354418
 10
2323.246777107466
 20
1065.504922991953
  0
LINE
  5
681
330
63F
100
AcDbEntity
  8
0
  6
Continuous
 62
     7
370
    15
100
AcDbLine
 10
2322.152747380086
 20
1063.594735848247
 30
0.0
 11
2321.131913279853
 21
1064.284038091539
 31
0.0
  0
LINE
  5
682
330
63F
100
AcDbEntity
  8
0
  6
Continuous
 62
     7
370
    15
100
AcDbLine
 10
2322.624882152062
 20
1063.010234183856
 30
0.0
 11
2322.152747380086
 21
1063.594735848247
 31
0.0
  0
LINE
  5
683
330
63F
100
AcDbEntity
  8
0
  6
Continuous
 62
     7
370
    15
100
AcDbLine
 10
2321.917775370875
 20
1062.602030127945
 30
0.0
 11
2322.624882152062
 21
1063.010234183856
 31
0.0
  0
LINE
  5
684
330
63F
100
AcDbEntity
  8
0
  6
Continuous
 62
     7
370
    15
100
AcDbLine
 10
2319.442901634954
 20
1064.030744324655
 30
0.0
 11
2321.917775370875
 21
1062.602030127945
 31
0.0
  0
ARC
  5
685
330
63F
100
AcDbEntity
  8
0
  6
Continuous
 62
     7
370
    15
100
AcDbCircle
 10
2320.095014355558
 20
1065.434853809087
 30
0.0
 40
1.548151944947273
100
AcDbArc
 50
189.1043980343615
 51
245.0883583651284
  0
LINE
  5
686
330
63F
100
AcDbEntity
  8
0
  6
Continuous
 62
     7
370
    15
100
AcDbLine
 10
2318.566366549611
 20
1065.189883749655
 30
0.0
 11
2318.003149682233
 21
1065.515021926431
 31
0.0
  0
LINE
  5
687
330
63F
100
AcDbEntity
  8
0
  6
Continuous
 62
     7
370
    15
100
AcDbLine
 10
2321.114419519085
 20
1067.311119772227
 30
0.0
 11
2321.677636386938
 21
1066.985981594043
 31
0.0
  0
ARC
  5
688
330
63F
100
AcDbEntity
  8
0
  6
Continuous
 62
     7
370
    15
100
AcDbCircle
 10
2321.667843574237
 20
1062.710338485852
 30
0.0
 40
4.275654322767111
100
AcDbArc
 50
61.84203393528699
 51
89.86877158781465
  0
LINE
  5
689
330
63F
100
AcDbEntity
  8
0
  6
Continuous
 62
     7
370
    15
100
AcDbLine
 10
2326.160416057994
 20
1065.051254463413
 30
0.0
 11
2323.685542322073
 21
1066.479968660123
 31
0.0
  0
LINE
  5
68A
330
63F
100
AcDbEntity
  8
0
  6
Continuous
 62
     7
370
    15
100
AcDbLine
 10
2325.453309276808
 20
1064.643050407501
 30
0.0
 11
2326.160416057994
 21
1065.051254463413
 31
0.0
  0
LINE
  5
68B
330
63F
100
AcDbEntity
  8
0
  6
Continuous
 62
     7
370
    15
100
AcDbLine
 10
2324.440812990893
 20
1064.915608009811
 30
0.0
 11
2325.453309276808
 21
1064.643050407501
 31
0.0
  0
LINE
  5
68C
330
63F
100
AcDbEntity
  8
0
  6
Continuous
 62
     7
370
    15
100
AcDbLine
 10
2323.246777107466
 20
1065.504922991953
 30
0.0
 11
2324.440812990893
 21
1064.915608009811
 31
0.0
  0
LINE
  5
68D
330
63F
100
AcDbEntity
  8
0
  6
Continuous
 62
     7
370
    15
100
AcDbLine
 10
2319.442901634954
 20
1063.214203512769
 30
0.0
 11
2320.714714821074
 21
1062.480001388354
 31
0.0
  0
LINE
  5
68E
330
63F
100
AcDbEntity
  8
0
  6
Continuous
 62
     7
370
    15
100
AcDbLine
 10
2319.442901634954
 20
1063.214203512769
 30
0.0
 11
2319.442901634954
 21
1064.030744324655
 31
0.0
  0
LINE
  5
68F
330
63F
100
AcDbEntity
  8
0
  6
Continuous
 62
     7
370
    15
100
AcDbLine
 10
2321.917775370875
 20
1062.030451559625
 30
0.0
 11
2321.917775370875
 21
1062.602030127945
 31
0.0
  0
LINE
  5
690
330
63F
100
AcDbEntity
  8
0
  6
Continuous
 62
     7
370
    15
100
AcDbLine
 10
2321.917775370875
 20
1062.030451559625
 30
0.0
 11
2320.714714821074
 21
1062.480001388354
 31
0.0
  0
LINE
  5
691
330
63F
100
AcDbEntity
  8
0
  6
Continuous
 62
     7
370
    15
100
AcDbLine
 10
2322.624882152062
 20
1062.438655615536
 30
0.0
 11
2322.624882152062
 21
1063.010234183856
 31
0.0
  0
LINE
  5
692
330
63F
100
AcDbEntity
  8
0
  6
Continuous
 62
     7
370
    15
100
AcDbLine
 10
2322.624882152062
 20
1062.438655615536
 30
0.0
 11
2321.917775370875
 21
1062.030451559625
 31
0.0
  0
LINE
  5
693
330
63F
100
AcDbEntity
  8
0
  6
Continuous
 62
     7
370
    15
100
AcDbLine
 10
2317.260722040858
 20
1068.944580603166
 30
0.0
 11
2315.422244409774
 21
1070.005911148536
 31
0.0
  0
LINE
  5
694
330
63F
100
AcDbEntity
  8
0
  6
Continuous
 62
     7
370
    15
100
AcDbLine
 10
2315.422244409774
 20
1070.005911148536
 30
0.0
 11
2315.59902110507
 21
1070.107962162513
 31
0.0
  0
LINE
  5
695
330
63F
100
AcDbEntity
  8
0
  6
Continuous
 62
     7
370
    15
100
AcDbLine
 10
2317.260722040858
 20
1068.005558669498
 30
0.0
 11
2315.422244409774
 21
1069.066889214867
 31
0.0
  0
LINE
  5
696
330
63F
100
AcDbEntity
  8
0
  6
Continuous
 62
     7
370
    15
100
AcDbLine
 10
2315.422244409774
 20
1069.066889214867
 30
0.0
 11
2315.422244409774
 21
1070.005911148536
 31
0.0
  0
LINE
  5
697
330
63F
100
AcDbEntity
  8
0
  6
Continuous
 62
     7
370
    15
100
AcDbLine
 10
2315.59902110507
 20
1066.249809131301
 30
0.0
 11
2317.437498736155
 21
1065.188478585932
 31
0.0
  0
LINE
  5
698
330
63F
100
AcDbEntity
  8
0
  6
Continuous
 62
     7
370
    15
100
AcDbLine
 10
2315.59902110507
 20
1068.964838200889
 30
0.0
 11
2315.59902110507
 21
1066.249809131301
 31
0.0
  0
LINE
  5
699
330
63F
100
AcDbEntity
  8
0
  6
Continuous
 62
     7
370
    15
100
AcDbLine
 10
2318.566366549611
 20
1064.373342937769
 30
0.0
 11
2318.566366549611
 21
1065.189883749655
 31
0.0
  0
ARC
  5
69A
330
63F
100
AcDbEntity
  8
0
  6
Continuous
 62
     7
370
    15
100
AcDbCircle
 10
2320.095014355558
 20
1064.618312997201
 30
0.0
 40
1.548151944947189
100
AcDbArc
 50
189.1043980343615
 51
245.0883583651284
  0
LINE
  5
69B
330
63F
100
AcDbEntity
  8
0
  6
Continuous
 62
     7
370
    15
100
AcDbLine
 10
2320.265925862252
 20
1068.699298867672
 30
0.0
 11
2320.025494846998
 21
1069.948660187189
 31
0.0
  0
LINE
  5
69C
330
63F
100
AcDbEntity
  8
0
  6
Continuous
 62
     7
370
    15
100
AcDbLine
 10
2320.265925862252
 20
1068.699298867672
 30
0.0
 11
2318.993133654765
 21
1067.964531566253
 31
0.0
  0
LINE
  5
69D
330
63F
100
AcDbEntity
  8
0
  6
Continuous
 62
     7
370
    15
100
AcDbLine
 10
2327.991067444016
 20
1082.773733741979
 30
0.0
 11
2329.546702362626
 21
1076.159899135774
 31
0.0
  0
LINE
  5
69E
330
63F
100
AcDbEntity
  8
0
  6
Continuous
 62
     7
370
    15
100
AcDbLine
 10
2327.991067444016
 20
1077.057948058779
 30
0.0
 11
2329.546702362626
 21
1076.159899135774
 31
0.0
  0
LINE
  5
69F
330
63F
100
AcDbEntity
  8
0
  6
Continuous
 62
     7
370
    15
100
AcDbLine
 10
2328.83959558144
 20
1083.263578609073
 30
0.0
 11
2330.39523050005
 21
1076.649744002868
 31
0.0
  0
LINE
  5
6A0
330
63F
100
AcDbEntity
  8
0
  6
Continuous
 62
     7
370
    15
100
AcDbLine
 10
2330.39523050005
 20
1076.649744002868
 30
0.0
 11
2329.546702362626
 21
1076.159899135774
 31
0.0
  0
LINE
  5
6A1
330
63F
100
AcDbEntity
  8
0
  6
Continuous
 62
     7
370
    15
100
AcDbLine
 10
2323.246777107466
 20
1064.688382180068
 30
0.0
 11
2323.246777107466
 21
1065.504922991953
 31
0.0
  0
ARC
  5
6A2
330
63F
100
AcDbEntity
  8
0
  6
Continuous
 62
     7
370
    15
100
AcDbCircle
 10
2322.295486919217
 20
1062.747808145659
 30
0.0
 40
2.161198881472981
100
AcDbArc
 50
63.88541115236384
 51
128.530064830191
  0
LINE
  5
6A3
330
63F
100
AcDbEntity
  8
0
  6
Continuous
 62
     7
370
    15
100
AcDbLine
 10
2325.453309276808
 20
1064.643050407501
 30
0.0
 11
2325.453309276808
 21
1064.071471839181
 31
0.0
  0
LINE
  5
6A4
330
63F
100
AcDbEntity
  8
0
  6
Continuous
 62
     7
370
    15
100
AcDbLine
 10
2324.440812990893
 20
1064.192882205025
 30
0.0
 11
2325.453309276808
 21
1064.071471839181
 31
0.0
  0
LINE
  5
6A5
330
63F
100
AcDbEntity
  8
0
  6
Continuous
 62
     7
370
    15
100
AcDbLine
 10
2324.440812990893
 20
1064.192882205025
 30
0.0
 11
2324.440812990893
 21
1064.915608009811
 31
0.0
  0
LINE
  5
6A6
330
63F
100
AcDbEntity
  8
0
  6
Continuous
 62
     7
370
    15
100
AcDbLine
 10
2326.160416057994
 20
1064.479675895093
 30
0.0
 11
2326.160416057994
 21
1065.051254463413
 31
0.0
  0
LINE
  5
6A7
330
63F
100
AcDbEntity
  8
0
  6
Continuous
 62
     7
370
    15
100
AcDbLine
 10
2326.160416057994
 20
1064.479675895093
 30
0.0
 11
2325.453309276808
 21
1064.071471839181
 31
0.0
  0
LINE
  5
6A8
330
63F
100
AcDbEntity
  8
0
  6
Continuous
 62
     7
370
    15
100
AcDbLine
 10
2324.440812990893
 20
1064.192882205025
 30
0.0
 11
2323.944037927733
 21
1064.344249936182
 31
0.0
  0
LINE
  5
6A9
330
63F
100
AcDbEntity
  8
0
  6
Continuous
 62
     7
370
    15
100
AcDbLine
 10
2323.246777107466
 20
1064.688382180068
 30
0.0
 11
2323.944037927733
 21
1064.344249936182
 31
0.0
  0
LINE
  5
6AA
330
63F
100
AcDbEntity
  8
0
  6
Continuous
 62
     7
370
    15
100
AcDbLine
 10
2320.248251065944
 20
1068.79114312002
 30
0.0
 11
2320.548768573376
 21
1068.617658055713
 31
0.0
  0
ARC
  5
6AB
330
63F
100
AcDbEntity
  8
0
  6
Continuous
 62
     7
370
    15
100
AcDbCircle
 10
2318.637899317904
 20
1066.206442119746
 30
0.0
 40
1.623827264144138
100
AcDbArc
 50
215.8571596458651
 51
238.5661979385033
  0
LINE
  5
6AC
330
63F
100
AcDbEntity
  8
0
  6
Continuous
 62
     7
370
    15
100
AcDbLine
 10
2318.566366549611
 20
1064.373342937769
 30
0.0
 11
2317.791052128103
 21
1064.820922426308
 31
0.0
  0
LINE
  5
6AD
330
63F
100
AcDbEntity
  8
0
  6
Continuous
 62
     7
370
    15
100
AcDbLine
 10
2322.104403491986
 20
1073.006210959484
 30
0.0
 11
2323.200419002825
 21
1072.373494672821
 31
0.0
  0
LINE
  5
6AE
330
63F
100
AcDbEntity
  8
0
  6
Continuous
 62
     7
370
    15
100
AcDbLine
 10
2326.877339782074
 20
1070.637982825778
 30
0.0
 11
2327.440556649449
 21
1070.312844649002
 31
0.0
  0
ARC
  5
6AF
330
63F
100
AcDbEntity
  8
0
  6
Continuous
 62
     7
370
    15
100
AcDbCircle
 10
2327.430763839117
 20
1066.037201539462
 30
0.0
 40
4.275654324112114
100
AcDbArc
 50
61.84203393824196
 51
89.86877161960197
  0
LINE
  5
6B0
330
63F
100
AcDbEntity
  8
0
  6
Continuous
 62
     7
370
    15
100
AcDbLine
 10
2329.448462587395
 20
1069.806831715022
 30
0.0
 11
2331.923336323316
 21
1068.378117518312
 31
0.0
  0
LINE
  5
6B1
330
63F
100
AcDbEntity
  8
0
  6
Continuous
 62
     7
370
    15
100
AcDbLine
 10
2331.923336323316
 20
1068.378117518312
 30
0.0
 11
2331.21622954213
 21
1067.9699134624
 31
0.0
  0
LINE
  5
6B2
330
63F
100
AcDbEntity
  8
0
  6
Continuous
 62
     7
370
    15
100
AcDbLine
 10
2331.21622954213
 20
1067.9699134624
 30
0.0
 11
2330.203733256215
 21
1068.242471064711
 31
0.0
  0
LINE
  5
6B3
330
63F
100
AcDbEntity
  8
0
  6
Continuous
 62
     7
370
    15
100
AcDbLine
 10
2330.203733256215
 20
1068.242471064711
 30
0.0
 11
2329.009697372788
 21
1068.831786046853
 31
0.0
  0
LWPOLYLINE
  5
6B4
330
63F
100
AcDbEntity
  8
0
  6
Continuous
 62
     7
370
    15
100
AcDbPolyline
 90
       26
 70
   128
 43
0.0
 10
2329.009697372788
 20
1068.831786046853
 10
2328.866924555952
 20
1068.894137409315
 10
2328.712300928626
 20
1068.946225322216
 10
2328.548028996644
 20
1068.987307829529
 10
2328.37644869922
 20
1069.016799739561
 10
2328.200004078137
 20
1069.034280960604
 10
2328.021208464084
 20
1069.039502484844
 10
2327.842608676004
 20
1069.032389935306
 10
2327.666748743437
 20
1069.013044625303
 10
2327.496133668587
 20
1068.981742115296
 10
2327.333193744318
 20
1068.938928287731
 10
2327.180249936321
 20
1068.885212995749
 10
2327.039480822574
 20
1068.821361376258
 10
2326.91289156102
 20
1068.748282951088
 10
2326.802285327486
 20
1068.667018671487
 10
2326.709237630703
 20
1068.578726090496
 10
2326.63507387028
 20
1068.484662874412
 10
2326.580850457307
 20
1068.386168888208
 10
2326.547339766523
 20
1068.28464711009
 10
2326.535019134368
 20
1068.181543647051
 10
2326.544064059663
 20
1068.078327136083
 10
2326.574345703749
 20
1067.976467824467
 10
2326.625432725705
 20
1067.877416627124
 10
2326.696597426501
 20
1067.782584459347
 10
2326.786826114556
 20
1067.693322139288
 10
2326.894833546524
 20
1067.610901147216
  0
LINE
  5
6B5
330
63F
100
AcDbEntity
  8
0
  6
Continuous
 62
     7
370
    15
100
AcDbLine
 10
2327.915667646756
 20
1066.921598903924
 30
0.0
 11
2326.894833546524
 21
1067.610901147216
 31
0.0
  0
LINE
  5
6B6
330
63F
100
AcDbEntity
  8
0
  6
Continuous
 62
     7
370
    15
100
AcDbLine
 10
2328.387802418732
 20
1066.337097239534
 30
0.0
 11
2327.915667646756
 21
1066.921598903924
 31
0.0
  0
LINE
  5
6B7
330
63F
100
AcDbEntity
  8
0
  6
Continuous
 62
     7
370
    15
100
AcDbLine
 10
2327.680695637545
 20
1065.928893183622
 30
0.0
 11
2328.387802418732
 21
1066.337097239534
 31
0.0
  0
LINE
  5
6B8
330
63F
100
AcDbEntity
  8
0
  6
Continuous
 62
     7
370
    15
100
AcDbLine
 10
2325.205821901624
 20
1067.357607380333
 30
0.0
 11
2327.680695637545
 21
1065.928893183622
 31
0.0
  0
ARC
  5
6B9
330
63F
100
AcDbEntity
  8
0
  6
Continuous
 62
     7
370
    15
100
AcDbCircle
 10
2325.857934622229
 20
1068.761716864765
 30
0.0
 40
1.548151944948917
100
AcDbArc
 50
189.1043980344042
 51
245.0883583650993
  0
LINE
  5
6BA
330
63F
100
AcDbEntity
  8
0
  6
Continuous
 62
     7
370
    15
100
AcDbLine
 10
2323.766069948906
 20
1068.841884982107
 30
0.0
 11
2324.329286816281
 21
1068.516746805332
 31
0.0
  0
LINE
  5
6BB
330
63F
100
AcDbEntity
  8
0
  6
Continuous
 62
     7
370
    15
100
AcDbLine
 10
2325.205821901624
 20
1067.357607380333
 30
0.0
 11
2325.205821901624
 21
1066.541066568447
 31
0.0
  0
LINE
  5
6BC
330
63F
100
AcDbEntity
  8
0
  6
Continuous
 62
     7
370
    15
100
AcDbLine
 10
2327.680695637545
 20
1065.928893183622
 30
0.0
 11
2327.680695637545
 21
1065.357314615302
 31
0.0
  0
LINE
  5
6BD
330
63F
100
AcDbEntity
  8
0
  6
Continuous
 62
     7
370
    15
100
AcDbLine
 10
2326.477635087744
 20
1065.806864444031
 30
0.0
 11
2327.680695637545
 21
1065.357314615302
 31
0.0
  0
LINE
  5
6BE
330
63F
100
AcDbEntity
  8
0
  6
Continuous
 62
     7
370
    15
100
AcDbLine
 10
2325.205821901624
 20
1066.541066568447
 30
0.0
 11
2326.477635087744
 21
1065.806864444031
 31
0.0
  0
LINE
  5
6BF
330
63F
100
AcDbEntity
  8
0
  6
Continuous
 62
     7
370
    15
100
AcDbLine
 10
2328.387802418732
 20
1065.765518671213
 30
0.0
 11
2328.387802418732
 21
1066.337097239534
 31
0.0
  0
LINE
  5
6C0
330
63F
100
AcDbEntity
  8
0
  6
Continuous
 62
     7
370
    15
100
AcDbLine
 10
2327.680695637545
 20
1065.357314615302
 30
0.0
 11
2328.387802418732
 21
1065.765518671213
 31
0.0
  0
LINE
  5
6C1
330
63F
100
AcDbEntity
  8
0
  6
Continuous
 62
     7
370
    15
100
AcDbLine
 10
2323.02364230618
 20
1071.332421724397
 30
0.0
 11
2322.104403491987
 21
1071.863086996303
 31
0.0
  0
LINE
  5
6C2
330
63F
100
AcDbEntity
  8
0
  6
Continuous
 62
     7
370
    15
100
AcDbLine
 10
2323.02364230618
 20
1072.271443658065
 30
0.0
 11
2322.104403491986
 21
1072.802108929971
 31
0.0
  0
ARC
  5
6C3
330
63F
100
AcDbEntity
  8
0
  6
Continuous
 62
     7
370
    15
100
AcDbCircle
 10
2330.129772431238
 20
1084.365062224121
 30
0.0
 40
1.965958241972188
100
AcDbArc
 50
64.91782968143461
 51
126.3926287476763
  0
LINE
  5
6C4
330
63F
100
AcDbEntity
  8
0
  6
Continuous
 62
     7
370
    15
100
AcDbLine
 10
2322.104403491988
 20
1069.85520301459
 30
0.0
 11
2323.200419002828
 21
1069.222486727927
 31
0.0
  0
LINE
  5
6C5
330
63F
100
AcDbEntity
  8
0
  6
Continuous
 62
     7
370
    15
100
AcDbLine
 10
2324.329286816281
 20
1068.516746805332
 30
0.0
 11
2324.329286816281
 21
1067.700205993446
 31
0.0
  0
ARC
  5
6C6
330
63F
100
AcDbEntity
  8
0
  6
Continuous
 62
     7
370
    15
100
AcDbCircle
 10
2325.857934622229
 20
1067.945176052879
 30
0.0
 40
1.548151944948976
100
AcDbArc
 50
189.1043980344042
 51
245.0883583650993
  0
LINE
  5
6C7
330
63F
100
AcDbEntity
  8
0
  6
Continuous
 62
     7
370
    15
100
AcDbLine
 10
2326.028846127573
 20
1072.026161922572
 30
0.0
 11
2325.78841511232
 21
1073.275523242089
 31
0.0
  0
LINE
  5
6C8
330
63F
100
AcDbEntity
  8
0
  6
Continuous
 62
     7
370
    15
100
AcDbLine
 10
2326.028846127573
 20
1072.026161922572
 30
0.0
 11
2324.756053921436
 21
1071.29139462193
 31
0.0
  0
LINE
  5
6C9
330
63F
100
AcDbEntity
  8
0
  6
Continuous
 62
     7
370
    15
100
AcDbLine
 10
2329.009697372788
 20
1068.015245234967
 30
0.0
 11
2329.009697372788
 21
1068.831786046853
 31
0.0
  0
ARC
  5
6CA
330
63F
100
AcDbEntity
  8
0
  6
Continuous
 62
     7
370
    15
100
AcDbCircle
 10
2328.054666175358
 20
1066.109064512901
 30
0.0
 40
2.132043511103838
100
AcDbArc
 50
63.38829786796012
 51
129.0271781198012
  0
LINE
  5
6CB
330
63F
100
AcDbEntity
  8
0
  6
Continuous
 62
     7
370
    15
100
AcDbLine
 10
2322.104403491988
 20
1069.556261984182
 30
0.0
 11
2323.553972393421
 21
1068.719443669563
 31
0.0
  0
LINE
  5
6CC
330
63F
100
AcDbEntity
  8
0
  6
Continuous
 62
     7
370
    15
100
AcDbLine
 10
2330.203733256215
 20
1068.242471064711
 30
0.0
 11
2330.203733256215
 21
1067.519745259924
 31
0.0
  0
LINE
  5
6CD
330
63F
100
AcDbEntity
  8
0
  6
Continuous
 62
     7
370
    15
100
AcDbLine
 10
2331.21622954213
 20
1067.398334894081
 30
0.0
 11
2331.21622954213
 21
1067.9699134624
 31
0.0
  0
LINE
  5
6CE
330
63F
100
AcDbEntity
  8
0
  6
Continuous
 62
     7
370
    15
100
AcDbLine
 10
2331.21622954213
 20
1067.398334894081
 30
0.0
 11
2330.203733256215
 21
1067.519745259924
 31
0.0
  0
LINE
  5
6CF
330
63F
100
AcDbEntity
  8
0
  6
Continuous
 62
     7
370
    15
100
AcDbLine
 10
2331.923336323316
 20
1068.378117518312
 30
0.0
 11
2331.923336323316
 21
1067.806538949992
 31
0.0
  0
LINE
  5
6D0
330
63F
100
AcDbEntity
  8
0
  6
Continuous
 62
     7
370
    15
100
AcDbLine
 10
2331.21622954213
 20
1067.398334894081
 30
0.0
 11
2331.923336323316
 21
1067.806538949992
 31
0.0
  0
LINE
  5
6D1
330
63F
100
AcDbEntity
  8
0
  6
Continuous
 62
     7
370
    15
100
AcDbLine
 10
2330.203733256215
 20
1067.519745259924
 30
0.0
 11
2329.706958193055
 21
1067.671112991081
 31
0.0
  0
LINE
  5
6D2
330
63F
100
AcDbEntity
  8
0
  6
Continuous
 62
     7
370
    15
100
AcDbLine
 10
2329.706958193055
 20
1067.671112991081
 30
0.0
 11
2329.009697372788
 21
1068.015245234967
 31
0.0
  0
LINE
  5
6D3
330
63F
100
AcDbEntity
  8
0
  6
Continuous
 62
     7
370
    15
100
AcDbLine
 10
2326.011171331265
 20
1072.118006174919
 30
0.0
 11
2326.311688838698
 21
1071.944521110612
 31
0.0
  0
ARC
  5
6D4
330
63F
100
AcDbEntity
  8
0
  6
Continuous
 62
     7
370
    15
100
AcDbCircle
 10
2324.564024738488
 20
1069.714974530465
 30
0.0
 40
1.864480423795053
100
AcDbArc
 50
197.1637395580161
 51
237.1982455143566
  0
LINE
  5
6D5
330
63F
100
AcDbEntity
  8
0
  6
Continuous
 62
     7
370
    15
100
AcDbLine
 10
2323.553972394773
 20
1068.147785481986
 30
0.0
 11
2324.329286816281
 21
1067.700205993446
 31
0.0
  0
LINE
  5
6D6
330
63F
100
AcDbEntity
  8
0
  6
Continuous
 62
     7
370
    15
100
AcDbLine
 10
2328.96333926815
 20
1072.549349782826
 30
0.0
 11
2327.86732375731
 21
1073.18206606949
 31
0.0
  0
LINE
  5
6D7
330
63F
100
AcDbEntity
  8
0
  6
Continuous
 62
     7
370
    15
100
AcDbLine
 10
2328.044100453953
 20
1075.169692455814
 30
0.0
 11
2327.867323757308
 21
1075.27174347057
 31
0.0
  0
LINE
  5
6D8
330
63F
100
AcDbEntity
  8
0
  6
Continuous
 62
     7
370
    15
100
AcDbLine
 10
2332.240555353067
 20
1069.13372749893
 30
0.0
 11
2330.968742166946
 21
1069.867929623346
 31
0.0
  0
LINE
  5
6D9
330
63F
100
AcDbEntity
  8
0
  6
Continuous
 62
     7
370
    15
100
AcDbLine
 10
2330.968742166946
 20
1069.867929623346
 30
0.0
 11
2330.968742166946
 21
1070.684470435232
 31
0.0
  0
LINE
  5
6DA
330
63F
100
AcDbEntity
  8
0
  6
Continuous
 62
     7
370
    15
100
AcDbLine
 10
2333.443615902867
 20
1069.255756238521
 30
0.0
 11
2330.968742166946
 21
1070.684470435232
 31
0.0
  0
LINE
  5
6DB
330
63F
100
AcDbEntity
  8
0
  6
Continuous
 62
     7
370
    15
100
AcDbLine
 10
2333.443615902867
 20
1068.684177670201
 30
0.0
 11
2333.443615902867
 21
1069.255756238521
 31
0.0
  0
LINE
  5
6DC
330
63F
100
AcDbEntity
  8
0
  6
Continuous
 62
     7
370
    15
100
AcDbLine
 10
2333.443615902867
 20
1068.684177670201
 30
0.0
 11
2332.240555353067
 21
1069.13372749893
 31
0.0
  0
LINE
  5
6DD
330
63F
100
AcDbEntity
  8
0
  6
Continuous
 62
     7
370
    15
100
AcDbLine
 10
2334.150722684054
 20
1069.663960294433
 30
0.0
 11
2333.443615902867
 21
1069.255756238521
 31
0.0
  0
LINE
  5
6DE
330
63F
100
AcDbEntity
  8
0
  6
Continuous
 62
     7
370
    15
100
AcDbLine
 10
2334.150722684054
 20
1069.663960294433
 30
0.0
 11
2334.150722684054
 21
1069.092381726113
 31
0.0
  0
LINE
  5
6DF
330
63F
100
AcDbEntity
  8
0
  6
Continuous
 62
     7
370
    15
100
AcDbLine
 10
2334.150722684054
 20
1069.092381726113
 30
0.0
 11
2333.443615902867
 21
1068.684177670201
 31
0.0
  0
LINE
  5
6E0
330
63F
100
AcDbEntity
  8
0
  6
Continuous
 62
     7
370
    15
100
AcDbLine
 10
2333.678587912078
 20
1070.248461958824
 30
0.0
 11
2334.150722684054
 21
1069.663960294433
 31
0.0
  0
ARC
  5
6E1
330
63F
100
AcDbEntity
  8
0
  6
Continuous
 62
     7
370
    15
100
AcDbCircle
 10
2331.620854888302
 20
1072.088579920436
 30
0.0
 40
1.548151945964602
100
AcDbArc
 50
189.1043981180913
 51
245.088358351915
  0
LINE
  5
6E2
330
63F
100
AcDbEntity
  8
0
  6
Continuous
 62
     7
370
    15
100
AcDbLine
 10
2329.528990211893
 20
1072.168748035659
 30
0.0
 11
2330.092207081709
 21
1071.843609858609
 31
0.0
  0
LINE
  5
6E3
330
63F
100
AcDbEntity
  8
0
  6
Continuous
 62
     7
370
    15
100
AcDbLine
 10
2333.20347691612
 20
1073.63970770468
 30
0.0
 11
2332.640260048742
 21
1073.964845881457
 31
0.0
  0
ARC
  5
6E4
330
63F
100
AcDbEntity
  8
0
  6
Continuous
 62
     7
370
    15
100
AcDbCircle
 10
2333.193684105788
 20
1069.364064595138
 30
0.0
 40
4.275654324113285
100
AcDbArc
 50
61.84203393824196
 51
89.86877161957592
  0
LINE
  5
6E5
330
63F
100
AcDbEntity
  8
0
  6
Continuous
 62
     7
370
    15
100
AcDbLine
 10
2335.211382854066
 20
1073.1336947707
 30
0.0
 11
2337.686256589987
 21
1071.704980573989
 31
0.0
  0
LINE
  5
6E6
330
63F
100
AcDbEntity
  8
0
  6
Continuous
 62
     7
370
    15
100
AcDbLine
 10
2337.686256589987
 20
1071.704980573989
 30
0.0
 11
2336.9791498088
 21
1071.296776518078
 31
0.0
  0
LINE
  5
6E7
330
63F
100
AcDbEntity
  8
0
  6
Continuous
 62
     7
370
    15
100
AcDbLine
 10
2336.9791498088
 20
1071.296776518078
 30
0.0
 11
2335.966653522886
 21
1071.569334120388
 31
0.0
  0
LINE
  5
6E8
330
63F
100
AcDbEntity
  8
0
  6
Continuous
 62
     7
370
    15
100
AcDbLine
 10
2335.966653522886
 20
1071.569334120388
 30
0.0
 11
2334.772617639456
 21
1072.158649102531
 31
0.0
  0
LWPOLYLINE
  5
6E9
330
63F
100
AcDbEntity
  8
0
  6
Continuous
 62
     7
370
    15
100
AcDbPolyline
 90
       26
 70
   128
 43
0.0
 10
2334.772617639456
 20
1072.158649102531
 10
2334.629844822616
 20
1072.221000464995
 10
2334.475221195284
 20
1072.273088377897
 10
2334.310949263296
 20
1072.31417088521
 10
2334.139368965865
 20
1072.343662795242
 10
2333.962924344777
 20
1072.361144016284
 10
2333.784128730718
 20
1072.366365540522
 10
2333.605528942633
 20
1072.359252990981
 10
2333.42966901006
 20
1072.339907680974
 10
2333.259053935207
 20
1072.308605170963
 10
2333.096114010936
 20
1072.265791343392
 10
2332.943170202938
 20
1072.212076051405
 10
2332.802401089191
 20
1072.148224431908
 10
2332.675811827639
 20
1072.075146006732
 10
2332.565205594109
 20
1071.993881727125
 10
2332.472157897332
 20
1071.905589146128
 10
2332.397994136916
 20
1071.811525930038
 10
2332.343770723952
 20
1071.713031943829
 10
2332.310260033179
 20
1071.611510165707
 10
2332.297939401037
 20
1071.508406702664
 10
2332.306984326346
 20
1071.405190191693
 10
2332.337265970448
 20
1071.303330880075
 10
2332.38835299242
 20
1071.204279682732
 10
2332.459517693232
 20
1071.109447514955
 10
2332.549746381304
 20
1071.020185194898
 10
2332.657753811845
 20
1070.937764202116
  0
LINE
  5
6EA
330
63F
100
AcDbEntity
  8
0
  6
Continuous
 62
     7
370
    15
100
AcDbLine
 10
2332.657753811845
 20
1070.937764202116
 30
0.0
 11
2333.678587912078
 21
1070.248461958824
 31
0.0
  0
LINE
  5
6EB
330
63F
100
AcDbEntity
  8
0
  6
Continuous
 62
     7
370
    15
100
AcDbLine
 10
2330.092207081709
 20
1071.027069046723
 30
0.0
 11
2330.092207081709
 21
1071.843609858609
 31
0.0
  0
ARC
  5
6EC
330
63F
100
AcDbEntity
  8
0
  6
Continuous
 62
     7
370
    15
100
AcDbCircle
 10
2331.620854888302
 20
1071.27203910855
 30
0.0
 40
1.548151945964434
100
AcDbArc
 50
189.1043981180913
 51
245.088358351915
  0
LINE
  5
6ED
330
63F
100
AcDbEntity
  8
0
  6
Continuous
 62
     7
370
    15
100
AcDbLine
 10
2331.791766394244
 20
1075.353024978249
 30
0.0
 11
2331.55133537899
 21
1076.602386297766
 31
0.0
  0
LINE
  5
6EE
330
63F
100
AcDbEntity
  8
0
  6
Continuous
 62
     7
370
    15
100
AcDbLine
 10
2331.791766394244
 20
1075.353024978249
 30
0.0
 11
2330.518974186758
 21
1074.618257676829
 31
0.0
  0
LINE
  5
6EF
330
63F
100
AcDbEntity
  8
0
  6
Continuous
 62
     7
370
    15
100
AcDbLine
 10
2334.772617639456
 20
1071.342108290645
 30
0.0
 11
2334.772617639456
 21
1072.158649102531
 31
0.0
  0
ARC
  5
6F0
330
63F
100
AcDbEntity
  8
0
  6
Continuous
 62
     7
370
    15
100
AcDbCircle
 10
2333.81758644202
 20
1069.435927568541
 30
0.0
 40
2.132043511140994
100
AcDbArc
 50
63.38829786828056
 51
129.0271781166435
  0
LINE
  5
6F1
330
63F
100
AcDbEntity
  8
0
  6
Continuous
 62
     7
370
    15
100
AcDbLine
 10
2327.86732375731
 20
1072.883125039081
 30
0.0
 11
2329.316892658743
 21
1072.046306724462
 31
0.0
  0
LINE
  5
6F2
330
63F
100
AcDbEntity
  8
0
  6
Continuous
 62
     7
370
    15
100
AcDbLine
 10
2336.9791498088
 20
1070.725197949758
 30
0.0
 11
2336.9791498088
 21
1071.296776518078
 31
0.0
  0
LINE
  5
6F3
330
63F
100
AcDbEntity
  8
0
  6
Continuous
 62
     7
370
    15
100
AcDbLine
 10
2335.966653522886
 20
1070.846608315601
 30
0.0
 11
2336.9791498088
 21
1070.725197949758
 31
0.0
  0
LINE
  5
6F4
330
63F
100
AcDbEntity
  8
0
  6
Continuous
 62
     7
370
    15
100
AcDbLine
 10
2335.966653522886
 20
1071.569334120388
 30
0.0
 11
2335.966653522886
 21
1070.846608315601
 31
0.0
  0
LINE
  5
6F5
330
63F
100
AcDbEntity
  8
0
  6
Continuous
 62
     7
370
    15
100
AcDbLine
 10
2337.686256589987
 20
1071.133402005669
 30
0.0
 11
2337.686256589987
 21
1071.704980573989
 31
0.0
  0
LINE
  5
6F6
330
63F
100
AcDbEntity
  8
0
  6
Continuous
 62
     7
370
    15
100
AcDbLine
 10
2337.686256589987
 20
1071.133402005669
 30
0.0
 11
2336.9791498088
 21
1070.725197949758
 31
0.0
  0
LINE
  5
6F7
330
63F
100
AcDbEntity
  8
0
  6
Continuous
 62
     7
370
    15
100
AcDbLine
 10
2335.966653522886
 20
1070.846608315601
 30
0.0
 11
2335.469878459726
 21
1070.997976046759
 31
0.0
  0
LINE
  5
6F8
330
63F
100
AcDbEntity
  8
0
  6
Continuous
 62
     7
370
    15
100
AcDbLine
 10
2335.469878459726
 20
1070.997976046759
 30
0.0
 11
2334.772617639456
 21
1071.342108290645
 31
0.0
  0
LINE
  5
6F9
330
63F
100
AcDbEntity
  8
0
  6
Continuous
 62
     7
370
    15
100
AcDbLine
 10
2331.774091597936
 20
1075.444869230597
 30
0.0
 11
2332.074609105368
 21
1075.27138416629
 31
0.0
  0
ARC
  5
6FA
330
63F
100
AcDbEntity
  8
0
  6
Continuous
 62
     7
370
    15
100
AcDbCircle
 10
2330.326945001299
 20
1073.041837584043
 30
0.0
 40
1.864480424102186
100
AcDbArc
 50
197.1637394394101
 51
237.1982455133665
  0
LINE
  5
6FB
330
63F
100
AcDbEntity
  8
0
  6
Continuous
 62
     7
370
    15
100
AcDbLine
 10
2329.316892657391
 20
1071.474648535324
 30
0.0
 11
2330.092207081709
 21
1071.027069046723
 31
0.0
  0
LINE
  5
6FC
330
63F
100
AcDbEntity
  8
0
  6
Continuous
 62
     7
370
    15
100
AcDbLine
 10
2333.807020719275
 20
1078.496555510713
 30
0.0
 11
2333.630244023979
 21
1078.598606524691
 31
0.0
  0
ENDBLK
  5
641
330
63F
100
AcDbEntity
  8
0
100
AcDbBlockEnd
  0
ENDSEC
  0
SECTION
  2
ENTITIES
  0
INSERT
  5
5D3
330
1F
100
AcDbEntity
  8
0
100
AcDbBlockReference
  2
1
 10
0.0
 20
0.0
 30
0.0
  0
INSERT
  5
5F7
330
1F
100
AcDbEntity
  8
0
100
AcDbBlockReference
  2
2
 10
0.0
 20
0.0
 30
0.0
  0
INSERT
  5
63E
330
1F
100
AcDbEntity
  8
0
100
AcDbBlockReference
  2
3
 10
0.0
 20
0.0
 30
0.0
  0
INSERT
  5
6FD
330
1F
100
AcDbEntity
  8
0
100
AcDbBlockReference
  2
4
 10
0.0
 20
0.0
 30
0.0
  0
ENDSEC
  0
SECTION
  2
OBJECTS
  0
DICTIONARY
  5
C
330
0
100
AcDbDictionary
281
     1
  3
ACAD_COLOR
350
6B
  3
ACAD_GROUP
350
D
  3
ACAD_LAYOUT
350
1A
  3
ACAD_MATERIAL
350
6A
  3
ACAD_MLEADERSTYLE
350
12D
  3
ACAD_MLINESTYLE
350
17
  3
ACAD_PLOTSETTINGS
350
19
  3
ACAD_PLOTSTYLENAME
350
E
  3
ACAD_SCALELIST
350
10C
  3
ACAD_TABLESTYLE
350
7E
  3
ACAD_VISUALSTYLE
350
EF
  3
ACDB_RECOMPOSE_DATA
350
15D
  3
AcDbVariableDictionary
350
5E
  3
DWGPROPS
350
70B
  0
DICTIONARY
  5
13C
330
10
100
AcDbDictionary
280
     1
281
     1
  3
ADSK_XREC_LAYER_RECONCILED
360
6FE
  0
DICTIONARY
  5
6B
102
{ACAD_REACTORS
330
C
102
}
330
C
100
AcDbDictionary
281
     1
  0
DICTIONARY
  5
D
102
{ACAD_REACTORS
330
C
102
}
330
C
100
AcDbDictionary
281
     1
  0
DICTIONARY
  5
1A
102
{ACAD_REACTORS
330
C
102
}
330
C
100
AcDbDictionary
281
     1
  3
Layout1
350
D3
  3
Layout2
350
D7
  3
Model
350
22
  0
DICTIONARY
  5
6A
102
{ACAD_REACTORS
330
C
102
}
330
C
100
AcDbDictionary
281
     1
  3
ByBlock
350
ED
  3
ByLayer
350
EC
  3
Global
350
EE
  0
DICTIONARY
  5
12D
102
{ACAD_REACTORS
330
C
102
}
330
C
100
AcDbDictionary
281
     1
  3
Annotative
350
13B
  3
Standard
350
12E
  0
DICTIONARY
  5
17
102
{ACAD_REACTORS
330
C
102
}
330
C
100
AcDbDictionary
281
     1
  3
Standard
350
18
  0
DICTIONARY
  5
19
102
{ACAD_REACTORS
330
C
102
}
330
C
100
AcDbDictionary
281
     1
  0
ACDBDICTIONARYWDFLT
  5
E
102
{ACAD_REACTORS
330
C
102
}
330
C
100
AcDbDictionary
281
     1
  3
Normal
350
F
100
AcDbDictionaryWithDefault
340
F
  0
DICTIONARY
  5
10C
102
{ACAD_REACTORS
330
C
102
}
330
C
100
AcDbDictionary
281
     1
  3
A0
350
10D
  3
A1
350
188
  3
A2
350
189
  3
A3
350
18A
  3
A4
350
18B
  3
A5
350
18C
  3
A6
350
18D
  3
A7
350
18E
  3
A8
350
18F
  3
A9
350
190
  3
B0
350
191
  3
B1
350
192
  3
B2
350
193
  3
B3
350
194
  3
B4
350
195
  3
B5
350
196
  3
B6
350
197
  3
B7
350
198
  3
B8
350
199
  3
B9
350
19A
  3
C0
350
19B
  3
C1
350
19C
  3
C2
350
19D
  3
C3
350
19E
  3
C4
350
19F
  3
C5
350
1A0
  3
C6
350
1A1
  3
C7
350
1A2
  3
C8
350
1A3
  3
C9
350
1A4
  3
D0
350
1A5
  3
D1
350
1A6
  3
D2
350
1A7
  0
DICTIONARY
  5
7E
102
{ACAD_REACTORS
330
C
102
}
330
C
100
AcDbDictionary
281
     1
  3
Standard
350
7F
  0
DICTIONARY
  5
EF
102
{ACAD_REACTORS
330
C
102
}
330
C
100
AcDbDictionary
281
     1
  3
2dWireframe
350
F5
  3
3D Hidden
350
F7
  3
3dWireframe
350
F6
  3
Basic
350
F4
  3
Brighten
350
FB
  3
ColorChange
350
FF
  3
Conceptual
350
F8
  3
Dim
350
FA
  3
Facepattern
350
FE
  3
Flat
350
F0
  3
FlatWithEdges
350
F1
  3
Gouraud
350
F2
  3
GouraudWithEdges
350
F3
  3
Linepattern
350
FD
  3
Realistic
350
F9
  3
Thicken
350
FC
  0
XRECORD
  5
15D
102
{ACAD_REACTORS
330
C
102
}
330
C
100
AcDbXrecord
280
     1
 90
        1
330
7F
  0
DICTIONARY
  5
5E
102
{ACAD_REACTORS
330
C
102
}
330
C
100
AcDbDictionary
281
     1
  3
CANNOSCALE
350
146
  3
CMLEADERSTYLE
350
145
  3
CTABLESTYLE
350
84
  3
DIMASSOC
350
5F
  3
HIDETEXT
350
63
  3
INDEXCTL
350
707
  3
LIGHTINGUNITS
350
705
  3
MSLTSCALE
350
704
  3
PSOLHEIGHT
350
709
  3
PSOLWIDTH
350
708
  3
SORTENTS
350
706
  0
XRECORD
  5
70B
102
{ACAD_REACTORS
330
C
102
}
330
C
100
AcDbXrecord
280
     1
  1
DWGPROPS COOKIE
  2

  3

  4

  6

  7

  8
orhan kara
  9

300
=
301
=
302
=
303
=
304
=
305
=
306
=
307
=
308
=
309
=
 40
0.0005363888888889
 41
2458556.680855209
 42
2458956.454100209
  1

 90
        0
  0
XRECORD
  5
6FE
102
{ACAD_REACTORS
330
13C
102
}
330
13C
100
AcDbXrecord
280
     1
290
     1
  0
LAYOUT
  5
D3
102
{ACAD_XDICTIONARY
360
70F
102
}
102
{ACAD_REACTORS
330
1A
102
}
330
1A
100
AcDbPlotSettings
  1

  2
C:\Documents and Settings\basas\Application Data\Autodesk\AutoCAD 2005\R16.1\enu\plotters\Default Windows System Printer.pc3
  4

  6

 40
0.0
 41
0.0
 42
0.0
 43
0.0
 44
0.0
 45
0.0
 46
0.0
 47
0.0
 48
0.0
 49
0.0
140
0.0
141
0.0
142
1.0
143
1.0
 70
   688
 72
     0
 73
     0
 74
     5
  7

 75
    16
147
1.0
148
0.0
149
0.0
100
AcDbLayout
  1
Layout1
 70
     1
 71
     1
 10
0.0
 20
0.0
 11
12.0
 21
9.0
 12
0.0
 22
0.0
 32
0.0
 14
0.0
 24
0.0
 34
0.0
 15
0.0
 25
0.0
 35
0.0
146
0.0
 13
0.0
 23
0.0
 33
0.0
 16
1.0
 26
0.0
 36
0.0
 17
0.0
 27
1.0
 37
0.0
 76
     0
330
D2
  0
LAYOUT
  5
D7
102
{ACAD_XDICTIONARY
360
711
102
}
102
{ACAD_REACTORS
330
1A
102
}
330
1A
100
AcDbPlotSettings
  1

  2
C:\Documents and Settings\basas\Application Data\Autodesk\AutoCAD 2005\R16.1\enu\plotters\Default Windows System Printer.pc3
  4

  6

 40
0.0
 41
0.0
 42
0.0
 43
0.0
 44
0.0
 45
0.0
 46
0.0
 47
0.0
 48
0.0
 49
0.0
140
0.0
141
0.0
142
1.0
143
1.0
 70
   688
 72
     0
 73
     0
 74
     5
  7

 75
    16
147
1.0
148
0.0
149
0.0
100
AcDbLayout
  1
Layout2
 70
     1
 71
     2
 10
0.0
 20
0.0
 11
12.0
 21
9.0
 12
0.0
 22
0.0
 32
0.0
 14
0.0
 24
0.0
 34
0.0
 15
0.0
 25
0.0
 35
0.0
146
0.0
 13
0.0
 23
0.0
 33
0.0
 16
1.0
 26
0.0
 36
0.0
 17
0.0
 27
1.0
 37
0.0
 76
     0
330
D6
  0
LAYOUT
  5
22
102
{ACAD_XDICTIONARY
360
70C
102
}
102
{ACAD_REACTORS
330
1A
102
}
330
1A
100
AcDbPlotSettings
  1

  2
none_device
  4
ISO_A4_(210.00_x_297.00_MM)
  6

 40
7.5
 41
20.0
 42
7.5
 43
20.0
 44
210.0
 45
297.0
 46
11.54999923706054
 47
-13.65000009536743
 48
0.0
 49
0.0
140
0.0
141
0.0
142
1.0
143
8.704084754739808
 70
 11952
 72
     1
 73
     0
 74
     0
  7

 75
     0
147
0.1148885871608098
148
0.0
149
0.0
100
AcDbLayout
  1
Model
 70
     1
 71
     0
 10
0.0
 20
0.0
 11
12.0
 21
9.0
 12
0.0
 22
0.0
 32
0.0
 14
0.0
 24
0.0
 34
0.0
 15
0.0
 25
0.0
 35
0.0
146
0.0
 13
0.0
 23
0.0
 33
0.0
 16
1.0
 26
0.0
 36
0.0
 17
0.0
 27
1.0
 37
0.0
 76
     0
330
1F
331
EA
1001
ACAD_PSEXT
1000
None
1000
None
1000
Not applicable
1000
The layout will not be plotted unless a new plotter configuration name is selected.
1070
     0
  0
MATERIAL
  5
ED
102
{ACAD_XDICTIONARY
360
715
102
}
102
{ACAD_REACTORS
330
6A
102
}
330
6A
100
AcDbMaterial
  1
ByBlock
  0
MATERIAL
  5
EC
102
{ACAD_XDICTIONARY
360
713
102
}
102
{ACAD_REACTORS
330
6A
102
}
330
6A
100
AcDbMaterial
  1
ByLayer
  0
MATERIAL
  5
EE
102
{ACAD_XDICTIONARY
360
173
102
}
102
{ACAD_REACTORS
330
6A
102
}
330
6A
100
AcDbMaterial
  1
Global
 43
0.0007999999797903
 43
0.0
 43
0.0
 43
0.0
 43
0.0
 43
0.0007999999797903
 43
0.0
 43
0.0
 43
0.0
 43
0.0
 43
1.0
 43
0.0
 43
0.0
 43
0.0
 43
0.0
 43
1.0
 49
0.0007999999797903
 49
0.0
 49
0.0
 49
0.0
 49
0.0
 49
0.0007999999797903
 49
0.0
 49
0.0
 49
0.0
 49
0.0
 49
1.0
 49
0.0
 49
0.0
 49
0.0
 49
0.0
 49
1.0
142
0.0007999999797903
142
0.0
142
0.0
142
0.0
142
0.0
142
0.0007999999797903
142
0.0
142
0.0
142
0.0
142
0.0
142
1.0
142
0.0
142
0.0
142
0.0
142
0.0
142
1.0
144
0.0007999999797903
144
0.0
144
0.0
144
0.0
144
0.0
144
0.0007999999797903
144
0.0
144
0.0
144
0.0
144
0.0
144
1.0
144
0.0
144
0.0
144
0.0
144
0.0
144
1.0
1001
ACAD
1070
    -1
1070
     3
1070
     0
1000

1071
        0
1070
     0
  0
MLEADERSTYLE
  5
13B
102
{ACAD_REACTORS
330
12D
102
}
330
12D
100
AcDbMLeaderStyle
170
     2
171
     1
172
     0
 90
        2
 40
0.0
 41
0.0
173
     1
 91
-1056964608
340
14
 92
       -2
290
     1
 42
2.0
291
     1
 43
8.0
  3
Standard
 44
4.0
300

342
11
174
     1
178
     1
175
     1
176
     0
 93
-1056964608
 45
4.0
292
     0
297
     0
 46
4.0
 94
-1056964608
 47
1.0
 49
1.0
140
1.0
293
     1
141
0.0
294
     1
177
     0
142
1.0
295
     0
296
     1
143
3.75
1001
ACAD_MLEADERVER
1070
     2
  0
MLEADERSTYLE
  5
12E
102
{ACAD_REACTORS
330
12D
102
}
330
12D
100
AcDbMLeaderStyle
170
     2
171
     1
172
     0
 90
        2
 40
0.0
 41
0.0
173
     1
 91
-1056964608
340
14
 92
       -2
290
     1
 42
2.0
291
     1
 43
8.0
  3
Standard
 44
4.0
300

342
11
174
     1
178
     1
175
     1
176
     0
 93
-1056964608
 45
4.0
292
     0
297
     0
 46
4.0
 94
-1056964608
 47
1.0
 49
1.0
140
1.0
293
     1
141
0.0
294
     1
177
     0
142
1.0
295
     0
296
     0
143
3.75
1001
ACAD_MLEADERVER
1070
     2
  0
MLINESTYLE
  5
18
102
{ACAD_REACTORS
330
17
102
}
330
17
100
AcDbMlineStyle
  2
STANDARD
 70
     0
  3

 62
   256
 51
90.0
 52
90.0
 71
     2
 49
0.5
 62
   256
  6
BYLAYER
 49
-0.5
 62
   256
  6
BYLAYER
  0
ACDBPLACEHOLDER
  5
F
102
{ACAD_REACTORS
330
E
102
}
330
E
  0
SCALE
  5
10D
102
{ACAD_REACTORS
330
10C
102
}
330
10C
100
AcDbScale
 70
     0
300
1:1
140
1.0
141
1.0
290
     1
  0
SCALE
  5
188
102
{ACAD_REACTORS
330
10C
102
}
330
10C
100
AcDbScale
 70
     0
300
1:2
140
1.0
141
2.0
290
     0
  0
SCALE
  5
189
102
{ACAD_REACTORS
330
10C
102
}
330
10C
100
AcDbScale
 70
     0
300
1:4
140
1.0
141
4.0
290
     0
  0
SCALE
  5
18A
102
{ACAD_REACTORS
330
10C
102
}
330
10C
100
AcDbScale
 70
     0
300
1:5
140
1.0
141
5.0
290
     0
  0
SCALE
  5
18B
102
{ACAD_REACTORS
330
10C
102
}
330
10C
100
AcDbScale
 70
     0
300
1:8
140
1.0
141
8.0
290
     0
  0
SCALE
  5
18C
102
{ACAD_REACTORS
330
10C
102
}
330
10C
100
AcDbScale
 70
     0
300
1:10
140
1.0
141
10.0
290
     0
  0
SCALE
  5
18D
102
{ACAD_REACTORS
330
10C
102
}
330
10C
100
AcDbScale
 70
     0
300
1:16
140
1.0
141
16.0
290
     0
  0
SCALE
  5
18E
102
{ACAD_REACTORS
330
10C
102
}
330
10C
100
AcDbScale
 70
     0
300
1:20
140
1.0
141
20.0
290
     0
  0
SCALE
  5
18F
102
{ACAD_REACTORS
330
10C
102
}
330
10C
100
AcDbScale
 70
     0
300
1:30
140
1.0
141
30.0
290
     0
  0
SCALE
  5
190
102
{ACAD_REACTORS
330
10C
102
}
330
10C
100
AcDbScale
 70
     0
300
1:40
140
1.0
141
40.0
290
     0
  0
SCALE
  5
191
102
{ACAD_REACTORS
330
10C
102
}
330
10C
100
AcDbScale
 70
     0
300
1:50
140
1.0
141
50.0
290
     0
  0
SCALE
  5
192
102
{ACAD_REACTORS
330
10C
102
}
330
10C
100
AcDbScale
 70
     0
300
1:100
140
1.0
141
100.0
290
     0
  0
SCALE
  5
193
102
{ACAD_REACTORS
330
10C
102
}
330
10C
100
AcDbScale
 70
     0
300
2:1
140
2.0
141
1.0
290
     0
  0
SCALE
  5
194
102
{ACAD_REACTORS
330
10C
102
}
330
10C
100
AcDbScale
 70
     0
300
4:1
140
4.0
141
1.0
290
     0
  0
SCALE
  5
195
102
{ACAD_REACTORS
330
10C
102
}
330
10C
100
AcDbScale
 70
     0
300
8:1
140
8.0
141
1.0
290
     0
  0
SCALE
  5
196
102
{ACAD_REACTORS
330
10C
102
}
330
10C
100
AcDbScale
 70
     0
300
10:1
140
10.0
141
1.0
290
     0
  0
SCALE
  5
197
102
{ACAD_REACTORS
330
10C
102
}
330
10C
100
AcDbScale
 70
     0
300
100:1
140
100.0
141
1.0
290
     0
  0
SCALE
  5
198
102
{ACAD_REACTORS
330
10C
102
}
330
10C
100
AcDbScale
 70
     0
300
1/128" = 1'-0"
140
0.0078125
141
12.0
290
     0
  0
SCALE
  5
199
102
{ACAD_REACTORS
330
10C
102
}
330
10C
100
AcDbScale
 70
     0
300
1/64" = 1'-0"
140
0.015625
141
12.0
290
     0
  0
SCALE
  5
19A
102
{ACAD_REACTORS
330
10C
102
}
330
10C
100
AcDbScale
 70
     0
300
1/32" = 1'-0"
140
0.03125
141
12.0
290
     0
  0
SCALE
  5
19B
102
{ACAD_REACTORS
330
10C
102
}
330
10C
100
AcDbScale
 70
     0
300
1/16" = 1'-0"
140
0.0625
141
12.0
290
     0
  0
SCALE
  5
19C
102
{ACAD_REACTORS
330
10C
102
}
330
10C
100
AcDbScale
 70
     0
300
3/32" = 1'-0"
140
0.09375
141
12.0
290
     0
  0
SCALE
  5
19D
102
{ACAD_REACTORS
330
10C
102
}
330
10C
100
AcDbScale
 70
     0
300
1/8" = 1'-0"
140
0.125
141
12.0
290
     0
  0
SCALE
  5
19E
102
{ACAD_REACTORS
330
10C
102
}
330
10C
100
AcDbScale
 70
     0
300
3/16" = 1'-0"
140
0.1875
141
12.0
290
     0
  0
SCALE
  5
19F
102
{ACAD_REACTORS
330
10C
102
}
330
10C
100
AcDbScale
 70
     0
300
1/4" = 1'-0"
140
0.25
141
12.0
290
     0
  0
SCALE
  5
1A0
102
{ACAD_REACTORS
330
10C
102
}
330
10C
100
AcDbScale
 70
     0
300
3/8" = 1'-0"
140
0.375
141
12.0
290
     0
  0
SCALE
  5
1A1
102
{ACAD_REACTORS
330
10C
102
}
330
10C
100
AcDbScale
 70
     0
300
1/2" = 1'-0"
140
0.5
141
12.0
290
     0
  0
SCALE
  5
1A2
102
{ACAD_REACTORS
330
10C
102
}
330
10C
100
AcDbScale
 70
     0
300
3/4" = 1'-0"
140
0.75
141
12.0
290
     0
  0
SCALE
  5
1A3
102
{ACAD_REACTORS
330
10C
102
}
330
10C
100
AcDbScale
 70
     0
300
1" = 1'-0"
140
1.0
141
12.0
290
     0
  0
SCALE
  5
1A4
102
{ACAD_REACTORS
330
10C
102
}
330
10C
100
AcDbScale
 70
     0
300
1-1/2" = 1'-0"
140
1.5
141
12.0
290
     0
  0
SCALE
  5
1A5
102
{ACAD_REACTORS
330
10C
102
}
330
10C
100
AcDbScale
 70
     0
300
3" = 1'-0"
140
3.0
141
12.0
290
     0
  0
SCALE
  5
1A6
102
{ACAD_REACTORS
330
10C
102
}
330
10C
100
AcDbScale
 70
     0
300
6" = 1'-0"
140
6.0
141
12.0
290
     0
  0
SCALE
  5
1A7
102
{ACAD_REACTORS
330
10C
102
}
330
10C
100
AcDbScale
 70
     0
300
1'-0" = 1'-0"
140
12.0
141
12.0
290
     0
  0
TABLESTYLE
  5
7F
102
{ACAD_XDICTIONARY
360
162
102
}
102
{ACAD_REACTORS
330
7E
102
}
330
7E
100
AcDbTableStyle
  3
Standard
 70
     0
 71
     0
 40
1.5
 41
1.5
280
     0
281
     0
  7
Standard
140
4.5
170
     2
 62
     0
 63
     7
283
     0
274
    -2
284
     1
 64
     0
275
    -2
285
     1
 65
     0
276
    -2
286
     1
 66
     0
277
    -2
287
     1
 67
     0
278
    -2
288
     1
 68
     0
279
    -2
289
     1
 69
     0
  7
Standard
140
6.0
170
     5
 62
     0
 63
     7
283
     0
274
    -2
284
     1
 64
     0
275
    -2
285
     1
 65
     0
276
    -2
286
     1
 66
     0
277
    -2
287
     1
 67
     0
278
    -2
288
     1
 68
     0
279
    -2
289
     1
 69
     0
  7
Standard
140
4.5
170
     5
 62
     0
 63
     7
283
     0
274
    -2
284
     1
 64
     0
275
    -2
285
     1
 65
     0
276
    -2
286
     1
 66
     0
277
    -2
287
     1
 67
     0
278
    -2
288
     1
 68
     0
279
    -2
289
     1
 69
     0
  0
VISUALSTYLE
  5
F5
102
{ACAD_REACTORS
330
EF
102
}
330
EF
100
AcDbVisualStyle
  2
2dWireframe
 70
     4
 71
     0
 72
     2
 73
     1
 90
        0
 40
-0.6
 41
-30.0
 62
     5
 63
     7
 74
     1
 91
        4
 64
     7
 65
   257
 75
     1
175
     1
 42
1.0
 92
        0
 66
   257
 43
1.0
 76
     1
 77
     6
 78
     2
 67
     7
 79
     5
170
     0
171
     0
290
     0
174
     0
 93
        1
 44
0.0
173
     0
291
     0
 45
0.0
1001
ACAD
1000
AcDbSavedByObjectVersion
1070
     0
  0
VISUALSTYLE
  5
F7
102
{ACAD_REACTORS
330
EF
102
}
330
EF
100
AcDbVisualStyle
  2
3D Hidden
 70
     6
 71
     1
 72
     2
 73
     2
 90
        0
 40
-0.6
 41
-30.0
 62
     5
 63
     7
 74
     2
 91
        2
 64
     7
 65
   257
 75
     2
175
     1
 42
40.0
 92
        0
 66
   257
 43
1.0
 76
     1
 77
     6
 78
     2
 67
     7
 79
     3
170
     0
171
     0
290
     0
174
     0
 93
        1
 44
0.0
173
     0
291
     0
 45
0.0
1001
ACAD
1000
AcDbSavedByObjectVersion
1070
     0
  0
VISUALSTYLE
  5
F6
102
{ACAD_REACTORS
330
EF
102
}
330
EF
100
AcDbVisualStyle
  2
3dWireframe
 70
     5
 71
     0
 72
     2
 73
     1
 90
        0
 40
-0.6
 41
-30.0
 62
     5
 63
     7
 74
     1
 91
        4
 64
     7
 65
   257
 75
     1
175
     1
 42
1.0
 92
        0
 66
   257
 43
1.0
 76
     1
 77
     6
 78
     2
 67
     7
 79
     5
170
     0
171
     0
290
     0
174
     0
 93
        1
 44
0.0
173
     0
291
     0
 45
0.0
1001
ACAD
1000
AcDbSavedByObjectVersion
1070
     0
  0
VISUALSTYLE
  5
F4
102
{ACAD_REACTORS
330
EF
102
}
330
EF
100
AcDbVisualStyle
  2
Basic
 70
     7
 71
     1
 72
     0
 73
     1
 90
        0
 40
-0.6
 41
-30.0
 62
     5
 63
     7
 74
     0
 91
        4
 64
     7
 65
   257
 75
     1
175
     1
 42
1.0
 92
        8
 66
     7
 43
1.0
 76
     1
 77
     6
 78
     2
 67
     7
 79
     5
170
     0
171
     0
290
     0
174
     0
 93
        1
 44
0.0
173
     0
291
     1
 45
0.0
1001
ACAD
1000
AcDbSavedByObjectVersion
1070
     0
  0
VISUALSTYLE
  5
FB
102
{ACAD_REACTORS
330
EF
102
}
330
EF
100
AcDbVisualStyle
  2
Brighten
 70
    12
 71
     2
 72
     2
 73
     1
 90
        0
 40
-0.6
 41
-30.0
 62
     5
 63
     7
 74
     1
 91
        4
 64
     7
 65
   257
 75
     1
175
     1
 42
1.0
 92
        8
 66
     7
 43
1.0
 76
     1
 77
     6
 78
     2
 67
     7
 79
     5
170
     0
171
     0
290
     0
174
     0
 93
        1
 44
50.0
173
     0
291
     1
 45
0.0
1001
ACAD
1000
AcDbSavedByObjectVersion
1070
     0
  0
VISUALSTYLE
  5
FF
102
{ACAD_REACTORS
330
EF
102
}
330
EF
100
AcDbVisualStyle
  2
ColorChange
 70
    16
 71
     2
 72
     2
 73
     3
 90
        0
 40
-0.6
 41
-30.0
 62
     5
 63
     8
 74
     1
 91
        4
 64
     7
 65
   257
 75
     1
175
     1
 42
1.0
 92
        8
 66
     8
 43
1.0
 76
     1
 77
     6
 78
     2
 67
     7
 79
     5
170
     0
171
     0
290
     0
174
     0
 93
        1
 44
0.0
173
     0
291
     1
 45
0.0
1001
ACAD
1000
AcDbSavedByObjectVersion
1070
     0
  0
VISUALSTYLE
  5
F8
102
{ACAD_REACTORS
330
EF
102
}
330
EF
100
AcDbVisualStyle
  2
Conceptual
 70
     9
 71
     3
 72
     2
 73
     1
 90
        0
 40
-0.6
 41
-30.0
 62
     5
 63
     7
 74
     2
 91
        2
 64
     7
 65
   257
 75
     1
175
     1
 42
40.0
 92
        8
 66
     7
 43
1.0
 76
     1
 77
     6
 78
     2
 67
     7
 79
     3
170
     0
171
     0
290
     0
174
     0
 93
        1
 44
0.0
173
     0
291
     0
 45
0.0
1001
ACAD
1000
AcDbSavedByObjectVersion
1070
     0
  0
VISUALSTYLE
  5
FA
102
{ACAD_REACTORS
330
EF
102
}
330
EF
100
AcDbVisualStyle
  2
Dim
 70
    11
 71
     2
 72
     2
 73
     1
 90
        0
 40
-0.6
 41
-30.0
 62
     5
 63
     7
 74
     1
 91
        4
 64
     7
 65
   257
 75
     1
175
     1
 42
1.0
 92
        8
 66
     7
 43
1.0
 76
     1
 77
     6
 78
     2
 67
     7
 79
     5
170
     0
171
     0
290
     0
174
     0
 93
        1
 44
-50.0
173
     0
291
     1
 45
0.0
1001
ACAD
1000
AcDbSavedByObjectVersion
1070
     0
  0
VISUALSTYLE
  5
FE
102
{ACAD_REACTORS
330
EF
102
}
330
EF
100
AcDbVisualStyle
  2
Facepattern
 70
    15
 71
     2
 72
     2
 73
     1
 90
        0
 40
-0.6
 41
-30.0
 62
     5
 63
     7
 74
     1
 91
        4
 64
     7
 65
   257
 75
     1
175
     1
 42
1.0
 92
        8
 66
     7
 43
1.0
 76
     1
 77
     6
 78
     2
 67
     7
 79
     5
170
     0
171
     0
290
     0
174
     0
 93
        1
 44
0.0
173
     0
291
     1
 45
0.0
1001
ACAD
1000
AcDbSavedByObjectVersion
1070
     0
  0
VISUALSTYLE
  5
F0
102
{ACAD_REACTORS
330
EF
102
}
330
EF
100
AcDbVisualStyle
  2
Flat
 70
     0
 71
     2
 72
     1
 73
     1
 90
        2
 40
-0.6
 41
30.0
 62
     5
 63
     7
 74
     0
 91
        4
 64
     7
 65
   257
 75
     1
175
     1
 42
1.0
 92
        8
 66
     7
 43
1.0
 76
     1
 77
     6
 78
     2
 67
     7
 79
     5
170
     0
171
     0
290
     0
174
     0
 93
        1
 44
0.0
173
     0
291
     1
 45
0.0
1001
ACAD
1000
AcDbSavedByObjectVersion
1070
     0
  0
VISUALSTYLE
  5
F1
102
{ACAD_REACTORS
330
EF
102
}
330
EF
100
AcDbVisualStyle
  2
FlatWithEdges
 70
     1
 71
     2
 72
     1
 73
     1
 90
        2
 40
-0.6
 41
30.0
 62
     5
 63
     7
 74
     1
 91
        4
 64
     7
 65
   257
 75
     1
175
     1
 42
1.0
 92
        0
 66
   257
 43
1.0
 76
     1
 77
     6
 78
     2
 67
     7
 79
     5
170
     0
171
     0
290
     0
174
     0
 93
        1
 44
0.0
173
     0
291
     1
 45
0.0
1001
ACAD
1000
AcDbSavedByObjectVersion
1070
     0
  0
VISUALSTYLE
  5
F2
102
{ACAD_REACTORS
330
EF
102
}
330
EF
100
AcDbVisualStyle
  2
Gouraud
 70
     2
 71
     2
 72
     2
 73
     1
 90
        2
 40
-0.6
 41
30.0
 62
     5
 63
     7
 74
     0
 91
        4
 64
     7
 65
   257
 75
     1
175
     1
 42
1.0
 92
        0
 66
     7
 43
1.0
 76
     1
 77
     6
 78
     2
 67
     7
 79
     5
170
     0
171
     0
290
     0
174
     0
 93
        1
 44
0.0
173
     0
291
     1
 45
0.0
1001
ACAD
1000
AcDbSavedByObjectVersion
1070
     0
  0
VISUALSTYLE
  5
F3
102
{ACAD_REACTORS
330
EF
102
}
330
EF
100
AcDbVisualStyle
  2
GouraudWithEdges
 70
     3
 71
     2
 72
     2
 73
     1
 90
        2
 40
-0.6
 41
30.0
 62
     5
 63
     7
 74
     1
 91
        4
 64
     7
 65
   257
 75
     1
175
     1
 42
1.0
 92
        0
 66
   257
 43
1.0
 76
     1
 77
     6
 78
     2
 67
     7
 79
     5
170
     0
171
     0
290
     0
174
     0
 93
        1
 44
0.0
173
     0
291
     1
 45
0.0
1001
ACAD
1000
AcDbSavedByObjectVersion
1070
     0
  0
VISUALSTYLE
  5
FD
102
{ACAD_REACTORS
330
EF
102
}
330
EF
100
AcDbVisualStyle
  2
Linepattern
 70
    14
 71
     2
 72
     2
 73
     1
 90
        0
 40
-0.6
 41
-30.0
 62
     5
 63
     7
 74
     1
 91
        4
 64
     7
 65
   257
 75
     7
175
     7
 42
1.0
 92
        8
 66
     7
 43
1.0
 76
     1
 77
     6
 78
     2
 67
     7
 79
     5
170
     0
171
     0
290
     0
174
     0
 93
        1
 44
0.0
173
     0
291
     1
 45
0.0
1001
ACAD
1000
AcDbSavedByObjectVersion
1070
     0
  0
VISUALSTYLE
  5
F9
102
{ACAD_REACTORS
330
EF
102
}
330
EF
100
AcDbVisualStyle
  2
Realistic
 70
     8
 71
     2
 72
     2
 73
     1
 90
        0
 40
-0.6
 41
-30.0
 62
     5
 63
     7
 74
     1
 91
        0
 64
     7
 65
   257
 75
     1
175
     1
 42
1.0
 92
        8
 66
     8
 43
1.0
 76
     1
 77
     6
 78
     2
 67
     7
 79
     5
170
     0
171
     0
290
     0
174
     0
 93
       13
 44
0.0
173
     0
291
     0
 45
0.0
1001
ACAD
1000
AcDbSavedByObjectVersion
1070
     0
  0
VISUALSTYLE
  5
FC
102
{ACAD_REACTORS
330
EF
102
}
330
EF
100
AcDbVisualStyle
  2
Thicken
 70
    13
 71
     2
 72
     2
 73
     1
 90
        0
 40
-0.6
 41
-30.0
 62
     5
 63
     7
 74
     1
 91
        4
 64
     7
 65
   257
 75
     1
175
     1
 42
1.0
 92
       12
 66
     7
 43
1.0
 76
     1
 77
     6
 78
     2
 67
     7
 79
     5
170
     0
171
     0
290
     0
174
     0
 93
        1
 44
0.0
173
     0
291
     1
 45
0.0
1001
ACAD
1000
AcDbSavedByObjectVersion
1070
     0
  0
DICTIONARYVAR
  5
146
102
{ACAD_REACTORS
330
5E
102
}
330
5E
100
DictionaryVariables
280
     0
  1
1:1
  0
DICTIONARYVAR
  5
145
102
{ACAD_REACTORS
330
5E
102
}
330
5E
100
DictionaryVariables
280
     0
  1
STANDARD
  0
DICTIONARYVAR
  5
84
102
{ACAD_REACTORS
330
5E
102
}
330
5E
100
DictionaryVariables
280
     0
  1
STANDARD
  0
DICTIONARYVAR
  5
5F
102
{ACAD_REACTORS
330
5E
102
}
330
5E
100
DictionaryVariables
280
     0
  1
2
  0
DICTIONARYVAR
  5
63
102
{ACAD_REACTORS
330
5E
102
}
330
5E
100
DictionaryVariables
280
     0
  1
1
  0
DICTIONARYVAR
  5
707
102
{ACAD_REACTORS
330
5E
102
}
330
5E
100
DictionaryVariables
280
     0
  1
0
  0
DICTIONARYVAR
  5
705
102
{ACAD_REACTORS
330
5E
102
}
330
5E
100
DictionaryVariables
280
     0
  1
2
  0
DICTIONARYVAR
  5
704
102
{ACAD_REACTORS
330
5E
102
}
330
5E
100
DictionaryVariables
280
     0
  1
1
  0
DICTIONARYVAR
  5
709
102
{ACAD_REACTORS
330
5E
102
}
330
5E
100
DictionaryVariables
280
     0
  1
80.000000
  0
DICTIONARYVAR
  5
708
102
{ACAD_REACTORS
330
5E
102
}
330
5E
100
DictionaryVariables
280
     0
  1
5.000000
  0
DICTIONARYVAR
  5
706
102
{ACAD_REACTORS
330
5E
102
}
330
5E
100
DictionaryVariables
280
     0
  1
127
  0
DICTIONARY
  5
70F
330
D3
100
AcDbDictionary
280
     1
281
     1
  3
ACAD_XREC_ROUNDTRIP
360
710
  0
DICTIONARY
  5
711
330
D7
100
AcDbDictionary
280
     1
281
     1
  3
ACAD_XREC_ROUNDTRIP
360
712
  0
DICTIONARY
  5
70C
330
22
100
AcDbDictionary
280
     1
281
     1
  3
ACAD_XREC_ROUNDTRIP
360
70D
  0
DICTIONARY
  5
715
330
ED
100
AcDbDictionary
280
     1
281
     1
  3
ACAD_XREC_ROUNDTRIP
360
716
  0
DICTIONARY
  5
713
330
EC
100
AcDbDictionary
280
     1
281
     1
  3
ACAD_XREC_ROUNDTRIP
360
714
  0
DICTIONARY
  5
173
330
EE
100
AcDbDictionary
280
     1
281
     1
  3
ACAD_XREC_ROUNDTRIP
360
717
  3
BUMPTILE
360
175
  3
DIFFUSETILE
360
174
  3
OPACITYTILE
360
176
  3
REFLECTIONTILE
360
177
  0
DICTIONARY
  5
162
330
7F
100
AcDbDictionary
280
     1
281
     1
  3
ACAD_ROUNDTRIP_2008_TABLESTYLE_CELLSTYLEMAP
360
70A
  3
ACAD_XREC_ROUNDTRIP
360
70E
  0
XRECORD
  5
710
102
{ACAD_REACTORS
330
70F
102
}
330
70F
100
AcDbXrecord
280
     1
102
SHADEPLOT
 70
     0
102
SHADEPLOTRESLEVEL
 70
     2
102
SHADEPLOTCUSTOMDPI
 70
   300
  0
XRECORD
  5
712
102
{ACAD_REACTORS
330
711
102
}
330
711
100
AcDbXrecord
280
     1
102
SHADEPLOT
 70
     0
102
SHADEPLOTRESLEVEL
 70
     2
102
SHADEPLOTCUSTOMDPI
 70
   300
  0
XRECORD
  5
70D
102
{ACAD_REACTORS
330
70C
102
}
330
70C
100
AcDbXrecord
280
     1
102
SHADEPLOT
 70
     0
102
SHADEPLOTRESLEVEL
 70
     2
102
SHADEPLOTCUSTOMDPI
 70
   300
  0
XRECORD
  5
716
102
{ACAD_REACTORS
330
715
102
}
330
715
100
AcDbXrecord
280
     1
102
MATERIAL
148
0.0
149
0.0
149
0.0
 93
        0
 94
       63
282
     0
 72
     1
 77
     1
171
     1
175
     1
179
     1
273
     0
  0
XRECORD
  5
714
102
{ACAD_REACTORS
330
713
102
}
330
713
100
AcDbXrecord
280
     1
102
MATERIAL
148
0.0
149
0.0
149
0.0
 93
        0
 94
       63
282
     0
 72
     1
 77
     1
171
     1
175
     1
179
     1
273
     0
  0
XRECORD
  5
717
102
{ACAD_REACTORS
330
173
102
}
330
173
100
AcDbXrecord
280
     1
102
MATERIAL
148
0.0
149
0.0
149
0.0
 93
        0
 94
       63
282
     0
 72
     1
 77
     1
171
     1
175
     1
179
     1
273
     0
  0
XRECORD
  5
175
102
{ACAD_REACTORS
330
173
102
}
330
173
100
AcDbXrecord
280
     1
270
     1
271
     1
  0
XRECORD
  5
174
102
{ACAD_REACTORS
330
173
102
}
330
173
100
AcDbXrecord
280
     1
270
     1
271
     1
  0
XRECORD
  5
176
102
{ACAD_REACTORS
330
173
102
}
330
173
100
AcDbXrecord
280
     1
270
     1
271
     1
  0
XRECORD
  5
177
102
{ACAD_REACTORS
330
173
102
}
330
173
100
AcDbXrecord
280
     1
270
     1
271
     1
  0
CELLSTYLEMAP
  5
70A
102
{ACAD_REACTORS
330
162
102
}
330
162
100
AcDbCellStyleMap
 90
        3
300
CELLSTYLE
  1
TABLEFORMAT_BEGIN
 90
        5
170
     1
 91
        0
 92
    32768
 62
   257
 93
        1
300
CONTENTFORMAT
  1
CONTENTFORMAT_BEGIN
 90
        0
 91
        0
 92
      512
 93
        0
300

 40
0.0
140
1.0
 94
        5
 62
     0
340
11
144
6.0
309
CONTENTFORMAT_END
171
     1
301
MARGIN
  1
CELLMARGIN_BEGIN
 40
1.5
 40
1.5
 40
1.5
 40
1.5
 40
4.5
 40
4.5
309
CELLMARGIN_END
 94
        6
 95
        1
302
GRIDFORMAT
  1
GRIDFORMAT_BEGIN
 90
        0
 91
        1
 62
     0
 92
       -2
340
14
 93
        0
 40
1.125
309
GRIDFORMAT_END
 95
        2
302
GRIDFORMAT
  1
GRIDFORMAT_BEGIN
 90
        0
 91
        1
 62
     0
 92
       -2
340
14
 93
        0
 40
1.125
309
GRIDFORMAT_END
 95
        4
302
GRIDFORMAT
  1
GRIDFORMAT_BEGIN
 90
        0
 91
        1
 62
     0
 92
       -2
340
14
 93
        0
 40
1.125
309
GRIDFORMAT_END
 95
        8
302
GRIDFORMAT
  1
GRIDFORMAT_BEGIN
 90
        0
 91
        1
 62
     0
 92
       -2
340
14
 93
        0
 40
1.125
309
GRIDFORMAT_END
 95
       16
302
GRIDFORMAT
  1
GRIDFORMAT_BEGIN
 90
        0
 91
        1
 62
     0
 92
       -2
340
14
 93
        0
 40
1.125
309
GRIDFORMAT_END
 95
       32
302
GRIDFORMAT
  1
GRIDFORMAT_BEGIN
 90
        0
 91
        1
 62
     0
 92
       -2
340
14
 93
        0
 40
1.125
309
GRIDFORMAT_END
309
TABLEFORMAT_END
  1
CELLSTYLE_BEGIN
 90
        1
 91
        1
300
_TITLE
309
CELLSTYLE_END
300
CELLSTYLE
  1
TABLEFORMAT_BEGIN
 90
        5
170
     1
 91
        0
 92
        0
 62
   257
 93
        1
300
CONTENTFORMAT
  1
CONTENTFORMAT_BEGIN
 90
        0
 91
        0
 92
      512
 93
        0
300

 40
0.0
140
1.0
 94
        5
 62
     0
340
11
144
4.5
309
CONTENTFORMAT_END
171
     1
301
MARGIN
  1
CELLMARGIN_BEGIN
 40
1.5
 40
1.5
 40
1.5
 40
1.5
 40
4.5
 40
4.5
309
CELLMARGIN_END
 94
        6
 95
        1
302
GRIDFORMAT
  1
GRIDFORMAT_BEGIN
 90
        0
 91
        1
 62
     0
 92
       -2
340
14
 93
        0
 40
1.125
309
GRIDFORMAT_END
 95
        2
302
GRIDFORMAT
  1
GRIDFORMAT_BEGIN
 90
        0
 91
        1
 62
     0
 92
       -2
340
14
 93
        0
 40
1.125
309
GRIDFORMAT_END
 95
        4
302
GRIDFORMAT
  1
GRIDFORMAT_BEGIN
 90
        0
 91
        1
 62
     0
 92
       -2
340
14
 93
        0
 40
1.125
309
GRIDFORMAT_END
 95
        8
302
GRIDFORMAT
  1
GRIDFORMAT_BEGIN
 90
        0
 91
        1
 62
     0
 92
       -2
340
14
 93
        0
 40
1.125
309
GRIDFORMAT_END
 95
       16
302
GRIDFORMAT
  1
GRIDFORMAT_BEGIN
 90
        0
 91
        1
 62
     0
 92
       -2
340
14
 93
        0
 40
1.125
309
GRIDFORMAT_END
 95
       32
302
GRIDFORMAT
  1
GRIDFORMAT_BEGIN
 90
        0
 91
        1
 62
     0
 92
       -2
340
14
 93
        0
 40
1.125
309
GRIDFORMAT_END
309
TABLEFORMAT_END
  1
CELLSTYLE_BEGIN
 90
        2
 91
        1
300
_HEADER
309
CELLSTYLE_END
300
CELLSTYLE
  1
TABLEFORMAT_BEGIN
 90
        5
170
     1
 91
        0
 92
        0
 62
   257
 93
        1
300
CONTENTFORMAT
  1
CONTENTFORMAT_BEGIN
 90
        0
 91
        0
 92
      512
 93
        0
300

 40
0.0
140
1.0
 94
        2
 62
     0
340
11
144
4.5
309
CONTENTFORMAT_END
171
     1
301
MARGIN
  1
CELLMARGIN_BEGIN
 40
1.5
 40
1.5
 40
1.5
 40
1.5
 40
4.5
 40
4.5
309
CELLMARGIN_END
 94
        6
 95
        1
302
GRIDFORMAT
  1
GRIDFORMAT_BEGIN
 90
        0
 91
        1
 62
     0
 92
       -2
340
14
 93
        0
 40
1.125
309
GRIDFORMAT_END
 95
        2
302
GRIDFORMAT
  1
GRIDFORMAT_BEGIN
 90
        0
 91
        1
 62
     0
 92
       -2
340
14
 93
        0
 40
1.125
309
GRIDFORMAT_END
 95
        4
302
GRIDFORMAT
  1
GRIDFORMAT_BEGIN
 90
        0
 91
        1
 62
     0
 92
       -2
340
14
 93
        0
 40
1.125
309
GRIDFORMAT_END
 95
        8
302
GRIDFORMAT
  1
GRIDFORMAT_BEGIN
 90
        0
 91
        1
 62
     0
 92
       -2
340
14
 93
        0
 40
1.125
309
GRIDFORMAT_END
 95
       16
302
GRIDFORMAT
  1
GRIDFORMAT_BEGIN
 90
        0
 91
        1
 62
     0
 92
       -2
340
14
 93
        0
 40
1.125
309
GRIDFORMAT_END
 95
       32
302
GRIDFORMAT
  1
GRIDFORMAT_BEGIN
 90
        0
 91
        1
 62
     0
 92
       -2
340
14
 93
        0
 40
1.125
309
GRIDFORMAT_END
309
TABLEFORMAT_END
  1
CELLSTYLE_BEGIN
 90
        3
 91
        2
300
_DATA
309
CELLSTYLE_END
  0
XRECORD
  5
70E
102
{ACAD_REACTORS
330
162
102
}
330
162
100
AcDbXrecord
280
     1
102
ACAD_ROUNDTRIP_PRE2007_TABLESTYLE
 90
      512
 91
        0
  1

 92
      512
 93
        0
  2

 94
      512
 95
        0
  3

  0
ENDSEC
  0
EOF
