  0
SECTION
  2
HEADER
  9
$ACADVER
  1
AC1015
  9
$ACADMAINTVER
 70
    20
  9
$DWGCODEPAGE
  3
ANSI_1254
  9
$INSBASE
 10
0.0
 20
0.0
 30
0.0
  9
$EXTMIN
 10
1550.000000162743
 20
1089.999999778532
 30
0.0
  9
$EXTMAX
 10
1609.902868225306
 20
1125.06423506988
 30
0.0
  9
$LIMMIN
 10
0.0
 20
0.0
  9
$LIMMAX
 10
420.0
 20
297.0
  9
$ORTHOMODE
 70
     0
  9
$REGENMODE
 70
     1
  9
$FILLMODE
 70
     1
  9
$QTEXTMODE
 70
     0
  9
$MIRRTEXT
 70
     0
  9
$LTSCALE
 40
1.0
  9
$ATTMODE
 70
     1
  9
$TEXTSIZE
 40
2.5
  9
$TRACEWID
 40
1.0
  9
$TEXTSTYLE
  7
Standard
  9
$CLAYER
  8
0
  9
$CELTYPE
  6
ByLayer
  9
$CECOLOR
 62
   256
  9
$CELTSCALE
 40
1.0
  9
$DISPSILH
 70
     0
  9
$DIMSCALE
 40
1.0
  9
$DIMASZ
 40
2.5
  9
$DIMEXO
 40
0.625
  9
$DIMDLI
 40
3.75
  9
$DIMRND
 40
0.0
  9
$DIMDLE
 40
0.0
  9
$DIMEXE
 40
1.25
  9
$DIMTP
 40
0.0
  9
$DIMTM
 40
0.0
  9
$DIMTXT
 40
2.5
  9
$DIMCEN
 40
2.5
  9
$DIMTSZ
 40
0.0
  9
$DIMTOL
 70
     0
  9
$DIMLIM
 70
     0
  9
$DIMTIH
 70
     0
  9
$DIMTOH
 70
     0
  9
$DIMSE1
 70
     0
  9
$DIMSE2
 70
     0
  9
$DIMTAD
 70
     1
  9
$DIMZIN
 70
     8
  9
$DIMBLK
  1

  9
$DIMASO
 70
     1
  9
$DIMSHO
 70
     1
  9
$DIMPOST
  1

  9
$DIMAPOST
  1

  9
$DIMALT
 70
     0
  9
$DIMALTD
 70
     3
  9
$DIMALTF
 40
0.03937007874016
  9
$DIMLFAC
 40
1.0
  9
$DIMTOFL
 70
     1
  9
$DIMTVP
 40
0.0
  9
$DIMTIX
 70
     0
  9
$DIMSOXD
 70
     0
  9
$DIMSAH
 70
     0
  9
$DIMBLK1
  1

  9
$DIMBLK2
  1

  9
$DIMSTYLE
  2
ISO-25
  9
$DIMCLRD
 70
     0
  9
$DIMCLRE
 70
     0
  9
$DIMCLRT
 70
     0
  9
$DIMTFAC
 40
1.0
  9
$DIMGAP
 40
0.625
  9
$DIMJUST
 70
     0
  9
$DIMSD1
 70
     0
  9
$DIMSD2
 70
     0
  9
$DIMTOLJ
 70
     0
  9
$DIMTZIN
 70
     8
  9
$DIMALTZ
 70
     0
  9
$DIMALTTZ
 70
     0
  9
$DIMUPT
 70
     0
  9
$DIMDEC
 70
     2
  9
$DIMTDEC
 70
     2
  9
$DIMALTU
 70
     2
  9
$DIMALTTD
 70
     3
  9
$DIMTXSTY
  7
Standard
  9
$DIMAUNIT
 70
     0
  9
$DIMADEC
 70
     0
  9
$DIMALTRND
 40
0.0
  9
$DIMAZIN
 70
     0
  9
$DIMDSEP
 70
    44
  9
$DIMATFIT
 70
     3
  9
$DIMFRAC
 70
     0
  9
$DIMLDRBLK
  1

  9
$DIMLUNIT
 70
     2
  9
$DIMLWD
 70
    -2
  9
$DIMLWE
 70
    -2
  9
$DIMTMOVE
 70
     0
  9
$LUNITS
 70
     2
  9
$LUPREC
 70
     4
  9
$SKETCHINC
 40
1.0
  9
$FILLETRAD
 40
0.0
  9
$AUNITS
 70
     0
  9
$AUPREC
 70
     0
  9
$MENU
  1
.
  9
$ELEVATION
 40
0.0
  9
$PELEVATION
 40
0.0
  9
$THICKNESS
 40
0.0
  9
$LIMCHECK
 70
     0
  9
$CHAMFERA
 40
0.0
  9
$CHAMFERB
 40
0.0
  9
$CHAMFERC
 40
0.0
  9
$CHAMFERD
 40
0.0
  9
$SKPOLY
 70
     0
  9
$TDCREATE
 40
2458556.664945278
  9
$TDUCREATE
 40
2458556.539945278
  9
$TDUPDATE
 40
2458956.453569537
  9
$TDUUPDATE
 40
2458956.328569537
  9
$TDINDWG
 40
0.0005306597
  9
$TDUSRTIMER
 40
0.0005306597
  9
$USRTIMER
 70
     1
  9
$ANGBASE
 50
0.0
  9
$ANGDIR
 70
     0
  9
$PDMODE
 70
     0
  9
$PDSIZE
 40
0.0
  9
$PLINEWID
 40
0.0
  9
$SPLFRAME
 70
     0
  9
$SPLINETYPE
 70
     6
  9
$SPLINESEGS
 70
     8
  9
$HANDSEED
  5
56E
  9
$SURFTAB1
 70
     6
  9
$SURFTAB2
 70
     6
  9
$SURFTYPE
 70
     6
  9
$SURFU
 70
     6
  9
$SURFV
 70
     6
  9
$UCSBASE
  2

  9
$UCSNAME
  2

  9
$UCSORG
 10
0.0
 20
0.0
 30
0.0
  9
$UCSXDIR
 10
1.0
 20
0.0
 30
0.0
  9
$UCSYDIR
 10
0.0
 20
1.0
 30
0.0
  9
$UCSORTHOREF
  2

  9
$UCSORTHOVIEW
 70
     0
  9
$UCSORGTOP
 10
0.0
 20
0.0
 30
0.0
  9
$UCSORGBOTTOM
 10
0.0
 20
0.0
 30
0.0
  9
$UCSORGLEFT
 10
0.0
 20
0.0
 30
0.0
  9
$UCSORGRIGHT
 10
0.0
 20
0.0
 30
0.0
  9
$UCSORGFRONT
 10
0.0
 20
0.0
 30
0.0
  9
$UCSORGBACK
 10
0.0
 20
0.0
 30
0.0
  9
$PUCSBASE
  2

  9
$PUCSNAME
  2

  9
$PUCSORG
 10
0.0
 20
0.0
 30
0.0
  9
$PUCSXDIR
 10
1.0
 20
0.0
 30
0.0
  9
$PUCSYDIR
 10
0.0
 20
1.0
 30
0.0
  9
$PUCSORTHOREF
  2

  9
$PUCSORTHOVIEW
 70
     0
  9
$PUCSORGTOP
 10
0.0
 20
0.0
 30
0.0
  9
$PUCSORGBOTTOM
 10
0.0
 20
0.0
 30
0.0
  9
$PUCSORGLEFT
 10
0.0
 20
0.0
 30
0.0
  9
$PUCSORGRIGHT
 10
0.0
 20
0.0
 30
0.0
  9
$PUCSORGFRONT
 10
0.0
 20
0.0
 30
0.0
  9
$PUCSORGBACK
 10
0.0
 20
0.0
 30
0.0
  9
$USERI1
 70
     0
  9
$USERI2
 70
     0
  9
$USERI3
 70
     0
  9
$USERI4
 70
     0
  9
$USERI5
 70
     0
  9
$USERR1
 40
0.0
  9
$USERR2
 40
0.0
  9
$USERR3
 40
0.0
  9
$USERR4
 40
0.0
  9
$USERR5
 40
0.0
  9
$WORLDVIEW
 70
     1
  9
$SHADEDGE
 70
     3
  9
$SHADEDIF
 70
    70
  9
$TILEMODE
 70
     1
  9
$MAXACTVP
 70
    64
  9
$PINSBASE
 10
0.0
 20
0.0
 30
0.0
  9
$PLIMCHECK
 70
     0
  9
$PEXTMIN
 10
0.0
 20
0.0
 30
0.0
  9
$PEXTMAX
 10
0.0
 20
0.0
 30
0.0
  9
$PLIMMIN
 10
0.0
 20
0.0
  9
$PLIMMAX
 10
12.0
 20
9.0
  9
$UNITMODE
 70
     0
  9
$VISRETAIN
 70
     1
  9
$PLINEGEN
 70
     0
  9
$PSLTSCALE
 70
     1
  9
$TREEDEPTH
 70
  3020
  9
$CMLSTYLE
  2
Standard
  9
$CMLJUST
 70
     0
  9
$CMLSCALE
 40
20.0
  9
$PROXYGRAPHICS
 70
     1
  9
$MEASUREMENT
 70
     1
  9
$CELWEIGHT
370
    -1
  9
$ENDCAPS
280
     0
  9
$JOINSTYLE
280
     0
  9
$LWDISPLAY
290
     0
  9
$INSUNITS
 70
     4
  9
$HYPERLINKBASE
  1

  9
$STYLESHEET
  1

  9
$XEDIT
290
     1
  9
$CEPSNTYPE
380
     0
  9
$PSTYLEMODE
290
     1
  9
$FINGERPRINTGUID
  2
{A74288E7-3264-4EA2-B166-883B659D03C2}
  9
$VERSIONGUID
  2
{6B6A41CE-8545-4B7D-913E-769B5FE4FA97}
  9
$EXTNAMES
290
     1
  9
$PSVPSCALE
 40
0.0
  9
$OLESTARTUP
290
     0
  0
ENDSEC
  0
SECTION
  2
CLASSES
  0
CLASS
  1
ACDBDICTIONARYWDFLT
  2
AcDbDictionaryWithDefault
  3
ObjectDBX Classes
 90
        0
280
     0
281
     0
  0
CLASS
  1
ACDBPLACEHOLDER
  2
AcDbPlaceHolder
  3
ObjectDBX Classes
 90
        0
280
     0
281
     0
  0
CLASS
  1
LAYOUT
  2
AcDbLayout
  3
ObjectDBX Classes
 90
        0
280
     0
281
     0
  0
CLASS
  1
DICTIONARYVAR
  2
AcDbDictionaryVar
  3
ObjectDBX Classes
 90
        0
280
     0
281
     0
  0
CLASS
  1
TABLESTYLE
  2
AcDbTableStyle
  3
ObjectDBX Classes
 90
     4095
280
     0
281
     0
  0
CLASS
  1
MATERIAL
  2
AcDbMaterial
  3
ObjectDBX Classes
 90
     1153
280
     0
281
     0
  0
CLASS
  1
VISUALSTYLE
  2
AcDbVisualStyle
  3
ObjectDBX Classes
 90
     4095
280
     0
281
     0
  0
CLASS
  1
SCALE
  2
AcDbScale
  3
ObjectDBX Classes
 90
     1153
280
     0
281
     0
  0
CLASS
  1
MLEADERSTYLE
  2
AcDbMLeaderStyle
  3
ACDB_MLEADERSTYLE_CLASS
 90
     4095
280
     0
281
     0
  0
CLASS
  1
CELLSTYLEMAP
  2
AcDbCellStyleMap
  3
ObjectDBX Classes
 90
     1152
280
     0
281
     0
  0
ENDSEC
  0
SECTION
  2
TABLES
  0
TABLE
  2
VPORT
  5
8
330
0
100
AcDbSymbolTable
 70
     1
  0
VPORT
  5
EA
330
8
100
AcDbSymbolTableRecord
100
AcDbViewportTableRecord
  2
*Active
 70
     0
 10
0.0
 20
0.0
 11
1.0
 21
1.0
 12
1589.083575926435
 22
1111.965494979887
 13
0.0
 23
0.0
 14
10.0
 24
10.0
 15
10.0
 25
10.0
 16
0.0
 26
0.0
 36
1.0
 17
0.0
 27
0.0
 37
0.0
 40
66.52724810662718
 41
1.903110047846889
 42
50.0
 43
0.0
 44
0.0
 50
0.0
 51
0.0
 71
     0
 72
  1000
 73
     1
 74
     3
 75
     0
 76
     0
 77
     0
 78
     0
281
     0
 65
     1
110
0.0
120
0.0
130
0.0
111
1.0
121
0.0
131
0.0
112
0.0
122
1.0
132
0.0
 79
     0
146
0.0
  0
ENDTAB
  0
TABLE
  2
LTYPE
  5
5
330
0
100
AcDbSymbolTable
 70
     1
  0
LTYPE
  5
14
330
5
100
AcDbSymbolTableRecord
100
AcDbLinetypeTableRecord
  2
ByBlock
 70
     0
  3

 72
    65
 73
     0
 40
0.0
  0
LTYPE
  5
15
330
5
100
AcDbSymbolTableRecord
100
AcDbLinetypeTableRecord
  2
ByLayer
 70
     0
  3

 72
    65
 73
     0
 40
0.0
  0
LTYPE
  5
16
330
5
100
AcDbSymbolTableRecord
100
AcDbLinetypeTableRecord
  2
Continuous
 70
     0
  3
Solid line
 72
    65
 73
     0
 40
0.0
  0
ENDTAB
  0
TABLE
  2
LAYER
  5
2
330
0
100
AcDbSymbolTable
 70
     1
  0
LAYER
  5
10
102
{ACAD_XDICTIONARY
360
13C
102
}
330
2
100
AcDbSymbolTableRecord
100
AcDbLayerTableRecord
  2
0
 70
     0
 62
     7
  6
Continuous
370
    -3
390
F
  0
ENDTAB
  0
TABLE
  2
STYLE
  5
3
330
0
100
AcDbSymbolTable
 70
     2
  0
STYLE
  5
11
330
3
100
AcDbSymbolTableRecord
100
AcDbTextStyleTableRecord
  2
Standard
 70
     0
 40
0.0
 41
1.0
 50
0.0
 71
     0
 42
2.5
  3
txt
  4

  0
STYLE
  5
132
330
3
100
AcDbSymbolTableRecord
100
AcDbTextStyleTableRecord
  2
Annotative
 70
     0
 40
0.0
 41
1.0
 50
0.0
 71
     0
 42
2.5
  3
txt.shx
  4

1001
AcadAnnotative
1000
AnnotativeData
1002
{
1070
     1
1070
     1
1002
}
  0
ENDTAB
  0
TABLE
  2
VIEW
  5
6
330
0
100
AcDbSymbolTable
 70
     0
  0
ENDTAB
  0
TABLE
  2
UCS
  5
7
330
0
100
AcDbSymbolTable
 70
     0
  0
ENDTAB
  0
TABLE
  2
APPID
  5
9
330
0
100
AcDbSymbolTable
 70
     7
  0
APPID
  5
12
330
9
100
AcDbSymbolTableRecord
100
AcDbRegAppTableRecord
  2
ACAD
 70
     0
  0
APPID
  5
9E
330
9
100
AcDbSymbolTableRecord
100
AcDbRegAppTableRecord
  2
ACAD_PSEXT
 70
     0
  0
APPID
  5
133
330
9
100
AcDbSymbolTableRecord
100
AcDbRegAppTableRecord
  2
AcadAnnoPO
 70
     0
  0
APPID
  5
134
330
9
100
AcDbSymbolTableRecord
100
AcDbRegAppTableRecord
  2
AcadAnnotative
 70
     0
  0
APPID
  5
135
330
9
100
AcDbSymbolTableRecord
100
AcDbRegAppTableRecord
  2
ACAD_DSTYLE_DIMJAG
 70
     0
  0
APPID
  5
136
330
9
100
AcDbSymbolTableRecord
100
AcDbRegAppTableRecord
  2
ACAD_DSTYLE_DIMTALN
 70
     0
  0
APPID
  5
165
330
9
100
AcDbSymbolTableRecord
100
AcDbRegAppTableRecord
  2
ACAD_MLEADERVER
 70
     0
  0
ENDTAB
  0
TABLE
  2
DIMSTYLE
  5
A
330
0
100
AcDbSymbolTable
 70
     2
100
AcDbDimStyleTable
 71
     2
340
27
340
137
  0
DIMSTYLE
105
27
330
A
100
AcDbSymbolTableRecord
100
AcDbDimStyleTableRecord
  2
ISO-25
 70
     0
 41
2.5
 42
0.625
 43
3.75
 44
1.25
 73
     0
 74
     0
 77
     1
 78
     8
140
2.5
141
2.5
143
0.03937007874016
147
0.625
171
     3
172
     1
271
     2
272
     2
274
     3
278
    44
283
     0
284
     8
340
11
  0
DIMSTYLE
105
137
330
A
100
AcDbSymbolTableRecord
100
AcDbDimStyleTableRecord
  2
Annotative
 70
     0
 40
0.0
 41
2.5
 42
0.625
 43
3.75
 44
1.25
 73
     0
 74
     0
 77
     1
 78
     8
140
2.5
141
2.5
143
0.03937007874016
147
0.625
171
     3
172
     1
271
     2
272
     2
274
     3
278
    44
283
     0
284
     8
340
11
1001
AcadAnnotative
1000
AnnotativeData
1002
{
1070
     1
1070
     1
1002
}
1001
ACAD_DSTYLE_DIMJAG
1070
   388
1040
1.5
1001
ACAD_DSTYLE_DIMTALN
1070
   392
1070
     0
  0
ENDTAB
  0
TABLE
  2
BLOCK_RECORD
  5
1
330
0
100
AcDbSymbolTable
 70
     5
  0
BLOCK_RECORD
  5
1F
330
1
100
AcDbSymbolTableRecord
100
AcDbBlockTableRecord
  2
*Model_Space
340
22
  0
BLOCK_RECORD
  5
D2
330
1
100
AcDbSymbolTableRecord
100
AcDbBlockTableRecord
  2
*Paper_Space
340
D3
  0
BLOCK_RECORD
  5
D6
330
1
100
AcDbSymbolTableRecord
100
AcDbBlockTableRecord
  2
*Paper_Space0
340
D7
  0
BLOCK_RECORD
  5
413
330
1
100
AcDbSymbolTableRecord
100
AcDbBlockTableRecord
  2
1
340
0
310
2800000020000000200000000100080000000000000400000000000000000000000000000000000000000000000080000080000000808000800000008000800080800000C0C0C000C0DCC000F0CAA6000020400000206000002080000020A0000020C0000020E00000400000004020000040400000406000004080000040A0
310
000040C0000040E00000600000006020000060400000606000006080000060A0000060C0000060E00000800000008020000080400000806000008080000080A0000080C0000080E00000A0000000A0200000A0400000A0600000A0800000A0A00000A0C00000A0E00000C0000000C0200000C0400000C0600000C0800000C0
310
A00000C0C00000C0E00000E0000000E0200000E0400000E0600000E0800000E0A00000E0C00000E0E00040000000400020004000400040006000400080004000A0004000C0004000E00040200000402020004020400040206000402080004020A0004020C0004020E000404000004040200040404000404060004040800040
310
40A0004040C0004040E00040600000406020004060400040606000406080004060A0004060C0004060E00040800000408020004080400040806000408080004080A0004080C0004080E00040A0000040A0200040A0400040A0600040A0800040A0A00040A0C00040A0E00040C0000040C0200040C0400040C0600040C08000
310
40C0A00040C0C00040C0E00040E0000040E0200040E0400040E0600040E0800040E0A00040E0C00040E0E00080000000800020008000400080006000800080008000A0008000C0008000E00080200000802020008020400080206000802080008020A0008020C0008020E00080400000804020008040400080406000804080
310
008040A0008040C0008040E00080600000806020008060400080606000806080008060A0008060C0008060E00080800000808020008080400080806000808080008080A0008080C0008080E00080A0000080A0200080A0400080A0600080A0800080A0A00080A0C00080A0E00080C0000080C0200080C0400080C0600080C0
310
800080C0A00080C0C00080C0E00080E0000080E0200080E0400080E0600080E0800080E0A00080E0C00080E0E000C0000000C0002000C0004000C0006000C0008000C000A000C000C000C000E000C0200000C0202000C0204000C0206000C0208000C020A000C020C000C020E000C0400000C0402000C0404000C0406000C0
310
408000C040A000C040C000C040E000C0600000C0602000C0604000C0606000C0608000C060A000C060C000C060E000C0800000C0802000C0804000C0806000C0808000C080A000C080C000C080E000C0A00000C0A02000C0A04000C0A06000C0A08000C0A0A000C0A0C000C0A0E000C0C00000C0C02000C0C04000C0C06000
310
C0C08000C0C0A000F0FBFF00A4A0A000808080000000FF0000FF000000FFFF00FF000000FF00FF00FFFF0000FFFFFF000000000000000000000000000000000000000000000000000000000000000000000000FFFFFFFFFFFFFFFFFFFFFFFF0000FFFFFFFFFFFFFFFFFFFFFFFF000000000000FFFFFFFF00000000FFFFFFFF
310
0000FFFFFFFF00000000FFFFFFFF000000000000FFFFFFFFFFFFFFFFFFFFFFFF0000FFFFFFFFFFFFFFFFFFFFFFFF0000000000FFFFFFFFFFFFFFFFFFFFFFFF00000000FFFFFFFFFFFFFFFFFFFFFFFF00000000FF0000000000000000000000FF0000FF0000000000000000000000FF00000000FF0000000000000000000000
310
FF0000FF0000000000000000000000FF00000000FF000000FFFFFFFFFF000000FF0000FF000000FFFFFFFFFF000000FF00000000FF000000FFFF0000FF000000FF0000FF000000FF0000FFFF000000FF00000000FF000000FFFF0000FF000000FF0000FF000000FF0000FFFF000000FF00000000FF000000FFFF0000FF0000
310
00FF0000FF000000FF0000FFFF000000FF00000000FF000000FFFFFFFFFF000000FF0000FF000000FFFFFFFFFF000000FF00000000FF0000000000000000000000FF0000FF0000000000000000000000FF00000000FF0000000000000000000000FF0000FF0000000000000000000000FF00000000FF000000000000000000
310
0000FF0000FF0000000000000000000000FF00000000FF0000000000000000000000FF0000FF0000000000000000000000FF00000000FF0000000000000000000000FFFFFFFF0000000000000000000000FF00000000FF0000000000000000000000FF0000FF0000000000000000000000FF00000000FF0000000000000000
310
000000FF0000FF0000000000000000000000FF00000000FF0000000000000000000000FF0000FF0000000000000000000000FF00000000FF0000000000000000000000FF0000FF0000000000000000000000FF00000000FF0000000000000000000000FF0000FF0000000000000000000000FF00000000FF00000000000000
310
00000000FF0000FF0000000000000000000000FF00000000FF0000000000000000000000FF0000FF0000000000000000000000FF0000000000FF00000000000000000000FF0000FF00000000000000000000FF00000000000000FF000000000000000000FF0000FF000000000000000000FF000000000000000000FFFF0000
310
0000000000FF0000FF0000000000000000FF000000000000000000000000FF000000000000FF0000FF000000000000FFFF0000000000000000000000000000FF0000000000FF0000FF0000000000FF0000000000000000000000000000000000FF00000000FFFFFFFF00000000FF0000000000000000000000000000000000
310
0000FFFFFFFFFFFFFFFFFFFFFFFF000000000000000000000000000000000000000000000000000000000000000000000000000000000000
102
{BLKREFS
331
47D
102
}
1001
ACAD
1000
DesignCenter Data
1002
{
1070
     1
1070
     4
1002
}
  0
BLOCK_RECORD
  5
47E
330
1
100
AcDbSymbolTableRecord
100
AcDbBlockTableRecord
  2
2
340
0
310
2800000020000000200000000100080000000000000400000000000000000000000000000000000000000000000080000080000000808000800000008000800080800000C0C0C000C0DCC000F0CAA6000020400000206000002080000020A0000020C0000020E00000400000004020000040400000406000004080000040A0
310
000040C0000040E00000600000006020000060400000606000006080000060A0000060C0000060E00000800000008020000080400000806000008080000080A0000080C0000080E00000A0000000A0200000A0400000A0600000A0800000A0A00000A0C00000A0E00000C0000000C0200000C0400000C0600000C0800000C0
310
A00000C0C00000C0E00000E0000000E0200000E0400000E0600000E0800000E0A00000E0C00000E0E00040000000400020004000400040006000400080004000A0004000C0004000E00040200000402020004020400040206000402080004020A0004020C0004020E000404000004040200040404000404060004040800040
310
40A0004040C0004040E00040600000406020004060400040606000406080004060A0004060C0004060E00040800000408020004080400040806000408080004080A0004080C0004080E00040A0000040A0200040A0400040A0600040A0800040A0A00040A0C00040A0E00040C0000040C0200040C0400040C0600040C08000
310
40C0A00040C0C00040C0E00040E0000040E0200040E0400040E0600040E0800040E0A00040E0C00040E0E00080000000800020008000400080006000800080008000A0008000C0008000E00080200000802020008020400080206000802080008020A0008020C0008020E00080400000804020008040400080406000804080
310
008040A0008040C0008040E00080600000806020008060400080606000806080008060A0008060C0008060E00080800000808020008080400080806000808080008080A0008080C0008080E00080A0000080A0200080A0400080A0600080A0800080A0A00080A0C00080A0E00080C0000080C0200080C0400080C0600080C0
310
800080C0A00080C0C00080C0E00080E0000080E0200080E0400080E0600080E0800080E0A00080E0C00080E0E000C0000000C0002000C0004000C0006000C0008000C000A000C000C000C000E000C0200000C0202000C0204000C0206000C0208000C020A000C020C000C020E000C0400000C0402000C0404000C0406000C0
310
408000C040A000C040C000C040E000C0600000C0602000C0604000C0606000C0608000C060A000C060C000C060E000C0800000C0802000C0804000C0806000C0808000C080A000C080C000C080E000C0A00000C0A02000C0A04000C0A06000C0A08000C0A0A000C0A0C000C0A0E000C0C00000C0C02000C0C04000C0C06000
310
C0C08000C0C0A000F0FBFF00A4A0A000808080000000FF0000FF000000FFFF00FF000000FF00FF00FFFF0000FFFFFF0000000000000000000000000000000000000000000000000000000000000000000000000000000000FFFFFFFFFFFFFFFFFFFFFF00000000000000000000000000000000000000FFFF00000000FF0000
310
00FF0000FF000000000000000000000000000000000000FFFFFFFFFFFFFFFFFFFFFFFFFFFF0000000000000000000000000000000000000000000000000000000000FFFFFFFFFF000000000000000000000000000000000000000000000000000000FF000000FF000000000000000000000000000000000000000000000000
310
000000FF000000FF000000000000000000000000000000000000000000000000000000FF000000FF000000000000000000000000000000000000000000000000000000FF000000FF000000000000000000000000000000000000000000000000000000FF000000FF0000000000000000000000000000000000000000000000
310
00000000FFFFFFFFFF000000000000000000000000000000000000000000000000000000FF000000FF000000000000000000000000000000000000000000000000000000FFFFFFFFFF000000000000000000000000000000000000000000000000000000FF000000FF00000000000000000000000000000000000000000000
310
0000000000FF000000FF000000000000000000000000000000000000000000000000000000FF000000FF0000000000000000000000000000000000000000000000FFFFFFFFFF000000FFFFFFFFFF00000000000000000000000000000000000000FF000000FF000000FF000000FF0000000000000000000000000000000000
310
000000FF0000FF000000FF0000FF000000000000000000000000000000000000000000FF0000FF000000FF0000FF000000000000000000000000000000000000000000FF0000FF000000FF0000FF00000000000000000000000000000000000000000000FF00FF000000FF00FF000000000000000000000000000000000000
310
0000000000FF00FF000000FF00FF0000000000000000000000000000000000000000000000FF00FFFFFFFFFF00FF0000000000000000000000000000000000000000000000FF00FF000000FF00FF000000000000000000000000000000000000000000000000FFFF000000FFFF000000000000000000000000000000000000
310
00000000000000FFFF000000FFFF00000000000000000000000000000000000000000000000000FFFF000000FFFF0000000000000000000000000000000000000000000000000000FF000000FF000000000000000000000000000000000000000000000000000000FF000000FF000000000000000000000000000000000000
310
000000000000000000FFFFFFFFFF000000000000000000000000000000000000000000000000000000000000000000000000000000000000
102
{BLKREFS
331
4A1
102
}
1001
ACAD
1000
DesignCenter Data
1002
{
1070
     1
1070
     4
1002
}
  0
BLOCK_RECORD
  5
4A2
330
1
100
AcDbSymbolTableRecord
100
AcDbBlockTableRecord
  2
3
340
0
310
2800000020000000200000000100080000000000000400000000000000000000000000000000000000000000000080000080000000808000800000008000800080800000C0C0C000C0DCC000F0CAA6000020400000206000002080000020A0000020C0000020E00000400000004020000040400000406000004080000040A0
310
000040C0000040E00000600000006020000060400000606000006080000060A0000060C0000060E00000800000008020000080400000806000008080000080A0000080C0000080E00000A0000000A0200000A0400000A0600000A0800000A0A00000A0C00000A0E00000C0000000C0200000C0400000C0600000C0800000C0
310
A00000C0C00000C0E00000E0000000E0200000E0400000E0600000E0800000E0A00000E0C00000E0E00040000000400020004000400040006000400080004000A0004000C0004000E00040200000402020004020400040206000402080004020A0004020C0004020E000404000004040200040404000404060004040800040
310
40A0004040C0004040E00040600000406020004060400040606000406080004060A0004060C0004060E00040800000408020004080400040806000408080004080A0004080C0004080E00040A0000040A0200040A0400040A0600040A0800040A0A00040A0C00040A0E00040C0000040C0200040C0400040C0600040C08000
310
40C0A00040C0C00040C0E00040E0000040E0200040E0400040E0600040E0800040E0A00040E0C00040E0E00080000000800020008000400080006000800080008000A0008000C0008000E00080200000802020008020400080206000802080008020A0008020C0008020E00080400000804020008040400080406000804080
310
008040A0008040C0008040E00080600000806020008060400080606000806080008060A0008060C0008060E00080800000808020008080400080806000808080008080A0008080C0008080E00080A0000080A0200080A0400080A0600080A0800080A0A00080A0C00080A0E00080C0000080C0200080C0400080C0600080C0
310
800080C0A00080C0C00080C0E00080E0000080E0200080E0400080E0600080E0800080E0A00080E0C00080E0E000C0000000C0002000C0004000C0006000C0008000C000A000C000C000C000E000C0200000C0202000C0204000C0206000C0208000C020A000C020C000C020E000C0400000C0402000C0404000C0406000C0
310
408000C040A000C040C000C040E000C0600000C0602000C0604000C0606000C0608000C060A000C060C000C060E000C0800000C0802000C0804000C0806000C0808000C080A000C080C000C080E000C0A00000C0A02000C0A04000C0A06000C0A08000C0A0A000C0A0C000C0A0E000C0C00000C0C02000C0C04000C0C06000
310
C0C08000C0C0A000F0FBFF00A4A0A000808080000000FF0000FF000000FFFF00FF000000FF00FF00FFFF0000FFFFFF0000000000000000000000000000000000000000000000000000000000000000000000000000000000000000000000000000000000000000000000000000000000000000000000000000000000000000
310
0000000000000000000000000000000000000000000000000000000000000000000000000000000000000000000000000000000000000000000000000000000000000000000000000000000000000000000000FFFFFF00000000000000FFFFFF0000FFFFFF00000000000000FFFFFF00000000FF0000FF000000000000FF00
310
FF0000FF0000FF000000000000FF00FF00000000FF0000FF0000000000FF0000FF0000FF0000FF0000000000FF0000FF00000000FF0000FF0000000000FF0000FF0000FF0000FF0000000000FF0000FF00000000FF0000FF0000000000FF0000FF0000FF0000FF0000000000FF0000FF00000000FF0000FFFFFFFFFFFFFF00
310
00FF0000FF0000FFFFFFFFFFFFFF0000FF00000000FF0000000000000000000000FF0000FF0000000000000000000000FF00000000FF0000000000000000000000FF0000FF0000000000000000000000FF0000000000FF00000000000000000000FFFFFFFFFF00000000000000000000FF0000000000FF0000000000000000
310
00FFFF0000FFFF000000000000000000FF00000000000000FF0000000000000000FFFF0000FF00FF0000000000000000FF00000000000000FF00000000000000FF00FF0000FF00FF00000000000000FF0000000000FFFFFFFFFFFFFFFFFFFFFFFFFFFFFFFFFFFFFFFFFFFFFFFFFFFFFFFFFFFF0000FFFF000000000000FF00
310
0000000000000000000000FF000000000000FFFF0000FFFF000000000000FF000000000000000000000000FF000000000000FFFF0000FFFF000000000000FF000000000000000000000000FF000000000000FFFF0000FFFFFFFFFFFFFFFFFFFFFFFFFFFFFFFFFFFFFFFFFFFFFFFFFFFFFFFFFFFF0000000000000000000000
310
00000000FF0000FF00000000000000000000000000000000000000000000000000000000FF0000FF00000000000000000000000000000000000000000000000000000000FF0000FF00000000000000000000000000000000000000000000000000000000FF0000FF0000000000000000000000000000000000000000000000
310
0000000000FFFFFFFF00000000000000000000000000000000000000000000000000000000000000000000000000000000000000000000000000000000000000000000000000000000000000000000000000000000000000000000000000000000000000000000000000000000000000000000000000000000000000000000
310
0000000000000000000000000000000000000000000000000000000000000000000000000000000000000000000000000000000000000000
102
{BLKREFS
331
4D5
102
}
1001
ACAD
1000
DesignCenter Data
1002
{
1070
     1
1070
     4
1002
}
  0
BLOCK_RECORD
  5
4D6
330
1
100
AcDbSymbolTableRecord
100
AcDbBlockTableRecord
  2
4
340
0
310
2800000020000000200000000100080000000000000400000000000000000000000000000000000000000000000080000080000000808000800000008000800080800000C0C0C000C0DCC000F0CAA6000020400000206000002080000020A0000020C0000020E00000400000004020000040400000406000004080000040A0
310
000040C0000040E00000600000006020000060400000606000006080000060A0000060C0000060E00000800000008020000080400000806000008080000080A0000080C0000080E00000A0000000A0200000A0400000A0600000A0800000A0A00000A0C00000A0E00000C0000000C0200000C0400000C0600000C0800000C0
310
A00000C0C00000C0E00000E0000000E0200000E0400000E0600000E0800000E0A00000E0C00000E0E00040000000400020004000400040006000400080004000A0004000C0004000E00040200000402020004020400040206000402080004020A0004020C0004020E000404000004040200040404000404060004040800040
310
40A0004040C0004040E00040600000406020004060400040606000406080004060A0004060C0004060E00040800000408020004080400040806000408080004080A0004080C0004080E00040A0000040A0200040A0400040A0600040A0800040A0A00040A0C00040A0E00040C0000040C0200040C0400040C0600040C08000
310
40C0A00040C0C00040C0E00040E0000040E0200040E0400040E0600040E0800040E0A00040E0C00040E0E00080000000800020008000400080006000800080008000A0008000C0008000E00080200000802020008020400080206000802080008020A0008020C0008020E00080400000804020008040400080406000804080
310
008040A0008040C0008040E00080600000806020008060400080606000806080008060A0008060C0008060E00080800000808020008080400080806000808080008080A0008080C0008080E00080A0000080A0200080A0400080A0600080A0800080A0A00080A0C00080A0E00080C0000080C0200080C0400080C0600080C0
310
800080C0A00080C0C00080C0E00080E0000080E0200080E0400080E0600080E0800080E0A00080E0C00080E0E000C0000000C0002000C0004000C0006000C0008000C000A000C000C000C000E000C0200000C0202000C0204000C0206000C0208000C020A000C020C000C020E000C0400000C0402000C0404000C0406000C0
310
408000C040A000C040C000C040E000C0600000C0602000C0604000C0606000C0608000C060A000C060C000C060E000C0800000C0802000C0804000C0806000C0808000C080A000C080C000C080E000C0A00000C0A02000C0A04000C0A06000C0A08000C0A0A000C0A0C000C0A0E000C0C00000C0C02000C0C04000C0C06000
310
C0C08000C0C0A000F0FBFF00A4A0A000808080000000FF0000FF000000FFFF00FF000000FF00FF00FFFF0000FFFFFF00000000000000000000000000000000000000000000000000000000000000000000000000000000000000000000FF000000000000000000000000000000000000000000000000000000000000FFFFFF
310
000000000000000000000000000000000000000000000000000000FFFFFF00FF000000000000000000000000000000000000000000000000000000FF00FFFF000000FFFF000000000000000000000000000000000000000000FFFFFF00FFFFFFFFFFFFFFFF00000000000000000000000000000000000000FFFFFF0000FFFF
310
FFFFFFFFFFFFFFFFFF0000000000000000000000000000FFFFFFFFFF0000000000FFFF00FF0000FFFF0000000000000000000000000000FF00FF0000FFFF00FFFF0000FFFFFFFFFF000000000000000000000000000000FF00FF00FF0000FFFF0000FF00FFFFFFFFFFFFFFFFFFFF000000000000000000FFFFFF00FFFFFF00
310
FF00FFFFFF00FFFF0000FFFFFF00FF0000000000000000FFFFFFFF00FF00FF00FFFFFFFFFF0000FFFFFFFF00FFFF000000000000000000FFFFFFFF0000FFFF00FFFFFF0000FF00000000FFFF000000000000000000000000FF00FF0000000000FF00FF000000FFFFFFFF0000000000000000000000000000FF00FF00000000
310
00FF00FF00FF000000FF000000000000000000000000000000FF00FF0000000000FF00FF00FFFFFF00FF000000000000000000000000000000FF00FF0000000000FF00FFFFFF00FF00FF000000000000000000000000000000FF00FF0000000000FFFFFFFFFFFFFF00FF000000000000000000000000000000FFFF00FF0000
310
000000FF00FFFF000000FF000000000000000000000000000000FF0000FF0000000000FFFF00FF000000FF00000000000000000000000000000000FF0000FF00000000FFFFFF00000000FF00000000000000000000000000000000FF0000FF00000000FFFFFF00000000FF0000000000000000000000000000000000FF0000
310
FF000000FFFFFF00000000FF0000000000000000000000000000000000FF0000FF000000FF00FF00000000FF000000000000000000000000000000000000FF00FFFF0000FFFF0000000000FF000000000000000000000000000000000000FFFF0000FFFFFFFF0000000000FF00000000000000000000000000000000000000
310
FFFF000000FF0000000000FF00000000000000000000000000000000000000000000FFFF0000FFFF00FFFF00000000000000000000000000000000000000000000000000FFFF0000FF0000FF0000000000000000000000000000000000000000000000000000FFFFFFFFFF0000000000000000000000000000000000000000
310
0000000000000000000000000000000000000000000000000000000000000000000000000000000000000000000000000000000000000000
102
{BLKREFS
331
553
102
}
1001
ACAD
1000
DesignCenter Data
1002
{
1070
     1
1070
     4
1002
}
  0
ENDTAB
  0
ENDSEC
  0
SECTION
  2
BLOCKS
  0
BLOCK
  5
20
330
1F
100
AcDbEntity
  8
0
100
AcDbBlockBegin
  2
*Model_Space
 70
     0
 10
0.0
 20
0.0
 30
0.0
  3
*Model_Space
  1

  0
ENDBLK
  5
21
330
1F
100
AcDbEntity
  8
0
100
AcDbBlockEnd
  0
BLOCK
  5
D4
330
D2
100
AcDbEntity
 67
     1
  8
0
100
AcDbBlockBegin
  2
*Paper_Space
 70
     0
 10
0.0
 20
0.0
 30
0.0
  3
*Paper_Space
  1

  0
ENDBLK
  5
D5
330
D2
100
AcDbEntity
 67
     1
  8
0
100
AcDbBlockEnd
  0
BLOCK
  5
D8
330
D6
100
AcDbEntity
 67
     1
  8
0
100
AcDbBlockBegin
  2
*Paper_Space0
 70
     0
 10
0.0
 20
0.0
 30
0.0
  3
*Paper_Space0
  1

  0
ENDBLK
  5
D9
330
D6
100
AcDbEntity
 67
     1
  8
0
100
AcDbBlockEnd
  0
BLOCK
  5
414
330
413
100
AcDbEntity
  8
0
100
AcDbBlockBegin
  2
1
 70
     0
 10
0.0
 20
0.0
 30
0.0
  3
1
  1

  0
LINE
  5
416
330
413
100
AcDbEntity
  8
0
  6
Continuous
 62
     7
370
    15
100
AcDbLine
 10
1572.906263539032
 20
1110.089237892693
 30
0.0
 11
1573.28835682983
 21
1110.089237892693
 31
0.0
  0
LINE
  5
417
330
413
100
AcDbEntity
  8
0
  6
Continuous
 62
     7
370
    15
100
AcDbLine
 10
1573.28835682983
 20
1110.089237892693
 30
0.0
 11
1573.28835682983
 21
1109.389237892693
 31
0.0
  0
LINE
  5
418
330
413
100
AcDbEntity
  8
0
  6
Continuous
 62
     7
370
    15
100
AcDbLine
 10
1572.906263539032
 20
1109.204131117543
 30
0.0
 11
1573.28835682983
 21
1109.389237892693
 31
0.0
  0
LINE
  5
419
330
413
100
AcDbEntity
  8
0
  6
Continuous
 62
     7
370
    15
100
AcDbLine
 10
1572.906263539032
 20
1109.204131117543
 30
0.0
 11
1572.906263539032
 21
1110.089237892693
 31
0.0
  0
LINE
  5
41A
330
413
100
AcDbEntity
  8
0
  6
Continuous
 62
     7
370
    15
100
AcDbLine
 10
1581.056263539032
 20
1109.204131117543
 30
0.0
 11
1581.43835682983
 21
1109.389237892693
 31
0.0
  0
LINE
  5
41B
330
413
100
AcDbEntity
  8
0
  6
Continuous
 62
     7
370
    15
100
AcDbLine
 10
1582.43835682983
 20
1109.389237892693
 30
0.0
 11
1581.43835682983
 21
1109.389237892693
 31
0.0
  0
LINE
  5
41C
330
413
100
AcDbEntity
  8
0
  6
Continuous
 62
     7
370
    15
100
AcDbLine
 10
1581.005309364552
 20
1109.089237892693
 30
0.0
 11
1582.43835682983
 21
1109.089237892693
 31
0.0
  0
LINE
  5
41D
330
413
100
AcDbEntity
  8
0
  6
Continuous
 62
     7
370
    15
100
AcDbLine
 10
1581.056263539032
 20
1109.204131117543
 30
0.0
 11
1581.005309364552
 21
1109.089237892693
 31
0.0
  0
LINE
  5
41E
330
413
100
AcDbEntity
  8
0
  6
Continuous
 62
     7
370
    15
100
AcDbLine
 10
1582.43835682983
 20
1109.089237892693
 30
0.0
 11
1582.43835682983
 21
1109.389237892693
 31
0.0
  0
LINE
  5
41F
330
413
100
AcDbEntity
  8
0
  6
Continuous
 62
     7
370
    15
100
AcDbLine
 10
1577.43835682983
 20
1109.389237892693
 30
0.0
 11
1577.820450120629
 21
1109.204131117543
 31
0.0
  0
LINE
  5
420
330
413
100
AcDbEntity
  8
0
  6
Continuous
 62
     7
370
    15
100
AcDbLine
 10
1577.871404295109
 20
1109.089237892693
 30
0.0
 11
1577.820450120629
 21
1109.204131117543
 31
0.0
  0
LINE
  5
421
330
413
100
AcDbEntity
  8
0
  6
Continuous
 62
     7
370
    15
100
AcDbLine
 10
1576.43835682983
 20
1109.089237892693
 30
0.0
 11
1577.871404295109
 21
1109.089237892693
 31
0.0
  0
LINE
  5
422
330
413
100
AcDbEntity
  8
0
  6
Continuous
 62
     7
370
    15
100
AcDbLine
 10
1577.43835682983
 20
1109.389237892693
 30
0.0
 11
1576.43835682983
 21
1109.389237892693
 31
0.0
  0
LINE
  5
423
330
413
100
AcDbEntity
  8
0
  6
Continuous
 62
     7
370
    15
100
AcDbLine
 10
1576.43835682983
 20
1109.389237892693
 30
0.0
 11
1576.43835682983
 21
1109.089237892693
 31
0.0
  0
LINE
  5
424
330
413
100
AcDbEntity
  8
0
  6
Continuous
 62
     7
370
    15
100
AcDbLine
 10
1577.820450120629
 20
1110.089237892693
 30
0.0
 11
1577.43835682983
 21
1110.089237892693
 31
0.0
  0
LINE
  5
425
330
413
100
AcDbEntity
  8
0
  6
Continuous
 62
     7
370
    15
100
AcDbLine
 10
1577.820450120629
 20
1109.204131117543
 30
0.0
 11
1577.820450120629
 21
1110.089237892693
 31
0.0
  0
LINE
  5
426
330
413
100
AcDbEntity
  8
0
  6
Continuous
 62
     7
370
    15
100
AcDbLine
 10
1577.43835682983
 20
1110.089237892693
 30
0.0
 11
1577.43835682983
 21
1109.389237892693
 31
0.0
  0
LINE
  5
427
330
413
100
AcDbEntity
  8
0
  6
Continuous
 62
     7
370
    15
100
AcDbLine
 10
1577.43835682983
 20
1110.089237892693
 30
0.0
 11
1576.43835682983
 21
1110.089237892693
 31
0.0
  0
LINE
  5
428
330
413
100
AcDbEntity
  8
0
  6
Continuous
 62
     7
370
    15
100
AcDbLine
 10
1576.43835682983
 20
1109.389237892693
 30
0.0
 11
1576.43835682983
 21
1110.089237892693
 31
0.0
  0
LINE
  5
429
330
413
100
AcDbEntity
  8
0
  6
Continuous
 62
     7
370
    15
100
AcDbLine
 10
1581.43835682983
 20
1110.089237892693
 30
0.0
 11
1581.056263539032
 21
1110.089237892693
 31
0.0
  0
LINE
  5
42A
330
413
100
AcDbEntity
  8
0
  6
Continuous
 62
     7
370
    15
100
AcDbLine
 10
1581.43835682983
 20
1109.389237892693
 30
0.0
 11
1581.43835682983
 21
1110.089237892693
 31
0.0
  0
LINE
  5
42B
330
413
100
AcDbEntity
  8
0
  6
Continuous
 62
     7
370
    15
100
AcDbLine
 10
1581.056263539032
 20
1110.089237892693
 30
0.0
 11
1581.056263539032
 21
1109.204131117543
 31
0.0
  0
LINE
  5
42C
330
413
100
AcDbEntity
  8
0
  6
Continuous
 62
     7
370
    15
100
AcDbLine
 10
1569.28835682983
 20
1110.089237892693
 30
0.0
 11
1569.670450120629
 21
1110.089237892693
 31
0.0
  0
LINE
  5
42D
330
413
100
AcDbEntity
  8
0
  6
Continuous
 62
     7
370
    15
100
AcDbLine
 10
1569.670450120629
 20
1110.089237892693
 30
0.0
 11
1569.670450120629
 21
1109.204131117543
 31
0.0
  0
LINE
  5
42E
330
413
100
AcDbEntity
  8
0
  6
Continuous
 62
     7
370
    15
100
AcDbLine
 10
1569.28835682983
 20
1109.389237892693
 30
0.0
 11
1569.670450120629
 21
1109.204131117543
 31
0.0
  0
LINE
  5
42F
330
413
100
AcDbEntity
  8
0
  6
Continuous
 62
     7
370
    15
100
AcDbLine
 10
1569.28835682983
 20
1109.389237892693
 30
0.0
 11
1569.28835682983
 21
1110.089237892693
 31
0.0
  0
LINE
  5
430
330
413
100
AcDbEntity
  8
0
  6
Continuous
 62
     7
370
    15
100
AcDbLine
 10
1582.43835682983
 20
1110.089237892693
 30
0.0
 11
1581.43835682983
 21
1110.089237892693
 31
0.0
  0
LINE
  5
431
330
413
100
AcDbEntity
  8
0
  6
Continuous
 62
     7
370
    15
100
AcDbLine
 10
1582.43835682983
 20
1109.389237892693
 30
0.0
 11
1582.43835682983
 21
1110.089237892693
 31
0.0
  0
LINE
  5
432
330
413
100
AcDbEntity
  8
0
  6
Continuous
 62
     7
370
    15
100
AcDbLine
 10
1572.855309364552
 20
1109.089237892693
 30
0.0
 11
1574.28835682983
 21
1109.089237892693
 31
0.0
  0
LINE
  5
433
330
413
100
AcDbEntity
  8
0
  6
Continuous
 62
     7
370
    15
100
AcDbLine
 10
1572.906263539032
 20
1109.204131117543
 30
0.0
 11
1572.855309364552
 21
1109.089237892693
 31
0.0
  0
LINE
  5
434
330
413
100
AcDbEntity
  8
0
  6
Continuous
 62
     7
370
    15
100
AcDbLine
 10
1574.28835682983
 20
1109.389237892693
 30
0.0
 11
1573.28835682983
 21
1109.389237892693
 31
0.0
  0
LINE
  5
435
330
413
100
AcDbEntity
  8
0
  6
Continuous
 62
     7
370
    15
100
AcDbLine
 10
1574.28835682983
 20
1109.089237892693
 30
0.0
 11
1574.28835682983
 21
1109.389237892693
 31
0.0
  0
LINE
  5
436
330
413
100
AcDbEntity
  8
0
  6
Continuous
 62
     7
370
    15
100
AcDbLine
 10
1573.28835682983
 20
1110.089237892693
 30
0.0
 11
1574.28835682983
 21
1110.089237892693
 31
0.0
  0
LINE
  5
437
330
413
100
AcDbEntity
  8
0
  6
Continuous
 62
     7
370
    15
100
AcDbLine
 10
1574.28835682983
 20
1109.389237892693
 30
0.0
 11
1574.28835682983
 21
1110.089237892693
 31
0.0
  0
LINE
  5
438
330
413
100
AcDbEntity
  8
0
  6
Continuous
 62
     7
370
    15
100
AcDbLine
 10
1569.28835682983
 20
1109.389237892693
 30
0.0
 11
1568.28835682983
 21
1109.389237892693
 31
0.0
  0
LINE
  5
439
330
413
100
AcDbEntity
  8
0
  6
Continuous
 62
     7
370
    15
100
AcDbLine
 10
1568.28835682983
 20
1109.389237892693
 30
0.0
 11
1568.28835682983
 21
1110.089237892693
 31
0.0
  0
LINE
  5
43A
330
413
100
AcDbEntity
  8
0
  6
Continuous
 62
     7
370
    15
100
AcDbLine
 10
1568.28835682983
 20
1110.089237892693
 30
0.0
 11
1569.28835682983
 21
1110.089237892693
 31
0.0
  0
LINE
  5
43B
330
413
100
AcDbEntity
  8
0
  6
Continuous
 62
     7
370
    15
100
AcDbLine
 10
1568.28835682983
 20
1109.089237892693
 30
0.0
 11
1569.721404295109
 21
1109.089237892693
 31
0.0
  0
LINE
  5
43C
330
413
100
AcDbEntity
  8
0
  6
Continuous
 62
     7
370
    15
100
AcDbLine
 10
1569.721404295109
 20
1109.089237892693
 30
0.0
 11
1569.670450120629
 21
1109.204131117543
 31
0.0
  0
LINE
  5
43D
330
413
100
AcDbEntity
  8
0
  6
Continuous
 62
     7
370
    15
100
AcDbLine
 10
1568.28835682983
 20
1109.389237892693
 30
0.0
 11
1568.28835682983
 21
1109.089237892693
 31
0.0
  0
LINE
  5
43E
330
413
100
AcDbEntity
  8
0
  6
Continuous
 62
     7
370
    15
100
AcDbLine
 10
1577.942922276039
 20
1109.089237892693
 30
0.0
 11
1577.942922276039
 21
1110.089237892693
 31
0.0
  0
LINE
  5
43F
330
413
100
AcDbEntity
  8
0
  6
Continuous
 62
     7
370
    15
100
AcDbLine
 10
1577.942922276039
 20
1109.089237892693
 30
0.0
 11
1577.871404295109
 21
1109.089237892693
 31
0.0
  0
LINE
  5
440
330
413
100
AcDbEntity
  8
0
  6
Continuous
 62
     7
370
    15
100
AcDbLine
 10
1577.942922276039
 20
1110.089237892693
 30
0.0
 11
1577.820450120629
 21
1110.089237892693
 31
0.0
  0
LINE
  5
441
330
413
100
AcDbEntity
  8
0
  6
Continuous
 62
     7
370
    15
100
AcDbLine
 10
1581.005309364552
 20
1109.089237892693
 30
0.0
 11
1580.933791383621
 21
1109.089237892693
 31
0.0
  0
LINE
  5
442
330
413
100
AcDbEntity
  8
0
  6
Continuous
 62
     7
370
    15
100
AcDbLine
 10
1580.933791383621
 20
1109.089237892693
 30
0.0
 11
1580.933791383621
 21
1110.089237892693
 31
0.0
  0
LINE
  5
443
330
413
100
AcDbEntity
  8
0
  6
Continuous
 62
     7
370
    15
100
AcDbLine
 10
1581.056263539032
 20
1110.089237892693
 30
0.0
 11
1580.933791383621
 21
1110.089237892693
 31
0.0
  0
LINE
  5
444
330
413
100
AcDbEntity
  8
0
  6
Continuous
 62
     7
370
    15
100
AcDbLine
 10
1569.79292227604
 20
1109.089237892693
 30
0.0
 11
1569.79292227604
 21
1110.089237892693
 31
0.0
  0
LINE
  5
445
330
413
100
AcDbEntity
  8
0
  6
Continuous
 62
     7
370
    15
100
AcDbLine
 10
1569.721404295109
 20
1109.089237892693
 30
0.0
 11
1569.79292227604
 21
1109.089237892693
 31
0.0
  0
LINE
  5
446
330
413
100
AcDbEntity
  8
0
  6
Continuous
 62
     7
370
    15
100
AcDbLine
 10
1569.670450120629
 20
1110.089237892693
 30
0.0
 11
1569.79292227604
 21
1110.089237892693
 31
0.0
  0
LINE
  5
447
330
413
100
AcDbEntity
  8
0
  6
Continuous
 62
     7
370
    15
100
AcDbLine
 10
1572.783791383621
 20
1109.089237892693
 30
0.0
 11
1572.855309364552
 21
1109.089237892693
 31
0.0
  0
LINE
  5
448
330
413
100
AcDbEntity
  8
0
  6
Continuous
 62
     7
370
    15
100
AcDbLine
 10
1572.783791383621
 20
1109.089237892693
 30
0.0
 11
1572.783791383621
 21
1110.089237892693
 31
0.0
  0
LINE
  5
449
330
413
100
AcDbEntity
  8
0
  6
Continuous
 62
     7
370
    15
100
AcDbLine
 10
1572.783791383621
 20
1110.089237892693
 30
0.0
 11
1572.906263539032
 21
1110.089237892693
 31
0.0
  0
LINE
  5
44A
330
413
100
AcDbEntity
  8
0
  6
Continuous
 62
     7
370
    15
100
AcDbLine
 10
1569.79292227604
 20
1109.089237892693
 30
0.0
 11
1572.783791383621
 21
1109.089237892693
 31
0.0
  0
LINE
  5
44B
330
413
100
AcDbEntity
  8
0
  6
Continuous
 62
     7
370
    15
100
AcDbLine
 10
1569.79292227604
 20
1110.089237892693
 30
0.0
 11
1572.783791383621
 21
1110.089237892693
 31
0.0
  0
LINE
  5
44C
330
413
100
AcDbEntity
  8
0
  6
Continuous
 62
     7
370
    15
100
AcDbLine
 10
1580.933791383621
 20
1109.089237892693
 30
0.0
 11
1577.942922276039
 21
1109.089237892693
 31
0.0
  0
LINE
  5
44D
330
413
100
AcDbEntity
  8
0
  6
Continuous
 62
     7
370
    15
100
AcDbLine
 10
1580.933791383621
 20
1110.089237892693
 30
0.0
 11
1577.942922276039
 21
1110.089237892693
 31
0.0
  0
LINE
  5
44E
330
413
100
AcDbEntity
  8
0
  6
Continuous
 62
     7
370
    15
100
AcDbLine
 10
1574.76335682983
 20
1124.464235069879
 30
0.0
 11
1574.76335682983
 21
1117.46423506988
 31
0.0
  0
LINE
  5
44F
330
413
100
AcDbEntity
  8
0
  6
Continuous
 62
     7
370
    15
100
AcDbLine
 10
1575.96335682983
 20
1124.464235069879
 30
0.0
 11
1574.76335682983
 21
1124.464235069879
 31
0.0
  0
LINE
  5
450
330
413
100
AcDbEntity
  8
0
  6
Continuous
 62
     7
370
    15
100
AcDbLine
 10
1575.96335682983
 20
1124.464235069879
 30
0.0
 11
1575.96335682983
 21
1117.46423506988
 31
0.0
  0
LINE
  5
451
330
413
100
AcDbEntity
  8
0
  6
Continuous
 62
     7
370
    15
100
AcDbLine
 10
1574.76335682983
 20
1117.46423506988
 30
0.0
 11
1575.96335682983
 21
1117.46423506988
 31
0.0
  0
LINE
  5
452
330
413
100
AcDbEntity
  8
0
  6
Continuous
 62
     7
370
    15
100
AcDbLine
 10
1580.53835682983
 20
1112.389237892694
 30
0.0
 11
1580.53835682983
 21
1114.389237892694
 31
0.0
  0
LINE
  5
453
330
413
100
AcDbEntity
  8
0
  6
Continuous
 62
     7
370
    15
100
AcDbLine
 10
1580.53835682983
 20
1114.389237892694
 30
0.0
 11
1578.33835682983
 21
1114.389237892694
 31
0.0
  0
LINE
  5
454
330
413
100
AcDbEntity
  8
0
  6
Continuous
 62
     7
370
    15
100
AcDbLine
 10
1578.33835682983
 20
1114.389237892694
 30
0.0
 11
1578.33835682983
 21
1112.389237892694
 31
0.0
  0
LINE
  5
455
330
413
100
AcDbEntity
  8
0
  6
Continuous
 62
     7
370
    15
100
AcDbLine
 10
1578.33835682983
 20
1112.389237892694
 30
0.0
 11
1580.53835682983
 21
1112.389237892694
 31
0.0
  0
LINE
  5
456
330
413
100
AcDbEntity
  8
0
  6
Continuous
 62
     7
370
    15
100
AcDbLine
 10
1572.38835682983
 20
1112.389237892694
 30
0.0
 11
1572.38835682983
 21
1114.389237892694
 31
0.0
  0
LINE
  5
457
330
413
100
AcDbEntity
  8
0
  6
Continuous
 62
     7
370
    15
100
AcDbLine
 10
1572.38835682983
 20
1114.389237892694
 30
0.0
 11
1570.18835682983
 21
1114.389237892694
 31
0.0
  0
LINE
  5
458
330
413
100
AcDbEntity
  8
0
  6
Continuous
 62
     7
370
    15
100
AcDbLine
 10
1570.18835682983
 20
1114.389237892694
 30
0.0
 11
1570.18835682983
 21
1112.389237892694
 31
0.0
  0
LINE
  5
459
330
413
100
AcDbEntity
  8
0
  6
Continuous
 62
     7
370
    15
100
AcDbLine
 10
1570.18835682983
 20
1112.389237892694
 30
0.0
 11
1572.38835682983
 21
1112.389237892694
 31
0.0
  0
LINE
  5
45A
330
413
100
AcDbEntity
  8
0
  6
Continuous
 62
     7
370
    15
100
AcDbLine
 10
1582.98835682983
 20
1113.964235069873
 30
0.0
 11
1582.98835682983
 21
1115.114235069873
 31
0.0
  0
LINE
  5
45B
330
413
100
AcDbEntity
  8
0
  6
Continuous
 62
     7
370
    15
100
AcDbLine
 10
1582.73835682983
 20
1113.964235069873
 30
0.0
 11
1582.98835682983
 21
1113.964235069873
 31
0.0
  0
LINE
  5
45C
330
413
100
AcDbEntity
  8
0
  6
Continuous
 62
     7
370
    15
100
AcDbLine
 10
1582.73835682983
 20
1110.389237892694
 30
0.0
 11
1582.73835682983
 21
1113.964235069873
 31
0.0
  0
LINE
  5
45D
330
413
100
AcDbEntity
  8
0
  6
Continuous
 62
     7
370
    15
100
AcDbLine
 10
1582.73835682983
 20
1110.389237892694
 30
0.0
 11
1576.63835682983
 21
1110.389237892694
 31
0.0
  0
LINE
  5
45E
330
413
100
AcDbEntity
  8
0
  6
Continuous
 62
     7
370
    15
100
AcDbLine
 10
1576.63835682983
 20
1110.389237892694
 30
0.0
 11
1576.13835682983
 21
1111.255263296477
 31
0.0
  0
LINE
  5
45F
330
413
100
AcDbEntity
  8
0
  6
Continuous
 62
     7
370
    15
100
AcDbLine
 10
1576.13835682983
 20
1117.46423506988
 30
0.0
 11
1576.13835682983
 21
1111.255263296477
 31
0.0
  0
LINE
  5
460
330
413
100
AcDbEntity
  8
0
  6
Continuous
 62
     7
370
    15
100
AcDbLine
 10
1574.58835682983
 20
1117.46423506988
 30
0.0
 11
1574.58835682983
 21
1111.255263296477
 31
0.0
  0
LINE
  5
461
330
413
100
AcDbEntity
  8
0
  6
Continuous
 62
     7
370
    15
100
AcDbLine
 10
1574.08835682983
 20
1110.389237892694
 30
0.0
 11
1574.58835682983
 21
1111.255263296477
 31
0.0
  0
LINE
  5
462
330
413
100
AcDbEntity
  8
0
  6
Continuous
 62
     7
370
    15
100
AcDbLine
 10
1567.98835682983
 20
1110.389237892694
 30
0.0
 11
1574.08835682983
 21
1110.389237892694
 31
0.0
  0
LINE
  5
463
330
413
100
AcDbEntity
  8
0
  6
Continuous
 62
     7
370
    15
100
AcDbLine
 10
1567.98835682983
 20
1113.964235069873
 30
0.0
 11
1567.98835682983
 21
1110.389237892694
 31
0.0
  0
LINE
  5
464
330
413
100
AcDbEntity
  8
0
  6
Continuous
 62
     7
370
    15
100
AcDbLine
 10
1567.73835682983
 20
1113.964235069873
 30
0.0
 11
1567.98835682983
 21
1113.964235069873
 31
0.0
  0
LINE
  5
465
330
413
100
AcDbEntity
  8
0
  6
Continuous
 62
     7
370
    15
100
AcDbLine
 10
1567.73835682983
 20
1115.114235069873
 30
0.0
 11
1567.73835682983
 21
1113.964235069873
 31
0.0
  0
LINE
  5
466
330
413
100
AcDbEntity
  8
0
  6
Continuous
 62
     7
370
    15
100
AcDbLine
 10
1567.98835682983
 20
1115.114235069873
 30
0.0
 11
1567.73835682983
 21
1115.114235069873
 31
0.0
  0
LINE
  5
467
330
413
100
AcDbEntity
  8
0
  6
Continuous
 62
     7
370
    15
100
AcDbLine
 10
1567.98835682983
 20
1115.114235069873
 30
0.0
 11
1567.98835682983
 21
1121.06423506988
 31
0.0
  0
ARC
  5
468
330
413
100
AcDbEntity
  8
0
  6
Continuous
 62
     7
370
    15
100
AcDbCircle
 10
1571.98835682983
 20
1121.06423506988
 30
0.0
 40
4.0
100
AcDbArc
 50
90.0
 51
180.0
  0
LINE
  5
469
330
413
100
AcDbEntity
  8
0
  6
Continuous
 62
     7
370
    15
100
AcDbLine
 10
1571.98835682983
 20
1125.06423506988
 30
0.0
 11
1578.73835682983
 21
1125.06423506988
 31
0.0
  0
ARC
  5
46A
330
413
100
AcDbEntity
  8
0
  6
Continuous
 62
     7
370
    15
100
AcDbCircle
 10
1578.73835682983
 20
1121.06423506988
 30
0.0
 40
4.0
100
AcDbArc
 50
0.0
 51
90.0
  0
LINE
  5
46B
330
413
100
AcDbEntity
  8
0
  6
Continuous
 62
     7
370
    15
100
AcDbLine
 10
1582.73835682983
 20
1121.06423506988
 30
0.0
 11
1582.73835682983
 21
1115.114235069873
 31
0.0
  0
LINE
  5
46C
330
413
100
AcDbEntity
  8
0
  6
Continuous
 62
     7
370
    15
100
AcDbLine
 10
1582.98835682983
 20
1115.114235069873
 30
0.0
 11
1582.73835682983
 21
1115.114235069873
 31
0.0
  0
LINE
  5
46D
330
413
100
AcDbEntity
  8
0
  6
Continuous
 62
     7
370
    15
100
AcDbLine
 10
1574.76335682983
 20
1117.46423506988
 30
0.0
 11
1574.58835682983
 21
1117.46423506988
 31
0.0
  0
LINE
  5
46E
330
413
100
AcDbEntity
  8
0
  6
Continuous
 62
     7
370
    15
100
AcDbLine
 10
1575.96335682983
 20
1117.46423506988
 30
0.0
 11
1576.13835682983
 21
1117.46423506988
 31
0.0
  0
LINE
  5
46F
330
413
100
AcDbEntity
  8
0
  6
Continuous
 62
     7
370
    15
100
AcDbLine
 10
1570.288356831737
 20
1112.389237892694
 30
0.0
 11
1570.288356831737
 21
1114.389237892694
 31
0.0
  0
LINE
  5
470
330
413
100
AcDbEntity
  8
0
  6
Continuous
 62
     7
370
    15
100
AcDbLine
 10
1572.288356831737
 20
1112.389237892694
 30
0.0
 11
1572.288356831737
 21
1114.389237892694
 31
0.0
  0
LINE
  5
471
330
413
100
AcDbEntity
  8
0
  6
Continuous
 62
     7
370
    15
100
AcDbLine
 10
1580.438356831737
 20
1112.389237892694
 30
0.0
 11
1580.438356831737
 21
1114.389237892693
 31
0.0
  0
LINE
  5
472
330
413
100
AcDbEntity
  8
0
  6
Continuous
 62
     7
370
    15
100
AcDbLine
 10
1578.438356831737
 20
1112.389237892694
 30
0.0
 11
1578.438356831737
 21
1114.389237892693
 31
0.0
  0
LINE
  5
473
330
413
100
AcDbEntity
  8
0
  6
Continuous
 62
     7
370
    15
100
AcDbLine
 10
1573.488356831743
 20
1110.289237892693
 30
0.0
 11
1569.088356831742
 21
1110.289237892693
 31
0.0
  0
LINE
  5
474
330
413
100
AcDbEntity
  8
0
  6
Continuous
 62
     7
370
    15
100
AcDbLine
 10
1569.088356831742
 20
1110.289237892693
 30
0.0
 11
1569.088356831742
 21
1110.089237892693
 31
0.0
  0
LINE
  5
475
330
413
100
AcDbEntity
  8
0
  6
Continuous
 62
     7
370
    15
100
AcDbLine
 10
1573.488356831743
 20
1110.089237892693
 30
0.0
 11
1573.488356831743
 21
1110.289237892693
 31
0.0
  0
LINE
  5
476
330
413
100
AcDbEntity
  8
0
  6
Continuous
 62
     7
370
    15
100
AcDbLine
 10
1577.238356827918
 20
1110.289237892693
 30
0.0
 11
1581.638356827918
 21
1110.289237892693
 31
0.0
  0
LINE
  5
477
330
413
100
AcDbEntity
  8
0
  6
Continuous
 62
     7
370
    15
100
AcDbLine
 10
1581.638356827918
 20
1110.289237892693
 30
0.0
 11
1581.638356827918
 21
1110.089237892693
 31
0.0
  0
LINE
  5
478
330
413
100
AcDbEntity
  8
0
  6
Continuous
 62
     7
370
    15
100
AcDbLine
 10
1577.238356827918
 20
1110.089237892693
 30
0.0
 11
1577.238356827918
 21
1110.289237892693
 31
0.0
  0
LINE
  5
479
330
413
100
AcDbEntity
  8
0
  6
Continuous
 62
     7
370
    15
100
AcDbLine
 10
1569.088356831742
 20
1110.389237892694
 30
0.0
 11
1569.088356831742
 21
1110.289237892693
 31
0.0
  0
LINE
  5
47A
330
413
100
AcDbEntity
  8
0
  6
Continuous
 62
     7
370
    15
100
AcDbLine
 10
1573.488356831743
 20
1110.289237892693
 30
0.0
 11
1573.488356831743
 21
1110.389237892694
 31
0.0
  0
LINE
  5
47B
330
413
100
AcDbEntity
  8
0
  6
Continuous
 62
     7
370
    15
100
AcDbLine
 10
1581.638356827918
 20
1110.389237892694
 30
0.0
 11
1581.638356827918
 21
1110.289237892693
 31
0.0
  0
LINE
  5
47C
330
413
100
AcDbEntity
  8
0
  6
Continuous
 62
     7
370
    15
100
AcDbLine
 10
1577.238356827918
 20
1110.289237892693
 30
0.0
 11
1577.238356827918
 21
1110.389237892694
 31
0.0
  0
ENDBLK
  5
415
330
413
100
AcDbEntity
  8
0
100
AcDbBlockEnd
  0
BLOCK
  5
47F
330
47E
100
AcDbEntity
  8
0
100
AcDbBlockBegin
  2
2
 70
     0
 10
0.0
 20
0.0
 30
0.0
  3
2
  1

  0
LINE
  5
481
330
47E
100
AcDbEntity
  8
0
  6
Continuous
 62
     7
370
    15
100
AcDbLine
 10
1558.636068142747
 20
1115.114235069873
 30
0.0
 11
1558.636068142747
 21
1113.964235069873
 31
0.0
  0
LINE
  5
482
330
47E
100
AcDbEntity
  8
0
  6
Continuous
 62
     7
370
    15
100
AcDbLine
 10
1556.036068142747
 20
1113.964235069873
 30
0.0
 11
1556.036068142747
 21
1115.114235069873
 31
0.0
  0
LINE
  5
483
330
47E
100
AcDbEntity
  8
0
  6
Continuous
 62
     7
370
    15
100
AcDbLine
 10
1556.036068142747
 20
1113.964235069873
 30
0.0
 11
1558.636068142747
 21
1113.964235069873
 31
0.0
  0
LINE
  5
484
330
47E
100
AcDbEntity
  8
0
  6
Continuous
 62
     7
370
    15
100
AcDbLine
 10
1556.036068142747
 20
1115.114235069873
 30
0.0
 11
1558.636068142747
 21
1115.114235069873
 31
0.0
  0
LINE
  5
485
330
47E
100
AcDbEntity
  8
0
  6
Continuous
 62
     7
370
    15
100
AcDbLine
 10
1556.036068142747
 20
1121.06423506988
 30
0.0
 11
1558.636068142747
 21
1121.06423506988
 31
0.0
  0
LINE
  5
486
330
47E
100
AcDbEntity
  8
0
  6
Continuous
 62
     7
370
    15
100
AcDbLine
 10
1556.036068142747
 20
1121.06423506988
 30
0.0
 11
1556.036068142747
 21
1115.114235069873
 31
0.0
  0
LINE
  5
487
330
47E
100
AcDbEntity
  8
0
  6
Continuous
 62
     7
370
    15
100
AcDbLine
 10
1558.636068142747
 20
1121.06423506988
 30
0.0
 11
1558.636068142747
 21
1115.114235069873
 31
0.0
  0
LINE
  5
488
330
47E
100
AcDbEntity
  8
0
  6
Continuous
 62
     7
370
    15
100
AcDbLine
 10
1558.636068142747
 20
1125.06423506988
 30
0.0
 11
1556.036068142747
 21
1125.06423506988
 31
0.0
  0
LINE
  5
489
330
47E
100
AcDbEntity
  8
0
  6
Continuous
 62
     7
370
    15
100
AcDbLine
 10
1556.036068142747
 20
1121.06423506988
 30
0.0
 11
1556.036068142747
 21
1125.06423506988
 31
0.0
  0
LINE
  5
48A
330
47E
100
AcDbEntity
  8
0
  6
Continuous
 62
     7
370
    15
100
AcDbLine
 10
1558.636068142747
 20
1125.06423506988
 30
0.0
 11
1558.636068142747
 21
1121.06423506988
 31
0.0
  0
LINE
  5
48B
330
47E
100
AcDbEntity
  8
0
  6
Continuous
 62
     7
370
    15
100
AcDbLine
 10
1558.636068142747
 20
1110.389237892694
 30
0.0
 11
1556.036068142747
 21
1110.389237892694
 31
0.0
  0
LINE
  5
48C
330
47E
100
AcDbEntity
  8
0
  6
Continuous
 62
     7
370
    15
100
AcDbLine
 10
1556.036068142747
 20
1110.389237892694
 30
0.0
 11
1556.036068142747
 21
1113.964235069873
 31
0.0
  0
LINE
  5
48D
330
47E
100
AcDbEntity
  8
0
  6
Continuous
 62
     7
370
    15
100
AcDbLine
 10
1558.636068142747
 20
1110.389237892694
 30
0.0
 11
1558.636068142747
 21
1113.964235069873
 31
0.0
  0
LINE
  5
48E
330
47E
100
AcDbEntity
  8
0
  6
Continuous
 62
     7
370
    15
100
AcDbLine
 10
1550.000000162743
 20
1109.389237892693
 30
0.0
 11
1550.000000162743
 21
1110.089237892693
 31
0.0
  0
LINE
  5
48F
330
47E
100
AcDbEntity
  8
0
  6
Continuous
 62
     7
370
    15
100
AcDbLine
 10
1553.500000165243
 20
1109.089237892693
 30
0.0
 11
1553.500000165243
 21
1110.089237892693
 31
0.0
  0
LINE
  5
490
330
47E
100
AcDbEntity
  8
0
  6
Continuous
 62
     7
370
    15
100
AcDbLine
 10
1551.701384708627
 20
1109.089237892693
 30
0.0
 11
1550.000000162743
 21
1109.389237892693
 31
0.0
  0
LINE
  5
491
330
47E
100
AcDbEntity
  8
0
  6
Continuous
 62
     7
370
    15
100
AcDbLine
 10
1553.500000165243
 20
1109.089237892693
 30
0.0
 11
1551.701384708627
 21
1109.089237892693
 31
0.0
  0
LINE
  5
492
330
47E
100
AcDbEntity
  8
0
  6
Continuous
 62
     7
370
    15
100
AcDbLine
 10
1553.500000165243
 20
1110.089237892693
 30
0.0
 11
1550.000000162743
 21
1110.089237892693
 31
0.0
  0
LINE
  5
493
330
47E
100
AcDbEntity
  8
0
  6
Continuous
 62
     7
370
    15
100
AcDbLine
 10
1555.539607972743
 20
1109.089237892693
 30
0.0
 11
1555.539607972743
 21
1110.089237892693
 31
0.0
  0
LINE
  5
494
330
47E
100
AcDbEntity
  8
0
  6
Continuous
 62
     7
370
    15
100
AcDbLine
 10
1555.539607972743
 20
1109.089237892693
 30
0.0
 11
1553.500000165243
 21
1109.089237892693
 31
0.0
  0
LINE
  5
495
330
47E
100
AcDbEntity
  8
0
  6
Continuous
 62
     7
370
    15
100
AcDbLine
 10
1555.539607972743
 20
1110.089237892693
 30
0.0
 11
1553.500000165243
 21
1110.089237892693
 31
0.0
  0
LINE
  5
496
330
47E
100
AcDbEntity
  8
0
  6
Continuous
 62
     7
370
    15
100
AcDbLine
 10
1556.836068142743
 20
1110.289237892693
 30
0.0
 11
1557.836068142743
 21
1110.289237892693
 31
0.0
  0
LINE
  5
497
330
47E
100
AcDbEntity
  8
0
  6
Continuous
 62
     7
370
    15
100
AcDbLine
 10
1556.836068142747
 20
1110.389237892694
 30
0.0
 11
1556.836068142743
 21
1110.289237892693
 31
0.0
  0
LINE
  5
498
330
47E
100
AcDbEntity
  8
0
  6
Continuous
 62
     7
370
    15
100
AcDbLine
 10
1557.836068142747
 20
1110.389237892694
 30
0.0
 11
1557.836068142743
 21
1110.289237892693
 31
0.0
  0
ARC
  5
499
330
47E
100
AcDbEntity
  8
0
  6
Continuous
 62
     7
370
    15
100
AcDbCircle
 10
1556.636068142743
 20
1110.289237892693
 30
0.0
 40
0.1999999999999815
100
AcDbArc
 50
270.0
 51
0.0
  0
ARC
  5
49A
330
47E
100
AcDbEntity
  8
0
  6
Continuous
 62
     7
370
    15
100
AcDbCircle
 10
1556.636068142743
 20
1110.289237892693
 30
0.0
 40
1.200000000000095
100
AcDbArc
 50
270.0
 51
0.0
  0
LINE
  5
49B
330
47E
100
AcDbEntity
  8
0
  6
Continuous
 62
     7
370
    15
100
AcDbLine
 10
1555.539607972743
 20
1109.089237892693
 30
0.0
 11
1556.636068142743
 21
1109.089237892693
 31
0.0
  0
LINE
  5
49C
330
47E
100
AcDbEntity
  8
0
  6
Continuous
 62
     7
370
    15
100
AcDbLine
 10
1555.539607972743
 20
1110.089237892693
 30
0.0
 11
1556.636068142743
 21
1110.089237892693
 31
0.0
  0
LINE
  5
49D
330
47E
100
AcDbEntity
  8
0
  6
Continuous
 62
     7
370
    15
100
AcDbLine
 10
1556.036068142747
 20
1124.464235069879
 30
0.0
 11
1553.836068142747
 21
1117.46423506988
 31
0.0
  0
LINE
  5
49E
330
47E
100
AcDbEntity
  8
0
  6
Continuous
 62
     7
370
    15
100
AcDbLine
 10
1556.036068142747
 20
1117.46423506988
 30
0.0
 11
1553.836068142747
 21
1117.46423506988
 31
0.0
  0
LINE
  5
49F
330
47E
100
AcDbEntity
  8
0
  6
Continuous
 62
     7
370
    15
100
AcDbLine
 10
1560.836068142747
 20
1117.46423506988
 30
0.0
 11
1558.636068142747
 21
1124.464235069879
 31
0.0
  0
LINE
  5
4A0
330
47E
100
AcDbEntity
  8
0
  6
Continuous
 62
     7
370
    15
100
AcDbLine
 10
1558.636068142747
 20
1117.46423506988
 30
0.0
 11
1560.836068142747
 21
1117.46423506988
 31
0.0
  0
ENDBLK
  5
480
330
47E
100
AcDbEntity
  8
0
100
AcDbBlockEnd
  0
BLOCK
  5
4A3
330
4A2
100
AcDbEntity
  8
0
100
AcDbBlockBegin
  2
3
 70
     0
 10
0.0
 20
0.0
 30
0.0
  3
3
  1

  0
LINE
  5
4A5
330
4A2
100
AcDbEntity
  8
0
  6
Continuous
 62
     7
370
    15
100
AcDbLine
 10
1578.73835682983
 20
1098.636067758536
 30
0.0
 11
1582.73835682983
 21
1098.636067758536
 31
0.0
  0
LINE
  5
4A6
330
4A2
100
AcDbEntity
  8
0
  6
Continuous
 62
     7
370
    15
100
AcDbLine
 10
1582.73835682983
 20
1096.036067758536
 30
0.0
 11
1582.73835682983
 21
1098.636067758536
 31
0.0
  0
LINE
  5
4A7
330
4A2
100
AcDbEntity
  8
0
  6
Continuous
 62
     7
370
    15
100
AcDbLine
 10
1582.73835682983
 20
1096.036067758536
 30
0.0
 11
1578.73835682983
 21
1096.036067758536
 31
0.0
  0
LINE
  5
4A8
330
4A2
100
AcDbEntity
  8
0
  6
Continuous
 62
     7
370
    15
100
AcDbLine
 10
1578.73835682983
 20
1098.636067758536
 30
0.0
 11
1578.73835682983
 21
1096.036067758536
 31
0.0
  0
LINE
  5
4A9
330
4A2
100
AcDbEntity
  8
0
  6
Continuous
 62
     7
370
    15
100
AcDbLine
 10
1571.98835682983
 20
1098.636067758536
 30
0.0
 11
1571.98835682983
 21
1096.036067758536
 31
0.0
  0
LINE
  5
4AA
330
4A2
100
AcDbEntity
  8
0
  6
Continuous
 62
     7
370
    15
100
AcDbLine
 10
1571.98835682983
 20
1098.636067758536
 30
0.0
 11
1578.73835682983
 21
1098.636067758536
 31
0.0
  0
LINE
  5
4AB
330
4A2
100
AcDbEntity
  8
0
  6
Continuous
 62
     7
370
    15
100
AcDbLine
 10
1571.98835682983
 20
1096.036067758536
 30
0.0
 11
1578.73835682983
 21
1096.036067758536
 31
0.0
  0
LINE
  5
4AC
330
4A2
100
AcDbEntity
  8
0
  6
Continuous
 62
     7
370
    15
100
AcDbLine
 10
1567.98835682983
 20
1096.036067758536
 30
0.0
 11
1567.98835682983
 21
1098.636067758536
 31
0.0
  0
LINE
  5
4AD
330
4A2
100
AcDbEntity
  8
0
  6
Continuous
 62
     7
370
    15
100
AcDbLine
 10
1567.98835682983
 20
1098.636067758536
 30
0.0
 11
1571.98835682983
 21
1098.636067758536
 31
0.0
  0
LINE
  5
4AE
330
4A2
100
AcDbEntity
  8
0
  6
Continuous
 62
     7
370
    15
100
AcDbLine
 10
1571.98835682983
 20
1096.036067758536
 30
0.0
 11
1567.98835682983
 21
1096.036067758536
 31
0.0
  0
LINE
  5
4AF
330
4A2
100
AcDbEntity
  8
0
  6
Continuous
 62
     7
370
    15
100
AcDbLine
 10
1574.76335682983
 20
1096.036067758536
 30
0.0
 11
1574.76335682983
 21
1093.836067758536
 31
0.0
  0
LINE
  5
4B0
330
4A2
100
AcDbEntity
  8
0
  6
Continuous
 62
     7
370
    15
100
AcDbLine
 10
1575.96335682983
 20
1096.036067758536
 30
0.0
 11
1575.96335682983
 21
1093.836067758536
 31
0.0
  0
LINE
  5
4B1
330
4A2
100
AcDbEntity
  8
0
  6
Continuous
 62
     7
370
    15
100
AcDbLine
 10
1574.76335682983
 20
1093.836067758536
 30
0.0
 11
1575.96335682983
 21
1093.836067758536
 31
0.0
  0
LINE
  5
4B2
330
4A2
100
AcDbEntity
  8
0
  6
Continuous
 62
     7
370
    15
100
AcDbLine
 10
1574.76335682983
 20
1100.836067758536
 30
0.0
 11
1575.96335682983
 21
1100.836067758536
 31
0.0
  0
LINE
  5
4B3
330
4A2
100
AcDbEntity
  8
0
  6
Continuous
 62
     7
370
    15
100
AcDbLine
 10
1575.96335682983
 20
1100.836067758536
 30
0.0
 11
1575.96335682983
 21
1098.636067758536
 31
0.0
  0
LINE
  5
4B4
330
4A2
100
AcDbEntity
  8
0
  6
Continuous
 62
     7
370
    15
100
AcDbLine
 10
1574.76335682983
 20
1098.636067758536
 30
0.0
 11
1574.76335682983
 21
1100.836067758536
 31
0.0
  0
LINE
  5
4B5
330
4A2
100
AcDbEntity
  8
0
  6
Continuous
 62
     7
370
    15
100
AcDbLine
 10
1567.73835682983
 20
1096.036067758536
 30
0.0
 11
1567.73835682983
 21
1098.636067758536
 31
0.0
  0
LINE
  5
4B6
330
4A2
100
AcDbEntity
  8
0
  6
Continuous
 62
     7
370
    15
100
AcDbLine
 10
1567.73835682983
 20
1098.636067758536
 30
0.0
 11
1567.98835682983
 21
1098.636067758536
 31
0.0
  0
LINE
  5
4B7
330
4A2
100
AcDbEntity
  8
0
  6
Continuous
 62
     7
370
    15
100
AcDbLine
 10
1567.98835682983
 20
1096.036067758536
 30
0.0
 11
1567.73835682983
 21
1096.036067758536
 31
0.0
  0
LINE
  5
4B8
330
4A2
100
AcDbEntity
  8
0
  6
Continuous
 62
     7
370
    15
100
AcDbLine
 10
1582.98835682983
 20
1096.036067758536
 30
0.0
 11
1582.98835682983
 21
1098.636067758536
 31
0.0
  0
LINE
  5
4B9
330
4A2
100
AcDbEntity
  8
0
  6
Continuous
 62
     7
370
    15
100
AcDbLine
 10
1582.73835682983
 20
1098.636067758536
 30
0.0
 11
1582.98835682983
 21
1098.636067758536
 31
0.0
  0
LINE
  5
4BA
330
4A2
100
AcDbEntity
  8
0
  6
Continuous
 62
     7
370
    15
100
AcDbLine
 10
1582.98835682983
 20
1096.036067758536
 30
0.0
 11
1582.73835682983
 21
1096.036067758536
 31
0.0
  0
LINE
  5
4BB
330
4A2
100
AcDbEntity
  8
0
  6
Continuous
 62
     7
370
    15
100
AcDbLine
 10
1576.43835682983
 20
1089.999999778532
 30
0.0
 11
1576.43835682983
 21
1093.499999781032
 31
0.0
  0
ARC
  5
4BC
330
4A2
100
AcDbEntity
  8
0
  6
Continuous
 62
     7
370
    15
100
AcDbCircle
 10
1579.43835682983
 20
1093.499999781032
 30
0.0
 40
3.000000000000648
100
AcDbArc
 50
137.1665719339155
 51
180.0
  0
LINE
  5
4BD
330
4A2
100
AcDbEntity
  8
0
  6
Continuous
 62
     7
370
    15
100
AcDbLine
 10
1582.43835682983
 20
1093.499999781032
 30
0.0
 11
1582.43835682983
 21
1089.999999778532
 31
0.0
  0
LINE
  5
4BE
330
4A2
100
AcDbEntity
  8
0
  6
Continuous
 62
     7
370
    15
100
AcDbLine
 10
1582.43835682983
 20
1089.999999778532
 30
0.0
 11
1581.43835682983
 21
1089.999999778532
 31
0.0
  0
LINE
  5
4BF
330
4A2
100
AcDbEntity
  8
0
  6
Continuous
 62
     7
370
    15
100
AcDbLine
 10
1581.056263539032
 20
1091.049792467126
 30
0.0
 11
1580.933791383621
 21
1092.61594205202
 31
0.0
  0
ARC
  5
4C0
330
4A2
100
AcDbEntity
  8
0
  6
Continuous
 62
     7
370
    15
100
AcDbCircle
 10
1579.43835682983
 20
1092.498999778532
 30
0.0
 40
1.500000000000059
100
AcDbArc
 50
4.471403166309055
 51
175.5285968336909
  0
LINE
  5
4C1
330
4A2
100
AcDbEntity
  8
0
  6
Continuous
 62
     7
370
    15
100
AcDbLine
 10
1577.942922276039
 20
1092.61594205202
 30
0.0
 11
1577.820450120628
 21
1091.049792467126
 31
0.0
  0
LINE
  5
4C2
330
4A2
100
AcDbEntity
  8
0
  6
Continuous
 62
     7
370
    15
100
AcDbLine
 10
1581.43835682983
 20
1089.999999778532
 30
0.0
 11
1581.056263539032
 21
1091.049792467126
 31
0.0
  0
LINE
  5
4C3
330
4A2
100
AcDbEntity
  8
0
  6
Continuous
 62
     7
370
    15
100
AcDbLine
 10
1577.43835682983
 20
1089.999999778532
 30
0.0
 11
1576.43835682983
 21
1089.999999778532
 31
0.0
  0
LINE
  5
4C4
330
4A2
100
AcDbEntity
  8
0
  6
Continuous
 62
     7
370
    15
100
AcDbLine
 10
1577.820450120628
 20
1091.049792467126
 30
0.0
 11
1577.43835682983
 21
1089.999999778532
 31
0.0
  0
ARC
  5
4C5
330
4A2
100
AcDbEntity
  8
0
  6
Continuous
 62
     7
370
    15
100
AcDbCircle
 10
1579.43835682983
 20
1093.499999781032
 30
0.0
 40
3.000000000000198
100
AcDbArc
 50
0.0
 51
42.83342811979109
  0
LINE
  5
4C6
330
4A2
100
AcDbEntity
  8
0
  6
Continuous
 62
     7
370
    15
100
AcDbLine
 10
1577.238356828964
 20
1096.036067758536
 30
0.0
 11
1577.23835682983
 21
1095.53960758647
 31
0.0
  0
LINE
  5
4C7
330
4A2
100
AcDbEntity
  8
0
  6
Continuous
 62
     7
370
    15
100
AcDbLine
 10
1581.638356827918
 20
1095.539607588532
 30
0.0
 11
1581.638356827918
 21
1096.036067758536
 31
0.0
  0
LINE
  5
4C8
330
4A2
100
AcDbEntity
  8
0
  6
Continuous
 62
     7
370
    15
100
AcDbLine
 10
1569.28835682983
 20
1089.999999778532
 30
0.0
 11
1569.670450120629
 21
1091.049792467126
 31
0.0
  0
LINE
  5
4C9
330
4A2
100
AcDbEntity
  8
0
  6
Continuous
 62
     7
370
    15
100
AcDbLine
 10
1574.28835682983
 20
1089.999999778532
 30
0.0
 11
1574.28835682983
 21
1093.499999781032
 31
0.0
  0
LINE
  5
4CA
330
4A2
100
AcDbEntity
  8
0
  6
Continuous
 62
     7
370
    15
100
AcDbLine
 10
1573.28835682983
 20
1089.999999778532
 30
0.0
 11
1574.28835682983
 21
1089.999999778532
 31
0.0
  0
LINE
  5
4CB
330
4A2
100
AcDbEntity
  8
0
  6
Continuous
 62
     7
370
    15
100
AcDbLine
 10
1572.906263539032
 20
1091.049792467126
 30
0.0
 11
1573.28835682983
 21
1089.999999778532
 31
0.0
  0
LINE
  5
4CC
330
4A2
100
AcDbEntity
  8
0
  6
Continuous
 62
     7
370
    15
100
AcDbLine
 10
1572.783791383621
 20
1092.615942052018
 30
0.0
 11
1572.906263539032
 21
1091.049792467126
 31
0.0
  0
LINE
  5
4CD
330
4A2
100
AcDbEntity
  8
0
  6
Continuous
 62
     7
370
    15
100
AcDbLine
 10
1569.670450120629
 20
1091.049792467126
 30
0.0
 11
1569.792922276039
 21
1092.615942052018
 31
0.0
  0
LINE
  5
4CE
330
4A2
100
AcDbEntity
  8
0
  6
Continuous
 62
     7
370
    15
100
AcDbLine
 10
1568.28835682983
 20
1089.999999778532
 30
0.0
 11
1569.28835682983
 21
1089.999999778532
 31
0.0
  0
ARC
  5
4CF
330
4A2
100
AcDbEntity
  8
0
  6
Continuous
 62
     7
370
    15
100
AcDbCircle
 10
1571.28835682983
 20
1092.498999778532
 30
0.0
 40
1.499999999999947
100
AcDbArc
 50
4.471403166231127
 51
175.5285968337688
  0
ARC
  5
4D0
330
4A2
100
AcDbEntity
  8
0
  6
Continuous
 62
     7
370
    15
100
AcDbCircle
 10
1571.28835682983
 20
1093.499999781032
 30
0.0
 40
3.000000000000669
100
AcDbArc
 50
0.0
 51
42.83342806608448
  0
LINE
  5
4D1
330
4A2
100
AcDbEntity
  8
0
  6
Continuous
 62
     7
370
    15
100
AcDbLine
 10
1568.28835682983
 20
1093.499999781032
 30
0.0
 11
1568.28835682983
 21
1089.999999778532
 31
0.0
  0
ARC
  5
4D2
330
4A2
100
AcDbEntity
  8
0
  6
Continuous
 62
     7
370
    15
100
AcDbCircle
 10
1571.28835682983
 20
1093.499999781032
 30
0.0
 40
3.000000000000167
100
AcDbArc
 50
137.1665718802089
 51
180.0
  0
LINE
  5
4D3
330
4A2
100
AcDbEntity
  8
0
  6
Continuous
 62
     7
370
    15
100
AcDbLine
 10
1569.088356831742
 20
1095.539607588532
 30
0.0
 11
1569.088356831742
 21
1096.036067758536
 31
0.0
  0
LINE
  5
4D4
330
4A2
100
AcDbEntity
  8
0
  6
Continuous
 62
     7
370
    15
100
AcDbLine
 10
1573.488356830696
 20
1096.036067758536
 30
0.0
 11
1573.48835682983
 21
1095.53960758647
 31
0.0
  0
ENDBLK
  5
4A4
330
4A2
100
AcDbEntity
  8
0
100
AcDbBlockEnd
  0
BLOCK
  5
4D7
330
4D6
100
AcDbEntity
  8
0
100
AcDbBlockBegin
  2
4
 70
     0
 10
0.0
 20
0.0
 30
0.0
  3
4
  1

  0
LINE
  5
4D9
330
4D6
100
AcDbEntity
  8
0
  6
Continuous
 62
     7
370
    15
100
AcDbLine
 10
1605.018265999824
 20
1123.640298567285
 30
0.0
 11
1603.179788368739
 21
1124.701629112655
 31
0.0
  0
LINE
  5
4DA
330
4D6
100
AcDbEntity
  8
0
  6
Continuous
 62
     7
370
    15
100
AcDbLine
 10
1604.291220740687
 20
1113.827381180237
 30
0.0
 11
1604.291220740687
 21
1115.460462804009
 31
0.0
  0
LINE
  5
4DB
330
4D6
100
AcDbEntity
  8
0
  6
Continuous
 62
     7
370
    15
100
AcDbLine
 10
1604.291220740687
 20
1115.460462804009
 30
0.0
 11
1602.735585822077
 21
1114.562413881003
 31
0.0
  0
LINE
  5
4DC
330
4D6
100
AcDbEntity
  8
0
  6
Continuous
 62
     7
370
    15
100
AcDbLine
 10
1602.735585822077
 20
1114.562413881003
 30
0.0
 11
1602.735585822077
 21
1112.929332257232
 31
0.0
  0
LINE
  5
4DD
330
4D6
100
AcDbEntity
  8
0
  6
Continuous
 62
     7
370
    15
100
AcDbLine
 10
1602.735585822077
 20
1112.929332257232
 30
0.0
 11
1604.291220740687
 21
1113.827381180237
 31
0.0
  0
LINE
  5
4DE
330
4D6
100
AcDbEntity
  8
0
  6
Continuous
 62
     7
370
    15
100
AcDbLine
 10
1598.528300474017
 20
1110.500518124559
 30
0.0
 11
1598.528300474017
 21
1112.133599748331
 31
0.0
  0
LINE
  5
4DF
330
4D6
100
AcDbEntity
  8
0
  6
Continuous
 62
     7
370
    15
100
AcDbLine
 10
1598.528300474017
 20
1112.133599748331
 30
0.0
 11
1596.972665555407
 21
1111.235550825326
 31
0.0
  0
LINE
  5
4E0
330
4D6
100
AcDbEntity
  8
0
  6
Continuous
 62
     7
370
    15
100
AcDbLine
 10
1596.972665555407
 20
1111.235550825326
 30
0.0
 11
1596.972665555407
 21
1109.602469201554
 31
0.0
  0
LINE
  5
4E1
330
4D6
100
AcDbEntity
  8
0
  6
Continuous
 62
     7
370
    15
100
AcDbLine
 10
1596.972665555407
 20
1109.602469201554
 30
0.0
 11
1598.528300474017
 21
1110.500518124559
 31
0.0
  0
LINE
  5
4E2
330
4D6
100
AcDbEntity
  8
0
  6
Continuous
 62
     7
370
    15
100
AcDbLine
 10
1606.023632354595
 20
1116.113530590992
 30
0.0
 11
1606.023632354595
 21
1117.052552524661
 31
0.0
  0
LINE
  5
4E3
330
4D6
100
AcDbEntity
  8
0
  6
Continuous
 62
     7
370
    15
100
AcDbLine
 10
1605.846855659298
 20
1116.011479577014
 30
0.0
 11
1606.023632354595
 21
1116.113530590992
 31
0.0
  0
LINE
  5
4E4
330
4D6
100
AcDbEntity
  8
0
  6
Continuous
 62
     7
370
    15
100
AcDbLine
 10
1605.846855659298
 20
1113.092348479471
 30
0.0
 11
1605.846855659298
 21
1116.011479577014
 31
0.0
  0
LINE
  5
4E5
330
4D6
100
AcDbEntity
  8
0
  6
Continuous
 62
     7
370
    15
100
AcDbLine
 10
1605.846855659298
 20
1113.092348479471
 30
0.0
 11
1601.533504294063
 21
1110.60230373841
 31
0.0
  0
LINE
  5
4E6
330
4D6
100
AcDbEntity
  8
0
  6
Continuous
 62
     7
370
    15
100
AcDbLine
 10
1601.533504294063
 20
1110.60230373841
 30
0.0
 11
1601.17995090347
 21
1111.105346796773
 31
0.0
  0
LINE
  5
4E7
330
4D6
100
AcDbEntity
  8
0
  6
Continuous
 62
     7
370
    15
100
AcDbLine
 10
1601.179950903467
 20
1115.052664495848
 30
0.0
 11
1601.17995090347
 21
1111.105346796773
 31
0.0
  0
LINE
  5
4E8
330
4D6
100
AcDbEntity
  8
0
  6
Continuous
 62
     7
370
    15
100
AcDbLine
 10
1601.056207216759
 20
1121.81957562302
 30
0.0
 11
1600.207679079335
 21
1121.329730755926
 31
0.0
  0
LINE
  5
4E9
330
4D6
100
AcDbEntity
  8
0
  6
Continuous
 62
     7
370
    15
100
AcDbLine
 10
1600.207679079335
 20
1115.613945072726
 30
0.0
 11
1600.207679079335
 21
1121.329730755926
 31
0.0
  0
LINE
  5
4EA
330
4D6
100
AcDbEntity
  8
0
  6
Continuous
 62
     7
370
    15
100
AcDbLine
 10
1600.207679079335
 20
1115.613945072726
 30
0.0
 11
1600.083935392628
 21
1115.542509362942
 31
0.0
  0
LINE
  5
4EB
330
4D6
100
AcDbEntity
  8
0
  6
Continuous
 62
     7
370
    15
100
AcDbLine
 10
1600.083935392628
 20
1115.542509362942
 30
0.0
 11
1600.08393539263
 21
1110.472630510111
 31
0.0
  0
LINE
  5
4EC
330
4D6
100
AcDbEntity
  8
0
  6
Continuous
 62
     7
370
    15
100
AcDbLine
 10
1599.730382002037
 20
1109.561383395835
 30
0.0
 11
1600.08393539263
 21
1110.472630510111
 31
0.0
  0
LINE
  5
4ED
330
4D6
100
AcDbEntity
  8
0
  6
Continuous
 62
     7
370
    15
100
AcDbLine
 10
1595.417030636796
 20
1107.071338654778
 30
0.0
 11
1599.730382002037
 21
1109.561383395835
 31
0.0
  0
LINE
  5
4EE
330
4D6
100
AcDbEntity
  8
0
  6
Continuous
 62
     7
370
    15
100
AcDbLine
 10
1595.417030636796
 20
1109.990469752322
 30
0.0
 11
1595.417030636796
 21
1107.071338654778
 31
0.0
  0
LINE
  5
4EF
330
4D6
100
AcDbEntity
  8
0
  6
Continuous
 62
     7
370
    15
100
AcDbLine
 10
1595.2402539415
 20
1109.888418738344
 30
0.0
 11
1595.417030636796
 21
1109.990469752322
 31
0.0
  0
LINE
  5
4F0
330
4D6
100
AcDbEntity
  8
0
  6
Continuous
 62
     7
370
    15
100
AcDbLine
 10
1595.2402539415
 20
1110.827440672012
 30
0.0
 11
1595.2402539415
 21
1109.888418738344
 31
0.0
  0
LINE
  5
4F1
330
4D6
100
AcDbEntity
  8
0
  6
Continuous
 62
     7
370
    15
100
AcDbLine
 10
1595.417030636796
 20
1110.92949168599
 30
0.0
 11
1595.2402539415
 21
1110.827440672012
 31
0.0
  0
LINE
  5
4F2
330
4D6
100
AcDbEntity
  8
0
  6
Continuous
 62
     7
370
    15
100
AcDbLine
 10
1595.417030636796
 20
1110.92949168599
 30
0.0
 11
1595.417030636796
 21
1115.787909516716
 31
0.0
  0
ARC
  5
4F3
330
4D6
100
AcDbEntity
  8
0
  6
Continuous
 62
     7
370
    15
100
AcDbCircle
 10
1601.557895042267
 20
1115.508466107673
 30
0.0
 40
6.147219230288637
100
AcDbArc
 50
122.6054783400301
 51
177.3945215143501
  0
LINE
  5
4F4
330
4D6
100
AcDbEntity
  8
0
  6
Continuous
 62
     7
370
    15
100
AcDbLine
 10
1598.245457761542
 20
1120.686888987904
 30
0.0
 11
1603.018428534552
 21
1123.442266365306
 31
0.0
  0
ARC
  5
4F5
330
4D6
100
AcDbEntity
  8
0
  6
Continuous
 62
     7
370
    15
100
AcDbCircle
 10
1604.122558189592
 20
1122.088628129011
 30
0.0
 40
1.746836789713851
100
AcDbArc
 50
350.7859630095436
 51
129.2032852357175
  0
LINE
  5
4F6
330
4D6
100
AcDbEntity
  8
0
  6
Continuous
 62
     7
370
    15
100
AcDbLine
 10
1605.846855659298
 20
1121.808919341408
 30
0.0
 11
1605.846855659298
 21
1116.950501510683
 31
0.0
  0
LINE
  5
4F7
330
4D6
100
AcDbEntity
  8
0
  6
Continuous
 62
     7
370
    15
100
AcDbLine
 10
1606.023632354595
 20
1117.052552524661
 30
0.0
 11
1605.846855659298
 21
1116.950501510683
 31
0.0
  0
LINE
  5
4F8
330
4D6
100
AcDbEntity
  8
0
  6
Continuous
 62
     7
370
    15
100
AcDbLine
 10
1595.417030636796
 20
1115.787909516716
 30
0.0
 11
1593.578553005712
 21
1116.849240062085
 31
0.0
  0
ARC
  5
4F9
330
4D6
100
AcDbEntity
  8
0
  6
Continuous
 62
     7
370
    15
100
AcDbCircle
 10
1599.719417411182
 20
1116.569796653043
 30
0.0
 40
6.147219230288568
100
AcDbArc
 50
122.6054783400301
 51
177.3945215143501
  0
LINE
  5
4FA
330
4D6
100
AcDbEntity
  8
0
  6
Continuous
 62
     7
370
    15
100
AcDbLine
 10
1596.406980130457
 20
1121.748219533273
 30
0.0
 11
1598.245457761542
 21
1120.686888987904
 31
0.0
  0
LINE
  5
4FB
330
4D6
100
AcDbEntity
  8
0
  6
Continuous
 62
     7
370
    15
100
AcDbLine
 10
1593.578553005712
 20
1111.99082223136
 30
0.0
 11
1595.417030636796
 21
1110.92949168599
 31
0.0
  0
LINE
  5
4FC
330
4D6
100
AcDbEntity
  8
0
  6
Continuous
 62
     7
370
    15
100
AcDbLine
 10
1593.578553005712
 20
1111.99082223136
 30
0.0
 11
1593.578553005712
 21
1116.849240062085
 31
0.0
  0
LINE
  5
4FD
330
4D6
100
AcDbEntity
  8
0
  6
Continuous
 62
     7
370
    15
100
AcDbLine
 10
1601.179950903467
 20
1124.503596910675
 30
0.0
 11
1603.018428534552
 21
1123.442266365306
 31
0.0
  0
LINE
  5
4FE
330
4D6
100
AcDbEntity
  8
0
  6
Continuous
 62
     7
370
    15
100
AcDbLine
 10
1596.406980130457
 20
1121.748219533273
 30
0.0
 11
1601.179950903467
 21
1124.503596910675
 31
0.0
  0
LINE
  5
4FF
330
4D6
100
AcDbEntity
  8
0
  6
Continuous
 62
     7
370
    15
100
AcDbLine
 10
1600.207679079335
 20
1121.329730755926
 30
0.0
 11
1601.763313997946
 21
1114.715896149721
 31
0.0
  0
LINE
  5
500
330
4D6
100
AcDbEntity
  8
0
  6
Continuous
 62
     7
370
    15
100
AcDbLine
 10
1601.056207216759
 20
1121.81957562302
 30
0.0
 11
1602.611842135369
 21
1115.205741016815
 31
0.0
  0
LINE
  5
501
330
4D6
100
AcDbEntity
  8
0
  6
Continuous
 62
     7
370
    15
100
AcDbLine
 10
1601.763313997946
 20
1114.715896149721
 30
0.0
 11
1602.611842135369
 21
1115.205741016815
 31
0.0
  0
LINE
  5
502
330
4D6
100
AcDbEntity
  8
0
  6
Continuous
 62
     7
370
    15
100
AcDbLine
 10
1600.207679079335
 20
1115.613945072726
 30
0.0
 11
1601.763313997946
 21
1114.715896149721
 31
0.0
  0
LINE
  5
503
330
4D6
100
AcDbEntity
  8
0
  6
Continuous
 62
     7
370
    15
100
AcDbLine
 10
1597.422433535595
 20
1105.097063581615
 30
0.0
 11
1598.694246721716
 21
1104.3628614572
 31
0.0
  0
LINE
  5
504
330
4D6
100
AcDbEntity
  8
0
  6
Continuous
 62
     7
370
    15
100
AcDbLine
 10
1597.422433535595
 20
1105.097063581615
 30
0.0
 11
1597.422433535595
 21
1105.913604393501
 31
0.0
  0
LINE
  5
505
330
4D6
100
AcDbEntity
  8
0
  6
Continuous
 62
     7
370
    15
100
AcDbLine
 10
1597.422433535595
 20
1105.913604393501
 30
0.0
 11
1599.897307271516
 21
1104.484890196791
 31
0.0
  0
LINE
  5
506
330
4D6
100
AcDbEntity
  8
0
  6
Continuous
 62
     7
370
    15
100
AcDbLine
 10
1599.897307271516
 20
1103.913311628471
 30
0.0
 11
1599.897307271516
 21
1104.484890196791
 31
0.0
  0
LINE
  5
507
330
4D6
100
AcDbEntity
  8
0
  6
Continuous
 62
     7
370
    15
100
AcDbLine
 10
1599.897307271516
 20
1103.913311628471
 30
0.0
 11
1598.694246721716
 21
1104.3628614572
 31
0.0
  0
LINE
  5
508
330
4D6
100
AcDbEntity
  8
0
  6
Continuous
 62
     7
370
    15
100
AcDbLine
 10
1599.897307271516
 20
1104.484890196791
 30
0.0
 11
1600.604414052703
 21
1104.893094252703
 31
0.0
  0
LINE
  5
509
330
4D6
100
AcDbEntity
  8
0
  6
Continuous
 62
     7
370
    15
100
AcDbLine
 10
1600.604414052703
 20
1104.321515684382
 30
0.0
 11
1600.604414052703
 21
1104.893094252703
 31
0.0
  0
LINE
  5
50A
330
4D6
100
AcDbEntity
  8
0
  6
Continuous
 62
     7
370
    15
100
AcDbLine
 10
1600.604414052703
 20
1104.321515684382
 30
0.0
 11
1599.897307271516
 21
1103.913311628471
 31
0.0
  0
LWPOLYLINE
  5
50B
330
4D6
100
AcDbEntity
  8
0
  6
Continuous
 62
     7
370
    15
100
AcDbPolyline
 90
       29
 70
   128
 43
0.0
 10
1599.111445180495
 20
1106.166898160385
 10
1599.014184701859
 20
1106.240139501074
 10
1598.930978678917
 20
1106.318940285331
 10
1598.862772183081
 20
1106.402405477367
 10
1598.810339917998
 20
1106.489587062072
 10
1598.774277420301
 20
1106.579494812772
 10
1598.754994295383
 20
1106.671107538428
 10
1598.752709565009
 20
1106.763384682541
 10
1598.767449179625
 20
1106.855278142005
 10
1598.799045723605
 20
1106.945744171689
 10
1598.847140316794
 20
1107.033755239503
 10
1598.911186690743
 20
1107.118311697331
 10
1598.990457393339
 20
1107.198453135239
 10
1599.084052051363
 20
1107.273269290012
 10
1599.190907597111
 20
1107.341910384115
 10
1599.309810342944
 20
1107.403596777643
 10
1599.439409766605
 20
1107.457627823637
 10
1599.578233850731
 20
1107.503389826174
 10
1599.724705802339
 20
1107.540363010858
 10
1599.877161962364
 20
1107.568127428524
 10
1600.033870701853
 20
1107.586367725108
 10
1600.193052090164
 20
1107.594876723507
 10
1600.352898111794
 20
1107.593557776737
 10
1600.511593202194
 20
1107.582425865671
 10
1600.667334869334
 20
1107.561607428883
 10
1600.818354166783
 20
1107.531338926534
 10
1600.962935785772
 20
1107.491964154604
 10
1601.099437538032
 20
1107.443930339988
 10
1601.226309008108
 20
1107.3877830608
  0
LINE
  5
50C
330
4D6
100
AcDbEntity
  8
0
  6
Continuous
 62
     7
370
    15
100
AcDbLine
 10
1600.132279280727
 20
1105.477595917093
 30
0.0
 11
1599.111445180495
 21
1106.166898160385
 31
0.0
  0
LINE
  5
50D
330
4D6
100
AcDbEntity
  8
0
  6
Continuous
 62
     7
370
    15
100
AcDbLine
 10
1600.604414052703
 20
1104.893094252703
 30
0.0
 11
1600.132279280727
 21
1105.477595917093
 31
0.0
  0
ARC
  5
50E
330
4D6
100
AcDbEntity
  8
0
  6
Continuous
 62
     7
370
    15
100
AcDbCircle
 10
1598.085719048978
 20
1107.326162684574
 30
0.0
 40
1.560534715390834
100
AcDbArc
 50
189.3457828876388
 51
244.8469735118434
  0
LINE
  5
50F
330
4D6
100
AcDbEntity
  8
0
  6
Continuous
 62
     7
370
    15
100
AcDbLine
 10
1596.545898450253
 20
1107.072743818501
 30
0.0
 11
1595.982681582874
 21
1107.397881995278
 31
0.0
  0
LINE
  5
510
330
4D6
100
AcDbEntity
  8
0
  6
Continuous
 62
     7
370
    15
100
AcDbLine
 10
1599.093951419727
 20
1109.193979841073
 30
0.0
 11
1599.657168287579
 21
1108.868841662889
 31
0.0
  0
ARC
  5
511
330
4D6
100
AcDbEntity
  8
0
  6
Continuous
 62
     7
370
    15
100
AcDbCircle
 10
1599.644130759558
 20
1104.580323225409
 30
0.0
 40
4.288538255133286
100
AcDbArc
 50
61.88498992745179
 51
89.82581559564634
  0
LINE
  5
512
330
4D6
100
AcDbEntity
  8
0
  6
Continuous
 62
     7
370
    15
100
AcDbLine
 10
1604.139947958636
 20
1106.934114532259
 30
0.0
 11
1601.665074222715
 21
1108.362828728969
 31
0.0
  0
LINE
  5
513
330
4D6
100
AcDbEntity
  8
0
  6
Continuous
 62
     7
370
    15
100
AcDbLine
 10
1603.432841177449
 20
1106.525910476348
 30
0.0
 11
1604.139947958636
 21
1106.934114532259
 31
0.0
  0
LINE
  5
514
330
4D6
100
AcDbEntity
  8
0
  6
Continuous
 62
     7
370
    15
100
AcDbLine
 10
1602.420344891535
 20
1106.798468078658
 30
0.0
 11
1603.432841177449
 21
1106.525910476348
 31
0.0
  0
LINE
  5
515
330
4D6
100
AcDbEntity
  8
0
  6
Continuous
 62
     7
370
    15
100
AcDbLine
 10
1601.226309008108
 20
1107.3877830608
 30
0.0
 11
1602.420344891535
 21
1106.798468078658
 31
0.0
  0
LINE
  5
516
330
4D6
100
AcDbEntity
  8
0
  6
Continuous
 62
     7
370
    15
100
AcDbLine
 10
1595.2402539415
 20
1109.888418738344
 30
0.0
 11
1593.401776310415
 21
1110.949749283713
 31
0.0
  0
LINE
  5
517
330
4D6
100
AcDbEntity
  8
0
  6
Continuous
 62
     7
370
    15
100
AcDbLine
 10
1595.2402539415
 20
1110.827440672012
 30
0.0
 11
1593.401776310415
 21
1111.888771217382
 31
0.0
  0
LINE
  5
518
330
4D6
100
AcDbEntity
  8
0
  6
Continuous
 62
     7
370
    15
100
AcDbLine
 10
1593.401776310415
 20
1110.949749283713
 30
0.0
 11
1593.401776310415
 21
1111.888771217382
 31
0.0
  0
LINE
  5
519
330
4D6
100
AcDbEntity
  8
0
  6
Continuous
 62
     7
370
    15
100
AcDbLine
 10
1593.401776310415
 20
1111.888771217382
 30
0.0
 11
1593.578553005712
 21
1111.99082223136
 31
0.0
  0
ARC
  5
51A
330
4D6
100
AcDbEntity
  8
0
  6
Continuous
 62
     7
370
    15
100
AcDbCircle
 10
1602.351631122869
 20
1122.8680715942
 30
0.0
 40
2.011908943607781
100
AcDbArc
 50
65.69288095391385
 51
125.617577475194
  0
LINE
  5
51B
330
4D6
100
AcDbEntity
  8
0
  6
Continuous
 62
     7
370
    15
100
AcDbLine
 10
1593.578553005712
 20
1108.132669200147
 30
0.0
 11
1595.417030636796
 21
1107.071338654778
 31
0.0
  0
LINE
  5
51C
330
4D6
100
AcDbEntity
  8
0
  6
Continuous
 62
     7
370
    15
100
AcDbLine
 10
1593.578553005712
 20
1110.847698269735
 30
0.0
 11
1593.578553005712
 21
1108.132669200147
 31
0.0
  0
LINE
  5
51D
330
4D6
100
AcDbEntity
  8
0
  6
Continuous
 62
     7
370
    15
100
AcDbLine
 10
1596.545898450253
 20
1106.256203006615
 30
0.0
 11
1596.545898450253
 21
1107.072743818501
 31
0.0
  0
ARC
  5
51E
330
4D6
100
AcDbEntity
  8
0
  6
Continuous
 62
     7
370
    15
100
AcDbCircle
 10
1598.085719048978
 20
1106.509621872688
 30
0.0
 40
1.560534715390876
100
AcDbArc
 50
189.3457828876388
 51
244.8469735118434
  0
LINE
  5
51F
330
4D6
100
AcDbEntity
  8
0
  6
Continuous
 62
     7
370
    15
100
AcDbLine
 10
1598.245457762894
 20
1110.582158936518
 30
0.0
 11
1598.00502674764
 21
1111.831520256036
 31
0.0
  0
LINE
  5
520
330
4D6
100
AcDbEntity
  8
0
  6
Continuous
 62
     7
370
    15
100
AcDbLine
 10
1598.245457762894
 20
1110.582158936518
 30
0.0
 11
1596.972665555407
 21
1109.847391635098
 31
0.0
  0
LINE
  5
521
330
4D6
100
AcDbEntity
  8
0
  6
Continuous
 62
     7
370
    15
100
AcDbLine
 10
1601.226309008108
 20
1106.571242248914
 30
0.0
 11
1601.226309008108
 21
1107.3877830608
 31
0.0
  0
ARC
  5
522
330
4D6
100
AcDbEntity
  8
0
  6
Continuous
 62
     7
370
    15
100
AcDbCircle
 10
1600.273472797062
 20
1104.64488171743
 30
0.0
 40
2.149130461916453
100
AcDbArc
 50
63.68160783954715
 51
128.7338681450035
  0
LINE
  5
523
330
4D6
100
AcDbEntity
  8
0
  6
Continuous
 62
     7
370
    15
100
AcDbLine
 10
1603.432841177449
 20
1106.525910476348
 30
0.0
 11
1603.432841177449
 21
1105.954331908028
 31
0.0
  0
LINE
  5
524
330
4D6
100
AcDbEntity
  8
0
  6
Continuous
 62
     7
370
    15
100
AcDbLine
 10
1602.420344891535
 20
1106.075742273871
 30
0.0
 11
1603.432841177449
 21
1105.954331908028
 31
0.0
  0
LINE
  5
525
330
4D6
100
AcDbEntity
  8
0
  6
Continuous
 62
     7
370
    15
100
AcDbLine
 10
1602.420344891535
 20
1106.075742273871
 30
0.0
 11
1602.420344891535
 21
1106.798468078658
 31
0.0
  0
LINE
  5
526
330
4D6
100
AcDbEntity
  8
0
  6
Continuous
 62
     7
370
    15
100
AcDbLine
 10
1604.139947958636
 20
1106.362535963939
 30
0.0
 11
1604.139947958636
 21
1106.934114532259
 31
0.0
  0
LINE
  5
527
330
4D6
100
AcDbEntity
  8
0
  6
Continuous
 62
     7
370
    15
100
AcDbLine
 10
1604.139947958636
 20
1106.362535963939
 30
0.0
 11
1603.432841177449
 21
1105.954331908028
 31
0.0
  0
LINE
  5
528
330
4D6
100
AcDbEntity
  8
0
  6
Continuous
 62
     7
370
    15
100
AcDbLine
 10
1602.420344891535
 20
1106.075742273871
 30
0.0
 11
1601.923569828375
 21
1106.227110005028
 31
0.0
  0
LINE
  5
529
330
4D6
100
AcDbEntity
  8
0
  6
Continuous
 62
     7
370
    15
100
AcDbLine
 10
1601.226309008108
 20
1106.571242248914
 30
0.0
 11
1601.923569828375
 21
1106.227110005028
 31
0.0
  0
LINE
  5
52A
330
4D6
100
AcDbEntity
  8
0
  6
Continuous
 62
     7
370
    15
100
AcDbLine
 10
1598.227782966586
 20
1110.674003188866
 30
0.0
 11
1598.528300474017
 21
1110.500518124559
 31
0.0
  0
ARC
  5
52B
330
4D6
100
AcDbEntity
  8
0
  6
Continuous
 62
     7
370
    15
100
AcDbCircle
 10
1596.600465093222
 20
1108.070972946994
 30
0.0
 40
1.599347464679894
100
AcDbArc
 50
215.6809999489938
 51
238.7423576353879
  0
LINE
  5
52C
330
4D6
100
AcDbEntity
  8
0
  6
Continuous
 62
     7
370
    15
100
AcDbLine
 10
1596.545898450253
 20
1106.256203006615
 30
0.0
 11
1595.770584028745
 21
1106.703782495154
 31
0.0
  0
LINE
  5
52D
330
4D6
100
AcDbEntity
  8
0
  6
Continuous
 62
     7
370
    15
100
AcDbLine
 10
1601.17995090347
 20
1111.105346796773
 30
0.0
 11
1600.083935392629
 21
1111.738063083436
 31
0.0
  0
LINE
  5
52E
330
4D6
100
AcDbEntity
  8
0
  6
Continuous
 62
     7
370
    15
100
AcDbLine
 10
1605.660227538187
 20
1107.240174684148
 30
0.0
 11
1605.660227538187
 21
1107.811753252469
 31
0.0
  0
LINE
  5
52F
330
4D6
100
AcDbEntity
  8
0
  6
Continuous
 62
     7
370
    15
100
AcDbLine
 10
1606.367334319373
 20
1108.21995730838
 30
0.0
 11
1605.660227538187
 21
1107.811753252469
 31
0.0
  0
LINE
  5
530
330
4D6
100
AcDbEntity
  8
0
  6
Continuous
 62
     7
370
    15
100
AcDbLine
 10
1606.367334319373
 20
1108.21995730838
 30
0.0
 11
1606.367334319373
 21
1107.64837874006
 31
0.0
  0
LINE
  5
531
330
4D6
100
AcDbEntity
  8
0
  6
Continuous
 62
     7
370
    15
100
AcDbLine
 10
1606.367334319373
 20
1107.64837874006
 30
0.0
 11
1605.660227538187
 21
1107.240174684148
 31
0.0
  0
LINE
  5
532
330
4D6
100
AcDbEntity
  8
0
  6
Continuous
 62
     7
370
    15
100
AcDbLine
 10
1604.457166988386
 20
1107.689724512878
 30
0.0
 11
1603.185353802266
 21
1108.423926637293
 31
0.0
  0
LINE
  5
533
330
4D6
100
AcDbEntity
  8
0
  6
Continuous
 62
     7
370
    15
100
AcDbLine
 10
1603.185353802266
 20
1108.423926637293
 30
0.0
 11
1603.185353802266
 21
1109.240467449179
 31
0.0
  0
LINE
  5
534
330
4D6
100
AcDbEntity
  8
0
  6
Continuous
 62
     7
370
    15
100
AcDbLine
 10
1605.660227538187
 20
1107.811753252469
 30
0.0
 11
1603.185353802266
 21
1109.240467449179
 31
0.0
  0
LINE
  5
535
330
4D6
100
AcDbEntity
  8
0
  6
Continuous
 62
     7
370
    15
100
AcDbLine
 10
1605.660227538187
 20
1107.240174684148
 30
0.0
 11
1604.457166988386
 21
1107.689724512878
 31
0.0
  0
LINE
  5
536
330
4D6
100
AcDbEntity
  8
0
  6
Continuous
 62
     7
370
    15
100
AcDbLine
 10
1605.895199547397
 20
1108.804458972771
 30
0.0
 11
1606.367334319373
 21
1108.21995730838
 31
0.0
  0
ARC
  5
537
330
4D6
100
AcDbEntity
  8
0
  6
Continuous
 62
     7
370
    15
100
AcDbCircle
 10
1603.830033754234
 20
1110.638956313586
 30
0.0
 40
1.53992965564649
100
AcDbArc
 50
188.9416669357486
 51
245.2510895342189
  0
LINE
  5
538
330
4D6
100
AcDbEntity
  8
0
  6
Continuous
 62
     7
370
    15
100
AcDbLine
 10
1601.745601847213
 20
1110.724745049606
 30
0.0
 11
1602.308818717029
 21
1110.399606872556
 31
0.0
  0
LINE
  5
539
330
4D6
100
AcDbEntity
  8
0
  6
Continuous
 62
     7
370
    15
100
AcDbLine
 10
1605.42008855144
 20
1112.195704718627
 30
0.0
 11
1604.856871684061
 21
1112.520842895404
 31
0.0
  0
ARC
  5
53A
330
4D6
100
AcDbEntity
  8
0
  6
Continuous
 62
     7
370
    15
100
AcDbCircle
 10
1605.415173133364
 20
1107.939415550884
 30
0.0
 40
4.256292006052214
100
AcDbArc
 50
61.77697413189672
 51
89.93383142592817
  0
LINE
  5
53B
330
4D6
100
AcDbEntity
  8
0
  6
Continuous
 62
     7
370
    15
100
AcDbLine
 10
1607.427994489385
 20
1111.689691784647
 30
0.0
 11
1609.902868225306
 21
1110.260977587937
 31
0.0
  0
LINE
  5
53C
330
4D6
100
AcDbEntity
  8
0
  6
Continuous
 62
     7
370
    15
100
AcDbLine
 10
1609.902868225306
 20
1110.260977587937
 30
0.0
 11
1609.195761444119
 21
1109.852773532026
 31
0.0
  0
LINE
  5
53D
330
4D6
100
AcDbEntity
  8
0
  6
Continuous
 62
     7
370
    15
100
AcDbLine
 10
1609.195761444119
 20
1109.852773532026
 30
0.0
 11
1608.183265158205
 21
1110.125331134335
 31
0.0
  0
LINE
  5
53E
330
4D6
100
AcDbEntity
  8
0
  6
Continuous
 62
     7
370
    15
100
AcDbLine
 10
1608.183265158205
 20
1110.125331134335
 30
0.0
 11
1606.989229274776
 21
1110.714646116478
 31
0.0
  0
LWPOLYLINE
  5
53F
330
4D6
100
AcDbEntity
  8
0
  6
Continuous
 62
     7
370
    15
100
AcDbPolyline
 90
       29
 70
   128
 43
0.0
 10
1606.989229274776
 20
1110.714646116478
 10
1606.8623578047
 20
1110.770793395666
 10
1606.725856052441
 20
1110.818827210282
 10
1606.581274433452
 20
1110.858201982212
 10
1606.430255136003
 20
1110.888470484561
 10
1606.274513468864
 20
1110.909288921348
 10
1606.115818378463
 20
1110.920420832415
 10
1605.955972356834
 20
1110.921739779185
 10
1605.796790968522
 20
1110.913230780786
 10
1605.640082229034
 20
1110.894990484202
 10
1605.487626069009
 20
1110.867226066536
 10
1605.341154117401
 20
1110.830252881852
 10
1605.202330033275
 20
1110.784490879314
 10
1605.072730609614
 20
1110.73045983332
 10
1604.953827863781
 20
1110.668773439792
 10
1604.846972318033
 20
1110.60013234569
 10
1604.75337766001
 20
1110.525316190917
 10
1604.674106957413
 20
1110.445174753009
 10
1604.610060583465
 20
1110.360618295181
 10
1604.561965990276
 20
1110.272607227366
 10
1604.530369446296
 20
1110.182141197683
 10
1604.515629831679
 20
1110.090247738219
 10
1604.517914562053
 20
1109.997970594106
 10
1604.537197686971
 20
1109.90635786845
 10
1604.573260184668
 20
1109.81645011775
 10
1604.625692449751
 20
1109.729268533045
 10
1604.693898945587
 20
1109.64580334101
 10
1604.777104968528
 20
1109.567002556752
 10
1604.874365447164
 20
1109.493761216063
  0
LINE
  5
540
330
4D6
100
AcDbEntity
  8
0
  6
Continuous
 62
     7
370
    15
100
AcDbLine
 10
1604.874365447164
 20
1109.493761216063
 30
0.0
 11
1605.895199547397
 21
1108.804458972771
 31
0.0
  0
LINE
  5
541
330
4D6
100
AcDbEntity
  8
0
  6
Continuous
 62
     7
370
    15
100
AcDbLine
 10
1602.308818717029
 20
1109.58306606067
 30
0.0
 11
1602.308818717029
 21
1110.399606872556
 31
0.0
  0
ARC
  5
542
330
4D6
100
AcDbEntity
  8
0
  6
Continuous
 62
     7
370
    15
100
AcDbCircle
 10
1603.830033754234
 20
1109.8224155017
 30
0.0
 40
1.539929655646353
100
AcDbArc
 50
188.9416669357486
 51
245.2510895342189
  0
LINE
  5
543
330
4D6
100
AcDbEntity
  8
0
  6
Continuous
 62
     7
370
    15
100
AcDbLine
 10
1604.008378029564
 20
1113.909021992196
 30
0.0
 11
1603.767947014309
 21
1115.158383311713
 31
0.0
  0
LINE
  5
544
330
4D6
100
AcDbEntity
  8
0
  6
Continuous
 62
     7
370
    15
100
AcDbLine
 10
1604.008378029564
 20
1113.909021992196
 30
0.0
 11
1602.735585822077
 21
1113.174254690775
 31
0.0
  0
LINE
  5
545
330
4D6
100
AcDbEntity
  8
0
  6
Continuous
 62
     7
370
    15
100
AcDbLine
 10
1606.989229274776
 20
1109.898105304592
 30
0.0
 11
1606.989229274776
 21
1110.714646116478
 31
0.0
  0
ARC
  5
546
330
4D6
100
AcDbEntity
  8
0
  6
Continuous
 62
     7
370
    15
100
AcDbCircle
 10
1606.035157164411
 20
1107.983107127335
 30
0.0
 40
2.139502654982118
100
AcDbArc
 50
63.51703429392366
 51
128.8984416932457
  0
LINE
  5
547
330
4D6
100
AcDbEntity
  8
0
  6
Continuous
 62
     7
370
    15
100
AcDbLine
 10
1600.08393539263
 20
1111.439122053028
 30
0.0
 11
1601.533504294063
 21
1110.60230373841
 31
0.0
  0
LINE
  5
548
330
4D6
100
AcDbEntity
  8
0
  6
Continuous
 62
     7
370
    15
100
AcDbLine
 10
1609.195761444119
 20
1109.281194963706
 30
0.0
 11
1609.195761444119
 21
1109.852773532026
 31
0.0
  0
LINE
  5
549
330
4D6
100
AcDbEntity
  8
0
  6
Continuous
 62
     7
370
    15
100
AcDbLine
 10
1608.183265158205
 20
1109.402605329548
 30
0.0
 11
1609.195761444119
 21
1109.281194963706
 31
0.0
  0
LINE
  5
54A
330
4D6
100
AcDbEntity
  8
0
  6
Continuous
 62
     7
370
    15
100
AcDbLine
 10
1608.183265158205
 20
1110.125331134335
 30
0.0
 11
1608.183265158205
 21
1109.402605329548
 31
0.0
  0
LINE
  5
54B
330
4D6
100
AcDbEntity
  8
0
  6
Continuous
 62
     7
370
    15
100
AcDbLine
 10
1609.902868225306
 20
1109.689399019617
 30
0.0
 11
1609.902868225306
 21
1110.260977587937
 31
0.0
  0
LINE
  5
54C
330
4D6
100
AcDbEntity
  8
0
  6
Continuous
 62
     7
370
    15
100
AcDbLine
 10
1609.902868225306
 20
1109.689399019617
 30
0.0
 11
1609.195761444119
 21
1109.281194963706
 31
0.0
  0
LINE
  5
54D
330
4D6
100
AcDbEntity
  8
0
  6
Continuous
 62
     7
370
    15
100
AcDbLine
 10
1608.183265158205
 20
1109.402605329548
 30
0.0
 11
1607.686490095045
 21
1109.553973060705
 31
0.0
  0
LINE
  5
54E
330
4D6
100
AcDbEntity
  8
0
  6
Continuous
 62
     7
370
    15
100
AcDbLine
 10
1607.686490095045
 20
1109.553973060705
 30
0.0
 11
1606.989229274776
 21
1109.898105304592
 31
0.0
  0
LINE
  5
54F
330
4D6
100
AcDbEntity
  8
0
  6
Continuous
 62
     7
370
    15
100
AcDbLine
 10
1603.990703233256
 20
1114.000866244543
 30
0.0
 11
1604.291220740687
 21
1113.827381180237
 31
0.0
  0
ARC
  5
550
330
4D6
100
AcDbEntity
  8
0
  6
Continuous
 62
     7
370
    15
100
AcDbCircle
 10
1602.54236481259
 20
1111.596930577334
 30
0.0
 40
1.863074968353668
100
AcDbArc
 50
197.1479922210253
 51
237.213992731745
  0
LINE
  5
551
330
4D6
100
AcDbEntity
  8
0
  6
Continuous
 62
     7
370
    15
100
AcDbLine
 10
1601.533504292711
 20
1110.030645549271
 30
0.0
 11
1602.308818717029
 21
1109.58306606067
 31
0.0
  0
LINE
  5
552
330
4D6
100
AcDbEntity
  8
0
  6
Continuous
 62
     7
370
    15
100
AcDbLine
 10
1606.023632354595
 20
1117.052552524661
 30
0.0
 11
1605.846855659298
 21
1117.154603538638
 31
0.0
  0
ENDBLK
  5
4D8
330
4D6
100
AcDbEntity
  8
0
100
AcDbBlockEnd
  0
ENDSEC
  0
SECTION
  2
ENTITIES
  0
INSERT
  5
47D
330
1F
100
AcDbEntity
  8
0
100
AcDbBlockReference
  2
1
 10
0.0
 20
0.0
 30
0.0
  0
INSERT
  5
4A1
330
1F
100
AcDbEntity
  8
0
100
AcDbBlockReference
  2
2
 10
0.0
 20
0.0
 30
0.0
  0
INSERT
  5
4D5
330
1F
100
AcDbEntity
  8
0
100
AcDbBlockReference
  2
3
 10
0.0
 20
0.0
 30
0.0
  0
INSERT
  5
553
330
1F
100
AcDbEntity
  8
0
100
AcDbBlockReference
  2
4
 10
0.0
 20
0.0
 30
0.0
  0
ENDSEC
  0
SECTION
  2
OBJECTS
  0
DICTIONARY
  5
C
330
0
100
AcDbDictionary
281
     1
  3
ACAD_COLOR
350
6B
  3
ACAD_GROUP
350
D
  3
ACAD_LAYOUT
350
1A
  3
ACAD_MATERIAL
350
6A
  3
ACAD_MLEADERSTYLE
350
12D
  3
ACAD_MLINESTYLE
350
17
  3
ACAD_PLOTSETTINGS
350
19
  3
ACAD_PLOTSTYLENAME
350
E
  3
ACAD_SCALELIST
350
10C
  3
ACAD_TABLESTYLE
350
7E
  3
ACAD_VISUALSTYLE
350
EF
  3
ACDB_RECOMPOSE_DATA
350
15D
  3
AcDbVariableDictionary
350
5E
  3
DWGPROPS
350
561
  0
DICTIONARY
  5
13C
330
10
100
AcDbDictionary
280
     1
281
     1
  3
ADSK_XREC_LAYER_RECONCILED
360
554
  0
DICTIONARY
  5
6B
102
{ACAD_REACTORS
330
C
102
}
330
C
100
AcDbDictionary
281
     1
  0
DICTIONARY
  5
D
102
{ACAD_REACTORS
330
C
102
}
330
C
100
AcDbDictionary
281
     1
  0
DICTIONARY
  5
1A
102
{ACAD_REACTORS
330
C
102
}
330
C
100
AcDbDictionary
281
     1
  3
Layout1
350
D3
  3
Layout2
350
D7
  3
Model
350
22
  0
DICTIONARY
  5
6A
102
{ACAD_REACTORS
330
C
102
}
330
C
100
AcDbDictionary
281
     1
  3
ByBlock
350
ED
  3
ByLayer
350
EC
  3
Global
350
EE
  0
DICTIONARY
  5
12D
102
{ACAD_REACTORS
330
C
102
}
330
C
100
AcDbDictionary
281
     1
  3
Annotative
350
13B
  3
Standard
350
12E
  0
DICTIONARY
  5
17
102
{ACAD_REACTORS
330
C
102
}
330
C
100
AcDbDictionary
281
     1
  3
Standard
350
18
  0
DICTIONARY
  5
19
102
{ACAD_REACTORS
330
C
102
}
330
C
100
AcDbDictionary
281
     1
  0
ACDBDICTIONARYWDFLT
  5
E
102
{ACAD_REACTORS
330
C
102
}
330
C
100
AcDbDictionary
281
     1
  3
Normal
350
F
100
AcDbDictionaryWithDefault
340
F
  0
DICTIONARY
  5
10C
102
{ACAD_REACTORS
330
C
102
}
330
C
100
AcDbDictionary
281
     1
  3
A0
350
10D
  3
A1
350
188
  3
A2
350
189
  3
A3
350
18A
  3
A4
350
18B
  3
A5
350
18C
  3
A6
350
18D
  3
A7
350
18E
  3
A8
350
18F
  3
A9
350
190
  3
B0
350
191
  3
B1
350
192
  3
B2
350
193
  3
B3
350
194
  3
B4
350
195
  3
B5
350
196
  3
B6
350
197
  3
B7
350
198
  3
B8
350
199
  3
B9
350
19A
  3
C0
350
19B
  3
C1
350
19C
  3
C2
350
19D
  3
C3
350
19E
  3
C4
350
19F
  3
C5
350
1A0
  3
C6
350
1A1
  3
C7
350
1A2
  3
C8
350
1A3
  3
C9
350
1A4
  3
D0
350
1A5
  3
D1
350
1A6
  3
D2
350
1A7
  0
DICTIONARY
  5
7E
102
{ACAD_REACTORS
330
C
102
}
330
C
100
AcDbDictionary
281
     1
  3
Standard
350
7F
  0
DICTIONARY
  5
EF
102
{ACAD_REACTORS
330
C
102
}
330
C
100
AcDbDictionary
281
     1
  3
2dWireframe
350
F5
  3
3D Hidden
350
F7
  3
3dWireframe
350
F6
  3
Basic
350
F4
  3
Brighten
350
FB
  3
ColorChange
350
FF
  3
Conceptual
350
F8
  3
Dim
350
FA
  3
Facepattern
350
FE
  3
Flat
350
F0
  3
FlatWithEdges
350
F1
  3
Gouraud
350
F2
  3
GouraudWithEdges
350
F3
  3
Linepattern
350
FD
  3
Realistic
350
F9
  3
Thicken
350
FC
  0
XRECORD
  5
15D
102
{ACAD_REACTORS
330
C
102
}
330
C
100
AcDbXrecord
280
     1
 90
        1
330
7F
  0
DICTIONARY
  5
5E
102
{ACAD_REACTORS
330
C
102
}
330
C
100
AcDbDictionary
281
     1
  3
CANNOSCALE
350
146
  3
CMLEADERSTYLE
350
145
  3
CTABLESTYLE
350
84
  3
DIMASSOC
350
5F
  3
HIDETEXT
350
63
  3
INDEXCTL
350
55D
  3
LIGHTINGUNITS
350
55B
  3
MSLTSCALE
350
55A
  3
PSOLHEIGHT
350
55F
  3
PSOLWIDTH
350
55E
  3
SORTENTS
350
55C
  0
XRECORD
  5
561
102
{ACAD_REACTORS
330
C
102
}
330
C
100
AcDbXrecord
280
     1
  1
DWGPROPS COOKIE
  2

  3

  4

  6

  7

  8
orhan kara
  9

300
=
301
=
302
=
303
=
304
=
305
=
306
=
307
=
308
=
309
=
 40
0.0005306597222222
 41
2458556.664945278
 42
2458956.453569537
  1

 90
        0
  0
XRECORD
  5
554
102
{ACAD_REACTORS
330
13C
102
}
330
13C
100
AcDbXrecord
280
     1
290
     1
  0
LAYOUT
  5
D3
102
{ACAD_XDICTIONARY
360
565
102
}
102
{ACAD_REACTORS
330
1A
102
}
330
1A
100
AcDbPlotSettings
  1

  2
C:\Documents and Settings\basas\Application Data\Autodesk\AutoCAD 2005\R16.1\enu\plotters\Default Windows System Printer.pc3
  4

  6

 40
0.0
 41
0.0
 42
0.0
 43
0.0
 44
0.0
 45
0.0
 46
0.0
 47
0.0
 48
0.0
 49
0.0
140
0.0
141
0.0
142
1.0
143
1.0
 70
   688
 72
     0
 73
     0
 74
     5
  7

 75
    16
147
1.0
148
0.0
149
0.0
100
AcDbLayout
  1
Layout1
 70
     1
 71
     1
 10
0.0
 20
0.0
 11
12.0
 21
9.0
 12
0.0
 22
0.0
 32
0.0
 14
0.0
 24
0.0
 34
0.0
 15
0.0
 25
0.0
 35
0.0
146
0.0
 13
0.0
 23
0.0
 33
0.0
 16
1.0
 26
0.0
 36
0.0
 17
0.0
 27
1.0
 37
0.0
 76
     0
330
D2
  0
LAYOUT
  5
D7
102
{ACAD_XDICTIONARY
360
567
102
}
102
{ACAD_REACTORS
330
1A
102
}
330
1A
100
AcDbPlotSettings
  1

  2
C:\Documents and Settings\basas\Application Data\Autodesk\AutoCAD 2005\R16.1\enu\plotters\Default Windows System Printer.pc3
  4

  6

 40
0.0
 41
0.0
 42
0.0
 43
0.0
 44
0.0
 45
0.0
 46
0.0
 47
0.0
 48
0.0
 49
0.0
140
0.0
141
0.0
142
1.0
143
1.0
 70
   688
 72
     0
 73
     0
 74
     5
  7

 75
    16
147
1.0
148
0.0
149
0.0
100
AcDbLayout
  1
Layout2
 70
     1
 71
     2
 10
0.0
 20
0.0
 11
12.0
 21
9.0
 12
0.0
 22
0.0
 32
0.0
 14
0.0
 24
0.0
 34
0.0
 15
0.0
 25
0.0
 35
0.0
146
0.0
 13
0.0
 23
0.0
 33
0.0
 16
1.0
 26
0.0
 36
0.0
 17
0.0
 27
1.0
 37
0.0
 76
     0
330
D6
  0
LAYOUT
  5
22
102
{ACAD_XDICTIONARY
360
562
102
}
102
{ACAD_REACTORS
330
1A
102
}
330
1A
100
AcDbPlotSettings
  1

  2
none_device
  4
ISO_A4_(210.00_x_297.00_MM)
  6

 40
7.5
 41
20.0
 42
7.5
 43
20.0
 44
210.0
 45
297.0
 46
11.54999923706054
 47
-13.65000009536743
 48
0.0
 49
0.0
140
0.0
141
0.0
142
1.0
143
8.704084754739808
 70
 11952
 72
     1
 73
     0
 74
     0
  7

 75
     0
147
0.1148885871608098
148
0.0
149
0.0
100
AcDbLayout
  1
Model
 70
     1
 71
     0
 10
0.0
 20
0.0
 11
12.0
 21
9.0
 12
0.0
 22
0.0
 32
0.0
 14
0.0
 24
0.0
 34
0.0
 15
0.0
 25
0.0
 35
0.0
146
0.0
 13
0.0
 23
0.0
 33
0.0
 16
1.0
 26
0.0
 36
0.0
 17
0.0
 27
1.0
 37
0.0
 76
     0
330
1F
331
EA
1001
ACAD_PSEXT
1000
None
1000
None
1000
Not applicable
1000
The layout will not be plotted unless a new plotter configuration name is selected.
1070
     0
  0
MATERIAL
  5
ED
102
{ACAD_XDICTIONARY
360
56B
102
}
102
{ACAD_REACTORS
330
6A
102
}
330
6A
100
AcDbMaterial
  1
ByBlock
  0
MATERIAL
  5
EC
102
{ACAD_XDICTIONARY
360
569
102
}
102
{ACAD_REACTORS
330
6A
102
}
330
6A
100
AcDbMaterial
  1
ByLayer
  0
MATERIAL
  5
EE
102
{ACAD_XDICTIONARY
360
173
102
}
102
{ACAD_REACTORS
330
6A
102
}
330
6A
100
AcDbMaterial
  1
Global
 43
0.0007999999797903
 43
0.0
 43
0.0
 43
0.0
 43
0.0
 43
0.0007999999797903
 43
0.0
 43
0.0
 43
0.0
 43
0.0
 43
1.0
 43
0.0
 43
0.0
 43
0.0
 43
0.0
 43
1.0
 49
0.0007999999797903
 49
0.0
 49
0.0
 49
0.0
 49
0.0
 49
0.0007999999797903
 49
0.0
 49
0.0
 49
0.0
 49
0.0
 49
1.0
 49
0.0
 49
0.0
 49
0.0
 49
0.0
 49
1.0
142
0.0007999999797903
142
0.0
142
0.0
142
0.0
142
0.0
142
0.0007999999797903
142
0.0
142
0.0
142
0.0
142
0.0
142
1.0
142
0.0
142
0.0
142
0.0
142
0.0
142
1.0
144
0.0007999999797903
144
0.0
144
0.0
144
0.0
144
0.0
144
0.0007999999797903
144
0.0
144
0.0
144
0.0
144
0.0
144
1.0
144
0.0
144
0.0
144
0.0
144
0.0
144
1.0
1001
ACAD
1070
    -1
1070
     3
1070
     0
1000

1071
        0
1070
     0
  0
MLEADERSTYLE
  5
13B
102
{ACAD_REACTORS
330
12D
102
}
330
12D
100
AcDbMLeaderStyle
170
     2
171
     1
172
     0
 90
        2
 40
0.0
 41
0.0
173
     1
 91
-1056964608
340
14
 92
       -2
290
     1
 42
2.0
291
     1
 43
8.0
  3
Standard
 44
4.0
300

342
11
174
     1
178
     1
175
     1
176
     0
 93
-1056964608
 45
4.0
292
     0
297
     0
 46
4.0
 94
-1056964608
 47
1.0
 49
1.0
140
1.0
293
     1
141
0.0
294
     1
177
     0
142
1.0
295
     0
296
     1
143
3.75
1001
ACAD_MLEADERVER
1070
     2
  0
MLEADERSTYLE
  5
12E
102
{ACAD_REACTORS
330
12D
102
}
330
12D
100
AcDbMLeaderStyle
170
     2
171
     1
172
     0
 90
        2
 40
0.0
 41
0.0
173
     1
 91
-1056964608
340
14
 92
       -2
290
     1
 42
2.0
291
     1
 43
8.0
  3
Standard
 44
4.0
300

342
11
174
     1
178
     1
175
     1
176
     0
 93
-1056964608
 45
4.0
292
     0
297
     0
 46
4.0
 94
-1056964608
 47
1.0
 49
1.0
140
1.0
293
     1
141
0.0
294
     1
177
     0
142
1.0
295
     0
296
     0
143
3.75
1001
ACAD_MLEADERVER
1070
     2
  0
MLINESTYLE
  5
18
102
{ACAD_REACTORS
330
17
102
}
330
17
100
AcDbMlineStyle
  2
STANDARD
 70
     0
  3

 62
   256
 51
90.0
 52
90.0
 71
     2
 49
0.5
 62
   256
  6
BYLAYER
 49
-0.5
 62
   256
  6
BYLAYER
  0
ACDBPLACEHOLDER
  5
F
102
{ACAD_REACTORS
330
E
102
}
330
E
  0
SCALE
  5
10D
102
{ACAD_REACTORS
330
10C
102
}
330
10C
100
AcDbScale
 70
     0
300
1:1
140
1.0
141
1.0
290
     1
  0
SCALE
  5
188
102
{ACAD_REACTORS
330
10C
102
}
330
10C
100
AcDbScale
 70
     0
300
1:2
140
1.0
141
2.0
290
     0
  0
SCALE
  5
189
102
{ACAD_REACTORS
330
10C
102
}
330
10C
100
AcDbScale
 70
     0
300
1:4
140
1.0
141
4.0
290
     0
  0
SCALE
  5
18A
102
{ACAD_REACTORS
330
10C
102
}
330
10C
100
AcDbScale
 70
     0
300
1:5
140
1.0
141
5.0
290
     0
  0
SCALE
  5
18B
102
{ACAD_REACTORS
330
10C
102
}
330
10C
100
AcDbScale
 70
     0
300
1:8
140
1.0
141
8.0
290
     0
  0
SCALE
  5
18C
102
{ACAD_REACTORS
330
10C
102
}
330
10C
100
AcDbScale
 70
     0
300
1:10
140
1.0
141
10.0
290
     0
  0
SCALE
  5
18D
102
{ACAD_REACTORS
330
10C
102
}
330
10C
100
AcDbScale
 70
     0
300
1:16
140
1.0
141
16.0
290
     0
  0
SCALE
  5
18E
102
{ACAD_REACTORS
330
10C
102
}
330
10C
100
AcDbScale
 70
     0
300
1:20
140
1.0
141
20.0
290
     0
  0
SCALE
  5
18F
102
{ACAD_REACTORS
330
10C
102
}
330
10C
100
AcDbScale
 70
     0
300
1:30
140
1.0
141
30.0
290
     0
  0
SCALE
  5
190
102
{ACAD_REACTORS
330
10C
102
}
330
10C
100
AcDbScale
 70
     0
300
1:40
140
1.0
141
40.0
290
     0
  0
SCALE
  5
191
102
{ACAD_REACTORS
330
10C
102
}
330
10C
100
AcDbScale
 70
     0
300
1:50
140
1.0
141
50.0
290
     0
  0
SCALE
  5
192
102
{ACAD_REACTORS
330
10C
102
}
330
10C
100
AcDbScale
 70
     0
300
1:100
140
1.0
141
100.0
290
     0
  0
SCALE
  5
193
102
{ACAD_REACTORS
330
10C
102
}
330
10C
100
AcDbScale
 70
     0
300
2:1
140
2.0
141
1.0
290
     0
  0
SCALE
  5
194
102
{ACAD_REACTORS
330
10C
102
}
330
10C
100
AcDbScale
 70
     0
300
4:1
140
4.0
141
1.0
290
     0
  0
SCALE
  5
195
102
{ACAD_REACTORS
330
10C
102
}
330
10C
100
AcDbScale
 70
     0
300
8:1
140
8.0
141
1.0
290
     0
  0
SCALE
  5
196
102
{ACAD_REACTORS
330
10C
102
}
330
10C
100
AcDbScale
 70
     0
300
10:1
140
10.0
141
1.0
290
     0
  0
SCALE
  5
197
102
{ACAD_REACTORS
330
10C
102
}
330
10C
100
AcDbScale
 70
     0
300
100:1
140
100.0
141
1.0
290
     0
  0
SCALE
  5
198
102
{ACAD_REACTORS
330
10C
102
}
330
10C
100
AcDbScale
 70
     0
300
1/128" = 1'-0"
140
0.0078125
141
12.0
290
     0
  0
SCALE
  5
199
102
{ACAD_REACTORS
330
10C
102
}
330
10C
100
AcDbScale
 70
     0
300
1/64" = 1'-0"
140
0.015625
141
12.0
290
     0
  0
SCALE
  5
19A
102
{ACAD_REACTORS
330
10C
102
}
330
10C
100
AcDbScale
 70
     0
300
1/32" = 1'-0"
140
0.03125
141
12.0
290
     0
  0
SCALE
  5
19B
102
{ACAD_REACTORS
330
10C
102
}
330
10C
100
AcDbScale
 70
     0
300
1/16" = 1'-0"
140
0.0625
141
12.0
290
     0
  0
SCALE
  5
19C
102
{ACAD_REACTORS
330
10C
102
}
330
10C
100
AcDbScale
 70
     0
300
3/32" = 1'-0"
140
0.09375
141
12.0
290
     0
  0
SCALE
  5
19D
102
{ACAD_REACTORS
330
10C
102
}
330
10C
100
AcDbScale
 70
     0
300
1/8" = 1'-0"
140
0.125
141
12.0
290
     0
  0
SCALE
  5
19E
102
{ACAD_REACTORS
330
10C
102
}
330
10C
100
AcDbScale
 70
     0
300
3/16" = 1'-0"
140
0.1875
141
12.0
290
     0
  0
SCALE
  5
19F
102
{ACAD_REACTORS
330
10C
102
}
330
10C
100
AcDbScale
 70
     0
300
1/4" = 1'-0"
140
0.25
141
12.0
290
     0
  0
SCALE
  5
1A0
102
{ACAD_REACTORS
330
10C
102
}
330
10C
100
AcDbScale
 70
     0
300
3/8" = 1'-0"
140
0.375
141
12.0
290
     0
  0
SCALE
  5
1A1
102
{ACAD_REACTORS
330
10C
102
}
330
10C
100
AcDbScale
 70
     0
300
1/2" = 1'-0"
140
0.5
141
12.0
290
     0
  0
SCALE
  5
1A2
102
{ACAD_REACTORS
330
10C
102
}
330
10C
100
AcDbScale
 70
     0
300
3/4" = 1'-0"
140
0.75
141
12.0
290
     0
  0
SCALE
  5
1A3
102
{ACAD_REACTORS
330
10C
102
}
330
10C
100
AcDbScale
 70
     0
300
1" = 1'-0"
140
1.0
141
12.0
290
     0
  0
SCALE
  5
1A4
102
{ACAD_REACTORS
330
10C
102
}
330
10C
100
AcDbScale
 70
     0
300
1-1/2" = 1'-0"
140
1.5
141
12.0
290
     0
  0
SCALE
  5
1A5
102
{ACAD_REACTORS
330
10C
102
}
330
10C
100
AcDbScale
 70
     0
300
3" = 1'-0"
140
3.0
141
12.0
290
     0
  0
SCALE
  5
1A6
102
{ACAD_REACTORS
330
10C
102
}
330
10C
100
AcDbScale
 70
     0
300
6" = 1'-0"
140
6.0
141
12.0
290
     0
  0
SCALE
  5
1A7
102
{ACAD_REACTORS
330
10C
102
}
330
10C
100
AcDbScale
 70
     0
300
1'-0" = 1'-0"
140
12.0
141
12.0
290
     0
  0
TABLESTYLE
  5
7F
102
{ACAD_XDICTIONARY
360
162
102
}
102
{ACAD_REACTORS
330
7E
102
}
330
7E
100
AcDbTableStyle
  3
Standard
 70
     0
 71
     0
 40
1.5
 41
1.5
280
     0
281
     0
  7
Standard
140
4.5
170
     2
 62
     0
 63
     7
283
     0
274
    -2
284
     1
 64
     0
275
    -2
285
     1
 65
     0
276
    -2
286
     1
 66
     0
277
    -2
287
     1
 67
     0
278
    -2
288
     1
 68
     0
279
    -2
289
     1
 69
     0
  7
Standard
140
6.0
170
     5
 62
     0
 63
     7
283
     0
274
    -2
284
     1
 64
     0
275
    -2
285
     1
 65
     0
276
    -2
286
     1
 66
     0
277
    -2
287
     1
 67
     0
278
    -2
288
     1
 68
     0
279
    -2
289
     1
 69
     0
  7
Standard
140
4.5
170
     5
 62
     0
 63
     7
283
     0
274
    -2
284
     1
 64
     0
275
    -2
285
     1
 65
     0
276
    -2
286
     1
 66
     0
277
    -2
287
     1
 67
     0
278
    -2
288
     1
 68
     0
279
    -2
289
     1
 69
     0
  0
VISUALSTYLE
  5
F5
102
{ACAD_REACTORS
330
EF
102
}
330
EF
100
AcDbVisualStyle
  2
2dWireframe
 70
     4
 71
     0
 72
     2
 73
     1
 90
        0
 40
-0.6
 41
-30.0
 62
     5
 63
     7
 74
     1
 91
        4
 64
     7
 65
   257
 75
     1
175
     1
 42
1.0
 92
        0
 66
   257
 43
1.0
 76
     1
 77
     6
 78
     2
 67
     7
 79
     5
170
     0
171
     0
290
     0
174
     0
 93
        1
 44
0.0
173
     0
291
     0
 45
0.0
1001
ACAD
1000
AcDbSavedByObjectVersion
1070
     0
  0
VISUALSTYLE
  5
F7
102
{ACAD_REACTORS
330
EF
102
}
330
EF
100
AcDbVisualStyle
  2
3D Hidden
 70
     6
 71
     1
 72
     2
 73
     2
 90
        0
 40
-0.6
 41
-30.0
 62
     5
 63
     7
 74
     2
 91
        2
 64
     7
 65
   257
 75
     2
175
     1
 42
40.0
 92
        0
 66
   257
 43
1.0
 76
     1
 77
     6
 78
     2
 67
     7
 79
     3
170
     0
171
     0
290
     0
174
     0
 93
        1
 44
0.0
173
     0
291
     0
 45
0.0
1001
ACAD
1000
AcDbSavedByObjectVersion
1070
     0
  0
VISUALSTYLE
  5
F6
102
{ACAD_REACTORS
330
EF
102
}
330
EF
100
AcDbVisualStyle
  2
3dWireframe
 70
     5
 71
     0
 72
     2
 73
     1
 90
        0
 40
-0.6
 41
-30.0
 62
     5
 63
     7
 74
     1
 91
        4
 64
     7
 65
   257
 75
     1
175
     1
 42
1.0
 92
        0
 66
   257
 43
1.0
 76
     1
 77
     6
 78
     2
 67
     7
 79
     5
170
     0
171
     0
290
     0
174
     0
 93
        1
 44
0.0
173
     0
291
     0
 45
0.0
1001
ACAD
1000
AcDbSavedByObjectVersion
1070
     0
  0
VISUALSTYLE
  5
F4
102
{ACAD_REACTORS
330
EF
102
}
330
EF
100
AcDbVisualStyle
  2
Basic
 70
     7
 71
     1
 72
     0
 73
     1
 90
        0
 40
-0.6
 41
-30.0
 62
     5
 63
     7
 74
     0
 91
        4
 64
     7
 65
   257
 75
     1
175
     1
 42
1.0
 92
        8
 66
     7
 43
1.0
 76
     1
 77
     6
 78
     2
 67
     7
 79
     5
170
     0
171
     0
290
     0
174
     0
 93
        1
 44
0.0
173
     0
291
     1
 45
0.0
1001
ACAD
1000
AcDbSavedByObjectVersion
1070
     0
  0
VISUALSTYLE
  5
FB
102
{ACAD_REACTORS
330
EF
102
}
330
EF
100
AcDbVisualStyle
  2
Brighten
 70
    12
 71
     2
 72
     2
 73
     1
 90
        0
 40
-0.6
 41
-30.0
 62
     5
 63
     7
 74
     1
 91
        4
 64
     7
 65
   257
 75
     1
175
     1
 42
1.0
 92
        8
 66
     7
 43
1.0
 76
     1
 77
     6
 78
     2
 67
     7
 79
     5
170
     0
171
     0
290
     0
174
     0
 93
        1
 44
50.0
173
     0
291
     1
 45
0.0
1001
ACAD
1000
AcDbSavedByObjectVersion
1070
     0
  0
VISUALSTYLE
  5
FF
102
{ACAD_REACTORS
330
EF
102
}
330
EF
100
AcDbVisualStyle
  2
ColorChange
 70
    16
 71
     2
 72
     2
 73
     3
 90
        0
 40
-0.6
 41
-30.0
 62
     5
 63
     8
 74
     1
 91
        4
 64
     7
 65
   257
 75
     1
175
     1
 42
1.0
 92
        8
 66
     8
 43
1.0
 76
     1
 77
     6
 78
     2
 67
     7
 79
     5
170
     0
171
     0
290
     0
174
     0
 93
        1
 44
0.0
173
     0
291
     1
 45
0.0
1001
ACAD
1000
AcDbSavedByObjectVersion
1070
     0
  0
VISUALSTYLE
  5
F8
102
{ACAD_REACTORS
330
EF
102
}
330
EF
100
AcDbVisualStyle
  2
Conceptual
 70
     9
 71
     3
 72
     2
 73
     1
 90
        0
 40
-0.6
 41
-30.0
 62
     5
 63
     7
 74
     2
 91
        2
 64
     7
 65
   257
 75
     1
175
     1
 42
40.0
 92
        8
 66
     7
 43
1.0
 76
     1
 77
     6
 78
     2
 67
     7
 79
     3
170
     0
171
     0
290
     0
174
     0
 93
        1
 44
0.0
173
     0
291
     0
 45
0.0
1001
ACAD
1000
AcDbSavedByObjectVersion
1070
     0
  0
VISUALSTYLE
  5
FA
102
{ACAD_REACTORS
330
EF
102
}
330
EF
100
AcDbVisualStyle
  2
Dim
 70
    11
 71
     2
 72
     2
 73
     1
 90
        0
 40
-0.6
 41
-30.0
 62
     5
 63
     7
 74
     1
 91
        4
 64
     7
 65
   257
 75
     1
175
     1
 42
1.0
 92
        8
 66
     7
 43
1.0
 76
     1
 77
     6
 78
     2
 67
     7
 79
     5
170
     0
171
     0
290
     0
174
     0
 93
        1
 44
-50.0
173
     0
291
     1
 45
0.0
1001
ACAD
1000
AcDbSavedByObjectVersion
1070
     0
  0
VISUALSTYLE
  5
FE
102
{ACAD_REACTORS
330
EF
102
}
330
EF
100
AcDbVisualStyle
  2
Facepattern
 70
    15
 71
     2
 72
     2
 73
     1
 90
        0
 40
-0.6
 41
-30.0
 62
     5
 63
     7
 74
     1
 91
        4
 64
     7
 65
   257
 75
     1
175
     1
 42
1.0
 92
        8
 66
     7
 43
1.0
 76
     1
 77
     6
 78
     2
 67
     7
 79
     5
170
     0
171
     0
290
     0
174
     0
 93
        1
 44
0.0
173
     0
291
     1
 45
0.0
1001
ACAD
1000
AcDbSavedByObjectVersion
1070
     0
  0
VISUALSTYLE
  5
F0
102
{ACAD_REACTORS
330
EF
102
}
330
EF
100
AcDbVisualStyle
  2
Flat
 70
     0
 71
     2
 72
     1
 73
     1
 90
        2
 40
-0.6
 41
30.0
 62
     5
 63
     7
 74
     0
 91
        4
 64
     7
 65
   257
 75
     1
175
     1
 42
1.0
 92
        8
 66
     7
 43
1.0
 76
     1
 77
     6
 78
     2
 67
     7
 79
     5
170
     0
171
     0
290
     0
174
     0
 93
        1
 44
0.0
173
     0
291
     1
 45
0.0
1001
ACAD
1000
AcDbSavedByObjectVersion
1070
     0
  0
VISUALSTYLE
  5
F1
102
{ACAD_REACTORS
330
EF
102
}
330
EF
100
AcDbVisualStyle
  2
FlatWithEdges
 70
     1
 71
     2
 72
     1
 73
     1
 90
        2
 40
-0.6
 41
30.0
 62
     5
 63
     7
 74
     1
 91
        4
 64
     7
 65
   257
 75
     1
175
     1
 42
1.0
 92
        0
 66
   257
 43
1.0
 76
     1
 77
     6
 78
     2
 67
     7
 79
     5
170
     0
171
     0
290
     0
174
     0
 93
        1
 44
0.0
173
     0
291
     1
 45
0.0
1001
ACAD
1000
AcDbSavedByObjectVersion
1070
     0
  0
VISUALSTYLE
  5
F2
102
{ACAD_REACTORS
330
EF
102
}
330
EF
100
AcDbVisualStyle
  2
Gouraud
 70
     2
 71
     2
 72
     2
 73
     1
 90
        2
 40
-0.6
 41
30.0
 62
     5
 63
     7
 74
     0
 91
        4
 64
     7
 65
   257
 75
     1
175
     1
 42
1.0
 92
        0
 66
     7
 43
1.0
 76
     1
 77
     6
 78
     2
 67
     7
 79
     5
170
     0
171
     0
290
     0
174
     0
 93
        1
 44
0.0
173
     0
291
     1
 45
0.0
1001
ACAD
1000
AcDbSavedByObjectVersion
1070
     0
  0
VISUALSTYLE
  5
F3
102
{ACAD_REACTORS
330
EF
102
}
330
EF
100
AcDbVisualStyle
  2
GouraudWithEdges
 70
     3
 71
     2
 72
     2
 73
     1
 90
        2
 40
-0.6
 41
30.0
 62
     5
 63
     7
 74
     1
 91
        4
 64
     7
 65
   257
 75
     1
175
     1
 42
1.0
 92
        0
 66
   257
 43
1.0
 76
     1
 77
     6
 78
     2
 67
     7
 79
     5
170
     0
171
     0
290
     0
174
     0
 93
        1
 44
0.0
173
     0
291
     1
 45
0.0
1001
ACAD
1000
AcDbSavedByObjectVersion
1070
     0
  0
VISUALSTYLE
  5
FD
102
{ACAD_REACTORS
330
EF
102
}
330
EF
100
AcDbVisualStyle
  2
Linepattern
 70
    14
 71
     2
 72
     2
 73
     1
 90
        0
 40
-0.6
 41
-30.0
 62
     5
 63
     7
 74
     1
 91
        4
 64
     7
 65
   257
 75
     7
175
     7
 42
1.0
 92
        8
 66
     7
 43
1.0
 76
     1
 77
     6
 78
     2
 67
     7
 79
     5
170
     0
171
     0
290
     0
174
     0
 93
        1
 44
0.0
173
     0
291
     1
 45
0.0
1001
ACAD
1000
AcDbSavedByObjectVersion
1070
     0
  0
VISUALSTYLE
  5
F9
102
{ACAD_REACTORS
330
EF
102
}
330
EF
100
AcDbVisualStyle
  2
Realistic
 70
     8
 71
     2
 72
     2
 73
     1
 90
        0
 40
-0.6
 41
-30.0
 62
     5
 63
     7
 74
     1
 91
        0
 64
     7
 65
   257
 75
     1
175
     1
 42
1.0
 92
        8
 66
     8
 43
1.0
 76
     1
 77
     6
 78
     2
 67
     7
 79
     5
170
     0
171
     0
290
     0
174
     0
 93
       13
 44
0.0
173
     0
291
     0
 45
0.0
1001
ACAD
1000
AcDbSavedByObjectVersion
1070
     0
  0
VISUALSTYLE
  5
FC
102
{ACAD_REACTORS
330
EF
102
}
330
EF
100
AcDbVisualStyle
  2
Thicken
 70
    13
 71
     2
 72
     2
 73
     1
 90
        0
 40
-0.6
 41
-30.0
 62
     5
 63
     7
 74
     1
 91
        4
 64
     7
 65
   257
 75
     1
175
     1
 42
1.0
 92
       12
 66
     7
 43
1.0
 76
     1
 77
     6
 78
     2
 67
     7
 79
     5
170
     0
171
     0
290
     0
174
     0
 93
        1
 44
0.0
173
     0
291
     1
 45
0.0
1001
ACAD
1000
AcDbSavedByObjectVersion
1070
     0
  0
DICTIONARYVAR
  5
146
102
{ACAD_REACTORS
330
5E
102
}
330
5E
100
DictionaryVariables
280
     0
  1
1:1
  0
DICTIONARYVAR
  5
145
102
{ACAD_REACTORS
330
5E
102
}
330
5E
100
DictionaryVariables
280
     0
  1
STANDARD
  0
DICTIONARYVAR
  5
84
102
{ACAD_REACTORS
330
5E
102
}
330
5E
100
DictionaryVariables
280
     0
  1
STANDARD
  0
DICTIONARYVAR
  5
5F
102
{ACAD_REACTORS
330
5E
102
}
330
5E
100
DictionaryVariables
280
     0
  1
2
  0
DICTIONARYVAR
  5
63
102
{ACAD_REACTORS
330
5E
102
}
330
5E
100
DictionaryVariables
280
     0
  1
1
  0
DICTIONARYVAR
  5
55D
102
{ACAD_REACTORS
330
5E
102
}
330
5E
100
DictionaryVariables
280
     0
  1
0
  0
DICTIONARYVAR
  5
55B
102
{ACAD_REACTORS
330
5E
102
}
330
5E
100
DictionaryVariables
280
     0
  1
2
  0
DICTIONARYVAR
  5
55A
102
{ACAD_REACTORS
330
5E
102
}
330
5E
100
DictionaryVariables
280
     0
  1
1
  0
DICTIONARYVAR
  5
55F
102
{ACAD_REACTORS
330
5E
102
}
330
5E
100
DictionaryVariables
280
     0
  1
80.000000
  0
DICTIONARYVAR
  5
55E
102
{ACAD_REACTORS
330
5E
102
}
330
5E
100
DictionaryVariables
280
     0
  1
5.000000
  0
DICTIONARYVAR
  5
55C
102
{ACAD_REACTORS
330
5E
102
}
330
5E
100
DictionaryVariables
280
     0
  1
127
  0
DICTIONARY
  5
565
330
D3
100
AcDbDictionary
280
     1
281
     1
  3
ACAD_XREC_ROUNDTRIP
360
566
  0
DICTIONARY
  5
567
330
D7
100
AcDbDictionary
280
     1
281
     1
  3
ACAD_XREC_ROUNDTRIP
360
568
  0
DICTIONARY
  5
562
330
22
100
AcDbDictionary
280
     1
281
     1
  3
ACAD_XREC_ROUNDTRIP
360
563
  0
DICTIONARY
  5
56B
330
ED
100
AcDbDictionary
280
     1
281
     1
  3
ACAD_XREC_ROUNDTRIP
360
56C
  0
DICTIONARY
  5
569
330
EC
100
AcDbDictionary
280
     1
281
     1
  3
ACAD_XREC_ROUNDTRIP
360
56A
  0
DICTIONARY
  5
173
330
EE
100
AcDbDictionary
280
     1
281
     1
  3
ACAD_XREC_ROUNDTRIP
360
56D
  3
BUMPTILE
360
175
  3
DIFFUSETILE
360
174
  3
OPACITYTILE
360
176
  3
REFLECTIONTILE
360
177
  0
DICTIONARY
  5
162
330
7F
100
AcDbDictionary
280
     1
281
     1
  3
ACAD_ROUNDTRIP_2008_TABLESTYLE_CELLSTYLEMAP
360
560
  3
ACAD_XREC_ROUNDTRIP
360
564
  0
XRECORD
  5
566
102
{ACAD_REACTORS
330
565
102
}
330
565
100
AcDbXrecord
280
     1
102
SHADEPLOT
 70
     0
102
SHADEPLOTRESLEVEL
 70
     2
102
SHADEPLOTCUSTOMDPI
 70
   300
  0
XRECORD
  5
568
102
{ACAD_REACTORS
330
567
102
}
330
567
100
AcDbXrecord
280
     1
102
SHADEPLOT
 70
     0
102
SHADEPLOTRESLEVEL
 70
     2
102
SHADEPLOTCUSTOMDPI
 70
   300
  0
XRECORD
  5
563
102
{ACAD_REACTORS
330
562
102
}
330
562
100
AcDbXrecord
280
     1
102
SHADEPLOT
 70
     0
102
SHADEPLOTRESLEVEL
 70
     2
102
SHADEPLOTCUSTOMDPI
 70
   300
  0
XRECORD
  5
56C
102
{ACAD_REACTORS
330
56B
102
}
330
56B
100
AcDbXrecord
280
     1
102
MATERIAL
148
0.0
149
0.0
149
0.0
 93
        0
 94
       63
282
     0
 72
     1
 77
     1
171
     1
175
     1
179
     1
273
     0
  0
XRECORD
  5
56A
102
{ACAD_REACTORS
330
569
102
}
330
569
100
AcDbXrecord
280
     1
102
MATERIAL
148
0.0
149
0.0
149
0.0
 93
        0
 94
       63
282
     0
 72
     1
 77
     1
171
     1
175
     1
179
     1
273
     0
  0
XRECORD
  5
56D
102
{ACAD_REACTORS
330
173
102
}
330
173
100
AcDbXrecord
280
     1
102
MATERIAL
148
0.0
149
0.0
149
0.0
 93
        0
 94
       63
282
     0
 72
     1
 77
     1
171
     1
175
     1
179
     1
273
     0
  0
XRECORD
  5
175
102
{ACAD_REACTORS
330
173
102
}
330
173
100
AcDbXrecord
280
     1
270
     1
271
     1
  0
XRECORD
  5
174
102
{ACAD_REACTORS
330
173
102
}
330
173
100
AcDbXrecord
280
     1
270
     1
271
     1
  0
XRECORD
  5
176
102
{ACAD_REACTORS
330
173
102
}
330
173
100
AcDbXrecord
280
     1
270
     1
271
     1
  0
XRECORD
  5
177
102
{ACAD_REACTORS
330
173
102
}
330
173
100
AcDbXrecord
280
     1
270
     1
271
     1
  0
CELLSTYLEMAP
  5
560
102
{ACAD_REACTORS
330
162
102
}
330
162
100
AcDbCellStyleMap
 90
        3
300
CELLSTYLE
  1
TABLEFORMAT_BEGIN
 90
        5
170
     1
 91
        0
 92
    32768
 62
   257
 93
        1
300
CONTENTFORMAT
  1
CONTENTFORMAT_BEGIN
 90
        0
 91
        0
 92
      512
 93
        0
300

 40
0.0
140
1.0
 94
        5
 62
     0
340
11
144
6.0
309
CONTENTFORMAT_END
171
     1
301
MARGIN
  1
CELLMARGIN_BEGIN
 40
1.5
 40
1.5
 40
1.5
 40
1.5
 40
4.5
 40
4.5
309
CELLMARGIN_END
 94
        6
 95
        1
302
GRIDFORMAT
  1
GRIDFORMAT_BEGIN
 90
        0
 91
        1
 62
     0
 92
       -2
340
14
 93
        0
 40
1.125
309
GRIDFORMAT_END
 95
        2
302
GRIDFORMAT
  1
GRIDFORMAT_BEGIN
 90
        0
 91
        1
 62
     0
 92
       -2
340
14
 93
        0
 40
1.125
309
GRIDFORMAT_END
 95
        4
302
GRIDFORMAT
  1
GRIDFORMAT_BEGIN
 90
        0
 91
        1
 62
     0
 92
       -2
340
14
 93
        0
 40
1.125
309
GRIDFORMAT_END
 95
        8
302
GRIDFORMAT
  1
GRIDFORMAT_BEGIN
 90
        0
 91
        1
 62
     0
 92
       -2
340
14
 93
        0
 40
1.125
309
GRIDFORMAT_END
 95
       16
302
GRIDFORMAT
  1
GRIDFORMAT_BEGIN
 90
        0
 91
        1
 62
     0
 92
       -2
340
14
 93
        0
 40
1.125
309
GRIDFORMAT_END
 95
       32
302
GRIDFORMAT
  1
GRIDFORMAT_BEGIN
 90
        0
 91
        1
 62
     0
 92
       -2
340
14
 93
        0
 40
1.125
309
GRIDFORMAT_END
309
TABLEFORMAT_END
  1
CELLSTYLE_BEGIN
 90
        1
 91
        1
300
_TITLE
309
CELLSTYLE_END
300
CELLSTYLE
  1
TABLEFORMAT_BEGIN
 90
        5
170
     1
 91
        0
 92
        0
 62
   257
 93
        1
300
CONTENTFORMAT
  1
CONTENTFORMAT_BEGIN
 90
        0
 91
        0
 92
      512
 93
        0
300

 40
0.0
140
1.0
 94
        5
 62
     0
340
11
144
4.5
309
CONTENTFORMAT_END
171
     1
301
MARGIN
  1
CELLMARGIN_BEGIN
 40
1.5
 40
1.5
 40
1.5
 40
1.5
 40
4.5
 40
4.5
309
CELLMARGIN_END
 94
        6
 95
        1
302
GRIDFORMAT
  1
GRIDFORMAT_BEGIN
 90
        0
 91
        1
 62
     0
 92
       -2
340
14
 93
        0
 40
1.125
309
GRIDFORMAT_END
 95
        2
302
GRIDFORMAT
  1
GRIDFORMAT_BEGIN
 90
        0
 91
        1
 62
     0
 92
       -2
340
14
 93
        0
 40
1.125
309
GRIDFORMAT_END
 95
        4
302
GRIDFORMAT
  1
GRIDFORMAT_BEGIN
 90
        0
 91
        1
 62
     0
 92
       -2
340
14
 93
        0
 40
1.125
309
GRIDFORMAT_END
 95
        8
302
GRIDFORMAT
  1
GRIDFORMAT_BEGIN
 90
        0
 91
        1
 62
     0
 92
       -2
340
14
 93
        0
 40
1.125
309
GRIDFORMAT_END
 95
       16
302
GRIDFORMAT
  1
GRIDFORMAT_BEGIN
 90
        0
 91
        1
 62
     0
 92
       -2
340
14
 93
        0
 40
1.125
309
GRIDFORMAT_END
 95
       32
302
GRIDFORMAT
  1
GRIDFORMAT_BEGIN
 90
        0
 91
        1
 62
     0
 92
       -2
340
14
 93
        0
 40
1.125
309
GRIDFORMAT_END
309
TABLEFORMAT_END
  1
CELLSTYLE_BEGIN
 90
        2
 91
        1
300
_HEADER
309
CELLSTYLE_END
300
CELLSTYLE
  1
TABLEFORMAT_BEGIN
 90
        5
170
     1
 91
        0
 92
        0
 62
   257
 93
        1
300
CONTENTFORMAT
  1
CONTENTFORMAT_BEGIN
 90
        0
 91
        0
 92
      512
 93
        0
300

 40
0.0
140
1.0
 94
        2
 62
     0
340
11
144
4.5
309
CONTENTFORMAT_END
171
     1
301
MARGIN
  1
CELLMARGIN_BEGIN
 40
1.5
 40
1.5
 40
1.5
 40
1.5
 40
4.5
 40
4.5
309
CELLMARGIN_END
 94
        6
 95
        1
302
GRIDFORMAT
  1
GRIDFORMAT_BEGIN
 90
        0
 91
        1
 62
     0
 92
       -2
340
14
 93
        0
 40
1.125
309
GRIDFORMAT_END
 95
        2
302
GRIDFORMAT
  1
GRIDFORMAT_BEGIN
 90
        0
 91
        1
 62
     0
 92
       -2
340
14
 93
        0
 40
1.125
309
GRIDFORMAT_END
 95
        4
302
GRIDFORMAT
  1
GRIDFORMAT_BEGIN
 90
        0
 91
        1
 62
     0
 92
       -2
340
14
 93
        0
 40
1.125
309
GRIDFORMAT_END
 95
        8
302
GRIDFORMAT
  1
GRIDFORMAT_BEGIN
 90
        0
 91
        1
 62
     0
 92
       -2
340
14
 93
        0
 40
1.125
309
GRIDFORMAT_END
 95
       16
302
GRIDFORMAT
  1
GRIDFORMAT_BEGIN
 90
        0
 91
        1
 62
     0
 92
       -2
340
14
 93
        0
 40
1.125
309
GRIDFORMAT_END
 95
       32
302
GRIDFORMAT
  1
GRIDFORMAT_BEGIN
 90
        0
 91
        1
 62
     0
 92
       -2
340
14
 93
        0
 40
1.125
309
GRIDFORMAT_END
309
TABLEFORMAT_END
  1
CELLSTYLE_BEGIN
 90
        3
 91
        2
300
_DATA
309
CELLSTYLE_END
  0
XRECORD
  5
564
102
{ACAD_REACTORS
330
162
102
}
330
162
100
AcDbXrecord
280
     1
102
ACAD_ROUNDTRIP_PRE2007_TABLESTYLE
 90
      512
 91
        0
  1

 92
      512
 93
        0
  2

 94
      512
 95
        0
  3

  0
ENDSEC
  0
EOF
