  0
SECTION
  2
HEADER
  9
$ACADVER
  1
AC1015
  9
$ACADMAINTVER
 70
    20
  9
$DWGCODEPAGE
  3
ANSI_1254
  9
$INSBASE
 10
0.0
 20
0.0
 30
0.0
  9
$EXTMIN
 10
2140.034242872928
 20
902.3530021492597
 30
0.0
  9
$EXTMAX
 10
2438.628631179227
 20
985.8899191150074
 30
0.0
  9
$LIMMIN
 10
0.0
 20
0.0
  9
$LIMMAX
 10
420.0
 20
297.0
  9
$ORTHOMODE
 70
     0
  9
$REGENMODE
 70
     1
  9
$FILLMODE
 70
     1
  9
$QTEXTMODE
 70
     0
  9
$MIRRTEXT
 70
     0
  9
$LTSCALE
 40
1.0
  9
$ATTMODE
 70
     1
  9
$TEXTSIZE
 40
2.5
  9
$TRACEWID
 40
1.0
  9
$TEXTSTYLE
  7
Standard
  9
$CLAYER
  8
0
  9
$CELTYPE
  6
ByLayer
  9
$CECOLOR
 62
   256
  9
$CELTSCALE
 40
1.0
  9
$DISPSILH
 70
     0
  9
$DIMSCALE
 40
1.0
  9
$DIMASZ
 40
2.5
  9
$DIMEXO
 40
0.625
  9
$DIMDLI
 40
3.75
  9
$DIMRND
 40
0.0
  9
$DIMDLE
 40
0.0
  9
$DIMEXE
 40
1.25
  9
$DIMTP
 40
0.0
  9
$DIMTM
 40
0.0
  9
$DIMTXT
 40
2.5
  9
$DIMCEN
 40
2.5
  9
$DIMTSZ
 40
0.0
  9
$DIMTOL
 70
     0
  9
$DIMLIM
 70
     0
  9
$DIMTIH
 70
     0
  9
$DIMTOH
 70
     0
  9
$DIMSE1
 70
     0
  9
$DIMSE2
 70
     0
  9
$DIMTAD
 70
     1
  9
$DIMZIN
 70
     8
  9
$DIMBLK
  1

  9
$DIMASO
 70
     1
  9
$DIMSHO
 70
     1
  9
$DIMPOST
  1

  9
$DIMAPOST
  1

  9
$DIMALT
 70
     0
  9
$DIMALTD
 70
     3
  9
$DIMALTF
 40
0.03937007874016
  9
$DIMLFAC
 40
1.0
  9
$DIMTOFL
 70
     1
  9
$DIMTVP
 40
0.0
  9
$DIMTIX
 70
     0
  9
$DIMSOXD
 70
     0
  9
$DIMSAH
 70
     0
  9
$DIMBLK1
  1

  9
$DIMBLK2
  1

  9
$DIMSTYLE
  2
ISO-25
  9
$DIMCLRD
 70
     0
  9
$DIMCLRE
 70
     0
  9
$DIMCLRT
 70
     0
  9
$DIMTFAC
 40
1.0
  9
$DIMGAP
 40
0.625
  9
$DIMJUST
 70
     0
  9
$DIMSD1
 70
     0
  9
$DIMSD2
 70
     0
  9
$DIMTOLJ
 70
     0
  9
$DIMTZIN
 70
     8
  9
$DIMALTZ
 70
     0
  9
$DIMALTTZ
 70
     0
  9
$DIMUPT
 70
     0
  9
$DIMDEC
 70
     2
  9
$DIMTDEC
 70
     2
  9
$DIMALTU
 70
     2
  9
$DIMALTTD
 70
     3
  9
$DIMTXSTY
  7
Standard
  9
$DIMAUNIT
 70
     0
  9
$DIMADEC
 70
     0
  9
$DIMALTRND
 40
0.0
  9
$DIMAZIN
 70
     0
  9
$DIMDSEP
 70
    44
  9
$DIMATFIT
 70
     3
  9
$DIMFRAC
 70
     0
  9
$DIMLDRBLK
  1

  9
$DIMLUNIT
 70
     2
  9
$DIMLWD
 70
    -2
  9
$DIMLWE
 70
    -2
  9
$DIMTMOVE
 70
     0
  9
$LUNITS
 70
     2
  9
$LUPREC
 70
     4
  9
$SKETCHINC
 40
1.0
  9
$FILLETRAD
 40
0.0
  9
$AUNITS
 70
     0
  9
$AUPREC
 70
     0
  9
$MENU
  1
.
  9
$ELEVATION
 40
0.0
  9
$PELEVATION
 40
0.0
  9
$THICKNESS
 40
0.0
  9
$LIMCHECK
 70
     0
  9
$CHAMFERA
 40
0.0
  9
$CHAMFERB
 40
0.0
  9
$CHAMFERC
 40
0.0
  9
$CHAMFERD
 40
0.0
  9
$SKPOLY
 70
     0
  9
$TDCREATE
 40
2458934.561430741
  9
$TDUCREATE
 40
2458934.436430741
  9
$TDUPDATE
 40
2458956.453085405
  9
$TDUUPDATE
 40
2458956.328085406
  9
$TDINDWG
 40
0.0005071528
  9
$TDUSRTIMER
 40
0.0005071528
  9
$USRTIMER
 70
     1
  9
$ANGBASE
 50
0.0
  9
$ANGDIR
 70
     0
  9
$PDMODE
 70
     0
  9
$PDSIZE
 40
0.0
  9
$PLINEWID
 40
0.0
  9
$SPLFRAME
 70
     0
  9
$SPLINETYPE
 70
     6
  9
$SPLINESEGS
 70
     8
  9
$HANDSEED
  5
820
  9
$SURFTAB1
 70
     6
  9
$SURFTAB2
 70
     6
  9
$SURFTYPE
 70
     6
  9
$SURFU
 70
     6
  9
$SURFV
 70
     6
  9
$UCSBASE
  2

  9
$UCSNAME
  2

  9
$UCSORG
 10
0.0
 20
0.0
 30
0.0
  9
$UCSXDIR
 10
1.0
 20
0.0
 30
0.0
  9
$UCSYDIR
 10
0.0
 20
1.0
 30
0.0
  9
$UCSORTHOREF
  2

  9
$UCSORTHOVIEW
 70
     0
  9
$UCSORGTOP
 10
0.0
 20
0.0
 30
0.0
  9
$UCSORGBOTTOM
 10
0.0
 20
0.0
 30
0.0
  9
$UCSORGLEFT
 10
0.0
 20
0.0
 30
0.0
  9
$UCSORGRIGHT
 10
0.0
 20
0.0
 30
0.0
  9
$UCSORGFRONT
 10
0.0
 20
0.0
 30
0.0
  9
$UCSORGBACK
 10
0.0
 20
0.0
 30
0.0
  9
$PUCSBASE
  2

  9
$PUCSNAME
  2

  9
$PUCSORG
 10
0.0
 20
0.0
 30
0.0
  9
$PUCSXDIR
 10
1.0
 20
0.0
 30
0.0
  9
$PUCSYDIR
 10
0.0
 20
1.0
 30
0.0
  9
$PUCSORTHOREF
  2

  9
$PUCSORTHOVIEW
 70
     0
  9
$PUCSORGTOP
 10
0.0
 20
0.0
 30
0.0
  9
$PUCSORGBOTTOM
 10
0.0
 20
0.0
 30
0.0
  9
$PUCSORGLEFT
 10
0.0
 20
0.0
 30
0.0
  9
$PUCSORGRIGHT
 10
0.0
 20
0.0
 30
0.0
  9
$PUCSORGFRONT
 10
0.0
 20
0.0
 30
0.0
  9
$PUCSORGBACK
 10
0.0
 20
0.0
 30
0.0
  9
$USERI1
 70
     0
  9
$USERI2
 70
     0
  9
$USERI3
 70
     0
  9
$USERI4
 70
     0
  9
$USERI5
 70
     0
  9
$USERR1
 40
0.0
  9
$USERR2
 40
0.0
  9
$USERR3
 40
0.0
  9
$USERR4
 40
0.0
  9
$USERR5
 40
0.0
  9
$WORLDVIEW
 70
     1
  9
$SHADEDGE
 70
     3
  9
$SHADEDIF
 70
    70
  9
$TILEMODE
 70
     1
  9
$MAXACTVP
 70
    64
  9
$PINSBASE
 10
0.0
 20
0.0
 30
0.0
  9
$PLIMCHECK
 70
     0
  9
$PEXTMIN
 10
0.0
 20
0.0
 30
0.0
  9
$PEXTMAX
 10
0.0
 20
0.0
 30
0.0
  9
$PLIMMIN
 10
0.0
 20
0.0
  9
$PLIMMAX
 10
12.0
 20
9.0
  9
$UNITMODE
 70
     0
  9
$VISRETAIN
 70
     1
  9
$PLINEGEN
 70
     0
  9
$PSLTSCALE
 70
     1
  9
$TREEDEPTH
 70
  3020
  9
$CMLSTYLE
  2
Standard
  9
$CMLJUST
 70
     0
  9
$CMLSCALE
 40
20.0
  9
$PROXYGRAPHICS
 70
     1
  9
$MEASUREMENT
 70
     1
  9
$CELWEIGHT
370
    -1
  9
$ENDCAPS
280
     0
  9
$JOINSTYLE
280
     0
  9
$LWDISPLAY
290
     0
  9
$INSUNITS
 70
     4
  9
$HYPERLINKBASE
  1

  9
$STYLESHEET
  1

  9
$XEDIT
290
     1
  9
$CEPSNTYPE
380
     0
  9
$PSTYLEMODE
290
     1
  9
$FINGERPRINTGUID
  2
{1FAB9D74-D6E5-4A03-9018-ADB8F05186D8}
  9
$VERSIONGUID
  2
{735CC0B4-DC44-41A1-A7D5-A6CE1339AE3B}
  9
$EXTNAMES
290
     1
  9
$PSVPSCALE
 40
0.0
  9
$OLESTARTUP
290
     0
  0
ENDSEC
  0
SECTION
  2
CLASSES
  0
CLASS
  1
ACDBDICTIONARYWDFLT
  2
AcDbDictionaryWithDefault
  3
ObjectDBX Classes
 90
        0
280
     0
281
     0
  0
CLASS
  1
ACDBPLACEHOLDER
  2
AcDbPlaceHolder
  3
ObjectDBX Classes
 90
        0
280
     0
281
     0
  0
CLASS
  1
LAYOUT
  2
AcDbLayout
  3
ObjectDBX Classes
 90
        0
280
     0
281
     0
  0
CLASS
  1
DICTIONARYVAR
  2
AcDbDictionaryVar
  3
ObjectDBX Classes
 90
        0
280
     0
281
     0
  0
CLASS
  1
TABLESTYLE
  2
AcDbTableStyle
  3
ObjectDBX Classes
 90
     4095
280
     0
281
     0
  0
CLASS
  1
MATERIAL
  2
AcDbMaterial
  3
ObjectDBX Classes
 90
     1153
280
     0
281
     0
  0
CLASS
  1
VISUALSTYLE
  2
AcDbVisualStyle
  3
ObjectDBX Classes
 90
     4095
280
     0
281
     0
  0
CLASS
  1
SCALE
  2
AcDbScale
  3
ObjectDBX Classes
 90
     1153
280
     0
281
     0
  0
CLASS
  1
MLEADERSTYLE
  2
AcDbMLeaderStyle
  3
ACDB_MLEADERSTYLE_CLASS
 90
     4095
280
     0
281
     0
  0
CLASS
  1
CELLSTYLEMAP
  2
AcDbCellStyleMap
  3
ObjectDBX Classes
 90
     1152
280
     0
281
     0
  0
ENDSEC
  0
SECTION
  2
TABLES
  0
TABLE
  2
VPORT
  5
8
330
0
100
AcDbSymbolTable
 70
     1
  0
VPORT
  5
EA
330
8
100
AcDbSymbolTableRecord
100
AcDbViewportTableRecord
  2
*Active
 70
     0
 10
0.0
 20
0.0
 11
1.0
 21
1.0
 12
2281.55655635188
 22
968.6405300821139
 13
0.0
 23
0.0
 14
10.0
 24
10.0
 15
10.0
 25
10.0
 16
0.0
 26
0.0
 36
1.0
 17
0.0
 27
0.0
 37
0.0
 40
354.1204585411138
 41
1.903110047846889
 42
50.0
 43
0.0
 44
0.0
 50
0.0
 51
0.0
 71
     0
 72
  1000
 73
     1
 74
     3
 75
     0
 76
     0
 77
     0
 78
     0
281
     0
 65
     1
110
0.0
120
0.0
130
0.0
111
1.0
121
0.0
131
0.0
112
0.0
122
1.0
132
0.0
 79
     0
146
0.0
  0
ENDTAB
  0
TABLE
  2
LTYPE
  5
5
330
0
100
AcDbSymbolTable
 70
     1
  0
LTYPE
  5
14
330
5
100
AcDbSymbolTableRecord
100
AcDbLinetypeTableRecord
  2
ByBlock
 70
     0
  3

 72
    65
 73
     0
 40
0.0
  0
LTYPE
  5
15
330
5
100
AcDbSymbolTableRecord
100
AcDbLinetypeTableRecord
  2
ByLayer
 70
     0
  3

 72
    65
 73
     0
 40
0.0
  0
LTYPE
  5
16
330
5
100
AcDbSymbolTableRecord
100
AcDbLinetypeTableRecord
  2
Continuous
 70
     0
  3
Solid line
 72
    65
 73
     0
 40
0.0
  0
ENDTAB
  0
TABLE
  2
LAYER
  5
2
330
0
100
AcDbSymbolTable
 70
     1
  0
LAYER
  5
10
102
{ACAD_XDICTIONARY
360
13C
102
}
330
2
100
AcDbSymbolTableRecord
100
AcDbLayerTableRecord
  2
0
 70
     0
 62
     7
  6
Continuous
370
    -3
390
F
  0
ENDTAB
  0
TABLE
  2
STYLE
  5
3
330
0
100
AcDbSymbolTable
 70
     2
  0
STYLE
  5
11
330
3
100
AcDbSymbolTableRecord
100
AcDbTextStyleTableRecord
  2
Standard
 70
     0
 40
0.0
 41
1.0
 50
0.0
 71
     0
 42
2.5
  3
txt
  4

  0
STYLE
  5
132
330
3
100
AcDbSymbolTableRecord
100
AcDbTextStyleTableRecord
  2
Annotative
 70
     0
 40
0.0
 41
1.0
 50
0.0
 71
     0
 42
2.5
  3
txt.shx
  4

1001
AcadAnnotative
1000
AnnotativeData
1002
{
1070
     1
1070
     1
1002
}
  0
ENDTAB
  0
TABLE
  2
VIEW
  5
6
330
0
100
AcDbSymbolTable
 70
     0
  0
ENDTAB
  0
TABLE
  2
UCS
  5
7
330
0
100
AcDbSymbolTable
 70
     0
  0
ENDTAB
  0
TABLE
  2
APPID
  5
9
330
0
100
AcDbSymbolTable
 70
     7
  0
APPID
  5
12
330
9
100
AcDbSymbolTableRecord
100
AcDbRegAppTableRecord
  2
ACAD
 70
     0
  0
APPID
  5
9E
330
9
100
AcDbSymbolTableRecord
100
AcDbRegAppTableRecord
  2
ACAD_PSEXT
 70
     0
  0
APPID
  5
133
330
9
100
AcDbSymbolTableRecord
100
AcDbRegAppTableRecord
  2
AcadAnnoPO
 70
     0
  0
APPID
  5
134
330
9
100
AcDbSymbolTableRecord
100
AcDbRegAppTableRecord
  2
AcadAnnotative
 70
     0
  0
APPID
  5
135
330
9
100
AcDbSymbolTableRecord
100
AcDbRegAppTableRecord
  2
ACAD_DSTYLE_DIMJAG
 70
     0
  0
APPID
  5
136
330
9
100
AcDbSymbolTableRecord
100
AcDbRegAppTableRecord
  2
ACAD_DSTYLE_DIMTALN
 70
     0
  0
APPID
  5
165
330
9
100
AcDbSymbolTableRecord
100
AcDbRegAppTableRecord
  2
ACAD_MLEADERVER
 70
     0
  0
ENDTAB
  0
TABLE
  2
DIMSTYLE
  5
A
330
0
100
AcDbSymbolTable
 70
     2
100
AcDbDimStyleTable
 71
     2
340
27
340
137
  0
DIMSTYLE
105
27
330
A
100
AcDbSymbolTableRecord
100
AcDbDimStyleTableRecord
  2
ISO-25
 70
     0
 41
2.5
 42
0.625
 43
3.75
 44
1.25
 73
     0
 74
     0
 77
     1
 78
     8
140
2.5
141
2.5
143
0.03937007874016
147
0.625
171
     3
172
     1
271
     2
272
     2
274
     3
278
    44
283
     0
284
     8
340
11
  0
DIMSTYLE
105
137
330
A
100
AcDbSymbolTableRecord
100
AcDbDimStyleTableRecord
  2
Annotative
 70
     0
 40
0.0
 41
2.5
 42
0.625
 43
3.75
 44
1.25
 73
     0
 74
     0
 77
     1
 78
     8
140
2.5
141
2.5
143
0.03937007874016
147
0.625
171
     3
172
     1
271
     2
272
     2
274
     3
278
    44
283
     0
284
     8
340
11
1001
AcadAnnotative
1000
AnnotativeData
1002
{
1070
     1
1070
     1
1002
}
1001
ACAD_DSTYLE_DIMJAG
1070
   388
1040
1.5
1001
ACAD_DSTYLE_DIMTALN
1070
   392
1070
     0
  0
ENDTAB
  0
TABLE
  2
BLOCK_RECORD
  5
1
330
0
100
AcDbSymbolTable
 70
     5
  0
BLOCK_RECORD
  5
1F
330
1
100
AcDbSymbolTableRecord
100
AcDbBlockTableRecord
  2
*Model_Space
340
22
  0
BLOCK_RECORD
  5
D2
330
1
100
AcDbSymbolTableRecord
100
AcDbBlockTableRecord
  2
*Paper_Space
340
D3
  0
BLOCK_RECORD
  5
D6
330
1
100
AcDbSymbolTableRecord
100
AcDbBlockTableRecord
  2
*Paper_Space0
340
D7
  0
BLOCK_RECORD
  5
5DF
330
1
100
AcDbSymbolTableRecord
100
AcDbBlockTableRecord
  2
1
340
0
310
2800000020000000200000000100080000000000000400000000000000000000000000000000000000000000000080000080000000808000800000008000800080800000C0C0C000C0DCC000F0CAA6000020400000206000002080000020A0000020C0000020E00000400000004020000040400000406000004080000040A0
310
000040C0000040E00000600000006020000060400000606000006080000060A0000060C0000060E00000800000008020000080400000806000008080000080A0000080C0000080E00000A0000000A0200000A0400000A0600000A0800000A0A00000A0C00000A0E00000C0000000C0200000C0400000C0600000C0800000C0
310
A00000C0C00000C0E00000E0000000E0200000E0400000E0600000E0800000E0A00000E0C00000E0E00040000000400020004000400040006000400080004000A0004000C0004000E00040200000402020004020400040206000402080004020A0004020C0004020E000404000004040200040404000404060004040800040
310
40A0004040C0004040E00040600000406020004060400040606000406080004060A0004060C0004060E00040800000408020004080400040806000408080004080A0004080C0004080E00040A0000040A0200040A0400040A0600040A0800040A0A00040A0C00040A0E00040C0000040C0200040C0400040C0600040C08000
310
40C0A00040C0C00040C0E00040E0000040E0200040E0400040E0600040E0800040E0A00040E0C00040E0E00080000000800020008000400080006000800080008000A0008000C0008000E00080200000802020008020400080206000802080008020A0008020C0008020E00080400000804020008040400080406000804080
310
008040A0008040C0008040E00080600000806020008060400080606000806080008060A0008060C0008060E00080800000808020008080400080806000808080008080A0008080C0008080E00080A0000080A0200080A0400080A0600080A0800080A0A00080A0C00080A0E00080C0000080C0200080C0400080C0600080C0
310
800080C0A00080C0C00080C0E00080E0000080E0200080E0400080E0600080E0800080E0A00080E0C00080E0E000C0000000C0002000C0004000C0006000C0008000C000A000C000C000C000E000C0200000C0202000C0204000C0206000C0208000C020A000C020C000C020E000C0400000C0402000C0404000C0406000C0
310
408000C040A000C040C000C040E000C0600000C0602000C0604000C0606000C0608000C060A000C060C000C060E000C0800000C0802000C0804000C0806000C0808000C080A000C080C000C080E000C0A00000C0A02000C0A04000C0A06000C0A08000C0A0A000C0A0C000C0A0E000C0C00000C0C02000C0C04000C0C06000
310
C0C08000C0C0A000F0FBFF00A4A0A000808080000000FF0000FF000000FFFF00FF000000FF00FF00FFFF0000FFFFFF0000000000000000000000000000000000000000000000000000000000000000000000000000000000000000000000000000000000000000000000000000000000000000000000000000000000000000
310
00000000000000000000000000000000000000000000000000000000000000000000000000000000000000000000000000000000000000000000000000000000000000000000000000000000000000000000000000000000000000000000000000000000000000000000000000000000000000000000000000000000000000
310
00000000000000000000000000000000000000000000000000000000000000000000000000000000000000000000000000000000000000000000000000000000000000000000000000000000000000000000000000000000000000000000000000000000000000000000000000000000000000000000000000000000000000
310
00000000000000000000000000000000000000000000000000000000000000000000000000000000000000000000000000000000000000000000000000000000000000000000000000000000000000000000000000FFFF00FFFF00FFFF00FFFF00FF0000FF0000FF00FFFF00FFFF00FFFF00000000FFFF00FFFF00FFFF00FF
310
FF00FFFFFFFFFFFFFF00FFFF00FFFF00FFFF00000000FFFF00FFFF00FFFF00FFFFFFFFFFFFFFFFFFFF00FFFF00FFFF00FFFF00000000FFFF00FFFF00FFFF00FFFFFF00FFFF00FFFFFF00FFFF00FFFF00FFFF000000FFFFFFFFFFFFFFFFFFFFFFFFFFFFFFFFFFFFFFFFFFFFFFFFFFFFFFFFFFFF0000FFFFFFFFFFFFFFFFFFFF
310
FFFFFFFFFFFFFFFFFFFFFFFFFFFFFFFFFFFFFFFF0000000000000000000000000000000000000000000000000000000000000000000000000000000000000000000000000000000000000000000000000000000000000000000000000000000000000000000000000000000000000000000000000000000000000000000000
310
00000000000000000000000000000000000000000000000000000000000000000000000000000000000000000000000000000000000000000000000000000000000000000000000000000000000000000000000000000000000000000000000000000000000000000000000000000000000000000000000000000000000000
310
00000000000000000000000000000000000000000000000000000000000000000000000000000000000000000000000000000000000000000000000000000000000000000000000000000000000000000000000000000000000000000000000000000000000000000000000000000000000000000000000000000000000000
310
0000000000000000000000000000000000000000000000000000000000000000000000000000000000000000000000000000000000000000
102
{BLKREFS
331
693
102
}
1001
ACAD
1000
DesignCenter Data
1002
{
1070
     1
1070
     4
1002
}
  0
BLOCK_RECORD
  5
694
330
1
100
AcDbSymbolTableRecord
100
AcDbBlockTableRecord
  2
2
340
0
310
2800000020000000200000000100080000000000000400000000000000000000000000000000000000000000000080000080000000808000800000008000800080800000C0C0C000C0DCC000F0CAA6000020400000206000002080000020A0000020C0000020E00000400000004020000040400000406000004080000040A0
310
000040C0000040E00000600000006020000060400000606000006080000060A0000060C0000060E00000800000008020000080400000806000008080000080A0000080C0000080E00000A0000000A0200000A0400000A0600000A0800000A0A00000A0C00000A0E00000C0000000C0200000C0400000C0600000C0800000C0
310
A00000C0C00000C0E00000E0000000E0200000E0400000E0600000E0800000E0A00000E0C00000E0E00040000000400020004000400040006000400080004000A0004000C0004000E00040200000402020004020400040206000402080004020A0004020C0004020E000404000004040200040404000404060004040800040
310
40A0004040C0004040E00040600000406020004060400040606000406080004060A0004060C0004060E00040800000408020004080400040806000408080004080A0004080C0004080E00040A0000040A0200040A0400040A0600040A0800040A0A00040A0C00040A0E00040C0000040C0200040C0400040C0600040C08000
310
40C0A00040C0C00040C0E00040E0000040E0200040E0400040E0600040E0800040E0A00040E0C00040E0E00080000000800020008000400080006000800080008000A0008000C0008000E00080200000802020008020400080206000802080008020A0008020C0008020E00080400000804020008040400080406000804080
310
008040A0008040C0008040E00080600000806020008060400080606000806080008060A0008060C0008060E00080800000808020008080400080806000808080008080A0008080C0008080E00080A0000080A0200080A0400080A0600080A0800080A0A00080A0C00080A0E00080C0000080C0200080C0400080C0600080C0
310
800080C0A00080C0C00080C0E00080E0000080E0200080E0400080E0600080E0800080E0A00080E0C00080E0E000C0000000C0002000C0004000C0006000C0008000C000A000C000C000C000E000C0200000C0202000C0204000C0206000C0208000C020A000C020C000C020E000C0400000C0402000C0404000C0406000C0
310
408000C040A000C040C000C040E000C0600000C0602000C0604000C0606000C0608000C060A000C060C000C060E000C0800000C0802000C0804000C0806000C0808000C080A000C080C000C080E000C0A00000C0A02000C0A04000C0A06000C0A08000C0A0A000C0A0C000C0A0E000C0C00000C0C02000C0C04000C0C06000
310
C0C08000C0C0A000F0FBFF00A4A0A000808080000000FF0000FF000000FFFF00FF000000FF00FF00FFFF0000FFFFFF000000000000000000000000000000000000000000000000000000000000000000000000000000000000000000000000FFFF000000000000000000000000000000000000000000000000000000000000
310
FFFF000000000000000000000000000000000000000000000000000000000000FFFF000000000000000000000000000000000000000000000000000000000000FFFF000000000000000000000000000000000000000000000000000000000000FFFF0000000000000000000000000000000000000000000000000000000000
310
00FFFF000000000000000000000000000000000000000000000000000000000000FFFF000000000000000000000000000000000000000000000000000000000000FFFF000000000000000000000000000000000000000000000000000000000000FFFF00000000000000000000000000000000000000000000000000000000
310
0000FFFF0000000000000000000000000000000000000000000000000000000000FFFFFFFF00000000000000000000000000000000000000000000000000000000FF0000FF00000000000000000000000000000000000000000000000000000000FF0000FF0000000000000000000000000000000000000000000000000000
310
0000FF0000FF00000000000000000000000000000000000000000000000000000000FF0000FF00000000000000000000000000000000000000000000000000000000FF0000FF00000000000000000000000000000000000000000000000000000000FF0000FF00000000000000000000000000000000000000000000000000
310
000000FF0000FF00000000000000000000000000000000000000000000000000000000FF0000FF00000000000000000000000000000000000000000000000000000000FF0000FF00000000000000000000000000000000000000000000000000000000FF0000FF000000000000000000000000000000000000000000000000
310
00000000FF0000FF00000000000000000000000000000000000000000000000000000000FFFFFFFF00000000000000000000000000000000000000000000000000000000FF0000FF000000000000000000000000000000000000000000000000000000FFFF0000FFFF00000000000000000000000000000000000000000000
310
00000000FF00000000FF0000000000000000000000000000000000000000000000000000FF00000000FF0000000000000000000000000000000000000000000000000000FF00000000FF0000000000000000000000000000000000000000000000000000FF00000000FF000000000000000000000000000000000000000000
310
0000000000FFFFFFFFFFFF000000000000000000000000000000000000000000000000000000000000000000000000000000000000000000
102
{BLKREFS
331
6B4
102
}
1001
ACAD
1000
DesignCenter Data
1002
{
1070
     1
1070
     4
1002
}
  0
BLOCK_RECORD
  5
6B5
330
1
100
AcDbSymbolTableRecord
100
AcDbBlockTableRecord
  2
3
340
0
310
2800000020000000200000000100080000000000000400000000000000000000000000000000000000000000000080000080000000808000800000008000800080800000C0C0C000C0DCC000F0CAA6000020400000206000002080000020A0000020C0000020E00000400000004020000040400000406000004080000040A0
310
000040C0000040E00000600000006020000060400000606000006080000060A0000060C0000060E00000800000008020000080400000806000008080000080A0000080C0000080E00000A0000000A0200000A0400000A0600000A0800000A0A00000A0C00000A0E00000C0000000C0200000C0400000C0600000C0800000C0
310
A00000C0C00000C0E00000E0000000E0200000E0400000E0600000E0800000E0A00000E0C00000E0E00040000000400020004000400040006000400080004000A0004000C0004000E00040200000402020004020400040206000402080004020A0004020C0004020E000404000004040200040404000404060004040800040
310
40A0004040C0004040E00040600000406020004060400040606000406080004060A0004060C0004060E00040800000408020004080400040806000408080004080A0004080C0004080E00040A0000040A0200040A0400040A0600040A0800040A0A00040A0C00040A0E00040C0000040C0200040C0400040C0600040C08000
310
40C0A00040C0C00040C0E00040E0000040E0200040E0400040E0600040E0800040E0A00040E0C00040E0E00080000000800020008000400080006000800080008000A0008000C0008000E00080200000802020008020400080206000802080008020A0008020C0008020E00080400000804020008040400080406000804080
310
008040A0008040C0008040E00080600000806020008060400080606000806080008060A0008060C0008060E00080800000808020008080400080806000808080008080A0008080C0008080E00080A0000080A0200080A0400080A0600080A0800080A0A00080A0C00080A0E00080C0000080C0200080C0400080C0600080C0
310
800080C0A00080C0C00080C0E00080E0000080E0200080E0400080E0600080E0800080E0A00080E0C00080E0E000C0000000C0002000C0004000C0006000C0008000C000A000C000C000C000E000C0200000C0202000C0204000C0206000C0208000C020A000C020C000C020E000C0400000C0402000C0404000C0406000C0
310
408000C040A000C040C000C040E000C0600000C0602000C0604000C0606000C0608000C060A000C060C000C060E000C0800000C0802000C0804000C0806000C0808000C080A000C080C000C080E000C0A00000C0A02000C0A04000C0A06000C0A08000C0A0A000C0A0C000C0A0E000C0C00000C0C02000C0C04000C0C06000
310
C0C08000C0C0A000F0FBFF00A4A0A000808080000000FF0000FF000000FFFF00FF000000FF00FF00FFFF0000FFFFFF0000000000000000000000000000000000000000000000000000000000000000000000000000000000000000000000000000000000000000000000000000000000000000000000000000000000000000
310
00000000000000000000000000000000000000000000000000000000000000000000000000000000000000000000000000000000000000000000000000000000000000000000000000000000000000000000000000000000000000000000000000000000000000000000000000000000000000000000000000000000000000
310
00000000000000000000000000000000000000000000000000000000000000000000000000000000000000000000000000000000000000000000000000000000000000000000000000000000000000000000000000000000000000000000000000000000000000000000000000000000000000000000000000000000000000
310
00000000000000000000000000000000000000000000000000000000000000000000000000000000000000000000000000000000000000000000000000000000000000000000000000000000000000000000000000000000000000000000000000000000000000000000000000000000000000000000000000000000000000
310
000000000000000000000000000000000000000000FFFFFFFFFFFFFFFFFFFFFFFFFFFFFFFFFFFFFFFFFFFFFFFFFFFFFFFFFFFF0000FFFFFFFFFFFFFFFFFFFFFFFFFFFFFFFFFFFFFFFFFFFFFFFFFFFFFFFFFFFF0000000000000000000000000000000000000000000000000000000000000000000000000000000000000000
310
00000000000000000000000000000000000000000000000000000000000000000000000000000000000000000000000000000000000000000000000000000000000000000000000000000000000000000000000000000000000000000000000000000000000000000000000000000000000000000000000000000000000000
310
00000000000000000000000000000000000000000000000000000000000000000000000000000000000000000000000000000000000000000000000000000000000000000000000000000000000000000000000000000000000000000000000000000000000000000000000000000000000000000000000000000000000000
310
00000000000000000000000000000000000000000000000000000000000000000000000000000000000000000000000000000000000000000000000000000000000000000000000000000000000000000000000000000000000000000000000000000000000000000000000000000000000000000000000000000000000000
310
0000000000000000000000000000000000000000000000000000000000000000000000000000000000000000000000000000000000000000
102
{BLKREFS
331
6BC
102
}
1001
ACAD
1000
DesignCenter Data
1002
{
1070
     1
1070
     4
1002
}
  0
BLOCK_RECORD
  5
6BD
330
1
100
AcDbSymbolTableRecord
100
AcDbBlockTableRecord
  2
4
340
0
310
2800000020000000200000000100080000000000000400000000000000000000000000000000000000000000000080000080000000808000800000008000800080800000C0C0C000C0DCC000F0CAA6000020400000206000002080000020A0000020C0000020E00000400000004020000040400000406000004080000040A0
310
000040C0000040E00000600000006020000060400000606000006080000060A0000060C0000060E00000800000008020000080400000806000008080000080A0000080C0000080E00000A0000000A0200000A0400000A0600000A0800000A0A00000A0C00000A0E00000C0000000C0200000C0400000C0600000C0800000C0
310
A00000C0C00000C0E00000E0000000E0200000E0400000E0600000E0800000E0A00000E0C00000E0E00040000000400020004000400040006000400080004000A0004000C0004000E00040200000402020004020400040206000402080004020A0004020C0004020E000404000004040200040404000404060004040800040
310
40A0004040C0004040E00040600000406020004060400040606000406080004060A0004060C0004060E00040800000408020004080400040806000408080004080A0004080C0004080E00040A0000040A0200040A0400040A0600040A0800040A0A00040A0C00040A0E00040C0000040C0200040C0400040C0600040C08000
310
40C0A00040C0C00040C0E00040E0000040E0200040E0400040E0600040E0800040E0A00040E0C00040E0E00080000000800020008000400080006000800080008000A0008000C0008000E00080200000802020008020400080206000802080008020A0008020C0008020E00080400000804020008040400080406000804080
310
008040A0008040C0008040E00080600000806020008060400080606000806080008060A0008060C0008060E00080800000808020008080400080806000808080008080A0008080C0008080E00080A0000080A0200080A0400080A0600080A0800080A0A00080A0C00080A0E00080C0000080C0200080C0400080C0600080C0
310
800080C0A00080C0C00080C0E00080E0000080E0200080E0400080E0600080E0800080E0A00080E0C00080E0E000C0000000C0002000C0004000C0006000C0008000C000A000C000C000C000E000C0200000C0202000C0204000C0206000C0208000C020A000C020C000C020E000C0400000C0402000C0404000C0406000C0
310
408000C040A000C040C000C040E000C0600000C0602000C0604000C0606000C0608000C060A000C060C000C060E000C0800000C0802000C0804000C0806000C0808000C080A000C080C000C080E000C0A00000C0A02000C0A04000C0A06000C0A08000C0A0A000C0A0C000C0A0E000C0C00000C0C02000C0C04000C0C06000
310
C0C08000C0C0A000F0FBFF00A4A0A000808080000000FF0000FF000000FFFF00FF000000FF00FF00FFFF0000FFFFFF0000000000000000000000000000000000000000000000000000000000000000000000000000000000000000000000000000000000000000000000000000000000000000000000000000000000000000
310
0000000000000000000000000000000000000000000000000000000000000000000000000000000000000000000000000000000000000000000000000000000000000000000000000000000000FF00000000000000000000000000000000000000000000000000000000000000FFFF00000000000000000000000000000000
310
0000000000000000000000FFFFFFFFFF000000000000000000000000000000000000000000000000000000FFFFFFFFFF000000000000000000000000000000000000000000000000FFFF00FFFFFFFFFF00000000000000000000000000000000000000000000FF00FFFFFFFFFFFFFFFF000000000000000000000000000000
310
000000000000FFFF00FFFFFF00FFFFFFFFFF0000000000000000000000000000000000FFFF00FFFF00FFFFFFFFFFFFFF00FF0000000000000000000000000000000000FFFFFFFFFFFFFFFFFFFFFF00FFFF00000000000000000000000000000000FFFFFFFFFFFFFFFFFFFFFF00FFFF000000000000000000000000000000FF
310
FFFFFFFFFFFFFFFFFFFFFF00FFFF0000000000000000000000000000000000FFFFFFFFFFFFFFFFFFFFFF00FF00000000000000000000000000000000FFFF00FFFFFFFFFFFFFFFFFF00FFFF000000000000000000000000000000FF00FFFFFFFFFFFFFFFFFFFF00FFFF00000000000000000000000000000000FFFF00FFFFFF
310
00FFFFFFFF00FFFF000000000000000000000000000000FFFF00FFFF00FFFFFFFFFFFFFF00FF0000000000000000000000000000000000FFFFFFFFFFFFFFFFFFFFFF00FFFF000000000000000000000000000000000000FFFFFFFFFFFFFFFFFF00FFFF0000000000000000000000000000000000000000FFFFFFFFFFFFFF00
310
FFFF00000000000000000000000000000000000000000000FFFFFFFFFFFF00FF000000000000000000000000000000000000000000000000FFFFFFFF00FFFF000000000000000000000000000000000000000000000000FFFFFF00FFFF0000000000000000000000000000000000000000000000000000FF00FFFF00000000
310
00000000000000000000000000000000000000000000000000FF0000000000000000000000000000000000000000000000000000000000000000000000000000000000000000000000000000000000000000000000000000000000000000000000000000000000000000000000000000000000000000000000000000000000
310
0000000000000000000000000000000000000000000000000000000000000000000000000000000000000000000000000000000000000000
102
{BLKREFS
331
805
102
}
1001
ACAD
1000
DesignCenter Data
1002
{
1070
     1
1070
     4
1002
}
  0
ENDTAB
  0
ENDSEC
  0
SECTION
  2
BLOCKS
  0
BLOCK
  5
20
330
1F
100
AcDbEntity
  8
0
100
AcDbBlockBegin
  2
*Model_Space
 70
     0
 10
0.0
 20
0.0
 30
0.0
  3
*Model_Space
  1

  0
ENDBLK
  5
21
330
1F
100
AcDbEntity
  8
0
100
AcDbBlockEnd
  0
BLOCK
  5
D4
330
D2
100
AcDbEntity
 67
     1
  8
0
100
AcDbBlockBegin
  2
*Paper_Space
 70
     0
 10
0.0
 20
0.0
 30
0.0
  3
*Paper_Space
  1

  0
ENDBLK
  5
D5
330
D2
100
AcDbEntity
 67
     1
  8
0
100
AcDbBlockEnd
  0
BLOCK
  5
D8
330
D6
100
AcDbEntity
 67
     1
  8
0
100
AcDbBlockBegin
  2
*Paper_Space0
 70
     0
 10
0.0
 20
0.0
 30
0.0
  3
*Paper_Space0
  1

  0
ENDBLK
  5
D9
330
D6
100
AcDbEntity
 67
     1
  8
0
100
AcDbBlockEnd
  0
BLOCK
  5
5E0
330
5DF
100
AcDbEntity
  8
0
100
AcDbBlockBegin
  2
1
 70
     0
 10
0.0
 20
0.0
 30
0.0
  3
1
  1

  0
LINE
  5
5E2
330
5DF
100
AcDbEntity
  8
0
  6
Continuous
 62
     7
370
    15
100
AcDbLine
 10
2308.987983736715
 20
971.3632659881879
 30
0.0
 11
2163.487983736715
 21
971.3632659881879
 31
0.0
  0
LINE
  5
5E3
330
5DF
100
AcDbEntity
  8
0
  6
Continuous
 62
     7
370
    15
100
AcDbLine
 10
2163.487983736715
 20
971.3632659881879
 30
0.0
 11
2163.487983736715
 21
966.8632659881879
 31
0.0
  0
LINE
  5
5E4
330
5DF
100
AcDbEntity
  8
0
  6
Continuous
 62
     7
370
    15
100
AcDbLine
 10
2163.487983736715
 20
966.8632659881879
 30
0.0
 11
2308.987983736715
 21
966.8632659881879
 31
0.0
  0
LINE
  5
5E5
330
5DF
100
AcDbEntity
  8
0
  6
Continuous
 62
     7
370
    15
100
AcDbLine
 10
2308.987983736715
 20
966.8632659881879
 30
0.0
 11
2308.987983736715
 21
971.3632659881879
 31
0.0
  0
LINE
  5
5E6
330
5DF
100
AcDbEntity
  8
0
  6
Continuous
 62
     7
370
    15
100
AcDbLine
 10
2276.987983736715
 20
951.663265988188
 30
0.0
 11
2276.987983736715
 21
964.063265988188
 31
0.0
  0
LINE
  5
5E7
330
5DF
100
AcDbEntity
  8
0
  6
Continuous
 62
     7
370
    15
100
AcDbLine
 10
2276.987983736715
 20
951.663265988188
 30
0.0
 11
2270.487983736715
 21
951.663265988188
 31
0.0
  0
LINE
  5
5E8
330
5DF
100
AcDbEntity
  8
0
  6
Continuous
 62
     7
370
    15
100
AcDbLine
 10
2270.487983736715
 20
964.063265988188
 30
0.0
 11
2270.487983736715
 21
951.663265988188
 31
0.0
  0
LINE
  5
5E9
330
5DF
100
AcDbEntity
  8
0
  6
Continuous
 62
     7
370
    15
100
AcDbLine
 10
2261.987983736716
 20
951.663265988188
 30
0.0
 11
2261.987983736716
 21
964.063265988188
 31
0.0
  0
LINE
  5
5EA
330
5DF
100
AcDbEntity
  8
0
  6
Continuous
 62
     7
370
    15
100
AcDbLine
 10
2261.987983736716
 20
951.663265988188
 30
0.0
 11
2255.487983736715
 21
951.663265988188
 31
0.0
  0
LINE
  5
5EB
330
5DF
100
AcDbEntity
  8
0
  6
Continuous
 62
     7
370
    15
100
AcDbLine
 10
2255.487983736715
 20
964.063265988188
 30
0.0
 11
2255.487983736715
 21
951.663265988188
 31
0.0
  0
LINE
  5
5EC
330
5DF
100
AcDbEntity
  8
0
  6
Continuous
 62
     7
370
    15
100
AcDbLine
 10
2246.987983736715
 20
951.663265988188
 30
0.0
 11
2246.987983736715
 21
964.063265988188
 31
0.0
  0
LINE
  5
5ED
330
5DF
100
AcDbEntity
  8
0
  6
Continuous
 62
     7
370
    15
100
AcDbLine
 10
2246.987983736715
 20
951.663265988188
 30
0.0
 11
2240.487983736715
 21
951.663265988188
 31
0.0
  0
LINE
  5
5EE
330
5DF
100
AcDbEntity
  8
0
  6
Continuous
 62
     7
370
    15
100
AcDbLine
 10
2240.487983736715
 20
964.063265988188
 30
0.0
 11
2240.487983736715
 21
951.663265988188
 31
0.0
  0
LINE
  5
5EF
330
5DF
100
AcDbEntity
  8
0
  6
Continuous
 62
     7
370
    15
100
AcDbLine
 10
2231.987983736715
 20
951.663265988188
 30
0.0
 11
2231.987983736715
 21
964.063265988188
 31
0.0
  0
LINE
  5
5F0
330
5DF
100
AcDbEntity
  8
0
  6
Continuous
 62
     7
370
    15
100
AcDbLine
 10
2231.987983736715
 20
951.663265988188
 30
0.0
 11
2225.487983736715
 21
951.663265988188
 31
0.0
  0
LINE
  5
5F1
330
5DF
100
AcDbEntity
  8
0
  6
Continuous
 62
     7
370
    15
100
AcDbLine
 10
2225.487983736715
 20
964.063265988188
 30
0.0
 11
2225.487983736715
 21
951.663265988188
 31
0.0
  0
LINE
  5
5F2
330
5DF
100
AcDbEntity
  8
0
  6
Continuous
 62
     7
370
    15
100
AcDbLine
 10
2216.987983736715
 20
964.063265988188
 30
0.0
 11
2225.487983736715
 21
964.063265988188
 31
0.0
  0
LINE
  5
5F3
330
5DF
100
AcDbEntity
  8
0
  6
Continuous
 62
     7
370
    15
100
AcDbLine
 10
2216.987983736715
 20
951.663265988188
 30
0.0
 11
2216.987983736715
 21
964.063265988188
 31
0.0
  0
LINE
  5
5F4
330
5DF
100
AcDbEntity
  8
0
  6
Continuous
 62
     7
370
    15
100
AcDbLine
 10
2216.987983736715
 20
951.663265988188
 30
0.0
 11
2210.487983736715
 21
951.663265988188
 31
0.0
  0
LINE
  5
5F5
330
5DF
100
AcDbEntity
  8
0
  6
Continuous
 62
     7
370
    15
100
AcDbLine
 10
2210.487983736715
 20
964.063265988188
 30
0.0
 11
2210.487983736715
 21
951.663265988188
 31
0.0
  0
LINE
  5
5F6
330
5DF
100
AcDbEntity
  8
0
  6
Continuous
 62
     7
370
    15
100
AcDbLine
 10
2201.987983736716
 20
964.063265988188
 30
0.0
 11
2210.487983736715
 21
964.063265988188
 31
0.0
  0
LINE
  5
5F7
330
5DF
100
AcDbEntity
  8
0
  6
Continuous
 62
     7
370
    15
100
AcDbLine
 10
2201.987983736716
 20
951.663265988188
 30
0.0
 11
2201.987983736716
 21
964.063265988188
 31
0.0
  0
LINE
  5
5F8
330
5DF
100
AcDbEntity
  8
0
  6
Continuous
 62
     7
370
    15
100
AcDbLine
 10
2201.987983736716
 20
951.663265988188
 30
0.0
 11
2195.487983736715
 21
951.663265988188
 31
0.0
  0
LINE
  5
5F9
330
5DF
100
AcDbEntity
  8
0
  6
Continuous
 62
     7
370
    15
100
AcDbLine
 10
2195.487983736715
 20
964.063265988188
 30
0.0
 11
2195.487983736715
 21
951.663265988188
 31
0.0
  0
LINE
  5
5FA
330
5DF
100
AcDbEntity
  8
0
  6
Continuous
 62
     7
370
    15
100
AcDbLine
 10
2186.987983736715
 20
951.663265988188
 30
0.0
 11
2186.987983736715
 21
964.063265988188
 31
0.0
  0
LINE
  5
5FB
330
5DF
100
AcDbEntity
  8
0
  6
Continuous
 62
     7
370
    15
100
AcDbLine
 10
2186.987983736715
 20
951.663265988188
 30
0.0
 11
2180.487983736715
 21
951.663265988188
 31
0.0
  0
LINE
  5
5FC
330
5DF
100
AcDbEntity
  8
0
  6
Continuous
 62
     7
370
    15
100
AcDbLine
 10
2180.487983736715
 20
964.063265988188
 30
0.0
 11
2180.487983736715
 21
951.663265988188
 31
0.0
  0
LINE
  5
5FD
330
5DF
100
AcDbEntity
  8
0
  6
Continuous
 62
     7
370
    15
100
AcDbLine
 10
2171.987983736715
 20
951.663265988188
 30
0.0
 11
2171.987983736715
 21
964.063265988188
 31
0.0
  0
LINE
  5
5FE
330
5DF
100
AcDbEntity
  8
0
  6
Continuous
 62
     7
370
    15
100
AcDbLine
 10
2165.487983736715
 20
951.663265988188
 30
0.0
 11
2171.987983736715
 21
951.663265988188
 31
0.0
  0
LINE
  5
5FF
330
5DF
100
AcDbEntity
  8
0
  6
Continuous
 62
     7
370
    15
100
AcDbLine
 10
2165.487983736715
 20
964.063265988188
 30
0.0
 11
2165.487983736715
 21
951.663265988188
 31
0.0
  0
LINE
  5
600
330
5DF
100
AcDbEntity
  8
0
  6
Continuous
 62
     7
370
    15
100
AcDbLine
 10
2163.487983736715
 20
964.063265988188
 30
0.0
 11
2165.487983736715
 21
964.063265988188
 31
0.0
  0
LINE
  5
601
330
5DF
100
AcDbEntity
  8
0
  6
Continuous
 62
     7
370
    15
100
AcDbLine
 10
2306.987983736715
 20
964.063265988188
 30
0.0
 11
2308.987983736715
 21
964.063265988188
 31
0.0
  0
LINE
  5
602
330
5DF
100
AcDbEntity
  8
0
  6
Continuous
 62
     7
370
    15
100
AcDbLine
 10
2306.987983736715
 20
951.663265988188
 30
0.0
 11
2306.987983736715
 21
964.063265988188
 31
0.0
  0
LINE
  5
603
330
5DF
100
AcDbEntity
  8
0
  6
Continuous
 62
     7
370
    15
100
AcDbLine
 10
2306.987983736715
 20
951.663265988188
 30
0.0
 11
2300.487983736715
 21
951.663265988188
 31
0.0
  0
LINE
  5
604
330
5DF
100
AcDbEntity
  8
0
  6
Continuous
 62
     7
370
    15
100
AcDbLine
 10
2300.487983736715
 20
964.063265988188
 30
0.0
 11
2300.487983736715
 21
951.663265988188
 31
0.0
  0
LINE
  5
605
330
5DF
100
AcDbEntity
  8
0
  6
Continuous
 62
     7
370
    15
100
AcDbLine
 10
2291.987983736715
 20
951.663265988188
 30
0.0
 11
2291.987983736715
 21
964.063265988188
 31
0.0
  0
LINE
  5
606
330
5DF
100
AcDbEntity
  8
0
  6
Continuous
 62
     7
370
    15
100
AcDbLine
 10
2291.987983736715
 20
951.663265988188
 30
0.0
 11
2285.487983736715
 21
951.663265988188
 31
0.0
  0
LINE
  5
607
330
5DF
100
AcDbEntity
  8
0
  6
Continuous
 62
     7
370
    15
100
AcDbLine
 10
2285.487983736715
 20
964.063265988188
 30
0.0
 11
2285.487983736715
 21
951.663265988188
 31
0.0
  0
LINE
  5
608
330
5DF
100
AcDbEntity
  8
0
  6
Continuous
 62
     7
370
    15
100
AcDbLine
 10
2276.987983736715
 20
964.063265988188
 30
0.0
 11
2285.487983736715
 21
964.063265988188
 31
0.0
  0
LINE
  5
609
330
5DF
100
AcDbEntity
  8
0
  6
Continuous
 62
     7
370
    15
100
AcDbLine
 10
2231.987983736715
 20
964.063265988188
 30
0.0
 11
2240.487983736715
 21
964.063265988188
 31
0.0
  0
LINE
  5
60A
330
5DF
100
AcDbEntity
  8
0
  6
Continuous
 62
     7
370
    15
100
AcDbLine
 10
2246.987983736715
 20
964.063265988188
 30
0.0
 11
2255.487983736715
 21
964.063265988188
 31
0.0
  0
LINE
  5
60B
330
5DF
100
AcDbEntity
  8
0
  6
Continuous
 62
     7
370
    15
100
AcDbLine
 10
2171.987983736715
 20
964.063265988188
 30
0.0
 11
2180.487983736715
 21
964.063265988188
 31
0.0
  0
LINE
  5
60C
330
5DF
100
AcDbEntity
  8
0
  6
Continuous
 62
     7
370
    15
100
AcDbLine
 10
2291.987983736715
 20
964.063265988188
 30
0.0
 11
2300.487983736715
 21
964.063265988188
 31
0.0
  0
LINE
  5
60D
330
5DF
100
AcDbEntity
  8
0
  6
Continuous
 62
     7
370
    15
100
AcDbLine
 10
2186.987983736715
 20
964.063265988188
 30
0.0
 11
2195.487983736715
 21
964.063265988188
 31
0.0
  0
LINE
  5
60E
330
5DF
100
AcDbEntity
  8
0
  6
Continuous
 62
     7
370
    15
100
AcDbLine
 10
2261.987983736716
 20
964.063265988188
 30
0.0
 11
2270.487983736715
 21
964.063265988188
 31
0.0
  0
LINE
  5
60F
330
5DF
100
AcDbEntity
  8
0
  6
Continuous
 62
     7
370
    15
100
AcDbLine
 10
2163.487983736715
 20
966.8632659881879
 30
0.0
 11
2163.487983736715
 21
964.063265988188
 31
0.0
  0
LINE
  5
610
330
5DF
100
AcDbEntity
  8
0
  6
Continuous
 62
     7
370
    15
100
AcDbLine
 10
2308.987983736715
 20
964.063265988188
 30
0.0
 11
2308.987983736715
 21
966.8632659881879
 31
0.0
  0
LINE
  5
611
330
5DF
100
AcDbEntity
  8
0
  6
Continuous
 62
     7
370
    15
100
AcDbLine
 10
2256.412983736716
 20
948.0632659881875
 30
0.0
 11
2257.062983736716
 21
947.196599321521
 31
0.0
  0
ARC
  5
612
330
5DF
100
AcDbEntity
  8
0
  6
Continuous
 62
     7
370
    15
100
AcDbCircle
 10
2256.812983736716
 20
948.3632659881875
 30
0.0
 40
0.4999999999999602
100
AcDbArc
 50
180.0
 51
216.8698976458597
  0
LINE
  5
613
330
5DF
100
AcDbEntity
  8
0
  6
Continuous
 62
     7
370
    15
100
AcDbLine
 10
2256.312983736716
 20
948.3632659881875
 30
0.0
 11
2256.312983736716
 21
951.663265988188
 31
0.0
  0
LINE
  5
614
330
5DF
100
AcDbEntity
  8
0
  6
Continuous
 62
     7
370
    15
100
AcDbLine
 10
2261.702983736717
 20
951.663265988188
 30
0.0
 11
2261.702983736717
 21
948.363265988188
 31
0.0
  0
ARC
  5
615
330
5DF
100
AcDbEntity
  8
0
  6
Continuous
 62
     7
370
    15
100
AcDbCircle
 10
2261.202983736717
 20
948.363265988188
 30
0.0
 40
0.4999999999999944
100
AcDbArc
 50
323.1301023541404
 51
0.0000000000065138
  0
LINE
  5
616
330
5DF
100
AcDbEntity
  8
0
  6
Continuous
 62
     7
370
    15
100
AcDbLine
 10
2260.952983736717
 20
947.1965993215215
 30
0.0
 11
2261.602983736717
 21
948.0632659881878
 31
0.0
  0
ARC
  5
617
330
5DF
100
AcDbEntity
  8
0
  6
Continuous
 62
     7
370
    15
100
AcDbCircle
 10
2261.352983736717
 20
946.8965993215213
 30
0.0
 40
0.5000000000000569
100
AcDbArc
 50
143.1301023541403
 51
179.9999999999935
  0
LINE
  5
618
330
5DF
100
AcDbEntity
  8
0
  6
Continuous
 62
     7
370
    15
100
AcDbLine
 10
2260.852983736717
 20
946.8965993215213
 30
0.0
 11
2260.852983736717
 21
942.3632659881882
 31
0.0
  0
ARC
  5
619
330
5DF
100
AcDbEntity
  8
0
  6
Continuous
 62
     7
370
    15
100
AcDbCircle
 10
2260.352983736717
 20
942.3632659881882
 30
0.0
 40
0.5000000000000853
100
AcDbArc
 50
270.0
 51
0.0000000000065138
  0
LINE
  5
61A
330
5DF
100
AcDbEntity
  8
0
  6
Continuous
 62
     7
370
    15
100
AcDbLine
 10
2260.352983736717
 20
941.8632659881881
 30
0.0
 11
2257.662983736715
 21
941.8632659881881
 31
0.0
  0
ARC
  5
61B
330
5DF
100
AcDbEntity
  8
0
  6
Continuous
 62
     7
370
    15
100
AcDbCircle
 10
2257.662983736715
 20
942.3632659881878
 30
0.0
 40
0.4999999999998295
100
AcDbArc
 50
180.0
 51
270.0
  0
LINE
  5
61C
330
5DF
100
AcDbEntity
  8
0
  6
Continuous
 62
     7
370
    15
100
AcDbLine
 10
2257.162983736716
 20
942.3632659881878
 30
0.0
 11
2257.162983736716
 21
946.8965993215208
 31
0.0
  0
ARC
  5
61D
330
5DF
100
AcDbEntity
  8
0
  6
Continuous
 62
     7
370
    15
100
AcDbCircle
 10
2256.662983736716
 20
946.8965993215208
 30
0.0
 40
0.5000000000000569
100
AcDbArc
 50
0.0
 51
36.86989764585966
  0
LINE
  5
61E
330
5DF
100
AcDbEntity
  8
0
  6
Continuous
 62
     7
370
    15
100
AcDbLine
 10
2241.412983736716
 20
948.0632659881875
 30
0.0
 11
2242.062983736716
 21
947.196599321521
 31
0.0
  0
ARC
  5
61F
330
5DF
100
AcDbEntity
  8
0
  6
Continuous
 62
     7
370
    15
100
AcDbCircle
 10
2241.812983736716
 20
948.3632659881875
 30
0.0
 40
0.499999999999983
100
AcDbArc
 50
180.0
 51
216.8698976458597
  0
LINE
  5
620
330
5DF
100
AcDbEntity
  8
0
  6
Continuous
 62
     7
370
    15
100
AcDbLine
 10
2241.312983736716
 20
948.3632659881875
 30
0.0
 11
2241.312983736716
 21
951.663265988188
 31
0.0
  0
LINE
  5
621
330
5DF
100
AcDbEntity
  8
0
  6
Continuous
 62
     7
370
    15
100
AcDbLine
 10
2246.702983736717
 20
951.663265988188
 30
0.0
 11
2246.702983736717
 21
948.363265988188
 31
0.0
  0
ARC
  5
622
330
5DF
100
AcDbEntity
  8
0
  6
Continuous
 62
     7
370
    15
100
AcDbCircle
 10
2246.202983736717
 20
948.363265988188
 30
0.0
 40
0.4999999999999489
100
AcDbArc
 50
323.1301023541352
 51
0.0000000000065138
  0
LINE
  5
623
330
5DF
100
AcDbEntity
  8
0
  6
Continuous
 62
     7
370
    15
100
AcDbLine
 10
2245.952983736717
 20
947.1965993215215
 30
0.0
 11
2246.602983736717
 21
948.0632659881878
 31
0.0
  0
ARC
  5
624
330
5DF
100
AcDbEntity
  8
0
  6
Continuous
 62
     7
370
    15
100
AcDbCircle
 10
2246.352983736717
 20
946.8965993215213
 30
0.0
 40
0.5000000000001478
100
AcDbArc
 50
143.1301023541455
 51
179.9999999999935
  0
LINE
  5
625
330
5DF
100
AcDbEntity
  8
0
  6
Continuous
 62
     7
370
    15
100
AcDbLine
 10
2245.852983736717
 20
946.8965993215213
 30
0.0
 11
2245.852983736717
 21
942.3632659881882
 31
0.0
  0
ARC
  5
626
330
5DF
100
AcDbEntity
  8
0
  6
Continuous
 62
     7
370
    15
100
AcDbCircle
 10
2245.352983736717
 20
942.3632659881882
 30
0.0
 40
0.5000000000000853
100
AcDbArc
 50
270.0
 51
0.0000000000065138
  0
LINE
  5
627
330
5DF
100
AcDbEntity
  8
0
  6
Continuous
 62
     7
370
    15
100
AcDbLine
 10
2245.352983736717
 20
941.8632659881881
 30
0.0
 11
2242.662983736716
 21
941.8632659881881
 31
0.0
  0
ARC
  5
628
330
5DF
100
AcDbEntity
  8
0
  6
Continuous
 62
     7
370
    15
100
AcDbCircle
 10
2242.662983736716
 20
942.3632659881878
 30
0.0
 40
0.4999999999998295
100
AcDbArc
 50
180.0
 51
270.0
  0
LINE
  5
629
330
5DF
100
AcDbEntity
  8
0
  6
Continuous
 62
     7
370
    15
100
AcDbLine
 10
2242.162983736716
 20
942.3632659881878
 30
0.0
 11
2242.162983736716
 21
946.8965993215208
 31
0.0
  0
ARC
  5
62A
330
5DF
100
AcDbEntity
  8
0
  6
Continuous
 62
     7
370
    15
100
AcDbCircle
 10
2241.662983736716
 20
946.8965993215208
 30
0.0
 40
0.5000000000000569
100
AcDbArc
 50
0.0
 51
36.86989764585966
  0
LINE
  5
62B
330
5DF
100
AcDbEntity
  8
0
  6
Continuous
 62
     7
370
    15
100
AcDbLine
 10
2166.412983736716
 20
948.0632659881875
 30
0.0
 11
2167.062983736716
 21
947.196599321521
 31
0.0
  0
ARC
  5
62C
330
5DF
100
AcDbEntity
  8
0
  6
Continuous
 62
     7
370
    15
100
AcDbCircle
 10
2166.812983736716
 20
948.3632659881875
 30
0.0
 40
0.499999999999983
100
AcDbArc
 50
180.0
 51
216.8698976458597
  0
LINE
  5
62D
330
5DF
100
AcDbEntity
  8
0
  6
Continuous
 62
     7
370
    15
100
AcDbLine
 10
2171.702983736717
 20
948.363265988188
 30
0.0
 11
2171.702983736717
 21
951.663265988188
 31
0.0
  0
ARC
  5
62E
330
5DF
100
AcDbEntity
  8
0
  6
Continuous
 62
     7
370
    15
100
AcDbCircle
 10
2171.202983736717
 20
948.363265988188
 30
0.0
 40
0.5000000000000398
100
AcDbArc
 50
323.1301023541404
 51
0.0000000000065138
  0
LINE
  5
62F
330
5DF
100
AcDbEntity
  8
0
  6
Continuous
 62
     7
370
    15
100
AcDbLine
 10
2170.952983736717
 20
947.1965993215214
 30
0.0
 11
2171.602983736717
 21
948.0632659881878
 31
0.0
  0
ARC
  5
630
330
5DF
100
AcDbEntity
  8
0
  6
Continuous
 62
     7
370
    15
100
AcDbCircle
 10
2171.352983736717
 20
946.8965993215213
 30
0.0
 40
0.5000000000000967
100
AcDbArc
 50
143.1301023541664
 51
179.9999999999935
  0
LINE
  5
631
330
5DF
100
AcDbEntity
  8
0
  6
Continuous
 62
     7
370
    15
100
AcDbLine
 10
2170.852983736717
 20
946.8965993215213
 30
0.0
 11
2170.852983736717
 21
942.3632659881882
 31
0.0
  0
ARC
  5
632
330
5DF
100
AcDbEntity
  8
0
  6
Continuous
 62
     7
370
    15
100
AcDbCircle
 10
2170.352983736717
 20
942.3632659881882
 30
0.0
 40
0.5000000000000853
100
AcDbArc
 50
270.0
 51
0.0000000000065138
  0
LINE
  5
633
330
5DF
100
AcDbEntity
  8
0
  6
Continuous
 62
     7
370
    15
100
AcDbLine
 10
2170.352983736717
 20
941.8632659881881
 30
0.0
 11
2167.662983736716
 21
941.8632659881881
 31
0.0
  0
ARC
  5
634
330
5DF
100
AcDbEntity
  8
0
  6
Continuous
 62
     7
370
    15
100
AcDbCircle
 10
2167.662983736716
 20
942.3632659881878
 30
0.0
 40
0.4999999999998864
100
AcDbArc
 50
180.0
 51
270.0
  0
LINE
  5
635
330
5DF
100
AcDbEntity
  8
0
  6
Continuous
 62
     7
370
    15
100
AcDbLine
 10
2167.162983736716
 20
942.3632659881878
 30
0.0
 11
2167.162983736716
 21
946.8965993215208
 31
0.0
  0
ARC
  5
636
330
5DF
100
AcDbEntity
  8
0
  6
Continuous
 62
     7
370
    15
100
AcDbCircle
 10
2166.662983736716
 20
946.8965993215208
 30
0.0
 40
0.5000000000000626
100
AcDbArc
 50
0.0
 51
36.86989764585966
  0
LINE
  5
637
330
5DF
100
AcDbEntity
  8
0
  6
Continuous
 62
     7
370
    15
100
AcDbLine
 10
2166.312983736716
 20
951.663265988188
 30
0.0
 11
2166.312983736716
 21
948.3632659881875
 31
0.0
  0
LINE
  5
638
330
5DF
100
AcDbEntity
  8
0
  6
Continuous
 62
     7
370
    15
100
AcDbLine
 10
2286.412983736716
 20
948.0632659881875
 30
0.0
 11
2287.062983736716
 21
947.196599321521
 31
0.0
  0
ARC
  5
639
330
5DF
100
AcDbEntity
  8
0
  6
Continuous
 62
     7
370
    15
100
AcDbCircle
 10
2286.812983736716
 20
948.3632659881875
 30
0.0
 40
0.5000000000000057
100
AcDbArc
 50
180.0
 51
216.8698976458597
  0
LINE
  5
63A
330
5DF
100
AcDbEntity
  8
0
  6
Continuous
 62
     7
370
    15
100
AcDbLine
 10
2286.312983736716
 20
948.3632659881875
 30
0.0
 11
2286.312983736716
 21
951.663265988188
 31
0.0
  0
LINE
  5
63B
330
5DF
100
AcDbEntity
  8
0
  6
Continuous
 62
     7
370
    15
100
AcDbLine
 10
2291.702983736717
 20
951.663265988188
 30
0.0
 11
2291.702983736717
 21
948.363265988188
 31
0.0
  0
ARC
  5
63C
330
5DF
100
AcDbEntity
  8
0
  6
Continuous
 62
     7
370
    15
100
AcDbCircle
 10
2291.202983736717
 20
948.363265988188
 30
0.0
 40
0.5
100
AcDbArc
 50
323.1301023541404
 51
0.0000000000065138
  0
LINE
  5
63D
330
5DF
100
AcDbEntity
  8
0
  6
Continuous
 62
     7
370
    15
100
AcDbLine
 10
2290.952983736717
 20
947.1965993215215
 30
0.0
 11
2291.602983736717
 21
948.0632659881878
 31
0.0
  0
ARC
  5
63E
330
5DF
100
AcDbEntity
  8
0
  6
Continuous
 62
     7
370
    15
100
AcDbCircle
 10
2291.352983736717
 20
946.8965993215213
 30
0.0
 40
0.5000000000000569
100
AcDbArc
 50
143.1301023541403
 51
179.9999999999935
  0
LINE
  5
63F
330
5DF
100
AcDbEntity
  8
0
  6
Continuous
 62
     7
370
    15
100
AcDbLine
 10
2290.852983736717
 20
946.8965993215213
 30
0.0
 11
2290.852983736717
 21
942.3632659881882
 31
0.0
  0
ARC
  5
640
330
5DF
100
AcDbEntity
  8
0
  6
Continuous
 62
     7
370
    15
100
AcDbCircle
 10
2290.352983736717
 20
942.3632659881882
 30
0.0
 40
0.5000000000000853
100
AcDbArc
 50
270.0
 51
0.0000000000065138
  0
LINE
  5
641
330
5DF
100
AcDbEntity
  8
0
  6
Continuous
 62
     7
370
    15
100
AcDbLine
 10
2290.352983736717
 20
941.8632659881881
 30
0.0
 11
2287.662983736716
 21
941.8632659881881
 31
0.0
  0
ARC
  5
642
330
5DF
100
AcDbEntity
  8
0
  6
Continuous
 62
     7
370
    15
100
AcDbCircle
 10
2287.662983736716
 20
942.3632659881878
 30
0.0
 40
0.4999999999998864
100
AcDbArc
 50
180.0
 51
270.0
  0
LINE
  5
643
330
5DF
100
AcDbEntity
  8
0
  6
Continuous
 62
     7
370
    15
100
AcDbLine
 10
2287.162983736716
 20
942.3632659881878
 30
0.0
 11
2287.162983736716
 21
946.8965993215208
 31
0.0
  0
ARC
  5
644
330
5DF
100
AcDbEntity
  8
0
  6
Continuous
 62
     7
370
    15
100
AcDbCircle
 10
2286.662983736716
 20
946.8965993215208
 30
0.0
 40
0.5
100
AcDbArc
 50
0.0
 51
36.86989764586487
  0
LINE
  5
645
330
5DF
100
AcDbEntity
  8
0
  6
Continuous
 62
     7
370
    15
100
AcDbLine
 10
2211.412983736716
 20
948.0632659881875
 30
0.0
 11
2212.062983736716
 21
947.196599321521
 31
0.0
  0
ARC
  5
646
330
5DF
100
AcDbEntity
  8
0
  6
Continuous
 62
     7
370
    15
100
AcDbCircle
 10
2211.812983736716
 20
948.3632659881875
 30
0.0
 40
0.499999999999983
100
AcDbArc
 50
180.0
 51
216.8698976458597
  0
LINE
  5
647
330
5DF
100
AcDbEntity
  8
0
  6
Continuous
 62
     7
370
    15
100
AcDbLine
 10
2211.312983736716
 20
948.3632659881875
 30
0.0
 11
2211.312983736716
 21
951.663265988188
 31
0.0
  0
LINE
  5
648
330
5DF
100
AcDbEntity
  8
0
  6
Continuous
 62
     7
370
    15
100
AcDbLine
 10
2216.702983736717
 20
951.663265988188
 30
0.0
 11
2216.702983736717
 21
948.363265988188
 31
0.0
  0
ARC
  5
649
330
5DF
100
AcDbEntity
  8
0
  6
Continuous
 62
     7
370
    15
100
AcDbCircle
 10
2216.202983736717
 20
948.363265988188
 30
0.0
 40
0.4999999999999944
100
AcDbArc
 50
323.1301023541404
 51
0.0000000000065138
  0
LINE
  5
64A
330
5DF
100
AcDbEntity
  8
0
  6
Continuous
 62
     7
370
    15
100
AcDbLine
 10
2215.952983736717
 20
947.1965993215215
 30
0.0
 11
2216.602983736717
 21
948.0632659881878
 31
0.0
  0
ARC
  5
64B
330
5DF
100
AcDbEntity
  8
0
  6
Continuous
 62
     7
370
    15
100
AcDbCircle
 10
2216.352983736717
 20
946.8965993215213
 30
0.0
 40
0.5000000000000796
100
AcDbArc
 50
143.1301023541403
 51
179.9999999999935
  0
LINE
  5
64C
330
5DF
100
AcDbEntity
  8
0
  6
Continuous
 62
     7
370
    15
100
AcDbLine
 10
2215.852983736717
 20
946.8965993215213
 30
0.0
 11
2215.852983736717
 21
942.3632659881882
 31
0.0
  0
ARC
  5
64D
330
5DF
100
AcDbEntity
  8
0
  6
Continuous
 62
     7
370
    15
100
AcDbCircle
 10
2215.352983736717
 20
942.3632659881882
 30
0.0
 40
0.5000000000000853
100
AcDbArc
 50
270.0
 51
0.0000000000065138
  0
LINE
  5
64E
330
5DF
100
AcDbEntity
  8
0
  6
Continuous
 62
     7
370
    15
100
AcDbLine
 10
2215.352983736717
 20
941.8632659881881
 30
0.0
 11
2212.662983736716
 21
941.8632659881881
 31
0.0
  0
ARC
  5
64F
330
5DF
100
AcDbEntity
  8
0
  6
Continuous
 62
     7
370
    15
100
AcDbCircle
 10
2212.662983736716
 20
942.3632659881878
 30
0.0
 40
0.4999999999998579
100
AcDbArc
 50
180.0
 51
270.0
  0
LINE
  5
650
330
5DF
100
AcDbEntity
  8
0
  6
Continuous
 62
     7
370
    15
100
AcDbLine
 10
2212.162983736716
 20
942.3632659881878
 30
0.0
 11
2212.162983736716
 21
946.8965993215208
 31
0.0
  0
ARC
  5
651
330
5DF
100
AcDbEntity
  8
0
  6
Continuous
 62
     7
370
    15
100
AcDbCircle
 10
2211.662983736716
 20
946.8965993215208
 30
0.0
 40
0.5000000000000285
100
AcDbArc
 50
0.0
 51
36.86989764585966
  0
LINE
  5
652
330
5DF
100
AcDbEntity
  8
0
  6
Continuous
 62
     7
370
    15
100
AcDbLine
 10
2301.412983736716
 20
948.0632659881875
 30
0.0
 11
2302.062983736716
 21
947.196599321521
 31
0.0
  0
ARC
  5
653
330
5DF
100
AcDbEntity
  8
0
  6
Continuous
 62
     7
370
    15
100
AcDbCircle
 10
2301.812983736716
 20
948.3632659881875
 30
0.0
 40
0.5000000000000057
100
AcDbArc
 50
180.0
 51
216.8698976458597
  0
LINE
  5
654
330
5DF
100
AcDbEntity
  8
0
  6
Continuous
 62
     7
370
    15
100
AcDbLine
 10
2301.312983736716
 20
948.3632659881875
 30
0.0
 11
2301.312983736716
 21
951.663265988188
 31
0.0
  0
LINE
  5
655
330
5DF
100
AcDbEntity
  8
0
  6
Continuous
 62
     7
370
    15
100
AcDbLine
 10
2306.702983736717
 20
951.663265988188
 30
0.0
 11
2306.702983736717
 21
948.363265988188
 31
0.0
  0
ARC
  5
656
330
5DF
100
AcDbEntity
  8
0
  6
Continuous
 62
     7
370
    15
100
AcDbCircle
 10
2306.202983736717
 20
948.363265988188
 30
0.0
 40
0.4999999999999944
100
AcDbArc
 50
323.1301023541404
 51
0.0000000000065138
  0
LINE
  5
657
330
5DF
100
AcDbEntity
  8
0
  6
Continuous
 62
     7
370
    15
100
AcDbLine
 10
2305.952983736717
 20
947.1965993215215
 30
0.0
 11
2306.602983736717
 21
948.0632659881878
 31
0.0
  0
ARC
  5
658
330
5DF
100
AcDbEntity
  8
0
  6
Continuous
 62
     7
370
    15
100
AcDbCircle
 10
2306.352983736717
 20
946.8965993215213
 30
0.0
 40
0.5000000000001023
100
AcDbArc
 50
143.1301023541403
 51
179.9999999999935
  0
LINE
  5
659
330
5DF
100
AcDbEntity
  8
0
  6
Continuous
 62
     7
370
    15
100
AcDbLine
 10
2305.852983736717
 20
946.8965993215213
 30
0.0
 11
2305.852983736717
 21
942.3632659881882
 31
0.0
  0
ARC
  5
65A
330
5DF
100
AcDbEntity
  8
0
  6
Continuous
 62
     7
370
    15
100
AcDbCircle
 10
2305.352983736717
 20
942.3632659881882
 30
0.0
 40
0.5000000000000853
100
AcDbArc
 50
270.0
 51
0.0000000000065138
  0
LINE
  5
65B
330
5DF
100
AcDbEntity
  8
0
  6
Continuous
 62
     7
370
    15
100
AcDbLine
 10
2305.352983736717
 20
941.8632659881881
 30
0.0
 11
2302.662983736716
 21
941.8632659881881
 31
0.0
  0
ARC
  5
65C
330
5DF
100
AcDbEntity
  8
0
  6
Continuous
 62
     7
370
    15
100
AcDbCircle
 10
2302.662983736716
 20
942.3632659881878
 30
0.0
 40
0.4999999999998864
100
AcDbArc
 50
180.0
 51
270.0
  0
LINE
  5
65D
330
5DF
100
AcDbEntity
  8
0
  6
Continuous
 62
     7
370
    15
100
AcDbLine
 10
2302.162983736716
 20
942.3632659881878
 30
0.0
 11
2302.162983736716
 21
946.8965993215208
 31
0.0
  0
ARC
  5
65E
330
5DF
100
AcDbEntity
  8
0
  6
Continuous
 62
     7
370
    15
100
AcDbCircle
 10
2301.662983736716
 20
946.8965993215208
 30
0.0
 40
0.5
100
AcDbArc
 50
0.0
 51
36.86989764586487
  0
LINE
  5
65F
330
5DF
100
AcDbEntity
  8
0
  6
Continuous
 62
     7
370
    15
100
AcDbLine
 10
2271.412983736716
 20
948.0632659881875
 30
0.0
 11
2272.062983736716
 21
947.196599321521
 31
0.0
  0
ARC
  5
660
330
5DF
100
AcDbEntity
  8
0
  6
Continuous
 62
     7
370
    15
100
AcDbCircle
 10
2271.812983736715
 20
948.3632659881875
 30
0.0
 40
0.5000000000000057
100
AcDbArc
 50
180.0
 51
216.8698976458597
  0
LINE
  5
661
330
5DF
100
AcDbEntity
  8
0
  6
Continuous
 62
     7
370
    15
100
AcDbLine
 10
2271.312983736716
 20
948.3632659881875
 30
0.0
 11
2271.312983736716
 21
951.663265988188
 31
0.0
  0
LINE
  5
662
330
5DF
100
AcDbEntity
  8
0
  6
Continuous
 62
     7
370
    15
100
AcDbLine
 10
2276.702983736717
 20
951.663265988188
 30
0.0
 11
2276.702983736717
 21
948.363265988188
 31
0.0
  0
ARC
  5
663
330
5DF
100
AcDbEntity
  8
0
  6
Continuous
 62
     7
370
    15
100
AcDbCircle
 10
2276.202983736717
 20
948.363265988188
 30
0.0
 40
0.5
100
AcDbArc
 50
323.1301023541404
 51
0.0000000000065138
  0
LINE
  5
664
330
5DF
100
AcDbEntity
  8
0
  6
Continuous
 62
     7
370
    15
100
AcDbLine
 10
2275.952983736717
 20
947.1965993215215
 30
0.0
 11
2276.602983736717
 21
948.0632659881878
 31
0.0
  0
ARC
  5
665
330
5DF
100
AcDbEntity
  8
0
  6
Continuous
 62
     7
370
    15
100
AcDbCircle
 10
2276.352983736717
 20
946.8965993215213
 30
0.0
 40
0.5000000000001023
100
AcDbArc
 50
143.1301023541403
 51
179.9999999999935
  0
LINE
  5
666
330
5DF
100
AcDbEntity
  8
0
  6
Continuous
 62
     7
370
    15
100
AcDbLine
 10
2275.852983736717
 20
946.8965993215213
 30
0.0
 11
2275.852983736717
 21
942.3632659881882
 31
0.0
  0
ARC
  5
667
330
5DF
100
AcDbEntity
  8
0
  6
Continuous
 62
     7
370
    15
100
AcDbCircle
 10
2275.352983736717
 20
942.3632659881882
 30
0.0
 40
0.5000000000000853
100
AcDbArc
 50
270.0
 51
0.0000000000065138
  0
LINE
  5
668
330
5DF
100
AcDbEntity
  8
0
  6
Continuous
 62
     7
370
    15
100
AcDbLine
 10
2275.352983736717
 20
941.8632659881881
 30
0.0
 11
2272.662983736716
 21
941.8632659881881
 31
0.0
  0
ARC
  5
669
330
5DF
100
AcDbEntity
  8
0
  6
Continuous
 62
     7
370
    15
100
AcDbCircle
 10
2272.662983736716
 20
942.3632659881878
 30
0.0
 40
0.4999999999998295
100
AcDbArc
 50
180.0
 51
270.0
  0
LINE
  5
66A
330
5DF
100
AcDbEntity
  8
0
  6
Continuous
 62
     7
370
    15
100
AcDbLine
 10
2272.162983736716
 20
942.3632659881878
 30
0.0
 11
2272.162983736716
 21
946.8965993215208
 31
0.0
  0
ARC
  5
66B
330
5DF
100
AcDbEntity
  8
0
  6
Continuous
 62
     7
370
    15
100
AcDbCircle
 10
2271.662983736716
 20
946.8965993215208
 30
0.0
 40
0.5000000000000569
100
AcDbArc
 50
0.0
 51
36.86989764585966
  0
LINE
  5
66C
330
5DF
100
AcDbEntity
  8
0
  6
Continuous
 62
     7
370
    15
100
AcDbLine
 10
2181.412983736716
 20
948.0632659881875
 30
0.0
 11
2182.062983736716
 21
947.196599321521
 31
0.0
  0
ARC
  5
66D
330
5DF
100
AcDbEntity
  8
0
  6
Continuous
 62
     7
370
    15
100
AcDbCircle
 10
2181.812983736715
 20
948.3632659881875
 30
0.0
 40
0.499999999999983
100
AcDbArc
 50
180.0
 51
216.8698976458597
  0
LINE
  5
66E
330
5DF
100
AcDbEntity
  8
0
  6
Continuous
 62
     7
370
    15
100
AcDbLine
 10
2181.312983736716
 20
948.3632659881875
 30
0.0
 11
2181.312983736716
 21
951.663265988188
 31
0.0
  0
LINE
  5
66F
330
5DF
100
AcDbEntity
  8
0
  6
Continuous
 62
     7
370
    15
100
AcDbLine
 10
2186.702983736717
 20
951.663265988188
 30
0.0
 11
2186.702983736717
 21
948.363265988188
 31
0.0
  0
ARC
  5
670
330
5DF
100
AcDbEntity
  8
0
  6
Continuous
 62
     7
370
    15
100
AcDbCircle
 10
2186.202983736717
 20
948.363265988188
 30
0.0
 40
0.4999999999999944
100
AcDbArc
 50
323.1301023541404
 51
0.0000000000065138
  0
LINE
  5
671
330
5DF
100
AcDbEntity
  8
0
  6
Continuous
 62
     7
370
    15
100
AcDbLine
 10
2185.952983736717
 20
947.1965993215215
 30
0.0
 11
2186.602983736717
 21
948.0632659881878
 31
0.0
  0
ARC
  5
672
330
5DF
100
AcDbEntity
  8
0
  6
Continuous
 62
     7
370
    15
100
AcDbCircle
 10
2186.352983736717
 20
946.8965993215213
 30
0.0
 40
0.5000000000000796
100
AcDbArc
 50
143.1301023541403
 51
179.9999999999935
  0
LINE
  5
673
330
5DF
100
AcDbEntity
  8
0
  6
Continuous
 62
     7
370
    15
100
AcDbLine
 10
2185.852983736717
 20
946.8965993215213
 30
0.0
 11
2185.852983736717
 21
942.3632659881882
 31
0.0
  0
ARC
  5
674
330
5DF
100
AcDbEntity
  8
0
  6
Continuous
 62
     7
370
    15
100
AcDbCircle
 10
2185.352983736717
 20
942.3632659881882
 30
0.0
 40
0.5000000000000853
100
AcDbArc
 50
270.0
 51
0.0000000000065138
  0
LINE
  5
675
330
5DF
100
AcDbEntity
  8
0
  6
Continuous
 62
     7
370
    15
100
AcDbLine
 10
2185.352983736717
 20
941.8632659881881
 30
0.0
 11
2182.662983736716
 21
941.8632659881881
 31
0.0
  0
ARC
  5
676
330
5DF
100
AcDbEntity
  8
0
  6
Continuous
 62
     7
370
    15
100
AcDbCircle
 10
2182.662983736716
 20
942.3632659881878
 30
0.0
 40
0.4999999999998579
100
AcDbArc
 50
180.0
 51
270.0
  0
LINE
  5
677
330
5DF
100
AcDbEntity
  8
0
  6
Continuous
 62
     7
370
    15
100
AcDbLine
 10
2182.162983736716
 20
942.3632659881878
 30
0.0
 11
2182.162983736716
 21
946.8965993215208
 31
0.0
  0
ARC
  5
678
330
5DF
100
AcDbEntity
  8
0
  6
Continuous
 62
     7
370
    15
100
AcDbCircle
 10
2181.662983736716
 20
946.8965993215208
 30
0.0
 40
0.5000000000000285
100
AcDbArc
 50
0.0
 51
36.86989764585966
  0
LINE
  5
679
330
5DF
100
AcDbEntity
  8
0
  6
Continuous
 62
     7
370
    15
100
AcDbLine
 10
2196.412983736716
 20
948.0632659881875
 30
0.0
 11
2197.062983736716
 21
947.196599321521
 31
0.0
  0
ARC
  5
67A
330
5DF
100
AcDbEntity
  8
0
  6
Continuous
 62
     7
370
    15
100
AcDbCircle
 10
2196.812983736716
 20
948.3632659881875
 30
0.0
 40
0.499999999999983
100
AcDbArc
 50
180.0
 51
216.8698976458597
  0
LINE
  5
67B
330
5DF
100
AcDbEntity
  8
0
  6
Continuous
 62
     7
370
    15
100
AcDbLine
 10
2201.702983736717
 20
951.663265988188
 30
0.0
 11
2201.702983736717
 21
948.363265988188
 31
0.0
  0
ARC
  5
67C
330
5DF
100
AcDbEntity
  8
0
  6
Continuous
 62
     7
370
    15
100
AcDbCircle
 10
2201.202983736717
 20
948.363265988188
 30
0.0
 40
0.500000000000017
100
AcDbArc
 50
323.1301023541404
 51
0.0000000000065138
  0
LINE
  5
67D
330
5DF
100
AcDbEntity
  8
0
  6
Continuous
 62
     7
370
    15
100
AcDbLine
 10
2200.952983736717
 20
947.1965993215215
 30
0.0
 11
2201.602983736717
 21
948.0632659881878
 31
0.0
  0
ARC
  5
67E
330
5DF
100
AcDbEntity
  8
0
  6
Continuous
 62
     7
370
    15
100
AcDbCircle
 10
2201.352983736717
 20
946.8965993215213
 30
0.0
 40
0.5000000000001023
100
AcDbArc
 50
143.1301023541403
 51
179.9999999999935
  0
LINE
  5
67F
330
5DF
100
AcDbEntity
  8
0
  6
Continuous
 62
     7
370
    15
100
AcDbLine
 10
2200.852983736717
 20
946.8965993215213
 30
0.0
 11
2200.852983736717
 21
942.3632659881882
 31
0.0
  0
ARC
  5
680
330
5DF
100
AcDbEntity
  8
0
  6
Continuous
 62
     7
370
    15
100
AcDbCircle
 10
2200.352983736717
 20
942.3632659881882
 30
0.0
 40
0.5000000000000853
100
AcDbArc
 50
270.0
 51
0.0000000000065138
  0
LINE
  5
681
330
5DF
100
AcDbEntity
  8
0
  6
Continuous
 62
     7
370
    15
100
AcDbLine
 10
2200.352983736717
 20
941.8632659881881
 30
0.0
 11
2197.662983736716
 21
941.8632659881881
 31
0.0
  0
ARC
  5
682
330
5DF
100
AcDbEntity
  8
0
  6
Continuous
 62
     7
370
    15
100
AcDbCircle
 10
2197.662983736716
 20
942.3632659881878
 30
0.0
 40
0.4999999999998579
100
AcDbArc
 50
180.0
 51
270.0
  0
LINE
  5
683
330
5DF
100
AcDbEntity
  8
0
  6
Continuous
 62
     7
370
    15
100
AcDbLine
 10
2197.162983736716
 20
942.3632659881878
 30
0.0
 11
2197.162983736716
 21
946.8965993215208
 31
0.0
  0
ARC
  5
684
330
5DF
100
AcDbEntity
  8
0
  6
Continuous
 62
     7
370
    15
100
AcDbCircle
 10
2196.662983736716
 20
946.8965993215208
 30
0.0
 40
0.5000000000000626
100
AcDbArc
 50
0.0
 51
36.86989764585966
  0
LINE
  5
685
330
5DF
100
AcDbEntity
  8
0
  6
Continuous
 62
     7
370
    15
100
AcDbLine
 10
2196.312983736716
 20
948.3632659881875
 30
0.0
 11
2196.312983736716
 21
951.663265988188
 31
0.0
  0
LINE
  5
686
330
5DF
100
AcDbEntity
  8
0
  6
Continuous
 62
     7
370
    15
100
AcDbLine
 10
2226.412983736716
 20
948.0632659881875
 30
0.0
 11
2227.062983736716
 21
947.196599321521
 31
0.0
  0
ARC
  5
687
330
5DF
100
AcDbEntity
  8
0
  6
Continuous
 62
     7
370
    15
100
AcDbCircle
 10
2226.812983736715
 20
948.3632659881875
 30
0.0
 40
0.499999999999983
100
AcDbArc
 50
180.0
 51
216.8698976458597
  0
LINE
  5
688
330
5DF
100
AcDbEntity
  8
0
  6
Continuous
 62
     7
370
    15
100
AcDbLine
 10
2231.702983736717
 20
951.663265988188
 30
0.0
 11
2231.702983736717
 21
948.363265988188
 31
0.0
  0
ARC
  5
689
330
5DF
100
AcDbEntity
  8
0
  6
Continuous
 62
     7
370
    15
100
AcDbCircle
 10
2231.202983736717
 20
948.363265988188
 30
0.0
 40
0.4999999999999944
100
AcDbArc
 50
323.1301023541404
 51
0.0000000000065138
  0
LINE
  5
68A
330
5DF
100
AcDbEntity
  8
0
  6
Continuous
 62
     7
370
    15
100
AcDbLine
 10
2230.952983736717
 20
947.1965993215215
 30
0.0
 11
2231.602983736717
 21
948.0632659881878
 31
0.0
  0
ARC
  5
68B
330
5DF
100
AcDbEntity
  8
0
  6
Continuous
 62
     7
370
    15
100
AcDbCircle
 10
2231.352983736717
 20
946.8965993215213
 30
0.0
 40
0.5000000000001023
100
AcDbArc
 50
143.1301023541403
 51
179.9999999999935
  0
LINE
  5
68C
330
5DF
100
AcDbEntity
  8
0
  6
Continuous
 62
     7
370
    15
100
AcDbLine
 10
2230.852983736717
 20
946.8965993215213
 30
0.0
 11
2230.852983736717
 21
942.3632659881882
 31
0.0
  0
ARC
  5
68D
330
5DF
100
AcDbEntity
  8
0
  6
Continuous
 62
     7
370
    15
100
AcDbCircle
 10
2230.352983736717
 20
942.3632659881882
 30
0.0
 40
0.5000000000000853
100
AcDbArc
 50
270.0
 51
0.0000000000065138
  0
LINE
  5
68E
330
5DF
100
AcDbEntity
  8
0
  6
Continuous
 62
     7
370
    15
100
AcDbLine
 10
2230.352983736717
 20
941.8632659881881
 30
0.0
 11
2227.662983736715
 21
941.8632659881881
 31
0.0
  0
ARC
  5
68F
330
5DF
100
AcDbEntity
  8
0
  6
Continuous
 62
     7
370
    15
100
AcDbCircle
 10
2227.662983736715
 20
942.3632659881878
 30
0.0
 40
0.4999999999998579
100
AcDbArc
 50
180.0
 51
270.0
  0
LINE
  5
690
330
5DF
100
AcDbEntity
  8
0
  6
Continuous
 62
     7
370
    15
100
AcDbLine
 10
2227.162983736716
 20
942.3632659881878
 30
0.0
 11
2227.162983736716
 21
946.8965993215208
 31
0.0
  0
ARC
  5
691
330
5DF
100
AcDbEntity
  8
0
  6
Continuous
 62
     7
370
    15
100
AcDbCircle
 10
2226.662983736716
 20
946.8965993215208
 30
0.0
 40
0.5000000000000398
100
AcDbArc
 50
0.0
 51
36.86989764585966
  0
LINE
  5
692
330
5DF
100
AcDbEntity
  8
0
  6
Continuous
 62
     7
370
    15
100
AcDbLine
 10
2226.312983736716
 20
948.3632659881875
 30
0.0
 11
2226.312983736716
 21
951.663265988188
 31
0.0
  0
ENDBLK
  5
5E1
330
5DF
100
AcDbEntity
  8
0
100
AcDbBlockEnd
  0
BLOCK
  5
695
330
694
100
AcDbEntity
  8
0
100
AcDbBlockBegin
  2
2
 70
     0
 10
0.0
 20
0.0
 30
0.0
  3
2
  1

  0
LINE
  5
697
330
694
100
AcDbEntity
  8
0
  6
Continuous
 62
     7
370
    15
100
AcDbLine
 10
2140.034242872928
 20
971.3632659881879
 30
0.0
 11
2145.534242872928
 21
971.3632659881879
 31
0.0
  0
LINE
  5
698
330
694
100
AcDbEntity
  8
0
  6
Continuous
 62
     7
370
    15
100
AcDbLine
 10
2145.534242872928
 20
971.3632659881879
 30
0.0
 11
2145.534242872928
 21
966.8632659881879
 31
0.0
  0
LINE
  5
699
330
694
100
AcDbEntity
  8
0
  6
Continuous
 62
     7
370
    15
100
AcDbLine
 10
2144.834242872928
 20
964.063265988188
 30
0.0
 11
2140.734242872928
 21
964.063265988188
 31
0.0
  0
LINE
  5
69A
330
694
100
AcDbEntity
  8
0
  6
Continuous
 62
     7
370
    15
100
AcDbLine
 10
2140.734242872928
 20
964.063265988188
 30
0.0
 11
2140.734242872928
 21
966.8632659881879
 31
0.0
  0
LINE
  5
69B
330
694
100
AcDbEntity
  8
0
  6
Continuous
 62
     7
370
    15
100
AcDbLine
 10
2140.034242872928
 20
966.8632659881879
 30
0.0
 11
2140.734242872928
 21
966.8632659881879
 31
0.0
  0
LINE
  5
69C
330
694
100
AcDbEntity
  8
0
  6
Continuous
 62
     7
370
    15
100
AcDbLine
 10
2140.034242872928
 20
966.8632659881879
 30
0.0
 11
2140.034242872928
 21
971.3632659881879
 31
0.0
  0
LINE
  5
69D
330
694
100
AcDbEntity
  8
0
  6
Continuous
 62
     7
370
    15
100
AcDbLine
 10
2144.834242872928
 20
964.063265988188
 30
0.0
 11
2144.834242872928
 21
966.8632659881879
 31
0.0
  0
LINE
  5
69E
330
694
100
AcDbEntity
  8
0
  6
Continuous
 62
     7
370
    15
100
AcDbLine
 10
2144.834242872928
 20
966.8632659881879
 30
0.0
 11
2145.534242872928
 21
966.8632659881879
 31
0.0
  0
LINE
  5
69F
330
694
100
AcDbEntity
  8
0
  6
Continuous
 62
     7
370
    15
100
AcDbLine
 10
2144.834242872928
 20
951.663265988188
 30
0.0
 11
2140.734242872928
 21
951.663265988188
 31
0.0
  0
LINE
  5
6A0
330
694
100
AcDbEntity
  8
0
  6
Continuous
 62
     7
370
    15
100
AcDbLine
 10
2140.734242872928
 20
951.663265988188
 30
0.0
 11
2140.734242872928
 21
964.063265988188
 31
0.0
  0
LINE
  5
6A1
330
694
100
AcDbEntity
  8
0
  6
Continuous
 62
     7
370
    15
100
AcDbLine
 10
2144.834242872928
 20
951.663265988188
 30
0.0
 11
2144.834242872928
 21
964.063265988188
 31
0.0
  0
LINE
  5
6A2
330
694
100
AcDbEntity
  8
0
  6
Continuous
 62
     7
370
    15
100
AcDbLine
 10
2143.684242872928
 20
948.0632659881878
 30
0.0
 11
2143.684242872928
 21
948.363265988188
 31
0.0
  0
LINE
  5
6A3
330
694
100
AcDbEntity
  8
0
  6
Continuous
 62
     7
370
    15
100
AcDbLine
 10
2141.88424287293
 20
948.0632659881878
 30
0.0
 11
2143.684242872928
 21
948.0632659881878
 31
0.0
  0
LINE
  5
6A4
330
694
100
AcDbEntity
  8
0
  6
Continuous
 62
     7
370
    15
100
AcDbLine
 10
2141.88424287293
 20
948.363265988188
 30
0.0
 11
2141.88424287293
 21
948.0632659881878
 31
0.0
  0
LINE
  5
6A5
330
694
100
AcDbEntity
  8
0
  6
Continuous
 62
     7
370
    15
100
AcDbLine
 10
2143.684242872928
 20
948.363265988188
 30
0.0
 11
2141.88424287293
 21
948.363265988188
 31
0.0
  0
LINE
  5
6A6
330
694
100
AcDbEntity
  8
0
  6
Continuous
 62
     7
370
    15
100
AcDbLine
 10
2143.684242872928
 20
948.363265988188
 30
0.0
 11
2143.684242872928
 21
951.663265988188
 31
0.0
  0
LINE
  5
6A7
330
694
100
AcDbEntity
  8
0
  6
Continuous
 62
     7
370
    15
100
AcDbLine
 10
2141.88424287293
 20
951.663265988188
 30
0.0
 11
2141.88424287293
 21
948.363265988188
 31
0.0
  0
LINE
  5
6A8
330
694
100
AcDbEntity
  8
0
  6
Continuous
 62
     7
370
    15
100
AcDbLine
 10
2141.88424287293
 20
947.1965993215215
 30
0.0
 11
2143.684242872928
 21
947.1965993215215
 31
0.0
  0
LINE
  5
6A9
330
694
100
AcDbEntity
  8
0
  6
Continuous
 62
     7
370
    15
100
AcDbLine
 10
2143.684242872928
 20
948.0632659881878
 30
0.0
 11
2143.684242872928
 21
947.1965993215215
 31
0.0
  0
LINE
  5
6AA
330
694
100
AcDbEntity
  8
0
  6
Continuous
 62
     7
370
    15
100
AcDbLine
 10
2141.88424287293
 20
947.1965993215215
 30
0.0
 11
2141.88424287293
 21
948.0632659881878
 31
0.0
  0
LINE
  5
6AB
330
694
100
AcDbEntity
  8
0
  6
Continuous
 62
     7
370
    15
100
AcDbLine
 10
2141.88424287293
 20
946.8965993215213
 30
0.0
 11
2143.684242872928
 21
946.8965993215213
 31
0.0
  0
LINE
  5
6AC
330
694
100
AcDbEntity
  8
0
  6
Continuous
 62
     7
370
    15
100
AcDbLine
 10
2143.684242872928
 20
947.1965993215215
 30
0.0
 11
2143.684242872928
 21
946.8965993215213
 31
0.0
  0
LINE
  5
6AD
330
694
100
AcDbEntity
  8
0
  6
Continuous
 62
     7
370
    15
100
AcDbLine
 10
2141.88424287293
 20
946.8965993215213
 30
0.0
 11
2141.88424287293
 21
947.1965993215215
 31
0.0
  0
LINE
  5
6AE
330
694
100
AcDbEntity
  8
0
  6
Continuous
 62
     7
370
    15
100
AcDbLine
 10
2141.884242872929
 20
941.8632659881881
 30
0.0
 11
2143.684242872928
 21
941.8632659881879
 31
0.0
  0
LINE
  5
6AF
330
694
100
AcDbEntity
  8
0
  6
Continuous
 62
     7
370
    15
100
AcDbLine
 10
2143.684242872928
 20
942.3632659881882
 30
0.0
 11
2141.88424287293
 21
942.3632659881882
 31
0.0
  0
LINE
  5
6B0
330
694
100
AcDbEntity
  8
0
  6
Continuous
 62
     7
370
    15
100
AcDbLine
 10
2143.684242872928
 20
941.8632659881879
 30
0.0
 11
2143.684242872928
 21
942.3632659881882
 31
0.0
  0
LINE
  5
6B1
330
694
100
AcDbEntity
  8
0
  6
Continuous
 62
     7
370
    15
100
AcDbLine
 10
2141.88424287293
 20
942.3632659881882
 30
0.0
 11
2141.884242872929
 21
941.8632659881881
 31
0.0
  0
LINE
  5
6B2
330
694
100
AcDbEntity
  8
0
  6
Continuous
 62
     7
370
    15
100
AcDbLine
 10
2143.684242872928
 20
942.3632659881882
 30
0.0
 11
2143.684242872928
 21
946.8965993215213
 31
0.0
  0
LINE
  5
6B3
330
694
100
AcDbEntity
  8
0
  6
Continuous
 62
     7
370
    15
100
AcDbLine
 10
2141.88424287293
 20
946.8965993215213
 30
0.0
 11
2141.88424287293
 21
942.3632659881882
 31
0.0
  0
ENDBLK
  5
696
330
694
100
AcDbEntity
  8
0
100
AcDbBlockEnd
  0
BLOCK
  5
6B6
330
6B5
100
AcDbEntity
  8
0
100
AcDbBlockBegin
  2
3
 70
     0
 10
0.0
 20
0.0
 30
0.0
  3
3
  1

  0
LINE
  5
6B8
330
6B5
100
AcDbEntity
  8
0
  6
Continuous
 62
     7
370
    15
100
AcDbLine
 10
2308.987983736715
 20
923.565538413437
 30
0.0
 11
2163.487983736715
 21
923.565538413437
 31
0.0
  0
LINE
  5
6B9
330
6B5
100
AcDbEntity
  8
0
  6
Continuous
 62
     7
370
    15
100
AcDbLine
 10
2163.487983736715
 20
929.0655384134369
 30
0.0
 11
2163.487983736715
 21
923.565538413437
 31
0.0
  0
LINE
  5
6BA
330
6B5
100
AcDbEntity
  8
0
  6
Continuous
 62
     7
370
    15
100
AcDbLine
 10
2163.487983736715
 20
929.0655384134369
 30
0.0
 11
2308.987983736715
 21
929.0655384134369
 31
0.0
  0
LINE
  5
6BB
330
6B5
100
AcDbEntity
  8
0
  6
Continuous
 62
     7
370
    15
100
AcDbLine
 10
2308.987983736715
 20
923.565538413437
 30
0.0
 11
2308.987983736715
 21
929.0655384134369
 31
0.0
  0
ENDBLK
  5
6B7
330
6B5
100
AcDbEntity
  8
0
100
AcDbBlockEnd
  0
BLOCK
  5
6BE
330
6BD
100
AcDbEntity
  8
0
100
AcDbBlockBegin
  2
4
 70
     0
 10
0.0
 20
0.0
 30
0.0
  3
4
  1

  0
LINE
  5
6C0
330
6BD
100
AcDbEntity
  8
0
  6
Continuous
 62
     7
370
    15
100
AcDbLine
 10
2433.727337961445
 20
902.3773979431897
 30
0.0
 11
2435.000130167579
 21
903.1121652438294
 31
0.0
  0
LINE
  5
6C1
330
6BD
100
AcDbEntity
  8
0
  6
Continuous
 62
     7
370
    15
100
AcDbLine
 10
2423.120736243646
 20
908.50045878186
 30
0.0
 11
2424.393528449781
 21
909.2352260824997
 31
0.0
  0
LINE
  5
6C2
330
6BD
100
AcDbEntity
  8
0
  6
Continuous
 62
     7
370
    15
100
AcDbLine
 10
2412.514134525848
 20
914.6235196205303
 30
0.0
 11
2413.786926731983
 21
915.3582869211701
 31
0.0
  0
LINE
  5
6C3
330
6BD
100
AcDbEntity
  8
0
  6
Continuous
 62
     7
370
    15
100
AcDbLine
 10
2401.90753280805
 20
920.7465804592006
 30
0.0
 11
2403.180325014185
 21
921.4813477598404
 31
0.0
  0
LINE
  5
6C4
330
6BD
100
AcDbEntity
  8
0
  6
Continuous
 62
     7
370
    15
100
AcDbLine
 10
2391.300931090252
 20
926.8696412978711
 30
0.0
 11
2392.573723296386
 21
927.6044085985107
 31
0.0
  0
LINE
  5
6C5
330
6BD
100
AcDbEntity
  8
0
  6
Continuous
 62
     7
370
    15
100
AcDbLine
 10
2380.694329372454
 20
932.9927021365413
 30
0.0
 11
2381.967121578588
 21
933.727469437181
 31
0.0
  0
LINE
  5
6C6
330
6BD
100
AcDbEntity
  8
0
  6
Continuous
 62
     7
370
    15
100
AcDbLine
 10
2370.087727654655
 20
939.1157629752116
 30
0.0
 11
2371.36051986079
 21
939.8505302758513
 31
0.0
  0
LINE
  5
6C7
330
6BD
100
AcDbEntity
  8
0
  6
Continuous
 62
     7
370
    15
100
AcDbLine
 10
2359.481125936857
 20
945.2388238138821
 30
0.0
 11
2360.753918142992
 21
945.9735911145216
 31
0.0
  0
LINE
  5
6C8
330
6BD
100
AcDbEntity
  8
0
  6
Continuous
 62
     7
370
    15
100
AcDbLine
 10
2348.874524219059
 20
951.3618846525524
 30
0.0
 11
2350.147316425193
 21
952.0966519531921
 31
0.0
  0
LINE
  5
6C9
330
6BD
100
AcDbEntity
  8
0
  6
Continuous
 62
     7
370
    15
100
AcDbLine
 10
2338.267922501261
 20
957.4849454912227
 30
0.0
 11
2339.540714707394
 21
958.2197127918623
 31
0.0
  0
LINE
  5
6CA
330
6BD
100
AcDbEntity
  8
0
  6
Continuous
 62
     7
370
    15
100
AcDbLine
 10
2434.739543882701
 20
924.2511066723926
 30
0.0
 11
2438.628631179227
 21
926.4962289799051
 31
0.0
  0
LINE
  5
6CB
330
6BD
100
AcDbEntity
  8
0
  6
Continuous
 62
     7
370
    15
100
AcDbLine
 10
2438.628631179227
 20
926.4962289799051
 30
0.0
 11
2438.628631179227
 21
922.8217953264193
 31
0.0
  0
LINE
  5
6CC
330
6BD
100
AcDbEntity
  8
0
  6
Continuous
 62
     7
370
    15
100
AcDbLine
 10
2438.133656432397
 20
922.5360524872812
 30
0.0
 11
2438.628631179227
 21
922.8217953264193
 31
0.0
  0
LINE
  5
6CD
330
6BD
100
AcDbEntity
  8
0
  6
Continuous
 62
     7
370
    15
100
AcDbLine
 10
2438.133656432397
 20
920.2497382140013
 30
0.0
 11
2438.133656432397
 21
922.5360524872812
 31
0.0
  0
LINE
  5
6CE
330
6BD
100
AcDbEntity
  8
0
  6
Continuous
 62
     7
370
    15
100
AcDbLine
 10
2438.133656432397
 20
920.2497382140013
 30
0.0
 11
2435.234518629532
 21
918.5761015847646
 31
0.0
  0
LINE
  5
6CF
330
6BD
100
AcDbEntity
  8
0
  6
Continuous
 62
     7
370
    15
100
AcDbLine
 10
2435.234518629532
 20
918.5761015847646
 30
0.0
 11
2435.234518629532
 21
920.8624158580446
 31
0.0
  0
LINE
  5
6D0
330
6BD
100
AcDbEntity
  8
0
  6
Continuous
 62
     7
370
    15
100
AcDbLine
 10
2434.739543882701
 20
920.5766730189068
 30
0.0
 11
2435.234518629532
 21
920.8624158580446
 31
0.0
  0
LINE
  5
6D1
330
6BD
100
AcDbEntity
  8
0
  6
Continuous
 62
     7
370
    15
100
AcDbLine
 10
2434.739543882701
 20
920.5766730189068
 30
0.0
 11
2434.739543882701
 21
924.2511066723926
 31
0.0
  0
LINE
  5
6D2
330
6BD
100
AcDbEntity
  8
0
  6
Continuous
 62
     7
370
    15
100
AcDbLine
 10
2331.855507220058
 20
983.6447968074949
 30
0.0
 11
2331.855507220058
 21
979.970363154009
 31
0.0
  0
LINE
  5
6D3
330
6BD
100
AcDbEntity
  8
0
  6
Continuous
 62
     7
370
    15
100
AcDbLine
 10
2434.739543882701
 20
924.2511066723926
 30
0.0
 11
2331.855507220058
 21
983.6447968074949
 31
0.0
  0
LINE
  5
6D4
330
6BD
100
AcDbEntity
  8
0
  6
Continuous
 62
     7
370
    15
100
AcDbLine
 10
2331.855507220058
 20
979.970363154009
 30
0.0
 11
2434.739543882701
 21
920.5766730189068
 31
0.0
  0
LINE
  5
6D5
330
6BD
100
AcDbEntity
  8
0
  6
Continuous
 62
     7
370
    15
100
AcDbLine
 10
2335.744594516585
 20
985.8899191150074
 30
0.0
 11
2438.628631179227
 21
926.4962289799051
 31
0.0
  0
LINE
  5
6D6
330
6BD
100
AcDbEntity
  8
0
  6
Continuous
 62
     7
370
    15
100
AcDbLine
 10
2335.744594516585
 20
985.8899191150074
 30
0.0
 11
2331.855507220058
 21
983.6447968074949
 31
0.0
  0
LINE
  5
6D7
330
6BD
100
AcDbEntity
  8
0
  6
Continuous
 62
     7
370
    15
100
AcDbLine
 10
2412.607101631562
 20
921.5135253065447
 30
0.0
 11
2412.607101631562
 21
931.6386313739281
 31
0.0
  0
LINE
  5
6D8
330
6BD
100
AcDbEntity
  8
0
  6
Continuous
 62
     7
370
    15
100
AcDbLine
 10
2412.607101631562
 20
921.5135253065447
 30
0.0
 11
2408.01090755385
 21
924.1668516699686
 31
0.0
  0
LINE
  5
6D9
330
6BD
100
AcDbEntity
  8
0
  6
Continuous
 62
     7
370
    15
100
AcDbLine
 10
2408.01090755385
 20
934.2919577373518
 30
0.0
 11
2408.01090755385
 21
924.1668516699686
 31
0.0
  0
LINE
  5
6DA
330
6BD
100
AcDbEntity
  8
0
  6
Continuous
 62
     7
370
    15
100
AcDbLine
 10
2402.000499913764
 20
937.7616922125982
 30
0.0
 11
2408.01090755385
 21
934.2919577373518
 31
0.0
  0
LINE
  5
6DB
330
6BD
100
AcDbEntity
  8
0
  6
Continuous
 62
     7
370
    15
100
AcDbLine
 10
2402.000499913764
 20
927.636586145215
 30
0.0
 11
2402.000499913764
 21
937.7616922125982
 31
0.0
  0
LINE
  5
6DC
330
6BD
100
AcDbEntity
  8
0
  6
Continuous
 62
     7
370
    15
100
AcDbLine
 10
2402.000499913764
 20
927.636586145215
 30
0.0
 11
2397.404305836051
 21
930.2899125086389
 31
0.0
  0
LINE
  5
6DD
330
6BD
100
AcDbEntity
  8
0
  6
Continuous
 62
     7
370
    15
100
AcDbLine
 10
2397.404305836051
 20
940.415018576022
 30
0.0
 11
2397.404305836051
 21
930.2899125086389
 31
0.0
  0
LINE
  5
6DE
330
6BD
100
AcDbEntity
  8
0
  6
Continuous
 62
     7
370
    15
100
AcDbLine
 10
2391.393898195966
 20
943.8847530512687
 30
0.0
 11
2397.404305836051
 21
940.415018576022
 31
0.0
  0
LINE
  5
6DF
330
6BD
100
AcDbEntity
  8
0
  6
Continuous
 62
     7
370
    15
100
AcDbLine
 10
2391.393898195966
 20
933.7596469838855
 30
0.0
 11
2391.393898195966
 21
943.8847530512687
 31
0.0
  0
LINE
  5
6E0
330
6BD
100
AcDbEntity
  8
0
  6
Continuous
 62
     7
370
    15
100
AcDbLine
 10
2391.393898195966
 20
933.7596469838855
 30
0.0
 11
2386.797704118253
 21
936.4129733473092
 31
0.0
  0
LINE
  5
6E1
330
6BD
100
AcDbEntity
  8
0
  6
Continuous
 62
     7
370
    15
100
AcDbLine
 10
2386.797704118253
 20
946.5380794146923
 30
0.0
 11
2386.797704118253
 21
936.4129733473092
 31
0.0
  0
LINE
  5
6E2
330
6BD
100
AcDbEntity
  8
0
  6
Continuous
 62
     7
370
    15
100
AcDbLine
 10
2380.787296478168
 20
950.007813889939
 30
0.0
 11
2386.797704118253
 21
946.5380794146923
 31
0.0
  0
LINE
  5
6E3
330
6BD
100
AcDbEntity
  8
0
  6
Continuous
 62
     7
370
    15
100
AcDbLine
 10
2380.787296478168
 20
939.8827078225558
 30
0.0
 11
2380.787296478168
 21
950.007813889939
 31
0.0
  0
LINE
  5
6E4
330
6BD
100
AcDbEntity
  8
0
  6
Continuous
 62
     7
370
    15
100
AcDbLine
 10
2380.787296478168
 20
939.8827078225558
 30
0.0
 11
2376.191102400455
 21
942.5360341859796
 31
0.0
  0
LINE
  5
6E5
330
6BD
100
AcDbEntity
  8
0
  6
Continuous
 62
     7
370
    15
100
AcDbLine
 10
2376.191102400455
 20
952.6611402533628
 30
0.0
 11
2376.191102400455
 21
942.5360341859796
 31
0.0
  0
LINE
  5
6E6
330
6BD
100
AcDbEntity
  8
0
  6
Continuous
 62
     7
370
    15
100
AcDbLine
 10
2370.180694760369
 20
956.1308747286092
 30
0.0
 11
2376.191102400455
 21
952.6611402533628
 31
0.0
  0
LINE
  5
6E7
330
6BD
100
AcDbEntity
  8
0
  6
Continuous
 62
     7
370
    15
100
AcDbLine
 10
2370.180694760369
 20
946.0057686612261
 30
0.0
 11
2370.180694760369
 21
956.1308747286092
 31
0.0
  0
LINE
  5
6E8
330
6BD
100
AcDbEntity
  8
0
  6
Continuous
 62
     7
370
    15
100
AcDbLine
 10
2370.180694760369
 20
946.0057686612261
 30
0.0
 11
2365.584500682657
 21
948.6590950246498
 31
0.0
  0
LINE
  5
6E9
330
6BD
100
AcDbEntity
  8
0
  6
Continuous
 62
     7
370
    15
100
AcDbLine
 10
2365.584500682657
 20
958.7842010920331
 30
0.0
 11
2365.584500682657
 21
948.6590950246498
 31
0.0
  0
LINE
  5
6EA
330
6BD
100
AcDbEntity
  8
0
  6
Continuous
 62
     7
370
    15
100
AcDbLine
 10
2359.574093042571
 20
962.2539355672797
 30
0.0
 11
2365.584500682657
 21
958.7842010920331
 31
0.0
  0
LINE
  5
6EB
330
6BD
100
AcDbEntity
  8
0
  6
Continuous
 62
     7
370
    15
100
AcDbLine
 10
2359.574093042571
 20
952.1288294998964
 30
0.0
 11
2359.574093042571
 21
962.2539355672797
 31
0.0
  0
LINE
  5
6EC
330
6BD
100
AcDbEntity
  8
0
  6
Continuous
 62
     7
370
    15
100
AcDbLine
 10
2359.574093042571
 20
952.1288294998964
 30
0.0
 11
2354.977898964858
 21
954.7821558633202
 31
0.0
  0
LINE
  5
6ED
330
6BD
100
AcDbEntity
  8
0
  6
Continuous
 62
     7
370
    15
100
AcDbLine
 10
2354.977898964858
 20
964.9072619307034
 30
0.0
 11
2354.977898964858
 21
954.7821558633202
 31
0.0
  0
LINE
  5
6EE
330
6BD
100
AcDbEntity
  8
0
  6
Continuous
 62
     7
370
    15
100
AcDbLine
 10
2348.967491324773
 20
968.37699640595
 30
0.0
 11
2354.977898964858
 21
964.9072619307034
 31
0.0
  0
LINE
  5
6EF
330
6BD
100
AcDbEntity
  8
0
  6
Continuous
 62
     7
370
    15
100
AcDbLine
 10
2348.967491324773
 20
958.2518903385667
 30
0.0
 11
2348.967491324773
 21
968.37699640595
 31
0.0
  0
LINE
  5
6F0
330
6BD
100
AcDbEntity
  8
0
  6
Continuous
 62
     7
370
    15
100
AcDbLine
 10
2348.967491324773
 20
958.2518903385667
 30
0.0
 11
2344.37129724706
 21
960.9052167019905
 31
0.0
  0
LINE
  5
6F1
330
6BD
100
AcDbEntity
  8
0
  6
Continuous
 62
     7
370
    15
100
AcDbLine
 10
2344.37129724706
 20
971.0303227693739
 30
0.0
 11
2344.37129724706
 21
960.9052167019905
 31
0.0
  0
LINE
  5
6F2
330
6BD
100
AcDbEntity
  8
0
  6
Continuous
 62
     7
370
    15
100
AcDbLine
 10
2338.360889606974
 20
974.5000572446203
 30
0.0
 11
2344.37129724706
 21
971.0303227693739
 31
0.0
  0
LINE
  5
6F3
330
6BD
100
AcDbEntity
  8
0
  6
Continuous
 62
     7
370
    15
100
AcDbLine
 10
2338.360889606974
 20
964.3749511772369
 30
0.0
 11
2338.360889606974
 21
974.5000572446203
 31
0.0
  0
LINE
  5
6F4
330
6BD
100
AcDbEntity
  8
0
  6
Continuous
 62
     7
370
    15
100
AcDbLine
 10
2333.764695529263
 20
967.0282775406608
 30
0.0
 11
2338.360889606974
 21
964.3749511772369
 31
0.0
  0
LINE
  5
6F5
330
6BD
100
AcDbEntity
  8
0
  6
Continuous
 62
     7
370
    15
100
AcDbLine
 10
2333.764695529263
 20
977.1533836080442
 30
0.0
 11
2333.764695529263
 21
967.0282775406608
 31
0.0
  0
LINE
  5
6F6
330
6BD
100
AcDbEntity
  8
0
  6
Continuous
 62
     7
370
    15
100
AcDbLine
 10
2332.350481966889
 20
977.9697917198669
 30
0.0
 11
2333.764695529263
 21
977.1533836080442
 31
0.0
  0
LINE
  5
6F7
330
6BD
100
AcDbEntity
  8
0
  6
Continuous
 62
     7
370
    15
100
AcDbLine
 10
2332.350481966889
 20
979.684620314871
 30
0.0
 11
2332.350481966889
 21
977.9697917198669
 31
0.0
  0
LINE
  5
6F8
330
6BD
100
AcDbEntity
  8
0
  6
Continuous
 62
     7
370
    15
100
AcDbLine
 10
2433.820305067158
 20
919.3925096965873
 30
0.0
 11
2435.234518629532
 21
918.5761015847646
 31
0.0
  0
LINE
  5
6F9
330
6BD
100
AcDbEntity
  8
0
  6
Continuous
 62
     7
370
    15
100
AcDbLine
 10
2433.820305067158
 20
909.267403629204
 30
0.0
 11
2433.820305067158
 21
919.3925096965873
 31
0.0
  0
LINE
  5
6FA
330
6BD
100
AcDbEntity
  8
0
  6
Continuous
 62
     7
370
    15
100
AcDbLine
 10
2433.820305067158
 20
909.267403629204
 30
0.0
 11
2429.224110989446
 21
911.9207299926278
 31
0.0
  0
LINE
  5
6FB
330
6BD
100
AcDbEntity
  8
0
  6
Continuous
 62
     7
370
    15
100
AcDbLine
 10
2429.224110989446
 20
922.0458360600112
 30
0.0
 11
2429.224110989446
 21
911.9207299926278
 31
0.0
  0
LINE
  5
6FC
330
6BD
100
AcDbEntity
  8
0
  6
Continuous
 62
     7
370
    15
100
AcDbLine
 10
2423.21370334936
 20
925.5155705352576
 30
0.0
 11
2429.224110989446
 21
922.0458360600112
 31
0.0
  0
LINE
  5
6FD
330
6BD
100
AcDbEntity
  8
0
  6
Continuous
 62
     7
370
    15
100
AcDbLine
 10
2423.21370334936
 20
915.3904644678744
 30
0.0
 11
2423.21370334936
 21
925.5155705352576
 31
0.0
  0
LINE
  5
6FE
330
6BD
100
AcDbEntity
  8
0
  6
Continuous
 62
     7
370
    15
100
AcDbLine
 10
2423.21370334936
 20
915.3904644678744
 30
0.0
 11
2418.617509271648
 21
918.0437908312981
 31
0.0
  0
LINE
  5
6FF
330
6BD
100
AcDbEntity
  8
0
  6
Continuous
 62
     7
370
    15
100
AcDbLine
 10
2418.617509271648
 20
928.1688968986815
 30
0.0
 11
2418.617509271648
 21
918.0437908312981
 31
0.0
  0
LINE
  5
700
330
6BD
100
AcDbEntity
  8
0
  6
Continuous
 62
     7
370
    15
100
AcDbLine
 10
2412.607101631562
 20
931.6386313739281
 30
0.0
 11
2418.617509271648
 21
928.1688968986815
 31
0.0
  0
LINE
  5
701
330
6BD
100
AcDbEntity
  8
0
  6
Continuous
 62
     7
370
    15
100
AcDbLine
 10
2436.719442870023
 20
910.9410402584405
 30
0.0
 11
2433.820305067158
 21
909.267403629204
 31
0.0
  0
LINE
  5
702
330
6BD
100
AcDbEntity
  8
0
  6
Continuous
 62
     7
370
    15
100
AcDbLine
 10
2436.719442870023
 20
910.9410402584405
 30
0.0
 11
2436.719442870023
 21
919.4333301021785
 31
0.0
  0
LINE
  5
703
330
6BD
100
AcDbEntity
  8
0
  6
Continuous
 62
     7
370
    15
100
AcDbLine
 10
2430.69135756041
 20
909.0730289824191
 30
0.0
 11
2431.150976968181
 21
908.1000276424427
 31
0.0
  0
ARC
  5
704
330
6BD
100
AcDbEntity
  8
0
  6
Continuous
 62
     7
370
    15
100
AcDbCircle
 10
2431.306177834215
 20
909.3767920695677
 30
0.0
 40
0.6857667112041508
100
AcDbArc
 50
181.5024370062614
 51
206.2925084782031
  0
LINE
  5
705
330
6BD
100
AcDbEntity
  8
0
  6
Continuous
 62
     7
370
    15
100
AcDbLine
 10
2430.620646882291
 20
909.3588116315761
 30
0.0
 11
2430.620646882291
 21
911.1145269822021
 31
0.0
  0
LINE
  5
706
330
6BD
100
AcDbEntity
  8
0
  6
Continuous
 62
     7
370
    15
100
AcDbLine
 10
2434.431952432888
 20
909.6205001375688
 30
0.0
 11
2434.431952432887
 21
907.158591770214
 31
0.0
  0
ARC
  5
707
330
6BD
100
AcDbEntity
  8
0
  6
Continuous
 62
     7
370
    15
100
AcDbCircle
 10
2434.15383716686
 20
907.1406080683608
 30
0.0
 40
0.2786960974424931
100
AcDbArc
 50
318.0901084387908
 51
3.699752655675483
  0
LINE
  5
708
330
6BD
100
AcDbEntity
  8
0
  6
Continuous
 62
     7
370
    15
100
AcDbLine
 10
2433.901622346998
 20
906.5121138649477
 30
0.0
 11
2434.361241754769
 21
906.9544499322393
 31
0.0
  0
ARC
  5
709
330
6BD
100
AcDbEntity
  8
0
  6
Continuous
 62
     7
370
    15
100
AcDbCircle
 10
2434.109026934906
 20
906.325955728826
 30
0.0
 40
0.2786960974425967
100
AcDbArc
 50
138.0901084387956
 51
183.6997526556754
  0
LINE
  5
70A
330
6BD
100
AcDbEntity
  8
0
  6
Continuous
 62
     7
370
    15
100
AcDbLine
 10
2433.830911668878
 20
906.307972026973
 30
0.0
 11
2433.830911668878
 21
902.6063203464243
 31
0.0
  0
ARC
  5
70B
330
6BD
100
AcDbEntity
  8
0
  6
Continuous
 62
     7
370
    15
100
AcDbCircle
 10
2433.615374485166
 20
902.5713567479741
 30
0.0
 40
0.2183545987143255
100
AcDbArc
 50
230.7967147643659
 51
9.214036990443508
  0
LINE
  5
70C
330
6BD
100
AcDbEntity
  8
0
  6
Continuous
 62
     7
370
    15
100
AcDbLine
 10
2433.477358278286
 20
902.4021519684369
 30
0.0
 11
2431.575241036893
 21
903.5002208788389
 31
0.0
  0
ARC
  5
70D
330
6BD
100
AcDbEntity
  8
0
  6
Continuous
 62
     7
370
    15
100
AcDbCircle
 10
2431.989295696983
 20
904.1475237388677
 30
0.0
 40
0.768402403785776
100
AcDbArc
 50
182.6054784856694
 51
237.3945216599734
  0
LINE
  5
70E
330
6BD
100
AcDbEntity
  8
0
  6
Continuous
 62
     7
370
    15
100
AcDbLine
 10
2431.2216876463
 20
904.1125933127371
 30
0.0
 11
2431.2216876463
 21
907.8142449932856
 31
0.0
  0
ARC
  5
70F
330
6BD
100
AcDbEntity
  8
0
  6
Continuous
 62
     7
370
    15
100
AcDbCircle
 10
2430.536156694372
 20
907.7962645552929
 30
0.0
 40
0.6857667112079882
100
AcDbArc
 50
1.502437006352528
 51
26.29250847815068
  0
LINE
  5
710
330
6BD
100
AcDbEntity
  8
0
  6
Continuous
 62
     7
370
    15
100
AcDbLine
 10
2435.704744639022
 20
907.8933590708537
 30
0.0
 11
2434.431952432887
 21
907.158591770214
 31
0.0
  0
LINE
  5
711
330
6BD
100
AcDbEntity
  8
0
  6
Continuous
 62
     7
370
    15
100
AcDbLine
 10
2435.704744639022
 20
907.8933590708537
 30
0.0
 11
2435.704744639022
 21
910.3552674382084
 31
0.0
  0
LINE
  5
712
330
6BD
100
AcDbEntity
  8
0
  6
Continuous
 62
     7
370
    15
100
AcDbLine
 10
2426.112841152225
 20
917.0641010971108
 30
0.0
 11
2423.21370334936
 21
915.3904644678744
 31
0.0
  0
LINE
  5
713
330
6BD
100
AcDbEntity
  8
0
  6
Continuous
 62
     7
370
    15
100
AcDbLine
 10
2426.112841152225
 20
917.0641010971108
 30
0.0
 11
2426.112841152225
 21
923.8419339060211
 31
0.0
  0
LINE
  5
714
330
6BD
100
AcDbEntity
  8
0
  6
Continuous
 62
     7
370
    15
100
AcDbLine
 10
2434.361241754769
 20
906.9544499322393
 30
0.0
 11
2435.634033960903
 21
907.689217232879
 31
0.0
  0
ARC
  5
715
330
6BD
100
AcDbEntity
  8
0
  6
Continuous
 62
     7
370
    15
100
AcDbCircle
 10
2435.426629372996
 20
907.8753753690003
 30
0.0
 40
0.2786960974419855
100
AcDbArc
 50
318.0901084387588
 51
3.699752655727485
  0
LINE
  5
716
330
6BD
100
AcDbEntity
  8
0
  6
Continuous
 62
     7
370
    15
100
AcDbLine
 10
2433.901622346998
 20
906.5121138649477
 30
0.0
 11
2435.174414553132
 21
907.2468811655873
 31
0.0
  0
LINE
  5
717
330
6BD
100
AcDbEntity
  8
0
  6
Continuous
 62
     7
370
    15
100
AcDbLine
 10
2435.634033960903
 20
907.689217232879
 30
0.0
 11
2435.174414553132
 21
907.2468811655873
 31
0.0
  0
LINE
  5
718
330
6BD
100
AcDbEntity
  8
0
  6
Continuous
 62
     7
370
    15
100
AcDbLine
 10
2433.830911668878
 20
906.307972026973
 30
0.0
 11
2435.103703875013
 21
907.0427393276126
 31
0.0
  0
ARC
  5
719
330
6BD
100
AcDbEntity
  8
0
  6
Continuous
 62
     7
370
    15
100
AcDbCircle
 10
2435.381819141039
 20
907.0607230294664
 30
0.0
 40
0.2786960974416636
100
AcDbArc
 50
138.090108438722
 51
183.699752655773
  0
LINE
  5
71A
330
6BD
100
AcDbEntity
  8
0
  6
Continuous
 62
     7
370
    15
100
AcDbLine
 10
2435.103703875013
 20
903.341087647064
 30
0.0
 11
2433.830911668878
 21
902.6063203464243
 31
0.0
  0
LINE
  5
71B
330
6BD
100
AcDbEntity
  8
0
  6
Continuous
 62
     7
370
    15
100
AcDbLine
 10
2435.103703875013
 20
903.341087647064
 30
0.0
 11
2435.103703875013
 21
907.0427393276126
 31
0.0
  0
ARC
  5
71C
330
6BD
100
AcDbEntity
  8
0
  6
Continuous
 62
     7
370
    15
100
AcDbCircle
 10
2434.858702926007
 20
903.3140442774056
 30
0.0
 40
0.2464889629502059
100
AcDbArc
 50
305.0133325925518
 51
6.29884780082532
  0
LINE
  5
71D
330
6BD
100
AcDbEntity
  8
0
  6
Continuous
 62
     7
370
    15
100
AcDbLine
 10
2420.084755842611
 20
915.1960898210896
 30
0.0
 11
2420.544375250383
 21
914.223088481113
 31
0.0
  0
ARC
  5
71E
330
6BD
100
AcDbEntity
  8
0
  6
Continuous
 62
     7
370
    15
100
AcDbCircle
 10
2420.699576116416
 20
915.499852908238
 30
0.0
 40
0.6857667112039334
100
AcDbArc
 50
181.5024370062614
 51
206.292508478209
  0
LINE
  5
71F
330
6BD
100
AcDbEntity
  8
0
  6
Continuous
 62
     7
370
    15
100
AcDbLine
 10
2420.014045164493
 20
915.4818724702463
 30
0.0
 11
2420.014045164493
 21
917.2375878208724
 31
0.0
  0
LINE
  5
720
330
6BD
100
AcDbEntity
  8
0
  6
Continuous
 62
     7
370
    15
100
AcDbLine
 10
2423.82535071509
 20
915.7435609762393
 30
0.0
 11
2423.825350715089
 21
913.2816526088843
 31
0.0
  0
ARC
  5
721
330
6BD
100
AcDbEntity
  8
0
  6
Continuous
 62
     7
370
    15
100
AcDbCircle
 10
2423.547235449063
 20
913.2636689070309
 30
0.0
 40
0.2786960974421528
100
AcDbArc
 50
318.0901084387588
 51
3.699752655720985
  0
LINE
  5
722
330
6BD
100
AcDbEntity
  8
0
  6
Continuous
 62
     7
370
    15
100
AcDbLine
 10
2423.295020629199
 20
912.635174703618
 30
0.0
 11
2423.75464003697
 21
913.0775107709096
 31
0.0
  0
ARC
  5
723
330
6BD
100
AcDbEntity
  8
0
  6
Continuous
 62
     7
370
    15
100
AcDbCircle
 10
2423.502425217107
 20
912.4490165674966
 30
0.0
 40
0.2786960974420944
100
AcDbArc
 50
138.0901084387539
 51
183.6997526557145
  0
LINE
  5
724
330
6BD
100
AcDbEntity
  8
0
  6
Continuous
 62
     7
370
    15
100
AcDbLine
 10
2423.224309951081
 20
912.4310328656433
 30
0.0
 11
2423.224309951081
 21
908.7293811850946
 31
0.0
  0
ARC
  5
725
330
6BD
100
AcDbEntity
  8
0
  6
Continuous
 62
     7
370
    15
100
AcDbCircle
 10
2423.008772767368
 20
908.6944175866445
 30
0.0
 40
0.2183545987142915
100
AcDbArc
 50
230.79671476437
 51
9.214036990437078
  0
LINE
  5
726
330
6BD
100
AcDbEntity
  8
0
  6
Continuous
 62
     7
370
    15
100
AcDbLine
 10
2422.870756560488
 20
908.5252128071074
 30
0.0
 11
2420.968639319094
 21
909.6232817175092
 31
0.0
  0
ARC
  5
727
330
6BD
100
AcDbEntity
  8
0
  6
Continuous
 62
     7
370
    15
100
AcDbCircle
 10
2421.382693979186
 20
910.2705845775385
 30
0.0
 40
0.7684024037867997
100
AcDbArc
 50
182.6054784857084
 51
237.3945216599409
  0
LINE
  5
728
330
6BD
100
AcDbEntity
  8
0
  6
Continuous
 62
     7
370
    15
100
AcDbLine
 10
2420.615085928501
 20
910.2356541514074
 30
0.0
 11
2420.615085928501
 21
913.9373058319559
 31
0.0
  0
ARC
  5
729
330
6BD
100
AcDbEntity
  8
0
  6
Continuous
 62
     7
370
    15
100
AcDbCircle
 10
2419.929554976576
 20
913.9193253939637
 30
0.0
 40
0.6857667112063881
100
AcDbArc
 50
1.50243700631997
 51
26.29250847819142
  0
LINE
  5
72A
330
6BD
100
AcDbEntity
  8
0
  6
Continuous
 62
     7
370
    15
100
AcDbLine
 10
2425.098142921223
 20
914.016419909524
 30
0.0
 11
2423.825350715089
 21
913.2816526088843
 31
0.0
  0
LINE
  5
72B
330
6BD
100
AcDbEntity
  8
0
  6
Continuous
 62
     7
370
    15
100
AcDbLine
 10
2425.098142921223
 20
914.016419909524
 30
0.0
 11
2425.098142921223
 21
916.4783282768787
 31
0.0
  0
LINE
  5
72C
330
6BD
100
AcDbEntity
  8
0
  6
Continuous
 62
     7
370
    15
100
AcDbLine
 10
2415.506239434427
 20
923.1871619357812
 30
0.0
 11
2412.607101631562
 21
921.5135253065447
 31
0.0
  0
LINE
  5
72D
330
6BD
100
AcDbEntity
  8
0
  6
Continuous
 62
     7
370
    15
100
AcDbLine
 10
2415.506239434427
 20
923.1871619357812
 30
0.0
 11
2415.506239434427
 21
929.9649947446914
 31
0.0
  0
LINE
  5
72E
330
6BD
100
AcDbEntity
  8
0
  6
Continuous
 62
     7
370
    15
100
AcDbLine
 10
2423.75464003697
 20
913.0775107709096
 30
0.0
 11
2425.027432243105
 21
913.8122780715493
 31
0.0
  0
ARC
  5
72F
330
6BD
100
AcDbEntity
  8
0
  6
Continuous
 62
     7
370
    15
100
AcDbCircle
 10
2424.820027655197
 20
913.9984362076706
 30
0.0
 40
0.2786960974419287
100
AcDbArc
 50
318.0901084387491
 51
3.699752655733985
  0
LINE
  5
730
330
6BD
100
AcDbEntity
  8
0
  6
Continuous
 62
     7
370
    15
100
AcDbLine
 10
2423.295020629199
 20
912.635174703618
 30
0.0
 11
2424.567812835333
 21
913.3699420042576
 31
0.0
  0
LINE
  5
731
330
6BD
100
AcDbEntity
  8
0
  6
Continuous
 62
     7
370
    15
100
AcDbLine
 10
2425.027432243105
 20
913.8122780715493
 30
0.0
 11
2424.567812835333
 21
913.3699420042576
 31
0.0
  0
LINE
  5
732
330
6BD
100
AcDbEntity
  8
0
  6
Continuous
 62
     7
370
    15
100
AcDbLine
 10
2423.224309951081
 20
912.4310328656433
 30
0.0
 11
2424.497102157215
 21
913.1658001662829
 31
0.0
  0
ARC
  5
733
330
6BD
100
AcDbEntity
  8
0
  6
Continuous
 62
     7
370
    15
100
AcDbCircle
 10
2424.775217423241
 20
913.1837838681365
 30
0.0
 40
0.2786960974417671
100
AcDbArc
 50
138.0901084387491
 51
183.69975265576
  0
LINE
  5
734
330
6BD
100
AcDbEntity
  8
0
  6
Continuous
 62
     7
370
    15
100
AcDbLine
 10
2424.497102157215
 20
909.4641484857344
 30
0.0
 11
2423.224309951081
 21
908.7293811850946
 31
0.0
  0
LINE
  5
735
330
6BD
100
AcDbEntity
  8
0
  6
Continuous
 62
     7
370
    15
100
AcDbLine
 10
2424.497102157215
 20
909.4641484857344
 30
0.0
 11
2424.497102157215
 21
913.1658001662829
 31
0.0
  0
ARC
  5
736
330
6BD
100
AcDbEntity
  8
0
  6
Continuous
 62
     7
370
    15
100
AcDbCircle
 10
2424.252101208073
 20
909.4371051161376
 30
0.0
 40
0.2464889630788078
100
AcDbArc
 50
305.0133326102507
 51
6.298847783126283
  0
LINE
  5
737
330
6BD
100
AcDbEntity
  8
0
  6
Continuous
 62
     7
370
    15
100
AcDbLine
 10
2409.478154124813
 20
921.3191506597599
 30
0.0
 11
2409.937773532585
 21
920.3461493197833
 31
0.0
  0
ARC
  5
738
330
6BD
100
AcDbEntity
  8
0
  6
Continuous
 62
     7
370
    15
100
AcDbCircle
 10
2410.09297439862
 20
921.6229137469088
 30
0.0
 40
0.6857667112057531
100
AcDbArc
 50
181.5024370062939
 51
206.2925084781797
  0
LINE
  5
739
330
6BD
100
AcDbEntity
  8
0
  6
Continuous
 62
     7
370
    15
100
AcDbLine
 10
2409.407443446694
 20
921.6049333089168
 30
0.0
 11
2409.407443446694
 21
923.3606486595428
 31
0.0
  0
LINE
  5
73A
330
6BD
100
AcDbEntity
  8
0
  6
Continuous
 62
     7
370
    15
100
AcDbLine
 10
2413.218748997291
 20
921.8666218149095
 30
0.0
 11
2413.218748997291
 21
919.4047134475548
 31
0.0
  0
ARC
  5
73B
330
6BD
100
AcDbEntity
  8
0
  6
Continuous
 62
     7
370
    15
100
AcDbCircle
 10
2412.940633731265
 20
919.3867297457014
 30
0.0
 40
0.2786960974420961
100
AcDbArc
 50
318.0901084387588
 51
3.699752655720985
  0
LINE
  5
73C
330
6BD
100
AcDbEntity
  8
0
  6
Continuous
 62
     7
370
    15
100
AcDbLine
 10
2412.688418911401
 20
918.7582355422883
 30
0.0
 11
2413.148038319172
 21
919.2005716095801
 31
0.0
  0
ARC
  5
73D
330
6BD
100
AcDbEntity
  8
0
  6
Continuous
 62
     7
370
    15
100
AcDbCircle
 10
2412.895823499309
 20
918.5720774061669
 30
0.0
 40
0.2786960974420394
100
AcDbArc
 50
138.0901084387442
 51
183.699752655721
  0
LINE
  5
73E
330
6BD
100
AcDbEntity
  8
0
  6
Continuous
 62
     7
370
    15
100
AcDbLine
 10
2412.617708233282
 20
918.5540937043136
 30
0.0
 11
2412.617708233282
 21
914.8524420237649
 31
0.0
  0
ARC
  5
73F
330
6BD
100
AcDbEntity
  8
0
  6
Continuous
 62
     7
370
    15
100
AcDbCircle
 10
2412.402171049569
 20
914.8174784253148
 30
0.0
 40
0.2183545987143255
100
AcDbArc
 50
230.7967147643659
 51
9.214036990443508
  0
LINE
  5
740
330
6BD
100
AcDbEntity
  8
0
  6
Continuous
 62
     7
370
    15
100
AcDbLine
 10
2412.264154842689
 20
914.6482736457777
 30
0.0
 11
2410.362037601296
 21
915.7463425561795
 31
0.0
  0
ARC
  5
741
330
6BD
100
AcDbEntity
  8
0
  6
Continuous
 62
     7
370
    15
100
AcDbCircle
 10
2410.776092261387
 20
916.3936454162083
 30
0.0
 40
0.7684024037860988
100
AcDbArc
 50
182.6054784856759
 51
237.3945216599663
  0
LINE
  5
742
330
6BD
100
AcDbEntity
  8
0
  6
Continuous
 62
     7
370
    15
100
AcDbLine
 10
2410.008484210703
 20
916.3587149900777
 30
0.0
 11
2410.008484210703
 21
920.0603666706262
 31
0.0
  0
ARC
  5
743
330
6BD
100
AcDbEntity
  8
0
  6
Continuous
 62
     7
370
    15
100
AcDbCircle
 10
2409.322953258777
 20
920.0423862326339
 30
0.0
 40
0.685766711206676
100
AcDbArc
 50
1.502437006332993
 51
26.29250847819142
  0
LINE
  5
744
330
6BD
100
AcDbEntity
  8
0
  6
Continuous
 62
     7
370
    15
100
AcDbLine
 10
2414.491541203425
 20
920.1394807481944
 30
0.0
 11
2413.218748997291
 21
919.4047134475548
 31
0.0
  0
LINE
  5
745
330
6BD
100
AcDbEntity
  8
0
  6
Continuous
 62
     7
370
    15
100
AcDbLine
 10
2414.491541203425
 20
920.1394807481944
 30
0.0
 11
2414.491541203425
 21
922.601389115549
 31
0.0
  0
LINE
  5
746
330
6BD
100
AcDbEntity
  8
0
  6
Continuous
 62
     7
370
    15
100
AcDbLine
 10
2404.899637716629
 20
929.3102227744515
 30
0.0
 11
2402.000499913764
 21
927.636586145215
 31
0.0
  0
LINE
  5
747
330
6BD
100
AcDbEntity
  8
0
  6
Continuous
 62
     7
370
    15
100
AcDbLine
 10
2404.899637716629
 20
929.3102227744515
 30
0.0
 11
2404.899637716629
 21
936.0880555833617
 31
0.0
  0
LINE
  5
748
330
6BD
100
AcDbEntity
  8
0
  6
Continuous
 62
     7
370
    15
100
AcDbLine
 10
2413.148038319172
 20
919.2005716095801
 30
0.0
 11
2414.420830525307
 21
919.9353389102197
 31
0.0
  0
ARC
  5
749
330
6BD
100
AcDbEntity
  8
0
  6
Continuous
 62
     7
370
    15
100
AcDbCircle
 10
2414.213425937399
 20
920.1214970463409
 30
0.0
 40
0.2786960974414944
100
AcDbArc
 50
318.0901084387075
 51
3.699752655759986
  0
LINE
  5
74A
330
6BD
100
AcDbEntity
  8
0
  6
Continuous
 62
     7
370
    15
100
AcDbLine
 10
2412.688418911401
 20
918.7582355422883
 30
0.0
 11
2413.961211117535
 21
919.4930028429281
 31
0.0
  0
LINE
  5
74B
330
6BD
100
AcDbEntity
  8
0
  6
Continuous
 62
     7
370
    15
100
AcDbLine
 10
2414.420830525307
 20
919.9353389102197
 30
0.0
 11
2413.961211117535
 21
919.4930028429281
 31
0.0
  0
LINE
  5
74C
330
6BD
100
AcDbEntity
  8
0
  6
Continuous
 62
     7
370
    15
100
AcDbLine
 10
2412.617708233282
 20
918.5540937043136
 30
0.0
 11
2413.890500439416
 21
919.2888610049534
 31
0.0
  0
ARC
  5
74D
330
6BD
100
AcDbEntity
  8
0
  6
Continuous
 62
     7
370
    15
100
AcDbCircle
 10
2414.168615705442
 20
919.3068447068071
 30
0.0
 40
0.278696097440891
100
AcDbArc
 50
138.0901084386658
 51
183.6997526558331
  0
LINE
  5
74E
330
6BD
100
AcDbEntity
  8
0
  6
Continuous
 62
     7
370
    15
100
AcDbLine
 10
2413.890500439416
 20
915.5872093244047
 30
0.0
 11
2412.617708233282
 21
914.8524420237649
 31
0.0
  0
LINE
  5
74F
330
6BD
100
AcDbEntity
  8
0
  6
Continuous
 62
     7
370
    15
100
AcDbLine
 10
2413.890500439416
 20
915.5872093244047
 30
0.0
 11
2413.890500439416
 21
919.2888610049534
 31
0.0
  0
ARC
  5
750
330
6BD
100
AcDbEntity
  8
0
  6
Continuous
 62
     7
370
    15
100
AcDbCircle
 10
2413.645499490274
 20
915.560165954808
 30
0.0
 40
0.2464889630790701
100
AcDbArc
 50
305.0133326102758
 51
6.29884778307163
  0
LINE
  5
751
330
6BD
100
AcDbEntity
  8
0
  6
Continuous
 62
     7
370
    15
100
AcDbLine
 10
2398.871552407015
 20
927.4422114984302
 30
0.0
 11
2399.331171814786
 21
926.4692101584536
 31
0.0
  0
ARC
  5
752
330
6BD
100
AcDbEntity
  8
0
  6
Continuous
 62
     7
370
    15
100
AcDbCircle
 10
2399.486372680819
 20
927.7459745855786
 30
0.0
 40
0.6857667112033549
100
AcDbArc
 50
181.5024370062614
 51
206.2925084782206
  0
LINE
  5
753
330
6BD
100
AcDbEntity
  8
0
  6
Continuous
 62
     7
370
    15
100
AcDbLine
 10
2398.800841728896
 20
927.7279941475871
 30
0.0
 11
2398.800841728896
 21
929.4837094982131
 31
0.0
  0
LINE
  5
754
330
6BD
100
AcDbEntity
  8
0
  6
Continuous
 62
     7
370
    15
100
AcDbLine
 10
2402.612147279493
 20
927.9896826535798
 30
0.0
 11
2402.612147279493
 21
925.5277742862249
 31
0.0
  0
ARC
  5
755
330
6BD
100
AcDbEntity
  8
0
  6
Continuous
 62
     7
370
    15
100
AcDbCircle
 10
2402.334032013466
 20
925.5097905843719
 30
0.0
 40
0.2786960974425344
100
AcDbArc
 50
318.0901084387859
 51
3.699752655668983
  0
LINE
  5
756
330
6BD
100
AcDbEntity
  8
0
  6
Continuous
 62
     7
370
    15
100
AcDbLine
 10
2402.081817193602
 20
924.8812963809585
 30
0.0
 11
2402.541436601374
 21
925.3236324482504
 31
0.0
  0
ARC
  5
757
330
6BD
100
AcDbEntity
  8
0
  6
Continuous
 62
     7
370
    15
100
AcDbCircle
 10
2402.289221781511
 20
924.695138244837
 30
0.0
 40
0.2786960974425389
100
AcDbArc
 50
138.0901084387956
 51
183.699752655682
  0
LINE
  5
758
330
6BD
100
AcDbEntity
  8
0
  6
Continuous
 62
     7
370
    15
100
AcDbLine
 10
2402.011106515484
 20
924.677154542984
 30
0.0
 11
2402.011106515484
 21
920.9755028624353
 31
0.0
  0
ARC
  5
759
330
6BD
100
AcDbEntity
  8
0
  6
Continuous
 62
     7
370
    15
100
AcDbCircle
 10
2401.795569331771
 20
920.9405392639851
 30
0.0
 40
0.2183545987143475
100
AcDbArc
 50
230.79671476437
 51
9.214036990430646
  0
LINE
  5
75A
330
6BD
100
AcDbEntity
  8
0
  6
Continuous
 62
     7
370
    15
100
AcDbLine
 10
2401.657553124891
 20
920.771334484448
 30
0.0
 11
2399.755435883498
 21
921.86940339485
 31
0.0
  0
ARC
  5
75B
330
6BD
100
AcDbEntity
  8
0
  6
Continuous
 62
     7
370
    15
100
AcDbCircle
 10
2400.169490543589
 20
922.5167062548788
 30
0.0
 40
0.7684024037861583
100
AcDbArc
 50
182.6054784856824
 51
237.3945216599663
  0
LINE
  5
75C
330
6BD
100
AcDbEntity
  8
0
  6
Continuous
 62
     7
370
    15
100
AcDbLine
 10
2399.401882492905
 20
922.4817758287482
 30
0.0
 11
2399.401882492905
 21
926.1834275092967
 31
0.0
  0
ARC
  5
75D
330
6BD
100
AcDbEntity
  8
0
  6
Continuous
 62
     7
370
    15
100
AcDbCircle
 10
2398.716351540977
 20
926.1654470713036
 30
0.0
 40
0.6857667112086775
100
AcDbArc
 50
1.502437006372062
 51
26.29250847815652
  0
LINE
  5
75E
330
6BD
100
AcDbEntity
  8
0
  6
Continuous
 62
     7
370
    15
100
AcDbLine
 10
2403.884939485627
 20
926.2625415868647
 30
0.0
 11
2402.612147279493
 21
925.5277742862249
 31
0.0
  0
LINE
  5
75F
330
6BD
100
AcDbEntity
  8
0
  6
Continuous
 62
     7
370
    15
100
AcDbLine
 10
2403.884939485627
 20
926.2625415868647
 30
0.0
 11
2403.884939485627
 21
928.7244499542193
 31
0.0
  0
LINE
  5
760
330
6BD
100
AcDbEntity
  8
0
  6
Continuous
 62
     7
370
    15
100
AcDbLine
 10
2394.293035998831
 20
935.4332836131218
 30
0.0
 11
2391.393898195966
 21
933.7596469838855
 31
0.0
  0
LINE
  5
761
330
6BD
100
AcDbEntity
  8
0
  6
Continuous
 62
     7
370
    15
100
AcDbLine
 10
2394.293035998831
 20
935.4332836131218
 30
0.0
 11
2394.293035998831
 21
942.2111164220321
 31
0.0
  0
LINE
  5
762
330
6BD
100
AcDbEntity
  8
0
  6
Continuous
 62
     7
370
    15
100
AcDbLine
 10
2402.541436601374
 20
925.3236324482504
 30
0.0
 11
2403.814228807509
 21
926.05839974889
 31
0.0
  0
ARC
  5
763
330
6BD
100
AcDbEntity
  8
0
  6
Continuous
 62
     7
370
    15
100
AcDbCircle
 10
2403.606824219601
 20
926.2445578850114
 30
0.0
 40
0.2786960974417818
100
AcDbArc
 50
318.0901084387172
 51
3.699752655733985
  0
LINE
  5
764
330
6BD
100
AcDbEntity
  8
0
  6
Continuous
 62
     7
370
    15
100
AcDbLine
 10
2402.081817193602
 20
924.8812963809585
 30
0.0
 11
2403.354609399737
 21
925.6160636815984
 31
0.0
  0
LINE
  5
765
330
6BD
100
AcDbEntity
  8
0
  6
Continuous
 62
     7
370
    15
100
AcDbLine
 10
2403.814228807509
 20
926.05839974889
 30
0.0
 11
2403.354609399737
 21
925.6160636815984
 31
0.0
  0
LINE
  5
766
330
6BD
100
AcDbEntity
  8
0
  6
Continuous
 62
     7
370
    15
100
AcDbLine
 10
2402.011106515484
 20
924.677154542984
 30
0.0
 11
2403.283898721618
 21
925.4119218436237
 31
0.0
  0
ARC
  5
767
330
6BD
100
AcDbEntity
  8
0
  6
Continuous
 62
     7
370
    15
100
AcDbCircle
 10
2403.562013987645
 20
925.4299055454771
 30
0.0
 40
0.2786960974421566
100
AcDbArc
 50
138.0901084387859
 51
183.699752655734
  0
LINE
  5
768
330
6BD
100
AcDbEntity
  8
0
  6
Continuous
 62
     7
370
    15
100
AcDbLine
 10
2403.283898721618
 20
921.710270163075
 30
0.0
 11
2402.011106515484
 21
920.9755028624353
 31
0.0
  0
LINE
  5
769
330
6BD
100
AcDbEntity
  8
0
  6
Continuous
 62
     7
370
    15
100
AcDbLine
 10
2403.283898721618
 20
921.710270163075
 30
0.0
 11
2403.283898721618
 21
925.4119218436237
 31
0.0
  0
ARC
  5
76A
330
6BD
100
AcDbEntity
  8
0
  6
Continuous
 62
     7
370
    15
100
AcDbCircle
 10
2403.038897772613
 20
921.6832267934167
 30
0.0
 40
0.2464889629503584
100
AcDbArc
 50
305.0133325925882
 51
6.298847800818845
  0
LINE
  5
76B
330
6BD
100
AcDbEntity
  8
0
  6
Continuous
 62
     7
370
    15
100
AcDbLine
 10
2388.264950689217
 20
933.5652723371007
 30
0.0
 11
2388.724570096988
 21
932.5922709971239
 31
0.0
  0
ARC
  5
76C
330
6BD
100
AcDbEntity
  8
0
  6
Continuous
 62
     7
370
    15
100
AcDbCircle
 10
2388.87977096302
 20
933.8690354242487
 30
0.0
 40
0.6857667112021641
100
AcDbArc
 50
181.5024370062418
 51
206.2925084782555
  0
LINE
  5
76D
330
6BD
100
AcDbEntity
  8
0
  6
Continuous
 62
     7
370
    15
100
AcDbLine
 10
2388.194240011098
 20
933.8510549862574
 30
0.0
 11
2388.194240011098
 21
935.6067703368834
 31
0.0
  0
LINE
  5
76E
330
6BD
100
AcDbEntity
  8
0
  6
Continuous
 62
     7
370
    15
100
AcDbLine
 10
2392.005545561694
 20
934.1127434922501
 30
0.0
 11
2392.005545561694
 21
931.6508351248954
 31
0.0
  0
ARC
  5
76F
330
6BD
100
AcDbEntity
  8
0
  6
Continuous
 62
     7
370
    15
100
AcDbCircle
 10
2391.727430295668
 20
931.632851423042
 30
0.0
 40
0.2786960974424264
100
AcDbArc
 50
318.0901084387859
 51
3.699752655681983
  0
LINE
  5
770
330
6BD
100
AcDbEntity
  8
0
  6
Continuous
 62
     7
370
    15
100
AcDbLine
 10
2391.475215475804
 20
931.0043572196288
 30
0.0
 11
2391.934834883576
 21
931.4466932869207
 31
0.0
  0
ARC
  5
771
330
6BD
100
AcDbEntity
  8
0
  6
Continuous
 62
     7
370
    15
100
AcDbCircle
 10
2391.682620063712
 20
930.8181990835079
 30
0.0
 40
0.2786960974418226
100
AcDbArc
 50
138.0901084387539
 51
183.69975265576
  0
LINE
  5
772
330
6BD
100
AcDbEntity
  8
0
  6
Continuous
 62
     7
370
    15
100
AcDbLine
 10
2391.404504797685
 20
930.8002153816543
 30
0.0
 11
2391.404504797685
 21
927.0985637011056
 31
0.0
  0
ARC
  5
773
330
6BD
100
AcDbEntity
  8
0
  6
Continuous
 62
     7
370
    15
100
AcDbCircle
 10
2391.188967613972
 20
927.0636001026556
 30
0.0
 40
0.218354598714334
100
AcDbArc
 50
230.7967147643985
 51
9.21403699041136
  0
LINE
  5
774
330
6BD
100
AcDbEntity
  8
0
  6
Continuous
 62
     7
370
    15
100
AcDbLine
 10
2391.050951407093
 20
926.8943953231183
 30
0.0
 11
2389.1488341657
 21
927.9924642335201
 31
0.0
  0
ARC
  5
775
330
6BD
100
AcDbEntity
  8
0
  6
Continuous
 62
     7
370
    15
100
AcDbCircle
 10
2389.562888825791
 20
928.6397670935494
 30
0.0
 40
0.7684024037866242
100
AcDbArc
 50
182.6054784856954
 51
237.3945216599409
  0
LINE
  5
776
330
6BD
100
AcDbEntity
  8
0
  6
Continuous
 62
     7
370
    15
100
AcDbLine
 10
2388.795280775107
 20
928.6048366674185
 30
0.0
 11
2388.795280775107
 21
932.306488347967
 31
0.0
  0
ARC
  5
777
330
6BD
100
AcDbEntity
  8
0
  6
Continuous
 62
     7
370
    15
100
AcDbCircle
 10
2388.109749823181
 20
932.2885079099746
 30
0.0
 40
0.6857667112059321
100
AcDbArc
 50
1.50243700631997
 51
26.2925084782031
  0
LINE
  5
778
330
6BD
100
AcDbEntity
  8
0
  6
Continuous
 62
     7
370
    15
100
AcDbLine
 10
2393.278337767829
 20
932.385602425535
 30
0.0
 11
2392.005545561694
 21
931.6508351248954
 31
0.0
  0
LINE
  5
779
330
6BD
100
AcDbEntity
  8
0
  6
Continuous
 62
     7
370
    15
100
AcDbLine
 10
2393.278337767829
 20
932.385602425535
 30
0.0
 11
2393.278337767829
 21
934.8475107928896
 31
0.0
  0
LINE
  5
77A
330
6BD
100
AcDbEntity
  8
0
  6
Continuous
 62
     7
370
    15
100
AcDbLine
 10
2383.686434281032
 20
941.5563444517923
 30
0.0
 11
2380.787296478168
 21
939.8827078225558
 31
0.0
  0
LINE
  5
77B
330
6BD
100
AcDbEntity
  8
0
  6
Continuous
 62
     7
370
    15
100
AcDbLine
 10
2383.686434281032
 20
941.5563444517923
 30
0.0
 11
2383.686434281032
 21
948.3341772607024
 31
0.0
  0
LINE
  5
77C
330
6BD
100
AcDbEntity
  8
0
  6
Continuous
 62
     7
370
    15
100
AcDbLine
 10
2391.934834883576
 20
931.4466932869207
 30
0.0
 11
2393.20762708971
 21
932.1814605875603
 31
0.0
  0
ARC
  5
77D
330
6BD
100
AcDbEntity
  8
0
  6
Continuous
 62
     7
370
    15
100
AcDbCircle
 10
2393.000222501802
 20
932.3676187236817
 30
0.0
 40
0.2786960974418153
100
AcDbArc
 50
318.0901084387269
 51
3.699752655733985
  0
LINE
  5
77E
330
6BD
100
AcDbEntity
  8
0
  6
Continuous
 62
     7
370
    15
100
AcDbLine
 10
2391.475215475804
 20
931.0043572196288
 30
0.0
 11
2392.748007681939
 21
931.7391245202687
 31
0.0
  0
LINE
  5
77F
330
6BD
100
AcDbEntity
  8
0
  6
Continuous
 62
     7
370
    15
100
AcDbLine
 10
2393.20762708971
 20
932.1814605875603
 30
0.0
 11
2392.748007681939
 21
931.7391245202687
 31
0.0
  0
LINE
  5
780
330
6BD
100
AcDbEntity
  8
0
  6
Continuous
 62
     7
370
    15
100
AcDbLine
 10
2391.404504797685
 20
930.8002153816543
 30
0.0
 11
2392.67729700382
 21
931.534982682294
 31
0.0
  0
ARC
  5
781
330
6BD
100
AcDbEntity
  8
0
  6
Continuous
 62
     7
370
    15
100
AcDbCircle
 10
2392.955412269847
 20
931.5529663841475
 30
0.0
 40
0.2786960974417751
100
AcDbArc
 50
138.0901084387539
 51
183.6997526557859
  0
LINE
  5
782
330
6BD
100
AcDbEntity
  8
0
  6
Continuous
 62
     7
370
    15
100
AcDbLine
 10
2392.67729700382
 20
927.8333310017453
 30
0.0
 11
2391.404504797685
 21
927.0985637011056
 31
0.0
  0
LINE
  5
783
330
6BD
100
AcDbEntity
  8
0
  6
Continuous
 62
     7
370
    15
100
AcDbLine
 10
2392.67729700382
 20
927.8333310017453
 30
0.0
 11
2392.67729700382
 21
931.534982682294
 31
0.0
  0
ARC
  5
784
330
6BD
100
AcDbEntity
  8
0
  6
Continuous
 62
     7
370
    15
100
AcDbCircle
 10
2392.43229605505
 20
927.8062876319806
 30
0.0
 40
0.24648896272803
100
AcDbArc
 50
305.013332561922
 51
6.298847831403882
  0
LINE
  5
785
330
6BD
100
AcDbEntity
  8
0
  6
Continuous
 62
     7
370
    15
100
AcDbLine
 10
2377.658348971419
 20
939.688333175771
 30
0.0
 11
2378.11796837919
 21
938.7153318357944
 31
0.0
  0
ARC
  5
786
330
6BD
100
AcDbEntity
  8
0
  6
Continuous
 62
     7
370
    15
100
AcDbCircle
 10
2378.273169245222
 20
939.992096262919
 30
0.0
 40
0.6857667112025512
100
AcDbArc
 50
181.5024370062418
 51
206.292508478238
  0
LINE
  5
787
330
6BD
100
AcDbEntity
  8
0
  6
Continuous
 62
     7
370
    15
100
AcDbLine
 10
2377.5876382933
 20
939.9741158249279
 30
0.0
 11
2377.5876382933
 21
941.7298311755537
 31
0.0
  0
LINE
  5
788
330
6BD
100
AcDbEntity
  8
0
  6
Continuous
 62
     7
370
    15
100
AcDbLine
 10
2381.398943843896
 20
940.2358043309204
 30
0.0
 11
2381.398943843896
 21
937.7738959635657
 31
0.0
  0
ARC
  5
789
330
6BD
100
AcDbEntity
  8
0
  6
Continuous
 62
     7
370
    15
100
AcDbCircle
 10
2381.120828577869
 20
937.7559122617125
 30
0.0
 40
0.2786960974421539
100
AcDbArc
 50
318.0901084387588
 51
3.699752655707984
  0
LINE
  5
78A
330
6BD
100
AcDbEntity
  8
0
  6
Continuous
 62
     7
370
    15
100
AcDbLine
 10
2380.868613758006
 20
937.1274180582993
 30
0.0
 11
2381.328233165778
 21
937.569754125591
 31
0.0
  0
ARC
  5
78B
330
6BD
100
AcDbEntity
  8
0
  6
Continuous
 62
     7
370
    15
100
AcDbCircle
 10
2381.076018345913
 20
936.9412599221782
 30
0.0
 40
0.2786960974413724
100
AcDbArc
 50
138.0901084386755
 51
183.699752655773
  0
LINE
  5
78C
330
6BD
100
AcDbEntity
  8
0
  6
Continuous
 62
     7
370
    15
100
AcDbLine
 10
2380.797903079888
 20
936.9232762203246
 30
0.0
 11
2380.797903079888
 21
933.2216245397759
 31
0.0
  0
ARC
  5
78D
330
6BD
100
AcDbEntity
  8
0
  6
Continuous
 62
     7
370
    15
100
AcDbCircle
 10
2380.582365896175
 20
933.1866609413257
 30
0.0
 40
0.2183545987143394
100
AcDbArc
 50
230.7967147643618
 51
9.214036990437078
  0
LINE
  5
78E
330
6BD
100
AcDbEntity
  8
0
  6
Continuous
 62
     7
370
    15
100
AcDbLine
 10
2380.444349689295
 20
933.0174561617885
 30
0.0
 11
2378.542232447902
 21
934.1155250721906
 31
0.0
  0
ARC
  5
78F
330
6BD
100
AcDbEntity
  8
0
  6
Continuous
 62
     7
370
    15
100
AcDbCircle
 10
2378.956287107993
 20
934.7628279322195
 30
0.0
 40
0.7684024037864241
100
AcDbArc
 50
182.6054784856889
 51
237.3945216599444
  0
LINE
  5
790
330
6BD
100
AcDbEntity
  8
0
  6
Continuous
 62
     7
370
    15
100
AcDbLine
 10
2378.188679057309
 20
934.7278975060888
 30
0.0
 11
2378.188679057309
 21
938.4295491866373
 31
0.0
  0
ARC
  5
791
330
6BD
100
AcDbEntity
  8
0
  6
Continuous
 62
     7
370
    15
100
AcDbCircle
 10
2377.503148105382
 20
938.4115687486447
 30
0.0
 40
0.6857667112074312
100
AcDbArc
 50
1.502437006339504
 51
26.29250847816237
  0
LINE
  5
792
330
6BD
100
AcDbEntity
  8
0
  6
Continuous
 62
     7
370
    15
100
AcDbLine
 10
2382.671736050031
 20
938.5086632642053
 30
0.0
 11
2381.398943843896
 21
937.7738959635657
 31
0.0
  0
LINE
  5
793
330
6BD
100
AcDbEntity
  8
0
  6
Continuous
 62
     7
370
    15
100
AcDbLine
 10
2382.671736050031
 20
938.5086632642053
 30
0.0
 11
2382.671736050031
 21
940.9705716315599
 31
0.0
  0
LINE
  5
794
330
6BD
100
AcDbEntity
  8
0
  6
Continuous
 62
     7
370
    15
100
AcDbLine
 10
2373.079832563234
 20
947.6794052904626
 30
0.0
 11
2370.180694760369
 21
946.0057686612261
 31
0.0
  0
LINE
  5
795
330
6BD
100
AcDbEntity
  8
0
  6
Continuous
 62
     7
370
    15
100
AcDbLine
 10
2373.079832563234
 20
947.6794052904626
 30
0.0
 11
2373.079832563234
 21
954.4572380993727
 31
0.0
  0
LINE
  5
796
330
6BD
100
AcDbEntity
  8
0
  6
Continuous
 62
     7
370
    15
100
AcDbLine
 10
2381.328233165778
 20
937.569754125591
 30
0.0
 11
2382.601025371912
 21
938.3045214262308
 31
0.0
  0
ARC
  5
797
330
6BD
100
AcDbEntity
  8
0
  6
Continuous
 62
     7
370
    15
100
AcDbCircle
 10
2382.393620784005
 20
938.4906795623518
 30
0.0
 40
0.2786960974412069
100
AcDbArc
 50
318.0901084386755
 51
3.699752655785986
  0
LINE
  5
798
330
6BD
100
AcDbEntity
  8
0
  6
Continuous
 62
     7
370
    15
100
AcDbLine
 10
2380.868613758006
 20
937.1274180582993
 30
0.0
 11
2382.141405964141
 21
937.862185358939
 31
0.0
  0
LINE
  5
799
330
6BD
100
AcDbEntity
  8
0
  6
Continuous
 62
     7
370
    15
100
AcDbLine
 10
2382.601025371912
 20
938.3045214262308
 30
0.0
 11
2382.141405964141
 21
937.862185358939
 31
0.0
  0
LINE
  5
79A
330
6BD
100
AcDbEntity
  8
0
  6
Continuous
 62
     7
370
    15
100
AcDbLine
 10
2380.797903079888
 20
936.9232762203246
 30
0.0
 11
2382.070695286022
 21
937.6580435209643
 31
0.0
  0
ARC
  5
79B
330
6BD
100
AcDbEntity
  8
0
  6
Continuous
 62
     7
370
    15
100
AcDbCircle
 10
2382.348810552048
 20
937.6760272228182
 30
0.0
 40
0.2786960974406933
100
AcDbArc
 50
138.0901084386387
 51
183.6997526558526
  0
LINE
  5
79C
330
6BD
100
AcDbEntity
  8
0
  6
Continuous
 62
     7
370
    15
100
AcDbLine
 10
2382.070695286022
 20
933.9563918404156
 30
0.0
 11
2380.797903079888
 21
933.2216245397759
 31
0.0
  0
LINE
  5
79D
330
6BD
100
AcDbEntity
  8
0
  6
Continuous
 62
     7
370
    15
100
AcDbLine
 10
2382.070695286022
 20
933.9563918404156
 30
0.0
 11
2382.070695286022
 21
937.6580435209643
 31
0.0
  0
ARC
  5
79E
330
6BD
100
AcDbEntity
  8
0
  6
Continuous
 62
     7
370
    15
100
AcDbCircle
 10
2381.82569433688
 20
933.9293484708191
 30
0.0
 40
0.2464889630790854
100
AcDbArc
 50
305.0133326102833
 51
6.29884778307163
  0
LINE
  5
79F
330
6BD
100
AcDbEntity
  8
0
  6
Continuous
 62
     7
370
    15
100
AcDbLine
 10
2367.05174725362
 20
945.8113940144412
 30
0.0
 11
2367.511366661392
 21
944.8383926744645
 31
0.0
  0
ARC
  5
7A0
330
6BD
100
AcDbEntity
  8
0
  6
Continuous
 62
     7
370
    15
100
AcDbCircle
 10
2367.666567527425
 20
946.1151571015896
 30
0.0
 40
0.6857667112037511
100
AcDbArc
 50
181.5024370062548
 51
206.292508478209
  0
LINE
  5
7A1
330
6BD
100
AcDbEntity
  8
0
  6
Continuous
 62
     7
370
    15
100
AcDbLine
 10
2366.981036575502
 20
946.0971766635982
 30
0.0
 11
2366.981036575502
 21
947.852892014224
 31
0.0
  0
LINE
  5
7A2
330
6BD
100
AcDbEntity
  8
0
  6
Continuous
 62
     7
370
    15
100
AcDbLine
 10
2370.792342126098
 20
946.3588651695907
 30
0.0
 11
2370.792342126098
 21
943.8969568022359
 31
0.0
  0
ARC
  5
7A3
330
6BD
100
AcDbEntity
  8
0
  6
Continuous
 62
     7
370
    15
100
AcDbCircle
 10
2370.514226860072
 20
943.8789731003826
 30
0.0
 40
0.2786960974420385
100
AcDbArc
 50
318.090108438754
 51
3.699752655720985
  0
LINE
  5
7A4
330
6BD
100
AcDbEntity
  8
0
  6
Continuous
 62
     7
370
    15
100
AcDbLine
 10
2370.262012040208
 20
943.2504788969696
 30
0.0
 11
2370.721631447979
 21
943.6928149642612
 31
0.0
  0
ARC
  5
7A5
330
6BD
100
AcDbEntity
  8
0
  6
Continuous
 62
     7
370
    15
100
AcDbCircle
 10
2370.469416628116
 20
943.0643207608481
 30
0.0
 40
0.2786960974427631
100
AcDbArc
 50
138.0901084388227
 51
183.699752655669
  0
LINE
  5
7A6
330
6BD
100
AcDbEntity
  8
0
  6
Continuous
 62
     7
370
    15
100
AcDbLine
 10
2370.191301362089
 20
943.0463370589949
 30
0.0
 11
2370.191301362089
 21
939.3446853784464
 31
0.0
  0
ARC
  5
7A7
330
6BD
100
AcDbEntity
  8
0
  6
Continuous
 62
     7
370
    15
100
AcDbCircle
 10
2369.975764178376
 20
939.3097217799962
 30
0.0
 40
0.2183545987143696
100
AcDbArc
 50
230.79671476437
 51
9.214036990417787
  0
LINE
  5
7A8
330
6BD
100
AcDbEntity
  8
0
  6
Continuous
 62
     7
370
    15
100
AcDbLine
 10
2369.837747971496
 20
939.1405170004588
 30
0.0
 11
2367.935630730103
 21
940.2385859108608
 31
0.0
  0
ARC
  5
7A9
330
6BD
100
AcDbEntity
  8
0
  6
Continuous
 62
     7
370
    15
100
AcDbCircle
 10
2368.349685390194
 20
940.8858887708898
 30
0.0
 40
0.7684024037862604
100
AcDbArc
 50
182.6054784856889
 51
237.3945216599663
  0
LINE
  5
7AA
330
6BD
100
AcDbEntity
  8
0
  6
Continuous
 62
     7
370
    15
100
AcDbLine
 10
2367.58207733951
 20
940.8509583447592
 30
0.0
 11
2367.58207733951
 21
944.5526100253076
 31
0.0
  0
ARC
  5
7AB
330
6BD
100
AcDbEntity
  8
0
  6
Continuous
 62
     7
370
    15
100
AcDbCircle
 10
2366.896546387582
 20
944.5346295873148
 30
0.0
 40
0.6857667112081183
100
AcDbArc
 50
1.502437006352528
 51
26.29250847815652
  0
LINE
  5
7AC
330
6BD
100
AcDbEntity
  8
0
  6
Continuous
 62
     7
370
    15
100
AcDbLine
 10
2372.065134332232
 20
944.6317241028758
 30
0.0
 11
2370.792342126098
 21
943.8969568022359
 31
0.0
  0
LINE
  5
7AD
330
6BD
100
AcDbEntity
  8
0
  6
Continuous
 62
     7
370
    15
100
AcDbLine
 10
2372.065134332232
 20
944.6317241028758
 30
0.0
 11
2372.065134332232
 21
947.0936324702304
 31
0.0
  0
LINE
  5
7AE
330
6BD
100
AcDbEntity
  8
0
  6
Continuous
 62
     7
370
    15
100
AcDbLine
 10
2362.473230845436
 20
953.8024661291329
 30
0.0
 11
2359.574093042571
 21
952.1288294998964
 31
0.0
  0
LINE
  5
7AF
330
6BD
100
AcDbEntity
  8
0
  6
Continuous
 62
     7
370
    15
100
AcDbLine
 10
2362.473230845436
 20
953.8024661291329
 30
0.0
 11
2362.473230845436
 21
960.5802989380432
 31
0.0
  0
LINE
  5
7B0
330
6BD
100
AcDbEntity
  8
0
  6
Continuous
 62
     7
370
    15
100
AcDbLine
 10
2370.721631447979
 20
943.6928149642612
 30
0.0
 11
2371.994423654114
 21
944.4275822649011
 31
0.0
  0
ARC
  5
7B1
330
6BD
100
AcDbEntity
  8
0
  6
Continuous
 62
     7
370
    15
100
AcDbCircle
 10
2371.787019066207
 20
944.6137404010221
 30
0.0
 40
0.2786960974413295
100
AcDbArc
 50
318.0901084386804
 51
3.699752655779487
  0
LINE
  5
7B2
330
6BD
100
AcDbEntity
  8
0
  6
Continuous
 62
     7
370
    15
100
AcDbLine
 10
2370.262012040208
 20
943.2504788969696
 30
0.0
 11
2371.534804246342
 21
943.9852461976093
 31
0.0
  0
LINE
  5
7B3
330
6BD
100
AcDbEntity
  8
0
  6
Continuous
 62
     7
370
    15
100
AcDbLine
 10
2371.994423654114
 20
944.4275822649011
 30
0.0
 11
2371.534804246342
 21
943.9852461976093
 31
0.0
  0
LINE
  5
7B4
330
6BD
100
AcDbEntity
  8
0
  6
Continuous
 62
     7
370
    15
100
AcDbLine
 10
2370.191301362089
 20
943.0463370589949
 30
0.0
 11
2371.464093568224
 21
943.7811043596346
 31
0.0
  0
ARC
  5
7B5
330
6BD
100
AcDbEntity
  8
0
  6
Continuous
 62
     7
370
    15
100
AcDbCircle
 10
2371.74220883425
 20
943.7990880614883
 30
0.0
 40
0.27869609744156
100
AcDbArc
 50
138.0901084387172
 51
183.6997526557925
  0
LINE
  5
7B6
330
6BD
100
AcDbEntity
  8
0
  6
Continuous
 62
     7
370
    15
100
AcDbLine
 10
2371.464093568224
 20
940.0794526790859
 30
0.0
 11
2370.191301362089
 21
939.3446853784464
 31
0.0
  0
LINE
  5
7B7
330
6BD
100
AcDbEntity
  8
0
  6
Continuous
 62
     7
370
    15
100
AcDbLine
 10
2371.464093568224
 20
940.0794526790859
 30
0.0
 11
2371.464093568224
 21
943.7811043596346
 31
0.0
  0
ARC
  5
7B8
330
6BD
100
AcDbEntity
  8
0
  6
Continuous
 62
     7
370
    15
100
AcDbCircle
 10
2371.219092619453
 20
940.052409309321
 30
0.0
 40
0.24648896272775
100
AcDbArc
 50
305.013332561922
 51
6.298847831468625
  0
LINE
  5
7B9
330
6BD
100
AcDbEntity
  8
0
  6
Continuous
 62
     7
370
    15
100
AcDbLine
 10
2356.445145535822
 20
951.9344548531115
 30
0.0
 11
2356.904764943593
 21
950.9614535131349
 31
0.0
  0
ARC
  5
7BA
330
6BD
100
AcDbEntity
  8
0
  6
Continuous
 62
     7
370
    15
100
AcDbCircle
 10
2357.059965809626
 20
952.2382179402598
 30
0.0
 40
0.6857667112031319
100
AcDbArc
 50
181.5024370062483
 51
206.2925084782206
  0
LINE
  5
7BB
330
6BD
100
AcDbEntity
  8
0
  6
Continuous
 62
     7
370
    15
100
AcDbLine
 10
2356.374434857704
 20
952.2202375022684
 30
0.0
 11
2356.374434857704
 21
953.9759528528943
 31
0.0
  0
LINE
  5
7BC
330
6BD
100
AcDbEntity
  8
0
  6
Continuous
 62
     7
370
    15
100
AcDbLine
 10
2360.1857404083
 20
952.481926008261
 30
0.0
 11
2360.1857404083
 21
950.0200176409062
 31
0.0
  0
ARC
  5
7BD
330
6BD
100
AcDbEntity
  8
0
  6
Continuous
 62
     7
370
    15
100
AcDbCircle
 10
2359.907625142273
 20
950.0020339390529
 30
0.0
 40
0.2786960974420952
100
AcDbArc
 50
318.0901084387588
 51
3.699752655720985
  0
LINE
  5
7BE
330
6BD
100
AcDbEntity
  8
0
  6
Continuous
 62
     7
370
    15
100
AcDbLine
 10
2359.65541032241
 20
949.3735397356399
 30
0.0
 11
2360.115029730181
 21
949.8158758029317
 31
0.0
  0
ARC
  5
7BF
330
6BD
100
AcDbEntity
  8
0
  6
Continuous
 62
     7
370
    15
100
AcDbCircle
 10
2359.862814910318
 20
949.1873815995186
 30
0.0
 40
0.2786960974421539
100
AcDbArc
 50
138.0901084387539
 51
183.699752655721
  0
LINE
  5
7C0
330
6BD
100
AcDbEntity
  8
0
  6
Continuous
 62
     7
370
    15
100
AcDbLine
 10
2359.584699644291
 20
949.1693978976652
 30
0.0
 11
2359.584699644291
 21
945.4677462171167
 31
0.0
  0
ARC
  5
7C1
330
6BD
100
AcDbEntity
  8
0
  6
Continuous
 62
     7
370
    15
100
AcDbCircle
 10
2359.369162460578
 20
945.4327826186665
 30
0.0
 40
0.2183545987143777
100
AcDbArc
 50
230.7967147643985
 51
9.214036990404927
  0
LINE
  5
7C2
330
6BD
100
AcDbEntity
  8
0
  6
Continuous
 62
     7
370
    15
100
AcDbLine
 10
2359.231146253698
 20
945.2635778391293
 30
0.0
 11
2357.329029012305
 21
946.3616467495311
 31
0.0
  0
ARC
  5
7C3
330
6BD
100
AcDbEntity
  8
0
  6
Continuous
 62
     7
370
    15
100
AcDbCircle
 10
2357.743083672396
 20
947.0089496095605
 30
0.0
 40
0.7684024037866269
100
AcDbArc
 50
182.6054784857019
 51
237.3945216599444
  0
LINE
  5
7C4
330
6BD
100
AcDbEntity
  8
0
  6
Continuous
 62
     7
370
    15
100
AcDbLine
 10
2356.975475621712
 20
946.9740191834294
 30
0.0
 11
2356.975475621712
 21
950.675670863978
 31
0.0
  0
ARC
  5
7C5
330
6BD
100
AcDbEntity
  8
0
  6
Continuous
 62
     7
370
    15
100
AcDbCircle
 10
2356.289944669786
 20
950.6576904259857
 30
0.0
 40
0.6857667112066724
100
AcDbArc
 50
1.502437006326481
 51
26.29250847818559
  0
LINE
  5
7C6
330
6BD
100
AcDbEntity
  8
0
  6
Continuous
 62
     7
370
    15
100
AcDbLine
 10
2361.458532614435
 20
950.7547849415459
 30
0.0
 11
2360.1857404083
 21
950.0200176409062
 31
0.0
  0
LINE
  5
7C7
330
6BD
100
AcDbEntity
  8
0
  6
Continuous
 62
     7
370
    15
100
AcDbLine
 10
2361.458532614435
 20
950.7547849415459
 30
0.0
 11
2361.458532614435
 21
953.2166933089007
 31
0.0
  0
LINE
  5
7C8
330
6BD
100
AcDbEntity
  8
0
  6
Continuous
 62
     7
370
    15
100
AcDbLine
 10
2351.866629127638
 20
959.9255269678033
 30
0.0
 11
2348.967491324773
 21
958.2518903385667
 31
0.0
  0
LINE
  5
7C9
330
6BD
100
AcDbEntity
  8
0
  6
Continuous
 62
     7
370
    15
100
AcDbLine
 10
2351.866629127638
 20
959.9255269678033
 30
0.0
 11
2351.866629127638
 21
966.7033597767135
 31
0.0
  0
LINE
  5
7CA
330
6BD
100
AcDbEntity
  8
0
  6
Continuous
 62
     7
370
    15
100
AcDbLine
 10
2360.115029730181
 20
949.8158758029317
 30
0.0
 11
2361.387821936316
 21
950.5506431035714
 31
0.0
  0
ARC
  5
7CB
330
6BD
100
AcDbEntity
  8
0
  6
Continuous
 62
     7
370
    15
100
AcDbCircle
 10
2361.180417348407
 20
950.7368012396927
 30
0.0
 40
0.2786960974421771
100
AcDbArc
 50
318.0901084387636
 51
3.699752655707984
  0
LINE
  5
7CC
330
6BD
100
AcDbEntity
  8
0
  6
Continuous
 62
     7
370
    15
100
AcDbLine
 10
2359.65541032241
 20
949.3735397356399
 30
0.0
 11
2360.928202528544
 21
950.1083070362797
 31
0.0
  0
LINE
  5
7CD
330
6BD
100
AcDbEntity
  8
0
  6
Continuous
 62
     7
370
    15
100
AcDbLine
 10
2361.387821936316
 20
950.5506431035714
 30
0.0
 11
2360.928202528544
 21
950.1083070362797
 31
0.0
  0
LINE
  5
7CE
330
6BD
100
AcDbEntity
  8
0
  6
Continuous
 62
     7
370
    15
100
AcDbLine
 10
2359.584699644291
 20
949.1693978976652
 30
0.0
 11
2360.857491850426
 21
949.904165198305
 31
0.0
  0
ARC
  5
7CF
330
6BD
100
AcDbEntity
  8
0
  6
Continuous
 62
     7
370
    15
100
AcDbCircle
 10
2361.135607116452
 20
949.9221489001586
 30
0.0
 40
0.2786960974415789
100
AcDbArc
 50
138.0901084387172
 51
183.6997526557859
  0
LINE
  5
7D0
330
6BD
100
AcDbEntity
  8
0
  6
Continuous
 62
     7
370
    15
100
AcDbLine
 10
2360.857491850426
 20
946.2025135177563
 30
0.0
 11
2359.584699644291
 21
945.4677462171167
 31
0.0
  0
LINE
  5
7D1
330
6BD
100
AcDbEntity
  8
0
  6
Continuous
 62
     7
370
    15
100
AcDbLine
 10
2360.857491850426
 20
946.2025135177563
 30
0.0
 11
2360.857491850426
 21
949.904165198305
 31
0.0
  0
ARC
  5
7D2
330
6BD
100
AcDbEntity
  8
0
  6
Continuous
 62
     7
370
    15
100
AcDbCircle
 10
2360.61249090152
 20
946.1754701480529
 30
0.0
 40
0.246488962856201
100
AcDbArc
 50
305.0133325796097
 51
6.298847813776063
  0
LINE
  5
7D3
330
6BD
100
AcDbEntity
  8
0
  6
Continuous
 62
     7
370
    15
100
AcDbLine
 10
2345.838543818024
 20
958.0575156917818
 30
0.0
 11
2346.298163225795
 21
957.0845143518052
 31
0.0
  0
ARC
  5
7D4
330
6BD
100
AcDbEntity
  8
0
  6
Continuous
 62
     7
370
    15
100
AcDbCircle
 10
2346.45336409183
 20
958.3612787789308
 30
0.0
 40
0.6857667112056398
100
AcDbArc
 50
181.5024370062939
 51
206.2925084781797
  0
LINE
  5
7D5
330
6BD
100
AcDbEntity
  8
0
  6
Continuous
 62
     7
370
    15
100
AcDbLine
 10
2345.767833139905
 20
958.3432983409387
 30
0.0
 11
2345.767833139905
 21
960.0990136915648
 31
0.0
  0
LINE
  5
7D6
330
6BD
100
AcDbEntity
  8
0
  6
Continuous
 62
     7
370
    15
100
AcDbLine
 10
2349.579138690502
 20
958.6049868469315
 30
0.0
 11
2349.579138690502
 21
956.1430784795765
 31
0.0
  0
ARC
  5
7D7
330
6BD
100
AcDbEntity
  8
0
  6
Continuous
 62
     7
370
    15
100
AcDbCircle
 10
2349.301023424476
 20
956.1250947777232
 30
0.0
 40
0.2786960974413907
100
AcDbArc
 50
318.0901084386853
 51
3.699752655766486
  0
LINE
  5
7D8
330
6BD
100
AcDbEntity
  8
0
  6
Continuous
 62
     7
370
    15
100
AcDbLine
 10
2349.048808604612
 20
955.4966005743102
 30
0.0
 11
2349.508428012383
 21
955.938936641602
 31
0.0
  0
ARC
  5
7D9
330
6BD
100
AcDbEntity
  8
0
  6
Continuous
 62
     7
370
    15
100
AcDbCircle
 10
2349.25621319252
 20
955.3104424381889
 30
0.0
 40
0.2786960974421306
100
AcDbArc
 50
138.0901084387491
 51
183.699752655721
  0
LINE
  5
7DA
330
6BD
100
AcDbEntity
  8
0
  6
Continuous
 62
     7
370
    15
100
AcDbLine
 10
2348.978097926493
 20
955.2924587363355
 30
0.0
 11
2348.978097926493
 21
951.590807055787
 31
0.0
  0
ARC
  5
7DB
330
6BD
100
AcDbEntity
  8
0
  6
Continuous
 62
     7
370
    15
100
AcDbCircle
 10
2348.76256074278
 20
951.5558434573367
 30
0.0
 40
0.2183545987144275
100
AcDbArc
 50
230.7967147643659
 51
9.214036990417787
  0
LINE
  5
7DC
330
6BD
100
AcDbEntity
  8
0
  6
Continuous
 62
     7
370
    15
100
AcDbLine
 10
2348.6245445359
 20
951.3866386777996
 30
0.0
 11
2346.722427294507
 21
952.4847075882016
 31
0.0
  0
ARC
  5
7DD
330
6BD
100
AcDbEntity
  8
0
  6
Continuous
 62
     7
370
    15
100
AcDbCircle
 10
2347.136481954598
 20
953.1320104482306
 30
0.0
 40
0.7684024037866203
100
AcDbArc
 50
182.6054784856889
 51
237.3945216599409
  0
LINE
  5
7DE
330
6BD
100
AcDbEntity
  8
0
  6
Continuous
 62
     7
370
    15
100
AcDbLine
 10
2346.368873903914
 20
953.0970800220998
 30
0.0
 11
2346.368873903914
 21
956.7987317026483
 31
0.0
  0
ARC
  5
7DF
330
6BD
100
AcDbEntity
  8
0
  6
Continuous
 62
     7
370
    15
100
AcDbCircle
 10
2345.683342951987
 20
956.7807512646558
 30
0.0
 40
0.6857667112071387
100
AcDbArc
 50
1.502437006339504
 51
26.29250847817974
  0
LINE
  5
7E0
330
6BD
100
AcDbEntity
  8
0
  6
Continuous
 62
     7
370
    15
100
AcDbLine
 10
2350.851930896636
 20
956.8778457802164
 30
0.0
 11
2349.579138690502
 21
956.1430784795765
 31
0.0
  0
LINE
  5
7E1
330
6BD
100
AcDbEntity
  8
0
  6
Continuous
 62
     7
370
    15
100
AcDbLine
 10
2350.851930896636
 20
956.8778457802164
 30
0.0
 11
2350.851930896636
 21
959.3397541475709
 31
0.0
  0
LINE
  5
7E2
330
6BD
100
AcDbEntity
  8
0
  6
Continuous
 62
     7
370
    15
100
AcDbLine
 10
2341.260027409839
 20
966.0485878064735
 30
0.0
 11
2338.360889606974
 21
964.3749511772369
 31
0.0
  0
LINE
  5
7E3
330
6BD
100
AcDbEntity
  8
0
  6
Continuous
 62
     7
370
    15
100
AcDbLine
 10
2341.260027409839
 20
966.0485878064735
 30
0.0
 11
2341.260027409839
 21
972.8264206153838
 31
0.0
  0
LINE
  5
7E4
330
6BD
100
AcDbEntity
  8
0
  6
Continuous
 62
     7
370
    15
100
AcDbLine
 10
2349.508428012383
 20
955.938936641602
 30
0.0
 11
2350.781220218518
 21
956.6737039422417
 31
0.0
  0
ARC
  5
7E5
330
6BD
100
AcDbEntity
  8
0
  6
Continuous
 62
     7
370
    15
100
AcDbCircle
 10
2350.57381563061
 20
956.8598620783628
 30
0.0
 40
0.278696097441592
100
AcDbArc
 50
318.0901084387075
 51
3.699752655746985
  0
LINE
  5
7E6
330
6BD
100
AcDbEntity
  8
0
  6
Continuous
 62
     7
370
    15
100
AcDbLine
 10
2349.048808604612
 20
955.4966005743102
 30
0.0
 11
2350.321600810746
 21
956.23136787495
 31
0.0
  0
LINE
  5
7E7
330
6BD
100
AcDbEntity
  8
0
  6
Continuous
 62
     7
370
    15
100
AcDbLine
 10
2350.781220218518
 20
956.6737039422417
 30
0.0
 11
2350.321600810746
 21
956.23136787495
 31
0.0
  0
LINE
  5
7E8
330
6BD
100
AcDbEntity
  8
0
  6
Continuous
 62
     7
370
    15
100
AcDbLine
 10
2348.978097926493
 20
955.2924587363355
 30
0.0
 11
2350.250890132628
 21
956.0272260369751
 31
0.0
  0
ARC
  5
7E9
330
6BD
100
AcDbEntity
  8
0
  6
Continuous
 62
     7
370
    15
100
AcDbCircle
 10
2350.529005398653
 20
956.045209738829
 30
0.0
 40
0.2786960974409005
100
AcDbArc
 50
138.0901084386658
 51
183.6997526558461
  0
LINE
  5
7EA
330
6BD
100
AcDbEntity
  8
0
  6
Continuous
 62
     7
370
    15
100
AcDbLine
 10
2350.250890132628
 20
952.3255743564266
 30
0.0
 11
2348.978097926493
 21
951.590807055787
 31
0.0
  0
LINE
  5
7EB
330
6BD
100
AcDbEntity
  8
0
  6
Continuous
 62
     7
370
    15
100
AcDbLine
 10
2350.250890132628
 20
952.3255743564266
 30
0.0
 11
2350.250890132628
 21
956.0272260369751
 31
0.0
  0
ARC
  5
7EC
330
6BD
100
AcDbEntity
  8
0
  6
Continuous
 62
     7
370
    15
100
AcDbCircle
 10
2350.005889183721
 20
952.2985309867234
 30
0.0
 40
0.2464889628563112
100
AcDbArc
 50
305.0133325796385
 51
6.29884781375664
  0
LINE
  5
7ED
330
6BD
100
AcDbEntity
  8
0
  6
Continuous
 62
     7
370
    15
100
AcDbLine
 10
2335.231942100226
 20
964.1805765304521
 30
0.0
 11
2335.691561507997
 21
963.2075751904755
 31
0.0
  0
ARC
  5
7EE
330
6BD
100
AcDbEntity
  8
0
  6
Continuous
 62
     7
370
    15
100
AcDbCircle
 10
2335.846762374033
 20
964.4843396176012
 30
0.0
 40
0.685766711206442
100
AcDbArc
 50
181.5024370063134
 51
206.2925084781797
  0
LINE
  5
7EF
330
6BD
100
AcDbEntity
  8
0
  6
Continuous
 62
     7
370
    15
100
AcDbLine
 10
2335.161231422107
 20
966.222074530235
 30
0.0
 11
2335.161231422107
 21
964.466359179609
 31
0.0
  0
LINE
  5
7F0
330
6BD
100
AcDbEntity
  8
0
  6
Continuous
 62
     7
370
    15
100
AcDbLine
 10
2338.972536972704
 20
962.266139318247
 30
0.0
 11
2338.972536972704
 21
964.7280476856018
 31
0.0
  0
ARC
  5
7F1
330
6BD
100
AcDbEntity
  8
0
  6
Continuous
 62
     7
370
    15
100
AcDbCircle
 10
2338.694421706676
 20
962.2481556163936
 30
0.0
 40
0.2786960974422617
100
AcDbArc
 50
318.0901084387636
 51
3.699752655701484
  0
LINE
  5
7F2
330
6BD
100
AcDbEntity
  8
0
  6
Continuous
 62
     7
370
    15
100
AcDbLine
 10
2338.442206886814
 20
961.6196614129805
 30
0.0
 11
2338.901826294585
 21
962.0619974802723
 31
0.0
  0
ARC
  5
7F3
330
6BD
100
AcDbEntity
  8
0
  6
Continuous
 62
     7
370
    15
100
AcDbCircle
 10
2338.649611474723
 20
961.433503276859
 30
0.0
 40
0.2786960974430449
100
AcDbArc
 50
138.0901084388644
 51
183.699752655656
  0
LINE
  5
7F4
330
6BD
100
AcDbEntity
  8
0
  6
Continuous
 62
     7
370
    15
100
AcDbLine
 10
2338.371496208695
 20
961.4155195750058
 30
0.0
 11
2338.371496208695
 21
957.7138678944573
 31
0.0
  0
ARC
  5
7F5
330
6BD
100
AcDbEntity
  8
0
  6
Continuous
 62
     7
370
    15
100
AcDbCircle
 10
2338.155959024982
 20
957.678904296007
 30
0.0
 40
0.2183545987143051
100
AcDbArc
 50
230.7967147643659
 51
9.214036990456367
  0
LINE
  5
7F6
330
6BD
100
AcDbEntity
  8
0
  6
Continuous
 62
     7
370
    15
100
AcDbLine
 10
2338.017942818102
 20
957.5096995164699
 30
0.0
 11
2336.115825576709
 21
958.6077684268719
 31
0.0
  0
ARC
  5
7F7
330
6BD
100
AcDbEntity
  8
0
  6
Continuous
 62
     7
370
    15
100
AcDbCircle
 10
2336.529880236799
 20
959.2550712869005
 30
0.0
 40
0.7684024037859398
100
AcDbArc
 50
182.6054784856694
 51
237.3945216599699
  0
LINE
  5
7F8
330
6BD
100
AcDbEntity
  8
0
  6
Continuous
 62
     7
370
    15
100
AcDbLine
 10
2335.762272186116
 20
959.2201408607701
 30
0.0
 11
2335.762272186116
 21
962.9217925413186
 31
0.0
  0
ARC
  5
7F9
330
6BD
100
AcDbEntity
  8
0
  6
Continuous
 62
     7
370
    15
100
AcDbCircle
 10
2335.07674123419
 20
962.9038121033262
 30
0.0
 40
0.6857667112064436
100
AcDbArc
 50
1.50243700631997
 51
26.29250847818559
  0
LINE
  5
7FA
330
6BD
100
AcDbEntity
  8
0
  6
Continuous
 62
     7
370
    15
100
AcDbLine
 10
2340.245329178838
 20
963.0009066188867
 30
0.0
 11
2338.972536972704
 21
962.266139318247
 31
0.0
  0
LINE
  5
7FB
330
6BD
100
AcDbEntity
  8
0
  6
Continuous
 62
     7
370
    15
100
AcDbLine
 10
2340.245329178838
 20
965.4628149862414
 30
0.0
 11
2340.245329178838
 21
963.0009066188867
 31
0.0
  0
LINE
  5
7FC
330
6BD
100
AcDbEntity
  8
0
  6
Continuous
 62
     7
370
    15
100
AcDbLine
 10
2338.901826294585
 20
962.0619974802723
 30
0.0
 11
2340.174618500719
 21
962.796764780912
 31
0.0
  0
ARC
  5
7FD
330
6BD
100
AcDbEntity
  8
0
  6
Continuous
 62
     7
370
    15
100
AcDbCircle
 10
2339.967213912812
 20
962.9829229170331
 30
0.0
 40
0.278696097441395
100
AcDbArc
 50
318.0901084387075
 51
3.699752655779487
  0
LINE
  5
7FE
330
6BD
100
AcDbEntity
  8
0
  6
Continuous
 62
     7
370
    15
100
AcDbLine
 10
2339.714999092948
 20
962.3544287136203
 30
0.0
 11
2338.442206886814
 21
961.6196614129805
 31
0.0
  0
LINE
  5
7FF
330
6BD
100
AcDbEntity
  8
0
  6
Continuous
 62
     7
370
    15
100
AcDbLine
 10
2340.174618500719
 20
962.796764780912
 30
0.0
 11
2339.714999092948
 21
962.3544287136203
 31
0.0
  0
LINE
  5
800
330
6BD
100
AcDbEntity
  8
0
  6
Continuous
 62
     7
370
    15
100
AcDbLine
 10
2338.371496208695
 20
961.4155195750058
 30
0.0
 11
2339.644288414829
 21
962.1502868756456
 31
0.0
  0
ARC
  5
801
330
6BD
100
AcDbEntity
  8
0
  6
Continuous
 62
     7
370
    15
100
AcDbCircle
 10
2339.922403680855
 20
962.1682705774992
 30
0.0
 40
0.2786960974414328
100
AcDbArc
 50
138.0901084387074
 51
183.6997526557859
  0
LINE
  5
802
330
6BD
100
AcDbEntity
  8
0
  6
Continuous
 62
     7
370
    15
100
AcDbLine
 10
2339.644288414829
 20
958.4486351950969
 30
0.0
 11
2338.371496208695
 21
957.7138678944573
 31
0.0
  0
LINE
  5
803
330
6BD
100
AcDbEntity
  8
0
  6
Continuous
 62
     7
370
    15
100
AcDbLine
 10
2339.644288414829
 20
958.4486351950969
 30
0.0
 11
2339.644288414829
 21
962.1502868756456
 31
0.0
  0
ARC
  5
804
330
6BD
100
AcDbEntity
  8
0
  6
Continuous
 62
     7
370
    15
100
AcDbCircle
 10
2339.399287466059
 20
958.421591825332
 30
0.0
 40
0.2464889627275334
100
AcDbArc
 50
305.0133325618895
 51
6.298847831488049
  0
ENDBLK
  5
6BF
330
6BD
100
AcDbEntity
  8
0
100
AcDbBlockEnd
  0
ENDSEC
  0
SECTION
  2
ENTITIES
  0
INSERT
  5
693
330
1F
100
AcDbEntity
  8
0
100
AcDbBlockReference
  2
1
 10
0.0
 20
0.0
 30
0.0
  0
INSERT
  5
6B4
330
1F
100
AcDbEntity
  8
0
100
AcDbBlockReference
  2
2
 10
0.0
 20
0.0
 30
0.0
  0
INSERT
  5
6BC
330
1F
100
AcDbEntity
  8
0
100
AcDbBlockReference
  2
3
 10
0.0
 20
0.0
 30
0.0
  0
INSERT
  5
805
330
1F
100
AcDbEntity
  8
0
100
AcDbBlockReference
  2
4
 10
0.0
 20
0.0
 30
0.0
  0
ENDSEC
  0
SECTION
  2
OBJECTS
  0
DICTIONARY
  5
C
330
0
100
AcDbDictionary
281
     1
  3
ACAD_COLOR
350
6B
  3
ACAD_GROUP
350
D
  3
ACAD_LAYOUT
350
1A
  3
ACAD_MATERIAL
350
6A
  3
ACAD_MLEADERSTYLE
350
12D
  3
ACAD_MLINESTYLE
350
17
  3
ACAD_PLOTSETTINGS
350
19
  3
ACAD_PLOTSTYLENAME
350
E
  3
ACAD_SCALELIST
350
10C
  3
ACAD_TABLESTYLE
350
7E
  3
ACAD_VISUALSTYLE
350
EF
  3
ACDB_RECOMPOSE_DATA
350
15D
  3
AcDbVariableDictionary
350
5E
  3
DWGPROPS
350
813
  0
DICTIONARY
  5
13C
330
10
100
AcDbDictionary
280
     1
281
     1
  3
ADSK_XREC_LAYER_RECONCILED
360
806
  0
DICTIONARY
  5
6B
102
{ACAD_REACTORS
330
C
102
}
330
C
100
AcDbDictionary
281
     1
  0
DICTIONARY
  5
D
102
{ACAD_REACTORS
330
C
102
}
330
C
100
AcDbDictionary
281
     1
  0
DICTIONARY
  5
1A
102
{ACAD_REACTORS
330
C
102
}
330
C
100
AcDbDictionary
281
     1
  3
Layout1
350
D3
  3
Layout2
350
D7
  3
Model
350
22
  0
DICTIONARY
  5
6A
102
{ACAD_REACTORS
330
C
102
}
330
C
100
AcDbDictionary
281
     1
  3
ByBlock
350
ED
  3
ByLayer
350
EC
  3
Global
350
EE
  0
DICTIONARY
  5
12D
102
{ACAD_REACTORS
330
C
102
}
330
C
100
AcDbDictionary
281
     1
  3
Annotative
350
13B
  3
Standard
350
12E
  0
DICTIONARY
  5
17
102
{ACAD_REACTORS
330
C
102
}
330
C
100
AcDbDictionary
281
     1
  3
Standard
350
18
  0
DICTIONARY
  5
19
102
{ACAD_REACTORS
330
C
102
}
330
C
100
AcDbDictionary
281
     1
  0
ACDBDICTIONARYWDFLT
  5
E
102
{ACAD_REACTORS
330
C
102
}
330
C
100
AcDbDictionary
281
     1
  3
Normal
350
F
100
AcDbDictionaryWithDefault
340
F
  0
DICTIONARY
  5
10C
102
{ACAD_REACTORS
330
C
102
}
330
C
100
AcDbDictionary
281
     1
  3
A0
350
10D
  3
A1
350
188
  3
A2
350
189
  3
A3
350
18A
  3
A4
350
18B
  3
A5
350
18C
  3
A6
350
18D
  3
A7
350
18E
  3
A8
350
18F
  3
A9
350
190
  3
B0
350
191
  3
B1
350
192
  3
B2
350
193
  3
B3
350
194
  3
B4
350
195
  3
B5
350
196
  3
B6
350
197
  3
B7
350
198
  3
B8
350
199
  3
B9
350
19A
  3
C0
350
19B
  3
C1
350
19C
  3
C2
350
19D
  3
C3
350
19E
  3
C4
350
19F
  3
C5
350
1A0
  3
C6
350
1A1
  3
C7
350
1A2
  3
C8
350
1A3
  3
C9
350
1A4
  3
D0
350
1A5
  3
D1
350
1A6
  3
D2
350
1A7
  0
DICTIONARY
  5
7E
102
{ACAD_REACTORS
330
C
102
}
330
C
100
AcDbDictionary
281
     1
  3
Standard
350
7F
  0
DICTIONARY
  5
EF
102
{ACAD_REACTORS
330
C
102
}
330
C
100
AcDbDictionary
281
     1
  3
2dWireframe
350
F5
  3
3D Hidden
350
F7
  3
3dWireframe
350
F6
  3
Basic
350
F4
  3
Brighten
350
FB
  3
ColorChange
350
FF
  3
Conceptual
350
F8
  3
Dim
350
FA
  3
Facepattern
350
FE
  3
Flat
350
F0
  3
FlatWithEdges
350
F1
  3
Gouraud
350
F2
  3
GouraudWithEdges
350
F3
  3
Linepattern
350
FD
  3
Realistic
350
F9
  3
Thicken
350
FC
  0
XRECORD
  5
15D
102
{ACAD_REACTORS
330
C
102
}
330
C
100
AcDbXrecord
280
     1
 90
        1
330
7F
  0
DICTIONARY
  5
5E
102
{ACAD_REACTORS
330
C
102
}
330
C
100
AcDbDictionary
281
     1
  3
CANNOSCALE
350
146
  3
CMLEADERSTYLE
350
145
  3
CTABLESTYLE
350
84
  3
DIMASSOC
350
5F
  3
HIDETEXT
350
63
  3
INDEXCTL
350
80F
  3
LIGHTINGUNITS
350
80D
  3
MSLTSCALE
350
80C
  3
PSOLHEIGHT
350
811
  3
PSOLWIDTH
350
810
  3
SORTENTS
350
80E
  0
XRECORD
  5
813
102
{ACAD_REACTORS
330
C
102
}
330
C
100
AcDbXrecord
280
     1
  1
DWGPROPS COOKIE
  2

  3

  4

  6

  7

  8
orhan kara
  9

300
=
301
=
302
=
303
=
304
=
305
=
306
=
307
=
308
=
309
=
 40
0.0005071527777778
 41
2458934.561430741
 42
2458956.453085405
  1

 90
        0
  0
XRECORD
  5
806
102
{ACAD_REACTORS
330
13C
102
}
330
13C
100
AcDbXrecord
280
     1
290
     1
  0
LAYOUT
  5
D3
102
{ACAD_XDICTIONARY
360
817
102
}
102
{ACAD_REACTORS
330
1A
102
}
330
1A
100
AcDbPlotSettings
  1

  2
C:\Documents and Settings\basas\Application Data\Autodesk\AutoCAD 2005\R16.1\enu\plotters\Default Windows System Printer.pc3
  4

  6

 40
0.0
 41
0.0
 42
0.0
 43
0.0
 44
0.0
 45
0.0
 46
0.0
 47
0.0
 48
0.0
 49
0.0
140
0.0
141
0.0
142
1.0
143
1.0
 70
   688
 72
     0
 73
     0
 74
     5
  7

 75
    16
147
1.0
148
0.0
149
0.0
100
AcDbLayout
  1
Layout1
 70
     1
 71
     1
 10
0.0
 20
0.0
 11
12.0
 21
9.0
 12
0.0
 22
0.0
 32
0.0
 14
0.0
 24
0.0
 34
0.0
 15
0.0
 25
0.0
 35
0.0
146
0.0
 13
0.0
 23
0.0
 33
0.0
 16
1.0
 26
0.0
 36
0.0
 17
0.0
 27
1.0
 37
0.0
 76
     0
330
D2
  0
LAYOUT
  5
D7
102
{ACAD_XDICTIONARY
360
819
102
}
102
{ACAD_REACTORS
330
1A
102
}
330
1A
100
AcDbPlotSettings
  1

  2
C:\Documents and Settings\basas\Application Data\Autodesk\AutoCAD 2005\R16.1\enu\plotters\Default Windows System Printer.pc3
  4

  6

 40
0.0
 41
0.0
 42
0.0
 43
0.0
 44
0.0
 45
0.0
 46
0.0
 47
0.0
 48
0.0
 49
0.0
140
0.0
141
0.0
142
1.0
143
1.0
 70
   688
 72
     0
 73
     0
 74
     5
  7

 75
    16
147
1.0
148
0.0
149
0.0
100
AcDbLayout
  1
Layout2
 70
     1
 71
     2
 10
0.0
 20
0.0
 11
12.0
 21
9.0
 12
0.0
 22
0.0
 32
0.0
 14
0.0
 24
0.0
 34
0.0
 15
0.0
 25
0.0
 35
0.0
146
0.0
 13
0.0
 23
0.0
 33
0.0
 16
1.0
 26
0.0
 36
0.0
 17
0.0
 27
1.0
 37
0.0
 76
     0
330
D6
  0
LAYOUT
  5
22
102
{ACAD_XDICTIONARY
360
814
102
}
102
{ACAD_REACTORS
330
1A
102
}
330
1A
100
AcDbPlotSettings
  1

  2
none_device
  4
ISO_A4_(210.00_x_297.00_MM)
  6

 40
7.5
 41
20.0
 42
7.5
 43
20.0
 44
210.0
 45
297.0
 46
11.54999923706054
 47
-13.65000009536743
 48
0.0
 49
0.0
140
0.0
141
0.0
142
1.0
143
8.704084754739808
 70
 11952
 72
     1
 73
     0
 74
     0
  7

 75
     0
147
0.1148885871608098
148
0.0
149
0.0
100
AcDbLayout
  1
Model
 70
     1
 71
     0
 10
0.0
 20
0.0
 11
12.0
 21
9.0
 12
0.0
 22
0.0
 32
0.0
 14
0.0
 24
0.0
 34
0.0
 15
0.0
 25
0.0
 35
0.0
146
0.0
 13
0.0
 23
0.0
 33
0.0
 16
1.0
 26
0.0
 36
0.0
 17
0.0
 27
1.0
 37
0.0
 76
     0
330
1F
331
EA
1001
ACAD_PSEXT
1000
None
1000
None
1000
Not applicable
1000
The layout will not be plotted unless a new plotter configuration name is selected.
1070
     0
  0
MATERIAL
  5
ED
102
{ACAD_XDICTIONARY
360
81D
102
}
102
{ACAD_REACTORS
330
6A
102
}
330
6A
100
AcDbMaterial
  1
ByBlock
  0
MATERIAL
  5
EC
102
{ACAD_XDICTIONARY
360
81B
102
}
102
{ACAD_REACTORS
330
6A
102
}
330
6A
100
AcDbMaterial
  1
ByLayer
  0
MATERIAL
  5
EE
102
{ACAD_XDICTIONARY
360
173
102
}
102
{ACAD_REACTORS
330
6A
102
}
330
6A
100
AcDbMaterial
  1
Global
 43
0.0007999999797903
 43
0.0
 43
0.0
 43
0.0
 43
0.0
 43
0.0007999999797903
 43
0.0
 43
0.0
 43
0.0
 43
0.0
 43
1.0
 43
0.0
 43
0.0
 43
0.0
 43
0.0
 43
1.0
 49
0.0007999999797903
 49
0.0
 49
0.0
 49
0.0
 49
0.0
 49
0.0007999999797903
 49
0.0
 49
0.0
 49
0.0
 49
0.0
 49
1.0
 49
0.0
 49
0.0
 49
0.0
 49
0.0
 49
1.0
142
0.0007999999797903
142
0.0
142
0.0
142
0.0
142
0.0
142
0.0007999999797903
142
0.0
142
0.0
142
0.0
142
0.0
142
1.0
142
0.0
142
0.0
142
0.0
142
0.0
142
1.0
144
0.0007999999797903
144
0.0
144
0.0
144
0.0
144
0.0
144
0.0007999999797903
144
0.0
144
0.0
144
0.0
144
0.0
144
1.0
144
0.0
144
0.0
144
0.0
144
0.0
144
1.0
1001
ACAD
1070
    -1
1070
     3
1070
     0
1000

1071
        0
1070
     0
  0
MLEADERSTYLE
  5
13B
102
{ACAD_REACTORS
330
12D
102
}
330
12D
100
AcDbMLeaderStyle
170
     2
171
     1
172
     0
 90
        2
 40
0.0
 41
0.0
173
     1
 91
-1056964608
340
14
 92
       -2
290
     1
 42
2.0
291
     1
 43
8.0
  3
Standard
 44
4.0
300

342
11
174
     1
178
     1
175
     1
176
     0
 93
-1056964608
 45
4.0
292
     0
297
     0
 46
4.0
 94
-1056964608
 47
1.0
 49
1.0
140
1.0
293
     1
141
0.0
294
     1
177
     0
142
1.0
295
     0
296
     1
143
3.75
1001
ACAD_MLEADERVER
1070
     2
  0
MLEADERSTYLE
  5
12E
102
{ACAD_REACTORS
330
12D
102
}
330
12D
100
AcDbMLeaderStyle
170
     2
171
     1
172
     0
 90
        2
 40
0.0
 41
0.0
173
     1
 91
-1056964608
340
14
 92
       -2
290
     1
 42
2.0
291
     1
 43
8.0
  3
Standard
 44
4.0
300

342
11
174
     1
178
     1
175
     1
176
     0
 93
-1056964608
 45
4.0
292
     0
297
     0
 46
4.0
 94
-1056964608
 47
1.0
 49
1.0
140
1.0
293
     1
141
0.0
294
     1
177
     0
142
1.0
295
     0
296
     0
143
3.75
1001
ACAD_MLEADERVER
1070
     2
  0
MLINESTYLE
  5
18
102
{ACAD_REACTORS
330
17
102
}
330
17
100
AcDbMlineStyle
  2
STANDARD
 70
     0
  3

 62
   256
 51
90.0
 52
90.0
 71
     2
 49
0.5
 62
   256
  6
BYLAYER
 49
-0.5
 62
   256
  6
BYLAYER
  0
ACDBPLACEHOLDER
  5
F
102
{ACAD_REACTORS
330
E
102
}
330
E
  0
SCALE
  5
10D
102
{ACAD_REACTORS
330
10C
102
}
330
10C
100
AcDbScale
 70
     0
300
1:1
140
1.0
141
1.0
290
     1
  0
SCALE
  5
188
102
{ACAD_REACTORS
330
10C
102
}
330
10C
100
AcDbScale
 70
     0
300
1:2
140
1.0
141
2.0
290
     0
  0
SCALE
  5
189
102
{ACAD_REACTORS
330
10C
102
}
330
10C
100
AcDbScale
 70
     0
300
1:4
140
1.0
141
4.0
290
     0
  0
SCALE
  5
18A
102
{ACAD_REACTORS
330
10C
102
}
330
10C
100
AcDbScale
 70
     0
300
1:5
140
1.0
141
5.0
290
     0
  0
SCALE
  5
18B
102
{ACAD_REACTORS
330
10C
102
}
330
10C
100
AcDbScale
 70
     0
300
1:8
140
1.0
141
8.0
290
     0
  0
SCALE
  5
18C
102
{ACAD_REACTORS
330
10C
102
}
330
10C
100
AcDbScale
 70
     0
300
1:10
140
1.0
141
10.0
290
     0
  0
SCALE
  5
18D
102
{ACAD_REACTORS
330
10C
102
}
330
10C
100
AcDbScale
 70
     0
300
1:16
140
1.0
141
16.0
290
     0
  0
SCALE
  5
18E
102
{ACAD_REACTORS
330
10C
102
}
330
10C
100
AcDbScale
 70
     0
300
1:20
140
1.0
141
20.0
290
     0
  0
SCALE
  5
18F
102
{ACAD_REACTORS
330
10C
102
}
330
10C
100
AcDbScale
 70
     0
300
1:30
140
1.0
141
30.0
290
     0
  0
SCALE
  5
190
102
{ACAD_REACTORS
330
10C
102
}
330
10C
100
AcDbScale
 70
     0
300
1:40
140
1.0
141
40.0
290
     0
  0
SCALE
  5
191
102
{ACAD_REACTORS
330
10C
102
}
330
10C
100
AcDbScale
 70
     0
300
1:50
140
1.0
141
50.0
290
     0
  0
SCALE
  5
192
102
{ACAD_REACTORS
330
10C
102
}
330
10C
100
AcDbScale
 70
     0
300
1:100
140
1.0
141
100.0
290
     0
  0
SCALE
  5
193
102
{ACAD_REACTORS
330
10C
102
}
330
10C
100
AcDbScale
 70
     0
300
2:1
140
2.0
141
1.0
290
     0
  0
SCALE
  5
194
102
{ACAD_REACTORS
330
10C
102
}
330
10C
100
AcDbScale
 70
     0
300
4:1
140
4.0
141
1.0
290
     0
  0
SCALE
  5
195
102
{ACAD_REACTORS
330
10C
102
}
330
10C
100
AcDbScale
 70
     0
300
8:1
140
8.0
141
1.0
290
     0
  0
SCALE
  5
196
102
{ACAD_REACTORS
330
10C
102
}
330
10C
100
AcDbScale
 70
     0
300
10:1
140
10.0
141
1.0
290
     0
  0
SCALE
  5
197
102
{ACAD_REACTORS
330
10C
102
}
330
10C
100
AcDbScale
 70
     0
300
100:1
140
100.0
141
1.0
290
     0
  0
SCALE
  5
198
102
{ACAD_REACTORS
330
10C
102
}
330
10C
100
AcDbScale
 70
     0
300
1/128" = 1'-0"
140
0.0078125
141
12.0
290
     0
  0
SCALE
  5
199
102
{ACAD_REACTORS
330
10C
102
}
330
10C
100
AcDbScale
 70
     0
300
1/64" = 1'-0"
140
0.015625
141
12.0
290
     0
  0
SCALE
  5
19A
102
{ACAD_REACTORS
330
10C
102
}
330
10C
100
AcDbScale
 70
     0
300
1/32" = 1'-0"
140
0.03125
141
12.0
290
     0
  0
SCALE
  5
19B
102
{ACAD_REACTORS
330
10C
102
}
330
10C
100
AcDbScale
 70
     0
300
1/16" = 1'-0"
140
0.0625
141
12.0
290
     0
  0
SCALE
  5
19C
102
{ACAD_REACTORS
330
10C
102
}
330
10C
100
AcDbScale
 70
     0
300
3/32" = 1'-0"
140
0.09375
141
12.0
290
     0
  0
SCALE
  5
19D
102
{ACAD_REACTORS
330
10C
102
}
330
10C
100
AcDbScale
 70
     0
300
1/8" = 1'-0"
140
0.125
141
12.0
290
     0
  0
SCALE
  5
19E
102
{ACAD_REACTORS
330
10C
102
}
330
10C
100
AcDbScale
 70
     0
300
3/16" = 1'-0"
140
0.1875
141
12.0
290
     0
  0
SCALE
  5
19F
102
{ACAD_REACTORS
330
10C
102
}
330
10C
100
AcDbScale
 70
     0
300
1/4" = 1'-0"
140
0.25
141
12.0
290
     0
  0
SCALE
  5
1A0
102
{ACAD_REACTORS
330
10C
102
}
330
10C
100
AcDbScale
 70
     0
300
3/8" = 1'-0"
140
0.375
141
12.0
290
     0
  0
SCALE
  5
1A1
102
{ACAD_REACTORS
330
10C
102
}
330
10C
100
AcDbScale
 70
     0
300
1/2" = 1'-0"
140
0.5
141
12.0
290
     0
  0
SCALE
  5
1A2
102
{ACAD_REACTORS
330
10C
102
}
330
10C
100
AcDbScale
 70
     0
300
3/4" = 1'-0"
140
0.75
141
12.0
290
     0
  0
SCALE
  5
1A3
102
{ACAD_REACTORS
330
10C
102
}
330
10C
100
AcDbScale
 70
     0
300
1" = 1'-0"
140
1.0
141
12.0
290
     0
  0
SCALE
  5
1A4
102
{ACAD_REACTORS
330
10C
102
}
330
10C
100
AcDbScale
 70
     0
300
1-1/2" = 1'-0"
140
1.5
141
12.0
290
     0
  0
SCALE
  5
1A5
102
{ACAD_REACTORS
330
10C
102
}
330
10C
100
AcDbScale
 70
     0
300
3" = 1'-0"
140
3.0
141
12.0
290
     0
  0
SCALE
  5
1A6
102
{ACAD_REACTORS
330
10C
102
}
330
10C
100
AcDbScale
 70
     0
300
6" = 1'-0"
140
6.0
141
12.0
290
     0
  0
SCALE
  5
1A7
102
{ACAD_REACTORS
330
10C
102
}
330
10C
100
AcDbScale
 70
     0
300
1'-0" = 1'-0"
140
12.0
141
12.0
290
     0
  0
TABLESTYLE
  5
7F
102
{ACAD_XDICTIONARY
360
162
102
}
102
{ACAD_REACTORS
330
7E
102
}
330
7E
100
AcDbTableStyle
  3
Standard
 70
     0
 71
     0
 40
1.5
 41
1.5
280
     0
281
     0
  7
Standard
140
4.5
170
     2
 62
     0
 63
     7
283
     0
274
    -2
284
     1
 64
     0
275
    -2
285
     1
 65
     0
276
    -2
286
     1
 66
     0
277
    -2
287
     1
 67
     0
278
    -2
288
     1
 68
     0
279
    -2
289
     1
 69
     0
  7
Standard
140
6.0
170
     5
 62
     0
 63
     7
283
     0
274
    -2
284
     1
 64
     0
275
    -2
285
     1
 65
     0
276
    -2
286
     1
 66
     0
277
    -2
287
     1
 67
     0
278
    -2
288
     1
 68
     0
279
    -2
289
     1
 69
     0
  7
Standard
140
4.5
170
     5
 62
     0
 63
     7
283
     0
274
    -2
284
     1
 64
     0
275
    -2
285
     1
 65
     0
276
    -2
286
     1
 66
     0
277
    -2
287
     1
 67
     0
278
    -2
288
     1
 68
     0
279
    -2
289
     1
 69
     0
  0
VISUALSTYLE
  5
F5
102
{ACAD_REACTORS
330
EF
102
}
330
EF
100
AcDbVisualStyle
  2
2dWireframe
 70
     4
 71
     0
 72
     2
 73
     1
 90
        0
 40
-0.6
 41
-30.0
 62
     5
 63
     7
 74
     1
 91
        4
 64
     7
 65
   257
 75
     1
175
     1
 42
1.0
 92
        0
 66
   257
 43
1.0
 76
     1
 77
     6
 78
     2
 67
     7
 79
     5
170
     0
171
     0
290
     0
174
     0
 93
        1
 44
0.0
173
     0
291
     0
 45
0.0
1001
ACAD
1000
AcDbSavedByObjectVersion
1070
     0
  0
VISUALSTYLE
  5
F7
102
{ACAD_REACTORS
330
EF
102
}
330
EF
100
AcDbVisualStyle
  2
3D Hidden
 70
     6
 71
     1
 72
     2
 73
     2
 90
        0
 40
-0.6
 41
-30.0
 62
     5
 63
     7
 74
     2
 91
        2
 64
     7
 65
   257
 75
     2
175
     1
 42
40.0
 92
        0
 66
   257
 43
1.0
 76
     1
 77
     6
 78
     2
 67
     7
 79
     3
170
     0
171
     0
290
     0
174
     0
 93
        1
 44
0.0
173
     0
291
     0
 45
0.0
1001
ACAD
1000
AcDbSavedByObjectVersion
1070
     0
  0
VISUALSTYLE
  5
F6
102
{ACAD_REACTORS
330
EF
102
}
330
EF
100
AcDbVisualStyle
  2
3dWireframe
 70
     5
 71
     0
 72
     2
 73
     1
 90
        0
 40
-0.6
 41
-30.0
 62
     5
 63
     7
 74
     1
 91
        4
 64
     7
 65
   257
 75
     1
175
     1
 42
1.0
 92
        0
 66
   257
 43
1.0
 76
     1
 77
     6
 78
     2
 67
     7
 79
     5
170
     0
171
     0
290
     0
174
     0
 93
        1
 44
0.0
173
     0
291
     0
 45
0.0
1001
ACAD
1000
AcDbSavedByObjectVersion
1070
     0
  0
VISUALSTYLE
  5
F4
102
{ACAD_REACTORS
330
EF
102
}
330
EF
100
AcDbVisualStyle
  2
Basic
 70
     7
 71
     1
 72
     0
 73
     1
 90
        0
 40
-0.6
 41
-30.0
 62
     5
 63
     7
 74
     0
 91
        4
 64
     7
 65
   257
 75
     1
175
     1
 42
1.0
 92
        8
 66
     7
 43
1.0
 76
     1
 77
     6
 78
     2
 67
     7
 79
     5
170
     0
171
     0
290
     0
174
     0
 93
        1
 44
0.0
173
     0
291
     1
 45
0.0
1001
ACAD
1000
AcDbSavedByObjectVersion
1070
     0
  0
VISUALSTYLE
  5
FB
102
{ACAD_REACTORS
330
EF
102
}
330
EF
100
AcDbVisualStyle
  2
Brighten
 70
    12
 71
     2
 72
     2
 73
     1
 90
        0
 40
-0.6
 41
-30.0
 62
     5
 63
     7
 74
     1
 91
        4
 64
     7
 65
   257
 75
     1
175
     1
 42
1.0
 92
        8
 66
     7
 43
1.0
 76
     1
 77
     6
 78
     2
 67
     7
 79
     5
170
     0
171
     0
290
     0
174
     0
 93
        1
 44
50.0
173
     0
291
     1
 45
0.0
1001
ACAD
1000
AcDbSavedByObjectVersion
1070
     0
  0
VISUALSTYLE
  5
FF
102
{ACAD_REACTORS
330
EF
102
}
330
EF
100
AcDbVisualStyle
  2
ColorChange
 70
    16
 71
     2
 72
     2
 73
     3
 90
        0
 40
-0.6
 41
-30.0
 62
     5
 63
     8
 74
     1
 91
        4
 64
     7
 65
   257
 75
     1
175
     1
 42
1.0
 92
        8
 66
     8
 43
1.0
 76
     1
 77
     6
 78
     2
 67
     7
 79
     5
170
     0
171
     0
290
     0
174
     0
 93
        1
 44
0.0
173
     0
291
     1
 45
0.0
1001
ACAD
1000
AcDbSavedByObjectVersion
1070
     0
  0
VISUALSTYLE
  5
F8
102
{ACAD_REACTORS
330
EF
102
}
330
EF
100
AcDbVisualStyle
  2
Conceptual
 70
     9
 71
     3
 72
     2
 73
     1
 90
        0
 40
-0.6
 41
-30.0
 62
     5
 63
     7
 74
     2
 91
        2
 64
     7
 65
   257
 75
     1
175
     1
 42
40.0
 92
        8
 66
     7
 43
1.0
 76
     1
 77
     6
 78
     2
 67
     7
 79
     3
170
     0
171
     0
290
     0
174
     0
 93
        1
 44
0.0
173
     0
291
     0
 45
0.0
1001
ACAD
1000
AcDbSavedByObjectVersion
1070
     0
  0
VISUALSTYLE
  5
FA
102
{ACAD_REACTORS
330
EF
102
}
330
EF
100
AcDbVisualStyle
  2
Dim
 70
    11
 71
     2
 72
     2
 73
     1
 90
        0
 40
-0.6
 41
-30.0
 62
     5
 63
     7
 74
     1
 91
        4
 64
     7
 65
   257
 75
     1
175
     1
 42
1.0
 92
        8
 66
     7
 43
1.0
 76
     1
 77
     6
 78
     2
 67
     7
 79
     5
170
     0
171
     0
290
     0
174
     0
 93
        1
 44
-50.0
173
     0
291
     1
 45
0.0
1001
ACAD
1000
AcDbSavedByObjectVersion
1070
     0
  0
VISUALSTYLE
  5
FE
102
{ACAD_REACTORS
330
EF
102
}
330
EF
100
AcDbVisualStyle
  2
Facepattern
 70
    15
 71
     2
 72
     2
 73
     1
 90
        0
 40
-0.6
 41
-30.0
 62
     5
 63
     7
 74
     1
 91
        4
 64
     7
 65
   257
 75
     1
175
     1
 42
1.0
 92
        8
 66
     7
 43
1.0
 76
     1
 77
     6
 78
     2
 67
     7
 79
     5
170
     0
171
     0
290
     0
174
     0
 93
        1
 44
0.0
173
     0
291
     1
 45
0.0
1001
ACAD
1000
AcDbSavedByObjectVersion
1070
     0
  0
VISUALSTYLE
  5
F0
102
{ACAD_REACTORS
330
EF
102
}
330
EF
100
AcDbVisualStyle
  2
Flat
 70
     0
 71
     2
 72
     1
 73
     1
 90
        2
 40
-0.6
 41
30.0
 62
     5
 63
     7
 74
     0
 91
        4
 64
     7
 65
   257
 75
     1
175
     1
 42
1.0
 92
        8
 66
     7
 43
1.0
 76
     1
 77
     6
 78
     2
 67
     7
 79
     5
170
     0
171
     0
290
     0
174
     0
 93
        1
 44
0.0
173
     0
291
     1
 45
0.0
1001
ACAD
1000
AcDbSavedByObjectVersion
1070
     0
  0
VISUALSTYLE
  5
F1
102
{ACAD_REACTORS
330
EF
102
}
330
EF
100
AcDbVisualStyle
  2
FlatWithEdges
 70
     1
 71
     2
 72
     1
 73
     1
 90
        2
 40
-0.6
 41
30.0
 62
     5
 63
     7
 74
     1
 91
        4
 64
     7
 65
   257
 75
     1
175
     1
 42
1.0
 92
        0
 66
   257
 43
1.0
 76
     1
 77
     6
 78
     2
 67
     7
 79
     5
170
     0
171
     0
290
     0
174
     0
 93
        1
 44
0.0
173
     0
291
     1
 45
0.0
1001
ACAD
1000
AcDbSavedByObjectVersion
1070
     0
  0
VISUALSTYLE
  5
F2
102
{ACAD_REACTORS
330
EF
102
}
330
EF
100
AcDbVisualStyle
  2
Gouraud
 70
     2
 71
     2
 72
     2
 73
     1
 90
        2
 40
-0.6
 41
30.0
 62
     5
 63
     7
 74
     0
 91
        4
 64
     7
 65
   257
 75
     1
175
     1
 42
1.0
 92
        0
 66
     7
 43
1.0
 76
     1
 77
     6
 78
     2
 67
     7
 79
     5
170
     0
171
     0
290
     0
174
     0
 93
        1
 44
0.0
173
     0
291
     1
 45
0.0
1001
ACAD
1000
AcDbSavedByObjectVersion
1070
     0
  0
VISUALSTYLE
  5
F3
102
{ACAD_REACTORS
330
EF
102
}
330
EF
100
AcDbVisualStyle
  2
GouraudWithEdges
 70
     3
 71
     2
 72
     2
 73
     1
 90
        2
 40
-0.6
 41
30.0
 62
     5
 63
     7
 74
     1
 91
        4
 64
     7
 65
   257
 75
     1
175
     1
 42
1.0
 92
        0
 66
   257
 43
1.0
 76
     1
 77
     6
 78
     2
 67
     7
 79
     5
170
     0
171
     0
290
     0
174
     0
 93
        1
 44
0.0
173
     0
291
     1
 45
0.0
1001
ACAD
1000
AcDbSavedByObjectVersion
1070
     0
  0
VISUALSTYLE
  5
FD
102
{ACAD_REACTORS
330
EF
102
}
330
EF
100
AcDbVisualStyle
  2
Linepattern
 70
    14
 71
     2
 72
     2
 73
     1
 90
        0
 40
-0.6
 41
-30.0
 62
     5
 63
     7
 74
     1
 91
        4
 64
     7
 65
   257
 75
     7
175
     7
 42
1.0
 92
        8
 66
     7
 43
1.0
 76
     1
 77
     6
 78
     2
 67
     7
 79
     5
170
     0
171
     0
290
     0
174
     0
 93
        1
 44
0.0
173
     0
291
     1
 45
0.0
1001
ACAD
1000
AcDbSavedByObjectVersion
1070
     0
  0
VISUALSTYLE
  5
F9
102
{ACAD_REACTORS
330
EF
102
}
330
EF
100
AcDbVisualStyle
  2
Realistic
 70
     8
 71
     2
 72
     2
 73
     1
 90
        0
 40
-0.6
 41
-30.0
 62
     5
 63
     7
 74
     1
 91
        0
 64
     7
 65
   257
 75
     1
175
     1
 42
1.0
 92
        8
 66
     8
 43
1.0
 76
     1
 77
     6
 78
     2
 67
     7
 79
     5
170
     0
171
     0
290
     0
174
     0
 93
       13
 44
0.0
173
     0
291
     0
 45
0.0
1001
ACAD
1000
AcDbSavedByObjectVersion
1070
     0
  0
VISUALSTYLE
  5
FC
102
{ACAD_REACTORS
330
EF
102
}
330
EF
100
AcDbVisualStyle
  2
Thicken
 70
    13
 71
     2
 72
     2
 73
     1
 90
        0
 40
-0.6
 41
-30.0
 62
     5
 63
     7
 74
     1
 91
        4
 64
     7
 65
   257
 75
     1
175
     1
 42
1.0
 92
       12
 66
     7
 43
1.0
 76
     1
 77
     6
 78
     2
 67
     7
 79
     5
170
     0
171
     0
290
     0
174
     0
 93
        1
 44
0.0
173
     0
291
     1
 45
0.0
1001
ACAD
1000
AcDbSavedByObjectVersion
1070
     0
  0
DICTIONARYVAR
  5
146
102
{ACAD_REACTORS
330
5E
102
}
330
5E
100
DictionaryVariables
280
     0
  1
1:1
  0
DICTIONARYVAR
  5
145
102
{ACAD_REACTORS
330
5E
102
}
330
5E
100
DictionaryVariables
280
     0
  1
STANDARD
  0
DICTIONARYVAR
  5
84
102
{ACAD_REACTORS
330
5E
102
}
330
5E
100
DictionaryVariables
280
     0
  1
STANDARD
  0
DICTIONARYVAR
  5
5F
102
{ACAD_REACTORS
330
5E
102
}
330
5E
100
DictionaryVariables
280
     0
  1
2
  0
DICTIONARYVAR
  5
63
102
{ACAD_REACTORS
330
5E
102
}
330
5E
100
DictionaryVariables
280
     0
  1
1
  0
DICTIONARYVAR
  5
80F
102
{ACAD_REACTORS
330
5E
102
}
330
5E
100
DictionaryVariables
280
     0
  1
0
  0
DICTIONARYVAR
  5
80D
102
{ACAD_REACTORS
330
5E
102
}
330
5E
100
DictionaryVariables
280
     0
  1
2
  0
DICTIONARYVAR
  5
80C
102
{ACAD_REACTORS
330
5E
102
}
330
5E
100
DictionaryVariables
280
     0
  1
1
  0
DICTIONARYVAR
  5
811
102
{ACAD_REACTORS
330
5E
102
}
330
5E
100
DictionaryVariables
280
     0
  1
80.000000
  0
DICTIONARYVAR
  5
810
102
{ACAD_REACTORS
330
5E
102
}
330
5E
100
DictionaryVariables
280
     0
  1
5.000000
  0
DICTIONARYVAR
  5
80E
102
{ACAD_REACTORS
330
5E
102
}
330
5E
100
DictionaryVariables
280
     0
  1
127
  0
DICTIONARY
  5
817
330
D3
100
AcDbDictionary
280
     1
281
     1
  3
ACAD_XREC_ROUNDTRIP
360
818
  0
DICTIONARY
  5
819
330
D7
100
AcDbDictionary
280
     1
281
     1
  3
ACAD_XREC_ROUNDTRIP
360
81A
  0
DICTIONARY
  5
814
330
22
100
AcDbDictionary
280
     1
281
     1
  3
ACAD_XREC_ROUNDTRIP
360
815
  0
DICTIONARY
  5
81D
330
ED
100
AcDbDictionary
280
     1
281
     1
  3
ACAD_XREC_ROUNDTRIP
360
81E
  0
DICTIONARY
  5
81B
330
EC
100
AcDbDictionary
280
     1
281
     1
  3
ACAD_XREC_ROUNDTRIP
360
81C
  0
DICTIONARY
  5
173
330
EE
100
AcDbDictionary
280
     1
281
     1
  3
ACAD_XREC_ROUNDTRIP
360
81F
  3
BUMPTILE
360
175
  3
DIFFUSETILE
360
174
  3
OPACITYTILE
360
176
  3
REFLECTIONTILE
360
177
  0
DICTIONARY
  5
162
330
7F
100
AcDbDictionary
280
     1
281
     1
  3
ACAD_ROUNDTRIP_2008_TABLESTYLE_CELLSTYLEMAP
360
812
  3
ACAD_XREC_ROUNDTRIP
360
816
  0
XRECORD
  5
818
102
{ACAD_REACTORS
330
817
102
}
330
817
100
AcDbXrecord
280
     1
102
SHADEPLOT
 70
     0
102
SHADEPLOTRESLEVEL
 70
     2
102
SHADEPLOTCUSTOMDPI
 70
   300
  0
XRECORD
  5
81A
102
{ACAD_REACTORS
330
819
102
}
330
819
100
AcDbXrecord
280
     1
102
SHADEPLOT
 70
     0
102
SHADEPLOTRESLEVEL
 70
     2
102
SHADEPLOTCUSTOMDPI
 70
   300
  0
XRECORD
  5
815
102
{ACAD_REACTORS
330
814
102
}
330
814
100
AcDbXrecord
280
     1
102
SHADEPLOT
 70
     0
102
SHADEPLOTRESLEVEL
 70
     2
102
SHADEPLOTCUSTOMDPI
 70
   300
  0
XRECORD
  5
81E
102
{ACAD_REACTORS
330
81D
102
}
330
81D
100
AcDbXrecord
280
     1
102
MATERIAL
148
0.0
149
0.0
149
0.0
 93
        0
 94
       63
282
     0
 72
     1
 77
     1
171
     1
175
     1
179
     1
273
     0
  0
XRECORD
  5
81C
102
{ACAD_REACTORS
330
81B
102
}
330
81B
100
AcDbXrecord
280
     1
102
MATERIAL
148
0.0
149
0.0
149
0.0
 93
        0
 94
       63
282
     0
 72
     1
 77
     1
171
     1
175
     1
179
     1
273
     0
  0
XRECORD
  5
81F
102
{ACAD_REACTORS
330
173
102
}
330
173
100
AcDbXrecord
280
     1
102
MATERIAL
148
0.0
149
0.0
149
0.0
 93
        0
 94
       63
282
     0
 72
     1
 77
     1
171
     1
175
     1
179
     1
273
     0
  0
XRECORD
  5
175
102
{ACAD_REACTORS
330
173
102
}
330
173
100
AcDbXrecord
280
     1
270
     1
271
     1
  0
XRECORD
  5
174
102
{ACAD_REACTORS
330
173
102
}
330
173
100
AcDbXrecord
280
     1
270
     1
271
     1
  0
XRECORD
  5
176
102
{ACAD_REACTORS
330
173
102
}
330
173
100
AcDbXrecord
280
     1
270
     1
271
     1
  0
XRECORD
  5
177
102
{ACAD_REACTORS
330
173
102
}
330
173
100
AcDbXrecord
280
     1
270
     1
271
     1
  0
CELLSTYLEMAP
  5
812
102
{ACAD_REACTORS
330
162
102
}
330
162
100
AcDbCellStyleMap
 90
        3
300
CELLSTYLE
  1
TABLEFORMAT_BEGIN
 90
        5
170
     1
 91
        0
 92
    32768
 62
   257
 93
        1
300
CONTENTFORMAT
  1
CONTENTFORMAT_BEGIN
 90
        0
 91
        0
 92
      512
 93
        0
300

 40
0.0
140
1.0
 94
        5
 62
     0
340
11
144
6.0
309
CONTENTFORMAT_END
171
     1
301
MARGIN
  1
CELLMARGIN_BEGIN
 40
1.5
 40
1.5
 40
1.5
 40
1.5
 40
4.5
 40
4.5
309
CELLMARGIN_END
 94
        6
 95
        1
302
GRIDFORMAT
  1
GRIDFORMAT_BEGIN
 90
        0
 91
        1
 62
     0
 92
       -2
340
14
 93
        0
 40
1.125
309
GRIDFORMAT_END
 95
        2
302
GRIDFORMAT
  1
GRIDFORMAT_BEGIN
 90
        0
 91
        1
 62
     0
 92
       -2
340
14
 93
        0
 40
1.125
309
GRIDFORMAT_END
 95
        4
302
GRIDFORMAT
  1
GRIDFORMAT_BEGIN
 90
        0
 91
        1
 62
     0
 92
       -2
340
14
 93
        0
 40
1.125
309
GRIDFORMAT_END
 95
        8
302
GRIDFORMAT
  1
GRIDFORMAT_BEGIN
 90
        0
 91
        1
 62
     0
 92
       -2
340
14
 93
        0
 40
1.125
309
GRIDFORMAT_END
 95
       16
302
GRIDFORMAT
  1
GRIDFORMAT_BEGIN
 90
        0
 91
        1
 62
     0
 92
       -2
340
14
 93
        0
 40
1.125
309
GRIDFORMAT_END
 95
       32
302
GRIDFORMAT
  1
GRIDFORMAT_BEGIN
 90
        0
 91
        1
 62
     0
 92
       -2
340
14
 93
        0
 40
1.125
309
GRIDFORMAT_END
309
TABLEFORMAT_END
  1
CELLSTYLE_BEGIN
 90
        1
 91
        1
300
_TITLE
309
CELLSTYLE_END
300
CELLSTYLE
  1
TABLEFORMAT_BEGIN
 90
        5
170
     1
 91
        0
 92
        0
 62
   257
 93
        1
300
CONTENTFORMAT
  1
CONTENTFORMAT_BEGIN
 90
        0
 91
        0
 92
      512
 93
        0
300

 40
0.0
140
1.0
 94
        5
 62
     0
340
11
144
4.5
309
CONTENTFORMAT_END
171
     1
301
MARGIN
  1
CELLMARGIN_BEGIN
 40
1.5
 40
1.5
 40
1.5
 40
1.5
 40
4.5
 40
4.5
309
CELLMARGIN_END
 94
        6
 95
        1
302
GRIDFORMAT
  1
GRIDFORMAT_BEGIN
 90
        0
 91
        1
 62
     0
 92
       -2
340
14
 93
        0
 40
1.125
309
GRIDFORMAT_END
 95
        2
302
GRIDFORMAT
  1
GRIDFORMAT_BEGIN
 90
        0
 91
        1
 62
     0
 92
       -2
340
14
 93
        0
 40
1.125
309
GRIDFORMAT_END
 95
        4
302
GRIDFORMAT
  1
GRIDFORMAT_BEGIN
 90
        0
 91
        1
 62
     0
 92
       -2
340
14
 93
        0
 40
1.125
309
GRIDFORMAT_END
 95
        8
302
GRIDFORMAT
  1
GRIDFORMAT_BEGIN
 90
        0
 91
        1
 62
     0
 92
       -2
340
14
 93
        0
 40
1.125
309
GRIDFORMAT_END
 95
       16
302
GRIDFORMAT
  1
GRIDFORMAT_BEGIN
 90
        0
 91
        1
 62
     0
 92
       -2
340
14
 93
        0
 40
1.125
309
GRIDFORMAT_END
 95
       32
302
GRIDFORMAT
  1
GRIDFORMAT_BEGIN
 90
        0
 91
        1
 62
     0
 92
       -2
340
14
 93
        0
 40
1.125
309
GRIDFORMAT_END
309
TABLEFORMAT_END
  1
CELLSTYLE_BEGIN
 90
        2
 91
        1
300
_HEADER
309
CELLSTYLE_END
300
CELLSTYLE
  1
TABLEFORMAT_BEGIN
 90
        5
170
     1
 91
        0
 92
        0
 62
   257
 93
        1
300
CONTENTFORMAT
  1
CONTENTFORMAT_BEGIN
 90
        0
 91
        0
 92
      512
 93
        0
300

 40
0.0
140
1.0
 94
        2
 62
     0
340
11
144
4.5
309
CONTENTFORMAT_END
171
     1
301
MARGIN
  1
CELLMARGIN_BEGIN
 40
1.5
 40
1.5
 40
1.5
 40
1.5
 40
4.5
 40
4.5
309
CELLMARGIN_END
 94
        6
 95
        1
302
GRIDFORMAT
  1
GRIDFORMAT_BEGIN
 90
        0
 91
        1
 62
     0
 92
       -2
340
14
 93
        0
 40
1.125
309
GRIDFORMAT_END
 95
        2
302
GRIDFORMAT
  1
GRIDFORMAT_BEGIN
 90
        0
 91
        1
 62
     0
 92
       -2
340
14
 93
        0
 40
1.125
309
GRIDFORMAT_END
 95
        4
302
GRIDFORMAT
  1
GRIDFORMAT_BEGIN
 90
        0
 91
        1
 62
     0
 92
       -2
340
14
 93
        0
 40
1.125
309
GRIDFORMAT_END
 95
        8
302
GRIDFORMAT
  1
GRIDFORMAT_BEGIN
 90
        0
 91
        1
 62
     0
 92
       -2
340
14
 93
        0
 40
1.125
309
GRIDFORMAT_END
 95
       16
302
GRIDFORMAT
  1
GRIDFORMAT_BEGIN
 90
        0
 91
        1
 62
     0
 92
       -2
340
14
 93
        0
 40
1.125
309
GRIDFORMAT_END
 95
       32
302
GRIDFORMAT
  1
GRIDFORMAT_BEGIN
 90
        0
 91
        1
 62
     0
 92
       -2
340
14
 93
        0
 40
1.125
309
GRIDFORMAT_END
309
TABLEFORMAT_END
  1
CELLSTYLE_BEGIN
 90
        3
 91
        2
300
_DATA
309
CELLSTYLE_END
  0
XRECORD
  5
816
102
{ACAD_REACTORS
330
162
102
}
330
162
100
AcDbXrecord
280
     1
102
ACAD_ROUNDTRIP_PRE2007_TABLESTYLE
 90
      512
 91
        0
  1

 92
      512
 93
        0
  2

 94
      512
 95
        0
  3

  0
ENDSEC
  0
EOF
