  0
SECTION
  2
HEADER
  9
$ACADVER
  1
AC1015
  9
$ACADMAINTVER
 70
    20
  9
$DWGCODEPAGE
  3
ANSI_1254
  9
$INSBASE
 10
0.0
 20
0.0
 30
0.0
  9
$EXTMIN
 10
2202.403188440998
 20
777.7108267007516
 30
0.0
  9
$EXTMAX
 10
2446.277065469224
 20
845.076739991571
 30
0.0
  9
$LIMMIN
 10
0.0
 20
0.0
  9
$LIMMAX
 10
420.0
 20
297.0
  9
$ORTHOMODE
 70
     0
  9
$REGENMODE
 70
     1
  9
$FILLMODE
 70
     1
  9
$QTEXTMODE
 70
     0
  9
$MIRRTEXT
 70
     0
  9
$LTSCALE
 40
1.0
  9
$ATTMODE
 70
     1
  9
$TEXTSIZE
 40
2.5
  9
$TRACEWID
 40
1.0
  9
$TEXTSTYLE
  7
Standard
  9
$CLAYER
  8
0
  9
$CELTYPE
  6
ByLayer
  9
$CECOLOR
 62
   256
  9
$CELTSCALE
 40
1.0
  9
$DISPSILH
 70
     0
  9
$DIMSCALE
 40
1.0
  9
$DIMASZ
 40
2.5
  9
$DIMEXO
 40
0.625
  9
$DIMDLI
 40
3.75
  9
$DIMRND
 40
0.0
  9
$DIMDLE
 40
0.0
  9
$DIMEXE
 40
1.25
  9
$DIMTP
 40
0.0
  9
$DIMTM
 40
0.0
  9
$DIMTXT
 40
2.5
  9
$DIMCEN
 40
2.5
  9
$DIMTSZ
 40
0.0
  9
$DIMTOL
 70
     0
  9
$DIMLIM
 70
     0
  9
$DIMTIH
 70
     0
  9
$DIMTOH
 70
     0
  9
$DIMSE1
 70
     0
  9
$DIMSE2
 70
     0
  9
$DIMTAD
 70
     1
  9
$DIMZIN
 70
     8
  9
$DIMBLK
  1

  9
$DIMASO
 70
     1
  9
$DIMSHO
 70
     1
  9
$DIMPOST
  1

  9
$DIMAPOST
  1

  9
$DIMALT
 70
     0
  9
$DIMALTD
 70
     3
  9
$DIMALTF
 40
0.03937007874016
  9
$DIMLFAC
 40
1.0
  9
$DIMTOFL
 70
     1
  9
$DIMTVP
 40
0.0
  9
$DIMTIX
 70
     0
  9
$DIMSOXD
 70
     0
  9
$DIMSAH
 70
     0
  9
$DIMBLK1
  1

  9
$DIMBLK2
  1

  9
$DIMSTYLE
  2
ISO-25
  9
$DIMCLRD
 70
     0
  9
$DIMCLRE
 70
     0
  9
$DIMCLRT
 70
     0
  9
$DIMTFAC
 40
1.0
  9
$DIMGAP
 40
0.625
  9
$DIMJUST
 70
     0
  9
$DIMSD1
 70
     0
  9
$DIMSD2
 70
     0
  9
$DIMTOLJ
 70
     0
  9
$DIMTZIN
 70
     8
  9
$DIMALTZ
 70
     0
  9
$DIMALTTZ
 70
     0
  9
$DIMUPT
 70
     0
  9
$DIMDEC
 70
     2
  9
$DIMTDEC
 70
     2
  9
$DIMALTU
 70
     2
  9
$DIMALTTD
 70
     3
  9
$DIMTXSTY
  7
Standard
  9
$DIMAUNIT
 70
     0
  9
$DIMADEC
 70
     0
  9
$DIMALTRND
 40
0.0
  9
$DIMAZIN
 70
     0
  9
$DIMDSEP
 70
    44
  9
$DIMATFIT
 70
     3
  9
$DIMFRAC
 70
     0
  9
$DIMLDRBLK
  1

  9
$DIMLUNIT
 70
     2
  9
$DIMLWD
 70
    -2
  9
$DIMLWE
 70
    -2
  9
$DIMTMOVE
 70
     0
  9
$LUNITS
 70
     2
  9
$LUPREC
 70
     4
  9
$SKETCHINC
 40
1.0
  9
$FILLETRAD
 40
0.0
  9
$AUNITS
 70
     0
  9
$AUPREC
 70
     0
  9
$MENU
  1
.
  9
$ELEVATION
 40
0.0
  9
$PELEVATION
 40
0.0
  9
$THICKNESS
 40
0.0
  9
$LIMCHECK
 70
     0
  9
$CHAMFERA
 40
0.0
  9
$CHAMFERB
 40
0.0
  9
$CHAMFERC
 40
0.0
  9
$CHAMFERD
 40
0.0
  9
$SKPOLY
 70
     0
  9
$TDCREATE
 40
2458934.546568414
  9
$TDUCREATE
 40
2458934.421568415
  9
$TDUPDATE
 40
2458956.452275752
  9
$TDUUPDATE
 40
2458956.327275752
  9
$TDINDWG
 40
0.0002697338
  9
$TDUSRTIMER
 40
0.0002697338
  9
$USRTIMER
 70
     1
  9
$ANGBASE
 50
0.0
  9
$ANGDIR
 70
     0
  9
$PDMODE
 70
     0
  9
$PDSIZE
 40
0.0
  9
$PLINEWID
 40
0.0
  9
$SPLFRAME
 70
     0
  9
$SPLINETYPE
 70
     6
  9
$SPLINESEGS
 70
     8
  9
$HANDSEED
  5
820
  9
$SURFTAB1
 70
     6
  9
$SURFTAB2
 70
     6
  9
$SURFTYPE
 70
     6
  9
$SURFU
 70
     6
  9
$SURFV
 70
     6
  9
$UCSBASE
  2

  9
$UCSNAME
  2

  9
$UCSORG
 10
0.0
 20
0.0
 30
0.0
  9
$UCSXDIR
 10
1.0
 20
0.0
 30
0.0
  9
$UCSYDIR
 10
0.0
 20
1.0
 30
0.0
  9
$UCSORTHOREF
  2

  9
$UCSORTHOVIEW
 70
     0
  9
$UCSORGTOP
 10
0.0
 20
0.0
 30
0.0
  9
$UCSORGBOTTOM
 10
0.0
 20
0.0
 30
0.0
  9
$UCSORGLEFT
 10
0.0
 20
0.0
 30
0.0
  9
$UCSORGRIGHT
 10
0.0
 20
0.0
 30
0.0
  9
$UCSORGFRONT
 10
0.0
 20
0.0
 30
0.0
  9
$UCSORGBACK
 10
0.0
 20
0.0
 30
0.0
  9
$PUCSBASE
  2

  9
$PUCSNAME
  2

  9
$PUCSORG
 10
0.0
 20
0.0
 30
0.0
  9
$PUCSXDIR
 10
1.0
 20
0.0
 30
0.0
  9
$PUCSYDIR
 10
0.0
 20
1.0
 30
0.0
  9
$PUCSORTHOREF
  2

  9
$PUCSORTHOVIEW
 70
     0
  9
$PUCSORGTOP
 10
0.0
 20
0.0
 30
0.0
  9
$PUCSORGBOTTOM
 10
0.0
 20
0.0
 30
0.0
  9
$PUCSORGLEFT
 10
0.0
 20
0.0
 30
0.0
  9
$PUCSORGRIGHT
 10
0.0
 20
0.0
 30
0.0
  9
$PUCSORGFRONT
 10
0.0
 20
0.0
 30
0.0
  9
$PUCSORGBACK
 10
0.0
 20
0.0
 30
0.0
  9
$USERI1
 70
     0
  9
$USERI2
 70
     0
  9
$USERI3
 70
     0
  9
$USERI4
 70
     0
  9
$USERI5
 70
     0
  9
$USERR1
 40
0.0
  9
$USERR2
 40
0.0
  9
$USERR3
 40
0.0
  9
$USERR4
 40
0.0
  9
$USERR5
 40
0.0
  9
$WORLDVIEW
 70
     1
  9
$SHADEDGE
 70
     3
  9
$SHADEDIF
 70
    70
  9
$TILEMODE
 70
     1
  9
$MAXACTVP
 70
    64
  9
$PINSBASE
 10
0.0
 20
0.0
 30
0.0
  9
$PLIMCHECK
 70
     0
  9
$PEXTMIN
 10
0.0
 20
0.0
 30
0.0
  9
$PEXTMAX
 10
0.0
 20
0.0
 30
0.0
  9
$PLIMMIN
 10
0.0
 20
0.0
  9
$PLIMMAX
 10
12.0
 20
9.0
  9
$UNITMODE
 70
     0
  9
$VISRETAIN
 70
     1
  9
$PLINEGEN
 70
     0
  9
$PSLTSCALE
 70
     1
  9
$TREEDEPTH
 70
  3020
  9
$CMLSTYLE
  2
Standard
  9
$CMLJUST
 70
     0
  9
$CMLSCALE
 40
20.0
  9
$PROXYGRAPHICS
 70
     1
  9
$MEASUREMENT
 70
     1
  9
$CELWEIGHT
370
    -1
  9
$ENDCAPS
280
     0
  9
$JOINSTYLE
280
     0
  9
$LWDISPLAY
290
     0
  9
$INSUNITS
 70
     4
  9
$HYPERLINKBASE
  1

  9
$STYLESHEET
  1

  9
$XEDIT
290
     1
  9
$CEPSNTYPE
380
     0
  9
$PSTYLEMODE
290
     1
  9
$FINGERPRINTGUID
  2
{30470351-6254-4782-934A-18360E1CD458}
  9
$VERSIONGUID
  2
{A05EA00F-0B9A-44ED-BA7D-E83CB770770D}
  9
$EXTNAMES
290
     1
  9
$PSVPSCALE
 40
0.0
  9
$OLESTARTUP
290
     0
  0
ENDSEC
  0
SECTION
  2
CLASSES
  0
CLASS
  1
ACDBDICTIONARYWDFLT
  2
AcDbDictionaryWithDefault
  3
ObjectDBX Classes
 90
        0
280
     0
281
     0
  0
CLASS
  1
ACDBPLACEHOLDER
  2
AcDbPlaceHolder
  3
ObjectDBX Classes
 90
        0
280
     0
281
     0
  0
CLASS
  1
LAYOUT
  2
AcDbLayout
  3
ObjectDBX Classes
 90
        0
280
     0
281
     0
  0
CLASS
  1
DICTIONARYVAR
  2
AcDbDictionaryVar
  3
ObjectDBX Classes
 90
        0
280
     0
281
     0
  0
CLASS
  1
TABLESTYLE
  2
AcDbTableStyle
  3
ObjectDBX Classes
 90
     4095
280
     0
281
     0
  0
CLASS
  1
MATERIAL
  2
AcDbMaterial
  3
ObjectDBX Classes
 90
     1153
280
     0
281
     0
  0
CLASS
  1
VISUALSTYLE
  2
AcDbVisualStyle
  3
ObjectDBX Classes
 90
     4095
280
     0
281
     0
  0
CLASS
  1
SCALE
  2
AcDbScale
  3
ObjectDBX Classes
 90
     1153
280
     0
281
     0
  0
CLASS
  1
MLEADERSTYLE
  2
AcDbMLeaderStyle
  3
ACDB_MLEADERSTYLE_CLASS
 90
     4095
280
     0
281
     0
  0
CLASS
  1
CELLSTYLEMAP
  2
AcDbCellStyleMap
  3
ObjectDBX Classes
 90
     1152
280
     0
281
     0
  0
ENDSEC
  0
SECTION
  2
TABLES
  0
TABLE
  2
VPORT
  5
8
330
0
100
AcDbSymbolTable
 70
     1
  0
VPORT
  5
EA
330
8
100
AcDbSymbolTableRecord
100
AcDbViewportTableRecord
  2
*Active
 70
     0
 10
0.0
 20
0.0
 11
1.0
 21
1.0
 12
2357.341580302635
 22
853.9348930256123
 13
0.0
 23
0.0
 14
10.0
 24
10.0
 15
10.0
 25
10.0
 16
0.0
 26
0.0
 36
1.0
 17
0.0
 27
0.0
 37
0.0
 40
289.3164957436914
 41
1.903110047846889
 42
50.0
 43
0.0
 44
0.0
 50
0.0
 51
0.0
 71
     0
 72
  1000
 73
     1
 74
     3
 75
     0
 76
     0
 77
     0
 78
     0
281
     0
 65
     1
110
0.0
120
0.0
130
0.0
111
1.0
121
0.0
131
0.0
112
0.0
122
1.0
132
0.0
 79
     0
146
0.0
  0
ENDTAB
  0
TABLE
  2
LTYPE
  5
5
330
0
100
AcDbSymbolTable
 70
     1
  0
LTYPE
  5
14
330
5
100
AcDbSymbolTableRecord
100
AcDbLinetypeTableRecord
  2
ByBlock
 70
     0
  3

 72
    65
 73
     0
 40
0.0
  0
LTYPE
  5
15
330
5
100
AcDbSymbolTableRecord
100
AcDbLinetypeTableRecord
  2
ByLayer
 70
     0
  3

 72
    65
 73
     0
 40
0.0
  0
LTYPE
  5
16
330
5
100
AcDbSymbolTableRecord
100
AcDbLinetypeTableRecord
  2
Continuous
 70
     0
  3
Solid line
 72
    65
 73
     0
 40
0.0
  0
ENDTAB
  0
TABLE
  2
LAYER
  5
2
330
0
100
AcDbSymbolTable
 70
     1
  0
LAYER
  5
10
102
{ACAD_XDICTIONARY
360
13C
102
}
330
2
100
AcDbSymbolTableRecord
100
AcDbLayerTableRecord
  2
0
 70
     0
 62
     7
  6
Continuous
370
    -3
390
F
  0
ENDTAB
  0
TABLE
  2
STYLE
  5
3
330
0
100
AcDbSymbolTable
 70
     2
  0
STYLE
  5
11
330
3
100
AcDbSymbolTableRecord
100
AcDbTextStyleTableRecord
  2
Standard
 70
     0
 40
0.0
 41
1.0
 50
0.0
 71
     0
 42
2.5
  3
txt
  4

  0
STYLE
  5
132
330
3
100
AcDbSymbolTableRecord
100
AcDbTextStyleTableRecord
  2
Annotative
 70
     0
 40
0.0
 41
1.0
 50
0.0
 71
     0
 42
2.5
  3
txt.shx
  4

1001
AcadAnnotative
1000
AnnotativeData
1002
{
1070
     1
1070
     1
1002
}
  0
ENDTAB
  0
TABLE
  2
VIEW
  5
6
330
0
100
AcDbSymbolTable
 70
     0
  0
ENDTAB
  0
TABLE
  2
UCS
  5
7
330
0
100
AcDbSymbolTable
 70
     0
  0
ENDTAB
  0
TABLE
  2
APPID
  5
9
330
0
100
AcDbSymbolTable
 70
     7
  0
APPID
  5
12
330
9
100
AcDbSymbolTableRecord
100
AcDbRegAppTableRecord
  2
ACAD
 70
     0
  0
APPID
  5
9E
330
9
100
AcDbSymbolTableRecord
100
AcDbRegAppTableRecord
  2
ACAD_PSEXT
 70
     0
  0
APPID
  5
133
330
9
100
AcDbSymbolTableRecord
100
AcDbRegAppTableRecord
  2
AcadAnnoPO
 70
     0
  0
APPID
  5
134
330
9
100
AcDbSymbolTableRecord
100
AcDbRegAppTableRecord
  2
AcadAnnotative
 70
     0
  0
APPID
  5
135
330
9
100
AcDbSymbolTableRecord
100
AcDbRegAppTableRecord
  2
ACAD_DSTYLE_DIMJAG
 70
     0
  0
APPID
  5
136
330
9
100
AcDbSymbolTableRecord
100
AcDbRegAppTableRecord
  2
ACAD_DSTYLE_DIMTALN
 70
     0
  0
APPID
  5
165
330
9
100
AcDbSymbolTableRecord
100
AcDbRegAppTableRecord
  2
ACAD_MLEADERVER
 70
     0
  0
ENDTAB
  0
TABLE
  2
DIMSTYLE
  5
A
330
0
100
AcDbSymbolTable
 70
     2
100
AcDbDimStyleTable
 71
     2
340
27
340
137
  0
DIMSTYLE
105
27
330
A
100
AcDbSymbolTableRecord
100
AcDbDimStyleTableRecord
  2
ISO-25
 70
     0
 41
2.5
 42
0.625
 43
3.75
 44
1.25
 73
     0
 74
     0
 77
     1
 78
     8
140
2.5
141
2.5
143
0.03937007874016
147
0.625
171
     3
172
     1
271
     2
272
     2
274
     3
278
    44
283
     0
284
     8
340
11
  0
DIMSTYLE
105
137
330
A
100
AcDbSymbolTableRecord
100
AcDbDimStyleTableRecord
  2
Annotative
 70
     0
 40
0.0
 41
2.5
 42
0.625
 43
3.75
 44
1.25
 73
     0
 74
     0
 77
     1
 78
     8
140
2.5
141
2.5
143
0.03937007874016
147
0.625
171
     3
172
     1
271
     2
272
     2
274
     3
278
    44
283
     0
284
     8
340
11
1001
AcadAnnotative
1000
AnnotativeData
1002
{
1070
     1
1070
     1
1002
}
1001
ACAD_DSTYLE_DIMJAG
1070
   388
1040
1.5
1001
ACAD_DSTYLE_DIMTALN
1070
   392
1070
     0
  0
ENDTAB
  0
TABLE
  2
BLOCK_RECORD
  5
1
330
0
100
AcDbSymbolTable
 70
     5
  0
BLOCK_RECORD
  5
1F
330
1
100
AcDbSymbolTableRecord
100
AcDbBlockTableRecord
  2
*Model_Space
340
22
  0
BLOCK_RECORD
  5
D2
330
1
100
AcDbSymbolTableRecord
100
AcDbBlockTableRecord
  2
*Paper_Space
340
D3
  0
BLOCK_RECORD
  5
D6
330
1
100
AcDbSymbolTableRecord
100
AcDbBlockTableRecord
  2
*Paper_Space0
340
D7
  0
BLOCK_RECORD
  5
5DF
330
1
100
AcDbSymbolTableRecord
100
AcDbBlockTableRecord
  2
1
340
0
310
2800000020000000200000000100080000000000000400000000000000000000000000000000000000000000000080000080000000808000800000008000800080800000C0C0C000C0DCC000F0CAA6000020400000206000002080000020A0000020C0000020E00000400000004020000040400000406000004080000040A0
310
000040C0000040E00000600000006020000060400000606000006080000060A0000060C0000060E00000800000008020000080400000806000008080000080A0000080C0000080E00000A0000000A0200000A0400000A0600000A0800000A0A00000A0C00000A0E00000C0000000C0200000C0400000C0600000C0800000C0
310
A00000C0C00000C0E00000E0000000E0200000E0400000E0600000E0800000E0A00000E0C00000E0E00040000000400020004000400040006000400080004000A0004000C0004000E00040200000402020004020400040206000402080004020A0004020C0004020E000404000004040200040404000404060004040800040
310
40A0004040C0004040E00040600000406020004060400040606000406080004060A0004060C0004060E00040800000408020004080400040806000408080004080A0004080C0004080E00040A0000040A0200040A0400040A0600040A0800040A0A00040A0C00040A0E00040C0000040C0200040C0400040C0600040C08000
310
40C0A00040C0C00040C0E00040E0000040E0200040E0400040E0600040E0800040E0A00040E0C00040E0E00080000000800020008000400080006000800080008000A0008000C0008000E00080200000802020008020400080206000802080008020A0008020C0008020E00080400000804020008040400080406000804080
310
008040A0008040C0008040E00080600000806020008060400080606000806080008060A0008060C0008060E00080800000808020008080400080806000808080008080A0008080C0008080E00080A0000080A0200080A0400080A0600080A0800080A0A00080A0C00080A0E00080C0000080C0200080C0400080C0600080C0
310
800080C0A00080C0C00080C0E00080E0000080E0200080E0400080E0600080E0800080E0A00080E0C00080E0E000C0000000C0002000C0004000C0006000C0008000C000A000C000C000C000E000C0200000C0202000C0204000C0206000C0208000C020A000C020C000C020E000C0400000C0402000C0404000C0406000C0
310
408000C040A000C040C000C040E000C0600000C0602000C0604000C0606000C0608000C060A000C060C000C060E000C0800000C0802000C0804000C0806000C0808000C080A000C080C000C080E000C0A00000C0A02000C0A04000C0A06000C0A08000C0A0A000C0A0C000C0A0E000C0C00000C0C02000C0C04000C0C06000
310
C0C08000C0C0A000F0FBFF00A4A0A000808080000000FF0000FF000000FFFF00FF000000FF00FF00FFFF0000FFFFFF0000000000000000000000000000000000000000000000000000000000000000000000000000000000000000000000000000000000000000000000000000000000000000000000000000000000000000
310
00000000000000000000000000000000000000000000000000000000000000000000000000000000000000000000000000000000000000000000000000000000000000000000000000000000000000000000000000000000000000000000000000000000000000000000000000000000000000000000000000000000000000
310
00000000000000000000000000000000000000000000000000000000000000000000000000000000000000000000000000000000000000000000000000000000000000000000000000000000000000000000000000000000000000000000000000000000000000000000000000000000000000000000000000000000000000
310
0000000000000000000000000000000000000000000000000000000000000000000000000000000000000000000000000000000000FFFF00FFFF00FFFF00FFFF00FF0000FF00FFFF00FFFF00FFFF00FFFF00000000FFFF00FFFF00FFFF00FFFFFFFFFFFFFFFFFFFF00FFFF00FFFF00FFFF00000000FFFFFFFFFF00FFFFFFFF
310
FFFFFFFFFFFFFFFFFFFFFFFF00FFFFFFFFFF00000000FF00FFFFFF00FFFFFF00FFFF00FFFF00FFFF00FFFFFF00FFFFFF00FF00000000FF00FFFFFF00FFFFFF00FFFF00FFFF00FFFF00FFFFFF00FFFFFF00FF000000FFFF00FFFFFFFFFFFFFF00FFFF00FFFF00FFFF00FFFFFFFFFFFFFF00FFFF0000FFFFFFFFFFFFFFFFFFFF
310
FFFFFFFFFFFFFFFFFFFFFFFFFFFFFFFFFFFFFFFF0000FFFFFFFFFFFFFFFFFFFFFFFFFFFFFFFFFFFFFFFFFFFFFFFFFFFFFFFFFFFF000000000000000000000000000000000000000000000000000000000000000000000000000000000000000000000000000000000000000000000000000000000000000000000000000000
310
00000000000000000000000000000000000000000000000000000000000000000000000000000000000000000000000000000000000000000000000000000000000000000000000000000000000000000000000000000000000000000000000000000000000000000000000000000000000000000000000000000000000000
310
00000000000000000000000000000000000000000000000000000000000000000000000000000000000000000000000000000000000000000000000000000000000000000000000000000000000000000000000000000000000000000000000000000000000000000000000000000000000000000000000000000000000000
310
0000000000000000000000000000000000000000000000000000000000000000000000000000000000000000000000000000000000000000
102
{BLKREFS
331
693
102
}
1001
ACAD
1000
DesignCenter Data
1002
{
1070
     1
1070
     4
1002
}
  0
BLOCK_RECORD
  5
694
330
1
100
AcDbSymbolTableRecord
100
AcDbBlockTableRecord
  2
2
340
0
310
2800000020000000200000000100080000000000000400000000000000000000000000000000000000000000000080000080000000808000800000008000800080800000C0C0C000C0DCC000F0CAA6000020400000206000002080000020A0000020C0000020E00000400000004020000040400000406000004080000040A0
310
000040C0000040E00000600000006020000060400000606000006080000060A0000060C0000060E00000800000008020000080400000806000008080000080A0000080C0000080E00000A0000000A0200000A0400000A0600000A0800000A0A00000A0C00000A0E00000C0000000C0200000C0400000C0600000C0800000C0
310
A00000C0C00000C0E00000E0000000E0200000E0400000E0600000E0800000E0A00000E0C00000E0E00040000000400020004000400040006000400080004000A0004000C0004000E00040200000402020004020400040206000402080004020A0004020C0004020E000404000004040200040404000404060004040800040
310
40A0004040C0004040E00040600000406020004060400040606000406080004060A0004060C0004060E00040800000408020004080400040806000408080004080A0004080C0004080E00040A0000040A0200040A0400040A0600040A0800040A0A00040A0C00040A0E00040C0000040C0200040C0400040C0600040C08000
310
40C0A00040C0C00040C0E00040E0000040E0200040E0400040E0600040E0800040E0A00040E0C00040E0E00080000000800020008000400080006000800080008000A0008000C0008000E00080200000802020008020400080206000802080008020A0008020C0008020E00080400000804020008040400080406000804080
310
008040A0008040C0008040E00080600000806020008060400080606000806080008060A0008060C0008060E00080800000808020008080400080806000808080008080A0008080C0008080E00080A0000080A0200080A0400080A0600080A0800080A0A00080A0C00080A0E00080C0000080C0200080C0400080C0600080C0
310
800080C0A00080C0C00080C0E00080E0000080E0200080E0400080E0600080E0800080E0A00080E0C00080E0E000C0000000C0002000C0004000C0006000C0008000C000A000C000C000C000E000C0200000C0202000C0204000C0206000C0208000C020A000C020C000C020E000C0400000C0402000C0404000C0406000C0
310
408000C040A000C040C000C040E000C0600000C0602000C0604000C0606000C0608000C060A000C060C000C060E000C0800000C0802000C0804000C0806000C0808000C080A000C080C000C080E000C0A00000C0A02000C0A04000C0A06000C0A08000C0A0A000C0A0C000C0A0E000C0C00000C0C02000C0C04000C0C06000
310
C0C08000C0C0A000F0FBFF00A4A0A000808080000000FF0000FF000000FFFF00FF000000FF00FF00FFFF0000FFFFFF0000000000000000000000000000000000000000000000000000000000000000000000000000000000000000000000000000000000000000000000000000000000000000000000000000000000000000
310
00000000000000000000000000000000000000000000000000000000000000000000000000000000000000000000000000000000000000000000000000000000000000000000000000000000000000000000000000000000000000000000000000000000000000000000000000000000000000000000000000000000000000
310
00000000000000000000000000000000000000000000000000000000000000000000000000000000000000000000000000000000000000000000000000000000000000000000000000000000000000000000000000000000000000000000000000000000000000000000000000000000000000000000000000000000000000
310
00000000000000000000000000000000000000000000000000000000000000000000000000000000000000000000000000000000000000000000000000000000000000000000000000000000000000000000000000000000000000000000000000000000000000000000000000000000000000000000000000000000000000
310
000000000000000000000000000000000000000000FFFFFFFFFFFFFFFFFFFFFFFFFFFFFFFFFFFFFFFFFFFFFFFFFFFFFFFFFFFF0000FFFFFFFFFFFFFFFFFFFFFFFFFFFFFFFFFFFFFFFFFFFFFFFFFFFFFFFFFFFF0000000000000000000000000000000000000000000000000000000000000000000000000000000000000000
310
00000000000000000000000000000000000000000000000000000000000000000000000000000000000000000000000000000000000000000000000000000000000000000000000000000000000000000000000000000000000000000000000000000000000000000000000000000000000000000000000000000000000000
310
00000000000000000000000000000000000000000000000000000000000000000000000000000000000000000000000000000000000000000000000000000000000000000000000000000000000000000000000000000000000000000000000000000000000000000000000000000000000000000000000000000000000000
310
00000000000000000000000000000000000000000000000000000000000000000000000000000000000000000000000000000000000000000000000000000000000000000000000000000000000000000000000000000000000000000000000000000000000000000000000000000000000000000000000000000000000000
310
0000000000000000000000000000000000000000000000000000000000000000000000000000000000000000000000000000000000000000
102
{BLKREFS
331
69B
102
}
1001
ACAD
1000
DesignCenter Data
1002
{
1070
     1
1070
     4
1002
}
  0
BLOCK_RECORD
  5
69C
330
1
100
AcDbSymbolTableRecord
100
AcDbBlockTableRecord
  2
3
340
0
310
2800000020000000200000000100080000000000000400000000000000000000000000000000000000000000000080000080000000808000800000008000800080800000C0C0C000C0DCC000F0CAA6000020400000206000002080000020A0000020C0000020E00000400000004020000040400000406000004080000040A0
310
000040C0000040E00000600000006020000060400000606000006080000060A0000060C0000060E00000800000008020000080400000806000008080000080A0000080C0000080E00000A0000000A0200000A0400000A0600000A0800000A0A00000A0C00000A0E00000C0000000C0200000C0400000C0600000C0800000C0
310
A00000C0C00000C0E00000E0000000E0200000E0400000E0600000E0800000E0A00000E0C00000E0E00040000000400020004000400040006000400080004000A0004000C0004000E00040200000402020004020400040206000402080004020A0004020C0004020E000404000004040200040404000404060004040800040
310
40A0004040C0004040E00040600000406020004060400040606000406080004060A0004060C0004060E00040800000408020004080400040806000408080004080A0004080C0004080E00040A0000040A0200040A0400040A0600040A0800040A0A00040A0C00040A0E00040C0000040C0200040C0400040C0600040C08000
310
40C0A00040C0C00040C0E00040E0000040E0200040E0400040E0600040E0800040E0A00040E0C00040E0E00080000000800020008000400080006000800080008000A0008000C0008000E00080200000802020008020400080206000802080008020A0008020C0008020E00080400000804020008040400080406000804080
310
008040A0008040C0008040E00080600000806020008060400080606000806080008060A0008060C0008060E00080800000808020008080400080806000808080008080A0008080C0008080E00080A0000080A0200080A0400080A0600080A0800080A0A00080A0C00080A0E00080C0000080C0200080C0400080C0600080C0
310
800080C0A00080C0C00080C0E00080E0000080E0200080E0400080E0600080E0800080E0A00080E0C00080E0E000C0000000C0002000C0004000C0006000C0008000C000A000C000C000C000E000C0200000C0202000C0204000C0206000C0208000C020A000C020C000C020E000C0400000C0402000C0404000C0406000C0
310
408000C040A000C040C000C040E000C0600000C0602000C0604000C0606000C0608000C060A000C060C000C060E000C0800000C0802000C0804000C0806000C0808000C080A000C080C000C080E000C0A00000C0A02000C0A04000C0A06000C0A08000C0A0A000C0A0C000C0A0E000C0C00000C0C02000C0C04000C0C06000
310
C0C08000C0C0A000F0FBFF00A4A0A000808080000000FF0000FF000000FFFF00FF000000FF00FF00FFFF0000FFFFFF000000000000000000000000000000000000000000000000000000000000000000000000000000000000000000000000FFFF000000000000000000000000000000000000000000000000000000000000
310
FFFF000000000000000000000000000000000000000000000000000000000000FFFF000000000000000000000000000000000000000000000000000000000000FFFF000000000000000000000000000000000000000000000000000000000000FFFF0000000000000000000000000000000000000000000000000000000000
310
00FFFF000000000000000000000000000000000000000000000000000000000000FFFF000000000000000000000000000000000000000000000000000000000000FFFF000000000000000000000000000000000000000000000000000000000000FFFF00000000000000000000000000000000000000000000000000000000
310
0000FFFF0000000000000000000000000000000000000000000000000000000000FFFFFFFF00000000000000000000000000000000000000000000000000000000FF0000FF00000000000000000000000000000000000000000000000000000000FF0000FF0000000000000000000000000000000000000000000000000000
310
0000FF0000FF00000000000000000000000000000000000000000000000000000000FF0000FF00000000000000000000000000000000000000000000000000000000FF0000FF00000000000000000000000000000000000000000000000000000000FF0000FF00000000000000000000000000000000000000000000000000
310
000000FF0000FF00000000000000000000000000000000000000000000000000000000FF0000FF00000000000000000000000000000000000000000000000000000000FF0000FF00000000000000000000000000000000000000000000000000000000FF0000FF000000000000000000000000000000000000000000000000
310
00000000FF0000FF00000000000000000000000000000000000000000000000000000000FFFFFFFF00000000000000000000000000000000000000000000000000000000FF0000FF000000000000000000000000000000000000000000000000000000FFFF0000FFFF00000000000000000000000000000000000000000000
310
00000000FF00000000FF0000000000000000000000000000000000000000000000000000FF00000000FF0000000000000000000000000000000000000000000000000000FF00000000FF0000000000000000000000000000000000000000000000000000FF00000000FF000000000000000000000000000000000000000000
310
0000000000FFFFFFFFFFFF000000000000000000000000000000000000000000000000000000000000000000000000000000000000000000
102
{BLKREFS
331
6BC
102
}
1001
ACAD
1000
DesignCenter Data
1002
{
1070
     1
1070
     4
1002
}
  0
BLOCK_RECORD
  5
6BD
330
1
100
AcDbSymbolTableRecord
100
AcDbBlockTableRecord
  2
4
340
0
310
2800000020000000200000000100080000000000000400000000000000000000000000000000000000000000000080000080000000808000800000008000800080800000C0C0C000C0DCC000F0CAA6000020400000206000002080000020A0000020C0000020E00000400000004020000040400000406000004080000040A0
310
000040C0000040E00000600000006020000060400000606000006080000060A0000060C0000060E00000800000008020000080400000806000008080000080A0000080C0000080E00000A0000000A0200000A0400000A0600000A0800000A0A00000A0C00000A0E00000C0000000C0200000C0400000C0600000C0800000C0
310
A00000C0C00000C0E00000E0000000E0200000E0400000E0600000E0800000E0A00000E0C00000E0E00040000000400020004000400040006000400080004000A0004000C0004000E00040200000402020004020400040206000402080004020A0004020C0004020E000404000004040200040404000404060004040800040
310
40A0004040C0004040E00040600000406020004060400040606000406080004060A0004060C0004060E00040800000408020004080400040806000408080004080A0004080C0004080E00040A0000040A0200040A0400040A0600040A0800040A0A00040A0C00040A0E00040C0000040C0200040C0400040C0600040C08000
310
40C0A00040C0C00040C0E00040E0000040E0200040E0400040E0600040E0800040E0A00040E0C00040E0E00080000000800020008000400080006000800080008000A0008000C0008000E00080200000802020008020400080206000802080008020A0008020C0008020E00080400000804020008040400080406000804080
310
008040A0008040C0008040E00080600000806020008060400080606000806080008060A0008060C0008060E00080800000808020008080400080806000808080008080A0008080C0008080E00080A0000080A0200080A0400080A0600080A0800080A0A00080A0C00080A0E00080C0000080C0200080C0400080C0600080C0
310
800080C0A00080C0C00080C0E00080E0000080E0200080E0400080E0600080E0800080E0A00080E0C00080E0E000C0000000C0002000C0004000C0006000C0008000C000A000C000C000C000E000C0200000C0202000C0204000C0206000C0208000C020A000C020C000C020E000C0400000C0402000C0404000C0406000C0
310
408000C040A000C040C000C040E000C0600000C0602000C0604000C0606000C0608000C060A000C060C000C060E000C0800000C0802000C0804000C0806000C0808000C080A000C080C000C080E000C0A00000C0A02000C0A04000C0A06000C0A08000C0A0A000C0A0C000C0A0E000C0C00000C0C02000C0C04000C0C06000
310
C0C08000C0C0A000F0FBFF00A4A0A000808080000000FF0000FF000000FFFF00FF000000FF00FF00FFFF0000FFFFFF0000000000000000000000000000000000000000000000000000000000000000000000000000000000000000000000000000000000000000000000000000000000000000000000000000000000000000
310
00000000000000000000000000000000000000000000000000000000000000000000000000000000000000000000000000000000000000000000000000000000000000000000000000000000FFFF000000000000000000000000000000000000000000000000000000FFFFFFFFFF0000000000000000000000000000000000
310
00000000000000000000FFFFFFFFFFFF000000000000000000000000000000000000000000000000FFFFFFFFFFFFFFFF000000000000000000000000000000000000000000FFFF00FFFFFFFFFF00FFFF000000000000000000000000000000000000000000FFFFFFFFFFFFFFFF00FFFF000000000000000000000000000000
310
000000FFFF00FFFFFFFFFFFFFFFF00FFFF00000000000000000000000000000000FF00FFFFFFFFFFFFFF00FFFFFFFFFFFFFF000000000000000000000000000000FFFFFFFFFF00FFFFFF00FFFFFFFF00FFFF000000000000000000000000FFFF00FFFFFFFFFF00FFFFFFFFFFFF0000FFFF0000000000000000000000FF00FF
310
FFFFFFFFFFFFFF00FFFF00FF0000FFFF000000000000000000000000FFFF00FFFFFFFFFFFFFFFFFF00FFFF0000FF0000000000000000000000FFFFFFFFFFFFFFFFFFFFFFFFFFFFFFFF0000FFFF000000000000000000000000FFFFFFFFFFFF00FFFFFFFFFF00FF0000FFFF000000000000000000000000FFFFFFFFFFFFFFFF
310
00FFFFFF00FFFF0000FF0000000000000000000000000000FFFFFFFFFF00FFFFFFFF00FFFF0000FFFF000000000000000000000000000000FFFFFFFFFF00FFFF00FFFF0000FFFF00000000000000000000000000000000FFFFFFFFFFFFFFFF00FF0000FFFF000000000000000000000000000000000000FF00FFFFFFFF00FF
310
FF0000FF0000000000000000000000000000000000000000FF00FFFF00FFFF0000FFFF000000000000000000000000000000000000000000FFFFFF00FF0000FFFF00000000000000000000000000000000000000000000FFFF00FFFF0000FF000000000000000000000000000000000000000000000000FFFFFF0000FFFF00
310
000000000000000000000000000000000000000000000000FF0000FFFF00000000000000000000000000000000000000000000000000000000FFFF0000000000000000000000000000000000000000000000000000000000000000000000000000000000000000000000000000000000000000000000000000000000000000
310
0000000000000000000000000000000000000000000000000000000000000000000000000000000000000000000000000000000000000000
102
{BLKREFS
331
805
102
}
1001
ACAD
1000
DesignCenter Data
1002
{
1070
     1
1070
     4
1002
}
  0
ENDTAB
  0
ENDSEC
  0
SECTION
  2
BLOCKS
  0
BLOCK
  5
20
330
1F
100
AcDbEntity
  8
0
100
AcDbBlockBegin
  2
*Model_Space
 70
     0
 10
0.0
 20
0.0
 30
0.0
  3
*Model_Space
  1

  0
ENDBLK
  5
21
330
1F
100
AcDbEntity
  8
0
100
AcDbBlockEnd
  0
BLOCK
  5
D4
330
D2
100
AcDbEntity
 67
     1
  8
0
100
AcDbBlockBegin
  2
*Paper_Space
 70
     0
 10
0.0
 20
0.0
 30
0.0
  3
*Paper_Space
  1

  0
ENDBLK
  5
D5
330
D2
100
AcDbEntity
 67
     1
  8
0
100
AcDbBlockEnd
  0
BLOCK
  5
D8
330
D6
100
AcDbEntity
 67
     1
  8
0
100
AcDbBlockBegin
  2
*Paper_Space0
 70
     0
 10
0.0
 20
0.0
 30
0.0
  3
*Paper_Space0
  1

  0
ENDBLK
  5
D9
330
D6
100
AcDbEntity
 67
     1
  8
0
100
AcDbBlockEnd
  0
BLOCK
  5
5E0
330
5DF
100
AcDbEntity
  8
0
100
AcDbBlockBegin
  2
1
 70
     0
 10
0.0
 20
0.0
 30
0.0
  3
1
  1

  0
LINE
  5
5E2
330
5DF
100
AcDbEntity
  8
0
  6
Continuous
 62
     7
370
    15
100
AcDbLine
 10
2332.632000915758
 20
835.6342241860328
 30
0.0
 11
2332.632000915758
 21
840.2342241860329
 31
0.0
  0
LINE
  5
5E3
330
5DF
100
AcDbEntity
  8
0
  6
Continuous
 62
     7
370
    15
100
AcDbLine
 10
2226.332000915759
 20
835.6342241860328
 30
0.0
 11
2332.632000915758
 21
835.6342241860328
 31
0.0
  0
LINE
  5
5E4
330
5DF
100
AcDbEntity
  8
0
  6
Continuous
 62
     7
370
    15
100
AcDbLine
 10
2332.632000915758
 20
840.2342241860329
 30
0.0
 11
2226.332000915759
 21
840.2342241860329
 31
0.0
  0
LINE
  5
5E5
330
5DF
100
AcDbEntity
  8
0
  6
Continuous
 62
     7
370
    15
100
AcDbLine
 10
2226.332000915759
 20
840.2342241860329
 30
0.0
 11
2226.332000915759
 21
835.6342241860328
 31
0.0
  0
LINE
  5
5E6
330
5DF
100
AcDbEntity
  8
0
  6
Continuous
 62
     7
370
    15
100
AcDbLine
 10
2309.232000915759
 20
820.5342241860329
 30
0.0
 11
2309.232000915759
 21
832.9342241860329
 31
0.0
  0
LINE
  5
5E7
330
5DF
100
AcDbEntity
  8
0
  6
Continuous
 62
     7
370
    15
100
AcDbLine
 10
2309.232000915759
 20
820.5342241860329
 30
0.0
 11
2303.232000915758
 21
820.5342241860329
 31
0.0
  0
LINE
  5
5E8
330
5DF
100
AcDbEntity
  8
0
  6
Continuous
 62
     7
370
    15
100
AcDbLine
 10
2287.832000915759
 20
820.5342241860329
 30
0.0
 11
2287.832000915759
 21
832.9342241860329
 31
0.0
  0
LINE
  5
5E9
330
5DF
100
AcDbEntity
  8
0
  6
Continuous
 62
     7
370
    15
100
AcDbLine
 10
2287.832000915759
 20
820.5342241860329
 30
0.0
 11
2281.832000915759
 21
820.5342241860329
 31
0.0
  0
LINE
  5
5EA
330
5DF
100
AcDbEntity
  8
0
  6
Continuous
 62
     7
370
    15
100
AcDbLine
 10
2277.132000915758
 20
820.5342241860329
 30
0.0
 11
2277.132000915758
 21
832.9342241860329
 31
0.0
  0
LINE
  5
5EB
330
5DF
100
AcDbEntity
  8
0
  6
Continuous
 62
     7
370
    15
100
AcDbLine
 10
2277.132000915758
 20
820.5342241860329
 30
0.0
 11
2271.132000915759
 21
820.5342241860329
 31
0.0
  0
LINE
  5
5EC
330
5DF
100
AcDbEntity
  8
0
  6
Continuous
 62
     7
370
    15
100
AcDbLine
 10
2271.132000915759
 20
832.9342241860329
 30
0.0
 11
2271.132000915759
 21
820.5342241860329
 31
0.0
  0
LINE
  5
5ED
330
5DF
100
AcDbEntity
  8
0
  6
Continuous
 62
     7
370
    15
100
AcDbLine
 10
2260.432000915759
 20
832.9342241860329
 30
0.0
 11
2260.432000915759
 21
820.5342241860329
 31
0.0
  0
LINE
  5
5EE
330
5DF
100
AcDbEntity
  8
0
  6
Continuous
 62
     7
370
    15
100
AcDbLine
 10
2255.732000915759
 20
832.9342241860329
 30
0.0
 11
2260.432000915759
 21
832.9342241860329
 31
0.0
  0
LINE
  5
5EF
330
5DF
100
AcDbEntity
  8
0
  6
Continuous
 62
     7
370
    15
100
AcDbLine
 10
2255.732000915759
 20
820.5342241860329
 30
0.0
 11
2255.732000915759
 21
832.9342241860329
 31
0.0
  0
LINE
  5
5F0
330
5DF
100
AcDbEntity
  8
0
  6
Continuous
 62
     7
370
    15
100
AcDbLine
 10
2255.732000915759
 20
820.5342241860329
 30
0.0
 11
2249.732000915758
 21
820.5342241860329
 31
0.0
  0
LINE
  5
5F1
330
5DF
100
AcDbEntity
  8
0
  6
Continuous
 62
     7
370
    15
100
AcDbLine
 10
2249.732000915758
 20
832.9342241860329
 30
0.0
 11
2249.732000915758
 21
820.5342241860329
 31
0.0
  0
LINE
  5
5F2
330
5DF
100
AcDbEntity
  8
0
  6
Continuous
 62
     7
370
    15
100
AcDbLine
 10
2245.032000915759
 20
820.5342241860329
 30
0.0
 11
2239.032000915759
 21
820.5342241860329
 31
0.0
  0
LINE
  5
5F3
330
5DF
100
AcDbEntity
  8
0
  6
Continuous
 62
     7
370
    15
100
AcDbLine
 10
2234.332000915759
 20
820.5342241860329
 30
0.0
 11
2234.332000915759
 21
832.9342241860329
 31
0.0
  0
LINE
  5
5F4
330
5DF
100
AcDbEntity
  8
0
  6
Continuous
 62
     7
370
    15
100
AcDbLine
 10
2234.332000915759
 20
820.5342241860329
 30
0.0
 11
2228.332000915759
 21
820.5342241860329
 31
0.0
  0
LINE
  5
5F5
330
5DF
100
AcDbEntity
  8
0
  6
Continuous
 62
     7
370
    15
100
AcDbLine
 10
2228.332000915759
 20
832.9342241860329
 30
0.0
 11
2228.332000915759
 21
820.5342241860329
 31
0.0
  0
LINE
  5
5F6
330
5DF
100
AcDbEntity
  8
0
  6
Continuous
 62
     7
370
    15
100
AcDbLine
 10
2226.332000915759
 20
832.9342241860329
 30
0.0
 11
2228.332000915759
 21
832.9342241860329
 31
0.0
  0
LINE
  5
5F7
330
5DF
100
AcDbEntity
  8
0
  6
Continuous
 62
     7
370
    15
100
AcDbLine
 10
2330.632000915759
 20
832.9342241860329
 30
0.0
 11
2332.632000915758
 21
832.9342241860329
 31
0.0
  0
LINE
  5
5F8
330
5DF
100
AcDbEntity
  8
0
  6
Continuous
 62
     7
370
    15
100
AcDbLine
 10
2330.632000915759
 20
820.5342241860329
 30
0.0
 11
2330.632000915759
 21
832.9342241860329
 31
0.0
  0
LINE
  5
5F9
330
5DF
100
AcDbEntity
  8
0
  6
Continuous
 62
     7
370
    15
100
AcDbLine
 10
2324.632000915759
 20
832.9342241860329
 30
0.0
 11
2324.632000915759
 21
820.5342241860329
 31
0.0
  0
LINE
  5
5FA
330
5DF
100
AcDbEntity
  8
0
  6
Continuous
 62
     7
370
    15
100
AcDbLine
 10
2319.932000915759
 20
820.5342241860329
 30
0.0
 11
2319.932000915759
 21
832.9342241860329
 31
0.0
  0
LINE
  5
5FB
330
5DF
100
AcDbEntity
  8
0
  6
Continuous
 62
     7
370
    15
100
AcDbLine
 10
2319.932000915759
 20
820.5342241860329
 30
0.0
 11
2313.932000915759
 21
820.5342241860329
 31
0.0
  0
LINE
  5
5FC
330
5DF
100
AcDbEntity
  8
0
  6
Continuous
 62
     7
370
    15
100
AcDbLine
 10
2281.832000915759
 20
832.9342241860329
 30
0.0
 11
2281.832000915759
 21
820.5342241860329
 31
0.0
  0
LINE
  5
5FD
330
5DF
100
AcDbEntity
  8
0
  6
Continuous
 62
     7
370
    15
100
AcDbLine
 10
2330.632000915759
 20
820.5342241860329
 30
0.0
 11
2324.632000915759
 21
820.5342241860329
 31
0.0
  0
LINE
  5
5FE
330
5DF
100
AcDbEntity
  8
0
  6
Continuous
 62
     7
370
    15
100
AcDbLine
 10
2245.032000915759
 20
820.5342241860329
 30
0.0
 11
2245.032000915759
 21
832.9342241860329
 31
0.0
  0
LINE
  5
5FF
330
5DF
100
AcDbEntity
  8
0
  6
Continuous
 62
     7
370
    15
100
AcDbLine
 10
2266.432000915759
 20
820.5342241860329
 30
0.0
 11
2266.432000915759
 21
832.9342241860329
 31
0.0
  0
LINE
  5
600
330
5DF
100
AcDbEntity
  8
0
  6
Continuous
 62
     7
370
    15
100
AcDbLine
 10
2239.032000915759
 20
832.9342241860329
 30
0.0
 11
2239.032000915759
 21
820.5342241860329
 31
0.0
  0
LINE
  5
601
330
5DF
100
AcDbEntity
  8
0
  6
Continuous
 62
     7
370
    15
100
AcDbLine
 10
2298.532000915759
 20
820.5342241860329
 30
0.0
 11
2298.532000915759
 21
832.9342241860329
 31
0.0
  0
LINE
  5
602
330
5DF
100
AcDbEntity
  8
0
  6
Continuous
 62
     7
370
    15
100
AcDbLine
 10
2298.532000915759
 20
820.5342241860329
 30
0.0
 11
2292.532000915759
 21
820.5342241860329
 31
0.0
  0
LINE
  5
603
330
5DF
100
AcDbEntity
  8
0
  6
Continuous
 62
     7
370
    15
100
AcDbLine
 10
2292.532000915759
 20
832.9342241860329
 30
0.0
 11
2292.532000915759
 21
820.5342241860329
 31
0.0
  0
LINE
  5
604
330
5DF
100
AcDbEntity
  8
0
  6
Continuous
 62
     7
370
    15
100
AcDbLine
 10
2313.932000915759
 20
832.9342241860329
 30
0.0
 11
2313.932000915759
 21
820.5342241860329
 31
0.0
  0
LINE
  5
605
330
5DF
100
AcDbEntity
  8
0
  6
Continuous
 62
     7
370
    15
100
AcDbLine
 10
2298.532000915759
 20
832.9342241860329
 30
0.0
 11
2303.232000915758
 21
832.9342241860329
 31
0.0
  0
LINE
  5
606
330
5DF
100
AcDbEntity
  8
0
  6
Continuous
 62
     7
370
    15
100
AcDbLine
 10
2266.432000915759
 20
820.5342241860329
 30
0.0
 11
2260.432000915759
 21
820.5342241860329
 31
0.0
  0
LINE
  5
607
330
5DF
100
AcDbEntity
  8
0
  6
Continuous
 62
     7
370
    15
100
AcDbLine
 10
2309.232000915759
 20
832.9342241860329
 30
0.0
 11
2313.932000915759
 21
832.9342241860329
 31
0.0
  0
LINE
  5
608
330
5DF
100
AcDbEntity
  8
0
  6
Continuous
 62
     7
370
    15
100
AcDbLine
 10
2266.432000915759
 20
832.9342241860329
 30
0.0
 11
2271.132000915759
 21
832.9342241860329
 31
0.0
  0
LINE
  5
609
330
5DF
100
AcDbEntity
  8
0
  6
Continuous
 62
     7
370
    15
100
AcDbLine
 10
2277.132000915758
 20
832.9342241860329
 30
0.0
 11
2281.832000915759
 21
832.9342241860329
 31
0.0
  0
LINE
  5
60A
330
5DF
100
AcDbEntity
  8
0
  6
Continuous
 62
     7
370
    15
100
AcDbLine
 10
2303.232000915758
 20
832.9342241860329
 30
0.0
 11
2303.232000915758
 21
820.5342241860329
 31
0.0
  0
LINE
  5
60B
330
5DF
100
AcDbEntity
  8
0
  6
Continuous
 62
     7
370
    15
100
AcDbLine
 10
2245.032000915759
 20
832.9342241860329
 30
0.0
 11
2249.732000915758
 21
832.9342241860329
 31
0.0
  0
LINE
  5
60C
330
5DF
100
AcDbEntity
  8
0
  6
Continuous
 62
     7
370
    15
100
AcDbLine
 10
2234.332000915759
 20
832.9342241860329
 30
0.0
 11
2239.032000915759
 21
832.9342241860329
 31
0.0
  0
LINE
  5
60D
330
5DF
100
AcDbEntity
  8
0
  6
Continuous
 62
     7
370
    15
100
AcDbLine
 10
2319.932000915759
 20
832.9342241860329
 30
0.0
 11
2324.632000915759
 21
832.9342241860329
 31
0.0
  0
LINE
  5
60E
330
5DF
100
AcDbEntity
  8
0
  6
Continuous
 62
     7
370
    15
100
AcDbLine
 10
2287.832000915759
 20
832.9342241860329
 30
0.0
 11
2292.532000915759
 21
832.9342241860329
 31
0.0
  0
LINE
  5
60F
330
5DF
100
AcDbEntity
  8
0
  6
Continuous
 62
     7
370
    15
100
AcDbLine
 10
2332.632000915758
 20
832.9342241860329
 30
0.0
 11
2332.632000915758
 21
835.6342241860328
 31
0.0
  0
LINE
  5
610
330
5DF
100
AcDbEntity
  8
0
  6
Continuous
 62
     7
370
    15
100
AcDbLine
 10
2226.332000915759
 20
835.6342241860328
 30
0.0
 11
2226.332000915759
 21
832.9342241860329
 31
0.0
  0
LINE
  5
611
330
5DF
100
AcDbEntity
  8
0
  6
Continuous
 62
     7
370
    15
100
AcDbLine
 10
2244.332000915759
 20
820.5342241860329
 30
0.0
 11
2244.332000915759
 21
817.2342241860327
 31
0.0
  0
ARC
  5
612
330
5DF
100
AcDbEntity
  8
0
  6
Continuous
 62
     7
370
    15
100
AcDbCircle
 10
2243.832000915759
 20
817.2342241860327
 30
0.0
 40
0.5000000000000285
100
AcDbArc
 50
323.1301023541404
 51
0.0
  0
LINE
  5
613
330
5DF
100
AcDbEntity
  8
0
  6
Continuous
 62
     7
370
    15
100
AcDbLine
 10
2243.582000915758
 20
816.0675575193661
 30
0.0
 11
2244.232000915758
 21
816.9342241860327
 31
0.0
  0
ARC
  5
614
330
5DF
100
AcDbEntity
  8
0
  6
Continuous
 62
     7
370
    15
100
AcDbCircle
 10
2243.982000915758
 20
815.7675575193659
 30
0.0
 40
0.5
100
AcDbArc
 50
143.1301023541403
 51
180.0000000000065
  0
LINE
  5
615
330
5DF
100
AcDbEntity
  8
0
  6
Continuous
 62
     7
370
    15
100
AcDbLine
 10
2243.482000915758
 20
815.7675575193659
 30
0.0
 11
2243.482000915758
 21
811.2342241860329
 31
0.0
  0
ARC
  5
616
330
5DF
100
AcDbEntity
  8
0
  6
Continuous
 62
     7
370
    15
100
AcDbCircle
 10
2242.982000915759
 20
811.2342241860329
 30
0.0
 40
0.5
100
AcDbArc
 50
270.0
 51
0.0
  0
ARC
  5
617
330
5DF
100
AcDbEntity
  8
0
  6
Continuous
 62
     7
370
    15
100
AcDbCircle
 10
2240.082000915759
 20
815.7675575193662
 30
0.0
 40
0.5
100
AcDbArc
 50
0.0
 51
36.86989764585966
  0
LINE
  5
618
330
5DF
100
AcDbEntity
  8
0
  6
Continuous
 62
     7
370
    15
100
AcDbLine
 10
2239.832000915759
 20
816.9342241860327
 30
0.0
 11
2240.482000915759
 21
816.0675575193662
 31
0.0
  0
ARC
  5
619
330
5DF
100
AcDbEntity
  8
0
  6
Continuous
 62
     7
370
    15
100
AcDbCircle
 10
2240.232000915758
 20
817.2342241860329
 30
0.0
 40
0.5
100
AcDbArc
 50
180.0
 51
216.8698976458597
  0
LINE
  5
61A
330
5DF
100
AcDbEntity
  8
0
  6
Continuous
 62
     7
370
    15
100
AcDbLine
 10
2239.732000915759
 20
817.2342241860329
 30
0.0
 11
2239.732000915759
 21
820.5342241860329
 31
0.0
  0
LINE
  5
61B
330
5DF
100
AcDbEntity
  8
0
  6
Continuous
 62
     7
370
    15
100
AcDbLine
 10
2242.982000915759
 20
810.734224186033
 30
0.0
 11
2241.082000915759
 21
810.734224186033
 31
0.0
  0
ARC
  5
61C
330
5DF
100
AcDbEntity
  8
0
  6
Continuous
 62
     7
370
    15
100
AcDbCircle
 10
2241.082000915759
 20
811.2342241860329
 30
0.0
 40
0.5000000000000853
100
AcDbArc
 50
180.0
 51
270.0
  0
LINE
  5
61D
330
5DF
100
AcDbEntity
  8
0
  6
Continuous
 62
     7
370
    15
100
AcDbLine
 10
2240.582000915759
 20
811.2342241860329
 30
0.0
 11
2240.582000915759
 21
815.767557519366
 31
0.0
  0
LINE
  5
61E
330
5DF
100
AcDbEntity
  8
0
  6
Continuous
 62
     7
370
    15
100
AcDbLine
 10
2319.232000915758
 20
820.5342241860329
 30
0.0
 11
2319.232000915758
 21
817.2342241860327
 31
0.0
  0
ARC
  5
61F
330
5DF
100
AcDbEntity
  8
0
  6
Continuous
 62
     7
370
    15
100
AcDbCircle
 10
2318.732000915758
 20
817.2342241860327
 30
0.0
 40
0.5
100
AcDbArc
 50
323.1301023541404
 51
0.0
  0
LINE
  5
620
330
5DF
100
AcDbEntity
  8
0
  6
Continuous
 62
     7
370
    15
100
AcDbLine
 10
2318.482000915758
 20
816.0675575193661
 30
0.0
 11
2319.132000915759
 21
816.9342241860327
 31
0.0
  0
ARC
  5
621
330
5DF
100
AcDbEntity
  8
0
  6
Continuous
 62
     7
370
    15
100
AcDbCircle
 10
2318.882000915758
 20
815.7675575193659
 30
0.0
 40
0.5
100
AcDbArc
 50
143.1301023541403
 51
180.0
  0
LINE
  5
622
330
5DF
100
AcDbEntity
  8
0
  6
Continuous
 62
     7
370
    15
100
AcDbLine
 10
2318.382000915758
 20
815.7675575193659
 30
0.0
 11
2318.382000915759
 21
811.2342241860329
 31
0.0
  0
ARC
  5
623
330
5DF
100
AcDbEntity
  8
0
  6
Continuous
 62
     7
370
    15
100
AcDbCircle
 10
2317.882000915759
 20
811.2342241860329
 30
0.0
 40
0.5000000000000285
100
AcDbArc
 50
270.0
 51
0.0
  0
LINE
  5
624
330
5DF
100
AcDbEntity
  8
0
  6
Continuous
 62
     7
370
    15
100
AcDbLine
 10
2317.882000915759
 20
810.734224186033
 30
0.0
 11
2315.982000915759
 21
810.734224186033
 31
0.0
  0
ARC
  5
625
330
5DF
100
AcDbEntity
  8
0
  6
Continuous
 62
     7
370
    15
100
AcDbCircle
 10
2314.982000915759
 20
815.7675575193662
 30
0.0
 40
0.4999999999999773
100
AcDbArc
 50
0.0
 51
36.86989764585966
  0
LINE
  5
626
330
5DF
100
AcDbEntity
  8
0
  6
Continuous
 62
     7
370
    15
100
AcDbLine
 10
2314.732000915759
 20
816.9342241860327
 30
0.0
 11
2315.382000915759
 21
816.0675575193662
 31
0.0
  0
ARC
  5
627
330
5DF
100
AcDbEntity
  8
0
  6
Continuous
 62
     7
370
    15
100
AcDbCircle
 10
2315.132000915758
 20
817.2342241860329
 30
0.0
 40
0.5
100
AcDbArc
 50
180.0
 51
216.8698976458597
  0
LINE
  5
628
330
5DF
100
AcDbEntity
  8
0
  6
Continuous
 62
     7
370
    15
100
AcDbLine
 10
2314.632000915759
 20
817.2342241860329
 30
0.0
 11
2314.632000915759
 21
820.5342241860329
 31
0.0
  0
LINE
  5
629
330
5DF
100
AcDbEntity
  8
0
  6
Continuous
 62
     7
370
    15
100
AcDbLine
 10
2315.482000915759
 20
811.2342241860329
 30
0.0
 11
2315.482000915759
 21
815.7675575193662
 31
0.0
  0
ARC
  5
62A
330
5DF
100
AcDbEntity
  8
0
  6
Continuous
 62
     7
370
    15
100
AcDbCircle
 10
2315.982000915759
 20
811.2342241860329
 30
0.0
 40
0.5000000000000569
100
AcDbArc
 50
180.0
 51
270.0
  0
LINE
  5
62B
330
5DF
100
AcDbEntity
  8
0
  6
Continuous
 62
     7
370
    15
100
AcDbLine
 10
2255.032000915758
 20
820.5342241860329
 30
0.0
 11
2255.032000915758
 21
817.2342241860327
 31
0.0
  0
ARC
  5
62C
330
5DF
100
AcDbEntity
  8
0
  6
Continuous
 62
     7
370
    15
100
AcDbCircle
 10
2254.532000915759
 20
817.2342241860327
 30
0.0
 40
0.5
100
AcDbArc
 50
323.1301023541404
 51
0.0
  0
LINE
  5
62D
330
5DF
100
AcDbEntity
  8
0
  6
Continuous
 62
     7
370
    15
100
AcDbLine
 10
2254.282000915758
 20
816.0675575193661
 30
0.0
 11
2254.932000915759
 21
816.9342241860327
 31
0.0
  0
ARC
  5
62E
330
5DF
100
AcDbEntity
  8
0
  6
Continuous
 62
     7
370
    15
100
AcDbCircle
 10
2254.682000915758
 20
815.7675575193659
 30
0.0
 40
0.5
100
AcDbArc
 50
143.1301023541403
 51
180.0000000000065
  0
LINE
  5
62F
330
5DF
100
AcDbEntity
  8
0
  6
Continuous
 62
     7
370
    15
100
AcDbLine
 10
2254.182000915758
 20
815.7675575193659
 30
0.0
 11
2254.182000915758
 21
811.2342241860329
 31
0.0
  0
ARC
  5
630
330
5DF
100
AcDbEntity
  8
0
  6
Continuous
 62
     7
370
    15
100
AcDbCircle
 10
2253.682000915759
 20
811.2342241860329
 30
0.0
 40
0.5
100
AcDbArc
 50
270.0
 51
0.0
  0
LINE
  5
631
330
5DF
100
AcDbEntity
  8
0
  6
Continuous
 62
     7
370
    15
100
AcDbLine
 10
2253.682000915759
 20
810.734224186033
 30
0.0
 11
2251.782000915758
 21
810.734224186033
 31
0.0
  0
LINE
  5
632
330
5DF
100
AcDbEntity
  8
0
  6
Continuous
 62
     7
370
    15
100
AcDbLine
 10
2251.282000915759
 20
811.2342241860329
 30
0.0
 11
2251.282000915759
 21
815.7675575193662
 31
0.0
  0
LINE
  5
633
330
5DF
100
AcDbEntity
  8
0
  6
Continuous
 62
     7
370
    15
100
AcDbLine
 10
2250.432000915759
 20
817.2342241860329
 30
0.0
 11
2250.432000915759
 21
820.5342241860329
 31
0.0
  0
ARC
  5
634
330
5DF
100
AcDbEntity
  8
0
  6
Continuous
 62
     7
370
    15
100
AcDbCircle
 10
2250.782000915759
 20
815.7675575193662
 30
0.0
 40
0.4999999999999773
100
AcDbArc
 50
0.0
 51
36.86989764585966
  0
ARC
  5
635
330
5DF
100
AcDbEntity
  8
0
  6
Continuous
 62
     7
370
    15
100
AcDbCircle
 10
2251.782000915758
 20
811.2342241860329
 30
0.0
 40
0.5000000000000853
100
AcDbArc
 50
180.0
 51
270.0
  0
LINE
  5
636
330
5DF
100
AcDbEntity
  8
0
  6
Continuous
 62
     7
370
    15
100
AcDbLine
 10
2250.532000915759
 20
816.9342241860327
 30
0.0
 11
2251.182000915759
 21
816.0675575193662
 31
0.0
  0
ARC
  5
637
330
5DF
100
AcDbEntity
  8
0
  6
Continuous
 62
     7
370
    15
100
AcDbCircle
 10
2250.932000915759
 20
817.2342241860329
 30
0.0
 40
0.5
100
AcDbArc
 50
180.0
 51
216.8698976458597
  0
LINE
  5
638
330
5DF
100
AcDbEntity
  8
0
  6
Continuous
 62
     7
370
    15
100
AcDbLine
 10
2265.732000915758
 20
820.5342241860329
 30
0.0
 11
2265.732000915758
 21
817.2342241860327
 31
0.0
  0
ARC
  5
639
330
5DF
100
AcDbEntity
  8
0
  6
Continuous
 62
     7
370
    15
100
AcDbCircle
 10
2265.232000915759
 20
817.2342241860327
 30
0.0
 40
0.5
100
AcDbArc
 50
323.1301023541404
 51
0.0
  0
LINE
  5
63A
330
5DF
100
AcDbEntity
  8
0
  6
Continuous
 62
     7
370
    15
100
AcDbLine
 10
2264.982000915758
 20
816.0675575193661
 30
0.0
 11
2265.632000915759
 21
816.9342241860327
 31
0.0
  0
ARC
  5
63B
330
5DF
100
AcDbEntity
  8
0
  6
Continuous
 62
     7
370
    15
100
AcDbCircle
 10
2265.382000915758
 20
815.7675575193659
 30
0.0
 40
0.5
100
AcDbArc
 50
143.1301023541403
 51
180.0000000000065
  0
LINE
  5
63C
330
5DF
100
AcDbEntity
  8
0
  6
Continuous
 62
     7
370
    15
100
AcDbLine
 10
2264.882000915759
 20
815.7675575193659
 30
0.0
 11
2264.882000915759
 21
811.2342241860329
 31
0.0
  0
ARC
  5
63D
330
5DF
100
AcDbEntity
  8
0
  6
Continuous
 62
     7
370
    15
100
AcDbCircle
 10
2264.382000915759
 20
811.2342241860329
 30
0.0
 40
0.5
100
AcDbArc
 50
270.0
 51
0.0
  0
ARC
  5
63E
330
5DF
100
AcDbEntity
  8
0
  6
Continuous
 62
     7
370
    15
100
AcDbCircle
 10
2261.482000915759
 20
815.7675575193662
 30
0.0
 40
0.4999999999999773
100
AcDbArc
 50
0.0
 51
36.86989764585966
  0
ARC
  5
63F
330
5DF
100
AcDbEntity
  8
0
  6
Continuous
 62
     7
370
    15
100
AcDbCircle
 10
2261.632000915759
 20
817.2342241860329
 30
0.0
 40
0.5
100
AcDbArc
 50
180.0
 51
216.8698976458597
  0
LINE
  5
640
330
5DF
100
AcDbEntity
  8
0
  6
Continuous
 62
     7
370
    15
100
AcDbLine
 10
2261.132000915758
 20
817.2342241860329
 30
0.0
 11
2261.132000915758
 21
820.5342241860329
 31
0.0
  0
LINE
  5
641
330
5DF
100
AcDbEntity
  8
0
  6
Continuous
 62
     7
370
    15
100
AcDbLine
 10
2261.982000915759
 20
811.2342241860329
 30
0.0
 11
2261.982000915759
 21
815.7675575193662
 31
0.0
  0
LINE
  5
642
330
5DF
100
AcDbEntity
  8
0
  6
Continuous
 62
     7
370
    15
100
AcDbLine
 10
2264.382000915759
 20
810.734224186033
 30
0.0
 11
2262.482000915759
 21
810.734224186033
 31
0.0
  0
LINE
  5
643
330
5DF
100
AcDbEntity
  8
0
  6
Continuous
 62
     7
370
    15
100
AcDbLine
 10
2261.232000915759
 20
816.9342241860327
 30
0.0
 11
2261.882000915759
 21
816.0675575193662
 31
0.0
  0
ARC
  5
644
330
5DF
100
AcDbEntity
  8
0
  6
Continuous
 62
     7
370
    15
100
AcDbCircle
 10
2262.482000915759
 20
811.2342241860329
 30
0.0
 40
0.5000000000000569
100
AcDbArc
 50
180.0
 51
270.0
  0
LINE
  5
645
330
5DF
100
AcDbEntity
  8
0
  6
Continuous
 62
     7
370
    15
100
AcDbLine
 10
2297.832000915759
 20
820.5342241860329
 30
0.0
 11
2297.832000915759
 21
817.2342241860327
 31
0.0
  0
ARC
  5
646
330
5DF
100
AcDbEntity
  8
0
  6
Continuous
 62
     7
370
    15
100
AcDbCircle
 10
2297.332000915758
 20
817.2342241860327
 30
0.0
 40
0.5
100
AcDbArc
 50
323.1301023541404
 51
0.0
  0
LINE
  5
647
330
5DF
100
AcDbEntity
  8
0
  6
Continuous
 62
     7
370
    15
100
AcDbLine
 10
2297.082000915759
 20
816.0675575193661
 30
0.0
 11
2297.732000915758
 21
816.9342241860327
 31
0.0
  0
ARC
  5
648
330
5DF
100
AcDbEntity
  8
0
  6
Continuous
 62
     7
370
    15
100
AcDbCircle
 10
2297.482000915758
 20
815.7675575193659
 30
0.0
 40
0.5
100
AcDbArc
 50
143.1301023541403
 51
180.0
  0
LINE
  5
649
330
5DF
100
AcDbEntity
  8
0
  6
Continuous
 62
     7
370
    15
100
AcDbLine
 10
2296.982000915758
 20
815.7675575193659
 30
0.0
 11
2296.982000915758
 21
811.2342241860329
 31
0.0
  0
ARC
  5
64A
330
5DF
100
AcDbEntity
  8
0
  6
Continuous
 62
     7
370
    15
100
AcDbCircle
 10
2296.482000915759
 20
811.2342241860329
 30
0.0
 40
0.5000000000000285
100
AcDbArc
 50
270.0
 51
0.0
  0
ARC
  5
64B
330
5DF
100
AcDbEntity
  8
0
  6
Continuous
 62
     7
370
    15
100
AcDbCircle
 10
2293.582000915759
 20
815.7675575193662
 30
0.0
 40
0.4999999999999773
100
AcDbArc
 50
0.0
 51
36.86989764585966
  0
LINE
  5
64C
330
5DF
100
AcDbEntity
  8
0
  6
Continuous
 62
     7
370
    15
100
AcDbLine
 10
2293.232000915759
 20
817.2342241860329
 30
0.0
 11
2293.232000915759
 21
820.5342241860329
 31
0.0
  0
ARC
  5
64D
330
5DF
100
AcDbEntity
  8
0
  6
Continuous
 62
     7
370
    15
100
AcDbCircle
 10
2293.732000915758
 20
817.2342241860329
 30
0.0
 40
0.5
100
AcDbArc
 50
180.0
 51
216.8698976458597
  0
ARC
  5
64E
330
5DF
100
AcDbEntity
  8
0
  6
Continuous
 62
     7
370
    15
100
AcDbCircle
 10
2294.582000915759
 20
811.2342241860329
 30
0.0
 40
0.5000000000000853
100
AcDbArc
 50
180.0
 51
270.0
  0
LINE
  5
64F
330
5DF
100
AcDbEntity
  8
0
  6
Continuous
 62
     7
370
    15
100
AcDbLine
 10
2293.332000915759
 20
816.9342241860327
 30
0.0
 11
2293.982000915759
 21
816.0675575193662
 31
0.0
  0
LINE
  5
650
330
5DF
100
AcDbEntity
  8
0
  6
Continuous
 62
     7
370
    15
100
AcDbLine
 10
2294.082000915759
 20
811.2342241860329
 30
0.0
 11
2294.082000915759
 21
815.7675575193662
 31
0.0
  0
LINE
  5
651
330
5DF
100
AcDbEntity
  8
0
  6
Continuous
 62
     7
370
    15
100
AcDbLine
 10
2296.482000915759
 20
810.734224186033
 30
0.0
 11
2294.582000915759
 21
810.734224186033
 31
0.0
  0
LINE
  5
652
330
5DF
100
AcDbEntity
  8
0
  6
Continuous
 62
     7
370
    15
100
AcDbLine
 10
2233.632000915759
 20
820.5342241860329
 30
0.0
 11
2233.632000915759
 21
817.2342241860327
 31
0.0
  0
ARC
  5
653
330
5DF
100
AcDbEntity
  8
0
  6
Continuous
 62
     7
370
    15
100
AcDbCircle
 10
2233.132000915759
 20
817.2342241860327
 30
0.0
 40
0.5
100
AcDbArc
 50
323.1301023541404
 51
0.0
  0
LINE
  5
654
330
5DF
100
AcDbEntity
  8
0
  6
Continuous
 62
     7
370
    15
100
AcDbLine
 10
2232.882000915759
 20
816.0675575193661
 30
0.0
 11
2233.532000915758
 21
816.9342241860327
 31
0.0
  0
ARC
  5
655
330
5DF
100
AcDbEntity
  8
0
  6
Continuous
 62
     7
370
    15
100
AcDbCircle
 10
2233.282000915759
 20
815.7675575193659
 30
0.0
 40
0.5
100
AcDbArc
 50
143.1301023541403
 51
180.0000000000065
  0
LINE
  5
656
330
5DF
100
AcDbEntity
  8
0
  6
Continuous
 62
     7
370
    15
100
AcDbLine
 10
2232.782000915758
 20
815.7675575193659
 30
0.0
 11
2232.782000915759
 21
811.2342241860329
 31
0.0
  0
ARC
  5
657
330
5DF
100
AcDbEntity
  8
0
  6
Continuous
 62
     7
370
    15
100
AcDbCircle
 10
2232.282000915759
 20
811.2342241860329
 30
0.0
 40
0.5
100
AcDbArc
 50
270.0
 51
0.0
  0
LINE
  5
658
330
5DF
100
AcDbEntity
  8
0
  6
Continuous
 62
     7
370
    15
100
AcDbLine
 10
2229.882000915758
 20
811.2342241860329
 30
0.0
 11
2229.882000915759
 21
815.767557519366
 31
0.0
  0
LINE
  5
659
330
5DF
100
AcDbEntity
  8
0
  6
Continuous
 62
     7
370
    15
100
AcDbLine
 10
2229.132000915758
 20
816.9342241860327
 30
0.0
 11
2229.782000915759
 21
816.0675575193662
 31
0.0
  0
LINE
  5
65A
330
5DF
100
AcDbEntity
  8
0
  6
Continuous
 62
     7
370
    15
100
AcDbLine
 10
2229.032000915759
 20
817.2342241860329
 30
0.0
 11
2229.032000915759
 21
820.5342241860329
 31
0.0
  0
ARC
  5
65B
330
5DF
100
AcDbEntity
  8
0
  6
Continuous
 62
     7
370
    15
100
AcDbCircle
 10
2229.382000915759
 20
815.7675575193662
 30
0.0
 40
0.5000000000000114
100
AcDbArc
 50
0.0
 51
36.86989764585966
  0
LINE
  5
65C
330
5DF
100
AcDbEntity
  8
0
  6
Continuous
 62
     7
370
    15
100
AcDbLine
 10
2232.282000915759
 20
810.734224186033
 30
0.0
 11
2230.382000915759
 21
810.734224186033
 31
0.0
  0
ARC
  5
65D
330
5DF
100
AcDbEntity
  8
0
  6
Continuous
 62
     7
370
    15
100
AcDbCircle
 10
2229.532000915758
 20
817.2342241860329
 30
0.0
 40
0.5000000000000114
100
AcDbArc
 50
180.0
 51
216.8698976458597
  0
ARC
  5
65E
330
5DF
100
AcDbEntity
  8
0
  6
Continuous
 62
     7
370
    15
100
AcDbCircle
 10
2230.382000915759
 20
811.2342241860329
 30
0.0
 40
0.5000000000000853
100
AcDbArc
 50
180.0
 51
270.0
  0
LINE
  5
65F
330
5DF
100
AcDbEntity
  8
0
  6
Continuous
 62
     7
370
    15
100
AcDbLine
 10
2276.432000915759
 20
820.5342241860329
 30
0.0
 11
2276.432000915759
 21
817.2342241860327
 31
0.0
  0
ARC
  5
660
330
5DF
100
AcDbEntity
  8
0
  6
Continuous
 62
     7
370
    15
100
AcDbCircle
 10
2275.932000915759
 20
817.2342241860327
 30
0.0
 40
0.5000000000000285
100
AcDbArc
 50
323.1301023541404
 51
0.0
  0
LINE
  5
661
330
5DF
100
AcDbEntity
  8
0
  6
Continuous
 62
     7
370
    15
100
AcDbLine
 10
2275.682000915758
 20
816.0675575193661
 30
0.0
 11
2276.332000915759
 21
816.9342241860327
 31
0.0
  0
ARC
  5
662
330
5DF
100
AcDbEntity
  8
0
  6
Continuous
 62
     7
370
    15
100
AcDbCircle
 10
2276.082000915758
 20
815.7675575193659
 30
0.0
 40
0.5
100
AcDbArc
 50
143.1301023541403
 51
180.0000000000065
  0
LINE
  5
663
330
5DF
100
AcDbEntity
  8
0
  6
Continuous
 62
     7
370
    15
100
AcDbLine
 10
2275.582000915759
 20
815.7675575193659
 30
0.0
 11
2275.582000915759
 21
811.2342241860329
 31
0.0
  0
ARC
  5
664
330
5DF
100
AcDbEntity
  8
0
  6
Continuous
 62
     7
370
    15
100
AcDbCircle
 10
2275.082000915759
 20
811.2342241860329
 30
0.0
 40
0.5
100
AcDbArc
 50
270.0
 51
0.0
  0
LINE
  5
665
330
5DF
100
AcDbEntity
  8
0
  6
Continuous
 62
     7
370
    15
100
AcDbLine
 10
2275.082000915759
 20
810.734224186033
 30
0.0
 11
2273.182000915759
 21
810.734224186033
 31
0.0
  0
ARC
  5
666
330
5DF
100
AcDbEntity
  8
0
  6
Continuous
 62
     7
370
    15
100
AcDbCircle
 10
2272.182000915758
 20
815.7675575193662
 30
0.0
 40
0.4999999999999773
100
AcDbArc
 50
0.0
 51
36.86989764585966
  0
ARC
  5
667
330
5DF
100
AcDbEntity
  8
0
  6
Continuous
 62
     7
370
    15
100
AcDbCircle
 10
2272.332000915759
 20
817.2342241860329
 30
0.0
 40
0.5
100
AcDbArc
 50
180.0
 51
216.8698976458597
  0
LINE
  5
668
330
5DF
100
AcDbEntity
  8
0
  6
Continuous
 62
     7
370
    15
100
AcDbLine
 10
2271.832000915759
 20
817.2342241860329
 30
0.0
 11
2271.832000915759
 21
820.5342241860329
 31
0.0
  0
LINE
  5
669
330
5DF
100
AcDbEntity
  8
0
  6
Continuous
 62
     7
370
    15
100
AcDbLine
 10
2272.682000915759
 20
811.2342241860329
 30
0.0
 11
2272.682000915759
 21
815.7675575193662
 31
0.0
  0
ARC
  5
66A
330
5DF
100
AcDbEntity
  8
0
  6
Continuous
 62
     7
370
    15
100
AcDbCircle
 10
2273.182000915759
 20
811.2342241860329
 30
0.0
 40
0.5000000000000569
100
AcDbArc
 50
180.0
 51
270.0
  0
LINE
  5
66B
330
5DF
100
AcDbEntity
  8
0
  6
Continuous
 62
     7
370
    15
100
AcDbLine
 10
2271.932000915759
 20
816.9342241860327
 30
0.0
 11
2272.582000915759
 21
816.0675575193662
 31
0.0
  0
LINE
  5
66C
330
5DF
100
AcDbEntity
  8
0
  6
Continuous
 62
     7
370
    15
100
AcDbLine
 10
2308.532000915759
 20
820.5342241860329
 30
0.0
 11
2308.532000915759
 21
817.2342241860327
 31
0.0
  0
ARC
  5
66D
330
5DF
100
AcDbEntity
  8
0
  6
Continuous
 62
     7
370
    15
100
AcDbCircle
 10
2308.032000915758
 20
817.2342241860327
 30
0.0
 40
0.5
100
AcDbArc
 50
323.1301023541404
 51
0.0
  0
LINE
  5
66E
330
5DF
100
AcDbEntity
  8
0
  6
Continuous
 62
     7
370
    15
100
AcDbLine
 10
2307.782000915758
 20
816.0675575193661
 30
0.0
 11
2308.432000915759
 21
816.9342241860327
 31
0.0
  0
ARC
  5
66F
330
5DF
100
AcDbEntity
  8
0
  6
Continuous
 62
     7
370
    15
100
AcDbCircle
 10
2308.182000915758
 20
815.7675575193659
 30
0.0
 40
0.5
100
AcDbArc
 50
143.1301023541403
 51
180.0
  0
LINE
  5
670
330
5DF
100
AcDbEntity
  8
0
  6
Continuous
 62
     7
370
    15
100
AcDbLine
 10
2307.682000915758
 20
815.7675575193659
 30
0.0
 11
2307.682000915758
 21
811.2342241860329
 31
0.0
  0
ARC
  5
671
330
5DF
100
AcDbEntity
  8
0
  6
Continuous
 62
     7
370
    15
100
AcDbCircle
 10
2307.182000915759
 20
811.2342241860329
 30
0.0
 40
0.5000000000000285
100
AcDbArc
 50
270.0
 51
0.0
  0
LINE
  5
672
330
5DF
100
AcDbEntity
  8
0
  6
Continuous
 62
     7
370
    15
100
AcDbLine
 10
2307.182000915759
 20
810.734224186033
 30
0.0
 11
2305.282000915759
 21
810.734224186033
 31
0.0
  0
ARC
  5
673
330
5DF
100
AcDbEntity
  8
0
  6
Continuous
 62
     7
370
    15
100
AcDbCircle
 10
2305.282000915759
 20
811.2342241860329
 30
0.0
 40
0.5000000000000853
100
AcDbArc
 50
180.0
 51
270.0
  0
ARC
  5
674
330
5DF
100
AcDbEntity
  8
0
  6
Continuous
 62
     7
370
    15
100
AcDbCircle
 10
2304.282000915759
 20
815.7675575193662
 30
0.0
 40
0.4999999999999773
100
AcDbArc
 50
0.0
 51
36.86989764585966
  0
LINE
  5
675
330
5DF
100
AcDbEntity
  8
0
  6
Continuous
 62
     7
370
    15
100
AcDbLine
 10
2303.932000915759
 20
817.2342241860329
 30
0.0
 11
2303.932000915759
 21
820.5342241860329
 31
0.0
  0
ARC
  5
676
330
5DF
100
AcDbEntity
  8
0
  6
Continuous
 62
     7
370
    15
100
AcDbCircle
 10
2304.432000915759
 20
817.2342241860329
 30
0.0
 40
0.5
100
AcDbArc
 50
180.0
 51
216.8698976458597
  0
LINE
  5
677
330
5DF
100
AcDbEntity
  8
0
  6
Continuous
 62
     7
370
    15
100
AcDbLine
 10
2304.032000915759
 20
816.9342241860327
 30
0.0
 11
2304.682000915759
 21
816.0675575193662
 31
0.0
  0
LINE
  5
678
330
5DF
100
AcDbEntity
  8
0
  6
Continuous
 62
     7
370
    15
100
AcDbLine
 10
2304.782000915759
 20
811.2342241860329
 30
0.0
 11
2304.782000915759
 21
815.7675575193662
 31
0.0
  0
LINE
  5
679
330
5DF
100
AcDbEntity
  8
0
  6
Continuous
 62
     7
370
    15
100
AcDbLine
 10
2287.132000915759
 20
820.5342241860329
 30
0.0
 11
2287.132000915759
 21
817.2342241860327
 31
0.0
  0
ARC
  5
67A
330
5DF
100
AcDbEntity
  8
0
  6
Continuous
 62
     7
370
    15
100
AcDbCircle
 10
2286.632000915759
 20
817.2342241860327
 30
0.0
 40
0.5
100
AcDbArc
 50
323.1301023541404
 51
0.0
  0
LINE
  5
67B
330
5DF
100
AcDbEntity
  8
0
  6
Continuous
 62
     7
370
    15
100
AcDbLine
 10
2286.382000915759
 20
816.0675575193661
 30
0.0
 11
2287.032000915758
 21
816.9342241860327
 31
0.0
  0
ARC
  5
67C
330
5DF
100
AcDbEntity
  8
0
  6
Continuous
 62
     7
370
    15
100
AcDbCircle
 10
2286.782000915758
 20
815.7675575193659
 30
0.0
 40
0.5000000000000228
100
AcDbArc
 50
143.1301023541403
 51
180.0000000000065
  0
LINE
  5
67D
330
5DF
100
AcDbEntity
  8
0
  6
Continuous
 62
     7
370
    15
100
AcDbLine
 10
2286.282000915758
 20
815.7675575193659
 30
0.0
 11
2286.282000915758
 21
811.2342241860329
 31
0.0
  0
ARC
  5
67E
330
5DF
100
AcDbEntity
  8
0
  6
Continuous
 62
     7
370
    15
100
AcDbCircle
 10
2285.782000915759
 20
811.2342241860329
 30
0.0
 40
0.5
100
AcDbArc
 50
270.0
 51
0.0
  0
ARC
  5
67F
330
5DF
100
AcDbEntity
  8
0
  6
Continuous
 62
     7
370
    15
100
AcDbCircle
 10
2283.882000915758
 20
811.2342241860329
 30
0.0
 40
0.5000000000000853
100
AcDbArc
 50
180.0
 51
270.0
  0
LINE
  5
680
330
5DF
100
AcDbEntity
  8
0
  6
Continuous
 62
     7
370
    15
100
AcDbLine
 10
2282.532000915759
 20
817.2342241860329
 30
0.0
 11
2282.532000915759
 21
820.5342241860329
 31
0.0
  0
ARC
  5
681
330
5DF
100
AcDbEntity
  8
0
  6
Continuous
 62
     7
370
    15
100
AcDbCircle
 10
2282.882000915759
 20
815.7675575193662
 30
0.0
 40
0.5
100
AcDbArc
 50
0.0
 51
36.86989764585966
  0
LINE
  5
682
330
5DF
100
AcDbEntity
  8
0
  6
Continuous
 62
     7
370
    15
100
AcDbLine
 10
2282.632000915759
 20
816.9342241860327
 30
0.0
 11
2283.282000915759
 21
816.0675575193662
 31
0.0
  0
LINE
  5
683
330
5DF
100
AcDbEntity
  8
0
  6
Continuous
 62
     7
370
    15
100
AcDbLine
 10
2283.382000915759
 20
811.2342241860329
 30
0.0
 11
2283.382000915759
 21
815.7675575193662
 31
0.0
  0
LINE
  5
684
330
5DF
100
AcDbEntity
  8
0
  6
Continuous
 62
     7
370
    15
100
AcDbLine
 10
2285.782000915759
 20
810.734224186033
 30
0.0
 11
2283.882000915758
 21
810.734224186033
 31
0.0
  0
ARC
  5
685
330
5DF
100
AcDbEntity
  8
0
  6
Continuous
 62
     7
370
    15
100
AcDbCircle
 10
2283.032000915758
 20
817.2342241860329
 30
0.0
 40
0.5
100
AcDbArc
 50
180.0
 51
216.8698976458597
  0
LINE
  5
686
330
5DF
100
AcDbEntity
  8
0
  6
Continuous
 62
     7
370
    15
100
AcDbLine
 10
2329.932000915759
 20
820.5342241860329
 30
0.0
 11
2329.932000915759
 21
817.2342241860327
 31
0.0
  0
ARC
  5
687
330
5DF
100
AcDbEntity
  8
0
  6
Continuous
 62
     7
370
    15
100
AcDbCircle
 10
2329.432000915759
 20
817.2342241860327
 30
0.0
 40
0.5
100
AcDbArc
 50
323.1301023541404
 51
0.0
  0
LINE
  5
688
330
5DF
100
AcDbEntity
  8
0
  6
Continuous
 62
     7
370
    15
100
AcDbLine
 10
2329.182000915758
 20
816.0675575193661
 30
0.0
 11
2329.832000915759
 21
816.9342241860327
 31
0.0
  0
ARC
  5
689
330
5DF
100
AcDbEntity
  8
0
  6
Continuous
 62
     7
370
    15
100
AcDbCircle
 10
2329.582000915758
 20
815.7675575193659
 30
0.0
 40
0.5
100
AcDbArc
 50
143.1301023541403
 51
180.0
  0
LINE
  5
68A
330
5DF
100
AcDbEntity
  8
0
  6
Continuous
 62
     7
370
    15
100
AcDbLine
 10
2329.082000915758
 20
815.7675575193659
 30
0.0
 11
2329.082000915758
 21
811.2342241860329
 31
0.0
  0
ARC
  5
68B
330
5DF
100
AcDbEntity
  8
0
  6
Continuous
 62
     7
370
    15
100
AcDbCircle
 10
2328.582000915758
 20
811.2342241860329
 30
0.0
 40
0.5000000000000285
100
AcDbArc
 50
270.0
 51
0.0
  0
LINE
  5
68C
330
5DF
100
AcDbEntity
  8
0
  6
Continuous
 62
     7
370
    15
100
AcDbLine
 10
2325.432000915759
 20
816.9342241860327
 30
0.0
 11
2326.082000915759
 21
816.0675575193662
 31
0.0
  0
LINE
  5
68D
330
5DF
100
AcDbEntity
  8
0
  6
Continuous
 62
     7
370
    15
100
AcDbLine
 10
2328.582000915758
 20
810.734224186033
 30
0.0
 11
2326.682000915759
 21
810.734224186033
 31
0.0
  0
ARC
  5
68E
330
5DF
100
AcDbEntity
  8
0
  6
Continuous
 62
     7
370
    15
100
AcDbCircle
 10
2325.682000915759
 20
815.7675575193662
 30
0.0
 40
0.5
100
AcDbArc
 50
0.0
 51
36.86989764585966
  0
LINE
  5
68F
330
5DF
100
AcDbEntity
  8
0
  6
Continuous
 62
     7
370
    15
100
AcDbLine
 10
2325.332000915759
 20
817.2342241860329
 30
0.0
 11
2325.332000915759
 21
820.5342241860329
 31
0.0
  0
ARC
  5
690
330
5DF
100
AcDbEntity
  8
0
  6
Continuous
 62
     7
370
    15
100
AcDbCircle
 10
2325.832000915759
 20
817.2342241860329
 30
0.0
 40
0.5
100
AcDbArc
 50
180.0
 51
216.8698976458597
  0
LINE
  5
691
330
5DF
100
AcDbEntity
  8
0
  6
Continuous
 62
     7
370
    15
100
AcDbLine
 10
2326.182000915759
 20
811.2342241860329
 30
0.0
 11
2326.182000915759
 21
815.7675575193662
 31
0.0
  0
ARC
  5
692
330
5DF
100
AcDbEntity
  8
0
  6
Continuous
 62
     7
370
    15
100
AcDbCircle
 10
2326.682000915759
 20
811.2342241860329
 30
0.0
 40
0.5000000000000853
100
AcDbArc
 50
180.0
 51
270.0
  0
ENDBLK
  5
5E1
330
5DF
100
AcDbEntity
  8
0
100
AcDbBlockEnd
  0
BLOCK
  5
695
330
694
100
AcDbEntity
  8
0
100
AcDbBlockBegin
  2
2
 70
     0
 10
0.0
 20
0.0
 30
0.0
  3
2
  1

  0
LINE
  5
697
330
694
100
AcDbEntity
  8
0
  6
Continuous
 62
     7
370
    15
100
AcDbLine
 10
2332.632000915758
 20
789.7040396886648
 30
0.0
 11
2332.632000915758
 21
795.2040396886648
 31
0.0
  0
LINE
  5
698
330
694
100
AcDbEntity
  8
0
  6
Continuous
 62
     7
370
    15
100
AcDbLine
 10
2332.632000915758
 20
789.7040396886648
 30
0.0
 11
2226.332000915759
 21
789.7040396886648
 31
0.0
  0
LINE
  5
699
330
694
100
AcDbEntity
  8
0
  6
Continuous
 62
     7
370
    15
100
AcDbLine
 10
2226.332000915759
 20
795.2040396886648
 30
0.0
 11
2226.332000915759
 21
789.7040396886648
 31
0.0
  0
LINE
  5
69A
330
694
100
AcDbEntity
  8
0
  6
Continuous
 62
     7
370
    15
100
AcDbLine
 10
2226.332000915759
 20
795.2040396886648
 30
0.0
 11
2332.632000915758
 21
795.2040396886648
 31
0.0
  0
ENDBLK
  5
696
330
694
100
AcDbEntity
  8
0
100
AcDbBlockEnd
  0
BLOCK
  5
69D
330
69C
100
AcDbEntity
  8
0
100
AcDbBlockBegin
  2
3
 70
     0
 10
0.0
 20
0.0
 30
0.0
  3
3
  1

  0
LINE
  5
69F
330
69C
100
AcDbEntity
  8
0
  6
Continuous
 62
     7
370
    15
100
AcDbLine
 10
2203.103188440998
 20
832.9342241860329
 30
0.0
 11
2203.103188440998
 21
835.6342241860328
 31
0.0
  0
LINE
  5
6A0
330
69C
100
AcDbEntity
  8
0
  6
Continuous
 62
     7
370
    15
100
AcDbLine
 10
2202.403188440998
 20
835.6342241860328
 30
0.0
 11
2203.103188440998
 21
835.6342241860328
 31
0.0
  0
LINE
  5
6A1
330
69C
100
AcDbEntity
  8
0
  6
Continuous
 62
     7
370
    15
100
AcDbLine
 10
2202.403188440998
 20
835.6342241860328
 30
0.0
 11
2202.403188440998
 21
840.2342241860329
 31
0.0
  0
LINE
  5
6A2
330
69C
100
AcDbEntity
  8
0
  6
Continuous
 62
     7
370
    15
100
AcDbLine
 10
2202.403188440998
 20
840.2342241860329
 30
0.0
 11
2207.903188440998
 21
840.2342241860329
 31
0.0
  0
LINE
  5
6A3
330
69C
100
AcDbEntity
  8
0
  6
Continuous
 62
     7
370
    15
100
AcDbLine
 10
2207.903188440998
 20
840.2342241860329
 30
0.0
 11
2207.903188440998
 21
835.6342241860328
 31
0.0
  0
LINE
  5
6A4
330
69C
100
AcDbEntity
  8
0
  6
Continuous
 62
     7
370
    15
100
AcDbLine
 10
2207.203188440998
 20
832.9342241860329
 30
0.0
 11
2207.203188440998
 21
835.6342241860328
 31
0.0
  0
LINE
  5
6A5
330
69C
100
AcDbEntity
  8
0
  6
Continuous
 62
     7
370
    15
100
AcDbLine
 10
2207.203188440998
 20
835.6342241860328
 30
0.0
 11
2207.903188440998
 21
835.6342241860328
 31
0.0
  0
LINE
  5
6A6
330
69C
100
AcDbEntity
  8
0
  6
Continuous
 62
     7
370
    15
100
AcDbLine
 10
2203.103188440998
 20
832.9342241860329
 30
0.0
 11
2207.203188440998
 21
832.9342241860329
 31
0.0
  0
LINE
  5
6A7
330
69C
100
AcDbEntity
  8
0
  6
Continuous
 62
     7
370
    15
100
AcDbLine
 10
2207.203188440998
 20
820.5342241860329
 30
0.0
 11
2203.103188440998
 21
820.5342241860329
 31
0.0
  0
LINE
  5
6A8
330
69C
100
AcDbEntity
  8
0
  6
Continuous
 62
     7
370
    15
100
AcDbLine
 10
2203.103188440998
 20
820.5342241860329
 30
0.0
 11
2203.103188440998
 21
832.9342241860329
 31
0.0
  0
LINE
  5
6A9
330
69C
100
AcDbEntity
  8
0
  6
Continuous
 62
     7
370
    15
100
AcDbLine
 10
2207.203188440998
 20
820.5342241860329
 30
0.0
 11
2207.203188440998
 21
832.9342241860329
 31
0.0
  0
LINE
  5
6AA
330
69C
100
AcDbEntity
  8
0
  6
Continuous
 62
     7
370
    15
100
AcDbLine
 10
2206.053188440998
 20
817.2342241860327
 30
0.0
 11
2204.253188440998
 21
817.2342241860327
 31
0.0
  0
LINE
  5
6AB
330
69C
100
AcDbEntity
  8
0
  6
Continuous
 62
     7
370
    15
100
AcDbLine
 10
2206.053188440998
 20
816.9342241860327
 30
0.0
 11
2206.053188440998
 21
817.2342241860327
 31
0.0
  0
LINE
  5
6AC
330
69C
100
AcDbEntity
  8
0
  6
Continuous
 62
     7
370
    15
100
AcDbLine
 10
2204.253188440998
 20
816.9342241860327
 30
0.0
 11
2206.053188440998
 21
816.9342241860327
 31
0.0
  0
LINE
  5
6AD
330
69C
100
AcDbEntity
  8
0
  6
Continuous
 62
     7
370
    15
100
AcDbLine
 10
2204.253188440998
 20
817.2342241860327
 30
0.0
 11
2204.253188440998
 21
816.9342241860327
 31
0.0
  0
LINE
  5
6AE
330
69C
100
AcDbEntity
  8
0
  6
Continuous
 62
     7
370
    15
100
AcDbLine
 10
2206.053188440998
 20
817.2342241860327
 30
0.0
 11
2206.053188440998
 21
820.5342241860329
 31
0.0
  0
LINE
  5
6AF
330
69C
100
AcDbEntity
  8
0
  6
Continuous
 62
     7
370
    15
100
AcDbLine
 10
2204.253188440998
 20
820.5342241860329
 30
0.0
 11
2204.253188440998
 21
817.2342241860327
 31
0.0
  0
LINE
  5
6B0
330
69C
100
AcDbEntity
  8
0
  6
Continuous
 62
     7
370
    15
100
AcDbLine
 10
2204.253188440998
 20
816.0675575193661
 30
0.0
 11
2206.053188440998
 21
816.0675575193661
 31
0.0
  0
LINE
  5
6B1
330
69C
100
AcDbEntity
  8
0
  6
Continuous
 62
     7
370
    15
100
AcDbLine
 10
2204.253188440998
 20
816.0675575193661
 30
0.0
 11
2204.253188440998
 21
816.9342241860327
 31
0.0
  0
LINE
  5
6B2
330
69C
100
AcDbEntity
  8
0
  6
Continuous
 62
     7
370
    15
100
AcDbLine
 10
2206.053188440998
 20
816.9342241860327
 30
0.0
 11
2206.053188440998
 21
816.0675575193661
 31
0.0
  0
LINE
  5
6B3
330
69C
100
AcDbEntity
  8
0
  6
Continuous
 62
     7
370
    15
100
AcDbLine
 10
2204.253188440998
 20
815.7675575193659
 30
0.0
 11
2206.053188440998
 21
815.7675575193659
 31
0.0
  0
LINE
  5
6B4
330
69C
100
AcDbEntity
  8
0
  6
Continuous
 62
     7
370
    15
100
AcDbLine
 10
2204.253188440998
 20
815.7675575193659
 30
0.0
 11
2204.253188440998
 21
816.0675575193661
 31
0.0
  0
LINE
  5
6B5
330
69C
100
AcDbEntity
  8
0
  6
Continuous
 62
     7
370
    15
100
AcDbLine
 10
2206.053188440998
 20
816.0675575193661
 30
0.0
 11
2206.053188440998
 21
815.7675575193659
 31
0.0
  0
LINE
  5
6B6
330
69C
100
AcDbEntity
  8
0
  6
Continuous
 62
     7
370
    15
100
AcDbLine
 10
2206.053188440998
 20
811.2342241860329
 30
0.0
 11
2204.253188440998
 21
811.2342241860329
 31
0.0
  0
LINE
  5
6B7
330
69C
100
AcDbEntity
  8
0
  6
Continuous
 62
     7
370
    15
100
AcDbLine
 10
2204.253188440998
 20
810.734224186033
 30
0.0
 11
2206.053188440998
 21
810.734224186033
 31
0.0
  0
LINE
  5
6B8
330
69C
100
AcDbEntity
  8
0
  6
Continuous
 62
     7
370
    15
100
AcDbLine
 10
2204.253188440998
 20
811.2342241860329
 30
0.0
 11
2204.253188440998
 21
810.734224186033
 31
0.0
  0
LINE
  5
6B9
330
69C
100
AcDbEntity
  8
0
  6
Continuous
 62
     7
370
    15
100
AcDbLine
 10
2206.053188440998
 20
810.734224186033
 30
0.0
 11
2206.053188440998
 21
811.2342241860329
 31
0.0
  0
LINE
  5
6BA
330
69C
100
AcDbEntity
  8
0
  6
Continuous
 62
     7
370
    15
100
AcDbLine
 10
2204.253188440998
 20
815.7675575193659
 30
0.0
 11
2204.253188440998
 21
811.2342241860329
 31
0.0
  0
LINE
  5
6BB
330
69C
100
AcDbEntity
  8
0
  6
Continuous
 62
     7
370
    15
100
AcDbLine
 10
2206.053188440998
 20
811.2342241860329
 30
0.0
 11
2206.053188440998
 21
815.7675575193659
 31
0.0
  0
ENDBLK
  5
69E
330
69C
100
AcDbEntity
  8
0
100
AcDbBlockEnd
  0
BLOCK
  5
6BE
330
6BD
100
AcDbEntity
  8
0
100
AcDbBlockBegin
  2
4
 70
     0
 10
0.0
 20
0.0
 30
0.0
  3
4
  1

  0
LINE
  5
6C0
330
6BD
100
AcDbEntity
  8
0
  6
Continuous
 62
     7
370
    15
100
AcDbLine
 10
2441.082322937247
 20
777.7352224946814
 30
0.0
 11
2442.355115143383
 21
778.4699897953219
 31
0.0
  0
LINE
  5
6C1
330
6BD
100
AcDbEntity
  8
0
  6
Continuous
 62
     7
370
    15
100
AcDbLine
 10
2433.516280378551
 20
782.103005892933
 30
0.0
 11
2434.789072584687
 21
782.8377731935733
 31
0.0
  0
LINE
  5
6C2
330
6BD
100
AcDbEntity
  8
0
  6
Continuous
 62
     7
370
    15
100
AcDbLine
 10
2425.950237819855
 20
786.4707892911845
 30
0.0
 11
2427.223030025991
 21
787.2055565918247
 31
0.0
  0
LINE
  5
6C3
330
6BD
100
AcDbEntity
  8
0
  6
Continuous
 62
     7
370
    15
100
AcDbLine
 10
2418.384195261159
 20
790.8385726894359
 30
0.0
 11
2419.656987467295
 21
791.5733399900763
 31
0.0
  0
LINE
  5
6C4
330
6BD
100
AcDbEntity
  8
0
  6
Continuous
 62
     7
370
    15
100
AcDbLine
 10
2410.818152702463
 20
795.2063560876873
 30
0.0
 11
2412.090944908598
 21
795.9411233883278
 31
0.0
  0
LINE
  5
6C5
330
6BD
100
AcDbEntity
  8
0
  6
Continuous
 62
     7
370
    15
100
AcDbLine
 10
2403.252110143767
 20
799.5741394859388
 30
0.0
 11
2404.524902349903
 21
800.3089067865793
 31
0.0
  0
LINE
  5
6C6
330
6BD
100
AcDbEntity
  8
0
  6
Continuous
 62
     7
370
    15
100
AcDbLine
 10
2395.68606758507
 20
803.9419228841904
 30
0.0
 11
2396.958859791206
 21
804.6766901848307
 31
0.0
  0
LINE
  5
6C7
330
6BD
100
AcDbEntity
  8
0
  6
Continuous
 62
     7
370
    15
100
AcDbLine
 10
2388.120025026374
 20
808.3097062824418
 30
0.0
 11
2389.39281723251
 21
809.0444735830823
 31
0.0
  0
LINE
  5
6C8
330
6BD
100
AcDbEntity
  8
0
  6
Continuous
 62
     7
370
    15
100
AcDbLine
 10
2380.553982467679
 20
812.6774896806933
 30
0.0
 11
2381.826774673815
 21
813.4122569813339
 31
0.0
  0
LINE
  5
6C9
330
6BD
100
AcDbEntity
  8
0
  6
Continuous
 62
     7
370
    15
100
AcDbLine
 10
2372.987939908982
 20
817.0452730789449
 30
0.0
 11
2374.260732115118
 21
817.7800403795853
 31
0.0
  0
LINE
  5
6CA
330
6BD
100
AcDbEntity
  8
0
  6
Continuous
 62
     7
370
    15
100
AcDbLine
 10
2371.111614629095
 20
845.076739991571
 30
0.0
 11
2446.277065469224
 21
801.684648848194
 31
0.0
  0
LINE
  5
6CB
330
6BD
100
AcDbEntity
  8
0
  6
Continuous
 62
     7
370
    15
100
AcDbLine
 10
2442.387978172698
 20
799.4395265406815
 30
0.0
 11
2446.277065469224
 21
801.684648848194
 31
0.0
  0
LINE
  5
6CC
330
6BD
100
AcDbEntity
  8
0
  6
Continuous
 62
     7
370
    15
100
AcDbLine
 10
2442.387978172698
 20
799.4395265406815
 30
0.0
 11
2367.222527332569
 21
842.8316176840585
 31
0.0
  0
LINE
  5
6CD
330
6BD
100
AcDbEntity
  8
0
  6
Continuous
 62
     7
370
    15
100
AcDbLine
 10
2371.111614629095
 20
845.076739991571
 30
0.0
 11
2367.222527332569
 21
842.8316176840585
 31
0.0
  0
LINE
  5
6CE
330
6BD
100
AcDbEntity
  8
0
  6
Continuous
 62
     7
370
    15
100
AcDbLine
 10
2367.222527332569
 20
842.8316176840585
 30
0.0
 11
2367.222527332569
 21
839.0755299493841
 31
0.0
  0
LINE
  5
6CF
330
6BD
100
AcDbEntity
  8
0
  6
Continuous
 62
     7
370
    15
100
AcDbLine
 10
2442.387978172698
 20
795.683438806007
 30
0.0
 11
2442.387978172698
 21
799.4395265406815
 31
0.0
  0
LINE
  5
6D0
330
6BD
100
AcDbEntity
  8
0
  6
Continuous
 62
     7
370
    15
100
AcDbLine
 10
2367.222527332569
 20
839.0755299493841
 30
0.0
 11
2442.387978172698
 21
795.683438806007
 31
0.0
  0
LINE
  5
6D1
330
6BD
100
AcDbEntity
  8
0
  6
Continuous
 62
     7
370
    15
100
AcDbLine
 10
2445.782090722394
 20
797.6428182743816
 30
0.0
 11
2446.277065469224
 21
797.9285611135195
 31
0.0
  0
LINE
  5
6D2
330
6BD
100
AcDbEntity
  8
0
  6
Continuous
 62
     7
370
    15
100
AcDbLine
 10
2445.782090722394
 20
795.4381580822901
 30
0.0
 11
2445.782090722394
 21
797.6428182743816
 31
0.0
  0
LINE
  5
6D3
330
6BD
100
AcDbEntity
  8
0
  6
Continuous
 62
     7
370
    15
100
AcDbLine
 10
2442.882952919529
 20
793.7645214530534
 30
0.0
 11
2445.782090722394
 21
795.4381580822901
 31
0.0
  0
LINE
  5
6D4
330
6BD
100
AcDbEntity
  8
0
  6
Continuous
 62
     7
370
    15
100
AcDbLine
 10
2442.882952919529
 20
793.7645214530534
 30
0.0
 11
2442.882952919529
 21
795.9691816451449
 31
0.0
  0
LINE
  5
6D5
330
6BD
100
AcDbEntity
  8
0
  6
Continuous
 62
     7
370
    15
100
AcDbLine
 10
2442.387978172698
 20
795.683438806007
 30
0.0
 11
2442.882952919529
 21
795.9691816451449
 31
0.0
  0
LINE
  5
6D6
330
6BD
100
AcDbEntity
  8
0
  6
Continuous
 62
     7
370
    15
100
AcDbLine
 10
2446.277065469224
 20
801.684648848194
 30
0.0
 11
2446.277065469224
 21
797.9285611135195
 31
0.0
  0
LINE
  5
6D7
330
6BD
100
AcDbEntity
  8
0
  6
Continuous
 62
     7
370
    15
100
AcDbLine
 10
2426.336654239764
 20
793.1913902939959
 30
0.0
 11
2426.336654239764
 21
803.3164963613792
 31
0.0
  0
LINE
  5
6D8
330
6BD
100
AcDbEntity
  8
0
  6
Continuous
 62
     7
370
    15
100
AcDbLine
 10
2426.336654239764
 20
793.1913902939959
 30
0.0
 11
2422.094013552645
 21
795.640614629464
 31
0.0
  0
LINE
  5
6D9
330
6BD
100
AcDbEntity
  8
0
  6
Continuous
 62
     7
370
    15
100
AcDbLine
 10
2422.094013552645
 20
805.7657206968473
 30
0.0
 11
2422.094013552645
 21
795.640614629464
 31
0.0
  0
LINE
  5
6DA
330
6BD
100
AcDbEntity
  8
0
  6
Continuous
 62
     7
370
    15
100
AcDbLine
 10
2418.770611681068
 20
807.6842797596308
 30
0.0
 11
2422.094013552645
 21
805.7657206968473
 31
0.0
  0
LINE
  5
6DB
330
6BD
100
AcDbEntity
  8
0
  6
Continuous
 62
     7
370
    15
100
AcDbLine
 10
2418.770611681068
 20
797.5591736922474
 30
0.0
 11
2418.770611681068
 21
807.6842797596308
 31
0.0
  0
LINE
  5
6DC
330
6BD
100
AcDbEntity
  8
0
  6
Continuous
 62
     7
370
    15
100
AcDbLine
 10
2418.770611681068
 20
797.5591736922474
 30
0.0
 11
2414.527970993948
 21
800.0083980277155
 31
0.0
  0
LINE
  5
6DD
330
6BD
100
AcDbEntity
  8
0
  6
Continuous
 62
     7
370
    15
100
AcDbLine
 10
2414.527970993948
 20
810.1335040950988
 30
0.0
 11
2414.527970993948
 21
800.0083980277155
 31
0.0
  0
LINE
  5
6DE
330
6BD
100
AcDbEntity
  8
0
  6
Continuous
 62
     7
370
    15
100
AcDbLine
 10
2411.204569122372
 20
812.0520631578822
 30
0.0
 11
2414.527970993948
 21
810.1335040950988
 31
0.0
  0
LINE
  5
6DF
330
6BD
100
AcDbEntity
  8
0
  6
Continuous
 62
     7
370
    15
100
AcDbLine
 10
2411.204569122372
 20
801.926957090499
 30
0.0
 11
2411.204569122372
 21
812.0520631578822
 31
0.0
  0
LINE
  5
6E0
330
6BD
100
AcDbEntity
  8
0
  6
Continuous
 62
     7
370
    15
100
AcDbLine
 10
2411.204569122372
 20
801.926957090499
 30
0.0
 11
2406.961928435252
 21
804.3761814259671
 31
0.0
  0
LINE
  5
6E1
330
6BD
100
AcDbEntity
  8
0
  6
Continuous
 62
     7
370
    15
100
AcDbLine
 10
2406.961928435252
 20
814.5012874933502
 30
0.0
 11
2406.961928435252
 21
804.3761814259671
 31
0.0
  0
LINE
  5
6E2
330
6BD
100
AcDbEntity
  8
0
  6
Continuous
 62
     7
370
    15
100
AcDbLine
 10
2403.638526563676
 20
816.4198465561337
 30
0.0
 11
2406.961928435252
 21
814.5012874933502
 31
0.0
  0
LINE
  5
6E3
330
6BD
100
AcDbEntity
  8
0
  6
Continuous
 62
     7
370
    15
100
AcDbLine
 10
2403.638526563676
 20
806.2947404887504
 30
0.0
 11
2403.638526563676
 21
816.4198465561337
 31
0.0
  0
LINE
  5
6E4
330
6BD
100
AcDbEntity
  8
0
  6
Continuous
 62
     7
370
    15
100
AcDbLine
 10
2403.638526563676
 20
806.2947404887504
 30
0.0
 11
2399.395885876556
 21
808.7439648242185
 31
0.0
  0
LINE
  5
6E5
330
6BD
100
AcDbEntity
  8
0
  6
Continuous
 62
     7
370
    15
100
AcDbLine
 10
2399.395885876556
 20
818.8690708916018
 30
0.0
 11
2399.395885876556
 21
808.7439648242185
 31
0.0
  0
LINE
  5
6E6
330
6BD
100
AcDbEntity
  8
0
  6
Continuous
 62
     7
370
    15
100
AcDbLine
 10
2396.072484004979
 20
820.7876299543851
 30
0.0
 11
2399.395885876556
 21
818.8690708916018
 31
0.0
  0
LINE
  5
6E7
330
6BD
100
AcDbEntity
  8
0
  6
Continuous
 62
     7
370
    15
100
AcDbLine
 10
2396.072484004979
 20
810.6625238870019
 30
0.0
 11
2396.072484004979
 21
820.7876299543851
 31
0.0
  0
LINE
  5
6E8
330
6BD
100
AcDbEntity
  8
0
  6
Continuous
 62
     7
370
    15
100
AcDbLine
 10
2396.072484004979
 20
810.6625238870019
 30
0.0
 11
2391.82984331786
 21
813.11174822247
 31
0.0
  0
LINE
  5
6E9
330
6BD
100
AcDbEntity
  8
0
  6
Continuous
 62
     7
370
    15
100
AcDbLine
 10
2391.82984331786
 20
823.2368542898534
 30
0.0
 11
2391.82984331786
 21
813.11174822247
 31
0.0
  0
LINE
  5
6EA
330
6BD
100
AcDbEntity
  8
0
  6
Continuous
 62
     7
370
    15
100
AcDbLine
 10
2388.506441446283
 20
825.1554133526367
 30
0.0
 11
2391.82984331786
 21
823.2368542898534
 31
0.0
  0
LINE
  5
6EB
330
6BD
100
AcDbEntity
  8
0
  6
Continuous
 62
     7
370
    15
100
AcDbLine
 10
2388.506441446283
 20
815.0303072852533
 30
0.0
 11
2388.506441446283
 21
825.1554133526367
 31
0.0
  0
LINE
  5
6EC
330
6BD
100
AcDbEntity
  8
0
  6
Continuous
 62
     7
370
    15
100
AcDbLine
 10
2388.506441446283
 20
815.0303072852533
 30
0.0
 11
2384.263800759164
 21
817.4795316207216
 31
0.0
  0
LINE
  5
6ED
330
6BD
100
AcDbEntity
  8
0
  6
Continuous
 62
     7
370
    15
100
AcDbLine
 10
2384.263800759164
 20
827.6046376881048
 30
0.0
 11
2384.263800759164
 21
817.4795316207216
 31
0.0
  0
LINE
  5
6EE
330
6BD
100
AcDbEntity
  8
0
  6
Continuous
 62
     7
370
    15
100
AcDbLine
 10
2380.940398887588
 20
829.5231967508883
 30
0.0
 11
2384.263800759164
 21
827.6046376881048
 31
0.0
  0
LINE
  5
6EF
330
6BD
100
AcDbEntity
  8
0
  6
Continuous
 62
     7
370
    15
100
AcDbLine
 10
2380.940398887588
 20
819.3980906835049
 30
0.0
 11
2380.940398887588
 21
829.5231967508883
 31
0.0
  0
LINE
  5
6F0
330
6BD
100
AcDbEntity
  8
0
  6
Continuous
 62
     7
370
    15
100
AcDbLine
 10
2380.940398887588
 20
819.3980906835049
 30
0.0
 11
2376.697758200468
 21
821.847315018973
 31
0.0
  0
LINE
  5
6F1
330
6BD
100
AcDbEntity
  8
0
  6
Continuous
 62
     7
370
    15
100
AcDbLine
 10
2376.697758200468
 20
831.9724210863563
 30
0.0
 11
2376.697758200468
 21
821.847315018973
 31
0.0
  0
LINE
  5
6F2
330
6BD
100
AcDbEntity
  8
0
  6
Continuous
 62
     7
370
    15
100
AcDbLine
 10
2373.374356328891
 20
833.8909801491396
 30
0.0
 11
2376.697758200468
 21
831.9724210863563
 31
0.0
  0
LINE
  5
6F3
330
6BD
100
AcDbEntity
  8
0
  6
Continuous
 62
     7
370
    15
100
AcDbLine
 10
2373.374356328891
 20
823.7658740817565
 30
0.0
 11
2373.374356328891
 21
833.8909801491396
 31
0.0
  0
LINE
  5
6F4
330
6BD
100
AcDbEntity
  8
0
  6
Continuous
 62
     7
370
    15
100
AcDbLine
 10
2373.374356328891
 20
823.7658740817565
 30
0.0
 11
2369.131715641772
 21
826.2150984172246
 31
0.0
  0
LINE
  5
6F5
330
6BD
100
AcDbEntity
  8
0
  6
Continuous
 62
     7
370
    15
100
AcDbLine
 10
2369.131715641772
 20
836.3402044846079
 30
0.0
 11
2369.131715641772
 21
826.2150984172246
 31
0.0
  0
LINE
  5
6F6
330
6BD
100
AcDbEntity
  8
0
  6
Continuous
 62
     7
370
    15
100
AcDbLine
 10
2367.717502079399
 20
837.1566125964305
 30
0.0
 11
2369.131715641772
 21
836.3402044846079
 31
0.0
  0
LINE
  5
6F7
330
6BD
100
AcDbEntity
  8
0
  6
Continuous
 62
     7
370
    15
100
AcDbLine
 10
2367.717502079399
 20
838.7897871102461
 30
0.0
 11
2367.717502079399
 21
837.1566125964305
 31
0.0
  0
LINE
  5
6F8
330
6BD
100
AcDbEntity
  8
0
  6
Continuous
 62
     7
370
    15
100
AcDbLine
 10
2441.468739357156
 20
794.5809295648762
 30
0.0
 11
2442.882952919529
 21
793.7645214530534
 31
0.0
  0
LINE
  5
6F9
330
6BD
100
AcDbEntity
  8
0
  6
Continuous
 62
     7
370
    15
100
AcDbLine
 10
2441.468739357156
 20
784.4558234974929
 30
0.0
 11
2441.468739357156
 21
794.5809295648762
 31
0.0
  0
LINE
  5
6FA
330
6BD
100
AcDbEntity
  8
0
  6
Continuous
 62
     7
370
    15
100
AcDbLine
 10
2441.468739357156
 20
784.4558234974929
 30
0.0
 11
2437.226098670036
 21
786.905047832961
 31
0.0
  0
LINE
  5
6FB
330
6BD
100
AcDbEntity
  8
0
  6
Continuous
 62
     7
370
    15
100
AcDbLine
 10
2437.226098670036
 20
797.0301539003443
 30
0.0
 11
2437.226098670036
 21
786.905047832961
 31
0.0
  0
LINE
  5
6FC
330
6BD
100
AcDbEntity
  8
0
  6
Continuous
 62
     7
370
    15
100
AcDbLine
 10
2433.90269679846
 20
798.9487129631277
 30
0.0
 11
2437.226098670036
 21
797.0301539003443
 31
0.0
  0
LINE
  5
6FD
330
6BD
100
AcDbEntity
  8
0
  6
Continuous
 62
     7
370
    15
100
AcDbLine
 10
2433.90269679846
 20
788.8236068957444
 30
0.0
 11
2433.90269679846
 21
798.9487129631277
 31
0.0
  0
LINE
  5
6FE
330
6BD
100
AcDbEntity
  8
0
  6
Continuous
 62
     7
370
    15
100
AcDbLine
 10
2433.90269679846
 20
788.8236068957444
 30
0.0
 11
2429.660056111341
 21
791.2728312312125
 31
0.0
  0
LINE
  5
6FF
330
6BD
100
AcDbEntity
  8
0
  6
Continuous
 62
     7
370
    15
100
AcDbLine
 10
2429.660056111341
 20
801.3979372985957
 30
0.0
 11
2429.660056111341
 21
791.2728312312125
 31
0.0
  0
LINE
  5
700
330
6BD
100
AcDbEntity
  8
0
  6
Continuous
 62
     7
370
    15
100
AcDbLine
 10
2426.336654239764
 20
803.3164963613792
 30
0.0
 11
2429.660056111341
 21
801.3979372985957
 31
0.0
  0
LINE
  5
701
330
6BD
100
AcDbEntity
  8
0
  6
Continuous
 62
     7
370
    15
100
AcDbLine
 10
2444.367877160021
 20
786.1294601267294
 30
0.0
 11
2441.468739357156
 21
784.4558234974929
 31
0.0
  0
LINE
  5
702
330
6BD
100
AcDbEntity
  8
0
  6
Continuous
 62
     7
370
    15
100
AcDbLine
 10
2444.367877160021
 20
786.1294601267294
 30
0.0
 11
2444.367877160021
 21
794.6217499704673
 31
0.0
  0
LINE
  5
703
330
6BD
100
AcDbEntity
  8
0
  6
Continuous
 62
     7
370
    15
100
AcDbLine
 10
2436.801834601325
 20
790.4972435249809
 30
0.0
 11
2433.90269679846
 21
788.8236068957444
 31
0.0
  0
LINE
  5
704
330
6BD
100
AcDbEntity
  8
0
  6
Continuous
 62
     7
370
    15
100
AcDbLine
 10
2436.801834601325
 20
790.4972435249809
 30
0.0
 11
2436.801834601325
 21
797.275076333891
 31
0.0
  0
LINE
  5
705
330
6BD
100
AcDbEntity
  8
0
  6
Continuous
 62
     7
370
    15
100
AcDbLine
 10
2441.78693740869
 20
784.639515322653
 30
0.0
 11
2441.78693740869
 21
782.5164163217057
 31
0.0
  0
ARC
  5
706
330
6BD
100
AcDbEntity
  8
0
  6
Continuous
 62
     7
370
    15
100
AcDbCircle
 10
2441.508822142663
 20
782.4984326198523
 30
0.0
 40
0.2786960974418711
100
AcDbArc
 50
318.0901084387443
 51
3.699752655727485
  0
LINE
  5
707
330
6BD
100
AcDbEntity
  8
0
  6
Continuous
 62
     7
370
    15
100
AcDbLine
 10
2441.2566073228
 20
781.8699384164394
 30
0.0
 11
2441.716226730571
 21
782.3122744837311
 31
0.0
  0
ARC
  5
708
330
6BD
100
AcDbEntity
  8
0
  6
Continuous
 62
     7
370
    15
100
AcDbCircle
 10
2441.464011910708
 20
781.6837802803179
 30
0.0
 40
0.2786960974421539
100
AcDbArc
 50
138.0901084387539
 51
183.699752655708
  0
LINE
  5
709
330
6BD
100
AcDbEntity
  8
0
  6
Continuous
 62
     7
370
    15
100
AcDbLine
 10
2441.185896644681
 20
781.6657965784647
 30
0.0
 11
2441.185896644681
 21
777.9641448979162
 31
0.0
  0
ARC
  5
70A
330
6BD
100
AcDbEntity
  8
0
  6
Continuous
 62
     7
370
    15
100
AcDbCircle
 10
2440.970359460968
 20
777.9291812994658
 30
0.0
 40
0.2183545987142422
100
AcDbArc
 50
230.7967147643375
 51
9.214036990449937
  0
LINE
  5
70B
330
6BD
100
AcDbEntity
  8
0
  6
Continuous
 62
     7
370
    15
100
AcDbLine
 10
2440.832343254088
 20
777.7599765199288
 30
0.0
 11
2439.488840369833
 21
778.5355642261604
 31
0.0
  0
ARC
  5
70C
330
6BD
100
AcDbEntity
  8
0
  6
Continuous
 62
     7
370
    15
100
AcDbCircle
 10
2439.902895029924
 20
779.1828670861895
 30
0.0
 40
0.7684024037863769
100
AcDbArc
 50
182.6054784856628
 51
237.3945216599699
  0
LINE
  5
70D
330
6BD
100
AcDbEntity
  8
0
  6
Continuous
 62
     7
370
    15
100
AcDbLine
 10
2439.13528697924
 20
779.147936660059
 30
0.0
 11
2439.13528697924
 21
782.8495883406076
 31
0.0
  0
ARC
  5
70E
330
6BD
100
AcDbEntity
  8
0
  6
Continuous
 62
     7
370
    15
100
AcDbCircle
 10
2438.449756027319
 20
782.8316079026165
 30
0.0
 40
0.6857667112023202
100
AcDbArc
 50
1.502437006228809
 51
26.29250847824384
  0
LINE
  5
70F
330
6BD
100
AcDbEntity
  8
0
  6
Continuous
 62
     7
370
    15
100
AcDbLine
 10
2438.60495689335
 20
784.108372329741
 30
0.0
 11
2439.064576301122
 21
783.1353709897646
 31
0.0
  0
ARC
  5
710
330
6BD
100
AcDbEntity
  8
0
  6
Continuous
 62
     7
370
    15
100
AcDbCircle
 10
2439.219777167159
 20
784.4121354168907
 30
0.0
 40
0.6857667112080462
100
AcDbArc
 50
181.5024370063525
 51
206.2925084781507
  0
LINE
  5
711
330
6BD
100
AcDbEntity
  8
0
  6
Continuous
 62
     7
370
    15
100
AcDbLine
 10
2438.534246215232
 20
784.394154978898
 30
0.0
 11
2438.534246215232
 21
786.149870329525
 31
0.0
  0
LINE
  5
712
330
6BD
100
AcDbEntity
  8
0
  6
Continuous
 62
     7
370
    15
100
AcDbLine
 10
2443.059729614825
 20
783.2511836223461
 30
0.0
 11
2443.059729614825
 21
785.3742826232934
 31
0.0
  0
LINE
  5
713
330
6BD
100
AcDbEntity
  8
0
  6
Continuous
 62
     7
370
    15
100
AcDbLine
 10
2443.059729614825
 20
783.2511836223461
 30
0.0
 11
2441.78693740869
 21
782.5164163217057
 31
0.0
  0
LINE
  5
714
330
6BD
100
AcDbEntity
  8
0
  6
Continuous
 62
     7
370
    15
100
AcDbLine
 10
2441.716226730571
 20
782.3122744837311
 30
0.0
 11
2442.989018936707
 21
783.0470417843716
 31
0.0
  0
ARC
  5
715
330
6BD
100
AcDbEntity
  8
0
  6
Continuous
 62
     7
370
    15
100
AcDbCircle
 10
2442.781614348799
 20
783.2331999204929
 30
0.0
 40
0.2786960974423184
100
AcDbArc
 50
318.0901084387908
 51
3.699752655701484
  0
LINE
  5
716
330
6BD
100
AcDbEntity
  8
0
  6
Continuous
 62
     7
370
    15
100
AcDbLine
 10
2441.2566073228
 20
781.8699384164394
 30
0.0
 11
2442.529399528936
 21
782.6047057170797
 31
0.0
  0
LINE
  5
717
330
6BD
100
AcDbEntity
  8
0
  6
Continuous
 62
     7
370
    15
100
AcDbLine
 10
2442.989018936707
 20
783.0470417843716
 30
0.0
 11
2442.529399528936
 21
782.6047057170797
 31
0.0
  0
LINE
  5
718
330
6BD
100
AcDbEntity
  8
0
  6
Continuous
 62
     7
370
    15
100
AcDbLine
 10
2441.185896644681
 20
781.6657965784647
 30
0.0
 11
2442.458688850817
 21
782.4005638791049
 31
0.0
  0
ARC
  5
719
330
6BD
100
AcDbEntity
  8
0
  6
Continuous
 62
     7
370
    15
100
AcDbCircle
 10
2442.736804116842
 20
782.418547580959
 30
0.0
 40
0.2786960974407253
100
AcDbArc
 50
138.0901084386803
 51
183.6997526558851
  0
LINE
  5
71A
330
6BD
100
AcDbEntity
  8
0
  6
Continuous
 62
     7
370
    15
100
AcDbLine
 10
2442.458688850817
 20
778.6989121985564
 30
0.0
 11
2441.185896644681
 21
777.9641448979162
 31
0.0
  0
LINE
  5
71B
330
6BD
100
AcDbEntity
  8
0
  6
Continuous
 62
     7
370
    15
100
AcDbLine
 10
2442.458688850817
 20
778.6989121985564
 30
0.0
 11
2442.458688850817
 21
782.4005638791049
 31
0.0
  0
LINE
  5
71C
330
6BD
100
AcDbEntity
  8
0
  6
Continuous
 62
     7
370
    15
100
AcDbLine
 10
2429.235792042629
 20
794.8650269232325
 30
0.0
 11
2426.336654239764
 21
793.1913902939959
 31
0.0
  0
LINE
  5
71D
330
6BD
100
AcDbEntity
  8
0
  6
Continuous
 62
     7
370
    15
100
AcDbLine
 10
2429.235792042629
 20
794.8650269232325
 30
0.0
 11
2429.235792042629
 21
801.6428597321425
 31
0.0
  0
ARC
  5
71E
330
6BD
100
AcDbEntity
  8
0
  6
Continuous
 62
     7
370
    15
100
AcDbCircle
 10
2442.213687899479
 20
778.6718688299532
 30
0.0
 40
0.2464889651522885
100
AcDbArc
 50
305.0133328957654
 51
6.298847497595432
  0
LINE
  5
71F
330
6BD
100
AcDbEntity
  8
0
  6
Continuous
 62
     7
370
    15
100
AcDbLine
 10
2434.220894849994
 20
789.0072987209045
 30
0.0
 11
2434.220894849994
 21
786.8841997199572
 31
0.0
  0
ARC
  5
720
330
6BD
100
AcDbEntity
  8
0
  6
Continuous
 62
     7
370
    15
100
AcDbCircle
 10
2433.942779583968
 20
786.8662160181038
 30
0.0
 40
0.2786960974416592
100
AcDbArc
 50
318.0901084387123
 51
3.699752655740486
  0
LINE
  5
721
330
6BD
100
AcDbEntity
  8
0
  6
Continuous
 62
     7
370
    15
100
AcDbLine
 10
2433.690564764103
 20
786.2377218146908
 30
0.0
 11
2434.150184171875
 21
786.6800578819826
 31
0.0
  0
ARC
  5
722
330
6BD
100
AcDbEntity
  8
0
  6
Continuous
 62
     7
370
    15
100
AcDbCircle
 10
2433.897969352012
 20
786.0515636785694
 30
0.0
 40
0.2786960974420926
100
AcDbArc
 50
138.0901084387539
 51
183.6997526557015
  0
LINE
  5
723
330
6BD
100
AcDbEntity
  8
0
  6
Continuous
 62
     7
370
    15
100
AcDbLine
 10
2433.619854085985
 20
786.0335799767161
 30
0.0
 11
2433.619854085985
 21
782.3319282961676
 31
0.0
  0
ARC
  5
724
330
6BD
100
AcDbEntity
  8
0
  6
Continuous
 62
     7
370
    15
100
AcDbCircle
 10
2433.404316902272
 20
782.2969646977173
 30
0.0
 40
0.2183545987142513
100
AcDbArc
 50
230.7967147643334
 51
9.214036990449937
  0
LINE
  5
725
330
6BD
100
AcDbEntity
  8
0
  6
Continuous
 62
     7
370
    15
100
AcDbLine
 10
2433.266300695392
 20
782.1277599181803
 30
0.0
 11
2431.922797811137
 21
782.9033476244119
 31
0.0
  0
ARC
  5
726
330
6BD
100
AcDbEntity
  8
0
  6
Continuous
 62
     7
370
    15
100
AcDbCircle
 10
2432.336852471228
 20
783.5506504844411
 30
0.0
 40
0.7684024037865505
100
AcDbArc
 50
182.6054784856694
 51
237.3945216599663
  0
LINE
  5
727
330
6BD
100
AcDbEntity
  8
0
  6
Continuous
 62
     7
370
    15
100
AcDbLine
 10
2431.569244420544
 20
783.5157200583105
 30
0.0
 11
2431.569244420544
 21
787.2173717388591
 31
0.0
  0
ARC
  5
728
330
6BD
100
AcDbEntity
  8
0
  6
Continuous
 62
     7
370
    15
100
AcDbCircle
 10
2430.883713468622
 20
787.1993913008678
 30
0.0
 40
0.6857667112031445
100
AcDbArc
 50
1.502437006248343
 51
26.29250847822062
  0
LINE
  5
729
330
6BD
100
AcDbEntity
  8
0
  6
Continuous
 62
     7
370
    15
100
AcDbLine
 10
2431.038914334655
 20
788.4761557279926
 30
0.0
 11
2431.498533742426
 21
787.5031543880161
 31
0.0
  0
ARC
  5
72A
330
6BD
100
AcDbEntity
  8
0
  6
Continuous
 62
     7
370
    15
100
AcDbCircle
 10
2431.65373460846
 20
788.7799188151413
 30
0.0
 40
0.6857667112041556
100
AcDbArc
 50
181.5024370062809
 51
206.2925084782206
  0
LINE
  5
72B
330
6BD
100
AcDbEntity
  8
0
  6
Continuous
 62
     7
370
    15
100
AcDbLine
 10
2430.968203656536
 20
788.7619383771496
 30
0.0
 11
2430.968203656536
 21
790.5176537277765
 31
0.0
  0
LINE
  5
72C
330
6BD
100
AcDbEntity
  8
0
  6
Continuous
 62
     7
370
    15
100
AcDbLine
 10
2435.49368705613
 20
787.6189670205977
 30
0.0
 11
2435.49368705613
 21
789.7420660215449
 31
0.0
  0
LINE
  5
72D
330
6BD
100
AcDbEntity
  8
0
  6
Continuous
 62
     7
370
    15
100
AcDbLine
 10
2435.49368705613
 20
787.6189670205977
 30
0.0
 11
2434.220894849994
 21
786.8841997199572
 31
0.0
  0
LINE
  5
72E
330
6BD
100
AcDbEntity
  8
0
  6
Continuous
 62
     7
370
    15
100
AcDbLine
 10
2434.150184171875
 20
786.6800578819826
 30
0.0
 11
2435.422976378011
 21
787.414825182623
 31
0.0
  0
ARC
  5
72F
330
6BD
100
AcDbEntity
  8
0
  6
Continuous
 62
     7
370
    15
100
AcDbCircle
 10
2435.215571790103
 20
787.6009833187443
 30
0.0
 40
0.2786960974418153
100
AcDbArc
 50
318.0901084387269
 51
3.699752655733985
  0
LINE
  5
730
330
6BD
100
AcDbEntity
  8
0
  6
Continuous
 62
     7
370
    15
100
AcDbLine
 10
2433.690564764103
 20
786.2377218146908
 30
0.0
 11
2434.963356970239
 21
786.9724891153311
 31
0.0
  0
LINE
  5
731
330
6BD
100
AcDbEntity
  8
0
  6
Continuous
 62
     7
370
    15
100
AcDbLine
 10
2435.422976378011
 20
787.414825182623
 30
0.0
 11
2434.963356970239
 21
786.9724891153311
 31
0.0
  0
LINE
  5
732
330
6BD
100
AcDbEntity
  8
0
  6
Continuous
 62
     7
370
    15
100
AcDbLine
 10
2433.619854085985
 20
786.0335799767161
 30
0.0
 11
2434.892646292121
 21
786.7683472773564
 31
0.0
  0
ARC
  5
733
330
6BD
100
AcDbEntity
  8
0
  6
Continuous
 62
     7
370
    15
100
AcDbCircle
 10
2435.170761558147
 20
786.7863309792105
 30
0.0
 40
0.2786960974408858
100
AcDbArc
 50
138.0901084386803
 51
183.6997526558591
  0
LINE
  5
734
330
6BD
100
AcDbEntity
  8
0
  6
Continuous
 62
     7
370
    15
100
AcDbLine
 10
2434.892646292121
 20
783.066695596808
 30
0.0
 11
2433.619854085985
 21
782.3319282961676
 31
0.0
  0
LINE
  5
735
330
6BD
100
AcDbEntity
  8
0
  6
Continuous
 62
     7
370
    15
100
AcDbLine
 10
2434.892646292121
 20
783.066695596808
 30
0.0
 11
2434.892646292121
 21
786.7683472773564
 31
0.0
  0
LINE
  5
736
330
6BD
100
AcDbEntity
  8
0
  6
Continuous
 62
     7
370
    15
100
AcDbLine
 10
2421.669749483932
 20
799.2328103214839
 30
0.0
 11
2418.770611681068
 21
797.5591736922474
 31
0.0
  0
LINE
  5
737
330
6BD
100
AcDbEntity
  8
0
  6
Continuous
 62
     7
370
    15
100
AcDbLine
 10
2421.669749483932
 20
799.2328103214839
 30
0.0
 11
2421.669749483932
 21
806.0106431303941
 31
0.0
  0
ARC
  5
738
330
6BD
100
AcDbEntity
  8
0
  6
Continuous
 62
     7
370
    15
100
AcDbCircle
 10
2434.647645340783
 20
783.0396522282045
 30
0.0
 40
0.2464889651519885
100
AcDbArc
 50
305.0133328957328
 51
6.298847497656561
  0
LINE
  5
739
330
6BD
100
AcDbEntity
  8
0
  6
Continuous
 62
     7
370
    15
100
AcDbLine
 10
2426.654852291298
 20
793.3750821191559
 30
0.0
 11
2426.654852291298
 21
791.2519831182087
 31
0.0
  0
ARC
  5
73A
330
6BD
100
AcDbEntity
  8
0
  6
Continuous
 62
     7
370
    15
100
AcDbCircle
 10
2426.376737025271
 20
791.2339994163553
 30
0.0
 40
0.2786960974417205
100
AcDbArc
 50
318.0901084387172
 51
3.699752655740486
  0
LINE
  5
73B
330
6BD
100
AcDbEntity
  8
0
  6
Continuous
 62
     7
370
    15
100
AcDbLine
 10
2426.124522205407
 20
790.6055052129422
 30
0.0
 11
2426.584141613179
 21
791.0478412802341
 31
0.0
  0
ARC
  5
73C
330
6BD
100
AcDbEntity
  8
0
  6
Continuous
 62
     7
370
    15
100
AcDbCircle
 10
2426.331926793315
 20
790.4193470768212
 30
0.0
 40
0.2786960974418707
100
AcDbArc
 50
138.0901084387539
 51
183.699752655747
  0
LINE
  5
73D
330
6BD
100
AcDbEntity
  8
0
  6
Continuous
 62
     7
370
    15
100
AcDbLine
 10
2426.053811527289
 20
790.4013633749676
 30
0.0
 11
2426.053811527289
 21
786.6997116944191
 31
0.0
  0
ARC
  5
73E
330
6BD
100
AcDbEntity
  8
0
  6
Continuous
 62
     7
370
    15
100
AcDbCircle
 10
2425.838274343576
 20
786.6647480959689
 30
0.0
 40
0.2183545987142915
100
AcDbArc
 50
230.7967147643292
 51
9.214036990437078
  0
LINE
  5
73F
330
6BD
100
AcDbEntity
  8
0
  6
Continuous
 62
     7
370
    15
100
AcDbLine
 10
2425.700258136695
 20
786.4955433164318
 30
0.0
 11
2424.356755252441
 21
787.2711310226634
 31
0.0
  0
ARC
  5
740
330
6BD
100
AcDbEntity
  8
0
  6
Continuous
 62
     7
370
    15
100
AcDbCircle
 10
2424.770809912532
 20
787.9184338826925
 30
0.0
 40
0.7684024037863495
100
AcDbArc
 50
182.6054784856694
 51
237.3945216599699
  0
LINE
  5
741
330
6BD
100
AcDbEntity
  8
0
  6
Continuous
 62
     7
370
    15
100
AcDbLine
 10
2424.003201861848
 20
787.883503456562
 30
0.0
 11
2424.003201861848
 21
791.5851551371106
 31
0.0
  0
ARC
  5
742
330
6BD
100
AcDbEntity
  8
0
  6
Continuous
 62
     7
370
    15
100
AcDbCircle
 10
2423.317670909926
 20
791.5671746991193
 30
0.0
 40
0.6857667112025713
100
AcDbArc
 50
1.502437006248343
 51
26.29250847824968
  0
LINE
  5
743
330
6BD
100
AcDbEntity
  8
0
  6
Continuous
 62
     7
370
    15
100
AcDbLine
 10
2423.472871775958
 20
792.8439391262441
 30
0.0
 11
2423.932491183729
 21
791.8709377862676
 31
0.0
  0
ARC
  5
744
330
6BD
100
AcDbEntity
  8
0
  6
Continuous
 62
     7
370
    15
100
AcDbCircle
 10
2424.087692049766
 20
793.1477022133935
 30
0.0
 40
0.6857667112069019
100
AcDbArc
 50
181.502437006333
 51
206.2925084781797
  0
LINE
  5
745
330
6BD
100
AcDbEntity
  8
0
  6
Continuous
 62
     7
370
    15
100
AcDbLine
 10
2423.40216109784
 20
793.1297217754011
 30
0.0
 11
2423.40216109784
 21
794.885437126028
 31
0.0
  0
LINE
  5
746
330
6BD
100
AcDbEntity
  8
0
  6
Continuous
 62
     7
370
    15
100
AcDbLine
 10
2427.927644497434
 20
791.9867504188491
 30
0.0
 11
2427.927644497434
 21
794.1098494197964
 31
0.0
  0
LINE
  5
747
330
6BD
100
AcDbEntity
  8
0
  6
Continuous
 62
     7
370
    15
100
AcDbLine
 10
2427.927644497434
 20
791.9867504188491
 30
0.0
 11
2426.654852291298
 21
791.2519831182087
 31
0.0
  0
LINE
  5
748
330
6BD
100
AcDbEntity
  8
0
  6
Continuous
 62
     7
370
    15
100
AcDbLine
 10
2426.584141613179
 20
791.0478412802341
 30
0.0
 11
2427.856933819315
 21
791.7826085808745
 31
0.0
  0
ARC
  5
749
330
6BD
100
AcDbEntity
  8
0
  6
Continuous
 62
     7
370
    15
100
AcDbCircle
 10
2427.649529231406
 20
791.968766716996
 30
0.0
 40
0.278696097442399
100
AcDbArc
 50
318.0901084387636
 51
3.699752655681983
  0
LINE
  5
74A
330
6BD
100
AcDbEntity
  8
0
  6
Continuous
 62
     7
370
    15
100
AcDbLine
 10
2426.124522205407
 20
790.6055052129422
 30
0.0
 11
2427.397314411543
 21
791.3402725135827
 31
0.0
  0
LINE
  5
74B
330
6BD
100
AcDbEntity
  8
0
  6
Continuous
 62
     7
370
    15
100
AcDbLine
 10
2427.856933819315
 20
791.7826085808745
 30
0.0
 11
2427.397314411543
 21
791.3402725135827
 31
0.0
  0
LINE
  5
74C
330
6BD
100
AcDbEntity
  8
0
  6
Continuous
 62
     7
370
    15
100
AcDbLine
 10
2426.053811527289
 20
790.4013633749676
 30
0.0
 11
2427.326603733425
 21
791.136130675608
 31
0.0
  0
ARC
  5
74D
330
6BD
100
AcDbEntity
  8
0
  6
Continuous
 62
     7
370
    15
100
AcDbCircle
 10
2427.60471899945
 20
791.1541143774619
 30
0.0
 40
0.2786960974411108
100
AcDbArc
 50
138.0901084387172
 51
183.6997526558526
  0
LINE
  5
74E
330
6BD
100
AcDbEntity
  8
0
  6
Continuous
 62
     7
370
    15
100
AcDbLine
 10
2427.326603733425
 20
787.4344789950595
 30
0.0
 11
2426.053811527289
 21
786.6997116944191
 31
0.0
  0
LINE
  5
74F
330
6BD
100
AcDbEntity
  8
0
  6
Continuous
 62
     7
370
    15
100
AcDbLine
 10
2427.326603733425
 20
787.4344789950595
 30
0.0
 11
2427.326603733425
 21
791.136130675608
 31
0.0
  0
LINE
  5
750
330
6BD
100
AcDbEntity
  8
0
  6
Continuous
 62
     7
370
    15
100
AcDbLine
 10
2414.103706925236
 20
803.6005937197355
 30
0.0
 11
2411.204569122372
 21
801.926957090499
 31
0.0
  0
LINE
  5
751
330
6BD
100
AcDbEntity
  8
0
  6
Continuous
 62
     7
370
    15
100
AcDbLine
 10
2414.103706925236
 20
803.6005937197355
 30
0.0
 11
2414.103706925236
 21
810.3784265286456
 31
0.0
  0
ARC
  5
752
330
6BD
100
AcDbEntity
  8
0
  6
Continuous
 62
     7
370
    15
100
AcDbCircle
 10
2427.081602782087
 20
787.4074356264562
 30
0.0
 40
0.2464889651522036
100
AcDbArc
 50
305.0133328957654
 51
6.29884749762133
  0
LINE
  5
753
330
6BD
100
AcDbEntity
  8
0
  6
Continuous
 62
     7
370
    15
100
AcDbLine
 10
2419.088809732602
 20
797.7428655174074
 30
0.0
 11
2419.088809732602
 21
795.6197665164602
 31
0.0
  0
ARC
  5
754
330
6BD
100
AcDbEntity
  8
0
  6
Continuous
 62
     7
370
    15
100
AcDbCircle
 10
2418.810694466575
 20
795.6017828146068
 30
0.0
 40
0.2786960974416592
100
AcDbArc
 50
318.0901084387123
 51
3.699752655733985
  0
LINE
  5
755
330
6BD
100
AcDbEntity
  8
0
  6
Continuous
 62
     7
370
    15
100
AcDbLine
 10
2418.558479646712
 20
794.9732886111937
 30
0.0
 11
2419.018099054483
 21
795.4156246784856
 31
0.0
  0
ARC
  5
756
330
6BD
100
AcDbEntity
  8
0
  6
Continuous
 62
     7
370
    15
100
AcDbCircle
 10
2418.765884234619
 20
794.7871304750726
 30
0.0
 40
0.2786960974420503
100
AcDbArc
 50
138.0901084387491
 51
183.699752655721
  0
LINE
  5
757
330
6BD
100
AcDbEntity
  8
0
  6
Continuous
 62
     7
370
    15
100
AcDbLine
 10
2418.487768968593
 20
794.7691467732192
 30
0.0
 11
2418.487768968593
 21
791.0674950926707
 31
0.0
  0
ARC
  5
758
330
6BD
100
AcDbEntity
  8
0
  6
Continuous
 62
     7
370
    15
100
AcDbCircle
 10
2418.272231784879
 20
791.0325314942204
 30
0.0
 40
0.2183545987142399
100
AcDbArc
 50
230.7967147643618
 51
9.214036990443508
  0
LINE
  5
759
330
6BD
100
AcDbEntity
  8
0
  6
Continuous
 62
     7
370
    15
100
AcDbLine
 10
2418.134215578
 20
790.8633267146833
 30
0.0
 11
2416.790712693746
 21
791.6389144209149
 31
0.0
  0
ARC
  5
75A
330
6BD
100
AcDbEntity
  8
0
  6
Continuous
 62
     7
370
    15
100
AcDbCircle
 10
2417.204767353836
 20
792.2862172809439
 30
0.0
 40
0.7684024037861313
100
AcDbArc
 50
182.6054784856563
 51
237.3945216599734
  0
LINE
  5
75B
330
6BD
100
AcDbEntity
  8
0
  6
Continuous
 62
     7
370
    15
100
AcDbLine
 10
2416.437159303152
 20
792.2512868548135
 30
0.0
 11
2416.437159303152
 21
795.9529385353621
 31
0.0
  0
ARC
  5
75C
330
6BD
100
AcDbEntity
  8
0
  6
Continuous
 62
     7
370
    15
100
AcDbCircle
 10
2415.751628351227
 20
795.9349580973701
 30
0.0
 40
0.6857667112055235
100
AcDbArc
 50
1.502437006293924
 51
26.29250847819142
  0
LINE
  5
75D
330
6BD
100
AcDbEntity
  8
0
  6
Continuous
 62
     7
370
    15
100
AcDbLine
 10
2415.906829217262
 20
797.2117225244955
 30
0.0
 11
2416.366448625034
 21
796.2387211845191
 31
0.0
  0
ARC
  5
75E
330
6BD
100
AcDbEntity
  8
0
  6
Continuous
 62
     7
370
    15
100
AcDbCircle
 10
2416.521649491071
 20
797.5154856116453
 30
0.0
 40
0.685766711207989
100
AcDbArc
 50
181.5024370063525
 51
206.2925084781507
  0
LINE
  5
75F
330
6BD
100
AcDbEntity
  8
0
  6
Continuous
 62
     7
370
    15
100
AcDbLine
 10
2415.836118539143
 20
797.4975051736525
 30
0.0
 11
2415.836118539143
 21
799.2532205242795
 31
0.0
  0
LINE
  5
760
330
6BD
100
AcDbEntity
  8
0
  6
Continuous
 62
     7
370
    15
100
AcDbLine
 10
2420.361601938737
 20
796.3545338171006
 30
0.0
 11
2420.361601938737
 21
798.4776328180479
 31
0.0
  0
LINE
  5
761
330
6BD
100
AcDbEntity
  8
0
  6
Continuous
 62
     7
370
    15
100
AcDbLine
 10
2420.361601938737
 20
796.3545338171006
 30
0.0
 11
2419.088809732602
 21
795.6197665164602
 31
0.0
  0
LINE
  5
762
330
6BD
100
AcDbEntity
  8
0
  6
Continuous
 62
     7
370
    15
100
AcDbLine
 10
2419.018099054483
 20
795.4156246784856
 30
0.0
 11
2420.290891260619
 21
796.1503919791261
 31
0.0
  0
ARC
  5
763
330
6BD
100
AcDbEntity
  8
0
  6
Continuous
 62
     7
370
    15
100
AcDbCircle
 10
2420.083486672711
 20
796.3365501152474
 30
0.0
 40
0.2786960974420692
100
AcDbArc
 50
318.0901084387491
 51
3.699752655714484
  0
LINE
  5
764
330
6BD
100
AcDbEntity
  8
0
  6
Continuous
 62
     7
370
    15
100
AcDbLine
 10
2418.558479646712
 20
794.9732886111937
 30
0.0
 11
2419.831271852848
 21
795.7080559118342
 31
0.0
  0
LINE
  5
765
330
6BD
100
AcDbEntity
  8
0
  6
Continuous
 62
     7
370
    15
100
AcDbLine
 10
2420.290891260619
 20
796.1503919791261
 30
0.0
 11
2419.831271852848
 21
795.7080559118342
 31
0.0
  0
LINE
  5
766
330
6BD
100
AcDbEntity
  8
0
  6
Continuous
 62
     7
370
    15
100
AcDbLine
 10
2418.487768968593
 20
794.7691467732192
 30
0.0
 11
2419.760561174729
 21
795.5039140738595
 31
0.0
  0
ARC
  5
767
330
6BD
100
AcDbEntity
  8
0
  6
Continuous
 62
     7
370
    15
100
AcDbCircle
 10
2420.038676440755
 20
795.5218977757132
 30
0.0
 40
0.2786960974417183
100
AcDbArc
 50
138.0901084387539
 51
183.6997526557859
  0
LINE
  5
768
330
6BD
100
AcDbEntity
  8
0
  6
Continuous
 62
     7
370
    15
100
AcDbLine
 10
2419.760561174729
 20
791.802262393311
 30
0.0
 11
2418.487768968593
 21
791.0674950926707
 31
0.0
  0
LINE
  5
769
330
6BD
100
AcDbEntity
  8
0
  6
Continuous
 62
     7
370
    15
100
AcDbLine
 10
2419.760561174729
 20
791.802262393311
 30
0.0
 11
2419.760561174729
 21
795.5039140738595
 31
0.0
  0
LINE
  5
76A
330
6BD
100
AcDbEntity
  8
0
  6
Continuous
 62
     7
370
    15
100
AcDbLine
 10
2406.537664366541
 20
807.9683771179869
 30
0.0
 11
2403.638526563676
 21
806.2947404887504
 31
0.0
  0
LINE
  5
76B
330
6BD
100
AcDbEntity
  8
0
  6
Continuous
 62
     7
370
    15
100
AcDbLine
 10
2406.537664366541
 20
807.9683771179869
 30
0.0
 11
2406.537664366541
 21
814.746209926897
 31
0.0
  0
ARC
  5
76C
330
6BD
100
AcDbEntity
  8
0
  6
Continuous
 62
     7
370
    15
100
AcDbCircle
 10
2419.515560223391
 20
791.7752190247076
 30
0.0
 40
0.2464889651521502
100
AcDbArc
 50
305.0133328957616
 51
6.298847497627805
  0
LINE
  5
76D
330
6BD
100
AcDbEntity
  8
0
  6
Continuous
 62
     7
370
    15
100
AcDbLine
 10
2411.522767173905
 20
802.110648915659
 30
0.0
 11
2411.522767173905
 21
799.9875499147117
 31
0.0
  0
ARC
  5
76E
330
6BD
100
AcDbEntity
  8
0
  6
Continuous
 62
     7
370
    15
100
AcDbCircle
 10
2411.244651907879
 20
799.9695662128585
 30
0.0
 40
0.27869609744238
100
AcDbArc
 50
318.0901084387859
 51
3.699752655681983
  0
LINE
  5
76F
330
6BD
100
AcDbEntity
  8
0
  6
Continuous
 62
     7
370
    15
100
AcDbLine
 10
2410.992437088016
 20
799.3410720094453
 30
0.0
 11
2411.452056495787
 21
799.7834080767371
 31
0.0
  0
ARC
  5
770
330
6BD
100
AcDbEntity
  8
0
  6
Continuous
 62
     7
370
    15
100
AcDbCircle
 10
2411.199841675923
 20
799.154913873324
 30
0.0
 40
0.2786960974423166
100
AcDbArc
 50
138.0901084387859
 51
183.6997526557015
  0
LINE
  5
771
330
6BD
100
AcDbEntity
  8
0
  6
Continuous
 62
     7
370
    15
100
AcDbLine
 10
2410.921726409897
 20
799.1369301714707
 30
0.0
 11
2410.921726409897
 21
795.4352784909222
 31
0.0
  0
ARC
  5
772
330
6BD
100
AcDbEntity
  8
0
  6
Continuous
 62
     7
370
    15
100
AcDbCircle
 10
2410.706189226184
 20
795.4003148924718
 30
0.0
 40
0.218354598714287
100
AcDbArc
 50
230.7967147643618
 51
9.214036990430646
  0
LINE
  5
773
330
6BD
100
AcDbEntity
  8
0
  6
Continuous
 62
     7
370
    15
100
AcDbLine
 10
2410.568173019304
 20
795.2311101129348
 30
0.0
 11
2409.224670135049
 21
796.0066978191664
 31
0.0
  0
ARC
  5
774
330
6BD
100
AcDbEntity
  8
0
  6
Continuous
 62
     7
370
    15
100
AcDbCircle
 10
2409.63872479514
 20
796.6540006791955
 30
0.0
 40
0.7684024037864332
100
AcDbArc
 50
182.6054784856628
 51
237.3945216599663
  0
LINE
  5
775
330
6BD
100
AcDbEntity
  8
0
  6
Continuous
 62
     7
370
    15
100
AcDbLine
 10
2408.871116744456
 20
796.619070253065
 30
0.0
 11
2408.871116744456
 21
800.3207219336136
 31
0.0
  0
ARC
  5
776
330
6BD
100
AcDbEntity
  8
0
  6
Continuous
 62
     7
370
    15
100
AcDbCircle
 10
2408.185585792531
 20
800.3027414956216
 30
0.0
 40
0.6857667112059238
100
AcDbArc
 50
1.502437006293924
 51
26.2925084781682
  0
LINE
  5
777
330
6BD
100
AcDbEntity
  8
0
  6
Continuous
 62
     7
370
    15
100
AcDbLine
 10
2408.340786658566
 20
801.5795059227471
 30
0.0
 11
2408.800406066338
 21
800.6065045827707
 31
0.0
  0
ARC
  5
778
330
6BD
100
AcDbEntity
  8
0
  6
Continuous
 62
     7
370
    15
100
AcDbCircle
 10
2408.955606932373
 20
801.8832690098964
 30
0.0
 40
0.6857667112065601
100
AcDbArc
 50
181.502437006333
 51
206.2925084781856
  0
LINE
  5
779
330
6BD
100
AcDbEntity
  8
0
  6
Continuous
 62
     7
370
    15
100
AcDbLine
 10
2408.270075980448
 20
801.865288571904
 30
0.0
 11
2408.270075980448
 21
803.6210039225309
 31
0.0
  0
LINE
  5
77A
330
6BD
100
AcDbEntity
  8
0
  6
Continuous
 62
     7
370
    15
100
AcDbLine
 10
2412.795559380041
 20
800.7223172153521
 30
0.0
 11
2412.795559380041
 21
802.8454162162994
 31
0.0
  0
LINE
  5
77B
330
6BD
100
AcDbEntity
  8
0
  6
Continuous
 62
     7
370
    15
100
AcDbLine
 10
2412.795559380041
 20
800.7223172153521
 30
0.0
 11
2411.522767173905
 21
799.9875499147117
 31
0.0
  0
LINE
  5
77C
330
6BD
100
AcDbEntity
  8
0
  6
Continuous
 62
     7
370
    15
100
AcDbLine
 10
2411.452056495787
 20
799.7834080767371
 30
0.0
 11
2412.724848701922
 21
800.5181753773776
 31
0.0
  0
ARC
  5
77D
330
6BD
100
AcDbEntity
  8
0
  6
Continuous
 62
     7
370
    15
100
AcDbCircle
 10
2412.517444114016
 20
800.7043335134985
 30
0.0
 40
0.2786960974411836
100
AcDbArc
 50
318.0901084386706
 51
3.699752655779487
  0
LINE
  5
77E
330
6BD
100
AcDbEntity
  8
0
  6
Continuous
 62
     7
370
    15
100
AcDbLine
 10
2410.992437088016
 20
799.3410720094453
 30
0.0
 11
2412.265229294151
 21
800.0758393100857
 31
0.0
  0
LINE
  5
77F
330
6BD
100
AcDbEntity
  8
0
  6
Continuous
 62
     7
370
    15
100
AcDbLine
 10
2412.724848701922
 20
800.5181753773776
 30
0.0
 11
2412.265229294151
 21
800.0758393100857
 31
0.0
  0
LINE
  5
780
330
6BD
100
AcDbEntity
  8
0
  6
Continuous
 62
     7
370
    15
100
AcDbLine
 10
2410.921726409897
 20
799.1369301714707
 30
0.0
 11
2412.194518616033
 21
799.8716974721109
 31
0.0
  0
ARC
  5
781
330
6BD
100
AcDbEntity
  8
0
  6
Continuous
 62
     7
370
    15
100
AcDbCircle
 10
2412.472633882058
 20
799.8896811739651
 30
0.0
 40
0.2786960974404335
100
AcDbArc
 50
138.0901084386436
 51
183.6997526558916
  0
LINE
  5
782
330
6BD
100
AcDbEntity
  8
0
  6
Continuous
 62
     7
370
    15
100
AcDbLine
 10
2412.194518616033
 20
796.1700457915625
 30
0.0
 11
2410.921726409897
 21
795.4352784909222
 31
0.0
  0
LINE
  5
783
330
6BD
100
AcDbEntity
  8
0
  6
Continuous
 62
     7
370
    15
100
AcDbLine
 10
2412.194518616033
 20
796.1700457915625
 30
0.0
 11
2412.194518616033
 21
799.8716974721109
 31
0.0
  0
LINE
  5
784
330
6BD
100
AcDbEntity
  8
0
  6
Continuous
 62
     7
370
    15
100
AcDbLine
 10
2398.971621807844
 20
812.3361605162385
 30
0.0
 11
2396.072484004979
 21
810.6625238870019
 31
0.0
  0
LINE
  5
785
330
6BD
100
AcDbEntity
  8
0
  6
Continuous
 62
     7
370
    15
100
AcDbLine
 10
2398.971621807844
 20
812.3361605162385
 30
0.0
 11
2398.971621807844
 21
819.1139933251486
 31
0.0
  0
ARC
  5
786
330
6BD
100
AcDbEntity
  8
0
  6
Continuous
 62
     7
370
    15
100
AcDbCircle
 10
2411.949517664831
 20
796.1430024228975
 30
0.0
 40
0.2464889650236993
100
AcDbArc
 50
305.0133328780489
 51
6.298847515323224
  0
LINE
  5
787
330
6BD
100
AcDbEntity
  8
0
  6
Continuous
 62
     7
370
    15
100
AcDbLine
 10
2403.95672461521
 20
806.4784323139104
 30
0.0
 11
2403.95672461521
 21
804.3553333129633
 31
0.0
  0
ARC
  5
788
330
6BD
100
AcDbEntity
  8
0
  6
Continuous
 62
     7
370
    15
100
AcDbCircle
 10
2403.678609349182
 20
804.3373496111101
 30
0.0
 40
0.27869609744238
100
AcDbArc
 50
318.0901084387859
 51
3.699752655681983
  0
LINE
  5
789
330
6BD
100
AcDbEntity
  8
0
  6
Continuous
 62
     7
370
    15
100
AcDbLine
 10
2403.426394529319
 20
803.7088554076968
 30
0.0
 11
2403.886013937091
 21
804.1511914749886
 31
0.0
  0
ARC
  5
78A
330
6BD
100
AcDbEntity
  8
0
  6
Continuous
 62
     7
370
    15
100
AcDbCircle
 10
2403.633799117227
 20
803.5226972715756
 30
0.0
 40
0.2786960974417205
100
AcDbArc
 50
138.0901084387172
 51
183.699752655734
  0
LINE
  5
78B
330
6BD
100
AcDbEntity
  8
0
  6
Continuous
 62
     7
370
    15
100
AcDbLine
 10
2403.355683851201
 20
803.5047135697222
 30
0.0
 11
2403.355683851201
 21
799.8030618891736
 31
0.0
  0
ARC
  5
78C
330
6BD
100
AcDbEntity
  8
0
  6
Continuous
 62
     7
370
    15
100
AcDbCircle
 10
2403.140146667487
 20
799.7680982907234
 30
0.0
 40
0.2183545987142733
100
AcDbArc
 50
230.7967147643334
 51
9.214036990443508
  0
LINE
  5
78D
330
6BD
100
AcDbEntity
  8
0
  6
Continuous
 62
     7
370
    15
100
AcDbLine
 10
2403.002130460608
 20
799.5988935111864
 30
0.0
 11
2401.658627576353
 21
800.3744812174179
 31
0.0
  0
ARC
  5
78E
330
6BD
100
AcDbEntity
  8
0
  6
Continuous
 62
     7
370
    15
100
AcDbCircle
 10
2402.072682236444
 20
801.0217840774471
 30
0.0
 40
0.76840240378661
100
AcDbArc
 50
182.6054784856759
 51
237.3945216599663
  0
LINE
  5
78F
330
6BD
100
AcDbEntity
  8
0
  6
Continuous
 62
     7
370
    15
100
AcDbLine
 10
2401.30507418576
 20
800.9868536513165
 30
0.0
 11
2401.30507418576
 21
804.6885053318652
 31
0.0
  0
ARC
  5
790
330
6BD
100
AcDbEntity
  8
0
  6
Continuous
 62
     7
370
    15
100
AcDbCircle
 10
2400.619543233836
 20
804.6705248938733
 30
0.0
 40
0.6857667112042129
100
AcDbArc
 50
1.502437006274389
 51
26.29250847821478
  0
LINE
  5
791
330
6BD
100
AcDbEntity
  8
0
  6
Continuous
 62
     7
370
    15
100
AcDbLine
 10
2400.77474409987
 20
805.9472893209985
 30
0.0
 11
2401.234363507641
 21
804.9742879810221
 31
0.0
  0
ARC
  5
792
330
6BD
100
AcDbEntity
  8
0
  6
Continuous
 62
     7
370
    15
100
AcDbCircle
 10
2401.389564373677
 20
806.2510524081478
 30
0.0
 40
0.6857667112059425
100
AcDbArc
 50
181.5024370063134
 51
206.2925084781972
  0
LINE
  5
793
330
6BD
100
AcDbEntity
  8
0
  6
Continuous
 62
     7
370
    15
100
AcDbLine
 10
2400.704033421752
 20
806.2330719701556
 30
0.0
 11
2400.704033421752
 21
807.9887873207825
 31
0.0
  0
LINE
  5
794
330
6BD
100
AcDbEntity
  8
0
  6
Continuous
 62
     7
370
    15
100
AcDbLine
 10
2405.229516821345
 20
805.0901006136037
 30
0.0
 11
2405.229516821345
 21
807.2131996145509
 31
0.0
  0
LINE
  5
795
330
6BD
100
AcDbEntity
  8
0
  6
Continuous
 62
     7
370
    15
100
AcDbLine
 10
2405.229516821345
 20
805.0901006136037
 30
0.0
 11
2403.95672461521
 21
804.3553333129633
 31
0.0
  0
LINE
  5
796
330
6BD
100
AcDbEntity
  8
0
  6
Continuous
 62
     7
370
    15
100
AcDbLine
 10
2403.886013937091
 20
804.1511914749886
 30
0.0
 11
2405.158806143227
 21
804.8859587756291
 31
0.0
  0
ARC
  5
797
330
6BD
100
AcDbEntity
  8
0
  6
Continuous
 62
     7
370
    15
100
AcDbCircle
 10
2404.951401555318
 20
805.0721169117505
 30
0.0
 40
0.2786960974423187
100
AcDbArc
 50
318.0901084387636
 51
3.699752655688483
  0
LINE
  5
798
330
6BD
100
AcDbEntity
  8
0
  6
Continuous
 62
     7
370
    15
100
AcDbLine
 10
2403.426394529319
 20
803.7088554076968
 30
0.0
 11
2404.699186735455
 21
804.4436227083371
 31
0.0
  0
LINE
  5
799
330
6BD
100
AcDbEntity
  8
0
  6
Continuous
 62
     7
370
    15
100
AcDbLine
 10
2405.158806143227
 20
804.8859587756291
 30
0.0
 11
2404.699186735455
 21
804.4436227083371
 31
0.0
  0
LINE
  5
79A
330
6BD
100
AcDbEntity
  8
0
  6
Continuous
 62
     7
370
    15
100
AcDbLine
 10
2403.355683851201
 20
803.5047135697222
 30
0.0
 11
2404.628476057337
 21
804.2394808703624
 31
0.0
  0
ARC
  5
79B
330
6BD
100
AcDbEntity
  8
0
  6
Continuous
 62
     7
370
    15
100
AcDbCircle
 10
2404.906591323362
 20
804.2574645722165
 30
0.0
 40
0.2786960974407822
100
AcDbArc
 50
138.0901084386707
 51
183.6997526558591
  0
LINE
  5
79C
330
6BD
100
AcDbEntity
  8
0
  6
Continuous
 62
     7
370
    15
100
AcDbLine
 10
2404.628476057337
 20
800.5378291898139
 30
0.0
 11
2403.355683851201
 21
799.8030618891736
 31
0.0
  0
LINE
  5
79D
330
6BD
100
AcDbEntity
  8
0
  6
Continuous
 62
     7
370
    15
100
AcDbLine
 10
2404.628476057337
 20
800.5378291898139
 30
0.0
 11
2404.628476057337
 21
804.2394808703624
 31
0.0
  0
LINE
  5
79E
330
6BD
100
AcDbEntity
  8
0
  6
Continuous
 62
     7
370
    15
100
AcDbLine
 10
2391.405579249148
 20
816.7039439144899
 30
0.0
 11
2388.506441446283
 21
815.0303072852533
 31
0.0
  0
LINE
  5
79F
330
6BD
100
AcDbEntity
  8
0
  6
Continuous
 62
     7
370
    15
100
AcDbLine
 10
2391.405579249148
 20
816.7039439144899
 30
0.0
 11
2391.405579249148
 21
823.4817767234002
 31
0.0
  0
ARC
  5
7A0
330
6BD
100
AcDbEntity
  8
0
  6
Continuous
 62
     7
370
    15
100
AcDbCircle
 10
2404.383475106234
 20
800.5107858211042
 30
0.0
 40
0.2464889649298054
100
AcDbArc
 50
305.0133328651569
 51
6.298847528245212
  0
LINE
  5
7A1
330
6BD
100
AcDbEntity
  8
0
  6
Continuous
 62
     7
370
    15
100
AcDbLine
 10
2397.66347426265
 20
809.4578840118552
 30
0.0
 11
2397.66347426265
 21
811.5809830128025
 31
0.0
  0
LINE
  5
7A2
330
6BD
100
AcDbEntity
  8
0
  6
Continuous
 62
     7
370
    15
100
AcDbLine
 10
2397.66347426265
 20
809.4578840118552
 30
0.0
 11
2396.390682056514
 21
808.7231167112147
 31
0.0
  0
LINE
  5
7A3
330
6BD
100
AcDbEntity
  8
0
  6
Continuous
 62
     7
370
    15
100
AcDbLine
 10
2396.390682056514
 20
810.8462157121619
 30
0.0
 11
2396.390682056514
 21
808.7231167112147
 31
0.0
  0
ARC
  5
7A4
330
6BD
100
AcDbEntity
  8
0
  6
Continuous
 62
     7
370
    15
100
AcDbCircle
 10
2396.112566790488
 20
808.7051330093611
 30
0.0
 40
0.2786960974412069
100
AcDbArc
 50
318.0901084386755
 51
3.699752655772986
  0
LINE
  5
7A5
330
6BD
100
AcDbEntity
  8
0
  6
Continuous
 62
     7
370
    15
100
AcDbLine
 10
2395.860351970623
 20
808.0766388059483
 30
0.0
 11
2396.319971378395
 21
808.5189748732402
 31
0.0
  0
ARC
  5
7A6
330
6BD
100
AcDbEntity
  8
0
  6
Continuous
 62
     7
370
    15
100
AcDbCircle
 10
2396.067756558531
 20
807.8904806698268
 30
0.0
 40
0.27869609744238
100
AcDbArc
 50
138.0901084387859
 51
183.6997526556885
  0
LINE
  5
7A7
330
6BD
100
AcDbEntity
  8
0
  6
Continuous
 62
     7
370
    15
100
AcDbLine
 10
2395.789641292505
 20
807.8724969679736
 30
0.0
 11
2395.789641292505
 21
804.1708452874251
 31
0.0
  0
ARC
  5
7A8
330
6BD
100
AcDbEntity
  8
0
  6
Continuous
 62
     7
370
    15
100
AcDbCircle
 10
2395.574104108792
 20
804.1358816889749
 30
0.0
 40
0.2183545987142513
100
AcDbArc
 50
230.7967147643334
 51
9.214036990449937
  0
LINE
  5
7A9
330
6BD
100
AcDbEntity
  8
0
  6
Continuous
 62
     7
370
    15
100
AcDbLine
 10
2395.436087901911
 20
803.9666769094377
 30
0.0
 11
2394.092585017657
 21
804.7422646156695
 31
0.0
  0
ARC
  5
7AA
330
6BD
100
AcDbEntity
  8
0
  6
Continuous
 62
     7
370
    15
100
AcDbCircle
 10
2394.506639677748
 20
805.3895674756985
 30
0.0
 40
0.7684024037864937
100
AcDbArc
 50
182.6054784856694
 51
237.3945216599663
  0
LINE
  5
7AB
330
6BD
100
AcDbEntity
  8
0
  6
Continuous
 62
     7
370
    15
100
AcDbLine
 10
2393.739031627064
 20
805.3546370495681
 30
0.0
 11
2393.739031627064
 21
809.0562887301166
 31
0.0
  0
ARC
  5
7AC
330
6BD
100
AcDbEntity
  8
0
  6
Continuous
 62
     7
370
    15
100
AcDbCircle
 10
2393.053500675142
 20
809.0383082921253
 30
0.0
 40
0.6857667112026732
100
AcDbArc
 50
1.502437006248343
 51
26.29250847824968
  0
LINE
  5
7AD
330
6BD
100
AcDbEntity
  8
0
  6
Continuous
 62
     7
370
    15
100
AcDbLine
 10
2393.208701541174
 20
810.3150727192501
 30
0.0
 11
2393.668320948945
 21
809.3420713792735
 31
0.0
  0
ARC
  5
7AE
330
6BD
100
AcDbEntity
  8
0
  6
Continuous
 62
     7
370
    15
100
AcDbCircle
 10
2393.823521814981
 20
810.6188358063993
 30
0.0
 40
0.6857667112063371
100
AcDbArc
 50
181.50243700632
 51
206.2925084781914
  0
LINE
  5
7AF
330
6BD
100
AcDbEntity
  8
0
  6
Continuous
 62
     7
370
    15
100
AcDbLine
 10
2393.137990863055
 20
810.6008553684072
 30
0.0
 11
2393.137990863055
 21
812.3565707190341
 31
0.0
  0
LINE
  5
7B0
330
6BD
100
AcDbEntity
  8
0
  6
Continuous
 62
     7
370
    15
100
AcDbLine
 10
2396.319971378395
 20
808.5189748732402
 30
0.0
 11
2397.592763584531
 21
809.2537421738805
 31
0.0
  0
ARC
  5
7B1
330
6BD
100
AcDbEntity
  8
0
  6
Continuous
 62
     7
370
    15
100
AcDbCircle
 10
2397.385358996622
 20
809.439900310002
 30
0.0
 40
0.2786960974426675
100
AcDbArc
 50
318.0901084387956
 51
3.699752655655982
  0
LINE
  5
7B2
330
6BD
100
AcDbEntity
  8
0
  6
Continuous
 62
     7
370
    15
100
AcDbLine
 10
2395.860351970623
 20
808.0766388059483
 30
0.0
 11
2397.133144176759
 21
808.8114061065887
 31
0.0
  0
LINE
  5
7B3
330
6BD
100
AcDbEntity
  8
0
  6
Continuous
 62
     7
370
    15
100
AcDbLine
 10
2397.592763584531
 20
809.2537421738805
 30
0.0
 11
2397.133144176759
 21
808.8114061065887
 31
0.0
  0
LINE
  5
7B4
330
6BD
100
AcDbEntity
  8
0
  6
Continuous
 62
     7
370
    15
100
AcDbLine
 10
2395.789641292505
 20
807.8724969679736
 30
0.0
 11
2397.062433498641
 21
808.607264268614
 31
0.0
  0
ARC
  5
7B5
330
6BD
100
AcDbEntity
  8
0
  6
Continuous
 62
     7
370
    15
100
AcDbCircle
 10
2397.340548764667
 20
808.6252479704679
 30
0.0
 40
0.2786960974415518
100
AcDbArc
 50
138.0901084387539
 51
183.6997526558007
  0
LINE
  5
7B6
330
6BD
100
AcDbEntity
  8
0
  6
Continuous
 62
     7
370
    15
100
AcDbLine
 10
2397.062433498641
 20
804.9056125880655
 30
0.0
 11
2395.789641292505
 21
804.1708452874251
 31
0.0
  0
LINE
  5
7B7
330
6BD
100
AcDbEntity
  8
0
  6
Continuous
 62
     7
370
    15
100
AcDbLine
 10
2397.062433498641
 20
804.9056125880655
 30
0.0
 11
2397.062433498641
 21
808.607264268614
 31
0.0
  0
LINE
  5
7B8
330
6BD
100
AcDbEntity
  8
0
  6
Continuous
 62
     7
370
    15
100
AcDbLine
 10
2383.839536690452
 20
821.0717273127414
 30
0.0
 11
2380.940398887588
 21
819.3980906835049
 31
0.0
  0
LINE
  5
7B9
330
6BD
100
AcDbEntity
  8
0
  6
Continuous
 62
     7
370
    15
100
AcDbLine
 10
2383.839536690452
 20
821.0717273127414
 30
0.0
 11
2383.839536690452
 21
827.8495601216516
 31
0.0
  0
ARC
  5
7BA
330
6BD
100
AcDbEntity
  8
0
  6
Continuous
 62
     7
370
    15
100
AcDbCircle
 10
2396.817432547167
 20
804.8785692195236
 30
0.0
 40
0.2464889652806651
100
AcDbArc
 50
305.013332913453
 51
6.298847479928769
  0
LINE
  5
7BB
330
6BD
100
AcDbEntity
  8
0
  6
Continuous
 62
     7
370
    15
100
AcDbLine
 10
2390.097431703953
 20
813.8256674101066
 30
0.0
 11
2390.097431703953
 21
815.9487664110539
 31
0.0
  0
LINE
  5
7BC
330
6BD
100
AcDbEntity
  8
0
  6
Continuous
 62
     7
370
    15
100
AcDbLine
 10
2390.097431703953
 20
813.8256674101066
 30
0.0
 11
2388.824639497817
 21
813.0909001094662
 31
0.0
  0
LINE
  5
7BD
330
6BD
100
AcDbEntity
  8
0
  6
Continuous
 62
     7
370
    15
100
AcDbLine
 10
2388.824639497817
 20
815.2139991104135
 30
0.0
 11
2388.824639497817
 21
813.0909001094662
 31
0.0
  0
ARC
  5
7BE
330
6BD
100
AcDbEntity
  8
0
  6
Continuous
 62
     7
370
    15
100
AcDbCircle
 10
2388.546524231792
 20
813.0729164076125
 30
0.0
 40
0.2786960974411836
100
AcDbArc
 50
318.0901084386706
 51
3.699752655779487
  0
LINE
  5
7BF
330
6BD
100
AcDbEntity
  8
0
  6
Continuous
 62
     7
370
    15
100
AcDbLine
 10
2388.294309411927
 20
812.4444222041997
 30
0.0
 11
2388.753928819699
 21
812.8867582714915
 31
0.0
  0
ARC
  5
7C0
330
6BD
100
AcDbEntity
  8
0
  6
Continuous
 62
     7
370
    15
100
AcDbCircle
 10
2388.501713999835
 20
812.2582640680786
 30
0.0
 40
0.2786960974414944
100
AcDbArc
 50
138.0901084387074
 51
183.69975265576
  0
LINE
  5
7C1
330
6BD
100
AcDbEntity
  8
0
  6
Continuous
 62
     7
370
    15
100
AcDbLine
 10
2388.223598733809
 20
812.2402803662252
 30
0.0
 11
2388.223598733809
 21
808.5386286856767
 31
0.0
  0
ARC
  5
7C2
330
6BD
100
AcDbEntity
  8
0
  6
Continuous
 62
     7
370
    15
100
AcDbCircle
 10
2388.008061550095
 20
808.5036650872265
 30
0.0
 40
0.2183545987143394
100
AcDbArc
 50
230.7967147643618
 51
9.214036990417787
  0
LINE
  5
7C3
330
6BD
100
AcDbEntity
  8
0
  6
Continuous
 62
     7
370
    15
100
AcDbLine
 10
2387.870045343216
 20
808.3344603076893
 30
0.0
 11
2386.526542458961
 21
809.1100480139209
 31
0.0
  0
ARC
  5
7C4
330
6BD
100
AcDbEntity
  8
0
  6
Continuous
 62
     7
370
    15
100
AcDbCircle
 10
2386.940597119052
 20
809.7573508739497
 30
0.0
 40
0.7684024037859743
100
AcDbArc
 50
182.6054784856498
 51
237.3945216599734
  0
LINE
  5
7C5
330
6BD
100
AcDbEntity
  8
0
  6
Continuous
 62
     7
370
    15
100
AcDbLine
 10
2386.172989068368
 20
809.7224204478195
 30
0.0
 11
2386.172989068368
 21
813.4240721283681
 31
0.0
  0
ARC
  5
7C6
330
6BD
100
AcDbEntity
  8
0
  6
Continuous
 62
     7
370
    15
100
AcDbCircle
 10
2385.487458116445
 20
813.4060916903768
 30
0.0
 40
0.6857667112032368
100
AcDbArc
 50
1.502437006248343
 51
26.29250847821478
  0
LINE
  5
7C7
330
6BD
100
AcDbEntity
  8
0
  6
Continuous
 62
     7
370
    15
100
AcDbLine
 10
2385.642658982478
 20
814.6828561175016
 30
0.0
 11
2386.102278390249
 21
813.709854777525
 31
0.0
  0
ARC
  5
7C8
330
6BD
100
AcDbEntity
  8
0
  6
Continuous
 62
     7
370
    15
100
AcDbCircle
 10
2386.257479256284
 20
814.9866192046507
 30
0.0
 40
0.68576671120565
100
AcDbArc
 50
181.5024370063069
 51
206.2925084782031
  0
LINE
  5
7C9
330
6BD
100
AcDbEntity
  8
0
  6
Continuous
 62
     7
370
    15
100
AcDbLine
 10
2385.571948304359
 20
814.9686387666585
 30
0.0
 11
2385.571948304359
 21
816.7243541172855
 31
0.0
  0
LINE
  5
7CA
330
6BD
100
AcDbEntity
  8
0
  6
Continuous
 62
     7
370
    15
100
AcDbLine
 10
2388.753928819699
 20
812.8867582714915
 30
0.0
 11
2390.026721025835
 21
813.6215255721321
 31
0.0
  0
ARC
  5
7CB
330
6BD
100
AcDbEntity
  8
0
  6
Continuous
 62
     7
370
    15
100
AcDbCircle
 10
2389.819316437927
 20
813.8076837082532
 30
0.0
 40
0.278696097441598
100
AcDbArc
 50
318.0901084387123
 51
3.699752655746985
  0
LINE
  5
7CC
330
6BD
100
AcDbEntity
  8
0
  6
Continuous
 62
     7
370
    15
100
AcDbLine
 10
2388.294309411927
 20
812.4444222041997
 30
0.0
 11
2389.567101618063
 21
813.1791895048403
 31
0.0
  0
LINE
  5
7CD
330
6BD
100
AcDbEntity
  8
0
  6
Continuous
 62
     7
370
    15
100
AcDbLine
 10
2390.026721025835
 20
813.6215255721321
 30
0.0
 11
2389.567101618063
 21
813.1791895048403
 31
0.0
  0
LINE
  5
7CE
330
6BD
100
AcDbEntity
  8
0
  6
Continuous
 62
     7
370
    15
100
AcDbLine
 10
2388.223598733809
 20
812.2402803662252
 30
0.0
 11
2389.496390939944
 21
812.9750476668656
 31
0.0
  0
ARC
  5
7CF
330
6BD
100
AcDbEntity
  8
0
  6
Continuous
 62
     7
370
    15
100
AcDbCircle
 10
2389.774506205971
 20
812.9930313687191
 30
0.0
 40
0.2786960974417905
100
AcDbArc
 50
138.0901084387539
 51
183.699752655773
  0
LINE
  5
7D0
330
6BD
100
AcDbEntity
  8
0
  6
Continuous
 62
     7
370
    15
100
AcDbLine
 10
2389.496390939944
 20
809.2733959863171
 30
0.0
 11
2388.223598733809
 21
808.5386286856767
 31
0.0
  0
LINE
  5
7D1
330
6BD
100
AcDbEntity
  8
0
  6
Continuous
 62
     7
370
    15
100
AcDbLine
 10
2389.496390939944
 20
809.2733959863171
 30
0.0
 11
2389.496390939944
 21
812.9750476668656
 31
0.0
  0
LINE
  5
7D2
330
6BD
100
AcDbEntity
  8
0
  6
Continuous
 62
     7
370
    15
100
AcDbLine
 10
2376.273494131757
 20
825.439510710993
 30
0.0
 11
2373.374356328891
 21
823.7658740817565
 31
0.0
  0
LINE
  5
7D3
330
6BD
100
AcDbEntity
  8
0
  6
Continuous
 62
     7
370
    15
100
AcDbLine
 10
2376.273494131757
 20
825.439510710993
 30
0.0
 11
2376.273494131757
 21
832.2173435199031
 31
0.0
  0
ARC
  5
7D4
330
6BD
100
AcDbEntity
  8
0
  6
Continuous
 62
     7
370
    15
100
AcDbCircle
 10
2389.251389988743
 20
809.2463526176521
 30
0.0
 40
0.2464889650235534
100
AcDbArc
 50
305.0133328780451
 51
6.298847515342647
  0
LINE
  5
7D5
330
6BD
100
AcDbEntity
  8
0
  6
Continuous
 62
     7
370
    15
100
AcDbLine
 10
2381.258596939121
 20
819.5817825086649
 30
0.0
 11
2381.258596939121
 21
817.4586835077176
 31
0.0
  0
ARC
  5
7D6
330
6BD
100
AcDbEntity
  8
0
  6
Continuous
 62
     7
370
    15
100
AcDbCircle
 10
2380.980481673094
 20
817.4406998058646
 30
0.0
 40
0.278696097442538
100
AcDbArc
 50
318.0901084387956
 51
3.699752655675483
  0
LINE
  5
7D7
330
6BD
100
AcDbEntity
  8
0
  6
Continuous
 62
     7
370
    15
100
AcDbLine
 10
2380.728266853231
 20
816.8122056024513
 30
0.0
 11
2381.187886261002
 21
817.2545416697429
 31
0.0
  0
ARC
  5
7D8
330
6BD
100
AcDbEntity
  8
0
  6
Continuous
 62
     7
370
    15
100
AcDbCircle
 10
2380.935671441138
 20
816.6260474663303
 30
0.0
 40
0.2786960974412069
100
AcDbArc
 50
138.0901084386755
 51
183.6997526557859
  0
LINE
  5
7D9
330
6BD
100
AcDbEntity
  8
0
  6
Continuous
 62
     7
370
    15
100
AcDbLine
 10
2380.657556175112
 20
816.6080637644766
 30
0.0
 11
2380.657556175112
 21
812.9064120839283
 31
0.0
  0
ARC
  5
7DA
330
6BD
100
AcDbEntity
  8
0
  6
Continuous
 62
     7
370
    15
100
AcDbCircle
 10
2380.442018991399
 20
812.8714484854778
 30
0.0
 40
0.2183545987142915
100
AcDbArc
 50
230.7967147643659
 51
9.214036990437078
  0
LINE
  5
7DB
330
6BD
100
AcDbEntity
  8
0
  6
Continuous
 62
     7
370
    15
100
AcDbLine
 10
2380.304002784519
 20
812.7022437059409
 30
0.0
 11
2378.960499900265
 21
813.4778314121724
 31
0.0
  0
ARC
  5
7DC
330
6BD
100
AcDbEntity
  8
0
  6
Continuous
 62
     7
370
    15
100
AcDbCircle
 10
2379.374554560356
 20
814.1251342722013
 30
0.0
 40
0.7684024037861415
100
AcDbArc
 50
182.6054784856563
 51
237.3945216599699
  0
LINE
  5
7DD
330
6BD
100
AcDbEntity
  8
0
  6
Continuous
 62
     7
370
    15
100
AcDbLine
 10
2378.606946509671
 20
814.090203846071
 30
0.0
 11
2378.606946509671
 21
817.7918555266197
 31
0.0
  0
ARC
  5
7DE
330
6BD
100
AcDbEntity
  8
0
  6
Continuous
 62
     7
370
    15
100
AcDbCircle
 10
2377.921415557748
 20
817.7738750886279
 30
0.0
 40
0.6857667112045564
100
AcDbArc
 50
1.5024370062809
 51
26.29250847820894
  0
LINE
  5
7DF
330
6BD
100
AcDbEntity
  8
0
  6
Continuous
 62
     7
370
    15
100
AcDbLine
 10
2378.076616423782
 20
819.050639515753
 30
0.0
 11
2378.536235831553
 21
818.0776381757764
 31
0.0
  0
ARC
  5
7E0
330
6BD
100
AcDbEntity
  8
0
  6
Continuous
 62
     7
370
    15
100
AcDbCircle
 10
2378.691436697589
 20
819.3544026029021
 30
0.0
 40
0.685766711205642
100
AcDbArc
 50
181.5024370063004
 51
206.2925084781972
  0
LINE
  5
7E1
330
6BD
100
AcDbEntity
  8
0
  6
Continuous
 62
     7
370
    15
100
AcDbLine
 10
2378.005905745663
 20
819.3364221649101
 30
0.0
 11
2378.005905745663
 21
821.092137515537
 31
0.0
  0
LINE
  5
7E2
330
6BD
100
AcDbEntity
  8
0
  6
Continuous
 62
     7
370
    15
100
AcDbLine
 10
2382.531389145257
 20
818.1934508083582
 30
0.0
 11
2382.531389145257
 21
820.3165498093055
 31
0.0
  0
LINE
  5
7E3
330
6BD
100
AcDbEntity
  8
0
  6
Continuous
 62
     7
370
    15
100
AcDbLine
 10
2382.531389145257
 20
818.1934508083582
 30
0.0
 11
2381.258596939121
 21
817.4586835077176
 31
0.0
  0
LINE
  5
7E4
330
6BD
100
AcDbEntity
  8
0
  6
Continuous
 62
     7
370
    15
100
AcDbLine
 10
2381.187886261002
 20
817.2545416697429
 30
0.0
 11
2382.460678467138
 21
817.9893089703835
 31
0.0
  0
ARC
  5
7E5
330
6BD
100
AcDbEntity
  8
0
  6
Continuous
 62
     7
370
    15
100
AcDbCircle
 10
2382.253273879231
 20
818.1754671065048
 30
0.0
 40
0.2786960974419817
100
AcDbArc
 50
318.0901084387491
 51
3.699752655720985
  0
LINE
  5
7E6
330
6BD
100
AcDbEntity
  8
0
  6
Continuous
 62
     7
370
    15
100
AcDbLine
 10
2380.728266853231
 20
816.8122056024513
 30
0.0
 11
2382.001059059367
 21
817.5469729030917
 31
0.0
  0
LINE
  5
7E7
330
6BD
100
AcDbEntity
  8
0
  6
Continuous
 62
     7
370
    15
100
AcDbLine
 10
2382.460678467138
 20
817.9893089703835
 30
0.0
 11
2382.001059059367
 21
817.5469729030917
 31
0.0
  0
LINE
  5
7E8
330
6BD
100
AcDbEntity
  8
0
  6
Continuous
 62
     7
370
    15
100
AcDbLine
 10
2380.657556175112
 20
816.6080637644766
 30
0.0
 11
2381.930348381248
 21
817.342831065117
 31
0.0
  0
ARC
  5
7E9
330
6BD
100
AcDbEntity
  8
0
  6
Continuous
 62
     7
370
    15
100
AcDbCircle
 10
2382.208463647274
 20
817.3608147669709
 30
0.0
 40
0.2786960974410697
100
AcDbArc
 50
138.0901084386852
 51
183.6997526558461
  0
LINE
  5
7EA
330
6BD
100
AcDbEntity
  8
0
  6
Continuous
 62
     7
370
    15
100
AcDbLine
 10
2381.930348381248
 20
813.6411793845685
 30
0.0
 11
2380.657556175112
 21
812.9064120839283
 31
0.0
  0
LINE
  5
7EB
330
6BD
100
AcDbEntity
  8
0
  6
Continuous
 62
     7
370
    15
100
AcDbLine
 10
2381.930348381248
 20
813.6411793845685
 30
0.0
 11
2381.930348381248
 21
817.342831065117
 31
0.0
  0
ARC
  5
7EC
330
6BD
100
AcDbEntity
  8
0
  6
Continuous
 62
     7
370
    15
100
AcDbCircle
 10
2381.685347430047
 20
813.6141360159035
 30
0.0
 40
0.2464889650235301
100
AcDbArc
 50
305.0133328780451
 51
6.298847515329699
  0
LINE
  5
7ED
330
6BD
100
AcDbEntity
  8
0
  6
Continuous
 62
     7
370
    15
100
AcDbLine
 10
2374.965346586561
 20
822.5612342066096
 30
0.0
 11
2374.965346586561
 21
824.6843332075568
 31
0.0
  0
LINE
  5
7EE
330
6BD
100
AcDbEntity
  8
0
  6
Continuous
 62
     7
370
    15
100
AcDbLine
 10
2374.965346586561
 20
822.5612342066096
 30
0.0
 11
2373.692554380425
 21
821.8264669059692
 31
0.0
  0
LINE
  5
7EF
330
6BD
100
AcDbEntity
  8
0
  6
Continuous
 62
     7
370
    15
100
AcDbLine
 10
2373.692554380425
 20
823.9495659069165
 30
0.0
 11
2373.692554380425
 21
821.8264669059692
 31
0.0
  0
ARC
  5
7F0
330
6BD
100
AcDbEntity
  8
0
  6
Continuous
 62
     7
370
    15
100
AcDbCircle
 10
2373.414439114398
 20
821.8084832041158
 30
0.0
 40
0.2786960974422105
100
AcDbArc
 50
318.0901084387859
 51
3.699752655720985
  0
LINE
  5
7F1
330
6BD
100
AcDbEntity
  8
0
  6
Continuous
 62
     7
370
    15
100
AcDbLine
 10
2373.162224294535
 20
821.1799890007027
 30
0.0
 11
2373.621843702307
 21
821.6223250679945
 31
0.0
  0
ARC
  5
7F2
330
6BD
100
AcDbEntity
  8
0
  6
Continuous
 62
     7
370
    15
100
AcDbCircle
 10
2373.369628882444
 20
820.9938308645813
 30
0.0
 40
0.27869609744238
100
AcDbArc
 50
138.0901084387859
 51
183.6997526556885
  0
LINE
  5
7F3
330
6BD
100
AcDbEntity
  8
0
  6
Continuous
 62
     7
370
    15
100
AcDbLine
 10
2373.091513616417
 20
820.9758471627282
 30
0.0
 11
2373.091513616417
 21
817.2741954821796
 31
0.0
  0
ARC
  5
7F4
330
6BD
100
AcDbEntity
  8
0
  6
Continuous
 62
     7
370
    15
100
AcDbCircle
 10
2372.875976432704
 20
817.2392318837294
 30
0.0
 40
0.218354598714287
100
AcDbArc
 50
230.7967147643618
 51
9.214036990430646
  0
LINE
  5
7F5
330
6BD
100
AcDbEntity
  8
0
  6
Continuous
 62
     7
370
    15
100
AcDbLine
 10
2372.737960225824
 20
817.0700271041923
 30
0.0
 11
2371.394457341569
 21
817.845614810424
 31
0.0
  0
ARC
  5
7F6
330
6BD
100
AcDbEntity
  8
0
  6
Continuous
 62
     7
370
    15
100
AcDbCircle
 10
2371.80851200166
 20
818.492917670453
 30
0.0
 40
0.7684024037863802
100
AcDbArc
 50
182.6054784856628
 51
237.3945216599699
  0
LINE
  5
7F7
330
6BD
100
AcDbEntity
  8
0
  6
Continuous
 62
     7
370
    15
100
AcDbLine
 10
2371.040903950976
 20
818.4579872443226
 30
0.0
 11
2371.040903950976
 21
822.1596389248711
 31
0.0
  0
ARC
  5
7F8
330
6BD
100
AcDbEntity
  8
0
  6
Continuous
 62
     7
370
    15
100
AcDbCircle
 10
2370.355372999052
 20
822.1416584868793
 30
0.0
 40
0.6857667112045564
100
AcDbArc
 50
1.5024370062809
 51
26.29250847820894
  0
LINE
  5
7F9
330
6BD
100
AcDbEntity
  8
0
  6
Continuous
 62
     7
370
    15
100
AcDbLine
 10
2370.510573865086
 20
823.4184229140046
 30
0.0
 11
2370.970193272857
 21
822.445421574028
 31
0.0
  0
ARC
  5
7FA
330
6BD
100
AcDbEntity
  8
0
  6
Continuous
 62
     7
370
    15
100
AcDbCircle
 10
2371.125394138895
 20
823.7221860011546
 30
0.0
 40
0.6857667112089074
100
AcDbArc
 50
181.502437006372
 51
206.292508478139
  0
LINE
  5
7FB
330
6BD
100
AcDbEntity
  8
0
  6
Continuous
 62
     7
370
    15
100
AcDbLine
 10
2370.439863186967
 20
823.7042055631615
 30
0.0
 11
2370.439863186967
 21
825.4599209137886
 31
0.0
  0
LINE
  5
7FC
330
6BD
100
AcDbEntity
  8
0
  6
Continuous
 62
     7
370
    15
100
AcDbLine
 10
2373.621843702307
 20
821.6223250679945
 30
0.0
 11
2374.894635908442
 21
822.3570923686349
 31
0.0
  0
ARC
  5
7FD
330
6BD
100
AcDbEntity
  8
0
  6
Continuous
 62
     7
370
    15
100
AcDbCircle
 10
2374.687231320534
 20
822.5432505047562
 30
0.0
 40
0.2786960974420926
100
AcDbArc
 50
318.090108438754
 51
3.699752655707984
  0
LINE
  5
7FE
330
6BD
100
AcDbEntity
  8
0
  6
Continuous
 62
     7
370
    15
100
AcDbLine
 10
2373.162224294535
 20
821.1799890007027
 30
0.0
 11
2374.435016500671
 21
821.9147563013432
 31
0.0
  0
LINE
  5
7FF
330
6BD
100
AcDbEntity
  8
0
  6
Continuous
 62
     7
370
    15
100
AcDbLine
 10
2374.894635908442
 20
822.3570923686349
 30
0.0
 11
2374.435016500671
 21
821.9147563013432
 31
0.0
  0
LINE
  5
800
330
6BD
100
AcDbEntity
  8
0
  6
Continuous
 62
     7
370
    15
100
AcDbLine
 10
2373.091513616417
 20
820.9758471627282
 30
0.0
 11
2374.364305822552
 21
821.7106144633685
 31
0.0
  0
ARC
  5
801
330
6BD
100
AcDbEntity
  8
0
  6
Continuous
 62
     7
370
    15
100
AcDbCircle
 10
2374.642421088578
 20
821.7285981652226
 30
0.0
 40
0.2786960974408913
100
AcDbArc
 50
138.0901084387074
 51
183.6997526558787
  0
LINE
  5
802
330
6BD
100
AcDbEntity
  8
0
  6
Continuous
 62
     7
370
    15
100
AcDbLine
 10
2374.364305822552
 20
818.00896278282
 30
0.0
 11
2373.091513616417
 21
817.2741954821796
 31
0.0
  0
LINE
  5
803
330
6BD
100
AcDbEntity
  8
0
  6
Continuous
 62
     7
370
    15
100
AcDbLine
 10
2374.364305822552
 20
818.00896278282
 30
0.0
 11
2374.364305822552
 21
821.7106144633685
 31
0.0
  0
ARC
  5
804
330
6BD
100
AcDbEntity
  8
0
  6
Continuous
 62
     7
370
    15
100
AcDbCircle
 10
2374.119304871351
 20
817.9819194141552
 30
0.0
 40
0.2464889650238563
100
AcDbArc
 50
305.0133328780739
 51
6.298847515297327
  0
ENDBLK
  5
6BF
330
6BD
100
AcDbEntity
  8
0
100
AcDbBlockEnd
  0
ENDSEC
  0
SECTION
  2
ENTITIES
  0
INSERT
  5
693
330
1F
100
AcDbEntity
  8
0
100
AcDbBlockReference
  2
1
 10
0.0
 20
0.0
 30
0.0
  0
INSERT
  5
69B
330
1F
100
AcDbEntity
  8
0
100
AcDbBlockReference
  2
2
 10
0.0
 20
0.0
 30
0.0
  0
INSERT
  5
6BC
330
1F
100
AcDbEntity
  8
0
100
AcDbBlockReference
  2
3
 10
0.0
 20
0.0
 30
0.0
  0
INSERT
  5
805
330
1F
100
AcDbEntity
  8
0
100
AcDbBlockReference
  2
4
 10
0.0
 20
0.0
 30
0.0
  0
ENDSEC
  0
SECTION
  2
OBJECTS
  0
DICTIONARY
  5
C
330
0
100
AcDbDictionary
281
     1
  3
ACAD_COLOR
350
6B
  3
ACAD_GROUP
350
D
  3
ACAD_LAYOUT
350
1A
  3
ACAD_MATERIAL
350
6A
  3
ACAD_MLEADERSTYLE
350
12D
  3
ACAD_MLINESTYLE
350
17
  3
ACAD_PLOTSETTINGS
350
19
  3
ACAD_PLOTSTYLENAME
350
E
  3
ACAD_SCALELIST
350
10C
  3
ACAD_TABLESTYLE
350
7E
  3
ACAD_VISUALSTYLE
350
EF
  3
ACDB_RECOMPOSE_DATA
350
15D
  3
AcDbVariableDictionary
350
5E
  3
DWGPROPS
350
813
  0
DICTIONARY
  5
13C
330
10
100
AcDbDictionary
280
     1
281
     1
  3
ADSK_XREC_LAYER_RECONCILED
360
806
  0
DICTIONARY
  5
6B
102
{ACAD_REACTORS
330
C
102
}
330
C
100
AcDbDictionary
281
     1
  0
DICTIONARY
  5
D
102
{ACAD_REACTORS
330
C
102
}
330
C
100
AcDbDictionary
281
     1
  0
DICTIONARY
  5
1A
102
{ACAD_REACTORS
330
C
102
}
330
C
100
AcDbDictionary
281
     1
  3
Layout1
350
D3
  3
Layout2
350
D7
  3
Model
350
22
  0
DICTIONARY
  5
6A
102
{ACAD_REACTORS
330
C
102
}
330
C
100
AcDbDictionary
281
     1
  3
ByBlock
350
ED
  3
ByLayer
350
EC
  3
Global
350
EE
  0
DICTIONARY
  5
12D
102
{ACAD_REACTORS
330
C
102
}
330
C
100
AcDbDictionary
281
     1
  3
Annotative
350
13B
  3
Standard
350
12E
  0
DICTIONARY
  5
17
102
{ACAD_REACTORS
330
C
102
}
330
C
100
AcDbDictionary
281
     1
  3
Standard
350
18
  0
DICTIONARY
  5
19
102
{ACAD_REACTORS
330
C
102
}
330
C
100
AcDbDictionary
281
     1
  0
ACDBDICTIONARYWDFLT
  5
E
102
{ACAD_REACTORS
330
C
102
}
330
C
100
AcDbDictionary
281
     1
  3
Normal
350
F
100
AcDbDictionaryWithDefault
340
F
  0
DICTIONARY
  5
10C
102
{ACAD_REACTORS
330
C
102
}
330
C
100
AcDbDictionary
281
     1
  3
A0
350
10D
  3
A1
350
188
  3
A2
350
189
  3
A3
350
18A
  3
A4
350
18B
  3
A5
350
18C
  3
A6
350
18D
  3
A7
350
18E
  3
A8
350
18F
  3
A9
350
190
  3
B0
350
191
  3
B1
350
192
  3
B2
350
193
  3
B3
350
194
  3
B4
350
195
  3
B5
350
196
  3
B6
350
197
  3
B7
350
198
  3
B8
350
199
  3
B9
350
19A
  3
C0
350
19B
  3
C1
350
19C
  3
C2
350
19D
  3
C3
350
19E
  3
C4
350
19F
  3
C5
350
1A0
  3
C6
350
1A1
  3
C7
350
1A2
  3
C8
350
1A3
  3
C9
350
1A4
  3
D0
350
1A5
  3
D1
350
1A6
  3
D2
350
1A7
  0
DICTIONARY
  5
7E
102
{ACAD_REACTORS
330
C
102
}
330
C
100
AcDbDictionary
281
     1
  3
Standard
350
7F
  0
DICTIONARY
  5
EF
102
{ACAD_REACTORS
330
C
102
}
330
C
100
AcDbDictionary
281
     1
  3
2dWireframe
350
F5
  3
3D Hidden
350
F7
  3
3dWireframe
350
F6
  3
Basic
350
F4
  3
Brighten
350
FB
  3
ColorChange
350
FF
  3
Conceptual
350
F8
  3
Dim
350
FA
  3
Facepattern
350
FE
  3
Flat
350
F0
  3
FlatWithEdges
350
F1
  3
Gouraud
350
F2
  3
GouraudWithEdges
350
F3
  3
Linepattern
350
FD
  3
Realistic
350
F9
  3
Thicken
350
FC
  0
XRECORD
  5
15D
102
{ACAD_REACTORS
330
C
102
}
330
C
100
AcDbXrecord
280
     1
 90
        1
330
7F
  0
DICTIONARY
  5
5E
102
{ACAD_REACTORS
330
C
102
}
330
C
100
AcDbDictionary
281
     1
  3
CANNOSCALE
350
146
  3
CMLEADERSTYLE
350
145
  3
CTABLESTYLE
350
84
  3
DIMASSOC
350
5F
  3
HIDETEXT
350
63
  3
INDEXCTL
350
80F
  3
LIGHTINGUNITS
350
80D
  3
MSLTSCALE
350
80C
  3
PSOLHEIGHT
350
811
  3
PSOLWIDTH
350
810
  3
SORTENTS
350
80E
  0
XRECORD
  5
813
102
{ACAD_REACTORS
330
C
102
}
330
C
100
AcDbXrecord
280
     1
  1
DWGPROPS COOKIE
  2

  3

  4

  6

  7

  8
orhan kara
  9

300
=
301
=
302
=
303
=
304
=
305
=
306
=
307
=
308
=
309
=
 40
0.0002697337962963
 41
2458934.546568414
 42
2458956.452275752
  1

 90
        0
  0
XRECORD
  5
806
102
{ACAD_REACTORS
330
13C
102
}
330
13C
100
AcDbXrecord
280
     1
290
     1
  0
LAYOUT
  5
D3
102
{ACAD_XDICTIONARY
360
817
102
}
102
{ACAD_REACTORS
330
1A
102
}
330
1A
100
AcDbPlotSettings
  1

  2
C:\Documents and Settings\basas\Application Data\Autodesk\AutoCAD 2005\R16.1\enu\plotters\Default Windows System Printer.pc3
  4

  6

 40
0.0
 41
0.0
 42
0.0
 43
0.0
 44
0.0
 45
0.0
 46
0.0
 47
0.0
 48
0.0
 49
0.0
140
0.0
141
0.0
142
1.0
143
1.0
 70
   688
 72
     0
 73
     0
 74
     5
  7

 75
    16
147
1.0
148
0.0
149
0.0
100
AcDbLayout
  1
Layout1
 70
     1
 71
     1
 10
0.0
 20
0.0
 11
12.0
 21
9.0
 12
0.0
 22
0.0
 32
0.0
 14
0.0
 24
0.0
 34
0.0
 15
0.0
 25
0.0
 35
0.0
146
0.0
 13
0.0
 23
0.0
 33
0.0
 16
1.0
 26
0.0
 36
0.0
 17
0.0
 27
1.0
 37
0.0
 76
     0
330
D2
  0
LAYOUT
  5
D7
102
{ACAD_XDICTIONARY
360
819
102
}
102
{ACAD_REACTORS
330
1A
102
}
330
1A
100
AcDbPlotSettings
  1

  2
C:\Documents and Settings\basas\Application Data\Autodesk\AutoCAD 2005\R16.1\enu\plotters\Default Windows System Printer.pc3
  4

  6

 40
0.0
 41
0.0
 42
0.0
 43
0.0
 44
0.0
 45
0.0
 46
0.0
 47
0.0
 48
0.0
 49
0.0
140
0.0
141
0.0
142
1.0
143
1.0
 70
   688
 72
     0
 73
     0
 74
     5
  7

 75
    16
147
1.0
148
0.0
149
0.0
100
AcDbLayout
  1
Layout2
 70
     1
 71
     2
 10
0.0
 20
0.0
 11
12.0
 21
9.0
 12
0.0
 22
0.0
 32
0.0
 14
0.0
 24
0.0
 34
0.0
 15
0.0
 25
0.0
 35
0.0
146
0.0
 13
0.0
 23
0.0
 33
0.0
 16
1.0
 26
0.0
 36
0.0
 17
0.0
 27
1.0
 37
0.0
 76
     0
330
D6
  0
LAYOUT
  5
22
102
{ACAD_XDICTIONARY
360
814
102
}
102
{ACAD_REACTORS
330
1A
102
}
330
1A
100
AcDbPlotSettings
  1

  2
none_device
  4
ISO_A4_(210.00_x_297.00_MM)
  6

 40
7.5
 41
20.0
 42
7.5
 43
20.0
 44
210.0
 45
297.0
 46
11.54999923706054
 47
-13.65000009536743
 48
0.0
 49
0.0
140
0.0
141
0.0
142
1.0
143
8.704084754739808
 70
 11952
 72
     1
 73
     0
 74
     0
  7

 75
     0
147
0.1148885871608098
148
0.0
149
0.0
100
AcDbLayout
  1
Model
 70
     1
 71
     0
 10
0.0
 20
0.0
 11
12.0
 21
9.0
 12
0.0
 22
0.0
 32
0.0
 14
0.0
 24
0.0
 34
0.0
 15
0.0
 25
0.0
 35
0.0
146
0.0
 13
0.0
 23
0.0
 33
0.0
 16
1.0
 26
0.0
 36
0.0
 17
0.0
 27
1.0
 37
0.0
 76
     0
330
1F
331
EA
1001
ACAD_PSEXT
1000
None
1000
None
1000
Not applicable
1000
The layout will not be plotted unless a new plotter configuration name is selected.
1070
     0
  0
MATERIAL
  5
ED
102
{ACAD_XDICTIONARY
360
81D
102
}
102
{ACAD_REACTORS
330
6A
102
}
330
6A
100
AcDbMaterial
  1
ByBlock
  0
MATERIAL
  5
EC
102
{ACAD_XDICTIONARY
360
81B
102
}
102
{ACAD_REACTORS
330
6A
102
}
330
6A
100
AcDbMaterial
  1
ByLayer
  0
MATERIAL
  5
EE
102
{ACAD_XDICTIONARY
360
173
102
}
102
{ACAD_REACTORS
330
6A
102
}
330
6A
100
AcDbMaterial
  1
Global
 43
0.0007999999797903
 43
0.0
 43
0.0
 43
0.0
 43
0.0
 43
0.0007999999797903
 43
0.0
 43
0.0
 43
0.0
 43
0.0
 43
1.0
 43
0.0
 43
0.0
 43
0.0
 43
0.0
 43
1.0
 49
0.0007999999797903
 49
0.0
 49
0.0
 49
0.0
 49
0.0
 49
0.0007999999797903
 49
0.0
 49
0.0
 49
0.0
 49
0.0
 49
1.0
 49
0.0
 49
0.0
 49
0.0
 49
0.0
 49
1.0
142
0.0007999999797903
142
0.0
142
0.0
142
0.0
142
0.0
142
0.0007999999797903
142
0.0
142
0.0
142
0.0
142
0.0
142
1.0
142
0.0
142
0.0
142
0.0
142
0.0
142
1.0
144
0.0007999999797903
144
0.0
144
0.0
144
0.0
144
0.0
144
0.0007999999797903
144
0.0
144
0.0
144
0.0
144
0.0
144
1.0
144
0.0
144
0.0
144
0.0
144
0.0
144
1.0
1001
ACAD
1070
    -1
1070
     3
1070
     0
1000

1071
        0
1070
     0
  0
MLEADERSTYLE
  5
13B
102
{ACAD_REACTORS
330
12D
102
}
330
12D
100
AcDbMLeaderStyle
170
     2
171
     1
172
     0
 90
        2
 40
0.0
 41
0.0
173
     1
 91
-1056964608
340
14
 92
       -2
290
     1
 42
2.0
291
     1
 43
8.0
  3
Standard
 44
4.0
300

342
11
174
     1
178
     1
175
     1
176
     0
 93
-1056964608
 45
4.0
292
     0
297
     0
 46
4.0
 94
-1056964608
 47
1.0
 49
1.0
140
1.0
293
     1
141
0.0
294
     1
177
     0
142
1.0
295
     0
296
     1
143
3.75
1001
ACAD_MLEADERVER
1070
     2
  0
MLEADERSTYLE
  5
12E
102
{ACAD_REACTORS
330
12D
102
}
330
12D
100
AcDbMLeaderStyle
170
     2
171
     1
172
     0
 90
        2
 40
0.0
 41
0.0
173
     1
 91
-1056964608
340
14
 92
       -2
290
     1
 42
2.0
291
     1
 43
8.0
  3
Standard
 44
4.0
300

342
11
174
     1
178
     1
175
     1
176
     0
 93
-1056964608
 45
4.0
292
     0
297
     0
 46
4.0
 94
-1056964608
 47
1.0
 49
1.0
140
1.0
293
     1
141
0.0
294
     1
177
     0
142
1.0
295
     0
296
     0
143
3.75
1001
ACAD_MLEADERVER
1070
     2
  0
MLINESTYLE
  5
18
102
{ACAD_REACTORS
330
17
102
}
330
17
100
AcDbMlineStyle
  2
STANDARD
 70
     0
  3

 62
   256
 51
90.0
 52
90.0
 71
     2
 49
0.5
 62
   256
  6
BYLAYER
 49
-0.5
 62
   256
  6
BYLAYER
  0
ACDBPLACEHOLDER
  5
F
102
{ACAD_REACTORS
330
E
102
}
330
E
  0
SCALE
  5
10D
102
{ACAD_REACTORS
330
10C
102
}
330
10C
100
AcDbScale
 70
     0
300
1:1
140
1.0
141
1.0
290
     1
  0
SCALE
  5
188
102
{ACAD_REACTORS
330
10C
102
}
330
10C
100
AcDbScale
 70
     0
300
1:2
140
1.0
141
2.0
290
     0
  0
SCALE
  5
189
102
{ACAD_REACTORS
330
10C
102
}
330
10C
100
AcDbScale
 70
     0
300
1:4
140
1.0
141
4.0
290
     0
  0
SCALE
  5
18A
102
{ACAD_REACTORS
330
10C
102
}
330
10C
100
AcDbScale
 70
     0
300
1:5
140
1.0
141
5.0
290
     0
  0
SCALE
  5
18B
102
{ACAD_REACTORS
330
10C
102
}
330
10C
100
AcDbScale
 70
     0
300
1:8
140
1.0
141
8.0
290
     0
  0
SCALE
  5
18C
102
{ACAD_REACTORS
330
10C
102
}
330
10C
100
AcDbScale
 70
     0
300
1:10
140
1.0
141
10.0
290
     0
  0
SCALE
  5
18D
102
{ACAD_REACTORS
330
10C
102
}
330
10C
100
AcDbScale
 70
     0
300
1:16
140
1.0
141
16.0
290
     0
  0
SCALE
  5
18E
102
{ACAD_REACTORS
330
10C
102
}
330
10C
100
AcDbScale
 70
     0
300
1:20
140
1.0
141
20.0
290
     0
  0
SCALE
  5
18F
102
{ACAD_REACTORS
330
10C
102
}
330
10C
100
AcDbScale
 70
     0
300
1:30
140
1.0
141
30.0
290
     0
  0
SCALE
  5
190
102
{ACAD_REACTORS
330
10C
102
}
330
10C
100
AcDbScale
 70
     0
300
1:40
140
1.0
141
40.0
290
     0
  0
SCALE
  5
191
102
{ACAD_REACTORS
330
10C
102
}
330
10C
100
AcDbScale
 70
     0
300
1:50
140
1.0
141
50.0
290
     0
  0
SCALE
  5
192
102
{ACAD_REACTORS
330
10C
102
}
330
10C
100
AcDbScale
 70
     0
300
1:100
140
1.0
141
100.0
290
     0
  0
SCALE
  5
193
102
{ACAD_REACTORS
330
10C
102
}
330
10C
100
AcDbScale
 70
     0
300
2:1
140
2.0
141
1.0
290
     0
  0
SCALE
  5
194
102
{ACAD_REACTORS
330
10C
102
}
330
10C
100
AcDbScale
 70
     0
300
4:1
140
4.0
141
1.0
290
     0
  0
SCALE
  5
195
102
{ACAD_REACTORS
330
10C
102
}
330
10C
100
AcDbScale
 70
     0
300
8:1
140
8.0
141
1.0
290
     0
  0
SCALE
  5
196
102
{ACAD_REACTORS
330
10C
102
}
330
10C
100
AcDbScale
 70
     0
300
10:1
140
10.0
141
1.0
290
     0
  0
SCALE
  5
197
102
{ACAD_REACTORS
330
10C
102
}
330
10C
100
AcDbScale
 70
     0
300
100:1
140
100.0
141
1.0
290
     0
  0
SCALE
  5
198
102
{ACAD_REACTORS
330
10C
102
}
330
10C
100
AcDbScale
 70
     0
300
1/128" = 1'-0"
140
0.0078125
141
12.0
290
     0
  0
SCALE
  5
199
102
{ACAD_REACTORS
330
10C
102
}
330
10C
100
AcDbScale
 70
     0
300
1/64" = 1'-0"
140
0.015625
141
12.0
290
     0
  0
SCALE
  5
19A
102
{ACAD_REACTORS
330
10C
102
}
330
10C
100
AcDbScale
 70
     0
300
1/32" = 1'-0"
140
0.03125
141
12.0
290
     0
  0
SCALE
  5
19B
102
{ACAD_REACTORS
330
10C
102
}
330
10C
100
AcDbScale
 70
     0
300
1/16" = 1'-0"
140
0.0625
141
12.0
290
     0
  0
SCALE
  5
19C
102
{ACAD_REACTORS
330
10C
102
}
330
10C
100
AcDbScale
 70
     0
300
3/32" = 1'-0"
140
0.09375
141
12.0
290
     0
  0
SCALE
  5
19D
102
{ACAD_REACTORS
330
10C
102
}
330
10C
100
AcDbScale
 70
     0
300
1/8" = 1'-0"
140
0.125
141
12.0
290
     0
  0
SCALE
  5
19E
102
{ACAD_REACTORS
330
10C
102
}
330
10C
100
AcDbScale
 70
     0
300
3/16" = 1'-0"
140
0.1875
141
12.0
290
     0
  0
SCALE
  5
19F
102
{ACAD_REACTORS
330
10C
102
}
330
10C
100
AcDbScale
 70
     0
300
1/4" = 1'-0"
140
0.25
141
12.0
290
     0
  0
SCALE
  5
1A0
102
{ACAD_REACTORS
330
10C
102
}
330
10C
100
AcDbScale
 70
     0
300
3/8" = 1'-0"
140
0.375
141
12.0
290
     0
  0
SCALE
  5
1A1
102
{ACAD_REACTORS
330
10C
102
}
330
10C
100
AcDbScale
 70
     0
300
1/2" = 1'-0"
140
0.5
141
12.0
290
     0
  0
SCALE
  5
1A2
102
{ACAD_REACTORS
330
10C
102
}
330
10C
100
AcDbScale
 70
     0
300
3/4" = 1'-0"
140
0.75
141
12.0
290
     0
  0
SCALE
  5
1A3
102
{ACAD_REACTORS
330
10C
102
}
330
10C
100
AcDbScale
 70
     0
300
1" = 1'-0"
140
1.0
141
12.0
290
     0
  0
SCALE
  5
1A4
102
{ACAD_REACTORS
330
10C
102
}
330
10C
100
AcDbScale
 70
     0
300
1-1/2" = 1'-0"
140
1.5
141
12.0
290
     0
  0
SCALE
  5
1A5
102
{ACAD_REACTORS
330
10C
102
}
330
10C
100
AcDbScale
 70
     0
300
3" = 1'-0"
140
3.0
141
12.0
290
     0
  0
SCALE
  5
1A6
102
{ACAD_REACTORS
330
10C
102
}
330
10C
100
AcDbScale
 70
     0
300
6" = 1'-0"
140
6.0
141
12.0
290
     0
  0
SCALE
  5
1A7
102
{ACAD_REACTORS
330
10C
102
}
330
10C
100
AcDbScale
 70
     0
300
1'-0" = 1'-0"
140
12.0
141
12.0
290
     0
  0
TABLESTYLE
  5
7F
102
{ACAD_XDICTIONARY
360
162
102
}
102
{ACAD_REACTORS
330
7E
102
}
330
7E
100
AcDbTableStyle
  3
Standard
 70
     0
 71
     0
 40
1.5
 41
1.5
280
     0
281
     0
  7
Standard
140
4.5
170
     2
 62
     0
 63
     7
283
     0
274
    -2
284
     1
 64
     0
275
    -2
285
     1
 65
     0
276
    -2
286
     1
 66
     0
277
    -2
287
     1
 67
     0
278
    -2
288
     1
 68
     0
279
    -2
289
     1
 69
     0
  7
Standard
140
6.0
170
     5
 62
     0
 63
     7
283
     0
274
    -2
284
     1
 64
     0
275
    -2
285
     1
 65
     0
276
    -2
286
     1
 66
     0
277
    -2
287
     1
 67
     0
278
    -2
288
     1
 68
     0
279
    -2
289
     1
 69
     0
  7
Standard
140
4.5
170
     5
 62
     0
 63
     7
283
     0
274
    -2
284
     1
 64
     0
275
    -2
285
     1
 65
     0
276
    -2
286
     1
 66
     0
277
    -2
287
     1
 67
     0
278
    -2
288
     1
 68
     0
279
    -2
289
     1
 69
     0
  0
VISUALSTYLE
  5
F5
102
{ACAD_REACTORS
330
EF
102
}
330
EF
100
AcDbVisualStyle
  2
2dWireframe
 70
     4
 71
     0
 72
     2
 73
     1
 90
        0
 40
-0.6
 41
-30.0
 62
     5
 63
     7
 74
     1
 91
        4
 64
     7
 65
   257
 75
     1
175
     1
 42
1.0
 92
        0
 66
   257
 43
1.0
 76
     1
 77
     6
 78
     2
 67
     7
 79
     5
170
     0
171
     0
290
     0
174
     0
 93
        1
 44
0.0
173
     0
291
     0
 45
0.0
1001
ACAD
1000
AcDbSavedByObjectVersion
1070
     0
  0
VISUALSTYLE
  5
F7
102
{ACAD_REACTORS
330
EF
102
}
330
EF
100
AcDbVisualStyle
  2
3D Hidden
 70
     6
 71
     1
 72
     2
 73
     2
 90
        0
 40
-0.6
 41
-30.0
 62
     5
 63
     7
 74
     2
 91
        2
 64
     7
 65
   257
 75
     2
175
     1
 42
40.0
 92
        0
 66
   257
 43
1.0
 76
     1
 77
     6
 78
     2
 67
     7
 79
     3
170
     0
171
     0
290
     0
174
     0
 93
        1
 44
0.0
173
     0
291
     0
 45
0.0
1001
ACAD
1000
AcDbSavedByObjectVersion
1070
     0
  0
VISUALSTYLE
  5
F6
102
{ACAD_REACTORS
330
EF
102
}
330
EF
100
AcDbVisualStyle
  2
3dWireframe
 70
     5
 71
     0
 72
     2
 73
     1
 90
        0
 40
-0.6
 41
-30.0
 62
     5
 63
     7
 74
     1
 91
        4
 64
     7
 65
   257
 75
     1
175
     1
 42
1.0
 92
        0
 66
   257
 43
1.0
 76
     1
 77
     6
 78
     2
 67
     7
 79
     5
170
     0
171
     0
290
     0
174
     0
 93
        1
 44
0.0
173
     0
291
     0
 45
0.0
1001
ACAD
1000
AcDbSavedByObjectVersion
1070
     0
  0
VISUALSTYLE
  5
F4
102
{ACAD_REACTORS
330
EF
102
}
330
EF
100
AcDbVisualStyle
  2
Basic
 70
     7
 71
     1
 72
     0
 73
     1
 90
        0
 40
-0.6
 41
-30.0
 62
     5
 63
     7
 74
     0
 91
        4
 64
     7
 65
   257
 75
     1
175
     1
 42
1.0
 92
        8
 66
     7
 43
1.0
 76
     1
 77
     6
 78
     2
 67
     7
 79
     5
170
     0
171
     0
290
     0
174
     0
 93
        1
 44
0.0
173
     0
291
     1
 45
0.0
1001
ACAD
1000
AcDbSavedByObjectVersion
1070
     0
  0
VISUALSTYLE
  5
FB
102
{ACAD_REACTORS
330
EF
102
}
330
EF
100
AcDbVisualStyle
  2
Brighten
 70
    12
 71
     2
 72
     2
 73
     1
 90
        0
 40
-0.6
 41
-30.0
 62
     5
 63
     7
 74
     1
 91
        4
 64
     7
 65
   257
 75
     1
175
     1
 42
1.0
 92
        8
 66
     7
 43
1.0
 76
     1
 77
     6
 78
     2
 67
     7
 79
     5
170
     0
171
     0
290
     0
174
     0
 93
        1
 44
50.0
173
     0
291
     1
 45
0.0
1001
ACAD
1000
AcDbSavedByObjectVersion
1070
     0
  0
VISUALSTYLE
  5
FF
102
{ACAD_REACTORS
330
EF
102
}
330
EF
100
AcDbVisualStyle
  2
ColorChange
 70
    16
 71
     2
 72
     2
 73
     3
 90
        0
 40
-0.6
 41
-30.0
 62
     5
 63
     8
 74
     1
 91
        4
 64
     7
 65
   257
 75
     1
175
     1
 42
1.0
 92
        8
 66
     8
 43
1.0
 76
     1
 77
     6
 78
     2
 67
     7
 79
     5
170
     0
171
     0
290
     0
174
     0
 93
        1
 44
0.0
173
     0
291
     1
 45
0.0
1001
ACAD
1000
AcDbSavedByObjectVersion
1070
     0
  0
VISUALSTYLE
  5
F8
102
{ACAD_REACTORS
330
EF
102
}
330
EF
100
AcDbVisualStyle
  2
Conceptual
 70
     9
 71
     3
 72
     2
 73
     1
 90
        0
 40
-0.6
 41
-30.0
 62
     5
 63
     7
 74
     2
 91
        2
 64
     7
 65
   257
 75
     1
175
     1
 42
40.0
 92
        8
 66
     7
 43
1.0
 76
     1
 77
     6
 78
     2
 67
     7
 79
     3
170
     0
171
     0
290
     0
174
     0
 93
        1
 44
0.0
173
     0
291
     0
 45
0.0
1001
ACAD
1000
AcDbSavedByObjectVersion
1070
     0
  0
VISUALSTYLE
  5
FA
102
{ACAD_REACTORS
330
EF
102
}
330
EF
100
AcDbVisualStyle
  2
Dim
 70
    11
 71
     2
 72
     2
 73
     1
 90
        0
 40
-0.6
 41
-30.0
 62
     5
 63
     7
 74
     1
 91
        4
 64
     7
 65
   257
 75
     1
175
     1
 42
1.0
 92
        8
 66
     7
 43
1.0
 76
     1
 77
     6
 78
     2
 67
     7
 79
     5
170
     0
171
     0
290
     0
174
     0
 93
        1
 44
-50.0
173
     0
291
     1
 45
0.0
1001
ACAD
1000
AcDbSavedByObjectVersion
1070
     0
  0
VISUALSTYLE
  5
FE
102
{ACAD_REACTORS
330
EF
102
}
330
EF
100
AcDbVisualStyle
  2
Facepattern
 70
    15
 71
     2
 72
     2
 73
     1
 90
        0
 40
-0.6
 41
-30.0
 62
     5
 63
     7
 74
     1
 91
        4
 64
     7
 65
   257
 75
     1
175
     1
 42
1.0
 92
        8
 66
     7
 43
1.0
 76
     1
 77
     6
 78
     2
 67
     7
 79
     5
170
     0
171
     0
290
     0
174
     0
 93
        1
 44
0.0
173
     0
291
     1
 45
0.0
1001
ACAD
1000
AcDbSavedByObjectVersion
1070
     0
  0
VISUALSTYLE
  5
F0
102
{ACAD_REACTORS
330
EF
102
}
330
EF
100
AcDbVisualStyle
  2
Flat
 70
     0
 71
     2
 72
     1
 73
     1
 90
        2
 40
-0.6
 41
30.0
 62
     5
 63
     7
 74
     0
 91
        4
 64
     7
 65
   257
 75
     1
175
     1
 42
1.0
 92
        8
 66
     7
 43
1.0
 76
     1
 77
     6
 78
     2
 67
     7
 79
     5
170
     0
171
     0
290
     0
174
     0
 93
        1
 44
0.0
173
     0
291
     1
 45
0.0
1001
ACAD
1000
AcDbSavedByObjectVersion
1070
     0
  0
VISUALSTYLE
  5
F1
102
{ACAD_REACTORS
330
EF
102
}
330
EF
100
AcDbVisualStyle
  2
FlatWithEdges
 70
     1
 71
     2
 72
     1
 73
     1
 90
        2
 40
-0.6
 41
30.0
 62
     5
 63
     7
 74
     1
 91
        4
 64
     7
 65
   257
 75
     1
175
     1
 42
1.0
 92
        0
 66
   257
 43
1.0
 76
     1
 77
     6
 78
     2
 67
     7
 79
     5
170
     0
171
     0
290
     0
174
     0
 93
        1
 44
0.0
173
     0
291
     1
 45
0.0
1001
ACAD
1000
AcDbSavedByObjectVersion
1070
     0
  0
VISUALSTYLE
  5
F2
102
{ACAD_REACTORS
330
EF
102
}
330
EF
100
AcDbVisualStyle
  2
Gouraud
 70
     2
 71
     2
 72
     2
 73
     1
 90
        2
 40
-0.6
 41
30.0
 62
     5
 63
     7
 74
     0
 91
        4
 64
     7
 65
   257
 75
     1
175
     1
 42
1.0
 92
        0
 66
     7
 43
1.0
 76
     1
 77
     6
 78
     2
 67
     7
 79
     5
170
     0
171
     0
290
     0
174
     0
 93
        1
 44
0.0
173
     0
291
     1
 45
0.0
1001
ACAD
1000
AcDbSavedByObjectVersion
1070
     0
  0
VISUALSTYLE
  5
F3
102
{ACAD_REACTORS
330
EF
102
}
330
EF
100
AcDbVisualStyle
  2
GouraudWithEdges
 70
     3
 71
     2
 72
     2
 73
     1
 90
        2
 40
-0.6
 41
30.0
 62
     5
 63
     7
 74
     1
 91
        4
 64
     7
 65
   257
 75
     1
175
     1
 42
1.0
 92
        0
 66
   257
 43
1.0
 76
     1
 77
     6
 78
     2
 67
     7
 79
     5
170
     0
171
     0
290
     0
174
     0
 93
        1
 44
0.0
173
     0
291
     1
 45
0.0
1001
ACAD
1000
AcDbSavedByObjectVersion
1070
     0
  0
VISUALSTYLE
  5
FD
102
{ACAD_REACTORS
330
EF
102
}
330
EF
100
AcDbVisualStyle
  2
Linepattern
 70
    14
 71
     2
 72
     2
 73
     1
 90
        0
 40
-0.6
 41
-30.0
 62
     5
 63
     7
 74
     1
 91
        4
 64
     7
 65
   257
 75
     7
175
     7
 42
1.0
 92
        8
 66
     7
 43
1.0
 76
     1
 77
     6
 78
     2
 67
     7
 79
     5
170
     0
171
     0
290
     0
174
     0
 93
        1
 44
0.0
173
     0
291
     1
 45
0.0
1001
ACAD
1000
AcDbSavedByObjectVersion
1070
     0
  0
VISUALSTYLE
  5
F9
102
{ACAD_REACTORS
330
EF
102
}
330
EF
100
AcDbVisualStyle
  2
Realistic
 70
     8
 71
     2
 72
     2
 73
     1
 90
        0
 40
-0.6
 41
-30.0
 62
     5
 63
     7
 74
     1
 91
        0
 64
     7
 65
   257
 75
     1
175
     1
 42
1.0
 92
        8
 66
     8
 43
1.0
 76
     1
 77
     6
 78
     2
 67
     7
 79
     5
170
     0
171
     0
290
     0
174
     0
 93
       13
 44
0.0
173
     0
291
     0
 45
0.0
1001
ACAD
1000
AcDbSavedByObjectVersion
1070
     0
  0
VISUALSTYLE
  5
FC
102
{ACAD_REACTORS
330
EF
102
}
330
EF
100
AcDbVisualStyle
  2
Thicken
 70
    13
 71
     2
 72
     2
 73
     1
 90
        0
 40
-0.6
 41
-30.0
 62
     5
 63
     7
 74
     1
 91
        4
 64
     7
 65
   257
 75
     1
175
     1
 42
1.0
 92
       12
 66
     7
 43
1.0
 76
     1
 77
     6
 78
     2
 67
     7
 79
     5
170
     0
171
     0
290
     0
174
     0
 93
        1
 44
0.0
173
     0
291
     1
 45
0.0
1001
ACAD
1000
AcDbSavedByObjectVersion
1070
     0
  0
DICTIONARYVAR
  5
146
102
{ACAD_REACTORS
330
5E
102
}
330
5E
100
DictionaryVariables
280
     0
  1
1:1
  0
DICTIONARYVAR
  5
145
102
{ACAD_REACTORS
330
5E
102
}
330
5E
100
DictionaryVariables
280
     0
  1
STANDARD
  0
DICTIONARYVAR
  5
84
102
{ACAD_REACTORS
330
5E
102
}
330
5E
100
DictionaryVariables
280
     0
  1
STANDARD
  0
DICTIONARYVAR
  5
5F
102
{ACAD_REACTORS
330
5E
102
}
330
5E
100
DictionaryVariables
280
     0
  1
2
  0
DICTIONARYVAR
  5
63
102
{ACAD_REACTORS
330
5E
102
}
330
5E
100
DictionaryVariables
280
     0
  1
1
  0
DICTIONARYVAR
  5
80F
102
{ACAD_REACTORS
330
5E
102
}
330
5E
100
DictionaryVariables
280
     0
  1
0
  0
DICTIONARYVAR
  5
80D
102
{ACAD_REACTORS
330
5E
102
}
330
5E
100
DictionaryVariables
280
     0
  1
2
  0
DICTIONARYVAR
  5
80C
102
{ACAD_REACTORS
330
5E
102
}
330
5E
100
DictionaryVariables
280
     0
  1
1
  0
DICTIONARYVAR
  5
811
102
{ACAD_REACTORS
330
5E
102
}
330
5E
100
DictionaryVariables
280
     0
  1
80.000000
  0
DICTIONARYVAR
  5
810
102
{ACAD_REACTORS
330
5E
102
}
330
5E
100
DictionaryVariables
280
     0
  1
5.000000
  0
DICTIONARYVAR
  5
80E
102
{ACAD_REACTORS
330
5E
102
}
330
5E
100
DictionaryVariables
280
     0
  1
127
  0
DICTIONARY
  5
817
330
D3
100
AcDbDictionary
280
     1
281
     1
  3
ACAD_XREC_ROUNDTRIP
360
818
  0
DICTIONARY
  5
819
330
D7
100
AcDbDictionary
280
     1
281
     1
  3
ACAD_XREC_ROUNDTRIP
360
81A
  0
DICTIONARY
  5
814
330
22
100
AcDbDictionary
280
     1
281
     1
  3
ACAD_XREC_ROUNDTRIP
360
815
  0
DICTIONARY
  5
81D
330
ED
100
AcDbDictionary
280
     1
281
     1
  3
ACAD_XREC_ROUNDTRIP
360
81E
  0
DICTIONARY
  5
81B
330
EC
100
AcDbDictionary
280
     1
281
     1
  3
ACAD_XREC_ROUNDTRIP
360
81C
  0
DICTIONARY
  5
173
330
EE
100
AcDbDictionary
280
     1
281
     1
  3
ACAD_XREC_ROUNDTRIP
360
81F
  3
BUMPTILE
360
175
  3
DIFFUSETILE
360
174
  3
OPACITYTILE
360
176
  3
REFLECTIONTILE
360
177
  0
DICTIONARY
  5
162
330
7F
100
AcDbDictionary
280
     1
281
     1
  3
ACAD_ROUNDTRIP_2008_TABLESTYLE_CELLSTYLEMAP
360
812
  3
ACAD_XREC_ROUNDTRIP
360
816
  0
XRECORD
  5
818
102
{ACAD_REACTORS
330
817
102
}
330
817
100
AcDbXrecord
280
     1
102
SHADEPLOT
 70
     0
102
SHADEPLOTRESLEVEL
 70
     2
102
SHADEPLOTCUSTOMDPI
 70
   300
  0
XRECORD
  5
81A
102
{ACAD_REACTORS
330
819
102
}
330
819
100
AcDbXrecord
280
     1
102
SHADEPLOT
 70
     0
102
SHADEPLOTRESLEVEL
 70
     2
102
SHADEPLOTCUSTOMDPI
 70
   300
  0
XRECORD
  5
815
102
{ACAD_REACTORS
330
814
102
}
330
814
100
AcDbXrecord
280
     1
102
SHADEPLOT
 70
     0
102
SHADEPLOTRESLEVEL
 70
     2
102
SHADEPLOTCUSTOMDPI
 70
   300
  0
XRECORD
  5
81E
102
{ACAD_REACTORS
330
81D
102
}
330
81D
100
AcDbXrecord
280
     1
102
MATERIAL
148
0.0
149
0.0
149
0.0
 93
        0
 94
       63
282
     0
 72
     1
 77
     1
171
     1
175
     1
179
     1
273
     0
  0
XRECORD
  5
81C
102
{ACAD_REACTORS
330
81B
102
}
330
81B
100
AcDbXrecord
280
     1
102
MATERIAL
148
0.0
149
0.0
149
0.0
 93
        0
 94
       63
282
     0
 72
     1
 77
     1
171
     1
175
     1
179
     1
273
     0
  0
XRECORD
  5
81F
102
{ACAD_REACTORS
330
173
102
}
330
173
100
AcDbXrecord
280
     1
102
MATERIAL
148
0.0
149
0.0
149
0.0
 93
        0
 94
       63
282
     0
 72
     1
 77
     1
171
     1
175
     1
179
     1
273
     0
  0
XRECORD
  5
175
102
{ACAD_REACTORS
330
173
102
}
330
173
100
AcDbXrecord
280
     1
270
     1
271
     1
  0
XRECORD
  5
174
102
{ACAD_REACTORS
330
173
102
}
330
173
100
AcDbXrecord
280
     1
270
     1
271
     1
  0
XRECORD
  5
176
102
{ACAD_REACTORS
330
173
102
}
330
173
100
AcDbXrecord
280
     1
270
     1
271
     1
  0
XRECORD
  5
177
102
{ACAD_REACTORS
330
173
102
}
330
173
100
AcDbXrecord
280
     1
270
     1
271
     1
  0
CELLSTYLEMAP
  5
812
102
{ACAD_REACTORS
330
162
102
}
330
162
100
AcDbCellStyleMap
 90
        3
300
CELLSTYLE
  1
TABLEFORMAT_BEGIN
 90
        5
170
     1
 91
        0
 92
    32768
 62
   257
 93
        1
300
CONTENTFORMAT
  1
CONTENTFORMAT_BEGIN
 90
        0
 91
        0
 92
      512
 93
        0
300

 40
0.0
140
1.0
 94
        5
 62
     0
340
11
144
6.0
309
CONTENTFORMAT_END
171
     1
301
MARGIN
  1
CELLMARGIN_BEGIN
 40
1.5
 40
1.5
 40
1.5
 40
1.5
 40
4.5
 40
4.5
309
CELLMARGIN_END
 94
        6
 95
        1
302
GRIDFORMAT
  1
GRIDFORMAT_BEGIN
 90
        0
 91
        1
 62
     0
 92
       -2
340
14
 93
        0
 40
1.125
309
GRIDFORMAT_END
 95
        2
302
GRIDFORMAT
  1
GRIDFORMAT_BEGIN
 90
        0
 91
        1
 62
     0
 92
       -2
340
14
 93
        0
 40
1.125
309
GRIDFORMAT_END
 95
        4
302
GRIDFORMAT
  1
GRIDFORMAT_BEGIN
 90
        0
 91
        1
 62
     0
 92
       -2
340
14
 93
        0
 40
1.125
309
GRIDFORMAT_END
 95
        8
302
GRIDFORMAT
  1
GRIDFORMAT_BEGIN
 90
        0
 91
        1
 62
     0
 92
       -2
340
14
 93
        0
 40
1.125
309
GRIDFORMAT_END
 95
       16
302
GRIDFORMAT
  1
GRIDFORMAT_BEGIN
 90
        0
 91
        1
 62
     0
 92
       -2
340
14
 93
        0
 40
1.125
309
GRIDFORMAT_END
 95
       32
302
GRIDFORMAT
  1
GRIDFORMAT_BEGIN
 90
        0
 91
        1
 62
     0
 92
       -2
340
14
 93
        0
 40
1.125
309
GRIDFORMAT_END
309
TABLEFORMAT_END
  1
CELLSTYLE_BEGIN
 90
        1
 91
        1
300
_TITLE
309
CELLSTYLE_END
300
CELLSTYLE
  1
TABLEFORMAT_BEGIN
 90
        5
170
     1
 91
        0
 92
        0
 62
   257
 93
        1
300
CONTENTFORMAT
  1
CONTENTFORMAT_BEGIN
 90
        0
 91
        0
 92
      512
 93
        0
300

 40
0.0
140
1.0
 94
        5
 62
     0
340
11
144
4.5
309
CONTENTFORMAT_END
171
     1
301
MARGIN
  1
CELLMARGIN_BEGIN
 40
1.5
 40
1.5
 40
1.5
 40
1.5
 40
4.5
 40
4.5
309
CELLMARGIN_END
 94
        6
 95
        1
302
GRIDFORMAT
  1
GRIDFORMAT_BEGIN
 90
        0
 91
        1
 62
     0
 92
       -2
340
14
 93
        0
 40
1.125
309
GRIDFORMAT_END
 95
        2
302
GRIDFORMAT
  1
GRIDFORMAT_BEGIN
 90
        0
 91
        1
 62
     0
 92
       -2
340
14
 93
        0
 40
1.125
309
GRIDFORMAT_END
 95
        4
302
GRIDFORMAT
  1
GRIDFORMAT_BEGIN
 90
        0
 91
        1
 62
     0
 92
       -2
340
14
 93
        0
 40
1.125
309
GRIDFORMAT_END
 95
        8
302
GRIDFORMAT
  1
GRIDFORMAT_BEGIN
 90
        0
 91
        1
 62
     0
 92
       -2
340
14
 93
        0
 40
1.125
309
GRIDFORMAT_END
 95
       16
302
GRIDFORMAT
  1
GRIDFORMAT_BEGIN
 90
        0
 91
        1
 62
     0
 92
       -2
340
14
 93
        0
 40
1.125
309
GRIDFORMAT_END
 95
       32
302
GRIDFORMAT
  1
GRIDFORMAT_BEGIN
 90
        0
 91
        1
 62
     0
 92
       -2
340
14
 93
        0
 40
1.125
309
GRIDFORMAT_END
309
TABLEFORMAT_END
  1
CELLSTYLE_BEGIN
 90
        2
 91
        1
300
_HEADER
309
CELLSTYLE_END
300
CELLSTYLE
  1
TABLEFORMAT_BEGIN
 90
        5
170
     1
 91
        0
 92
        0
 62
   257
 93
        1
300
CONTENTFORMAT
  1
CONTENTFORMAT_BEGIN
 90
        0
 91
        0
 92
      512
 93
        0
300

 40
0.0
140
1.0
 94
        2
 62
     0
340
11
144
4.5
309
CONTENTFORMAT_END
171
     1
301
MARGIN
  1
CELLMARGIN_BEGIN
 40
1.5
 40
1.5
 40
1.5
 40
1.5
 40
4.5
 40
4.5
309
CELLMARGIN_END
 94
        6
 95
        1
302
GRIDFORMAT
  1
GRIDFORMAT_BEGIN
 90
        0
 91
        1
 62
     0
 92
       -2
340
14
 93
        0
 40
1.125
309
GRIDFORMAT_END
 95
        2
302
GRIDFORMAT
  1
GRIDFORMAT_BEGIN
 90
        0
 91
        1
 62
     0
 92
       -2
340
14
 93
        0
 40
1.125
309
GRIDFORMAT_END
 95
        4
302
GRIDFORMAT
  1
GRIDFORMAT_BEGIN
 90
        0
 91
        1
 62
     0
 92
       -2
340
14
 93
        0
 40
1.125
309
GRIDFORMAT_END
 95
        8
302
GRIDFORMAT
  1
GRIDFORMAT_BEGIN
 90
        0
 91
        1
 62
     0
 92
       -2
340
14
 93
        0
 40
1.125
309
GRIDFORMAT_END
 95
       16
302
GRIDFORMAT
  1
GRIDFORMAT_BEGIN
 90
        0
 91
        1
 62
     0
 92
       -2
340
14
 93
        0
 40
1.125
309
GRIDFORMAT_END
 95
       32
302
GRIDFORMAT
  1
GRIDFORMAT_BEGIN
 90
        0
 91
        1
 62
     0
 92
       -2
340
14
 93
        0
 40
1.125
309
GRIDFORMAT_END
309
TABLEFORMAT_END
  1
CELLSTYLE_BEGIN
 90
        3
 91
        2
300
_DATA
309
CELLSTYLE_END
  0
XRECORD
  5
816
102
{ACAD_REACTORS
330
162
102
}
330
162
100
AcDbXrecord
280
     1
102
ACAD_ROUNDTRIP_PRE2007_TABLESTYLE
 90
      512
 91
        0
  1

 92
      512
 93
        0
  2

 94
      512
 95
        0
  3

  0
ENDSEC
  0
EOF
