  0
SECTION
  2
HEADER
  9
$ACADVER
  1
AC1015
  9
$ACADMAINTVER
 70
    20
  9
$DWGCODEPAGE
  3
ANSI_1254
  9
$INSBASE
 10
0.0
 20
0.0
 30
0.0
  9
$EXTMIN
 10
1945.1313048484
 20
858.2132965896622
 30
0.0
  9
$EXTMAX
 10
2163.283520883727
 20
921.6320516135199
 30
0.0
  9
$LIMMIN
 10
0.0
 20
0.0
  9
$LIMMAX
 10
420.0
 20
297.0
  9
$ORTHOMODE
 70
     0
  9
$REGENMODE
 70
     1
  9
$FILLMODE
 70
     1
  9
$QTEXTMODE
 70
     0
  9
$MIRRTEXT
 70
     0
  9
$LTSCALE
 40
1.0
  9
$ATTMODE
 70
     1
  9
$TEXTSIZE
 40
2.5
  9
$TRACEWID
 40
1.0
  9
$TEXTSTYLE
  7
Standard
  9
$CLAYER
  8
0
  9
$CELTYPE
  6
ByLayer
  9
$CECOLOR
 62
   256
  9
$CELTSCALE
 40
1.0
  9
$DISPSILH
 70
     0
  9
$DIMSCALE
 40
1.0
  9
$DIMASZ
 40
2.5
  9
$DIMEXO
 40
0.625
  9
$DIMDLI
 40
3.75
  9
$DIMRND
 40
0.0
  9
$DIMDLE
 40
0.0
  9
$DIMEXE
 40
1.25
  9
$DIMTP
 40
0.0
  9
$DIMTM
 40
0.0
  9
$DIMTXT
 40
2.5
  9
$DIMCEN
 40
2.5
  9
$DIMTSZ
 40
0.0
  9
$DIMTOL
 70
     0
  9
$DIMLIM
 70
     0
  9
$DIMTIH
 70
     0
  9
$DIMTOH
 70
     0
  9
$DIMSE1
 70
     0
  9
$DIMSE2
 70
     0
  9
$DIMTAD
 70
     1
  9
$DIMZIN
 70
     8
  9
$DIMBLK
  1

  9
$DIMASO
 70
     1
  9
$DIMSHO
 70
     1
  9
$DIMPOST
  1

  9
$DIMAPOST
  1

  9
$DIMALT
 70
     0
  9
$DIMALTD
 70
     3
  9
$DIMALTF
 40
0.03937007874016
  9
$DIMLFAC
 40
1.0
  9
$DIMTOFL
 70
     1
  9
$DIMTVP
 40
0.0
  9
$DIMTIX
 70
     0
  9
$DIMSOXD
 70
     0
  9
$DIMSAH
 70
     0
  9
$DIMBLK1
  1

  9
$DIMBLK2
  1

  9
$DIMSTYLE
  2
ISO-25
  9
$DIMCLRD
 70
     0
  9
$DIMCLRE
 70
     0
  9
$DIMCLRT
 70
     0
  9
$DIMTFAC
 40
1.0
  9
$DIMGAP
 40
0.625
  9
$DIMJUST
 70
     0
  9
$DIMSD1
 70
     0
  9
$DIMSD2
 70
     0
  9
$DIMTOLJ
 70
     0
  9
$DIMTZIN
 70
     8
  9
$DIMALTZ
 70
     0
  9
$DIMALTTZ
 70
     0
  9
$DIMUPT
 70
     0
  9
$DIMDEC
 70
     2
  9
$DIMTDEC
 70
     2
  9
$DIMALTU
 70
     2
  9
$DIMALTTD
 70
     3
  9
$DIMTXSTY
  7
Standard
  9
$DIMAUNIT
 70
     0
  9
$DIMADEC
 70
     0
  9
$DIMALTRND
 40
0.0
  9
$DIMAZIN
 70
     0
  9
$DIMDSEP
 70
    44
  9
$DIMATFIT
 70
     3
  9
$DIMFRAC
 70
     0
  9
$DIMLDRBLK
  1

  9
$DIMLUNIT
 70
     2
  9
$DIMLWD
 70
    -2
  9
$DIMLWE
 70
    -2
  9
$DIMTMOVE
 70
     0
  9
$LUNITS
 70
     2
  9
$LUPREC
 70
     4
  9
$SKETCHINC
 40
1.0
  9
$FILLETRAD
 40
0.0
  9
$AUNITS
 70
     0
  9
$AUPREC
 70
     0
  9
$MENU
  1
.
  9
$ELEVATION
 40
0.0
  9
$PELEVATION
 40
0.0
  9
$THICKNESS
 40
0.0
  9
$LIMCHECK
 70
     0
  9
$CHAMFERA
 40
0.0
  9
$CHAMFERB
 40
0.0
  9
$CHAMFERC
 40
0.0
  9
$CHAMFERD
 40
0.0
  9
$SKPOLY
 70
     0
  9
$TDCREATE
 40
2458933.722671586
  9
$TDUCREATE
 40
2458933.597671586
  9
$TDUPDATE
 40
2458956.451337384
  9
$TDUUPDATE
 40
2458956.326337384
  9
$TDINDWG
 40
0.0005260417
  9
$TDUSRTIMER
 40
0.0005260417
  9
$USRTIMER
 70
     1
  9
$ANGBASE
 50
0.0
  9
$ANGDIR
 70
     0
  9
$PDMODE
 70
     0
  9
$PDSIZE
 40
0.0
  9
$PLINEWID
 40
0.0
  9
$SPLFRAME
 70
     0
  9
$SPLINETYPE
 70
     6
  9
$SPLINESEGS
 70
     8
  9
$HANDSEED
  5
ED1
  9
$SURFTAB1
 70
     6
  9
$SURFTAB2
 70
     6
  9
$SURFTYPE
 70
     6
  9
$SURFU
 70
     6
  9
$SURFV
 70
     6
  9
$UCSBASE
  2

  9
$UCSNAME
  2

  9
$UCSORG
 10
0.0
 20
0.0
 30
0.0
  9
$UCSXDIR
 10
1.0
 20
0.0
 30
0.0
  9
$UCSYDIR
 10
0.0
 20
1.0
 30
0.0
  9
$UCSORTHOREF
  2

  9
$UCSORTHOVIEW
 70
     0
  9
$UCSORGTOP
 10
0.0
 20
0.0
 30
0.0
  9
$UCSORGBOTTOM
 10
0.0
 20
0.0
 30
0.0
  9
$UCSORGLEFT
 10
0.0
 20
0.0
 30
0.0
  9
$UCSORGRIGHT
 10
0.0
 20
0.0
 30
0.0
  9
$UCSORGFRONT
 10
0.0
 20
0.0
 30
0.0
  9
$UCSORGBACK
 10
0.0
 20
0.0
 30
0.0
  9
$PUCSBASE
  2

  9
$PUCSNAME
  2

  9
$PUCSORG
 10
0.0
 20
0.0
 30
0.0
  9
$PUCSXDIR
 10
1.0
 20
0.0
 30
0.0
  9
$PUCSYDIR
 10
0.0
 20
1.0
 30
0.0
  9
$PUCSORTHOREF
  2

  9
$PUCSORTHOVIEW
 70
     0
  9
$PUCSORGTOP
 10
0.0
 20
0.0
 30
0.0
  9
$PUCSORGBOTTOM
 10
0.0
 20
0.0
 30
0.0
  9
$PUCSORGLEFT
 10
0.0
 20
0.0
 30
0.0
  9
$PUCSORGRIGHT
 10
0.0
 20
0.0
 30
0.0
  9
$PUCSORGFRONT
 10
0.0
 20
0.0
 30
0.0
  9
$PUCSORGBACK
 10
0.0
 20
0.0
 30
0.0
  9
$USERI1
 70
     0
  9
$USERI2
 70
     0
  9
$USERI3
 70
     0
  9
$USERI4
 70
     0
  9
$USERI5
 70
     0
  9
$USERR1
 40
0.0
  9
$USERR2
 40
0.0
  9
$USERR3
 40
0.0
  9
$USERR4
 40
0.0
  9
$USERR5
 40
0.0
  9
$WORLDVIEW
 70
     1
  9
$SHADEDGE
 70
     3
  9
$SHADEDIF
 70
    70
  9
$TILEMODE
 70
     1
  9
$MAXACTVP
 70
    64
  9
$PINSBASE
 10
0.0
 20
0.0
 30
0.0
  9
$PLIMCHECK
 70
     0
  9
$PEXTMIN
 10
0.0
 20
0.0
 30
0.0
  9
$PEXTMAX
 10
0.0
 20
0.0
 30
0.0
  9
$PLIMMIN
 10
0.0
 20
0.0
  9
$PLIMMAX
 10
12.0
 20
9.0
  9
$UNITMODE
 70
     0
  9
$VISRETAIN
 70
     1
  9
$PLINEGEN
 70
     0
  9
$PSLTSCALE
 70
     1
  9
$TREEDEPTH
 70
  3020
  9
$CMLSTYLE
  2
Standard
  9
$CMLJUST
 70
     0
  9
$CMLSCALE
 40
20.0
  9
$PROXYGRAPHICS
 70
     1
  9
$MEASUREMENT
 70
     1
  9
$CELWEIGHT
370
    -1
  9
$ENDCAPS
280
     0
  9
$JOINSTYLE
280
     0
  9
$LWDISPLAY
290
     0
  9
$INSUNITS
 70
     4
  9
$HYPERLINKBASE
  1

  9
$STYLESHEET
  1

  9
$XEDIT
290
     1
  9
$CEPSNTYPE
380
     0
  9
$PSTYLEMODE
290
     1
  9
$FINGERPRINTGUID
  2
{CA757835-76F7-4344-A31A-22384E9591CC}
  9
$VERSIONGUID
  2
{88CCB4F7-2563-4D52-B3CF-27F85C50D7C4}
  9
$EXTNAMES
290
     1
  9
$PSVPSCALE
 40
0.0
  9
$OLESTARTUP
290
     0
  0
ENDSEC
  0
SECTION
  2
CLASSES
  0
CLASS
  1
ACDBDICTIONARYWDFLT
  2
AcDbDictionaryWithDefault
  3
ObjectDBX Classes
 90
        0
280
     0
281
     0
  0
CLASS
  1
ACDBPLACEHOLDER
  2
AcDbPlaceHolder
  3
ObjectDBX Classes
 90
        0
280
     0
281
     0
  0
CLASS
  1
LAYOUT
  2
AcDbLayout
  3
ObjectDBX Classes
 90
        0
280
     0
281
     0
  0
CLASS
  1
DICTIONARYVAR
  2
AcDbDictionaryVar
  3
ObjectDBX Classes
 90
        0
280
     0
281
     0
  0
CLASS
  1
TABLESTYLE
  2
AcDbTableStyle
  3
ObjectDBX Classes
 90
     4095
280
     0
281
     0
  0
CLASS
  1
MATERIAL
  2
AcDbMaterial
  3
ObjectDBX Classes
 90
     1153
280
     0
281
     0
  0
CLASS
  1
VISUALSTYLE
  2
AcDbVisualStyle
  3
ObjectDBX Classes
 90
     4095
280
     0
281
     0
  0
CLASS
  1
SCALE
  2
AcDbScale
  3
ObjectDBX Classes
 90
     1153
280
     0
281
     0
  0
CLASS
  1
MLEADERSTYLE
  2
AcDbMLeaderStyle
  3
ACDB_MLEADERSTYLE_CLASS
 90
     4095
280
     0
281
     0
  0
CLASS
  1
CELLSTYLEMAP
  2
AcDbCellStyleMap
  3
ObjectDBX Classes
 90
     1152
280
     0
281
     0
  0
ENDSEC
  0
SECTION
  2
TABLES
  0
TABLE
  2
VPORT
  5
8
330
0
100
AcDbSymbolTable
 70
     1
  0
VPORT
  5
EA
330
8
100
AcDbSymbolTableRecord
100
AcDbViewportTableRecord
  2
*Active
 70
     0
 10
0.0
 20
0.0
 11
1.0
 21
1.0
 12
2098.829067526541
 22
887.4055474842718
 13
0.0
 23
0.0
 14
10.0
 24
10.0
 15
10.0
 25
10.0
 16
0.0
 26
0.0
 36
1.0
 17
0.0
 27
0.0
 37
0.0
 40
258.7814213273533
 41
1.903110047846889
 42
50.0
 43
0.0
 44
0.0
 50
0.0
 51
0.0
 71
     0
 72
  1000
 73
     1
 74
     3
 75
     0
 76
     0
 77
     0
 78
     0
281
     0
 65
     1
110
0.0
120
0.0
130
0.0
111
1.0
121
0.0
131
0.0
112
0.0
122
1.0
132
0.0
 79
     0
146
0.0
  0
ENDTAB
  0
TABLE
  2
LTYPE
  5
5
330
0
100
AcDbSymbolTable
 70
     1
  0
LTYPE
  5
14
330
5
100
AcDbSymbolTableRecord
100
AcDbLinetypeTableRecord
  2
ByBlock
 70
     0
  3

 72
    65
 73
     0
 40
0.0
  0
LTYPE
  5
15
330
5
100
AcDbSymbolTableRecord
100
AcDbLinetypeTableRecord
  2
ByLayer
 70
     0
  3

 72
    65
 73
     0
 40
0.0
  0
LTYPE
  5
16
330
5
100
AcDbSymbolTableRecord
100
AcDbLinetypeTableRecord
  2
Continuous
 70
     0
  3
Solid line
 72
    65
 73
     0
 40
0.0
  0
ENDTAB
  0
TABLE
  2
LAYER
  5
2
330
0
100
AcDbSymbolTable
 70
     1
  0
LAYER
  5
10
102
{ACAD_XDICTIONARY
360
13C
102
}
330
2
100
AcDbSymbolTableRecord
100
AcDbLayerTableRecord
  2
0
 70
     0
 62
     7
  6
Continuous
370
    -3
390
F
  0
ENDTAB
  0
TABLE
  2
STYLE
  5
3
330
0
100
AcDbSymbolTable
 70
     2
  0
STYLE
  5
11
330
3
100
AcDbSymbolTableRecord
100
AcDbTextStyleTableRecord
  2
Standard
 70
     0
 40
0.0
 41
1.0
 50
0.0
 71
     0
 42
2.5
  3
txt
  4

  0
STYLE
  5
132
330
3
100
AcDbSymbolTableRecord
100
AcDbTextStyleTableRecord
  2
Annotative
 70
     0
 40
0.0
 41
1.0
 50
0.0
 71
     0
 42
2.5
  3
txt.shx
  4

1001
AcadAnnotative
1000
AnnotativeData
1002
{
1070
     1
1070
     1
1002
}
  0
ENDTAB
  0
TABLE
  2
VIEW
  5
6
330
0
100
AcDbSymbolTable
 70
     0
  0
ENDTAB
  0
TABLE
  2
UCS
  5
7
330
0
100
AcDbSymbolTable
 70
     0
  0
ENDTAB
  0
TABLE
  2
APPID
  5
9
330
0
100
AcDbSymbolTable
 70
     7
  0
APPID
  5
12
330
9
100
AcDbSymbolTableRecord
100
AcDbRegAppTableRecord
  2
ACAD
 70
     0
  0
APPID
  5
9E
330
9
100
AcDbSymbolTableRecord
100
AcDbRegAppTableRecord
  2
ACAD_PSEXT
 70
     0
  0
APPID
  5
133
330
9
100
AcDbSymbolTableRecord
100
AcDbRegAppTableRecord
  2
AcadAnnoPO
 70
     0
  0
APPID
  5
134
330
9
100
AcDbSymbolTableRecord
100
AcDbRegAppTableRecord
  2
AcadAnnotative
 70
     0
  0
APPID
  5
135
330
9
100
AcDbSymbolTableRecord
100
AcDbRegAppTableRecord
  2
ACAD_DSTYLE_DIMJAG
 70
     0
  0
APPID
  5
136
330
9
100
AcDbSymbolTableRecord
100
AcDbRegAppTableRecord
  2
ACAD_DSTYLE_DIMTALN
 70
     0
  0
APPID
  5
165
330
9
100
AcDbSymbolTableRecord
100
AcDbRegAppTableRecord
  2
ACAD_MLEADERVER
 70
     0
  0
ENDTAB
  0
TABLE
  2
DIMSTYLE
  5
A
330
0
100
AcDbSymbolTable
 70
     2
100
AcDbDimStyleTable
 71
     2
340
27
340
137
  0
DIMSTYLE
105
27
330
A
100
AcDbSymbolTableRecord
100
AcDbDimStyleTableRecord
  2
ISO-25
 70
     0
 41
2.5
 42
0.625
 43
3.75
 44
1.25
 73
     0
 74
     0
 77
     1
 78
     8
140
2.5
141
2.5
143
0.03937007874016
147
0.625
171
     3
172
     1
271
     2
272
     2
274
     3
278
    44
283
     0
284
     8
340
11
  0
DIMSTYLE
105
137
330
A
100
AcDbSymbolTableRecord
100
AcDbDimStyleTableRecord
  2
Annotative
 70
     0
 40
0.0
 41
2.5
 42
0.625
 43
3.75
 44
1.25
 73
     0
 74
     0
 77
     1
 78
     8
140
2.5
141
2.5
143
0.03937007874016
147
0.625
171
     3
172
     1
271
     2
272
     2
274
     3
278
    44
283
     0
284
     8
340
11
1001
AcadAnnotative
1000
AnnotativeData
1002
{
1070
     1
1070
     1
1002
}
1001
ACAD_DSTYLE_DIMJAG
1070
   388
1040
1.5
1001
ACAD_DSTYLE_DIMTALN
1070
   392
1070
     0
  0
ENDTAB
  0
TABLE
  2
BLOCK_RECORD
  5
1
330
0
100
AcDbSymbolTable
 70
     5
  0
BLOCK_RECORD
  5
1F
330
1
100
AcDbSymbolTableRecord
100
AcDbBlockTableRecord
  2
*Model_Space
340
22
  0
BLOCK_RECORD
  5
D2
330
1
100
AcDbSymbolTableRecord
100
AcDbBlockTableRecord
  2
*Paper_Space
340
D3
  0
BLOCK_RECORD
  5
D6
330
1
100
AcDbSymbolTableRecord
100
AcDbBlockTableRecord
  2
*Paper_Space0
340
D7
  0
BLOCK_RECORD
  5
A2B
330
1
100
AcDbSymbolTableRecord
100
AcDbBlockTableRecord
  2
1
340
0
310
2800000020000000200000000100080000000000000400000000000000000000000000000000000000000000000080000080000000808000800000008000800080800000C0C0C000C0DCC000F0CAA6000020400000206000002080000020A0000020C0000020E00000400000004020000040400000406000004080000040A0
310
000040C0000040E00000600000006020000060400000606000006080000060A0000060C0000060E00000800000008020000080400000806000008080000080A0000080C0000080E00000A0000000A0200000A0400000A0600000A0800000A0A00000A0C00000A0E00000C0000000C0200000C0400000C0600000C0800000C0
310
A00000C0C00000C0E00000E0000000E0200000E0400000E0600000E0800000E0A00000E0C00000E0E00040000000400020004000400040006000400080004000A0004000C0004000E00040200000402020004020400040206000402080004020A0004020C0004020E000404000004040200040404000404060004040800040
310
40A0004040C0004040E00040600000406020004060400040606000406080004060A0004060C0004060E00040800000408020004080400040806000408080004080A0004080C0004080E00040A0000040A0200040A0400040A0600040A0800040A0A00040A0C00040A0E00040C0000040C0200040C0400040C0600040C08000
310
40C0A00040C0C00040C0E00040E0000040E0200040E0400040E0600040E0800040E0A00040E0C00040E0E00080000000800020008000400080006000800080008000A0008000C0008000E00080200000802020008020400080206000802080008020A0008020C0008020E00080400000804020008040400080406000804080
310
008040A0008040C0008040E00080600000806020008060400080606000806080008060A0008060C0008060E00080800000808020008080400080806000808080008080A0008080C0008080E00080A0000080A0200080A0400080A0600080A0800080A0A00080A0C00080A0E00080C0000080C0200080C0400080C0600080C0
310
800080C0A00080C0C00080C0E00080E0000080E0200080E0400080E0600080E0800080E0A00080E0C00080E0E000C0000000C0002000C0004000C0006000C0008000C000A000C000C000C000E000C0200000C0202000C0204000C0206000C0208000C020A000C020C000C020E000C0400000C0402000C0404000C0406000C0
310
408000C040A000C040C000C040E000C0600000C0602000C0604000C0606000C0608000C060A000C060C000C060E000C0800000C0802000C0804000C0806000C0808000C080A000C080C000C080E000C0A00000C0A02000C0A04000C0A06000C0A08000C0A0A000C0A0C000C0A0E000C0C00000C0C02000C0C04000C0C06000
310
C0C08000C0C0A000F0FBFF00A4A0A000808080000000FF0000FF000000FFFF00FF000000FF00FF00FFFF0000FFFFFF0000000000000000000000000000000000000000000000000000000000000000000000000000000000000000000000000000000000000000000000000000000000000000000000000000000000000000
310
00000000000000000000000000000000000000000000000000000000000000000000000000000000000000000000000000000000000000000000000000000000000000000000000000000000000000000000000000000000000000000000000000000000000000000000000000000000000000000000000000000000000000
310
00000000000000000000000000000000000000000000000000000000000000000000000000000000000000000000000000000000000000000000000000000000000000000000000000000000000000000000000000000000000000000000000000000000000000000000000000000000000000000000000000000000000000
310
000000000000000000000000000000000000000000FFFF00FFFF00FFFF00FFFF00FF0000FF00FFFF00FFFF00FFFF00FFFF00000000FFFF00FFFF00FFFF00FFFF00FFFFFFFF00FFFF00FFFF00FFFF00FFFF00000000FFFF00FFFF00FFFF00FFFF00FFFFFFFF00FFFF00FFFF00FFFF00FFFF00000000FFFF00FFFF00FFFF00FF
310
FF00FFFFFFFF00FFFF00FFFF00FFFF00FFFF00000000FFFF00FFFF00FFFF00FFFF00FFFFFFFF00FFFF00FFFF00FFFF00FFFF00000000FFFFFFFFFFFFFFFFFFFFFFFFFFFFFFFFFFFFFFFFFFFFFFFFFFFFFFFF00000000FFFFFFFFFFFFFFFFFFFFFFFFFFFFFFFFFFFFFFFFFFFFFFFFFFFFFFFF000000FFFF00FFFF00FF00FFFF
310
00FFFF00FFFF00FFFF00FFFF00FF00FFFF00FFFF0000FF00000000000000000000000000000000000000000000000000000000FF0000FFFFFFFFFFFFFFFFFFFFFFFFFFFFFFFFFFFFFFFFFFFFFFFFFFFFFFFFFFFF00000000000000000000000000000000000000000000000000000000000000000000000000000000000000
310
00000000000000000000000000000000000000000000000000000000000000000000000000000000000000000000000000000000000000000000000000000000000000000000000000000000000000000000000000000000000000000000000000000000000000000000000000000000000000000000000000000000000000
310
00000000000000000000000000000000000000000000000000000000000000000000000000000000000000000000000000000000000000000000000000000000000000000000000000000000000000000000000000000000000000000000000000000000000000000000000000000000000000000000000000000000000000
310
0000000000000000000000000000000000000000000000000000000000000000000000000000000000000000000000000000000000000000
102
{BLKREFS
331
B89
102
}
1001
ACAD
1000
DesignCenter Data
1002
{
1070
     1
1070
     4
1002
}
  0
BLOCK_RECORD
  5
BC9
330
1
100
AcDbSymbolTableRecord
100
AcDbBlockTableRecord
  2
2
340
0
310
2800000020000000200000000100080000000000000400000000000000000000000000000000000000000000000080000080000000808000800000008000800080800000C0C0C000C0DCC000F0CAA6000020400000206000002080000020A0000020C0000020E00000400000004020000040400000406000004080000040A0
310
000040C0000040E00000600000006020000060400000606000006080000060A0000060C0000060E00000800000008020000080400000806000008080000080A0000080C0000080E00000A0000000A0200000A0400000A0600000A0800000A0A00000A0C00000A0E00000C0000000C0200000C0400000C0600000C0800000C0
310
A00000C0C00000C0E00000E0000000E0200000E0400000E0600000E0800000E0A00000E0C00000E0E00040000000400020004000400040006000400080004000A0004000C0004000E00040200000402020004020400040206000402080004020A0004020C0004020E000404000004040200040404000404060004040800040
310
40A0004040C0004040E00040600000406020004060400040606000406080004060A0004060C0004060E00040800000408020004080400040806000408080004080A0004080C0004080E00040A0000040A0200040A0400040A0600040A0800040A0A00040A0C00040A0E00040C0000040C0200040C0400040C0600040C08000
310
40C0A00040C0C00040C0E00040E0000040E0200040E0400040E0600040E0800040E0A00040E0C00040E0E00080000000800020008000400080006000800080008000A0008000C0008000E00080200000802020008020400080206000802080008020A0008020C0008020E00080400000804020008040400080406000804080
310
008040A0008040C0008040E00080600000806020008060400080606000806080008060A0008060C0008060E00080800000808020008080400080806000808080008080A0008080C0008080E00080A0000080A0200080A0400080A0600080A0800080A0A00080A0C00080A0E00080C0000080C0200080C0400080C0600080C0
310
800080C0A00080C0C00080C0E00080E0000080E0200080E0400080E0600080E0800080E0A00080E0C00080E0E000C0000000C0002000C0004000C0006000C0008000C000A000C000C000C000E000C0200000C0202000C0204000C0206000C0208000C020A000C020C000C020E000C0400000C0402000C0404000C0406000C0
310
408000C040A000C040C000C040E000C0600000C0602000C0604000C0606000C0608000C060A000C060C000C060E000C0800000C0802000C0804000C0806000C0808000C080A000C080C000C080E000C0A00000C0A02000C0A04000C0A06000C0A08000C0A0A000C0A0C000C0A0E000C0C00000C0C02000C0C04000C0C06000
310
C0C08000C0C0A000F0FBFF00A4A0A000808080000000FF0000FF000000FFFF00FF000000FF00FF00FFFF0000FFFFFF0000000000000000000000000000000000000000000000000000000000000000000000000000000000000000000000FFFFFFFF00000000000000000000000000000000000000000000000000000000FF
310
FFFFFF00000000000000000000000000000000000000000000000000000000FF0000FF00000000000000000000000000000000000000000000000000000000FFFFFFFF00000000000000000000000000000000000000000000000000000000FF0000FF00000000000000000000000000000000000000000000000000000000
310
FF0000FF00000000000000000000000000000000000000000000000000000000FF0000FF00000000000000000000000000000000000000000000000000000000FF0000FF00000000000000000000000000000000000000000000000000000000FFFFFFFF000000000000000000000000000000000000000000000000000000
310
0000FFFF000000000000000000000000000000000000000000000000000000000000FFFF000000000000000000000000000000000000000000000000000000000000FFFF000000000000000000000000000000000000000000000000000000000000FFFF000000000000000000000000000000000000000000000000000000
310
000000FFFF000000000000000000000000000000000000000000000000000000000000FFFF0000000000000000000000000000000000000000000000000000000000FFFFFFFF00000000000000000000000000000000000000000000000000000000FF0000FF00000000000000000000000000000000000000000000000000
310
000000FFFFFFFF00000000000000000000000000000000000000000000000000000000FFFFFFFF00000000000000000000000000000000000000000000000000000000FF0000FF00000000000000000000000000000000000000000000000000000000FF0000FF000000000000000000000000000000000000000000000000
310
00000000FFFFFFFF00000000000000000000000000000000000000000000000000000000FF0000FF00000000000000000000000000000000000000000000000000000000FF0000FF00000000000000000000000000000000000000000000000000000000FF0000FF0000000000000000000000000000000000000000000000
310
0000000000FF0000FF00000000000000000000000000000000000000000000000000000000FF0000FF000000000000000000000000000000000000000000000000000000FFFF0000FFFF0000000000000000000000000000000000000000000000000000FF00000000FF000000000000000000000000000000000000000000
310
0000000000FFFFFFFFFFFF000000000000000000000000000000000000000000000000000000000000000000000000000000000000000000
102
{BLKREFS
331
C07
102
}
1001
ACAD
1000
DesignCenter Data
1002
{
1070
     1
1070
     4
1002
}
  0
BLOCK_RECORD
  5
C08
330
1
100
AcDbSymbolTableRecord
100
AcDbBlockTableRecord
  2
3
340
0
310
2800000020000000200000000100080000000000000400000000000000000000000000000000000000000000000080000080000000808000800000008000800080800000C0C0C000C0DCC000F0CAA6000020400000206000002080000020A0000020C0000020E00000400000004020000040400000406000004080000040A0
310
000040C0000040E00000600000006020000060400000606000006080000060A0000060C0000060E00000800000008020000080400000806000008080000080A0000080C0000080E00000A0000000A0200000A0400000A0600000A0800000A0A00000A0C00000A0E00000C0000000C0200000C0400000C0600000C0800000C0
310
A00000C0C00000C0E00000E0000000E0200000E0400000E0600000E0800000E0A00000E0C00000E0E00040000000400020004000400040006000400080004000A0004000C0004000E00040200000402020004020400040206000402080004020A0004020C0004020E000404000004040200040404000404060004040800040
310
40A0004040C0004040E00040600000406020004060400040606000406080004060A0004060C0004060E00040800000408020004080400040806000408080004080A0004080C0004080E00040A0000040A0200040A0400040A0600040A0800040A0A00040A0C00040A0E00040C0000040C0200040C0400040C0600040C08000
310
40C0A00040C0C00040C0E00040E0000040E0200040E0400040E0600040E0800040E0A00040E0C00040E0E00080000000800020008000400080006000800080008000A0008000C0008000E00080200000802020008020400080206000802080008020A0008020C0008020E00080400000804020008040400080406000804080
310
008040A0008040C0008040E00080600000806020008060400080606000806080008060A0008060C0008060E00080800000808020008080400080806000808080008080A0008080C0008080E00080A0000080A0200080A0400080A0600080A0800080A0A00080A0C00080A0E00080C0000080C0200080C0400080C0600080C0
310
800080C0A00080C0C00080C0E00080E0000080E0200080E0400080E0600080E0800080E0A00080E0C00080E0E000C0000000C0002000C0004000C0006000C0008000C000A000C000C000C000E000C0200000C0202000C0204000C0206000C0208000C020A000C020C000C020E000C0400000C0402000C0404000C0406000C0
310
408000C040A000C040C000C040E000C0600000C0602000C0604000C0606000C0608000C060A000C060C000C060E000C0800000C0802000C0804000C0806000C0808000C080A000C080C000C080E000C0A00000C0A02000C0A04000C0A06000C0A08000C0A0A000C0A0C000C0A0E000C0C00000C0C02000C0C04000C0C06000
310
C0C08000C0C0A000F0FBFF00A4A0A000808080000000FF0000FF000000FFFF00FF000000FF00FF00FFFF0000FFFFFF0000000000000000000000000000000000000000000000000000000000000000000000000000000000000000000000000000000000000000000000000000000000000000000000000000000000000000
310
00000000000000000000000000000000000000000000000000000000000000000000000000000000000000000000000000000000000000000000000000000000000000000000000000000000000000000000000000000000000000000000000000000000000000000000000000000000000000000000000000000000000000
310
00000000000000000000000000000000000000000000000000000000000000000000000000000000000000000000000000000000000000000000000000000000000000000000000000000000000000000000000000000000000000000000000000000000000000000000000000000000000000000000000000000000000000
310
00000000000000000000000000000000000000000000000000000000000000000000000000000000000000000000000000000000000000000000000000000000000000000000000000000000000000000000000000000000000000000000000000000000000000000000000000000000000000000000000000000000000000
310
000000000000000000000000000000000000000000FFFFFFFFFFFFFFFFFFFFFFFFFFFFFFFFFFFFFFFFFFFFFFFFFFFFFFFFFFFF0000FFFFFFFFFFFFFFFFFFFFFFFFFFFFFFFFFFFFFFFFFFFFFFFFFFFFFFFFFFFF0000000000000000000000000000000000000000000000000000000000000000000000000000000000000000
310
00000000000000000000000000000000000000000000000000000000000000000000000000000000000000000000000000000000000000000000000000000000000000000000000000000000000000000000000000000000000000000000000000000000000000000000000000000000000000000000000000000000000000
310
00000000000000000000000000000000000000000000000000000000000000000000000000000000000000000000000000000000000000000000000000000000000000000000000000000000000000000000000000000000000000000000000000000000000000000000000000000000000000000000000000000000000000
310
00000000000000000000000000000000000000000000000000000000000000000000000000000000000000000000000000000000000000000000000000000000000000000000000000000000000000000000000000000000000000000000000000000000000000000000000000000000000000000000000000000000000000
310
0000000000000000000000000000000000000000000000000000000000000000000000000000000000000000000000000000000000000000
102
{BLKREFS
331
C0F
102
}
1001
ACAD
1000
DesignCenter Data
1002
{
1070
     1
1070
     4
1002
}
  0
BLOCK_RECORD
  5
C10
330
1
100
AcDbSymbolTableRecord
100
AcDbBlockTableRecord
  2
4
340
0
310
2800000020000000200000000100080000000000000400000000000000000000000000000000000000000000000080000080000000808000800000008000800080800000C0C0C000C0DCC000F0CAA6000020400000206000002080000020A0000020C0000020E00000400000004020000040400000406000004080000040A0
310
000040C0000040E00000600000006020000060400000606000006080000060A0000060C0000060E00000800000008020000080400000806000008080000080A0000080C0000080E00000A0000000A0200000A0400000A0600000A0800000A0A00000A0C00000A0E00000C0000000C0200000C0400000C0600000C0800000C0
310
A00000C0C00000C0E00000E0000000E0200000E0400000E0600000E0800000E0A00000E0C00000E0E00040000000400020004000400040006000400080004000A0004000C0004000E00040200000402020004020400040206000402080004020A0004020C0004020E000404000004040200040404000404060004040800040
310
40A0004040C0004040E00040600000406020004060400040606000406080004060A0004060C0004060E00040800000408020004080400040806000408080004080A0004080C0004080E00040A0000040A0200040A0400040A0600040A0800040A0A00040A0C00040A0E00040C0000040C0200040C0400040C0600040C08000
310
40C0A00040C0C00040C0E00040E0000040E0200040E0400040E0600040E0800040E0A00040E0C00040E0E00080000000800020008000400080006000800080008000A0008000C0008000E00080200000802020008020400080206000802080008020A0008020C0008020E00080400000804020008040400080406000804080
310
008040A0008040C0008040E00080600000806020008060400080606000806080008060A0008060C0008060E00080800000808020008080400080806000808080008080A0008080C0008080E00080A0000080A0200080A0400080A0600080A0800080A0A00080A0C00080A0E00080C0000080C0200080C0400080C0600080C0
310
800080C0A00080C0C00080C0E00080E0000080E0200080E0400080E0600080E0800080E0A00080E0C00080E0E000C0000000C0002000C0004000C0006000C0008000C000A000C000C000C000E000C0200000C0202000C0204000C0206000C0208000C020A000C020C000C020E000C0400000C0402000C0404000C0406000C0
310
408000C040A000C040C000C040E000C0600000C0602000C0604000C0606000C0608000C060A000C060C000C060E000C0800000C0802000C0804000C0806000C0808000C080A000C080C000C080E000C0A00000C0A02000C0A04000C0A06000C0A08000C0A0A000C0A0C000C0A0E000C0C00000C0C02000C0C04000C0C06000
310
C0C08000C0C0A000F0FBFF00A4A0A000808080000000FF0000FF000000FFFF00FF000000FF00FF00FFFF0000FFFFFF0000000000000000000000000000000000000000000000000000000000000000000000000000000000000000000000000000000000000000000000000000000000000000000000000000000000000000
310
0000000000000000000000000000000000000000000000000000000000000000000000000000000000000000FFFF00000000000000000000000000000000000000000000000000000000FF00FFFFFF0000000000000000000000000000000000000000000000000000FFFFFFFFFFFF00000000000000000000000000000000
310
0000000000000000FFFFFFFFFFFFFFFF0000000000000000000000000000000000000000000000FFFFFFFFFFFFFFFF00000000000000000000000000000000000000000000FFFFFFFFFFFFFFFFFFFFFF000000000000000000000000000000000000FFFF00FFFFFFFFFFFFFFFFFFFFFF000000000000000000000000000000
310
000000FFFFFFFFFF00FFFFFFFFFFFFFFFF000000000000000000000000000000FFFFFFFFFFFFFFFF00FFFFFFFFFF0000FF00000000000000000000000000FF00FFFFFFFFFFFFFFFFFFFFFFFF000000FFFFFF000000000000000000000000FFFFFFFFFFFFFFFFFFFFFF00FF0000FFFF00FFFF000000000000000000FFFF00FF
310
FFFFFFFFFFFFFFFFFFFF0000FFFF0000FFFF0000000000000000FF00FFFFFFFFFF00FFFFFFFFFF000000FFFF0000FFFF000000000000000000FFFFFFFFFFFFFFFFFFFFFFFFFF0000FFFF0000FFFF000000000000000000FFFFFFFFFFFFFFFFFFFFFFFFFFFF0000FF0000FFFF00000000000000000000FFFFFFFFFFFFFFFFFF
310
FFFFFF00FF00FFFF0000FF000000000000000000000000FFFFFFFFFFFFFFFFFFFFFFFF00FFFF0000FFFF00000000000000000000000000FFFFFFFFFFFFFFFFFF0000FFFF0000FFFF00000000000000000000000000000000FFFFFFFFFFFFFF00FFFF0000FFFF000000000000000000000000000000000000FFFFFFFFFF0000
310
FF0000FFFF00000000000000000000000000000000000000FFFFFFFF0000FFFF0000FF000000000000000000000000000000000000000000FF00FF00FFFF0000FFFF00000000000000000000000000000000000000000000FF00FFFF0000FFFF000000000000000000000000000000000000000000000000FFFF0000FFFF00
310
000000000000000000000000000000000000000000000000FFFF00FFFF00000000000000000000000000000000000000000000000000000000FFFF0000000000000000000000000000000000000000000000000000000000000000000000000000000000000000000000000000000000000000000000000000000000000000
310
0000000000000000000000000000000000000000000000000000000000000000000000000000000000000000000000000000000000000000
102
{BLKREFS
331
EB6
102
}
1001
ACAD
1000
DesignCenter Data
1002
{
1070
     1
1070
     4
1002
}
  0
ENDTAB
  0
ENDSEC
  0
SECTION
  2
BLOCKS
  0
BLOCK
  5
20
330
1F
100
AcDbEntity
  8
0
100
AcDbBlockBegin
  2
*Model_Space
 70
     0
 10
0.0
 20
0.0
 30
0.0
  3
*Model_Space
  1

  0
ENDBLK
  5
21
330
1F
100
AcDbEntity
  8
0
100
AcDbBlockEnd
  0
BLOCK
  5
D4
330
D2
100
AcDbEntity
 67
     1
  8
0
100
AcDbBlockBegin
  2
*Paper_Space
 70
     0
 10
0.0
 20
0.0
 30
0.0
  3
*Paper_Space
  1

  0
ENDBLK
  5
D5
330
D2
100
AcDbEntity
 67
     1
  8
0
100
AcDbBlockEnd
  0
BLOCK
  5
D8
330
D6
100
AcDbEntity
 67
     1
  8
0
100
AcDbBlockBegin
  2
*Paper_Space0
 70
     0
 10
0.0
 20
0.0
 30
0.0
  3
*Paper_Space0
  1

  0
ENDBLK
  5
D9
330
D6
100
AcDbEntity
 67
     1
  8
0
100
AcDbBlockEnd
  0
BLOCK
  5
A2C
330
A2B
100
AcDbEntity
  8
0
100
AcDbBlockBegin
  2
1
 70
     0
 10
0.0
 20
0.0
 30
0.0
  3
1
  1

  0
LINE
  5
A2E
330
A2B
100
AcDbEntity
  8
0
  6
Continuous
 62
     7
370
    15
100
AcDbLine
 10
2064.466880225777
 20
908.574804911554
 30
0.0
 11
2064.466880225777
 21
909.7748049115541
 31
0.0
  0
LINE
  5
A2F
330
A2B
100
AcDbEntity
  8
0
  6
Continuous
 62
     7
370
    15
100
AcDbLine
 10
2064.466880225777
 20
908.574804911554
 30
0.0
 11
1969.266885995507
 21
908.574804911554
 31
0.0
  0
LINE
  5
A30
330
A2B
100
AcDbEntity
  8
0
  6
Continuous
 62
     7
370
    15
100
AcDbLine
 10
1969.266885995507
 20
909.7748049115541
 30
0.0
 11
1969.266885995507
 21
908.574804911554
 31
0.0
  0
LINE
  5
A31
330
A2B
100
AcDbEntity
  8
0
  6
Continuous
 62
     7
370
    15
100
AcDbLine
 10
2064.466880225777
 20
909.7748049115541
 30
0.0
 11
1969.266885995507
 21
909.7748049115541
 31
0.0
  0
LINE
  5
A32
330
A2B
100
AcDbEntity
  8
0
  6
Continuous
 62
     7
370
    15
100
AcDbLine
 10
2020.166883110642
 20
898.5748049115541
 30
0.0
 11
2023.166883110642
 21
898.5748049115541
 31
0.0
  0
LINE
  5
A33
330
A2B
100
AcDbEntity
  8
0
  6
Continuous
 62
     7
370
    15
100
AcDbLine
 10
2020.166883110642
 20
899.874804911554
 30
0.0
 11
2023.166883110642
 21
899.874804911554
 31
0.0
  0
LINE
  5
A34
330
A2B
100
AcDbEntity
  8
0
  6
Continuous
 62
     7
370
    15
100
AcDbLine
 10
2023.166883110642
 20
899.874804911554
 30
0.0
 11
2023.166883110642
 21
898.5748049115541
 31
0.0
  0
LINE
  5
A35
330
A2B
100
AcDbEntity
  8
0
  6
Continuous
 62
     7
370
    15
100
AcDbLine
 10
2020.166883110642
 20
899.874804911554
 30
0.0
 11
2020.166883110642
 21
898.5748049115541
 31
0.0
  0
LINE
  5
A36
330
A2B
100
AcDbEntity
  8
0
  6
Continuous
 62
     7
370
    15
100
AcDbLine
 10
2039.366883110642
 20
898.5748049115541
 30
0.0
 11
2042.366883110642
 21
898.5748049115541
 31
0.0
  0
LINE
  5
A37
330
A2B
100
AcDbEntity
  8
0
  6
Continuous
 62
     7
370
    15
100
AcDbLine
 10
2039.366883110642
 20
899.874804911554
 30
0.0
 11
2042.366883110642
 21
899.874804911554
 31
0.0
  0
LINE
  5
A38
330
A2B
100
AcDbEntity
  8
0
  6
Continuous
 62
     7
370
    15
100
AcDbLine
 10
2042.366883110642
 20
899.874804911554
 30
0.0
 11
2042.366883110642
 21
898.5748049115541
 31
0.0
  0
LINE
  5
A39
330
A2B
100
AcDbEntity
  8
0
  6
Continuous
 62
     7
370
    15
100
AcDbLine
 10
2039.366883110642
 20
899.874804911554
 30
0.0
 11
2039.366883110642
 21
898.5748049115541
 31
0.0
  0
LINE
  5
A3A
330
A2B
100
AcDbEntity
  8
0
  6
Continuous
 62
     7
370
    15
100
AcDbLine
 10
2048.966883110642
 20
898.5748049115541
 30
0.0
 11
2051.966883110643
 21
898.5748049115541
 31
0.0
  0
LINE
  5
A3B
330
A2B
100
AcDbEntity
  8
0
  6
Continuous
 62
     7
370
    15
100
AcDbLine
 10
2048.966883110642
 20
899.874804911554
 30
0.0
 11
2048.966883110642
 21
898.5748049115541
 31
0.0
  0
LINE
  5
A3C
330
A2B
100
AcDbEntity
  8
0
  6
Continuous
 62
     7
370
    15
100
AcDbLine
 10
2051.966883110643
 20
899.874804911554
 30
0.0
 11
2051.966883110643
 21
898.5748049115541
 31
0.0
  0
LINE
  5
A3D
330
A2B
100
AcDbEntity
  8
0
  6
Continuous
 62
     7
370
    15
100
AcDbLine
 10
2048.966883110642
 20
899.874804911554
 30
0.0
 11
2051.966883110643
 21
899.874804911554
 31
0.0
  0
LINE
  5
A3E
330
A2B
100
AcDbEntity
  8
0
  6
Continuous
 62
     7
370
    15
100
AcDbLine
 10
2029.766883110642
 20
898.5748049115541
 30
0.0
 11
2032.766883110642
 21
898.5748049115541
 31
0.0
  0
LINE
  5
A3F
330
A2B
100
AcDbEntity
  8
0
  6
Continuous
 62
     7
370
    15
100
AcDbLine
 10
2029.766883110642
 20
899.874804911554
 30
0.0
 11
2029.766883110642
 21
898.5748049115541
 31
0.0
  0
LINE
  5
A40
330
A2B
100
AcDbEntity
  8
0
  6
Continuous
 62
     7
370
    15
100
AcDbLine
 10
2029.766883110642
 20
899.874804911554
 30
0.0
 11
2032.766883110642
 21
899.874804911554
 31
0.0
  0
LINE
  5
A41
330
A2B
100
AcDbEntity
  8
0
  6
Continuous
 62
     7
370
    15
100
AcDbLine
 10
2032.766883110642
 20
899.874804911554
 30
0.0
 11
2032.766883110642
 21
898.5748049115541
 31
0.0
  0
LINE
  5
A42
330
A2B
100
AcDbEntity
  8
0
  6
Continuous
 62
     7
370
    15
100
AcDbLine
 10
1991.366883110642
 20
898.5748049115541
 30
0.0
 11
1994.366883110642
 21
898.5748049115541
 31
0.0
  0
LINE
  5
A43
330
A2B
100
AcDbEntity
  8
0
  6
Continuous
 62
     7
370
    15
100
AcDbLine
 10
1991.366883110642
 20
899.874804911554
 30
0.0
 11
1991.366883110642
 21
898.5748049115541
 31
0.0
  0
LINE
  5
A44
330
A2B
100
AcDbEntity
  8
0
  6
Continuous
 62
     7
370
    15
100
AcDbLine
 10
1991.366883110642
 20
899.874804911554
 30
0.0
 11
1994.366883110642
 21
899.874804911554
 31
0.0
  0
LINE
  5
A45
330
A2B
100
AcDbEntity
  8
0
  6
Continuous
 62
     7
370
    15
100
AcDbLine
 10
1994.366883110642
 20
899.874804911554
 30
0.0
 11
1994.366883110642
 21
898.5748049115541
 31
0.0
  0
LINE
  5
A46
330
A2B
100
AcDbEntity
  8
0
  6
Continuous
 62
     7
370
    15
100
AcDbLine
 10
1972.166883110642
 20
898.5748049115541
 30
0.0
 11
1975.166883110642
 21
898.5748049115541
 31
0.0
  0
LINE
  5
A47
330
A2B
100
AcDbEntity
  8
0
  6
Continuous
 62
     7
370
    15
100
AcDbLine
 10
1972.166883110642
 20
899.874804911554
 30
0.0
 11
1972.166883110642
 21
898.5748049115541
 31
0.0
  0
LINE
  5
A48
330
A2B
100
AcDbEntity
  8
0
  6
Continuous
 62
     7
370
    15
100
AcDbLine
 10
1972.166883110642
 20
899.874804911554
 30
0.0
 11
1975.166883110642
 21
899.874804911554
 31
0.0
  0
LINE
  5
A49
330
A2B
100
AcDbEntity
  8
0
  6
Continuous
 62
     7
370
    15
100
AcDbLine
 10
1975.166883110642
 20
899.874804911554
 30
0.0
 11
1975.166883110642
 21
898.5748049115541
 31
0.0
  0
LINE
  5
A4A
330
A2B
100
AcDbEntity
  8
0
  6
Continuous
 62
     7
370
    15
100
AcDbLine
 10
2010.566883110643
 20
898.5748049115541
 30
0.0
 11
2013.566883110642
 21
898.5748049115541
 31
0.0
  0
LINE
  5
A4B
330
A2B
100
AcDbEntity
  8
0
  6
Continuous
 62
     7
370
    15
100
AcDbLine
 10
2010.566883110643
 20
899.874804911554
 30
0.0
 11
2010.566883110643
 21
898.5748049115541
 31
0.0
  0
LINE
  5
A4C
330
A2B
100
AcDbEntity
  8
0
  6
Continuous
 62
     7
370
    15
100
AcDbLine
 10
2010.566883110643
 20
899.874804911554
 30
0.0
 11
2013.566883110642
 21
899.874804911554
 31
0.0
  0
LINE
  5
A4D
330
A2B
100
AcDbEntity
  8
0
  6
Continuous
 62
     7
370
    15
100
AcDbLine
 10
2013.566883110642
 20
899.874804911554
 30
0.0
 11
2013.566883110642
 21
898.5748049115541
 31
0.0
  0
LINE
  5
A4E
330
A2B
100
AcDbEntity
  8
0
  6
Continuous
 62
     7
370
    15
100
AcDbLine
 10
2058.566883110643
 20
898.5748049115541
 30
0.0
 11
2061.566883110642
 21
898.5748049115541
 31
0.0
  0
LINE
  5
A4F
330
A2B
100
AcDbEntity
  8
0
  6
Continuous
 62
     7
370
    15
100
AcDbLine
 10
2058.566883110643
 20
899.874804911554
 30
0.0
 11
2061.566883110642
 21
899.874804911554
 31
0.0
  0
LINE
  5
A50
330
A2B
100
AcDbEntity
  8
0
  6
Continuous
 62
     7
370
    15
100
AcDbLine
 10
2061.566883110642
 20
899.874804911554
 30
0.0
 11
2061.566883110642
 21
898.5748049115541
 31
0.0
  0
LINE
  5
A51
330
A2B
100
AcDbEntity
  8
0
  6
Continuous
 62
     7
370
    15
100
AcDbLine
 10
2058.566883110643
 20
899.874804911554
 30
0.0
 11
2058.566883110643
 21
898.5748049115541
 31
0.0
  0
LINE
  5
A52
330
A2B
100
AcDbEntity
  8
0
  6
Continuous
 62
     7
370
    15
100
AcDbLine
 10
1981.766883110642
 20
898.5748049115541
 30
0.0
 11
1984.766883110642
 21
898.5748049115541
 31
0.0
  0
LINE
  5
A53
330
A2B
100
AcDbEntity
  8
0
  6
Continuous
 62
     7
370
    15
100
AcDbLine
 10
1981.766883110642
 20
899.874804911554
 30
0.0
 11
1984.766883110642
 21
899.874804911554
 31
0.0
  0
LINE
  5
A54
330
A2B
100
AcDbEntity
  8
0
  6
Continuous
 62
     7
370
    15
100
AcDbLine
 10
1984.766883110642
 20
899.874804911554
 30
0.0
 11
1984.766883110642
 21
898.5748049115541
 31
0.0
  0
LINE
  5
A55
330
A2B
100
AcDbEntity
  8
0
  6
Continuous
 62
     7
370
    15
100
AcDbLine
 10
1981.766883110642
 20
899.874804911554
 30
0.0
 11
1981.766883110642
 21
898.5748049115541
 31
0.0
  0
LINE
  5
A56
330
A2B
100
AcDbEntity
  8
0
  6
Continuous
 62
     7
370
    15
100
AcDbLine
 10
2000.966883110642
 20
898.5748049115541
 30
0.0
 11
2003.966883110642
 21
898.5748049115541
 31
0.0
  0
LINE
  5
A57
330
A2B
100
AcDbEntity
  8
0
  6
Continuous
 62
     7
370
    15
100
AcDbLine
 10
2000.966883110642
 20
899.874804911554
 30
0.0
 11
2003.966883110642
 21
899.874804911554
 31
0.0
  0
LINE
  5
A58
330
A2B
100
AcDbEntity
  8
0
  6
Continuous
 62
     7
370
    15
100
AcDbLine
 10
2000.966883110642
 20
899.874804911554
 30
0.0
 11
2000.966883110642
 21
898.5748049115541
 31
0.0
  0
LINE
  5
A59
330
A2B
100
AcDbEntity
  8
0
  6
Continuous
 62
     7
370
    15
100
AcDbLine
 10
2003.966883110642
 20
899.874804911554
 30
0.0
 11
2003.966883110642
 21
898.5748049115541
 31
0.0
  0
LINE
  5
A5A
330
A2B
100
AcDbEntity
  8
0
  6
Continuous
 62
     7
370
    15
100
AcDbLine
 10
2063.316883110642
 20
901.9781872796418
 30
0.0
 11
2064.466880225777
 21
901.9781872796418
 31
0.0
  0
LINE
  5
A5B
330
A2B
100
AcDbEntity
  8
0
  6
Continuous
 62
     7
370
    15
100
AcDbLine
 10
2063.316883110642
 20
901.9781872796418
 30
0.0
 11
2063.316883110642
 21
898.424795585476
 31
0.0
  0
ARC
  5
A5C
330
A2B
100
AcDbEntity
  8
0
  6
Continuous
 62
     7
370
    15
100
AcDbCircle
 10
2062.816882595272
 20
898.424792124495
 30
0.0
 40
0.5000005153883271
100
AcDbArc
 50
314.9996405476329
 51
0.0003965988069906
  0
LINE
  5
A5D
330
A2B
100
AcDbEntity
  8
0
  6
Continuous
 62
     7
370
    15
100
AcDbLine
 10
2063.113333708699
 20
898.0141371607695
 30
0.0
 11
2063.170434132229
 21
898.0712361514095
 31
0.0
  0
ARC
  5
A5E
330
A2B
100
AcDbEntity
  8
0
  6
Continuous
 62
     7
370
    15
100
AcDbCircle
 10
2063.466882601479
 20
897.6605785559247
 30
0.0
 40
0.5000005066464439
100
AcDbArc
 50
134.9992130470828
 51
180.0
  0
LINE
  5
A5F
330
A2B
100
AcDbEntity
  8
0
  6
Continuous
 62
     7
370
    15
100
AcDbLine
 10
2062.966882094833
 20
897.6605785559247
 30
0.0
 11
2062.966882094833
 21
895.6462067581052
 31
0.0
  0
LINE
  5
A60
330
A2B
100
AcDbEntity
  8
0
  6
Continuous
 62
     7
370
    15
100
AcDbLine
 10
2062.59688617738
 20
895.2762108406515
 30
0.0
 11
2062.966883799278
 21
895.6462084625501
 31
0.0
  0
LINE
  5
A61
330
A2B
100
AcDbEntity
  8
0
  6
Continuous
 62
     7
370
    15
100
AcDbLine
 10
2062.59688617738
 20
895.2762108406515
 30
0.0
 11
2057.536880043906
 21
895.2762108406515
 31
0.0
  0
LINE
  5
A62
330
A2B
100
AcDbEntity
  8
0
  6
Continuous
 62
     7
370
    15
100
AcDbLine
 10
2057.166881569784
 20
895.6462093147727
 30
0.0
 11
2057.536880043906
 21
895.2762108406515
 31
0.0
  0
LINE
  5
A63
330
A2B
100
AcDbEntity
  8
0
  6
Continuous
 62
     7
370
    15
100
AcDbLine
 10
2057.166881569784
 20
895.6462093147727
 30
0.0
 11
2057.166882848118
 21
897.6605785559247
 31
0.0
  0
ARC
  5
A64
330
A2B
100
AcDbEntity
  8
0
  6
Continuous
 62
     7
370
    15
100
AcDbCircle
 10
2056.666883619805
 20
897.6605785559247
 30
0.0
 40
0.5000005066455719
100
AcDbArc
 50
0.0
 51
45.0007869529218
  0
LINE
  5
A65
330
A2B
100
AcDbEntity
  8
0
  6
Continuous
 62
     7
370
    15
100
AcDbLine
 10
2056.963332089056
 20
898.0712361514095
 30
0.0
 11
2057.020432512585
 21
898.0141371607695
 31
0.0
  0
ARC
  5
A66
330
A2B
100
AcDbEntity
  8
0
  6
Continuous
 62
     7
370
    15
100
AcDbCircle
 10
2057.316883626012
 20
898.424792124495
 30
0.0
 40
0.5000005153938787
100
AcDbArc
 50
180.0
 51
225.0003594523763
  0
LINE
  5
A67
330
A2B
100
AcDbEntity
  8
0
  6
Continuous
 62
     7
370
    15
100
AcDbLine
 10
2056.816883110618
 20
898.424792124495
 30
0.0
 11
2056.816883110642
 21
901.9781872796418
 31
0.0
  0
LINE
  5
A68
330
A2B
100
AcDbEntity
  8
0
  6
Continuous
 62
     7
370
    15
100
AcDbLine
 10
2056.816883110642
 20
901.9781872796418
 30
0.0
 11
2053.716883110642
 21
901.9781872796418
 31
0.0
  0
LINE
  5
A69
330
A2B
100
AcDbEntity
  8
0
  6
Continuous
 62
     7
370
    15
100
AcDbLine
 10
2053.716883110642
 20
901.9781872796418
 30
0.0
 11
2053.716883110642
 21
898.4047955854759
 31
0.0
  0
ARC
  5
A6A
330
A2B
100
AcDbEntity
  8
0
  6
Continuous
 62
     7
370
    15
100
AcDbCircle
 10
2053.216882595272
 20
898.4047921244949
 30
0.0
 40
0.5000005153882265
100
AcDbArc
 50
314.9996405476006
 51
0.000396598793963
  0
LINE
  5
A6B
330
A2B
100
AcDbEntity
  8
0
  6
Continuous
 62
     7
370
    15
100
AcDbLine
 10
2053.5133337087
 20
897.9941371607694
 30
0.0
 11
2053.570434132228
 21
898.0512361514096
 31
0.0
  0
ARC
  5
A6C
330
A2B
100
AcDbEntity
  8
0
  6
Continuous
 62
     7
370
    15
100
AcDbCircle
 10
2053.866882601479
 20
897.6405785559247
 30
0.0
 40
0.5000005066464439
100
AcDbArc
 50
134.9992130470644
 51
180.0
  0
LINE
  5
A6D
330
A2B
100
AcDbEntity
  8
0
  6
Continuous
 62
     7
370
    15
100
AcDbLine
 10
2053.366882094833
 20
897.6405785559247
 30
0.0
 11
2053.366882094833
 21
895.6262067581054
 31
0.0
  0
LINE
  5
A6E
330
A2B
100
AcDbEntity
  8
0
  6
Continuous
 62
     7
370
    15
100
AcDbLine
 10
2053.016886177379
 20
895.2762108406515
 30
0.0
 11
2053.3668846515
 21
895.6262093147726
 31
0.0
  0
LINE
  5
A6F
330
A2B
100
AcDbEntity
  8
0
  6
Continuous
 62
     7
370
    15
100
AcDbLine
 10
2053.016886177379
 20
895.2762108406515
 30
0.0
 11
2047.916880043905
 21
895.2762108406515
 31
0.0
  0
LINE
  5
A70
330
A2B
100
AcDbEntity
  8
0
  6
Continuous
 62
     7
370
    15
100
AcDbLine
 10
2047.566881569784
 20
895.6262093147726
 30
0.0
 11
2047.916880043905
 21
895.2762108406515
 31
0.0
  0
LINE
  5
A71
330
A2B
100
AcDbEntity
  8
0
  6
Continuous
 62
     7
370
    15
100
AcDbLine
 10
2047.566881569784
 20
895.6262093147726
 30
0.0
 11
2047.566882848118
 21
897.6405785559247
 31
0.0
  0
ARC
  5
A72
330
A2B
100
AcDbEntity
  8
0
  6
Continuous
 62
     7
370
    15
100
AcDbCircle
 10
2047.066883619805
 20
897.6405785559247
 30
0.0
 40
0.5000005066453709
100
AcDbArc
 50
0.0
 51
45.00078695293561
  0
LINE
  5
A73
330
A2B
100
AcDbEntity
  8
0
  6
Continuous
 62
     7
370
    15
100
AcDbLine
 10
2047.363332089056
 20
898.0512361514096
 30
0.0
 11
2047.420432512585
 21
897.9941371607694
 31
0.0
  0
ARC
  5
A74
330
A2B
100
AcDbEntity
  8
0
  6
Continuous
 62
     7
370
    15
100
AcDbCircle
 10
2047.716883626012
 20
898.4047921244949
 30
0.0
 40
0.5000005153938787
100
AcDbArc
 50
180.0
 51
225.0003594523994
  0
LINE
  5
A75
330
A2B
100
AcDbEntity
  8
0
  6
Continuous
 62
     7
370
    15
100
AcDbLine
 10
2047.216883110619
 20
898.4047921244949
 30
0.0
 11
2047.216883110642
 21
901.9781872796418
 31
0.0
  0
LINE
  5
A76
330
A2B
100
AcDbEntity
  8
0
  6
Continuous
 62
     7
370
    15
100
AcDbLine
 10
2047.216883110642
 20
901.9781872796418
 30
0.0
 11
2044.116883110642
 21
901.9781872796418
 31
0.0
  0
LINE
  5
A77
330
A2B
100
AcDbEntity
  8
0
  6
Continuous
 62
     7
370
    15
100
AcDbLine
 10
2044.116883110642
 20
901.9781872796418
 30
0.0
 11
2044.116883110642
 21
898.4047955854759
 31
0.0
  0
ARC
  5
A78
330
A2B
100
AcDbEntity
  8
0
  6
Continuous
 62
     7
370
    15
100
AcDbCircle
 10
2043.616882595272
 20
898.4047921244949
 30
0.0
 40
0.5000005153882265
100
AcDbArc
 50
314.9996405476006
 51
0.000396598793963
  0
LINE
  5
A79
330
A2B
100
AcDbEntity
  8
0
  6
Continuous
 62
     7
370
    15
100
AcDbLine
 10
2043.913333708699
 20
897.9941371607694
 30
0.0
 11
2043.970434132228
 21
898.0512361514096
 31
0.0
  0
ARC
  5
A7A
330
A2B
100
AcDbEntity
  8
0
  6
Continuous
 62
     7
370
    15
100
AcDbCircle
 10
2044.266882601479
 20
897.6405785559247
 30
0.0
 40
0.5000005066464439
100
AcDbArc
 50
134.9992130470644
 51
180.0
  0
LINE
  5
A7B
330
A2B
100
AcDbEntity
  8
0
  6
Continuous
 62
     7
370
    15
100
AcDbLine
 10
2043.766882094833
 20
897.6405785559247
 30
0.0
 11
2043.766882094833
 21
895.6262067581054
 31
0.0
  0
LINE
  5
A7C
330
A2B
100
AcDbEntity
  8
0
  6
Continuous
 62
     7
370
    15
100
AcDbLine
 10
2043.416886177379
 20
895.2762108406515
 30
0.0
 11
2043.7668846515
 21
895.6262093147726
 31
0.0
  0
LINE
  5
A7D
330
A2B
100
AcDbEntity
  8
0
  6
Continuous
 62
     7
370
    15
100
AcDbLine
 10
2043.416886177379
 20
895.2762108406515
 30
0.0
 11
2038.316880043905
 21
895.2762108406515
 31
0.0
  0
LINE
  5
A7E
330
A2B
100
AcDbEntity
  8
0
  6
Continuous
 62
     7
370
    15
100
AcDbLine
 10
2037.966881569784
 20
895.6262093147726
 30
0.0
 11
2038.316880043905
 21
895.2762108406515
 31
0.0
  0
LINE
  5
A7F
330
A2B
100
AcDbEntity
  8
0
  6
Continuous
 62
     7
370
    15
100
AcDbLine
 10
2037.966881569784
 20
895.6262093147726
 30
0.0
 11
2037.966882848118
 21
897.6405785559247
 31
0.0
  0
ARC
  5
A80
330
A2B
100
AcDbEntity
  8
0
  6
Continuous
 62
     7
370
    15
100
AcDbCircle
 10
2037.466883619805
 20
897.6405785559247
 30
0.0
 40
0.5000005066453709
100
AcDbArc
 50
0.0
 51
45.00078695293561
  0
LINE
  5
A81
330
A2B
100
AcDbEntity
  8
0
  6
Continuous
 62
     7
370
    15
100
AcDbLine
 10
2037.763332089056
 20
898.0512361514096
 30
0.0
 11
2037.820432512585
 21
897.9941371607694
 31
0.0
  0
ARC
  5
A82
330
A2B
100
AcDbEntity
  8
0
  6
Continuous
 62
     7
370
    15
100
AcDbCircle
 10
2038.116883626012
 20
898.4047921244949
 30
0.0
 40
0.5000005153938787
100
AcDbArc
 50
180.0
 51
225.0003594523994
  0
LINE
  5
A83
330
A2B
100
AcDbEntity
  8
0
  6
Continuous
 62
     7
370
    15
100
AcDbLine
 10
2037.616883110618
 20
898.4047921244949
 30
0.0
 11
2037.616883110642
 21
901.9781872796418
 31
0.0
  0
LINE
  5
A84
330
A2B
100
AcDbEntity
  8
0
  6
Continuous
 62
     7
370
    15
100
AcDbLine
 10
2034.516883110642
 20
901.9781872796418
 30
0.0
 11
2037.616883110642
 21
901.9781872796418
 31
0.0
  0
LINE
  5
A85
330
A2B
100
AcDbEntity
  8
0
  6
Continuous
 62
     7
370
    15
100
AcDbLine
 10
2034.516883110642
 20
901.9781872796418
 30
0.0
 11
2034.516883110642
 21
898.4047955854759
 31
0.0
  0
ARC
  5
A86
330
A2B
100
AcDbEntity
  8
0
  6
Continuous
 62
     7
370
    15
100
AcDbCircle
 10
2034.016882595272
 20
898.4047921244949
 30
0.0
 40
0.5000005153882265
100
AcDbArc
 50
314.9996405476006
 51
0.000396598793963
  0
LINE
  5
A87
330
A2B
100
AcDbEntity
  8
0
  6
Continuous
 62
     7
370
    15
100
AcDbLine
 10
2034.313333708699
 20
897.9941371607694
 30
0.0
 11
2034.370434132228
 21
898.0512361514096
 31
0.0
  0
ARC
  5
A88
330
A2B
100
AcDbEntity
  8
0
  6
Continuous
 62
     7
370
    15
100
AcDbCircle
 10
2034.666882601479
 20
897.6405785559247
 30
0.0
 40
0.5000005066464439
100
AcDbArc
 50
134.9992130470644
 51
180.0
  0
LINE
  5
A89
330
A2B
100
AcDbEntity
  8
0
  6
Continuous
 62
     7
370
    15
100
AcDbLine
 10
2034.166882094833
 20
897.6405785559247
 30
0.0
 11
2034.166882094833
 21
895.6262067581054
 31
0.0
  0
LINE
  5
A8A
330
A2B
100
AcDbEntity
  8
0
  6
Continuous
 62
     7
370
    15
100
AcDbLine
 10
2033.816886177379
 20
895.2762108406515
 30
0.0
 11
2034.1668846515
 21
895.6262093147726
 31
0.0
  0
LINE
  5
A8B
330
A2B
100
AcDbEntity
  8
0
  6
Continuous
 62
     7
370
    15
100
AcDbLine
 10
2033.816886177379
 20
895.2762108406515
 30
0.0
 11
2028.716880043905
 21
895.2762108406515
 31
0.0
  0
LINE
  5
A8C
330
A2B
100
AcDbEntity
  8
0
  6
Continuous
 62
     7
370
    15
100
AcDbLine
 10
2028.366881569784
 20
895.6262093147726
 30
0.0
 11
2028.716880043905
 21
895.2762108406515
 31
0.0
  0
LINE
  5
A8D
330
A2B
100
AcDbEntity
  8
0
  6
Continuous
 62
     7
370
    15
100
AcDbLine
 10
2028.366881569784
 20
895.6262093147726
 30
0.0
 11
2028.366882848118
 21
897.6405785559247
 31
0.0
  0
ARC
  5
A8E
330
A2B
100
AcDbEntity
  8
0
  6
Continuous
 62
     7
370
    15
100
AcDbCircle
 10
2027.866883619805
 20
897.6405785559247
 30
0.0
 40
0.5000005066453709
100
AcDbArc
 50
0.0
 51
45.00078695293561
  0
LINE
  5
A8F
330
A2B
100
AcDbEntity
  8
0
  6
Continuous
 62
     7
370
    15
100
AcDbLine
 10
2028.163332089056
 20
898.0512361514096
 30
0.0
 11
2028.220432512585
 21
897.9941371607694
 31
0.0
  0
ARC
  5
A90
330
A2B
100
AcDbEntity
  8
0
  6
Continuous
 62
     7
370
    15
100
AcDbCircle
 10
2028.516883626012
 20
898.4047921244949
 30
0.0
 40
0.5000005153938787
100
AcDbArc
 50
180.0
 51
225.0003594523994
  0
LINE
  5
A91
330
A2B
100
AcDbEntity
  8
0
  6
Continuous
 62
     7
370
    15
100
AcDbLine
 10
2028.016883110618
 20
898.4047921244949
 30
0.0
 11
2028.016883110642
 21
901.9781872796418
 31
0.0
  0
LINE
  5
A92
330
A2B
100
AcDbEntity
  8
0
  6
Continuous
 62
     7
370
    15
100
AcDbLine
 10
2024.916883110642
 20
901.9781872796418
 30
0.0
 11
2028.016883110642
 21
901.9781872796418
 31
0.0
  0
LINE
  5
A93
330
A2B
100
AcDbEntity
  8
0
  6
Continuous
 62
     7
370
    15
100
AcDbLine
 10
2024.916883110642
 20
901.9781872796418
 30
0.0
 11
2024.916883110642
 21
898.4047955854759
 31
0.0
  0
ARC
  5
A94
330
A2B
100
AcDbEntity
  8
0
  6
Continuous
 62
     7
370
    15
100
AcDbCircle
 10
2024.416882595272
 20
898.4047921244949
 30
0.0
 40
0.5000005153882065
100
AcDbArc
 50
314.9996405476006
 51
0.000396598793963
  0
LINE
  5
A95
330
A2B
100
AcDbEntity
  8
0
  6
Continuous
 62
     7
370
    15
100
AcDbLine
 10
2024.713333708699
 20
897.9941371607694
 30
0.0
 11
2024.770434132229
 21
898.0512361514096
 31
0.0
  0
ARC
  5
A96
330
A2B
100
AcDbEntity
  8
0
  6
Continuous
 62
     7
370
    15
100
AcDbCircle
 10
2025.06688260148
 20
897.6405785559247
 30
0.0
 40
0.5000005066464439
100
AcDbArc
 50
134.9992130470644
 51
180.0
  0
LINE
  5
A97
330
A2B
100
AcDbEntity
  8
0
  6
Continuous
 62
     7
370
    15
100
AcDbLine
 10
2024.566882094833
 20
897.6405785559247
 30
0.0
 11
2024.566882094833
 21
895.6262067581054
 31
0.0
  0
LINE
  5
A98
330
A2B
100
AcDbEntity
  8
0
  6
Continuous
 62
     7
370
    15
100
AcDbLine
 10
2024.216886177379
 20
895.2762108406515
 30
0.0
 11
2024.5668846515
 21
895.6262093147726
 31
0.0
  0
LINE
  5
A99
330
A2B
100
AcDbEntity
  8
0
  6
Continuous
 62
     7
370
    15
100
AcDbLine
 10
2024.216886177379
 20
895.2762108406515
 30
0.0
 11
2019.116880043905
 21
895.2762108406515
 31
0.0
  0
LINE
  5
A9A
330
A2B
100
AcDbEntity
  8
0
  6
Continuous
 62
     7
370
    15
100
AcDbLine
 10
2018.766881569784
 20
895.6262093147726
 30
0.0
 11
2019.116880043905
 21
895.2762108406515
 31
0.0
  0
LINE
  5
A9B
330
A2B
100
AcDbEntity
  8
0
  6
Continuous
 62
     7
370
    15
100
AcDbLine
 10
2018.766881569784
 20
895.6262093147726
 30
0.0
 11
2018.766882848118
 21
897.6405785559247
 31
0.0
  0
ARC
  5
A9C
330
A2B
100
AcDbEntity
  8
0
  6
Continuous
 62
     7
370
    15
100
AcDbCircle
 10
2018.266883619805
 20
897.6405785559247
 30
0.0
 40
0.5000005066453709
100
AcDbArc
 50
0.0
 51
45.00078695293561
  0
LINE
  5
A9D
330
A2B
100
AcDbEntity
  8
0
  6
Continuous
 62
     7
370
    15
100
AcDbLine
 10
2018.563332089056
 20
898.0512361514096
 30
0.0
 11
2018.620432512586
 21
897.9941371607694
 31
0.0
  0
ARC
  5
A9E
330
A2B
100
AcDbEntity
  8
0
  6
Continuous
 62
     7
370
    15
100
AcDbCircle
 10
2018.916883626012
 20
898.4047921244949
 30
0.0
 40
0.5000005153939071
100
AcDbArc
 50
180.0
 51
225.0003594523994
  0
LINE
  5
A9F
330
A2B
100
AcDbEntity
  8
0
  6
Continuous
 62
     7
370
    15
100
AcDbLine
 10
2018.416883110619
 20
898.4047921244949
 30
0.0
 11
2018.416883110642
 21
901.9781872796418
 31
0.0
  0
LINE
  5
AA0
330
A2B
100
AcDbEntity
  8
0
  6
Continuous
 62
     7
370
    15
100
AcDbLine
 10
2015.316883110642
 20
901.9781872796418
 30
0.0
 11
2018.416883110642
 21
901.9781872796418
 31
0.0
  0
LINE
  5
AA1
330
A2B
100
AcDbEntity
  8
0
  6
Continuous
 62
     7
370
    15
100
AcDbLine
 10
2015.316883110642
 20
901.9781872796418
 30
0.0
 11
2015.316883110642
 21
898.4047955854759
 31
0.0
  0
ARC
  5
AA2
330
A2B
100
AcDbEntity
  8
0
  6
Continuous
 62
     7
370
    15
100
AcDbCircle
 10
2014.816882595272
 20
898.4047921244949
 30
0.0
 40
0.5000005153882065
100
AcDbArc
 50
314.9996405476006
 51
0.000396598793963
  0
LINE
  5
AA3
330
A2B
100
AcDbEntity
  8
0
  6
Continuous
 62
     7
370
    15
100
AcDbLine
 10
2015.1133337087
 20
897.9941371607694
 30
0.0
 11
2015.170434132228
 21
898.0512361514096
 31
0.0
  0
ARC
  5
AA4
330
A2B
100
AcDbEntity
  8
0
  6
Continuous
 62
     7
370
    15
100
AcDbCircle
 10
2015.466882601479
 20
897.6405785559247
 30
0.0
 40
0.5000005066464439
100
AcDbArc
 50
134.9992130470644
 51
180.0
  0
LINE
  5
AA5
330
A2B
100
AcDbEntity
  8
0
  6
Continuous
 62
     7
370
    15
100
AcDbLine
 10
2014.966882094833
 20
897.6405785559247
 30
0.0
 11
2014.966882094833
 21
895.6262067581054
 31
0.0
  0
LINE
  5
AA6
330
A2B
100
AcDbEntity
  8
0
  6
Continuous
 62
     7
370
    15
100
AcDbLine
 10
2014.616886177379
 20
895.2762108406515
 30
0.0
 11
2014.9668846515
 21
895.6262093147726
 31
0.0
  0
LINE
  5
AA7
330
A2B
100
AcDbEntity
  8
0
  6
Continuous
 62
     7
370
    15
100
AcDbLine
 10
2014.616886177379
 20
895.2762108406515
 30
0.0
 11
2009.516880043905
 21
895.2762108406515
 31
0.0
  0
LINE
  5
AA8
330
A2B
100
AcDbEntity
  8
0
  6
Continuous
 62
     7
370
    15
100
AcDbLine
 10
2009.166881569784
 20
895.6262093147726
 30
0.0
 11
2009.516880043905
 21
895.2762108406515
 31
0.0
  0
LINE
  5
AA9
330
A2B
100
AcDbEntity
  8
0
  6
Continuous
 62
     7
370
    15
100
AcDbLine
 10
2009.166881569784
 20
895.6262093147726
 30
0.0
 11
2009.166882848118
 21
897.6405785559247
 31
0.0
  0
ARC
  5
AAA
330
A2B
100
AcDbEntity
  8
0
  6
Continuous
 62
     7
370
    15
100
AcDbCircle
 10
2008.666883619806
 20
897.6405785559247
 30
0.0
 40
0.5000005066453709
100
AcDbArc
 50
0.0
 51
45.00078695293561
  0
LINE
  5
AAB
330
A2B
100
AcDbEntity
  8
0
  6
Continuous
 62
     7
370
    15
100
AcDbLine
 10
2008.963332089056
 20
898.0512361514096
 30
0.0
 11
2009.020432512585
 21
897.9941371607694
 31
0.0
  0
ARC
  5
AAC
330
A2B
100
AcDbEntity
  8
0
  6
Continuous
 62
     7
370
    15
100
AcDbCircle
 10
2009.316883626012
 20
898.4047921244949
 30
0.0
 40
0.5000005153939071
100
AcDbArc
 50
180.0
 51
225.0003594523994
  0
LINE
  5
AAD
330
A2B
100
AcDbEntity
  8
0
  6
Continuous
 62
     7
370
    15
100
AcDbLine
 10
2008.816883110618
 20
898.4047921244949
 30
0.0
 11
2008.816883110642
 21
901.9781872796418
 31
0.0
  0
LINE
  5
AAE
330
A2B
100
AcDbEntity
  8
0
  6
Continuous
 62
     7
370
    15
100
AcDbLine
 10
2005.716883110642
 20
901.9781872796418
 30
0.0
 11
2008.816883110642
 21
901.9781872796418
 31
0.0
  0
LINE
  5
AAF
330
A2B
100
AcDbEntity
  8
0
  6
Continuous
 62
     7
370
    15
100
AcDbLine
 10
2005.716883110642
 20
901.9781872796418
 30
0.0
 11
2005.716883110642
 21
898.4047955854759
 31
0.0
  0
ARC
  5
AB0
330
A2B
100
AcDbEntity
  8
0
  6
Continuous
 62
     7
370
    15
100
AcDbCircle
 10
2005.216882595272
 20
898.4047921244949
 30
0.0
 40
0.5000005153882265
100
AcDbArc
 50
314.9996405476006
 51
0.000396598793963
  0
LINE
  5
AB1
330
A2B
100
AcDbEntity
  8
0
  6
Continuous
 62
     7
370
    15
100
AcDbLine
 10
2005.513333708699
 20
897.9941371607694
 30
0.0
 11
2005.570434132228
 21
898.0512361514096
 31
0.0
  0
ARC
  5
AB2
330
A2B
100
AcDbEntity
  8
0
  6
Continuous
 62
     7
370
    15
100
AcDbCircle
 10
2005.866882601479
 20
897.6405785559247
 30
0.0
 40
0.5000005066464439
100
AcDbArc
 50
134.9992130470644
 51
180.0
  0
LINE
  5
AB3
330
A2B
100
AcDbEntity
  8
0
  6
Continuous
 62
     7
370
    15
100
AcDbLine
 10
2005.366882094833
 20
897.6405785559247
 30
0.0
 11
2005.366882094833
 21
895.6262067581054
 31
0.0
  0
LINE
  5
AB4
330
A2B
100
AcDbEntity
  8
0
  6
Continuous
 62
     7
370
    15
100
AcDbLine
 10
2005.016886177379
 20
895.2762108406515
 30
0.0
 11
2005.3668846515
 21
895.6262093147726
 31
0.0
  0
LINE
  5
AB5
330
A2B
100
AcDbEntity
  8
0
  6
Continuous
 62
     7
370
    15
100
AcDbLine
 10
2005.016886177379
 20
895.2762108406515
 30
0.0
 11
1999.916880043905
 21
895.2762108406515
 31
0.0
  0
LINE
  5
AB6
330
A2B
100
AcDbEntity
  8
0
  6
Continuous
 62
     7
370
    15
100
AcDbLine
 10
1999.566881569784
 20
895.6262093147726
 30
0.0
 11
1999.916880043905
 21
895.2762108406515
 31
0.0
  0
LINE
  5
AB7
330
A2B
100
AcDbEntity
  8
0
  6
Continuous
 62
     7
370
    15
100
AcDbLine
 10
1999.566881569784
 20
895.6262093147726
 30
0.0
 11
1999.566882848118
 21
897.6405785559247
 31
0.0
  0
ARC
  5
AB8
330
A2B
100
AcDbEntity
  8
0
  6
Continuous
 62
     7
370
    15
100
AcDbCircle
 10
1999.066883619805
 20
897.6405785559247
 30
0.0
 40
0.5000005066453709
100
AcDbArc
 50
0.0
 51
45.00078695293561
  0
LINE
  5
AB9
330
A2B
100
AcDbEntity
  8
0
  6
Continuous
 62
     7
370
    15
100
AcDbLine
 10
1999.363332089056
 20
898.0512361514096
 30
0.0
 11
1999.420432512585
 21
897.9941371607694
 31
0.0
  0
ARC
  5
ABA
330
A2B
100
AcDbEntity
  8
0
  6
Continuous
 62
     7
370
    15
100
AcDbCircle
 10
1999.716883626012
 20
898.4047921244949
 30
0.0
 40
0.5000005153939071
100
AcDbArc
 50
180.0
 51
225.0003594523994
  0
LINE
  5
ABB
330
A2B
100
AcDbEntity
  8
0
  6
Continuous
 62
     7
370
    15
100
AcDbLine
 10
1999.216883110618
 20
898.4047921244949
 30
0.0
 11
1999.216883110642
 21
901.9781872796418
 31
0.0
  0
LINE
  5
ABC
330
A2B
100
AcDbEntity
  8
0
  6
Continuous
 62
     7
370
    15
100
AcDbLine
 10
1996.116883110642
 20
901.9781872796418
 30
0.0
 11
1999.216883110642
 21
901.9781872796418
 31
0.0
  0
LINE
  5
ABD
330
A2B
100
AcDbEntity
  8
0
  6
Continuous
 62
     7
370
    15
100
AcDbLine
 10
1996.116883110642
 20
901.9781872796418
 30
0.0
 11
1996.116883110642
 21
898.4047955854759
 31
0.0
  0
ARC
  5
ABE
330
A2B
100
AcDbEntity
  8
0
  6
Continuous
 62
     7
370
    15
100
AcDbCircle
 10
1995.616882595272
 20
898.4047921244949
 30
0.0
 40
0.5000005153882265
100
AcDbArc
 50
314.9996405476006
 51
0.000396598793963
  0
LINE
  5
ABF
330
A2B
100
AcDbEntity
  8
0
  6
Continuous
 62
     7
370
    15
100
AcDbLine
 10
1995.913333708699
 20
897.9941371607694
 30
0.0
 11
1995.970434132228
 21
898.0512361514096
 31
0.0
  0
ARC
  5
AC0
330
A2B
100
AcDbEntity
  8
0
  6
Continuous
 62
     7
370
    15
100
AcDbCircle
 10
1996.266882601479
 20
897.6405785559247
 30
0.0
 40
0.5000005066464439
100
AcDbArc
 50
134.9992130470644
 51
180.0
  0
LINE
  5
AC1
330
A2B
100
AcDbEntity
  8
0
  6
Continuous
 62
     7
370
    15
100
AcDbLine
 10
1995.766882094833
 20
897.6405785559247
 30
0.0
 11
1995.766882094833
 21
895.6262067581054
 31
0.0
  0
LINE
  5
AC2
330
A2B
100
AcDbEntity
  8
0
  6
Continuous
 62
     7
370
    15
100
AcDbLine
 10
1995.416886177379
 20
895.2762108406515
 30
0.0
 11
1995.7668846515
 21
895.6262093147726
 31
0.0
  0
LINE
  5
AC3
330
A2B
100
AcDbEntity
  8
0
  6
Continuous
 62
     7
370
    15
100
AcDbLine
 10
1995.416886177379
 20
895.2762108406515
 30
0.0
 11
1990.316880043905
 21
895.2762108406515
 31
0.0
  0
LINE
  5
AC4
330
A2B
100
AcDbEntity
  8
0
  6
Continuous
 62
     7
370
    15
100
AcDbLine
 10
1989.966881569784
 20
895.6262093147726
 30
0.0
 11
1990.316880043905
 21
895.2762108406515
 31
0.0
  0
LINE
  5
AC5
330
A2B
100
AcDbEntity
  8
0
  6
Continuous
 62
     7
370
    15
100
AcDbLine
 10
1989.966881569784
 20
895.6262093147726
 30
0.0
 11
1989.966882848117
 21
897.6405785559247
 31
0.0
  0
ARC
  5
AC6
330
A2B
100
AcDbEntity
  8
0
  6
Continuous
 62
     7
370
    15
100
AcDbCircle
 10
1989.466883619805
 20
897.6405785559247
 30
0.0
 40
0.5000005066453709
100
AcDbArc
 50
0.0
 51
45.00078695293561
  0
LINE
  5
AC7
330
A2B
100
AcDbEntity
  8
0
  6
Continuous
 62
     7
370
    15
100
AcDbLine
 10
1989.763332089056
 20
898.0512361514096
 30
0.0
 11
1989.820432512585
 21
897.9941371607694
 31
0.0
  0
ARC
  5
AC8
330
A2B
100
AcDbEntity
  8
0
  6
Continuous
 62
     7
370
    15
100
AcDbCircle
 10
1990.116883626012
 20
898.4047921244949
 30
0.0
 40
0.5000005153939071
100
AcDbArc
 50
180.0
 51
225.0003594523994
  0
LINE
  5
AC9
330
A2B
100
AcDbEntity
  8
0
  6
Continuous
 62
     7
370
    15
100
AcDbLine
 10
1989.616883110618
 20
898.4047921244949
 30
0.0
 11
1989.616883110642
 21
901.9781872796418
 31
0.0
  0
LINE
  5
ACA
330
A2B
100
AcDbEntity
  8
0
  6
Continuous
 62
     7
370
    15
100
AcDbLine
 10
1986.516883110642
 20
901.9781872796418
 30
0.0
 11
1989.616883110642
 21
901.9781872796418
 31
0.0
  0
LINE
  5
ACB
330
A2B
100
AcDbEntity
  8
0
  6
Continuous
 62
     7
370
    15
100
AcDbLine
 10
1986.516883110642
 20
901.9781872796418
 30
0.0
 11
1986.516883110642
 21
898.4047955854759
 31
0.0
  0
ARC
  5
ACC
330
A2B
100
AcDbEntity
  8
0
  6
Continuous
 62
     7
370
    15
100
AcDbCircle
 10
1986.016882595272
 20
898.4047921244949
 30
0.0
 40
0.5000005153882265
100
AcDbArc
 50
314.9996405476006
 51
0.000396598793963
  0
LINE
  5
ACD
330
A2B
100
AcDbEntity
  8
0
  6
Continuous
 62
     7
370
    15
100
AcDbLine
 10
1986.313333708699
 20
897.9941371607694
 30
0.0
 11
1986.370434132228
 21
898.0512361514096
 31
0.0
  0
ARC
  5
ACE
330
A2B
100
AcDbEntity
  8
0
  6
Continuous
 62
     7
370
    15
100
AcDbCircle
 10
1986.666882601479
 20
897.6405785559247
 30
0.0
 40
0.5000005066464439
100
AcDbArc
 50
134.9992130470644
 51
180.0
  0
LINE
  5
ACF
330
A2B
100
AcDbEntity
  8
0
  6
Continuous
 62
     7
370
    15
100
AcDbLine
 10
1986.166882094833
 20
897.6405785559247
 30
0.0
 11
1986.166882094833
 21
895.6262067581054
 31
0.0
  0
LINE
  5
AD0
330
A2B
100
AcDbEntity
  8
0
  6
Continuous
 62
     7
370
    15
100
AcDbLine
 10
1985.816886177379
 20
895.2762108406515
 30
0.0
 11
1986.1668846515
 21
895.6262093147726
 31
0.0
  0
LINE
  5
AD1
330
A2B
100
AcDbEntity
  8
0
  6
Continuous
 62
     7
370
    15
100
AcDbLine
 10
1985.816886177379
 20
895.2762108406515
 30
0.0
 11
1980.716880043905
 21
895.2762108406515
 31
0.0
  0
LINE
  5
AD2
330
A2B
100
AcDbEntity
  8
0
  6
Continuous
 62
     7
370
    15
100
AcDbLine
 10
1980.366881569784
 20
895.6262093147726
 30
0.0
 11
1980.716880043905
 21
895.2762108406515
 31
0.0
  0
LINE
  5
AD3
330
A2B
100
AcDbEntity
  8
0
  6
Continuous
 62
     7
370
    15
100
AcDbLine
 10
1980.366881569784
 20
895.6262093147726
 30
0.0
 11
1980.366882848118
 21
897.6405785559247
 31
0.0
  0
ARC
  5
AD4
330
A2B
100
AcDbEntity
  8
0
  6
Continuous
 62
     7
370
    15
100
AcDbCircle
 10
1979.866883619805
 20
897.6405785559247
 30
0.0
 40
0.500000506645391
100
AcDbArc
 50
0.0
 51
45.000786952931
  0
LINE
  5
AD5
330
A2B
100
AcDbEntity
  8
0
  6
Continuous
 62
     7
370
    15
100
AcDbLine
 10
1980.163332089056
 20
898.0512361514096
 30
0.0
 11
1980.220432512585
 21
897.9941371607694
 31
0.0
  0
ARC
  5
AD6
330
A2B
100
AcDbEntity
  8
0
  6
Continuous
 62
     7
370
    15
100
AcDbCircle
 10
1980.516883626012
 20
898.4047921244949
 30
0.0
 40
0.5000005153939071
100
AcDbArc
 50
180.0
 51
225.0003594523994
  0
LINE
  5
AD7
330
A2B
100
AcDbEntity
  8
0
  6
Continuous
 62
     7
370
    15
100
AcDbLine
 10
1980.016883110618
 20
898.4047921244949
 30
0.0
 11
1980.016883110642
 21
901.9781872796418
 31
0.0
  0
LINE
  5
AD8
330
A2B
100
AcDbEntity
  8
0
  6
Continuous
 62
     7
370
    15
100
AcDbLine
 10
1976.916883110642
 20
901.9781872796418
 30
0.0
 11
1980.016883110642
 21
901.9781872796418
 31
0.0
  0
LINE
  5
AD9
330
A2B
100
AcDbEntity
  8
0
  6
Continuous
 62
     7
370
    15
100
AcDbLine
 10
1976.916883110642
 20
901.9781872796418
 30
0.0
 11
1976.916883110642
 21
898.4047955854759
 31
0.0
  0
ARC
  5
ADA
330
A2B
100
AcDbEntity
  8
0
  6
Continuous
 62
     7
370
    15
100
AcDbCircle
 10
1976.416882595272
 20
898.4047921244949
 30
0.0
 40
0.5000005153882265
100
AcDbArc
 50
314.9996405476006
 51
0.000396598793963
  0
LINE
  5
ADB
330
A2B
100
AcDbEntity
  8
0
  6
Continuous
 62
     7
370
    15
100
AcDbLine
 10
1976.713333708699
 20
897.9941371607694
 30
0.0
 11
1976.770434132228
 21
898.0512361514096
 31
0.0
  0
ARC
  5
ADC
330
A2B
100
AcDbEntity
  8
0
  6
Continuous
 62
     7
370
    15
100
AcDbCircle
 10
1977.066882601479
 20
897.6405785559247
 30
0.0
 40
0.5000005066464439
100
AcDbArc
 50
134.9992130470644
 51
180.0
  0
LINE
  5
ADD
330
A2B
100
AcDbEntity
  8
0
  6
Continuous
 62
     7
370
    15
100
AcDbLine
 10
1976.566882094832
 20
897.6405785559247
 30
0.0
 11
1976.566882094832
 21
895.6262067581054
 31
0.0
  0
LINE
  5
ADE
330
A2B
100
AcDbEntity
  8
0
  6
Continuous
 62
     7
370
    15
100
AcDbLine
 10
1976.216886177379
 20
895.2762108406515
 30
0.0
 11
1976.5668846515
 21
895.6262093147726
 31
0.0
  0
LINE
  5
ADF
330
A2B
100
AcDbEntity
  8
0
  6
Continuous
 62
     7
370
    15
100
AcDbLine
 10
1976.216886177379
 20
895.2762108406515
 30
0.0
 11
1971.116880043905
 21
895.2762108406515
 31
0.0
  0
LINE
  5
AE0
330
A2B
100
AcDbEntity
  8
0
  6
Continuous
 62
     7
370
    15
100
AcDbLine
 10
1970.766881569784
 20
895.6262093147726
 30
0.0
 11
1971.116880043905
 21
895.2762108406515
 31
0.0
  0
LINE
  5
AE1
330
A2B
100
AcDbEntity
  8
0
  6
Continuous
 62
     7
370
    15
100
AcDbLine
 10
1970.766881569784
 20
895.6262093147726
 30
0.0
 11
1970.766882848118
 21
897.6405785559247
 31
0.0
  0
ARC
  5
AE2
330
A2B
100
AcDbEntity
  8
0
  6
Continuous
 62
     7
370
    15
100
AcDbCircle
 10
1970.266883619805
 20
897.6405785559247
 30
0.0
 40
0.500000506645391
100
AcDbArc
 50
0.0
 51
45.000786952931
  0
LINE
  5
AE3
330
A2B
100
AcDbEntity
  8
0
  6
Continuous
 62
     7
370
    15
100
AcDbLine
 10
1970.563332089056
 20
898.0512361514096
 30
0.0
 11
1970.620432512585
 21
897.9941371607694
 31
0.0
  0
ARC
  5
AE4
330
A2B
100
AcDbEntity
  8
0
  6
Continuous
 62
     7
370
    15
100
AcDbCircle
 10
1970.916883626012
 20
898.4047921244949
 30
0.0
 40
0.5000005153938787
100
AcDbArc
 50
180.0
 51
225.0003594523994
  0
LINE
  5
AE5
330
A2B
100
AcDbEntity
  8
0
  6
Continuous
 62
     7
370
    15
100
AcDbLine
 10
1970.416883110618
 20
898.4047921244949
 30
0.0
 11
1970.416883110642
 21
901.9781872796418
 31
0.0
  0
LINE
  5
AE6
330
A2B
100
AcDbEntity
  8
0
  6
Continuous
 62
     7
370
    15
100
AcDbLine
 10
1969.266885995507
 20
901.9781872796418
 30
0.0
 11
1970.416883110642
 21
901.9781872796418
 31
0.0
  0
LINE
  5
AE7
330
A2B
100
AcDbEntity
  8
0
  6
Continuous
 62
     7
370
    15
100
AcDbLine
 10
1969.266885995507
 20
901.9781872796418
 30
0.0
 11
1969.266885995507
 21
908.574804911554
 31
0.0
  0
LINE
  5
AE8
330
A2B
100
AcDbEntity
  8
0
  6
Continuous
 62
     7
370
    15
100
AcDbLine
 10
2064.466880225777
 20
908.574804911554
 30
0.0
 11
2064.466880225777
 21
901.9781872796418
 31
0.0
  0
LINE
  5
AE9
330
A2B
100
AcDbEntity
  8
0
  6
Continuous
 62
     7
370
    15
100
AcDbLine
 10
2042.028029752543
 20
880.1936666644275
 30
0.0
 11
2042.366855284691
 21
882.1152449735928
 31
0.0
  0
SPLINE
  5
AEA
330
A2B
100
AcDbEntity
  8
0
  6
Continuous
 62
     7
370
    15
100
AcDbSpline
210
0.0
220
0.0
230
1.0
 70
     8
 71
     3
 72
    10
 73
     6
 74
     0
 42
0.0000000001
 43
0.0000000001
 40
0.0
 40
0.0
 40
0.0
 40
0.0
 40
0.5
 40
0.5
 40
1.0
 40
1.0
 40
1.0
 40
1.0
 10
2042.028029752543
 20
880.1936666644275
 30
0.0
 10
2041.999742956707
 20
880.0332440039206
 30
0.0
 10
2041.913402350622
 20
879.8836976129987
 30
0.0
 10
2041.663829038034
 20
879.6742806773531
 30
0.0
 10
2041.501561720884
 20
879.6152201907162
 30
0.0
 10
2041.338664290508
 20
879.615220190716
 30
0.0
  0
LINE
  5
AEB
330
A2B
100
AcDbEntity
  8
0
  6
Continuous
 62
     7
370
    15
100
AcDbLine
 10
2040.39504019905
 20
879.615220190716
 30
0.0
 11
2041.338664290508
 21
879.615220190716
 31
0.0
  0
ARC
  5
AEC
330
A2B
100
AcDbEntity
  8
0
  6
Continuous
 62
     7
370
    15
100
AcDbCircle
 10
2040.39504019905
 20
880.315220190716
 30
0.0
 40
0.6999999999999386
100
AcDbArc
 50
189.9999835369507
 51
270.0
  0
LINE
  5
AED
330
A2B
100
AcDbEntity
  8
0
  6
Continuous
 62
     7
370
    15
100
AcDbLine
 10
2039.366849204867
 20
882.1152449735929
 30
0.0
 11
2039.705674737016
 21
880.1936666644275
 31
0.0
  0
LINE
  5
AEE
330
A2B
100
AcDbEntity
  8
0
  6
Continuous
 62
     7
370
    15
100
AcDbLine
 10
2039.366849204867
 20
887.8397007470082
 30
0.0
 11
2039.366849204867
 21
882.1152449735929
 31
0.0
  0
LINE
  5
AEF
330
A2B
100
AcDbEntity
  8
0
  6
Continuous
 62
     7
370
    15
100
AcDbLine
 10
2042.366860451897
 20
887.8396655471551
 30
0.0
 11
2039.366849204867
 21
887.8397007470082
 31
0.0
  0
LINE
  5
AF0
330
A2B
100
AcDbEntity
  8
0
  6
Continuous
 62
     7
370
    15
100
AcDbLine
 10
2042.366860451897
 20
887.8396655471551
 30
0.0
 11
2042.366864552145
 21
882.1152449735928
 31
0.0
  0
LINE
  5
AF1
330
A2B
100
AcDbEntity
  8
0
  6
Continuous
 62
     7
370
    15
100
AcDbLine
 10
1974.828029752544
 20
880.1936666644275
 30
0.0
 11
1975.166855284691
 21
882.1152449735928
 31
0.0
  0
SPLINE
  5
AF2
330
A2B
100
AcDbEntity
  8
0
  6
Continuous
 62
     7
370
    15
100
AcDbSpline
210
0.0
220
0.0
230
1.0
 70
     8
 71
     3
 72
    10
 73
     6
 74
     0
 42
0.0000000001
 43
0.0000000001
 40
0.0
 40
0.0
 40
0.0
 40
0.0
 40
0.5
 40
0.5
 40
1.0
 40
1.0
 40
1.0
 40
1.0
 10
1974.828029752544
 20
880.1936666644275
 30
0.0
 10
1974.799742956707
 20
880.0332440039206
 30
0.0
 10
1974.713402350622
 20
879.8836976129987
 30
0.0
 10
1974.463829038033
 20
879.6742806773531
 30
0.0
 10
1974.301561720883
 20
879.6152201907162
 30
0.0
 10
1974.138664290508
 20
879.615220190716
 30
0.0
  0
LINE
  5
AF3
330
A2B
100
AcDbEntity
  8
0
  6
Continuous
 62
     7
370
    15
100
AcDbLine
 10
1973.19504019905
 20
879.615220190716
 30
0.0
 11
1974.138664290508
 21
879.615220190716
 31
0.0
  0
ARC
  5
AF4
330
A2B
100
AcDbEntity
  8
0
  6
Continuous
 62
     7
370
    15
100
AcDbCircle
 10
1973.19504019905
 20
880.315220190716
 30
0.0
 40
0.6999999999999386
100
AcDbArc
 50
189.9999835369507
 51
270.0
  0
LINE
  5
AF5
330
A2B
100
AcDbEntity
  8
0
  6
Continuous
 62
     7
370
    15
100
AcDbLine
 10
1972.166849204868
 20
882.1152449735929
 30
0.0
 11
1972.505674737015
 21
880.1936666644275
 31
0.0
  0
LINE
  5
AF6
330
A2B
100
AcDbEntity
  8
0
  6
Continuous
 62
     7
370
    15
100
AcDbLine
 10
1972.166849204868
 20
887.8397007470082
 30
0.0
 11
1972.166849204868
 21
882.1152449735929
 31
0.0
  0
LINE
  5
AF7
330
A2B
100
AcDbEntity
  8
0
  6
Continuous
 62
     7
370
    15
100
AcDbLine
 10
1975.166860451897
 20
887.8396655471551
 30
0.0
 11
1972.166849204868
 21
887.8397007470082
 31
0.0
  0
LINE
  5
AF8
330
A2B
100
AcDbEntity
  8
0
  6
Continuous
 62
     7
370
    15
100
AcDbLine
 10
1975.166860451897
 20
887.8396655471551
 30
0.0
 11
1975.166864552145
 21
882.1152449735928
 31
0.0
  0
LINE
  5
AF9
330
A2B
100
AcDbEntity
  8
0
  6
Continuous
 62
     7
370
    15
100
AcDbLine
 10
2061.228029752544
 20
880.1936666644275
 30
0.0
 11
2061.566855284691
 21
882.1152449735928
 31
0.0
  0
SPLINE
  5
AFA
330
A2B
100
AcDbEntity
  8
0
  6
Continuous
 62
     7
370
    15
100
AcDbSpline
210
0.0
220
0.0
230
1.0
 70
     8
 71
     3
 72
    10
 73
     6
 74
     0
 42
0.0000000001
 43
0.0000000001
 40
0.0
 40
0.0
 40
0.0
 40
0.0
 40
0.5
 40
0.5
 40
1.0
 40
1.0
 40
1.0
 40
1.0
 10
2061.228029752544
 20
880.1936666644275
 30
0.0
 10
2061.199742956707
 20
880.0332440039206
 30
0.0
 10
2061.113402350622
 20
879.8836976129987
 30
0.0
 10
2060.863829038034
 20
879.6742806773531
 30
0.0
 10
2060.701561720884
 20
879.6152201907162
 30
0.0
 10
2060.538664290508
 20
879.615220190716
 30
0.0
  0
LINE
  5
AFB
330
A2B
100
AcDbEntity
  8
0
  6
Continuous
 62
     7
370
    15
100
AcDbLine
 10
2059.595040199051
 20
879.615220190716
 30
0.0
 11
2060.538664290508
 21
879.615220190716
 31
0.0
  0
SPLINE
  5
AFC
330
A2B
100
AcDbEntity
  8
0
  6
Continuous
 62
     7
370
    15
100
AcDbSpline
210
0.0
220
0.0
230
1.0
 70
     8
 71
     3
 72
    10
 73
     6
 74
     0
 42
0.0000000001
 43
0.0000000001
 40
0.0
 40
0.0
 40
0.0
 40
0.0
 40
0.5
 40
0.5
 40
1.0
 40
1.0
 40
1.0
 40
1.0
 10
2059.595040199051
 20
879.615220190716
 30
0.0
 10
2059.432142768676
 20
879.6152201907162
 30
0.0
 10
2059.269875451525
 20
879.6742806773533
 30
0.0
 10
2059.020302138937
 20
879.8836976129987
 30
0.0
 10
2058.933961532852
 20
880.0332440039206
 30
0.0
 10
2058.905674737015
 20
880.1936666644277
 30
0.0
  0
LINE
  5
AFD
330
A2B
100
AcDbEntity
  8
0
  6
Continuous
 62
     7
370
    15
100
AcDbLine
 10
2058.566849204868
 20
882.1152449735929
 30
0.0
 11
2058.905674737015
 21
880.1936666644277
 31
0.0
  0
LINE
  5
AFE
330
A2B
100
AcDbEntity
  8
0
  6
Continuous
 62
     7
370
    15
100
AcDbLine
 10
2058.566849204868
 20
887.8397007470082
 30
0.0
 11
2058.566849204868
 21
882.1152449735929
 31
0.0
  0
LINE
  5
AFF
330
A2B
100
AcDbEntity
  8
0
  6
Continuous
 62
     7
370
    15
100
AcDbLine
 10
2061.566860322968
 20
887.8396655471551
 30
0.0
 11
2058.566849204868
 21
887.8397007470082
 31
0.0
  0
LINE
  5
B00
330
A2B
100
AcDbEntity
  8
0
  6
Continuous
 62
     7
370
    15
100
AcDbLine
 10
2061.566860322968
 20
887.8396655471551
 30
0.0
 11
2061.566864423216
 21
882.1152449735942
 31
0.0
  0
LINE
  5
B01
330
A2B
100
AcDbEntity
  8
0
  6
Continuous
 62
     7
370
    15
100
AcDbLine
 10
2051.628029752544
 20
880.1936666644275
 30
0.0
 11
2051.966855284692
 21
882.1152449735928
 31
0.0
  0
SPLINE
  5
B02
330
A2B
100
AcDbEntity
  8
0
  6
Continuous
 62
     7
370
    15
100
AcDbSpline
210
0.0
220
0.0
230
1.0
 70
     8
 71
     3
 72
    10
 73
     6
 74
     0
 42
0.0000000001
 43
0.0000000001
 40
0.0
 40
0.0
 40
0.0
 40
0.0
 40
0.5
 40
0.5
 40
1.0
 40
1.0
 40
1.0
 40
1.0
 10
2051.628029752544
 20
880.1936666644275
 30
0.0
 10
2051.599742956708
 20
880.0332440039206
 30
0.0
 10
2051.513402350622
 20
879.8836976129987
 30
0.0
 10
2051.263829038034
 20
879.6742806773531
 30
0.0
 10
2051.101561720884
 20
879.6152201907162
 30
0.0
 10
2050.938664290509
 20
879.615220190716
 30
0.0
  0
LINE
  5
B03
330
A2B
100
AcDbEntity
  8
0
  6
Continuous
 62
     7
370
    15
100
AcDbLine
 10
2049.99504019905
 20
879.615220190716
 30
0.0
 11
2050.938664290509
 21
879.615220190716
 31
0.0
  0
ARC
  5
B04
330
A2B
100
AcDbEntity
  8
0
  6
Continuous
 62
     7
370
    15
100
AcDbCircle
 10
2049.99504019905
 20
880.315220190716
 30
0.0
 40
0.6999999999999386
100
AcDbArc
 50
189.9999835369507
 51
270.0
  0
LINE
  5
B05
330
A2B
100
AcDbEntity
  8
0
  6
Continuous
 62
     7
370
    15
100
AcDbLine
 10
2048.966849204868
 20
882.1152449735929
 30
0.0
 11
2049.305674737016
 21
880.1936666644275
 31
0.0
  0
LINE
  5
B06
330
A2B
100
AcDbEntity
  8
0
  6
Continuous
 62
     7
370
    15
100
AcDbLine
 10
2048.966849204868
 20
887.8397007470082
 30
0.0
 11
2048.966849204868
 21
882.1152449735929
 31
0.0
  0
LINE
  5
B07
330
A2B
100
AcDbEntity
  8
0
  6
Continuous
 62
     7
370
    15
100
AcDbLine
 10
2051.966860451898
 20
887.8396655471551
 30
0.0
 11
2048.966849204868
 21
887.8397007470082
 31
0.0
  0
LINE
  5
B08
330
A2B
100
AcDbEntity
  8
0
  6
Continuous
 62
     7
370
    15
100
AcDbLine
 10
2051.966860451898
 20
887.8396655471551
 30
0.0
 11
2051.966864552145
 21
882.1152449735928
 31
0.0
  0
LINE
  5
B09
330
A2B
100
AcDbEntity
  8
0
  6
Continuous
 62
     7
370
    15
100
AcDbLine
 10
1992.39504019905
 20
879.615220190716
 30
0.0
 11
1993.338664290508
 21
879.615220190716
 31
0.0
  0
ARC
  5
B0A
330
A2B
100
AcDbEntity
  8
0
  6
Continuous
 62
     7
370
    15
100
AcDbCircle
 10
1992.39504019905
 20
880.315220190716
 30
0.0
 40
0.6999999999999318
100
AcDbArc
 50
189.9999835369507
 51
270.0
  0
LINE
  5
B0B
330
A2B
100
AcDbEntity
  8
0
  6
Continuous
 62
     7
370
    15
100
AcDbLine
 10
1991.366849204867
 20
882.1152449735929
 30
0.0
 11
1991.705674737015
 21
880.1936666644275
 31
0.0
  0
LINE
  5
B0C
330
A2B
100
AcDbEntity
  8
0
  6
Continuous
 62
     7
370
    15
100
AcDbLine
 10
1991.366849204867
 20
887.8397007470082
 30
0.0
 11
1991.366849204867
 21
882.1152449735929
 31
0.0
  0
LINE
  5
B0D
330
A2B
100
AcDbEntity
  8
0
  6
Continuous
 62
     7
370
    15
100
AcDbLine
 10
1994.366860451897
 20
887.8396655471551
 30
0.0
 11
1991.366849204867
 21
887.8397007470082
 31
0.0
  0
LINE
  5
B0E
330
A2B
100
AcDbEntity
  8
0
  6
Continuous
 62
     7
370
    15
100
AcDbLine
 10
1994.366860451897
 20
887.8396655471551
 30
0.0
 11
1994.366864552145
 21
882.1152449735928
 31
0.0
  0
LINE
  5
B0F
330
A2B
100
AcDbEntity
  8
0
  6
Continuous
 62
     7
370
    15
100
AcDbLine
 10
1994.028029752543
 20
880.1936666644275
 30
0.0
 11
1994.366855284691
 21
882.1152449735928
 31
0.0
  0
SPLINE
  5
B10
330
A2B
100
AcDbEntity
  8
0
  6
Continuous
 62
     7
370
    15
100
AcDbSpline
210
0.0
220
0.0
230
1.0
 70
     8
 71
     3
 72
    10
 73
     6
 74
     0
 42
0.0000000001
 43
0.0000000001
 40
0.0
 40
0.0
 40
0.0
 40
0.0
 40
0.5
 40
0.5
 40
1.0
 40
1.0
 40
1.0
 40
1.0
 10
1994.028029752543
 20
880.1936666644275
 30
0.0
 10
1993.999742956707
 20
880.0332440039206
 30
0.0
 10
1993.913402350622
 20
879.8836976129987
 30
0.0
 10
1993.663829038034
 20
879.6742806773531
 30
0.0
 10
1993.501561720884
 20
879.6152201907162
 30
0.0
 10
1993.338664290508
 20
879.615220190716
 30
0.0
  0
LINE
  5
B11
330
A2B
100
AcDbEntity
  8
0
  6
Continuous
 62
     7
370
    15
100
AcDbLine
 10
1984.428029752544
 20
880.1936666644275
 30
0.0
 11
1984.766855284691
 21
882.1152449735928
 31
0.0
  0
LINE
  5
B12
330
A2B
100
AcDbEntity
  8
0
  6
Continuous
 62
     7
370
    15
100
AcDbLine
 10
1982.79504019905
 20
879.615220190716
 30
0.0
 11
1983.738664290508
 21
879.615220190716
 31
0.0
  0
ARC
  5
B13
330
A2B
100
AcDbEntity
  8
0
  6
Continuous
 62
     7
370
    15
100
AcDbCircle
 10
1982.79504019905
 20
880.315220190716
 30
0.0
 40
0.6999999999999386
100
AcDbArc
 50
189.9999835369507
 51
270.0
  0
LINE
  5
B14
330
A2B
100
AcDbEntity
  8
0
  6
Continuous
 62
     7
370
    15
100
AcDbLine
 10
1981.766849204868
 20
882.1152449735929
 30
0.0
 11
1982.105674737015
 21
880.1936666644275
 31
0.0
  0
LINE
  5
B15
330
A2B
100
AcDbEntity
  8
0
  6
Continuous
 62
     7
370
    15
100
AcDbLine
 10
1981.766849204868
 20
887.8397007470082
 30
0.0
 11
1981.766849204868
 21
882.1152449735929
 31
0.0
  0
LINE
  5
B16
330
A2B
100
AcDbEntity
  8
0
  6
Continuous
 62
     7
370
    15
100
AcDbLine
 10
1984.766860451897
 20
887.8396655471551
 30
0.0
 11
1981.766849204868
 21
887.8397007470082
 31
0.0
  0
LINE
  5
B17
330
A2B
100
AcDbEntity
  8
0
  6
Continuous
 62
     7
370
    15
100
AcDbLine
 10
1984.766860451897
 20
887.8396655471551
 30
0.0
 11
1984.766864552145
 21
882.1152449735928
 31
0.0
  0
SPLINE
  5
B18
330
A2B
100
AcDbEntity
  8
0
  6
Continuous
 62
     7
370
    15
100
AcDbSpline
210
0.0
220
0.0
230
1.0
 70
     8
 71
     3
 72
    10
 73
     6
 74
     0
 42
0.0000000001
 43
0.0000000001
 40
0.0
 40
0.0
 40
0.0
 40
0.0
 40
0.5
 40
0.5
 40
1.0
 40
1.0
 40
1.0
 40
1.0
 10
1984.428029752544
 20
880.1936666644275
 30
0.0
 10
1984.399742956707
 20
880.0332440039206
 30
0.0
 10
1984.313402350622
 20
879.8836976129987
 30
0.0
 10
1984.063829038033
 20
879.6742806773531
 30
0.0
 10
1983.901561720884
 20
879.6152201907162
 30
0.0
 10
1983.738664290508
 20
879.615220190716
 30
0.0
  0
LINE
  5
B19
330
A2B
100
AcDbEntity
  8
0
  6
Continuous
 62
     7
370
    15
100
AcDbLine
 10
2003.628029752544
 20
880.1936666644275
 30
0.0
 11
2003.966855284691
 21
882.1152449735928
 31
0.0
  0
SPLINE
  5
B1A
330
A2B
100
AcDbEntity
  8
0
  6
Continuous
 62
     7
370
    15
100
AcDbSpline
210
0.0
220
0.0
230
1.0
 70
     8
 71
     3
 72
    10
 73
     6
 74
     0
 42
0.0000000001
 43
0.0000000001
 40
0.0
 40
0.0
 40
0.0
 40
0.0
 40
0.5
 40
0.5
 40
1.0
 40
1.0
 40
1.0
 40
1.0
 10
2003.628029752544
 20
880.1936666644275
 30
0.0
 10
2003.599742956707
 20
880.0332440039206
 30
0.0
 10
2003.513402350622
 20
879.8836976129987
 30
0.0
 10
2003.263829038033
 20
879.6742806773531
 30
0.0
 10
2003.101561720884
 20
879.6152201907162
 30
0.0
 10
2002.938664290509
 20
879.615220190716
 30
0.0
  0
LINE
  5
B1B
330
A2B
100
AcDbEntity
  8
0
  6
Continuous
 62
     7
370
    15
100
AcDbLine
 10
2001.995040199051
 20
879.615220190716
 30
0.0
 11
2002.938664290509
 21
879.615220190716
 31
0.0
  0
ARC
  5
B1C
330
A2B
100
AcDbEntity
  8
0
  6
Continuous
 62
     7
370
    15
100
AcDbCircle
 10
2001.995040199051
 20
880.315220190716
 30
0.0
 40
0.6999999999999318
100
AcDbArc
 50
189.9999835369507
 51
270.0
  0
LINE
  5
B1D
330
A2B
100
AcDbEntity
  8
0
  6
Continuous
 62
     7
370
    15
100
AcDbLine
 10
2000.966849204868
 20
882.1152449735929
 30
0.0
 11
2001.305674737015
 21
880.1936666644275
 31
0.0
  0
LINE
  5
B1E
330
A2B
100
AcDbEntity
  8
0
  6
Continuous
 62
     7
370
    15
100
AcDbLine
 10
2000.966849204868
 20
887.8397007470082
 30
0.0
 11
2000.966849204868
 21
882.1152449735929
 31
0.0
  0
LINE
  5
B1F
330
A2B
100
AcDbEntity
  8
0
  6
Continuous
 62
     7
370
    15
100
AcDbLine
 10
2003.966860451897
 20
887.8396655471551
 30
0.0
 11
2000.966849204868
 21
887.8397007470082
 31
0.0
  0
LINE
  5
B20
330
A2B
100
AcDbEntity
  8
0
  6
Continuous
 62
     7
370
    15
100
AcDbLine
 10
2003.966860451897
 20
887.8396655471551
 30
0.0
 11
2003.966864552145
 21
882.1152449735928
 31
0.0
  0
LINE
  5
B21
330
A2B
100
AcDbEntity
  8
0
  6
Continuous
 62
     7
370
    15
100
AcDbLine
 10
2022.828029752544
 20
880.1936666644275
 30
0.0
 11
2023.166855284691
 21
882.1152449735928
 31
0.0
  0
LINE
  5
B22
330
A2B
100
AcDbEntity
  8
0
  6
Continuous
 62
     7
370
    15
100
AcDbLine
 10
2021.195040199051
 20
879.615220190716
 30
0.0
 11
2022.138664290508
 21
879.615220190716
 31
0.0
  0
ARC
  5
B23
330
A2B
100
AcDbEntity
  8
0
  6
Continuous
 62
     7
370
    15
100
AcDbCircle
 10
2021.195040199051
 20
880.315220190716
 30
0.0
 40
0.6999999999999318
100
AcDbArc
 50
189.9999835369507
 51
270.0
  0
LINE
  5
B24
330
A2B
100
AcDbEntity
  8
0
  6
Continuous
 62
     7
370
    15
100
AcDbLine
 10
2020.166849204868
 20
882.1152449735929
 30
0.0
 11
2020.505674737016
 21
880.1936666644275
 31
0.0
  0
LINE
  5
B25
330
A2B
100
AcDbEntity
  8
0
  6
Continuous
 62
     7
370
    15
100
AcDbLine
 10
2020.166849204868
 20
887.8397007470082
 30
0.0
 11
2020.166849204868
 21
882.1152449735929
 31
0.0
  0
LINE
  5
B26
330
A2B
100
AcDbEntity
  8
0
  6
Continuous
 62
     7
370
    15
100
AcDbLine
 10
2023.166860451897
 20
887.8396655471551
 30
0.0
 11
2020.166849204868
 21
887.8397007470082
 31
0.0
  0
LINE
  5
B27
330
A2B
100
AcDbEntity
  8
0
  6
Continuous
 62
     7
370
    15
100
AcDbLine
 10
2023.166860451897
 20
887.8396655471551
 30
0.0
 11
2023.166864552145
 21
882.1152449735928
 31
0.0
  0
SPLINE
  5
B28
330
A2B
100
AcDbEntity
  8
0
  6
Continuous
 62
     7
370
    15
100
AcDbSpline
210
0.0
220
0.0
230
1.0
 70
     8
 71
     3
 72
    10
 73
     6
 74
     0
 42
0.0000000001
 43
0.0000000001
 40
0.0
 40
0.0
 40
0.0
 40
0.0
 40
0.5
 40
0.5
 40
1.0
 40
1.0
 40
1.0
 40
1.0
 10
2022.828029752544
 20
880.1936666644275
 30
0.0
 10
2022.799742956708
 20
880.0332440039206
 30
0.0
 10
2022.713402350622
 20
879.8836976129987
 30
0.0
 10
2022.463829038034
 20
879.6742806773531
 30
0.0
 10
2022.301561720883
 20
879.6152201907162
 30
0.0
 10
2022.138664290508
 20
879.615220190716
 30
0.0
  0
LINE
  5
B29
330
A2B
100
AcDbEntity
  8
0
  6
Continuous
 62
     7
370
    15
100
AcDbLine
 10
2030.79504019905
 20
879.615220190716
 30
0.0
 11
2031.738664290509
 21
879.615220190716
 31
0.0
  0
ARC
  5
B2A
330
A2B
100
AcDbEntity
  8
0
  6
Continuous
 62
     7
370
    15
100
AcDbCircle
 10
2030.79504019905
 20
880.315220190716
 30
0.0
 40
0.6999999999999386
100
AcDbArc
 50
189.9999835369507
 51
270.0
  0
LINE
  5
B2B
330
A2B
100
AcDbEntity
  8
0
  6
Continuous
 62
     7
370
    15
100
AcDbLine
 10
2029.766849204868
 20
882.1152449735929
 30
0.0
 11
2030.105674737015
 21
880.1936666644275
 31
0.0
  0
LINE
  5
B2C
330
A2B
100
AcDbEntity
  8
0
  6
Continuous
 62
     7
370
    15
100
AcDbLine
 10
2029.766849204868
 20
887.8397007470082
 30
0.0
 11
2029.766849204868
 21
882.1152449735929
 31
0.0
  0
LINE
  5
B2D
330
A2B
100
AcDbEntity
  8
0
  6
Continuous
 62
     7
370
    15
100
AcDbLine
 10
2032.766860451897
 20
887.8396655471551
 30
0.0
 11
2029.766849204868
 21
887.8397007470082
 31
0.0
  0
LINE
  5
B2E
330
A2B
100
AcDbEntity
  8
0
  6
Continuous
 62
     7
370
    15
100
AcDbLine
 10
2032.766860451897
 20
887.8396655471551
 30
0.0
 11
2032.766864552145
 21
882.1152449735928
 31
0.0
  0
SPLINE
  5
B2F
330
A2B
100
AcDbEntity
  8
0
  6
Continuous
 62
     7
370
    15
100
AcDbSpline
210
0.0
220
0.0
230
1.0
 70
     8
 71
     3
 72
    10
 73
     6
 74
     0
 42
0.0000000001
 43
0.0000000001
 40
0.0
 40
0.0
 40
0.0
 40
0.0
 40
0.5
 40
0.5
 40
1.0
 40
1.0
 40
1.0
 40
1.0
 10
2032.428029752544
 20
880.1936666644275
 30
0.0
 10
2032.399742956707
 20
880.0332440039206
 30
0.0
 10
2032.313402350622
 20
879.8836976129987
 30
0.0
 10
2032.063829038033
 20
879.6742806773531
 30
0.0
 10
2031.901561720884
 20
879.6152201907162
 30
0.0
 10
2031.738664290509
 20
879.615220190716
 30
0.0
  0
LINE
  5
B30
330
A2B
100
AcDbEntity
  8
0
  6
Continuous
 62
     7
370
    15
100
AcDbLine
 10
2032.428029752544
 20
880.1936666644275
 30
0.0
 11
2032.766855284691
 21
882.1152449735928
 31
0.0
  0
LINE
  5
B31
330
A2B
100
AcDbEntity
  8
0
  6
Continuous
 62
     7
370
    15
100
AcDbLine
 10
2011.59504019905
 20
879.615220190716
 30
0.0
 11
2012.538664290508
 21
879.615220190716
 31
0.0
  0
ARC
  5
B32
330
A2B
100
AcDbEntity
  8
0
  6
Continuous
 62
     7
370
    15
100
AcDbCircle
 10
2011.59504019905
 20
880.315220190716
 30
0.0
 40
0.6999999999999318
100
AcDbArc
 50
189.9999835369507
 51
270.0
  0
LINE
  5
B33
330
A2B
100
AcDbEntity
  8
0
  6
Continuous
 62
     7
370
    15
100
AcDbLine
 10
2010.566849204868
 20
882.1152449735929
 30
0.0
 11
2010.905674737015
 21
880.1936666644275
 31
0.0
  0
LINE
  5
B34
330
A2B
100
AcDbEntity
  8
0
  6
Continuous
 62
     7
370
    15
100
AcDbLine
 10
2010.566849204868
 20
887.8397007470082
 30
0.0
 11
2010.566849204868
 21
882.1152449735929
 31
0.0
  0
LINE
  5
B35
330
A2B
100
AcDbEntity
  8
0
  6
Continuous
 62
     7
370
    15
100
AcDbLine
 10
2013.566860451897
 20
887.8396655471551
 30
0.0
 11
2010.566849204868
 21
887.8397007470082
 31
0.0
  0
LINE
  5
B36
330
A2B
100
AcDbEntity
  8
0
  6
Continuous
 62
     7
370
    15
100
AcDbLine
 10
2013.566860451897
 20
887.8396655471551
 30
0.0
 11
2013.566864552145
 21
882.1152449735928
 31
0.0
  0
SPLINE
  5
B37
330
A2B
100
AcDbEntity
  8
0
  6
Continuous
 62
     7
370
    15
100
AcDbSpline
210
0.0
220
0.0
230
1.0
 70
     8
 71
     3
 72
    10
 73
     6
 74
     0
 42
0.0000000001
 43
0.0000000001
 40
0.0
 40
0.0
 40
0.0
 40
0.0
 40
0.5
 40
0.5
 40
1.0
 40
1.0
 40
1.0
 40
1.0
 10
2013.228029752544
 20
880.1936666644275
 30
0.0
 10
2013.199742956707
 20
880.0332440039206
 30
0.0
 10
2013.113402350622
 20
879.8836976129987
 30
0.0
 10
2012.863829038034
 20
879.6742806773531
 30
0.0
 10
2012.701561720884
 20
879.6152201907162
 30
0.0
 10
2012.538664290508
 20
879.615220190716
 30
0.0
  0
LINE
  5
B38
330
A2B
100
AcDbEntity
  8
0
  6
Continuous
 62
     7
370
    15
100
AcDbLine
 10
2013.228029752544
 20
880.1936666644275
 30
0.0
 11
2013.566855284691
 21
882.1152449735928
 31
0.0
  0
LINE
  5
B39
330
A2B
100
AcDbEntity
  8
0
  6
Continuous
 62
     7
370
    15
100
AcDbLine
 10
2039.366849204867
 20
888.1397007470239
 30
0.0
 11
2039.366849204867
 21
887.8397007470082
 31
0.0
  0
LINE
  5
B3A
330
A2B
100
AcDbEntity
  8
0
  6
Continuous
 62
     7
370
    15
100
AcDbLine
 10
2042.366860237015
 20
888.1396655471707
 30
0.0
 11
2039.366849204867
 21
888.1397007470239
 31
0.0
  0
LWPOLYLINE
  5
B3B
330
A2B
100
AcDbEntity
  8
0
  6
Continuous
 62
     7
370
    15
100
AcDbPolyline
 90
        9
 70
   128
 43
0.0
 10
2042.366860451897
 20
887.8396655471551
 10
2042.366860352611
 20
887.8981926437523
 10
2042.366860058567
 20
887.9544705768505
 10
2042.366859581066
 20
888.0063366170423
 10
2042.366858938458
 20
888.0517975814909
 10
2042.366858155437
 20
888.0891064308281
 10
2042.366857262095
 20
888.1168294068972
 10
2042.366856292763
 20
888.1339011312755
 10
2042.366860237015
 20
888.1396655471707
  0
LINE
  5
B3C
330
A2B
100
AcDbEntity
  8
0
  6
Continuous
 62
     7
370
    15
100
AcDbLine
 10
1972.166849204868
 20
888.1397007470239
 30
0.0
 11
1972.166849204868
 21
887.8397007470082
 31
0.0
  0
LINE
  5
B3D
330
A2B
100
AcDbEntity
  8
0
  6
Continuous
 62
     7
370
    15
100
AcDbLine
 10
1975.166860237015
 20
888.1396655471707
 30
0.0
 11
1972.166849204868
 21
888.1397007470239
 31
0.0
  0
LWPOLYLINE
  5
B3E
330
A2B
100
AcDbEntity
  8
0
  6
Continuous
 62
     7
370
    15
100
AcDbPolyline
 90
        9
 70
   128
 43
0.0
 10
1975.166860451897
 20
887.8396655471551
 10
1975.166860352611
 20
887.8981926437523
 10
1975.166860058567
 20
887.9544705768505
 10
1975.166859581066
 20
888.0063366170423
 10
1975.166858938457
 20
888.0517975814909
 10
1975.166858155437
 20
888.0891064308281
 10
1975.166857262095
 20
888.1168294068972
 10
1975.166856292763
 20
888.1339011312755
 10
1975.166860237015
 20
888.1396655471707
  0
LINE
  5
B3F
330
A2B
100
AcDbEntity
  8
0
  6
Continuous
 62
     7
370
    15
100
AcDbLine
 10
2029.766849204868
 20
888.1397007470239
 30
0.0
 11
2029.766849204868
 21
887.8397007470082
 31
0.0
  0
LINE
  5
B40
330
A2B
100
AcDbEntity
  8
0
  6
Continuous
 62
     7
370
    15
100
AcDbLine
 10
2032.766860237015
 20
888.1396655471707
 30
0.0
 11
2029.766849204868
 21
888.1397007470239
 31
0.0
  0
LWPOLYLINE
  5
B41
330
A2B
100
AcDbEntity
  8
0
  6
Continuous
 62
     7
370
    15
100
AcDbPolyline
 90
        9
 70
   128
 43
0.0
 10
2032.766860451897
 20
887.8396655471551
 10
2032.766860352611
 20
887.8981926437523
 10
2032.766860058567
 20
887.9544705768505
 10
2032.766859581066
 20
888.0063366170423
 10
2032.766858938458
 20
888.0517975814909
 10
2032.766858155437
 20
888.0891064308281
 10
2032.766857262096
 20
888.1168294068972
 10
2032.766856292763
 20
888.1339011312755
 10
2032.766860237015
 20
888.1396655471707
  0
LINE
  5
B42
330
A2B
100
AcDbEntity
  8
0
  6
Continuous
 62
     7
370
    15
100
AcDbLine
 10
2000.966849204868
 20
888.1397007470239
 30
0.0
 11
2000.966849204868
 21
887.8397007470082
 31
0.0
  0
LINE
  5
B43
330
A2B
100
AcDbEntity
  8
0
  6
Continuous
 62
     7
370
    15
100
AcDbLine
 10
2003.966860237015
 20
888.1396655471707
 30
0.0
 11
2000.966849204868
 21
888.1397007470239
 31
0.0
  0
LWPOLYLINE
  5
B44
330
A2B
100
AcDbEntity
  8
0
  6
Continuous
 62
     7
370
    15
100
AcDbPolyline
 90
        9
 70
   128
 43
0.0
 10
2003.966860451897
 20
887.8396655471551
 10
2003.966860352611
 20
887.8981926437523
 10
2003.966860058567
 20
887.9544705768505
 10
2003.966859581066
 20
888.0063366170423
 10
2003.966858938458
 20
888.0517975814909
 10
2003.966858155437
 20
888.0891064308281
 10
2003.966857262096
 20
888.1168294068972
 10
2003.966856292763
 20
888.1339011312755
 10
2003.966860237015
 20
888.1396655471707
  0
LINE
  5
B45
330
A2B
100
AcDbEntity
  8
0
  6
Continuous
 62
     7
370
    15
100
AcDbLine
 10
2010.566849204868
 20
888.1397007470239
 30
0.0
 11
2010.566849204868
 21
887.8397007470082
 31
0.0
  0
LINE
  5
B46
330
A2B
100
AcDbEntity
  8
0
  6
Continuous
 62
     7
370
    15
100
AcDbLine
 10
2013.566860237015
 20
888.1396655471707
 30
0.0
 11
2010.566849204868
 21
888.1397007470239
 31
0.0
  0
LWPOLYLINE
  5
B47
330
A2B
100
AcDbEntity
  8
0
  6
Continuous
 62
     7
370
    15
100
AcDbPolyline
 90
        9
 70
   128
 43
0.0
 10
2013.566860451897
 20
887.8396655471551
 10
2013.566860352611
 20
887.8981926437523
 10
2013.566860058567
 20
887.9544705768505
 10
2013.566859581066
 20
888.0063366170423
 10
2013.566858938458
 20
888.0517975814909
 10
2013.566858155437
 20
888.0891064308281
 10
2013.566857262095
 20
888.1168294068972
 10
2013.566856292763
 20
888.1339011312755
 10
2013.566860237015
 20
888.1396655471707
  0
LINE
  5
B48
330
A2B
100
AcDbEntity
  8
0
  6
Continuous
 62
     7
370
    15
100
AcDbLine
 10
2048.966849204868
 20
888.1397007470239
 30
0.0
 11
2048.966849204868
 21
887.8397007470082
 31
0.0
  0
LINE
  5
B49
330
A2B
100
AcDbEntity
  8
0
  6
Continuous
 62
     7
370
    15
100
AcDbLine
 10
2051.966860237016
 20
888.1396655471707
 30
0.0
 11
2048.966849204868
 21
888.1397007470239
 31
0.0
  0
LWPOLYLINE
  5
B4A
330
A2B
100
AcDbEntity
  8
0
  6
Continuous
 62
     7
370
    15
100
AcDbPolyline
 90
        9
 70
   128
 43
0.0
 10
2051.966860451898
 20
887.8396655471551
 10
2051.966860352611
 20
887.8981926437523
 10
2051.966860058568
 20
887.9544705768505
 10
2051.966859581066
 20
888.0063366170423
 10
2051.966858938458
 20
888.0517975814909
 10
2051.966858155437
 20
888.0891064308281
 10
2051.966857262096
 20
888.1168294068972
 10
2051.966856292763
 20
888.1339011312755
 10
2051.966860237016
 20
888.1396655471707
  0
LINE
  5
B4B
330
A2B
100
AcDbEntity
  8
0
  6
Continuous
 62
     7
370
    15
100
AcDbLine
 10
1981.766849204868
 20
888.1397007470239
 30
0.0
 11
1981.766849204868
 21
887.8397007470082
 31
0.0
  0
LINE
  5
B4C
330
A2B
100
AcDbEntity
  8
0
  6
Continuous
 62
     7
370
    15
100
AcDbLine
 10
1984.766860237015
 20
888.1396655471707
 30
0.0
 11
1981.766849204868
 21
888.1397007470239
 31
0.0
  0
LWPOLYLINE
  5
B4D
330
A2B
100
AcDbEntity
  8
0
  6
Continuous
 62
     7
370
    15
100
AcDbPolyline
 90
        9
 70
   128
 43
0.0
 10
1984.766860451897
 20
887.8396655471551
 10
1984.766860352611
 20
887.8981926437523
 10
1984.766860058567
 20
887.9544705768505
 10
1984.766859581066
 20
888.0063366170423
 10
1984.766858938458
 20
888.0517975814909
 10
1984.766858155437
 20
888.0891064308281
 10
1984.766857262095
 20
888.1168294068972
 10
1984.766856292763
 20
888.1339011312755
 10
1984.766860237015
 20
888.1396655471707
  0
LINE
  5
B4E
330
A2B
100
AcDbEntity
  8
0
  6
Continuous
 62
     7
370
    15
100
AcDbLine
 10
2058.566849204868
 20
888.1397007470239
 30
0.0
 11
2058.566849204868
 21
887.8397007470082
 31
0.0
  0
LINE
  5
B4F
330
A2B
100
AcDbEntity
  8
0
  6
Continuous
 62
     7
370
    15
100
AcDbLine
 10
2061.566860108086
 20
888.1396655471654
 30
0.0
 11
2058.566849204868
 21
888.1397007470239
 31
0.0
  0
LWPOLYLINE
  5
B50
330
A2B
100
AcDbEntity
  8
0
  6
Continuous
 62
     7
370
    15
100
AcDbPolyline
 90
        9
 70
   128
 43
0.0
 10
2061.566860322968
 20
887.8396655471551
 10
2061.566860226159
 20
887.898192643752
 10
2061.566859939452
 20
887.9544705768498
 10
2061.566859473865
 20
888.0063366170414
 10
2061.566858847291
 20
888.0517975814896
 10
2061.566858083808
 20
888.0891064308263
 10
2061.566857212756
 20
888.1168294068947
 10
2061.566856267611
 20
888.1339011312723
 10
2061.566860108086
 20
888.1396655471654
  0
LINE
  5
B51
330
A2B
100
AcDbEntity
  8
0
  6
Continuous
 62
     7
370
    15
100
AcDbLine
 10
1991.366849204867
 20
888.1397007470239
 30
0.0
 11
1991.366849204867
 21
887.8397007470082
 31
0.0
  0
LINE
  5
B52
330
A2B
100
AcDbEntity
  8
0
  6
Continuous
 62
     7
370
    15
100
AcDbLine
 10
1994.366860237015
 20
888.1396655471707
 30
0.0
 11
1991.366849204867
 21
888.1397007470239
 31
0.0
  0
LWPOLYLINE
  5
B53
330
A2B
100
AcDbEntity
  8
0
  6
Continuous
 62
     7
370
    15
100
AcDbPolyline
 90
        9
 70
   128
 43
0.0
 10
1994.366860451897
 20
887.8396655471551
 10
1994.36686035261
 20
887.8981926437523
 10
1994.366860058567
 20
887.9544705768505
 10
1994.366859581066
 20
888.0063366170423
 10
1994.366858938457
 20
888.0517975814909
 10
1994.366858155437
 20
888.0891064308281
 10
1994.366857262095
 20
888.1168294068972
 10
1994.366856292763
 20
888.1339011312755
 10
1994.366860237015
 20
888.1396655471707
  0
LINE
  5
B54
330
A2B
100
AcDbEntity
  8
0
  6
Continuous
 62
     7
370
    15
100
AcDbLine
 10
2020.166849204868
 20
888.1397007470239
 30
0.0
 11
2020.166849204868
 21
887.8397007470082
 31
0.0
  0
LINE
  5
B55
330
A2B
100
AcDbEntity
  8
0
  6
Continuous
 62
     7
370
    15
100
AcDbLine
 10
2023.166860237016
 20
888.1396655471707
 30
0.0
 11
2020.166849204868
 21
888.1397007470239
 31
0.0
  0
LWPOLYLINE
  5
B56
330
A2B
100
AcDbEntity
  8
0
  6
Continuous
 62
     7
370
    15
100
AcDbPolyline
 90
        9
 70
   128
 43
0.0
 10
2023.166860451897
 20
887.8396655471551
 10
2023.166860352611
 20
887.8981926437523
 10
2023.166860058568
 20
887.9544705768505
 10
2023.166859581066
 20
888.0063366170423
 10
2023.166858938458
 20
888.0517975814909
 10
2023.166858155438
 20
888.0891064308281
 10
2023.166857262095
 20
888.1168294068972
 10
2023.166856292764
 20
888.1339011312755
 10
2023.166860237016
 20
888.1396655471707
  0
LWPOLYLINE
  5
B57
330
A2B
100
AcDbEntity
  8
0
  6
Continuous
 62
     7
370
    15
100
AcDbPolyline
 90
        9
 70
   128
 43
0.0
 10
2058.566854003796
 20
888.4397007469827
 10
2058.566854008569
 20
888.3811736503787
 10
2058.566854013159
 20
888.3248957172749
 10
2058.566854017389
 20
888.2730296770795
 10
2058.566854021096
 20
888.2275687126302
 10
2058.56685402414
 20
888.190259863296
 10
2058.566854026401
 20
888.1625368872342
 10
2058.566854027793
 20
888.145465162867
 10
2058.566851616565
 20
888.1397007469955
  0
LINE
  5
B58
330
A2B
100
AcDbEntity
  8
0
  6
Continuous
 62
     7
370
    15
100
AcDbLine
 10
2061.566860000646
 20
888.4396655471409
 30
0.0
 11
2058.566854003796
 21
888.4397007469827
 31
0.0
  0
LWPOLYLINE
  5
B59
330
A2B
100
AcDbEntity
  8
0
  6
Continuous
 62
     7
370
    15
100
AcDbPolyline
 90
        9
 70
   128
 43
0.0
 10
2061.566860000646
 20
888.4396655471409
 10
2061.566860040503
 20
888.3811384505364
 10
2061.566860074699
 20
888.3248605174317
 10
2061.566860101921
 20
888.2729944772357
 10
2061.566860121121
 20
888.2275335127857
 10
2061.566860131563
 20
888.190224663451
 10
2061.566860132845
 20
888.1625016873886
 10
2061.566860124918
 20
888.1454299630215
 10
2061.566857696389
 20
888.1396655471474
  0
LWPOLYLINE
  5
B5A
330
A2B
100
AcDbEntity
  8
0
  6
Continuous
 62
     7
370
    15
100
AcDbPolyline
 90
        9
 70
   128
 43
0.0
 10
2010.566854003795
 20
888.4397007469827
 10
2010.566854008569
 20
888.3811736503787
 10
2010.566854013159
 20
888.3248957172749
 10
2010.566854017389
 20
888.2730296770795
 10
2010.566854021096
 20
888.2275687126302
 10
2010.566854024139
 20
888.190259863296
 10
2010.566854026401
 20
888.1625368872342
 10
2010.566854027793
 20
888.145465162867
 10
2010.566851616565
 20
888.1397007469955
  0
LINE
  5
B5B
330
A2B
100
AcDbEntity
  8
0
  6
Continuous
 62
     7
370
    15
100
AcDbLine
 10
2013.566860000645
 20
888.4396655471409
 30
0.0
 11
2010.566854003795
 21
888.4397007469827
 31
0.0
  0
LWPOLYLINE
  5
B5C
330
A2B
100
AcDbEntity
  8
0
  6
Continuous
 62
     7
370
    15
100
AcDbPolyline
 90
        9
 70
   128
 43
0.0
 10
2013.566860000645
 20
888.4396655471409
 10
2013.566860040503
 20
888.3811384505364
 10
2013.566860074699
 20
888.3248605174319
 10
2013.566860101921
 20
888.2729944772359
 10
2013.566860121121
 20
888.2275335127861
 10
2013.566860131563
 20
888.1902246634513
 10
2013.566860132845
 20
888.162501687389
 10
2013.566860124918
 20
888.1454299630215
 10
2013.566860237015
 20
888.1396655471474
  0
LWPOLYLINE
  5
B5D
330
A2B
100
AcDbEntity
  8
0
  6
Continuous
 62
     7
370
    15
100
AcDbPolyline
 90
        9
 70
   128
 43
0.0
 10
2000.966854003796
 20
888.4397007469827
 10
2000.966854008569
 20
888.3811736503787
 10
2000.966854013159
 20
888.3248957172749
 10
2000.966854017389
 20
888.2730296770795
 10
2000.966854021096
 20
888.2275687126302
 10
2000.966854024139
 20
888.190259863296
 10
2000.966854026401
 20
888.1625368872342
 10
2000.966854027792
 20
888.145465162867
 10
2000.966851616565
 20
888.1397007469955
  0
LINE
  5
B5E
330
A2B
100
AcDbEntity
  8
0
  6
Continuous
 62
     7
370
    15
100
AcDbLine
 10
2003.966860000645
 20
888.4396655471409
 30
0.0
 11
2000.966854003796
 21
888.4397007469827
 31
0.0
  0
LWPOLYLINE
  5
B5F
330
A2B
100
AcDbEntity
  8
0
  6
Continuous
 62
     7
370
    15
100
AcDbPolyline
 90
        9
 70
   128
 43
0.0
 10
2003.966860000645
 20
888.4396655471409
 10
2003.966860040502
 20
888.3811384505364
 10
2003.966860074699
 20
888.3248605174319
 10
2003.96686010192
 20
888.2729944772359
 10
2003.966860121121
 20
888.2275335127861
 10
2003.966860131563
 20
888.1902246634513
 10
2003.966860132845
 20
888.162501687389
 10
2003.966860124918
 20
888.1454299630215
 10
2003.966860237015
 20
888.1396655471474
  0
LWPOLYLINE
  5
B60
330
A2B
100
AcDbEntity
  8
0
  6
Continuous
 62
     7
370
    15
100
AcDbPolyline
 90
        9
 70
   128
 43
0.0
 10
2048.966854003796
 20
888.4397007469827
 10
2048.966854008569
 20
888.3811736503787
 10
2048.966854013159
 20
888.3248957172749
 10
2048.966854017389
 20
888.2730296770795
 10
2048.966854021097
 20
888.2275687126302
 10
2048.966854024139
 20
888.190259863296
 10
2048.9668540264
 20
888.1625368872342
 10
2048.966854027792
 20
888.145465162867
 10
2048.966851616565
 20
888.1397007469955
  0
LINE
  5
B61
330
A2B
100
AcDbEntity
  8
0
  6
Continuous
 62
     7
370
    15
100
AcDbLine
 10
2051.966860000645
 20
888.4396655471409
 30
0.0
 11
2048.966854003796
 21
888.4397007469827
 31
0.0
  0
LWPOLYLINE
  5
B62
330
A2B
100
AcDbEntity
  8
0
  6
Continuous
 62
     7
370
    15
100
AcDbPolyline
 90
        9
 70
   128
 43
0.0
 10
2051.966860000645
 20
888.4396655471409
 10
2051.966860040502
 20
888.3811384505364
 10
2051.966860074699
 20
888.3248605174319
 10
2051.96686010192
 20
888.2729944772359
 10
2051.966860121121
 20
888.2275335127861
 10
2051.966860131563
 20
888.1902246634513
 10
2051.966860132846
 20
888.162501687389
 10
2051.966860124919
 20
888.1454299630215
 10
2051.966860237016
 20
888.1396655471474
  0
LWPOLYLINE
  5
B63
330
A2B
100
AcDbEntity
  8
0
  6
Continuous
 62
     7
370
    15
100
AcDbPolyline
 90
        9
 70
   128
 43
0.0
 10
2029.766854003796
 20
888.4397007469827
 10
2029.766854008569
 20
888.3811736503787
 10
2029.766854013159
 20
888.3248957172749
 10
2029.766854017389
 20
888.2730296770795
 10
2029.766854021096
 20
888.2275687126302
 10
2029.766854024139
 20
888.190259863296
 10
2029.7668540264
 20
888.1625368872342
 10
2029.766854027792
 20
888.145465162867
 10
2029.766851616565
 20
888.1397007469955
  0
LINE
  5
B64
330
A2B
100
AcDbEntity
  8
0
  6
Continuous
 62
     7
370
    15
100
AcDbLine
 10
2032.766860000645
 20
888.4396655471409
 30
0.0
 11
2029.766854003796
 21
888.4397007469827
 31
0.0
  0
LWPOLYLINE
  5
B65
330
A2B
100
AcDbEntity
  8
0
  6
Continuous
 62
     7
370
    15
100
AcDbPolyline
 90
        9
 70
   128
 43
0.0
 10
2032.766860000645
 20
888.4396655471409
 10
2032.766860040502
 20
888.3811384505364
 10
2032.766860074699
 20
888.3248605174319
 10
2032.76686010192
 20
888.2729944772359
 10
2032.766860121121
 20
888.2275335127861
 10
2032.766860131563
 20
888.1902246634513
 10
2032.766860132845
 20
888.162501687389
 10
2032.766860124918
 20
888.1454299630215
 10
2032.766860237015
 20
888.1396655471474
  0
LWPOLYLINE
  5
B66
330
A2B
100
AcDbEntity
  8
0
  6
Continuous
 62
     7
370
    15
100
AcDbPolyline
 90
        9
 70
   128
 43
0.0
 10
2020.166854003796
 20
888.4397007469827
 10
2020.166854008569
 20
888.3811736503787
 10
2020.166854013159
 20
888.3248957172749
 10
2020.166854017389
 20
888.2730296770795
 10
2020.166854021097
 20
888.2275687126302
 10
2020.166854024139
 20
888.190259863296
 10
2020.166854026401
 20
888.1625368872342
 10
2020.166854027793
 20
888.145465162867
 10
2020.166851616565
 20
888.1397007469955
  0
LINE
  5
B67
330
A2B
100
AcDbEntity
  8
0
  6
Continuous
 62
     7
370
    15
100
AcDbLine
 10
2023.166860000646
 20
888.4396655471409
 30
0.0
 11
2020.166854003796
 21
888.4397007469827
 31
0.0
  0
LWPOLYLINE
  5
B68
330
A2B
100
AcDbEntity
  8
0
  6
Continuous
 62
     7
370
    15
100
AcDbPolyline
 90
        9
 70
   128
 43
0.0
 10
2023.166860000646
 20
888.4396655471409
 10
2023.166860040502
 20
888.3811384505364
 10
2023.166860074699
 20
888.3248605174319
 10
2023.166860101921
 20
888.2729944772359
 10
2023.166860121121
 20
888.2275335127861
 10
2023.166860131563
 20
888.1902246634513
 10
2023.166860132845
 20
888.162501687389
 10
2023.166860124918
 20
888.1454299630215
 10
2023.166860237016
 20
888.1396655471474
  0
LWPOLYLINE
  5
B69
330
A2B
100
AcDbEntity
  8
0
  6
Continuous
 62
     7
370
    15
100
AcDbPolyline
 90
        9
 70
   128
 43
0.0
 10
1972.166854003796
 20
888.4397007469827
 10
1972.166854008569
 20
888.3811736503787
 10
1972.166854013159
 20
888.3248957172749
 10
1972.166854017389
 20
888.2730296770795
 10
1972.166854021097
 20
888.2275687126302
 10
1972.166854024139
 20
888.190259863296
 10
1972.1668540264
 20
888.1625368872342
 10
1972.166854027793
 20
888.145465162867
 10
1972.166851616565
 20
888.1397007469955
  0
LINE
  5
B6A
330
A2B
100
AcDbEntity
  8
0
  6
Continuous
 62
     7
370
    15
100
AcDbLine
 10
1975.166860000645
 20
888.4396655471409
 30
0.0
 11
1972.166854003796
 21
888.4397007469827
 31
0.0
  0
LWPOLYLINE
  5
B6B
330
A2B
100
AcDbEntity
  8
0
  6
Continuous
 62
     7
370
    15
100
AcDbPolyline
 90
        9
 70
   128
 43
0.0
 10
1975.166860000645
 20
888.4396655471409
 10
1975.166860040502
 20
888.3811384505364
 10
1975.166860074699
 20
888.3248605174319
 10
1975.16686010192
 20
888.2729944772359
 10
1975.166860121121
 20
888.2275335127861
 10
1975.166860131563
 20
888.1902246634513
 10
1975.166860132845
 20
888.162501687389
 10
1975.166860124918
 20
888.1454299630215
 10
1975.166860237015
 20
888.1396655471474
  0
LWPOLYLINE
  5
B6C
330
A2B
100
AcDbEntity
  8
0
  6
Continuous
 62
     7
370
    15
100
AcDbPolyline
 90
        9
 70
   128
 43
0.0
 10
1991.366854003795
 20
888.4397007469827
 10
1991.366854008569
 20
888.3811736503787
 10
1991.366854013159
 20
888.3248957172749
 10
1991.366854017388
 20
888.2730296770795
 10
1991.366854021096
 20
888.2275687126302
 10
1991.366854024139
 20
888.190259863296
 10
1991.3668540264
 20
888.1625368872342
 10
1991.366854027792
 20
888.145465162867
 10
1991.366851616565
 20
888.1397007469955
  0
LINE
  5
B6D
330
A2B
100
AcDbEntity
  8
0
  6
Continuous
 62
     7
370
    15
100
AcDbLine
 10
1994.366860000645
 20
888.4396655471409
 30
0.0
 11
1991.366854003795
 21
888.4397007469827
 31
0.0
  0
LWPOLYLINE
  5
B6E
330
A2B
100
AcDbEntity
  8
0
  6
Continuous
 62
     7
370
    15
100
AcDbPolyline
 90
        9
 70
   128
 43
0.0
 10
1994.366860000645
 20
888.4396655471409
 10
1994.366860040502
 20
888.3811384505364
 10
1994.366860074699
 20
888.3248605174319
 10
1994.36686010192
 20
888.2729944772359
 10
1994.366860121121
 20
888.2275335127861
 10
1994.366860131563
 20
888.1902246634513
 10
1994.366860132845
 20
888.162501687389
 10
1994.366860124918
 20
888.1454299630215
 10
1994.366860237015
 20
888.1396655471474
  0
LWPOLYLINE
  5
B6F
330
A2B
100
AcDbEntity
  8
0
  6
Continuous
 62
     7
370
    15
100
AcDbPolyline
 90
        9
 70
   128
 43
0.0
 10
2039.366854003795
 20
888.4397007469827
 10
2039.366854008569
 20
888.3811736503787
 10
2039.366854013159
 20
888.3248957172749
 10
2039.366854017389
 20
888.2730296770795
 10
2039.366854021096
 20
888.2275687126302
 10
2039.366854024139
 20
888.190259863296
 10
2039.3668540264
 20
888.1625368872342
 10
2039.366854027793
 20
888.145465162867
 10
2039.366851616565
 20
888.1397007469955
  0
LINE
  5
B70
330
A2B
100
AcDbEntity
  8
0
  6
Continuous
 62
     7
370
    15
100
AcDbLine
 10
2042.366860000646
 20
888.4396655471409
 30
0.0
 11
2039.366854003795
 21
888.4397007469827
 31
0.0
  0
LWPOLYLINE
  5
B71
330
A2B
100
AcDbEntity
  8
0
  6
Continuous
 62
     7
370
    15
100
AcDbPolyline
 90
        9
 70
   128
 43
0.0
 10
2042.366860000646
 20
888.4396655471409
 10
2042.366860040502
 20
888.3811384505364
 10
2042.366860074699
 20
888.3248605174319
 10
2042.366860101921
 20
888.2729944772359
 10
2042.366860121121
 20
888.2275335127861
 10
2042.366860131563
 20
888.1902246634513
 10
2042.366860132845
 20
888.162501687389
 10
2042.366860124918
 20
888.1454299630215
 10
2042.366860237015
 20
888.1396655471474
  0
LWPOLYLINE
  5
B72
330
A2B
100
AcDbEntity
  8
0
  6
Continuous
 62
     7
370
    15
100
AcDbPolyline
 90
        9
 70
   128
 43
0.0
 10
1981.766854003796
 20
888.4397007469827
 10
1981.766854008569
 20
888.3811736503787
 10
1981.766854013159
 20
888.3248957172749
 10
1981.766854017388
 20
888.2730296770795
 10
1981.766854021096
 20
888.2275687126302
 10
1981.766854024139
 20
888.190259863296
 10
1981.7668540264
 20
888.1625368872342
 10
1981.766854027793
 20
888.145465162867
 10
1981.766851616565
 20
888.1397007469955
  0
LINE
  5
B73
330
A2B
100
AcDbEntity
  8
0
  6
Continuous
 62
     7
370
    15
100
AcDbLine
 10
1984.766860000645
 20
888.4396655471409
 30
0.0
 11
1981.766854003796
 21
888.4397007469827
 31
0.0
  0
LWPOLYLINE
  5
B74
330
A2B
100
AcDbEntity
  8
0
  6
Continuous
 62
     7
370
    15
100
AcDbPolyline
 90
        9
 70
   128
 43
0.0
 10
1984.766860000645
 20
888.4396655471409
 10
1984.766860040502
 20
888.3811384505364
 10
1984.766860074699
 20
888.3248605174319
 10
1984.76686010192
 20
888.2729944772359
 10
1984.766860121121
 20
888.2275335127861
 10
1984.766860131563
 20
888.1902246634513
 10
1984.766860132845
 20
888.162501687389
 10
1984.766860124918
 20
888.1454299630215
 10
1984.766860237015
 20
888.1396655471474
  0
LINE
  5
B75
330
A2B
100
AcDbEntity
  8
0
  6
Continuous
 62
     7
370
    15
100
AcDbLine
 10
2000.966854003796
 20
888.4397007469827
 30
0.0
 11
2000.966854003796
 21
895.2762108406515
 31
0.0
  0
LINE
  5
B76
330
A2B
100
AcDbEntity
  8
0
  6
Continuous
 62
     7
370
    15
100
AcDbLine
 10
2003.966860108087
 20
895.2762108406515
 30
0.0
 11
2003.966860000645
 21
888.4396655471409
 31
0.0
  0
LINE
  5
B77
330
A2B
100
AcDbEntity
  8
0
  6
Continuous
 62
     7
370
    15
100
AcDbLine
 10
2020.166854003796
 20
888.4397007469827
 30
0.0
 11
2020.166854003796
 21
895.2762108406515
 31
0.0
  0
LINE
  5
B78
330
A2B
100
AcDbEntity
  8
0
  6
Continuous
 62
     7
370
    15
100
AcDbLine
 10
2023.166860108087
 20
895.2762108406515
 30
0.0
 11
2023.166860000646
 21
888.4396655471409
 31
0.0
  0
LINE
  5
B79
330
A2B
100
AcDbEntity
  8
0
  6
Continuous
 62
     7
370
    15
100
AcDbLine
 10
2039.366854003795
 20
888.4397007469827
 30
0.0
 11
2039.366854003795
 21
895.2762108406515
 31
0.0
  0
LINE
  5
B7A
330
A2B
100
AcDbEntity
  8
0
  6
Continuous
 62
     7
370
    15
100
AcDbLine
 10
2042.366860108087
 20
895.2762108406515
 30
0.0
 11
2042.366860000646
 21
888.4396655471409
 31
0.0
  0
LINE
  5
B7B
330
A2B
100
AcDbEntity
  8
0
  6
Continuous
 62
     7
370
    15
100
AcDbLine
 10
1991.366854003795
 20
888.4397007469827
 30
0.0
 11
1991.366854003795
 21
895.2762108406515
 31
0.0
  0
LINE
  5
B7C
330
A2B
100
AcDbEntity
  8
0
  6
Continuous
 62
     7
370
    15
100
AcDbLine
 10
1994.366860108086
 20
895.2762108406515
 30
0.0
 11
1994.366860000645
 21
888.4396655471409
 31
0.0
  0
LINE
  5
B7D
330
A2B
100
AcDbEntity
  8
0
  6
Continuous
 62
     7
370
    15
100
AcDbLine
 10
1972.166854003796
 20
888.4397007469827
 30
0.0
 11
1972.166854003796
 21
895.2762108406515
 31
0.0
  0
LINE
  5
B7E
330
A2B
100
AcDbEntity
  8
0
  6
Continuous
 62
     7
370
    15
100
AcDbLine
 10
1975.166860108086
 20
895.2762108406515
 30
0.0
 11
1975.166860000645
 21
888.4396655471409
 31
0.0
  0
LINE
  5
B7F
330
A2B
100
AcDbEntity
  8
0
  6
Continuous
 62
     7
370
    15
100
AcDbLine
 10
2010.566854003795
 20
888.4397007469827
 30
0.0
 11
2010.566854003795
 21
895.2762108406515
 31
0.0
  0
LINE
  5
B80
330
A2B
100
AcDbEntity
  8
0
  6
Continuous
 62
     7
370
    15
100
AcDbLine
 10
2013.566860108086
 20
895.2762108406515
 30
0.0
 11
2013.566860000645
 21
888.4396655471409
 31
0.0
  0
LINE
  5
B81
330
A2B
100
AcDbEntity
  8
0
  6
Continuous
 62
     7
370
    15
100
AcDbLine
 10
2029.766854003796
 20
888.4397007469827
 30
0.0
 11
2029.766854003796
 21
895.2762108406515
 31
0.0
  0
LINE
  5
B82
330
A2B
100
AcDbEntity
  8
0
  6
Continuous
 62
     7
370
    15
100
AcDbLine
 10
2032.766860108086
 20
895.2762108406515
 30
0.0
 11
2032.766860000645
 21
888.4396655471409
 31
0.0
  0
LINE
  5
B83
330
A2B
100
AcDbEntity
  8
0
  6
Continuous
 62
     7
370
    15
100
AcDbLine
 10
2048.966854003796
 20
888.4397007469827
 30
0.0
 11
2048.966854003796
 21
895.2762108406515
 31
0.0
  0
LINE
  5
B84
330
A2B
100
AcDbEntity
  8
0
  6
Continuous
 62
     7
370
    15
100
AcDbLine
 10
2051.966860108087
 20
895.2762108406515
 30
0.0
 11
2051.966860000645
 21
888.4396655471409
 31
0.0
  0
LINE
  5
B85
330
A2B
100
AcDbEntity
  8
0
  6
Continuous
 62
     7
370
    15
100
AcDbLine
 10
1981.766854003796
 20
888.4397007469827
 30
0.0
 11
1981.766854003796
 21
895.2762108406515
 31
0.0
  0
LINE
  5
B86
330
A2B
100
AcDbEntity
  8
0
  6
Continuous
 62
     7
370
    15
100
AcDbLine
 10
1984.766860108086
 20
895.2762108406515
 30
0.0
 11
1984.766860000645
 21
888.4396655471409
 31
0.0
  0
LINE
  5
B87
330
A2B
100
AcDbEntity
  8
0
  6
Continuous
 62
     7
370
    15
100
AcDbLine
 10
2058.566854003796
 20
888.4397007469827
 30
0.0
 11
2058.566854003796
 21
895.2762108406515
 31
0.0
  0
LINE
  5
B88
330
A2B
100
AcDbEntity
  8
0
  6
Continuous
 62
     7
370
    15
100
AcDbLine
 10
2061.566860108086
 20
895.2762108406515
 30
0.0
 11
2061.566860000646
 21
888.4396655471409
 31
0.0
  0
ENDBLK
  5
A2D
330
A2B
100
AcDbEntity
  8
0
100
AcDbBlockEnd
  0
BLOCK
  5
BCA
330
BC9
100
AcDbEntity
  8
0
100
AcDbBlockBegin
  2
2
 70
     0
 10
0.0
 20
0.0
 30
0.0
  3
2
  1

  0
LINE
  5
BCC
330
BC9
100
AcDbEntity
  8
0
  6
Continuous
 62
     7
370
    15
100
AcDbLine
 10
1948.8813048484
 20
901.9781872796418
 30
0.0
 11
1945.8813048484
 21
901.9781872796418
 31
0.0
  0
LINE
  5
BCD
330
BC9
100
AcDbEntity
  8
0
  6
Continuous
 62
     7
370
    15
100
AcDbLine
 10
1945.8813048484
 20
908.574804911554
 30
0.0
 11
1945.1313048484
 21
908.574804911554
 31
0.0
  0
LINE
  5
BCE
330
BC9
100
AcDbEntity
  8
0
  6
Continuous
 62
     7
370
    15
100
AcDbLine
 10
1945.1313048484
 20
908.574804911554
 30
0.0
 11
1945.1313048484
 21
909.7748049115541
 31
0.0
  0
LINE
  5
BCF
330
BC9
100
AcDbEntity
  8
0
  6
Continuous
 62
     7
370
    15
100
AcDbLine
 10
1945.1313048484
 20
909.7748049115541
 30
0.0
 11
1949.6313048484
 21
909.7748049115541
 31
0.0
  0
LINE
  5
BD0
330
BC9
100
AcDbEntity
  8
0
  6
Continuous
 62
     7
370
    15
100
AcDbLine
 10
1949.6313048484
 20
908.574804911554
 30
0.0
 11
1949.6313048484
 21
909.7748049115541
 31
0.0
  0
LINE
  5
BD1
330
BC9
100
AcDbEntity
  8
0
  6
Continuous
 62
     7
370
    15
100
AcDbLine
 10
1949.6313048484
 20
908.574804911554
 30
0.0
 11
1948.8813048484
 21
908.574804911554
 31
0.0
  0
LINE
  5
BD2
330
BC9
100
AcDbEntity
  8
0
  6
Continuous
 62
     7
370
    15
100
AcDbLine
 10
1945.8813048484
 20
908.574804911554
 30
0.0
 11
1945.8813048484
 21
901.9781872796418
 31
0.0
  0
LINE
  5
BD3
330
BC9
100
AcDbEntity
  8
0
  6
Continuous
 62
     7
370
    15
100
AcDbLine
 10
1948.8813048484
 20
908.574804911554
 30
0.0
 11
1948.8813048484
 21
901.9781872796418
 31
0.0
  0
LINE
  5
BD4
330
BC9
100
AcDbEntity
  8
0
  6
Continuous
 62
     7
370
    15
100
AcDbLine
 10
1948.8813048484
 20
898.424795585476
 30
0.0
 11
1945.8813048484
 21
898.424795585476
 31
0.0
  0
LINE
  5
BD5
330
BC9
100
AcDbEntity
  8
0
  6
Continuous
 62
     7
370
    15
100
AcDbLine
 10
1945.8813048484
 20
898.0712361514095
 30
0.0
 11
1948.8813048484
 21
898.0712361514095
 31
0.0
  0
LINE
  5
BD6
330
BC9
100
AcDbEntity
  8
0
  6
Continuous
 62
     7
370
    15
100
AcDbLine
 10
1945.8813048484
 20
898.424795585476
 30
0.0
 11
1945.8813048484
 21
898.0712361514095
 31
0.0
  0
LINE
  5
BD7
330
BC9
100
AcDbEntity
  8
0
  6
Continuous
 62
     7
370
    15
100
AcDbLine
 10
1948.8813048484
 20
898.424795585476
 30
0.0
 11
1948.8813048484
 21
898.0712361514095
 31
0.0
  0
LINE
  5
BD8
330
BC9
100
AcDbEntity
  8
0
  6
Continuous
 62
     7
370
    15
100
AcDbLine
 10
1945.8813048484
 20
901.9781872796418
 30
0.0
 11
1945.8813048484
 21
898.424795585476
 31
0.0
  0
LINE
  5
BD9
330
BC9
100
AcDbEntity
  8
0
  6
Continuous
 62
     7
370
    15
100
AcDbLine
 10
1948.8813048484
 20
901.9781872796418
 30
0.0
 11
1948.8813048484
 21
898.424795585476
 31
0.0
  0
LINE
  5
BDA
330
BC9
100
AcDbEntity
  8
0
  6
Continuous
 62
     7
370
    15
100
AcDbLine
 10
1945.8813048484
 20
898.0141371607695
 30
0.0
 11
1948.8813048484
 21
898.0141371607695
 31
0.0
  0
LINE
  5
BDB
330
BC9
100
AcDbEntity
  8
0
  6
Continuous
 62
     7
370
    15
100
AcDbLine
 10
1945.8813048484
 20
898.0141371607695
 30
0.0
 11
1945.8813048484
 21
898.0712361514095
 31
0.0
  0
LINE
  5
BDC
330
BC9
100
AcDbEntity
  8
0
  6
Continuous
 62
     7
370
    15
100
AcDbLine
 10
1948.8813048484
 20
898.0712361514095
 30
0.0
 11
1948.8813048484
 21
898.0141371607695
 31
0.0
  0
LINE
  5
BDD
330
BC9
100
AcDbEntity
  8
0
  6
Continuous
 62
     7
370
    15
100
AcDbLine
 10
1945.8813048484
 20
897.6605785559247
 30
0.0
 11
1948.8813048484
 21
897.6605782386206
 31
0.0
  0
LINE
  5
BDE
330
BC9
100
AcDbEntity
  8
0
  6
Continuous
 62
     7
370
    15
100
AcDbLine
 10
1945.8813048484
 20
897.6605785559247
 30
0.0
 11
1945.8813048484
 21
898.0141371607695
 31
0.0
  0
LINE
  5
BDF
330
BC9
100
AcDbEntity
  8
0
  6
Continuous
 62
     7
370
    15
100
AcDbLine
 10
1948.8813048484
 20
898.0141371607695
 30
0.0
 11
1948.8813048484
 21
897.6605782386206
 31
0.0
  0
LINE
  5
BE0
330
BC9
100
AcDbEntity
  8
0
  6
Continuous
 62
     7
370
    15
100
AcDbLine
 10
1948.8813048484
 20
895.2762108406515
 30
0.0
 11
1945.8813048484
 21
895.2762108406515
 31
0.0
  0
LINE
  5
BE1
330
BC9
100
AcDbEntity
  8
0
  6
Continuous
 62
     7
370
    15
100
AcDbLine
 10
1948.8813048484
 20
895.6462093147727
 30
0.0
 11
1945.8813048484
 21
895.6462093147727
 31
0.0
  0
LINE
  5
BE2
330
BC9
100
AcDbEntity
  8
0
  6
Continuous
 62
     7
370
    15
100
AcDbLine
 10
1945.8813048484
 20
895.2762108406515
 30
0.0
 11
1945.8813048484
 21
895.6462084625501
 31
0.0
  0
LINE
  5
BE3
330
BC9
100
AcDbEntity
  8
0
  6
Continuous
 62
     7
370
    15
100
AcDbLine
 10
1948.8813048484
 20
895.6462093147727
 30
0.0
 11
1948.8813048484
 21
895.2762108406515
 31
0.0
  0
LINE
  5
BE4
330
BC9
100
AcDbEntity
  8
0
  6
Continuous
 62
     7
370
    15
100
AcDbLine
 10
1945.8813048484
 20
897.6605785559247
 30
0.0
 11
1945.8813048484
 21
895.6462067581052
 31
0.0
  0
LINE
  5
BE5
330
BC9
100
AcDbEntity
  8
0
  6
Continuous
 62
     7
370
    15
100
AcDbLine
 10
1948.8813048484
 20
897.6605782386206
 30
0.0
 11
1948.8813048484
 21
895.6462093147727
 31
0.0
  0
LINE
  5
BE6
330
BC9
100
AcDbEntity
  8
0
  6
Continuous
 62
     7
370
    15
100
AcDbLine
 10
1948.72910352966
 20
882.1152449735929
 30
0.0
 11
1948.72910352966
 21
880.1936666644275
 31
0.0
  0
LINE
  5
BE7
330
BC9
100
AcDbEntity
  8
0
  6
Continuous
 62
     7
370
    15
100
AcDbLine
 10
1948.72910352966
 20
880.1936666644275
 30
0.0
 11
1946.033500063625
 21
880.1936666644275
 31
0.0
  0
LINE
  5
BE8
330
BC9
100
AcDbEntity
  8
0
  6
Continuous
 62
     7
370
    15
100
AcDbLine
 10
1946.033500063625
 20
880.1936666644275
 30
0.0
 11
1946.033500063625
 21
882.1152449735928
 31
0.0
  0
LINE
  5
BE9
330
BC9
100
AcDbEntity
  8
0
  6
Continuous
 62
     7
370
    15
100
AcDbLine
 10
1946.033500063625
 20
882.1152449735928
 30
0.0
 11
1948.72910352966
 21
882.1152449735928
 31
0.0
  0
LINE
  5
BEA
330
BC9
100
AcDbEntity
  8
0
  6
Continuous
 62
     7
370
    15
100
AcDbLine
 10
1948.381298744885
 20
888.1396655471808
 30
0.0
 11
1948.42910352966
 21
888.1396655471617
 31
0.0
  0
ARC
  5
BEB
330
BC9
100
AcDbEntity
  8
0
  6
Continuous
 62
     7
370
    15
100
AcDbCircle
 10
1948.42910352966
 20
887.8396655471551
 30
0.0
 40
0.3000000000474343
100
AcDbArc
 50
0.0009622400083525
 51
89.99999999996092
  0
LINE
  5
BEC
330
BC9
100
AcDbEntity
  8
0
  6
Continuous
 62
     7
370
    15
100
AcDbLine
 10
1946.033500063615
 20
887.8396655471551
 30
0.0
 11
1946.033500063625
 21
882.1152449735942
 31
0.0
  0
ARC
  5
BED
330
BC9
100
AcDbEntity
  8
0
  6
Continuous
 62
     7
370
    15
100
AcDbCircle
 10
1946.333500063625
 20
887.8396655471551
 30
0.0
 40
0.3000000000526071
100
AcDbArc
 50
90.00000000001303
 51
179.9990377599916
  0
LINE
  5
BEE
330
BC9
100
AcDbEntity
  8
0
  6
Continuous
 62
     7
370
    15
100
AcDbLine
 10
1946.333500063625
 20
888.1396655471654
 30
0.0
 11
1946.3813048484
 21
888.1396655471474
 31
0.0
  0
ARC
  5
BEF
330
BC9
100
AcDbEntity
  8
0
  6
Continuous
 62
     7
370
    15
100
AcDbCircle
 10
1946.3813048484
 20
888.4396655471423
 30
0.0
 40
0.3000000000029104
100
AcDbArc
 50
270.0
 51
359.9999794802508
  0
LINE
  5
BF0
330
BC9
100
AcDbEntity
  8
0
  6
Continuous
 62
     7
370
    15
100
AcDbLine
 10
1946.6813048484
 20
895.2762108406515
 30
0.0
 11
1946.6813048484
 21
888.4396655471409
 31
0.0
  0
LINE
  5
BF1
330
BC9
100
AcDbEntity
  8
0
  6
Continuous
 62
     7
370
    15
100
AcDbLine
 10
1948.08129874487
 20
888.4396655471693
 30
0.0
 11
1948.081298744885
 21
895.2762108406515
 31
0.0
  0
ARC
  5
BF2
330
BC9
100
AcDbEntity
  8
0
  6
Continuous
 62
     7
370
    15
100
AcDbCircle
 10
1948.381298744885
 20
888.4396655471965
 30
0.0
 40
0.3000000000542764
100
AcDbArc
 50
180.0008801611743
 51
269.999999999987
  0
LINE
  5
BF3
330
BC9
100
AcDbEntity
  8
0
  6
Continuous
 62
     7
370
    15
100
AcDbLine
 10
1948.72910352966
 20
882.1152449735929
 30
0.0
 11
1948.729103529665
 21
887.8396655471604
 31
0.0
  0
LINE
  5
BF4
330
BC9
100
AcDbEntity
  8
0
  6
Continuous
 62
     7
370
    15
100
AcDbLine
 10
1945.4813048484
 20
899.874804911554
 30
0.0
 11
1945.8813048484
 21
898.5748049115541
 31
0.0
  0
LINE
  5
BF5
330
BC9
100
AcDbEntity
  8
0
  6
Continuous
 62
     7
370
    15
100
AcDbLine
 10
1945.8813048484
 20
899.874804911554
 30
0.0
 11
1945.4813048484
 21
899.874804911554
 31
0.0
  0
LINE
  5
BF6
330
BC9
100
AcDbEntity
  8
0
  6
Continuous
 62
     7
370
    15
100
AcDbLine
 10
1948.8813048484
 20
898.5748049115541
 30
0.0
 11
1949.2813048484
 21
899.874804911554
 31
0.0
  0
LINE
  5
BF7
330
BC9
100
AcDbEntity
  8
0
  6
Continuous
 62
     7
370
    15
100
AcDbLine
 10
1949.2813048484
 20
899.874804911554
 30
0.0
 11
1948.8813048484
 21
899.874804911554
 31
0.0
  0
LINE
  5
BF8
330
BC9
100
AcDbEntity
  8
0
  6
Continuous
 62
     7
370
    15
100
AcDbLine
 10
1946.3813048484
 20
888.1396655471474
 30
0.0
 11
1946.381304848401
 21
888.1397007469955
 31
0.0
  0
ARC
  5
BF9
330
BC9
100
AcDbEntity
  8
0
  6
Continuous
 62
     7
370
    15
100
AcDbCircle
 10
1946.381304848401
 20
888.439700746988
 30
0.0
 40
0.3000000000021199
100
AcDbArc
 50
270.0
 51
359.9999999989839
  0
LINE
  5
BFA
330
BC9
100
AcDbEntity
  8
0
  6
Continuous
 62
     7
370
    15
100
AcDbLine
 10
1946.381304848401
 20
888.1397007469955
 30
0.0
 11
1946.333500063625
 21
888.1397007470239
 31
0.0
  0
LINE
  5
BFB
330
BC9
100
AcDbEntity
  8
0
  6
Continuous
 62
     7
370
    15
100
AcDbLine
 10
1946.333500063625
 20
888.1396655471654
 30
0.0
 11
1946.333500063625
 21
888.1397007470239
 31
0.0
  0
ARC
  5
BFC
330
BC9
100
AcDbEntity
  8
0
  6
Continuous
 62
     7
370
    15
100
AcDbCircle
 10
1948.381298744885
 20
888.439700746988
 30
0.0
 40
0.3000000000021199
100
AcDbArc
 50
179.9999480024674
 51
270.0
  0
LINE
  5
BFD
330
BC9
100
AcDbEntity
  8
0
  6
Continuous
 62
     7
370
    15
100
AcDbLine
 10
1948.381298744885
 20
888.1397007469955
 30
0.0
 11
1948.381298744885
 21
888.1396655471808
 31
0.0
  0
LINE
  5
BFE
330
BC9
100
AcDbEntity
  8
0
  6
Continuous
 62
     7
370
    15
100
AcDbLine
 10
1948.42910352966
 20
888.1397007470237
 30
0.0
 11
1948.42910352966
 21
888.1396655471617
 31
0.0
  0
ARC
  5
BFF
330
BC9
100
AcDbEntity
  8
0
  6
Continuous
 62
     7
370
    15
100
AcDbCircle
 10
1948.42910352966
 20
887.8397007470031
 30
0.0
 40
0.3000000000206171
100
AcDbArc
 50
0.0000000000195413
 51
90.0
  0
LINE
  5
C00
330
BC9
100
AcDbEntity
  8
0
  6
Continuous
 62
     7
370
    15
100
AcDbLine
 10
1948.72910352966
 20
887.8397007470033
 30
0.0
 11
1948.729103529665
 21
887.8396655471604
 31
0.0
  0
LINE
  5
C01
330
BC9
100
AcDbEntity
  8
0
  6
Continuous
 62
     7
370
    15
100
AcDbLine
 10
1948.42910352966
 20
888.1397007470237
 30
0.0
 11
1948.381298744885
 21
888.1397007469955
 31
0.0
  0
ARC
  5
C02
330
BC9
100
AcDbEntity
  8
0
  6
Continuous
 62
     7
370
    15
100
AcDbCircle
 10
1946.333500063625
 20
887.8397007470031
 30
0.0
 40
0.3000000000207308
100
AcDbArc
 50
90.00000000001303
 51
179.9999999990034
  0
LINE
  5
C03
330
BC9
100
AcDbEntity
  8
0
  6
Continuous
 62
     7
370
    15
100
AcDbLine
 10
1946.033500063615
 20
887.8396655471551
 30
0.0
 11
1946.033500063626
 21
887.8397007470082
 31
0.0
  0
LINE
  5
C04
330
BC9
100
AcDbEntity
  8
0
  6
Continuous
 62
     7
370
    15
100
AcDbLine
 10
1946.033500063626
 20
879.615220190716
 30
0.0
 11
1948.72910352966
 21
879.615220190716
 31
0.0
  0
SPLINE
  5
C05
330
BC9
100
AcDbEntity
  8
0
  6
Continuous
 62
     7
370
    15
100
AcDbSpline
210
0.0
220
0.0
230
1.0
 70
    24
 71
     3
 72
    10
 73
     6
 74
     0
 42
0.0000000001
 43
0.0000000001
 40
0.0
 40
0.0
 40
0.0
 40
0.0
 40
0.5
 40
0.5
 40
1.0
 40
1.0
 40
1.0
 40
1.0
 10
1946.033500063625
 20
880.1936666644275
 30
0.0
 10
1946.033500063625
 20
880.0332440039206
 30
0.0
 10
1946.033500063625
 20
879.8836976129987
 30
0.0
 10
1946.033500063625
 20
879.6742806773531
 30
0.0
 10
1946.033500063625
 20
879.6152201907162
 30
0.0
 10
1946.033500063625
 20
879.615220190716
 30
0.0
  0
SPLINE
  5
C06
330
BC9
100
AcDbEntity
  8
0
  6
Continuous
 62
     7
370
    15
100
AcDbSpline
210
0.0
220
0.0
230
1.0
 70
    24
 71
     3
 72
    10
 73
     6
 74
     0
 42
0.0000000001
 43
0.0000000001
 40
0.0
 40
0.0
 40
0.0
 40
0.0
 40
0.5
 40
0.5
 40
1.0
 40
1.0
 40
1.0
 40
1.0
 10
1948.72910352966
 20
879.615220190716
 30
0.0
 10
1948.72910352966
 20
879.615220190716
 30
0.0
 10
1948.72910352966
 20
879.6742806773535
 30
0.0
 10
1948.72910352966
 20
879.8836976129983
 30
0.0
 10
1948.72910352966
 20
880.0332440039206
 30
0.0
 10
1948.72910352966
 20
880.1936666644275
 30
0.0
  0
ENDBLK
  5
BCB
330
BC9
100
AcDbEntity
  8
0
100
AcDbBlockEnd
  0
BLOCK
  5
C09
330
C08
100
AcDbEntity
  8
0
100
AcDbBlockBegin
  2
3
 70
     0
 10
0.0
 20
0.0
 30
0.0
  3
3
  1

  0
LINE
  5
C0B
330
C08
100
AcDbEntity
  8
0
  6
Continuous
 62
     7
370
    15
100
AcDbLine
 10
1969.266885995507
 20
863.9663031649249
 30
0.0
 11
1969.266885995507
 21
859.4663031649249
 31
0.0
  0
LINE
  5
C0C
330
C08
100
AcDbEntity
  8
0
  6
Continuous
 62
     7
370
    15
100
AcDbLine
 10
2064.466880225777
 20
859.4663031649249
 30
0.0
 11
2064.466880225777
 21
863.9663031649249
 31
0.0
  0
LINE
  5
C0D
330
C08
100
AcDbEntity
  8
0
  6
Continuous
 62
     7
370
    15
100
AcDbLine
 10
2064.466880225777
 20
859.4663031649249
 30
0.0
 11
1969.266885995507
 21
859.4663031649249
 31
0.0
  0
LINE
  5
C0E
330
C08
100
AcDbEntity
  8
0
  6
Continuous
 62
     7
370
    15
100
AcDbLine
 10
1969.266885995507
 20
863.9663031649249
 30
0.0
 11
2064.466880225777
 21
863.9663031649249
 31
0.0
  0
ENDBLK
  5
C0A
330
C08
100
AcDbEntity
  8
0
100
AcDbBlockEnd
  0
BLOCK
  5
C11
330
C10
100
AcDbEntity
  8
0
100
AcDbBlockBegin
  2
4
 70
     0
 10
0.0
 20
0.0
 30
0.0
  3
4
  1

  0
LINE
  5
C13
330
C10
100
AcDbEntity
  8
0
  6
Continuous
 62
     7
370
    15
100
AcDbLine
 10
2160.532797567534
 20
865.8129639800099
 30
0.0
 11
2160.1368770143
 21
866.0415294147346
 31
0.0
  0
LINE
  5
C14
330
C10
100
AcDbEntity
  8
0
  6
Continuous
 62
     7
370
    15
100
AcDbLine
 10
2158.310024386704
 20
858.2436950781595
 30
0.0
 11
2160.219639410833
 21
859.3460923664029
 31
0.0
  0
LINE
  5
C15
330
C10
100
AcDbEntity
  8
0
  6
Continuous
 62
     7
370
    15
100
AcDbLine
 10
2153.744572468143
 20
869.7317229167589
 30
0.0
 11
2153.348651914919
 21
869.9602883514781
 31
0.0
  0
LINE
  5
C16
330
C10
100
AcDbEntity
  8
0
  6
Continuous
 62
     7
370
    15
100
AcDbLine
 10
2151.521799287313
 20
862.1624540149085
 30
0.0
 11
2153.431414311442
 21
863.264851303152
 31
0.0
  0
LINE
  5
C17
330
C10
100
AcDbEntity
  8
0
  6
Continuous
 62
     7
370
    15
100
AcDbLine
 10
2146.956347368752
 20
873.6504818535079
 30
0.0
 11
2146.560426815528
 21
873.8790472882271
 31
0.0
  0
LINE
  5
C18
330
C10
100
AcDbEntity
  8
0
  6
Continuous
 62
     7
370
    15
100
AcDbLine
 10
2144.733574187922
 20
866.0812129516575
 30
0.0
 11
2146.643189212051
 21
867.183610239901
 31
0.0
  0
LINE
  5
C19
330
C10
100
AcDbEntity
  8
0
  6
Continuous
 62
     7
370
    15
100
AcDbLine
 10
2140.168122269361
 20
877.5692407902569
 30
0.0
 11
2139.772201716137
 21
877.7978062249763
 31
0.0
  0
LINE
  5
C1A
330
C10
100
AcDbEntity
  8
0
  6
Continuous
 62
     7
370
    15
100
AcDbLine
 10
2137.945349088531
 20
869.9999718884065
 30
0.0
 11
2139.85496411266
 21
871.1023691766499
 31
0.0
  0
LINE
  5
C1B
330
C10
100
AcDbEntity
  8
0
  6
Continuous
 62
     7
370
    15
100
AcDbLine
 10
2133.379897169971
 20
881.4879997270059
 30
0.0
 11
2132.983976616747
 21
881.7165651617251
 31
0.0
  0
LINE
  5
C1C
330
C10
100
AcDbEntity
  8
0
  6
Continuous
 62
     7
370
    15
100
AcDbLine
 10
2131.15712398914
 20
873.9187308251555
 30
0.0
 11
2133.06673901327
 21
875.0211281133989
 31
0.0
  0
LINE
  5
C1D
330
C10
100
AcDbEntity
  8
0
  6
Continuous
 62
     7
370
    15
100
AcDbLine
 10
2126.59167207058
 20
885.4067586637549
 30
0.0
 11
2126.195751517355
 21
885.6353240984741
 31
0.0
  0
LINE
  5
C1E
330
C10
100
AcDbEntity
  8
0
  6
Continuous
 62
     7
370
    15
100
AcDbLine
 10
2124.36889888975
 20
877.8374897619045
 30
0.0
 11
2126.278513913879
 21
878.9398870501479
 31
0.0
  0
LINE
  5
C1F
330
C10
100
AcDbEntity
  8
0
  6
Continuous
 62
     7
370
    15
100
AcDbLine
 10
2119.803446971189
 20
889.3255176005039
 30
0.0
 11
2119.407526417965
 21
889.5540830352231
 31
0.0
  0
LINE
  5
C20
330
C10
100
AcDbEntity
  8
0
  6
Continuous
 62
     7
370
    15
100
AcDbLine
 10
2117.580673790358
 20
881.7562486986535
 30
0.0
 11
2119.490288814487
 21
882.858645986897
 31
0.0
  0
LINE
  5
C21
330
C10
100
AcDbEntity
  8
0
  6
Continuous
 62
     7
370
    15
100
AcDbLine
 10
2113.015221871798
 20
893.2442765372531
 30
0.0
 11
2112.619301318574
 21
893.4728419719721
 31
0.0
  0
LINE
  5
C22
330
C10
100
AcDbEntity
  8
0
  6
Continuous
 62
     7
370
    15
100
AcDbLine
 10
2110.792448690968
 20
885.6750076354027
 30
0.0
 11
2112.702063715097
 21
886.777404923646
 31
0.0
  0
LINE
  5
C23
330
C10
100
AcDbEntity
  8
0
  6
Continuous
 62
     7
370
    15
100
AcDbLine
 10
2106.226996772408
 20
897.1630354740019
 30
0.0
 11
2105.831076219184
 21
897.3916009087211
 31
0.0
  0
LINE
  5
C24
330
C10
100
AcDbEntity
  8
0
  6
Continuous
 62
     7
370
    15
100
AcDbLine
 10
2104.004223591577
 20
889.5937665721517
 30
0.0
 11
2105.913838615706
 21
890.696163860395
 31
0.0
  0
LINE
  5
C25
330
C10
100
AcDbEntity
  8
0
  6
Continuous
 62
     7
370
    15
100
AcDbLine
 10
2099.438771673017
 20
901.0817944107509
 30
0.0
 11
2099.042851119793
 21
901.3103598454701
 31
0.0
  0
LINE
  5
C26
330
C10
100
AcDbEntity
  8
0
  6
Continuous
 62
     7
370
    15
100
AcDbLine
 10
2097.215998492186
 20
893.5125255089005
 30
0.0
 11
2099.125613516315
 21
894.614922797144
 31
0.0
  0
LINE
  5
C27
330
C10
100
AcDbEntity
  8
0
  6
Continuous
 62
     7
370
    15
100
AcDbLine
 10
2160.101540368388
 20
879.9542606201223
 30
0.0
 11
2160.101540368388
 21
880.934109594385
 31
0.0
  0
LINE
  5
C28
330
C10
100
AcDbEntity
  8
0
  6
Continuous
 62
     7
370
    15
100
AcDbLine
 10
2160.101540368388
 20
879.9542606201223
 30
0.0
 11
2092.784978879244
 21
918.8152843876562
 31
0.0
  0
LINE
  5
C29
330
C10
100
AcDbEntity
  8
0
  6
Continuous
 62
     7
370
    15
100
AcDbLine
 10
2092.784978879244
 20
919.7951333619188
 30
0.0
 11
2092.784978879244
 21
918.8152843876562
 31
0.0
  0
LINE
  5
C2A
330
C10
100
AcDbEntity
  8
0
  6
Continuous
 62
     7
370
    15
100
AcDbLine
 10
2160.101540368388
 20
880.934109594385
 30
0.0
 11
2092.784978879244
 21
919.7951333619188
 31
0.0
  0
LINE
  5
C2B
330
C10
100
AcDbEntity
  8
0
  6
Continuous
 62
     7
370
    15
100
AcDbLine
 10
2162.753190797837
 20
881.4850258297896
 30
0.0
 11
2162.753190797837
 21
876.0986183129283
 31
0.0
  0
LINE
  5
C2C
330
C10
100
AcDbEntity
  8
0
  6
Continuous
 62
     7
370
    15
100
AcDbLine
 10
2162.753190797837
 20
876.0986183129283
 30
0.0
 11
2160.631870454278
 21
874.8740061451941
 31
0.0
  0
LINE
  5
C2D
330
C10
100
AcDbEntity
  8
0
  6
Continuous
 62
     7
370
    15
100
AcDbLine
 10
2160.631870454278
 20
880.2604136620557
 30
0.0
 11
2160.631870454278
 21
874.8740061451941
 31
0.0
  0
LINE
  5
C2E
330
C10
100
AcDbEntity
  8
0
  6
Continuous
 62
     7
370
    15
100
AcDbLine
 10
2160.631870454278
 20
880.2604136620557
 30
0.0
 11
2160.101540368388
 21
879.9542606201223
 31
0.0
  0
LINE
  5
C2F
330
C10
100
AcDbEntity
  8
0
  6
Continuous
 62
     7
370
    15
100
AcDbLine
 10
2160.101540368388
 20
880.934109594385
 30
0.0
 11
2163.283520883727
 21
882.7710278459861
 31
0.0
  0
LINE
  5
C30
330
C10
100
AcDbEntity
  8
0
  6
Continuous
 62
     7
370
    15
100
AcDbLine
 10
2163.283520883727
 20
881.7911788717234
 30
0.0
 11
2163.283520883727
 21
882.7710278459861
 31
0.0
  0
LINE
  5
C31
330
C10
100
AcDbEntity
  8
0
  6
Continuous
 62
     7
370
    15
100
AcDbLine
 10
2163.283520883727
 20
881.7911788717234
 30
0.0
 11
2162.753190797837
 21
881.4850258297896
 31
0.0
  0
LINE
  5
C32
330
C10
100
AcDbEntity
  8
0
  6
Continuous
 62
     7
370
    15
100
AcDbLine
 10
2095.966959394583
 20
921.6320516135199
 30
0.0
 11
2092.784978879244
 21
919.7951333619188
 31
0.0
  0
LINE
  5
C33
330
C10
100
AcDbEntity
  8
0
  6
Continuous
 62
     7
370
    15
100
AcDbLine
 10
2095.966959394583
 20
921.6320516135199
 30
0.0
 11
2163.283520883727
 21
882.7710278459861
 31
0.0
  0
LINE
  5
C34
330
C10
100
AcDbEntity
  8
0
  6
Continuous
 62
     7
370
    15
100
AcDbLine
 10
2097.487236934227
 20
908.5476265584686
 30
0.0
 11
2097.487236934227
 21
909.6091296139199
 31
0.0
  0
LINE
  5
C35
330
C10
100
AcDbEntity
  8
0
  6
Continuous
 62
     7
370
    15
100
AcDbLine
 10
2095.365916590667
 20
910.8337417816541
 30
0.0
 11
2097.487236934227
 21
909.6091296139199
 31
0.0
  0
LINE
  5
C36
330
C10
100
AcDbEntity
  8
0
  6
Continuous
 62
     7
370
    15
100
AcDbLine
 10
2095.365916590667
 20
909.7722387262026
 30
0.0
 11
2097.487236934227
 21
908.5476265584686
 31
0.0
  0
LINE
  5
C37
330
C10
100
AcDbEntity
  8
0
  6
Continuous
 62
     7
370
    15
100
AcDbLine
 10
2104.275462033618
 20
904.6288676217196
 30
0.0
 11
2104.275462033618
 21
905.6903706771709
 31
0.0
  0
LINE
  5
C38
330
C10
100
AcDbEntity
  8
0
  6
Continuous
 62
     7
370
    15
100
AcDbLine
 10
2102.154141690058
 20
906.9149828449051
 30
0.0
 11
2104.275462033618
 21
905.6903706771709
 31
0.0
  0
LINE
  5
C39
330
C10
100
AcDbEntity
  8
0
  6
Continuous
 62
     7
370
    15
100
AcDbLine
 10
2102.154141690058
 20
905.8534797894536
 30
0.0
 11
2104.275462033618
 21
904.6288676217196
 31
0.0
  0
LINE
  5
C3A
330
C10
100
AcDbEntity
  8
0
  6
Continuous
 62
     7
370
    15
100
AcDbLine
 10
2111.063687133008
 20
900.7101086849706
 30
0.0
 11
2111.063687133008
 21
901.7716117404219
 31
0.0
  0
LINE
  5
C3B
330
C10
100
AcDbEntity
  8
0
  6
Continuous
 62
     7
370
    15
100
AcDbLine
 10
2108.942366789449
 20
902.9962239081561
 30
0.0
 11
2111.063687133008
 21
901.7716117404219
 31
0.0
  0
LINE
  5
C3C
330
C10
100
AcDbEntity
  8
0
  6
Continuous
 62
     7
370
    15
100
AcDbLine
 10
2108.942366789449
 20
901.9347208527046
 30
0.0
 11
2111.063687133008
 21
900.7101086849706
 31
0.0
  0
LINE
  5
C3D
330
C10
100
AcDbEntity
  8
0
  6
Continuous
 62
     7
370
    15
100
AcDbLine
 10
2117.8519122324
 20
896.7913497482216
 30
0.0
 11
2117.8519122324
 21
897.8528528036731
 31
0.0
  0
LINE
  5
C3E
330
C10
100
AcDbEntity
  8
0
  6
Continuous
 62
     7
370
    15
100
AcDbLine
 10
2115.73059188884
 20
899.0774649714071
 30
0.0
 11
2117.8519122324
 21
897.8528528036731
 31
0.0
  0
LINE
  5
C3F
330
C10
100
AcDbEntity
  8
0
  6
Continuous
 62
     7
370
    15
100
AcDbLine
 10
2115.73059188884
 20
898.0159619159556
 30
0.0
 11
2117.8519122324
 21
896.7913497482216
 31
0.0
  0
LINE
  5
C40
330
C10
100
AcDbEntity
  8
0
  6
Continuous
 62
     7
370
    15
100
AcDbLine
 10
2124.640137331791
 20
892.8725908114724
 30
0.0
 11
2124.640137331791
 21
893.9340938669241
 31
0.0
  0
LINE
  5
C41
330
C10
100
AcDbEntity
  8
0
  6
Continuous
 62
     7
370
    15
100
AcDbLine
 10
2122.518816988231
 20
895.1587060346581
 30
0.0
 11
2124.640137331791
 21
893.9340938669241
 31
0.0
  0
LINE
  5
C42
330
C10
100
AcDbEntity
  8
0
  6
Continuous
 62
     7
370
    15
100
AcDbLine
 10
2122.518816988231
 20
894.0972029792064
 30
0.0
 11
2124.640137331791
 21
892.8725908114724
 31
0.0
  0
LINE
  5
C43
330
C10
100
AcDbEntity
  8
0
  6
Continuous
 62
     7
370
    15
100
AcDbLine
 10
2131.428362431181
 20
888.9538318747234
 30
0.0
 11
2131.428362431181
 21
890.0153349301749
 31
0.0
  0
LINE
  5
C44
330
C10
100
AcDbEntity
  8
0
  6
Continuous
 62
     7
370
    15
100
AcDbLine
 10
2129.307042087622
 20
891.2399470979089
 30
0.0
 11
2131.428362431181
 21
890.0153349301749
 31
0.0
  0
LINE
  5
C45
330
C10
100
AcDbEntity
  8
0
  6
Continuous
 62
     7
370
    15
100
AcDbLine
 10
2129.307042087622
 20
890.1784440424576
 30
0.0
 11
2131.428362431181
 21
888.9538318747234
 31
0.0
  0
LINE
  5
C46
330
C10
100
AcDbEntity
  8
0
  6
Continuous
 62
     7
370
    15
100
AcDbLine
 10
2138.216587530572
 20
885.0350729379744
 30
0.0
 11
2138.216587530572
 21
886.0965759934261
 31
0.0
  0
LINE
  5
C47
330
C10
100
AcDbEntity
  8
0
  6
Continuous
 62
     7
370
    15
100
AcDbLine
 10
2136.095267187013
 20
887.3211881611601
 30
0.0
 11
2138.216587530572
 21
886.0965759934261
 31
0.0
  0
LINE
  5
C48
330
C10
100
AcDbEntity
  8
0
  6
Continuous
 62
     7
370
    15
100
AcDbLine
 10
2136.095267187013
 20
886.2596851057086
 30
0.0
 11
2138.216587530572
 21
885.0350729379744
 31
0.0
  0
LINE
  5
C49
330
C10
100
AcDbEntity
  8
0
  6
Continuous
 62
     7
370
    15
100
AcDbLine
 10
2158.581262828745
 20
873.2787961277274
 30
0.0
 11
2158.581262828745
 21
874.3402991831789
 31
0.0
  0
LINE
  5
C4A
330
C10
100
AcDbEntity
  8
0
  6
Continuous
 62
     7
370
    15
100
AcDbLine
 10
2156.459942485185
 20
875.564911350913
 30
0.0
 11
2158.581262828745
 21
874.3402991831789
 31
0.0
  0
LINE
  5
C4B
330
C10
100
AcDbEntity
  8
0
  6
Continuous
 62
     7
370
    15
100
AcDbLine
 10
2156.459942485185
 20
874.5034082954614
 30
0.0
 11
2158.581262828745
 21
873.2787961277274
 31
0.0
  0
LINE
  5
C4C
330
C10
100
AcDbEntity
  8
0
  6
Continuous
 62
     7
370
    15
100
AcDbLine
 10
2151.793037729354
 20
877.1975550644766
 30
0.0
 11
2151.793037729354
 21
878.2590581199279
 31
0.0
  0
LINE
  5
C4D
330
C10
100
AcDbEntity
  8
0
  6
Continuous
 62
     7
370
    15
100
AcDbLine
 10
2149.671717385794
 20
879.4836702876621
 30
0.0
 11
2151.793037729354
 21
878.2590581199279
 31
0.0
  0
LINE
  5
C4E
330
C10
100
AcDbEntity
  8
0
  6
Continuous
 62
     7
370
    15
100
AcDbLine
 10
2149.671717385794
 20
878.4221672322106
 30
0.0
 11
2151.793037729354
 21
877.1975550644766
 31
0.0
  0
LINE
  5
C4F
330
C10
100
AcDbEntity
  8
0
  6
Continuous
 62
     7
370
    15
100
AcDbLine
 10
2145.004812629963
 20
881.1163140012254
 30
0.0
 11
2145.004812629963
 21
882.1778170566769
 31
0.0
  0
LINE
  5
C50
330
C10
100
AcDbEntity
  8
0
  6
Continuous
 62
     7
370
    15
100
AcDbLine
 10
2142.883492286403
 20
883.4024292244109
 30
0.0
 11
2145.004812629963
 21
882.1778170566769
 31
0.0
  0
LINE
  5
C51
330
C10
100
AcDbEntity
  8
0
  6
Continuous
 62
     7
370
    15
100
AcDbLine
 10
2142.883492286403
 20
882.3409261689596
 30
0.0
 11
2145.004812629963
 21
881.1163140012254
 31
0.0
  0
LINE
  5
C52
330
C10
100
AcDbEntity
  8
0
  6
Continuous
 62
     7
370
    15
100
AcDbLine
 10
2159.818699695821
 20
875.3434396318787
 30
0.0
 11
2160.631870454278
 21
874.8740061451941
 31
0.0
  0
LINE
  5
C53
330
C10
100
AcDbEntity
  8
0
  6
Continuous
 62
     7
370
    15
100
AcDbLine
 10
2159.818699695821
 20
875.3434396318787
 30
0.0
 11
2159.818699695821
 21
872.4419502929766
 31
0.0
  0
ARC
  5
C54
330
C10
100
AcDbEntity
  8
0
  6
Continuous
 62
     7
370
    15
100
AcDbCircle
 10
2159.568369534104
 20
872.4173130493882
 30
0.0
 40
0.2515396263743492
100
AcDbArc
 50
305.697575969572
 51
5.620891283951313
  0
LINE
  5
C55
330
C10
100
AcDbEntity
  8
0
  6
Continuous
 62
     7
370
    15
100
AcDbLine
 10
2159.674768533401
 20
872.1897206209103
 30
0.0
 11
2159.715144630087
 21
872.2130356526065
 31
0.0
  0
ARC
  5
C56
330
C10
100
AcDbEntity
  8
0
  6
Continuous
 62
     7
370
    15
100
AcDbCircle
 10
2159.821539280629
 20
871.9854433421863
 30
0.0
 40
0.2515369929949169
100
AcDbArc
 50
125.6967872101506
 51
185.620576132448
  0
LINE
  5
C57
330
C10
100
AcDbEntity
  8
0
  6
Continuous
 62
     7
370
    15
100
AcDbLine
 10
2159.57121160412
 20
871.9608077334362
 30
0.0
 11
2159.57121160412
 21
870.3159909502048
 31
0.0
  0
LINE
  5
C58
330
C10
100
AcDbEntity
  8
0
  6
Continuous
 62
     7
370
    15
100
AcDbLine
 10
2159.309584981877
 20
870.1649080175481
 30
0.0
 11
2159.571212809344
 21
870.3159916461926
 31
0.0
  0
LINE
  5
C59
330
C10
100
AcDbEntity
  8
0
  6
Continuous
 62
     7
370
    15
100
AcDbLine
 10
2159.309584981877
 20
870.1649080175481
 30
0.0
 11
2155.731620332053
 21
872.2304230441686
 31
0.0
  0
LINE
  5
C5A
330
C10
100
AcDbEntity
  8
0
  6
Continuous
 62
     7
370
    15
100
AcDbLine
 10
2155.469991901973
 20
872.6835767764411
 30
0.0
 11
2155.731620332053
 21
872.2304230441684
 31
0.0
  0
LINE
  5
C5B
330
C10
100
AcDbEntity
  8
0
  6
Continuous
 62
     7
370
    15
100
AcDbLine
 10
2155.469991901973
 20
872.6835767764411
 30
0.0
 11
2155.469992805891
 21
874.3283909502281
 31
0.0
  0
ARC
  5
C5C
330
C10
100
AcDbEntity
  8
0
  6
Continuous
 62
     7
370
    15
100
AcDbCircle
 10
2154.749023448164
 20
874.3037671837482
 30
0.0
 40
0.7213897314612427
100
AcDbArc
 50
1.956102148549575
 51
31.14440153452759
  0
LINE
  5
C5D
330
C10
100
AcDbEntity
  8
0
  6
Continuous
 62
     7
370
    15
100
AcDbLine
 10
2155.326060683842
 20
874.7467998820852
 30
0.0
 11
2155.366436780528
 21
874.6768676014312
 31
0.0
  0
ARC
  5
C5E
330
C10
100
AcDbEntity
  8
0
  6
Continuous
 62
     7
370
    15
100
AcDbCircle
 10
2155.943490351489
 20
875.1199033597124
 30
0.0
 40
0.7214052948986533
100
AcDbArc
 50
181.956517898628
 51
211.1439385293773
  0
LINE
  5
C5F
330
C10
100
AcDbEntity
  8
0
  6
Continuous
 62
     7
370
    15
100
AcDbLine
 10
2155.222505618092
 20
875.0952738303778
 30
0.0
 11
2155.222505618109
 21
877.9967659953024
 31
0.0
  0
LINE
  5
C60
330
C10
100
AcDbEntity
  8
0
  6
Continuous
 62
     7
370
    15
100
AcDbLine
 10
2155.222505618109
 20
877.9967659953024
 30
0.0
 11
2153.03047459643
 21
879.2621985686277
 31
0.0
  0
LINE
  5
C61
330
C10
100
AcDbEntity
  8
0
  6
Continuous
 62
     7
370
    15
100
AcDbLine
 10
2153.03047459643
 20
879.2621985686277
 30
0.0
 11
2153.03047459643
 21
876.3443784134876
 31
0.0
  0
ARC
  5
C62
330
C10
100
AcDbEntity
  8
0
  6
Continuous
 62
     7
370
    15
100
AcDbCircle
 10
2152.780144434714
 20
876.3197411698994
 30
0.0
 40
0.2515396263738618
100
AcDbArc
 50
305.6975759694274
 51
5.620891283944831
  0
LINE
  5
C63
330
C10
100
AcDbEntity
  8
0
  6
Continuous
 62
     7
370
    15
100
AcDbLine
 10
2152.88654343401
 20
876.0921487414213
 30
0.0
 11
2152.926919530695
 21
876.1154637731177
 31
0.0
  0
ARC
  5
C64
330
C10
100
AcDbEntity
  8
0
  6
Continuous
 62
     7
370
    15
100
AcDbCircle
 10
2153.033314181238
 20
875.8878714626977
 30
0.0
 40
0.2515369929941209
100
AcDbArc
 50
125.6967872099878
 51
185.6205761324933
  0
LINE
  5
C65
330
C10
100
AcDbEntity
  8
0
  6
Continuous
 62
     7
370
    15
100
AcDbLine
 10
2152.782986504729
 20
875.8632358539475
 30
0.0
 11
2152.782986504729
 21
874.2184190707163
 31
0.0
  0
LINE
  5
C66
330
C10
100
AcDbEntity
  8
0
  6
Continuous
 62
     7
370
    15
100
AcDbLine
 10
2152.53550201811
 20
874.075502873179
 30
0.0
 11
2152.782988312566
 21
874.2184201146976
 31
0.0
  0
LINE
  5
C67
330
C10
100
AcDbEntity
  8
0
  6
Continuous
 62
     7
370
    15
100
AcDbLine
 10
2152.53550201811
 20
874.075502873179
 30
0.0
 11
2148.929253097038
 21
876.1573460620359
 31
0.0
  0
LINE
  5
C68
330
C10
100
AcDbEntity
  8
0
  6
Continuous
 62
     7
370
    15
100
AcDbLine
 10
2148.681766802582
 20
876.5860048969525
 30
0.0
 11
2148.929253097038
 21
876.1573460620359
 31
0.0
  0
LINE
  5
C69
330
C10
100
AcDbEntity
  8
0
  6
Continuous
 62
     7
370
    15
100
AcDbLine
 10
2148.681766802582
 20
876.5860048969525
 30
0.0
 11
2148.6817677065
 21
878.2308190707395
 31
0.0
  0
ARC
  5
C6A
330
C10
100
AcDbEntity
  8
0
  6
Continuous
 62
     7
370
    15
100
AcDbCircle
 10
2147.960798348773
 20
878.2061953042594
 30
0.0
 40
0.7213897314610232
100
AcDbArc
 50
1.956102148549575
 51
31.14440153452202
  0
LINE
  5
C6B
330
C10
100
AcDbEntity
  8
0
  6
Continuous
 62
     7
370
    15
100
AcDbLine
 10
2148.537835584452
 20
878.6492280025964
 30
0.0
 11
2148.578211681138
 21
878.5792957219424
 31
0.0
  0
ARC
  5
C6C
330
C10
100
AcDbEntity
  8
0
  6
Continuous
 62
     7
370
    15
100
AcDbCircle
 10
2149.155265252099
 20
879.022331480224
 30
0.0
 40
0.7214052948988252
100
AcDbArc
 50
181.9565178986476
 51
211.1439385294064
  0
LINE
  5
C6D
330
C10
100
AcDbEntity
  8
0
  6
Continuous
 62
     7
370
    15
100
AcDbLine
 10
2148.434280518701
 20
878.997701950889
 30
0.0
 11
2148.434280518717
 21
881.9155249320514
 31
0.0
  0
LINE
  5
C6E
330
C10
100
AcDbEntity
  8
0
  6
Continuous
 62
     7
370
    15
100
AcDbLine
 10
2148.434280518717
 20
881.9155249320514
 30
0.0
 11
2146.242249497039
 21
883.1809575053767
 31
0.0
  0
LINE
  5
C6F
330
C10
100
AcDbEntity
  8
0
  6
Continuous
 62
     7
370
    15
100
AcDbLine
 10
2146.242249497039
 20
883.1809575053767
 30
0.0
 11
2146.242249497039
 21
880.2631373502368
 31
0.0
  0
ARC
  5
C70
330
C10
100
AcDbEntity
  8
0
  6
Continuous
 62
     7
370
    15
100
AcDbCircle
 10
2145.991919335324
 20
880.2385001066484
 30
0.0
 40
0.2515396263739944
100
AcDbArc
 50
305.6975759694743
 51
5.620891283938348
  0
LINE
  5
C71
330
C10
100
AcDbEntity
  8
0
  6
Continuous
 62
     7
370
    15
100
AcDbLine
 10
2146.098318334619
 20
880.0109076781705
 30
0.0
 11
2146.138694431305
 21
880.0342227098667
 31
0.0
  0
ARC
  5
C72
330
C10
100
AcDbEntity
  8
0
  6
Continuous
 62
     7
370
    15
100
AcDbCircle
 10
2146.245089081846
 20
879.806630399447
 30
0.0
 40
0.2515369929934754
100
AcDbArc
 50
125.6967872099121
 51
185.6205761325854
  0
LINE
  5
C73
330
C10
100
AcDbEntity
  8
0
  6
Continuous
 62
     7
370
    15
100
AcDbLine
 10
2145.994761405338
 20
879.7819947906965
 30
0.0
 11
2145.994761405338
 21
878.1371780074653
 31
0.0
  0
LINE
  5
C74
330
C10
100
AcDbEntity
  8
0
  6
Continuous
 62
     7
370
    15
100
AcDbLine
 10
2145.74727691872
 20
877.994261809928
 30
0.0
 11
2145.994763213176
 21
878.1371790514466
 31
0.0
  0
LINE
  5
C75
330
C10
100
AcDbEntity
  8
0
  6
Continuous
 62
     7
370
    15
100
AcDbLine
 10
2145.74727691872
 20
877.994261809928
 30
0.0
 11
2142.141027997647
 21
880.0761049987849
 31
0.0
  0
LINE
  5
C76
330
C10
100
AcDbEntity
  8
0
  6
Continuous
 62
     7
370
    15
100
AcDbLine
 10
2141.893541703191
 20
880.5047638337013
 30
0.0
 11
2142.141027997647
 21
880.0761049987849
 31
0.0
  0
LINE
  5
C77
330
C10
100
AcDbEntity
  8
0
  6
Continuous
 62
     7
370
    15
100
AcDbLine
 10
2141.893541703191
 20
880.5047638337013
 30
0.0
 11
2141.893542607109
 21
882.1495780074885
 31
0.0
  0
ARC
  5
C78
330
C10
100
AcDbEntity
  8
0
  6
Continuous
 62
     7
370
    15
100
AcDbCircle
 10
2141.172573249383
 20
882.1249542410088
 30
0.0
 40
0.7213897314600978
100
AcDbArc
 50
1.956102148530046
 51
31.14440153454548
  0
LINE
  5
C79
330
C10
100
AcDbEntity
  8
0
  6
Continuous
 62
     7
370
    15
100
AcDbLine
 10
2141.749610485061
 20
882.5679869393454
 30
0.0
 11
2141.789986581747
 21
882.4980546586914
 31
0.0
  0
ARC
  5
C7A
330
C10
100
AcDbEntity
  8
0
  6
Continuous
 62
     7
370
    15
100
AcDbCircle
 10
2142.367040152708
 20
882.9410904169728
 30
0.0
 40
0.7214052948989291
100
AcDbArc
 50
181.956517898628
 51
211.1439385293829
  0
LINE
  5
C7B
330
C10
100
AcDbEntity
  8
0
  6
Continuous
 62
     7
370
    15
100
AcDbLine
 10
2141.64605541931
 20
882.916460887638
 30
0.0
 11
2141.646055419327
 21
885.8342838688004
 31
0.0
  0
LINE
  5
C7C
330
C10
100
AcDbEntity
  8
0
  6
Continuous
 62
     7
370
    15
100
AcDbLine
 10
2139.454024397648
 20
887.0997164421257
 30
0.0
 11
2141.646055419327
 21
885.8342838688004
 31
0.0
  0
LINE
  5
C7D
330
C10
100
AcDbEntity
  8
0
  6
Continuous
 62
     7
370
    15
100
AcDbLine
 10
2139.454024397648
 20
887.0997164421257
 30
0.0
 11
2139.454024397648
 21
884.1818962869858
 31
0.0
  0
ARC
  5
C7E
330
C10
100
AcDbEntity
  8
0
  6
Continuous
 62
     7
370
    15
100
AcDbCircle
 10
2139.203694235932
 20
884.1572590433974
 30
0.0
 40
0.2515396263739944
100
AcDbArc
 50
305.6975759694743
 51
5.620891283931866
  0
LINE
  5
C7F
330
C10
100
AcDbEntity
  8
0
  6
Continuous
 62
     7
370
    15
100
AcDbLine
 10
2139.310093235228
 20
883.9296666149195
 30
0.0
 11
2139.350469331914
 21
883.9529816466159
 31
0.0
  0
ARC
  5
C80
330
C10
100
AcDbEntity
  8
0
  6
Continuous
 62
     7
370
    15
100
AcDbCircle
 10
2139.456863982455
 20
883.7253893361959
 30
0.0
 40
0.2515369929938491
100
AcDbArc
 50
125.6967872099553
 51
185.620576132527
  0
LINE
  5
C81
330
C10
100
AcDbEntity
  8
0
  6
Continuous
 62
     7
370
    15
100
AcDbLine
 10
2139.206536305947
 20
883.7007537274455
 30
0.0
 11
2139.206536305947
 21
882.0559369442143
 31
0.0
  0
LINE
  5
C82
330
C10
100
AcDbEntity
  8
0
  6
Continuous
 62
     7
370
    15
100
AcDbLine
 10
2138.959051819328
 20
881.9130207466772
 30
0.0
 11
2139.206538113784
 21
882.0559379881956
 31
0.0
  0
LINE
  5
C83
330
C10
100
AcDbEntity
  8
0
  6
Continuous
 62
     7
370
    15
100
AcDbLine
 10
2138.959051819328
 20
881.9130207466772
 30
0.0
 11
2135.352802898256
 21
883.9948639355339
 31
0.0
  0
LINE
  5
C84
330
C10
100
AcDbEntity
  8
0
  6
Continuous
 62
     7
370
    15
100
AcDbLine
 10
2135.1053166038
 20
884.4235227704505
 30
0.0
 11
2135.352802898256
 21
883.9948639355339
 31
0.0
  0
LINE
  5
C85
330
C10
100
AcDbEntity
  8
0
  6
Continuous
 62
     7
370
    15
100
AcDbLine
 10
2135.1053166038
 20
884.4235227704505
 30
0.0
 11
2135.105317507719
 21
886.0683369442375
 31
0.0
  0
ARC
  5
C86
330
C10
100
AcDbEntity
  8
0
  6
Continuous
 62
     7
370
    15
100
AcDbCircle
 10
2134.38434814999
 20
886.0437131777571
 30
0.0
 40
0.7213897314621195
100
AcDbArc
 50
1.956102148582125
 51
31.14440153451087
  0
LINE
  5
C87
330
C10
100
AcDbEntity
  8
0
  6
Continuous
 62
     7
370
    15
100
AcDbLine
 10
2134.96138538567
 20
886.4867458760944
 30
0.0
 11
2135.001761482357
 21
886.4168135954404
 31
0.0
  0
ARC
  5
C88
330
C10
100
AcDbEntity
  8
0
  6
Continuous
 62
     7
370
    15
100
AcDbCircle
 10
2135.578815053317
 20
886.8598493537222
 30
0.0
 40
0.721405294899453
100
AcDbArc
 50
181.9565178986541
 51
211.1439385293885
  0
LINE
  5
C89
330
C10
100
AcDbEntity
  8
0
  6
Continuous
 62
     7
370
    15
100
AcDbLine
 10
2134.857830319919
 20
886.8352198243872
 30
0.0
 11
2134.857830319936
 21
889.7530428055494
 31
0.0
  0
LINE
  5
C8A
330
C10
100
AcDbEntity
  8
0
  6
Continuous
 62
     7
370
    15
100
AcDbLine
 10
2132.665799298258
 20
891.0184753788747
 30
0.0
 11
2134.857830319936
 21
889.7530428055494
 31
0.0
  0
LINE
  5
C8B
330
C10
100
AcDbEntity
  8
0
  6
Continuous
 62
     7
370
    15
100
AcDbLine
 10
2132.665799298258
 20
891.0184753788747
 30
0.0
 11
2132.665799298258
 21
888.1006552237346
 31
0.0
  0
ARC
  5
C8C
330
C10
100
AcDbEntity
  8
0
  6
Continuous
 62
     7
370
    15
100
AcDbCircle
 10
2132.415469136542
 20
888.0760179801464
 30
0.0
 40
0.2515396263738819
100
AcDbArc
 50
305.6975759694599
 51
5.620891283944831
  0
LINE
  5
C8D
330
C10
100
AcDbEntity
  8
0
  6
Continuous
 62
     7
370
    15
100
AcDbLine
 10
2132.521868135837
 20
887.8484255516685
 30
0.0
 11
2132.562244232524
 21
887.8717405833647
 31
0.0
  0
ARC
  5
C8E
330
C10
100
AcDbEntity
  8
0
  6
Continuous
 62
     7
370
    15
100
AcDbCircle
 10
2132.668638883064
 20
887.644148272945
 30
0.0
 40
0.2515369929934726
100
AcDbArc
 50
125.6967872099265
 51
185.6205761325789
  0
LINE
  5
C8F
330
C10
100
AcDbEntity
  8
0
  6
Continuous
 62
     7
370
    15
100
AcDbLine
 10
2132.418311206556
 20
887.6195126641945
 30
0.0
 11
2132.418311206556
 21
885.9746958809633
 31
0.0
  0
LINE
  5
C90
330
C10
100
AcDbEntity
  8
0
  6
Continuous
 62
     7
370
    15
100
AcDbLine
 10
2132.170826719937
 20
885.831779683426
 30
0.0
 11
2132.418313014393
 21
885.9746969249444
 31
0.0
  0
LINE
  5
C91
330
C10
100
AcDbEntity
  8
0
  6
Continuous
 62
     7
370
    15
100
AcDbLine
 10
2132.170826719937
 20
885.831779683426
 30
0.0
 11
2128.564577798865
 21
887.9136228722828
 31
0.0
  0
LINE
  5
C92
330
C10
100
AcDbEntity
  8
0
  6
Continuous
 62
     7
370
    15
100
AcDbLine
 10
2128.317091504409
 20
888.3422817071993
 30
0.0
 11
2128.564577798865
 21
887.9136228722828
 31
0.0
  0
LINE
  5
C93
330
C10
100
AcDbEntity
  8
0
  6
Continuous
 62
     7
370
    15
100
AcDbLine
 10
2128.317091504409
 20
888.3422817071993
 30
0.0
 11
2128.317092408328
 21
889.9870958809865
 31
0.0
  0
ARC
  5
C94
330
C10
100
AcDbEntity
  8
0
  6
Continuous
 62
     7
370
    15
100
AcDbCircle
 10
2127.596123050603
 20
889.9624721145071
 30
0.0
 40
0.7213897314585434
100
AcDbArc
 50
1.956102148497051
 51
31.14440153456894
  0
LINE
  5
C95
330
C10
100
AcDbEntity
  8
0
  6
Continuous
 62
     7
370
    15
100
AcDbLine
 10
2128.173160286279
 20
890.4055048128434
 30
0.0
 11
2128.213536382965
 21
890.3355725321894
 31
0.0
  0
ARC
  5
C96
330
C10
100
AcDbEntity
  8
0
  6
Continuous
 62
     7
370
    15
100
AcDbCircle
 10
2128.790589953927
 20
890.778608290471
 30
0.0
 40
0.7214052948994576
100
AcDbArc
 50
181.9565178986476
 51
211.1439385293773
  0
LINE
  5
C97
330
C10
100
AcDbEntity
  8
0
  6
Continuous
 62
     7
370
    15
100
AcDbLine
 10
2128.069605220528
 20
890.753978761136
 30
0.0
 11
2128.069605220545
 21
893.6718017422986
 31
0.0
  0
LINE
  5
C98
330
C10
100
AcDbEntity
  8
0
  6
Continuous
 62
     7
370
    15
100
AcDbLine
 10
2125.877574198867
 20
894.9372343156237
 30
0.0
 11
2128.069605220545
 21
893.6718017422986
 31
0.0
  0
LINE
  5
C99
330
C10
100
AcDbEntity
  8
0
  6
Continuous
 62
     7
370
    15
100
AcDbLine
 10
2125.877574198867
 20
894.9372343156237
 30
0.0
 11
2125.877574198867
 21
892.0194141604836
 31
0.0
  0
ARC
  5
C9A
330
C10
100
AcDbEntity
  8
0
  6
Continuous
 62
     7
370
    15
100
AcDbCircle
 10
2125.627244037151
 20
891.9947769168956
 30
0.0
 40
0.2515396263740738
100
AcDbArc
 50
305.6975759694743
 51
5.620891283925383
  0
LINE
  5
C9B
330
C10
100
AcDbEntity
  8
0
  6
Continuous
 62
     7
370
    15
100
AcDbLine
 10
2125.733643036447
 20
891.7671844884175
 30
0.0
 11
2125.774019133132
 21
891.7904995201139
 31
0.0
  0
ARC
  5
C9C
330
C10
100
AcDbEntity
  8
0
  6
Continuous
 62
     7
370
    15
100
AcDbCircle
 10
2125.880413783674
 20
891.5629072096937
 30
0.0
 40
0.2515369929939997
100
AcDbArc
 50
125.6967872099878
 51
185.6205761325011
  0
LINE
  5
C9D
330
C10
100
AcDbEntity
  8
0
  6
Continuous
 62
     7
370
    15
100
AcDbLine
 10
2125.630086107166
 20
891.5382716009435
 30
0.0
 11
2125.630086107166
 21
889.8934548177123
 31
0.0
  0
LINE
  5
C9E
330
C10
100
AcDbEntity
  8
0
  6
Continuous
 62
     7
370
    15
100
AcDbLine
 10
2125.382601620547
 20
889.7505386201752
 30
0.0
 11
2125.630087915002
 21
889.8934558616936
 31
0.0
  0
LINE
  5
C9F
330
C10
100
AcDbEntity
  8
0
  6
Continuous
 62
     7
370
    15
100
AcDbLine
 10
2125.382601620547
 20
889.7505386201752
 30
0.0
 11
2121.776352699474
 21
891.8323818090318
 31
0.0
  0
LINE
  5
CA0
330
C10
100
AcDbEntity
  8
0
  6
Continuous
 62
     7
370
    15
100
AcDbLine
 10
2121.528866405018
 20
892.2610406439485
 30
0.0
 11
2121.776352699474
 21
891.8323818090318
 31
0.0
  0
LINE
  5
CA1
330
C10
100
AcDbEntity
  8
0
  6
Continuous
 62
     7
370
    15
100
AcDbLine
 10
2121.528866405018
 20
892.2610406439485
 30
0.0
 11
2121.528867308937
 21
893.9058548177355
 31
0.0
  0
ARC
  5
CA2
330
C10
100
AcDbEntity
  8
0
  6
Continuous
 62
     7
370
    15
100
AcDbCircle
 10
2120.807897951209
 20
893.8812310512551
 30
0.0
 40
0.7213897314619441
100
AcDbArc
 50
1.956102148575616
 51
31.14440153451644
  0
LINE
  5
CA3
330
C10
100
AcDbEntity
  8
0
  6
Continuous
 62
     7
370
    15
100
AcDbLine
 10
2121.384935186888
 20
894.3242637495924
 30
0.0
 11
2121.425311283575
 21
894.2543314689384
 31
0.0
  0
ARC
  5
CA4
330
C10
100
AcDbEntity
  8
0
  6
Continuous
 62
     7
370
    15
100
AcDbCircle
 10
2122.002364854536
 20
894.6973672272202
 30
0.0
 40
0.7214052948990786
100
AcDbArc
 50
181.9565178986606
 51
211.1439385294064
  0
LINE
  5
CA5
330
C10
100
AcDbEntity
  8
0
  6
Continuous
 62
     7
370
    15
100
AcDbLine
 10
2121.281380121137
 20
894.672737697885
 30
0.0
 11
2121.281380121154
 21
897.5905606790476
 31
0.0
  0
LINE
  5
CA6
330
C10
100
AcDbEntity
  8
0
  6
Continuous
 62
     7
370
    15
100
AcDbLine
 10
2119.089349099476
 20
898.8559932523727
 30
0.0
 11
2121.281380121154
 21
897.5905606790476
 31
0.0
  0
LINE
  5
CA7
330
C10
100
AcDbEntity
  8
0
  6
Continuous
 62
     7
370
    15
100
AcDbLine
 10
2119.089349099476
 20
898.8559932523727
 30
0.0
 11
2119.089349099476
 21
895.9381730972326
 31
0.0
  0
ARC
  5
CA8
330
C10
100
AcDbEntity
  8
0
  6
Continuous
 62
     7
370
    15
100
AcDbCircle
 10
2118.83901893776
 20
895.9135358536443
 30
0.0
 40
0.2515396263737795
100
AcDbArc
 50
305.6975759694599
 51
5.62089128397076
  0
LINE
  5
CA9
330
C10
100
AcDbEntity
  8
0
  6
Continuous
 62
     7
370
    15
100
AcDbLine
 10
2118.945417937055
 20
895.6859434251665
 30
0.0
 11
2118.985794033742
 21
895.7092584568627
 31
0.0
  0
ARC
  5
CAA
330
C10
100
AcDbEntity
  8
0
  6
Continuous
 62
     7
370
    15
100
AcDbCircle
 10
2119.092188684283
 20
895.481666146443
 30
0.0
 40
0.2515369929935236
100
AcDbArc
 50
125.6967872099409
 51
185.6205761325659
  0
LINE
  5
CAB
330
C10
100
AcDbEntity
  8
0
  6
Continuous
 62
     7
370
    15
100
AcDbLine
 10
2118.841861007775
 20
895.4570305376925
 30
0.0
 11
2118.841861007775
 21
893.8122137544615
 31
0.0
  0
LINE
  5
CAC
330
C10
100
AcDbEntity
  8
0
  6
Continuous
 62
     7
370
    15
100
AcDbLine
 10
2118.594376521155
 20
893.6692975569242
 30
0.0
 11
2118.841862815612
 21
893.8122147984428
 31
0.0
  0
LINE
  5
CAD
330
C10
100
AcDbEntity
  8
0
  6
Continuous
 62
     7
370
    15
100
AcDbLine
 10
2118.594376521155
 20
893.6692975569242
 30
0.0
 11
2114.988127600083
 21
895.7511407457809
 31
0.0
  0
LINE
  5
CAE
330
C10
100
AcDbEntity
  8
0
  6
Continuous
 62
     7
370
    15
100
AcDbLine
 10
2114.740641305627
 20
896.1797995806975
 30
0.0
 11
2114.988127600083
 21
895.7511407457809
 31
0.0
  0
LINE
  5
CAF
330
C10
100
AcDbEntity
  8
0
  6
Continuous
 62
     7
370
    15
100
AcDbLine
 10
2114.740641305627
 20
896.1797995806975
 30
0.0
 11
2114.740642209546
 21
897.8246137544845
 31
0.0
  0
ARC
  5
CB0
330
C10
100
AcDbEntity
  8
0
  6
Continuous
 62
     7
370
    15
100
AcDbCircle
 10
2114.019672851819
 20
897.7999899880046
 30
0.0
 40
0.7213897314608479
100
AcDbArc
 50
1.956102148549575
 51
31.14440153452759
  0
LINE
  5
CB1
330
C10
100
AcDbEntity
  8
0
  6
Continuous
 62
     7
370
    15
100
AcDbLine
 10
2114.596710087498
 20
898.2430226863415
 30
0.0
 11
2114.637086184184
 21
898.1730904056874
 31
0.0
  0
ARC
  5
CB2
330
C10
100
AcDbEntity
  8
0
  6
Continuous
 62
     7
370
    15
100
AcDbCircle
 10
2115.214139755143
 20
898.6161261639686
 30
0.0
 40
0.7214052948977336
100
AcDbArc
 50
181.9565178986151
 51
211.1439385294119
  0
LINE
  5
CB3
330
C10
100
AcDbEntity
  8
0
  6
Continuous
 62
     7
370
    15
100
AcDbLine
 10
2114.493155021747
 20
898.591496634634
 30
0.0
 11
2114.493155021763
 21
901.5093196157966
 31
0.0
  0
LINE
  5
CB4
330
C10
100
AcDbEntity
  8
0
  6
Continuous
 62
     7
370
    15
100
AcDbLine
 10
2112.301124000085
 20
902.7747521891217
 30
0.0
 11
2114.493155021763
 21
901.5093196157966
 31
0.0
  0
LINE
  5
CB5
330
C10
100
AcDbEntity
  8
0
  6
Continuous
 62
     7
370
    15
100
AcDbLine
 10
2112.301124000085
 20
902.7747521891217
 30
0.0
 11
2112.301124000085
 21
899.8569320339818
 31
0.0
  0
ARC
  5
CB6
330
C10
100
AcDbEntity
  8
0
  6
Continuous
 62
     7
370
    15
100
AcDbCircle
 10
2112.050793838369
 20
899.8322947903936
 30
0.0
 40
0.2515396263739841
100
AcDbArc
 50
305.6975759694743
 51
5.620891283931866
  0
LINE
  5
CB7
330
C10
100
AcDbEntity
  8
0
  6
Continuous
 62
     7
370
    15
100
AcDbLine
 10
2112.157192837665
 20
899.6047023619155
 30
0.0
 11
2112.197568934351
 21
899.6280173936119
 31
0.0
  0
ARC
  5
CB8
330
C10
100
AcDbEntity
  8
0
  6
Continuous
 62
     7
370
    15
100
AcDbCircle
 10
2112.303963584892
 20
899.4004250831922
 30
0.0
 40
0.2515369929934188
100
AcDbArc
 50
125.6967872099083
 51
185.6205761325854
  0
LINE
  5
CB9
330
C10
100
AcDbEntity
  8
0
  6
Continuous
 62
     7
370
    15
100
AcDbLine
 10
2112.053635908384
 20
899.3757894744415
 30
0.0
 11
2112.053635908384
 21
897.7309726912105
 31
0.0
  0
LINE
  5
CBA
330
C10
100
AcDbEntity
  8
0
  6
Continuous
 62
     7
370
    15
100
AcDbLine
 10
2111.806151421765
 20
897.5880564936732
 30
0.0
 11
2112.053637716221
 21
897.7309737351916
 31
0.0
  0
LINE
  5
CBB
330
C10
100
AcDbEntity
  8
0
  6
Continuous
 62
     7
370
    15
100
AcDbLine
 10
2111.806151421765
 20
897.5880564936732
 30
0.0
 11
2108.199902500693
 21
899.6698996825299
 31
0.0
  0
LINE
  5
CBC
330
C10
100
AcDbEntity
  8
0
  6
Continuous
 62
     7
370
    15
100
AcDbLine
 10
2107.952416206237
 20
900.0985585174465
 30
0.0
 11
2108.199902500693
 21
899.6698996825299
 31
0.0
  0
LINE
  5
CBD
330
C10
100
AcDbEntity
  8
0
  6
Continuous
 62
     7
370
    15
100
AcDbLine
 10
2107.952416206237
 20
900.0985585174465
 30
0.0
 11
2107.952417110155
 21
901.7433726912335
 31
0.0
  0
ARC
  5
CBE
330
C10
100
AcDbEntity
  8
0
  6
Continuous
 62
     7
370
    15
100
AcDbCircle
 10
2107.231447752431
 20
901.7187489247545
 30
0.0
 40
0.7213897314582555
100
AcDbArc
 50
1.956102148490541
 51
31.14440153457452
  0
LINE
  5
CBF
330
C10
100
AcDbEntity
  8
0
  6
Continuous
 62
     7
370
    15
100
AcDbLine
 10
2107.808484988106
 20
902.1617816230905
 30
0.0
 11
2107.848861084793
 21
902.0918493424364
 31
0.0
  0
ARC
  5
CC0
330
C10
100
AcDbEntity
  8
0
  6
Continuous
 62
     7
370
    15
100
AcDbCircle
 10
2108.425914655752
 20
902.5348851007178
 30
0.0
 40
0.7214052948981337
100
AcDbArc
 50
181.956517898628
 51
211.1439385294175
  0
LINE
  5
CC1
330
C10
100
AcDbEntity
  8
0
  6
Continuous
 62
     7
370
    15
100
AcDbLine
 10
2107.704929922356
 20
902.510255571383
 30
0.0
 11
2107.704929922373
 21
905.4280785525456
 31
0.0
  0
LINE
  5
CC2
330
C10
100
AcDbEntity
  8
0
  6
Continuous
 62
     7
370
    15
100
AcDbLine
 10
2105.512898900695
 20
906.6935111258707
 30
0.0
 11
2107.704929922373
 21
905.4280785525456
 31
0.0
  0
LINE
  5
CC3
330
C10
100
AcDbEntity
  8
0
  6
Continuous
 62
     7
370
    15
100
AcDbLine
 10
2105.512898900695
 20
906.6935111258707
 30
0.0
 11
2105.512898900695
 21
903.7756909707306
 31
0.0
  0
ARC
  5
CC4
330
C10
100
AcDbEntity
  8
0
  6
Continuous
 62
     7
370
    15
100
AcDbCircle
 10
2105.262568738978
 20
903.7510537271428
 30
0.0
 40
0.2515396263745108
100
AcDbArc
 50
305.6975759695432
 51
5.620891283880006
  0
LINE
  5
CC5
330
C10
100
AcDbEntity
  8
0
  6
Continuous
 62
     7
370
    15
100
AcDbLine
 10
2105.368967738274
 20
903.5234612986643
 30
0.0
 11
2105.40934383496
 21
903.5467763303607
 31
0.0
  0
ARC
  5
CC6
330
C10
100
AcDbEntity
  8
0
  6
Continuous
 62
     7
370
    15
100
AcDbCircle
 10
2105.515738485501
 20
903.3191840199409
 30
0.0
 40
0.2515369929937184
100
AcDbArc
 50
125.6967872099553
 51
185.620576132553
  0
LINE
  5
CC7
330
C10
100
AcDbEntity
  8
0
  6
Continuous
 62
     7
370
    15
100
AcDbLine
 10
2105.265410808993
 20
903.2945484111905
 30
0.0
 11
2105.265410808993
 21
901.6497316279595
 31
0.0
  0
LINE
  5
CC8
330
C10
100
AcDbEntity
  8
0
  6
Continuous
 62
     7
370
    15
100
AcDbLine
 10
2105.017926322374
 20
901.506815430422
 30
0.0
 11
2105.26541261683
 21
901.6497326719406
 31
0.0
  0
LINE
  5
CC9
330
C10
100
AcDbEntity
  8
0
  6
Continuous
 62
     7
370
    15
100
AcDbLine
 10
2105.017926322374
 20
901.506815430422
 30
0.0
 11
2101.411677401302
 21
903.5886586192789
 31
0.0
  0
LINE
  5
CCA
330
C10
100
AcDbEntity
  8
0
  6
Continuous
 62
     7
370
    15
100
AcDbLine
 10
2101.164191106846
 20
904.0173174541955
 30
0.0
 11
2101.411677401302
 21
903.5886586192789
 31
0.0
  0
LINE
  5
CCB
330
C10
100
AcDbEntity
  8
0
  6
Continuous
 62
     7
370
    15
100
AcDbLine
 10
2101.164191106846
 20
904.0173174541955
 30
0.0
 11
2101.164192010764
 21
905.6621316279825
 31
0.0
  0
ARC
  5
CCC
330
C10
100
AcDbEntity
  8
0
  6
Continuous
 62
     7
370
    15
100
AcDbCircle
 10
2100.443222653038
 20
905.6375078615024
 30
0.0
 40
0.7213897314605707
100
AcDbArc
 50
1.956102148549575
 51
31.14440153454548
  0
LINE
  5
CCD
330
C10
100
AcDbEntity
  8
0
  6
Continuous
 62
     7
370
    15
100
AcDbLine
 10
2101.020259888716
 20
906.0805405598394
 30
0.0
 11
2101.060635985402
 21
906.0106082791854
 31
0.0
  0
ARC
  5
CCE
330
C10
100
AcDbEntity
  8
0
  6
Continuous
 62
     7
370
    15
100
AcDbCircle
 10
2101.637689556363
 20
906.4536440374668
 30
0.0
 40
0.7214052948989309
100
AcDbArc
 50
181.9565178986346
 51
211.1439385293829
  0
LINE
  5
CCF
330
C10
100
AcDbEntity
  8
0
  6
Continuous
 62
     7
370
    15
100
AcDbLine
 10
2100.916704822965
 20
906.429014508132
 30
0.0
 11
2100.916704822981
 21
909.3468374892946
 31
0.0
  0
LINE
  5
CD0
330
C10
100
AcDbEntity
  8
0
  6
Continuous
 62
     7
370
    15
100
AcDbLine
 10
2098.724673801303
 20
910.6122700626197
 30
0.0
 11
2100.916704822981
 21
909.3468374892946
 31
0.0
  0
LINE
  5
CD1
330
C10
100
AcDbEntity
  8
0
  6
Continuous
 62
     7
370
    15
100
AcDbLine
 10
2098.724673801303
 20
910.6122700626197
 30
0.0
 11
2098.724673801303
 21
907.6944499074798
 31
0.0
  0
ARC
  5
CD2
330
C10
100
AcDbEntity
  8
0
  6
Continuous
 62
     7
370
    15
100
AcDbCircle
 10
2098.474343639587
 20
907.6698126638914
 30
0.0
 40
0.2515396263741028
100
AcDbArc
 50
305.6975759694925
 51
5.620891283944831
  0
LINE
  5
CD3
330
C10
100
AcDbEntity
  8
0
  6
Continuous
 62
     7
370
    15
100
AcDbLine
 10
2098.580742638883
 20
907.4422202354135
 30
0.0
 11
2098.621118735569
 21
907.4655352671097
 31
0.0
  0
ARC
  5
CD4
330
C10
100
AcDbEntity
  8
0
  6
Continuous
 62
     7
370
    15
100
AcDbCircle
 10
2098.727513386109
 20
907.2379429566902
 30
0.0
 40
0.25153699299299
100
AcDbArc
 50
125.6967872098288
 51
185.6205761326178
  0
LINE
  5
CD5
330
C10
100
AcDbEntity
  8
0
  6
Continuous
 62
     7
370
    15
100
AcDbLine
 10
2098.477185709603
 20
907.2133073479395
 30
0.0
 11
2098.477185709603
 21
905.5684905647083
 31
0.0
  0
LINE
  5
CD6
330
C10
100
AcDbEntity
  8
0
  6
Continuous
 62
     7
370
    15
100
AcDbLine
 10
2098.229701222983
 20
905.4255743671712
 30
0.0
 11
2098.477187517439
 21
905.5684916086896
 31
0.0
  0
LINE
  5
CD7
330
C10
100
AcDbEntity
  8
0
  6
Continuous
 62
     7
370
    15
100
AcDbLine
 10
2098.229701222983
 20
905.4255743671712
 30
0.0
 11
2094.623452301911
 21
907.5074175560279
 31
0.0
  0
LINE
  5
CD8
330
C10
100
AcDbEntity
  8
0
  6
Continuous
 62
     7
370
    15
100
AcDbLine
 10
2094.375966007455
 20
907.9360763909445
 30
0.0
 11
2094.623452301911
 21
907.5074175560279
 31
0.0
  0
LINE
  5
CD9
330
C10
100
AcDbEntity
  8
0
  6
Continuous
 62
     7
370
    15
100
AcDbLine
 10
2094.375966007455
 20
907.9360763909445
 30
0.0
 11
2094.375966911373
 21
909.5808905647315
 31
0.0
  0
ARC
  5
CDA
330
C10
100
AcDbEntity
  8
0
  6
Continuous
 62
     7
370
    15
100
AcDbCircle
 10
2093.65499755365
 20
909.5562667982527
 30
0.0
 40
0.721389731457463
100
AcDbArc
 50
1.956102148477521
 51
31.14440153459798
  0
LINE
  5
CDB
330
C10
100
AcDbEntity
  8
0
  6
Continuous
 62
     7
370
    15
100
AcDbLine
 10
2094.232034789325
 20
909.9992994965885
 30
0.0
 11
2094.272410886011
 21
909.9293672159344
 31
0.0
  0
ARC
  5
CDC
330
C10
100
AcDbEntity
  8
0
  6
Continuous
 62
     7
370
    15
100
AcDbCircle
 10
2094.849464456971
 20
910.372402974216
 30
0.0
 40
0.7214052948986517
100
AcDbArc
 50
181.9565178986476
 51
211.1439385294119
  0
LINE
  5
CDD
330
C10
100
AcDbEntity
  8
0
  6
Continuous
 62
     7
370
    15
100
AcDbLine
 10
2094.128479723574
 20
910.347773444881
 30
0.0
 11
2094.128479723591
 21
913.2655964260436
 31
0.0
  0
LINE
  5
CDE
330
C10
100
AcDbEntity
  8
0
  6
Continuous
 62
     7
370
    15
100
AcDbLine
 10
2093.315308965134
 20
913.735029912728
 30
0.0
 11
2094.128479723591
 21
913.2655964260436
 31
0.0
  0
LINE
  5
CDF
330
C10
100
AcDbEntity
  8
0
  6
Continuous
 62
     7
370
    15
100
AcDbLine
 10
2093.315308965134
 20
913.735029912728
 30
0.0
 11
2093.315308965134
 21
918.5091313457226
 31
0.0
  0
LINE
  5
CE0
330
C10
100
AcDbEntity
  8
0
  6
Continuous
 62
     7
370
    15
100
AcDbLine
 10
2161.940020039381
 20
873.6665624607105
 30
0.0
 11
2159.818699695821
 21
872.4419502929766
 31
0.0
  0
LINE
  5
CE1
330
C10
100
AcDbEntity
  8
0
  6
Continuous
 62
     7
370
    15
100
AcDbLine
 10
2161.940020039381
 20
875.6291848262439
 30
0.0
 11
2161.940020039381
 21
873.6665624607105
 31
0.0
  0
LINE
  5
CE2
330
C10
100
AcDbEntity
  8
0
  6
Continuous
 62
     7
370
    15
100
AcDbLine
 10
2156.17709977271
 20
875.4016297285485
 30
0.0
 11
2158.29842011627
 21
874.1770175608143
 31
0.0
  0
LINE
  5
CE3
330
C10
100
AcDbEntity
  8
0
  6
Continuous
 62
     7
370
    15
100
AcDbLine
 10
2156.459942485185
 20
875.564911350913
 30
0.0
 11
2156.17709977271
 21
875.4016297285485
 31
0.0
  0
LINE
  5
CE4
330
C10
100
AcDbEntity
  8
0
  6
Continuous
 62
     7
370
    15
100
AcDbLine
 10
2158.581262828745
 20
874.3402991831789
 30
0.0
 11
2158.29842011627
 21
874.1770175608143
 31
0.0
  0
LINE
  5
CE5
330
C10
100
AcDbEntity
  8
0
  6
Continuous
 62
     7
370
    15
100
AcDbLine
 10
2158.29842011627
 20
874.1770175608143
 30
0.0
 11
2158.581262828745
 21
873.2787961277274
 31
0.0
  0
LINE
  5
CE6
330
C10
100
AcDbEntity
  8
0
  6
Continuous
 62
     7
370
    15
100
AcDbLine
 10
2156.17709977271
 20
875.4016297285485
 30
0.0
 11
2156.459942485185
 21
874.5034082954614
 31
0.0
  0
LINE
  5
CE7
330
C10
100
AcDbEntity
  8
0
  6
Continuous
 62
     7
370
    15
100
AcDbLine
 10
2159.715144630087
 20
872.2130356526065
 30
0.0
 11
2161.836464973647
 21
873.4376478203405
 31
0.0
  0
ARC
  5
CE8
330
C10
100
AcDbEntity
  8
0
  6
Continuous
 62
     7
370
    15
100
AcDbCircle
 10
2161.689689877665
 20
873.6419252171224
 30
0.0
 40
0.2515396263742267
100
AcDbArc
 50
305.6975759695395
 51
5.620891283957796
  0
LINE
  5
CE9
330
C10
100
AcDbEntity
  8
0
  6
Continuous
 62
     7
370
    15
100
AcDbLine
 10
2159.674768533401
 20
872.1897206209103
 30
0.0
 11
2161.79608887696
 21
873.4143327886444
 31
0.0
  0
LINE
  5
CEA
330
C10
100
AcDbEntity
  8
0
  6
Continuous
 62
     7
370
    15
100
AcDbLine
 10
2161.836464973647
 20
873.4376478203405
 30
0.0
 11
2161.79608887696
 21
873.4143327886444
 31
0.0
  0
LINE
  5
CEB
330
C10
100
AcDbEntity
  8
0
  6
Continuous
 62
     7
370
    15
100
AcDbLine
 10
2159.57121160412
 20
871.9608077334362
 30
0.0
 11
2161.69253194768
 21
873.1854196420783
 31
0.0
  0
ARC
  5
CEC
330
C10
100
AcDbEntity
  8
0
  6
Continuous
 62
     7
370
    15
100
AcDbCircle
 10
2161.942859733906
 20
873.2100554324025
 30
0.0
 40
0.2515371199680701
100
AcDbArc
 50
125.6967972034331
 51
185.6206148453462
  0
LINE
  5
CED
330
C10
100
AcDbEntity
  8
0
  6
Continuous
 62
     7
370
    15
100
AcDbLine
 10
2161.692533755516
 20
871.5406041619203
 30
0.0
 11
2159.571213411957
 21
870.3159919941864
 31
0.0
  0
LINE
  5
CEE
330
C10
100
AcDbEntity
  8
0
  6
Continuous
 62
     7
370
    15
100
AcDbLine
 10
2161.69253194768
 20
873.1854196420783
 30
0.0
 11
2161.692533755516
 21
871.5406041619203
 31
0.0
  0
LINE
  5
CEF
330
C10
100
AcDbEntity
  8
0
  6
Continuous
 62
     7
370
    15
100
AcDbLine
 10
2161.430905325437
 20
871.3895201852821
 30
0.0
 11
2159.309584981877
 21
870.1649080175481
 31
0.0
  0
LINE
  5
CF0
330
C10
100
AcDbEntity
  8
0
  6
Continuous
 62
     7
370
    15
100
AcDbLine
 10
2161.692533755516
 20
871.5406041619203
 30
0.0
 11
2161.430905325437
 21
871.3895201852821
 31
0.0
  0
LINE
  5
CF1
330
C10
100
AcDbEntity
  8
0
  6
Continuous
 62
     7
370
    15
100
AcDbLine
 10
2160.349009200611
 20
865.7785959970363
 30
0.0
 11
2160.382812288098
 21
865.7981101040578
 31
0.0
  0
ARC
  5
CF2
330
C10
100
AcDbEntity
  8
0
  6
Continuous
 62
     7
370
    15
100
AcDbCircle
 10
2160.465621650521
 20
865.6965864345487
 30
0.0
 40
0.1310131519175907
100
AcDbArc
 50
350.7863072336856
 51
129.2029410243932
  0
LINE
  5
CF3
330
C10
100
AcDbEntity
  8
0
  6
Continuous
 62
     7
370
    15
100
AcDbLine
 10
2160.594947373712
 20
861.0013842930946
 30
0.0
 11
2160.594944474402
 21
865.6756089895509
 31
0.0
  0
LINE
  5
CF4
330
C10
100
AcDbEntity
  8
0
  6
Continuous
 62
     7
370
    15
100
AcDbLine
 10
2158.688861421576
 20
859.9010317555135
 30
0.0
 11
2160.594940911799
 21
861.0013880234774
 31
0.0
  0
LINE
  5
CF5
330
C10
100
AcDbEntity
  8
0
  6
Continuous
 62
     7
370
    15
100
AcDbLine
 10
2158.688864984168
 20
864.5752527215764
 30
0.0
 11
2158.688867883489
 21
859.9010280251318
 31
0.0
  0
ARC
  5
CF6
330
C10
100
AcDbEntity
  8
0
  6
Continuous
 62
     7
370
    15
100
AcDbCircle
 10
2159.149417736426
 20
864.5543016346804
 30
0.0
 40
0.461029050770904
100
AcDbArc
 50
122.6047039613363
 51
177.3953432799823
  0
LINE
  5
CF7
330
C10
100
AcDbEntity
  8
0
  6
Continuous
 62
     7
370
    15
100
AcDbLine
 10
2158.900996866587
 20
864.9426762696439
 30
0.0
 11
2158.934798248747
 21
864.9621913611309
 31
0.0
  0
ARC
  5
CF8
330
C10
100
AcDbEntity
  8
0
  6
Continuous
 62
     7
370
    15
100
AcDbCircle
 10
2158.68637691975
 20
865.3505685526306
 30
0.0
 40
0.4610314518314932
100
AcDbArc
 50
302.60458083157
 51
357.3949108745241
  0
LINE
  5
CF9
330
C10
100
AcDbEntity
  8
0
  6
Continuous
 62
     7
370
    15
100
AcDbLine
 10
2159.146931979542
 20
870.2588055971302
 30
0.0
 11
2159.146931912458
 21
865.3296138808578
 31
0.0
  0
LINE
  5
CFA
330
C10
100
AcDbEntity
  8
0
  6
Continuous
 62
     7
370
    15
100
AcDbLine
 10
2160.1368770143
 20
865.9010971115291
 30
0.0
 11
2160.136877014309
 21
870.6424935421768
 31
0.0
  0
ARC
  5
CFB
330
C10
100
AcDbEntity
  8
0
  6
Continuous
 62
     7
370
    15
100
AcDbCircle
 10
2160.266199821863
 20
865.8801196382807
 30
0.0
 40
0.1310131403332587
100
AcDbArc
 50
170.7862938955031
 51
309.2029543697386
  0
LINE
  5
CFC
330
C10
100
AcDbEntity
  8
0
  6
Continuous
 62
     7
370
    15
100
AcDbLine
 10
2157.025607328486
 20
866.5542572386378
 30
0.0
 11
2157.025607328486
 21
871.4834202515291
 31
0.0
  0
LINE
  5
CFD
330
C10
100
AcDbEntity
  8
0
  6
Continuous
 62
     7
370
    15
100
AcDbLine
 10
2159.146931912458
 20
865.3296138808578
 30
0.0
 11
2157.025607328486
 21
866.5542572386378
 31
0.0
  0
LINE
  5
CFE
330
C10
100
AcDbEntity
  8
0
  6
Continuous
 62
     7
370
    15
100
AcDbLine
 10
2155.151794939989
 20
877.5689905812216
 30
0.0
 11
2153.03047459643
 21
876.3443784134876
 31
0.0
  0
LINE
  5
CFF
330
C10
100
AcDbEntity
  8
0
  6
Continuous
 62
     7
370
    15
100
AcDbLine
 10
2155.151794939989
 20
878.0375864008936
 30
0.0
 11
2155.151794939989
 21
877.5689905812216
 31
0.0
  0
LINE
  5
D00
330
C10
100
AcDbEntity
  8
0
  6
Continuous
 62
     7
370
    15
100
AcDbLine
 10
2151.793037729354
 20
878.2590581199279
 30
0.0
 11
2151.510195016879
 21
878.0957764975635
 31
0.0
  0
LINE
  5
D01
330
C10
100
AcDbEntity
  8
0
  6
Continuous
 62
     7
370
    15
100
AcDbLine
 10
2151.510195016879
 20
878.0957764975635
 30
0.0
 11
2151.793037729354
 21
877.1975550644766
 31
0.0
  0
LINE
  5
D02
330
C10
100
AcDbEntity
  8
0
  6
Continuous
 62
     7
370
    15
100
AcDbLine
 10
2149.388874673319
 20
879.3203886652975
 30
0.0
 11
2151.510195016879
 21
878.0957764975635
 31
0.0
  0
LINE
  5
D03
330
C10
100
AcDbEntity
  8
0
  6
Continuous
 62
     7
370
    15
100
AcDbLine
 10
2149.671717385794
 20
879.4836702876621
 30
0.0
 11
2149.388874673319
 21
879.3203886652975
 31
0.0
  0
LINE
  5
D04
330
C10
100
AcDbEntity
  8
0
  6
Continuous
 62
     7
370
    15
100
AcDbLine
 10
2149.388874673319
 20
879.3203886652975
 30
0.0
 11
2149.671717385794
 21
878.4221672322106
 31
0.0
  0
LINE
  5
D05
330
C10
100
AcDbEntity
  8
0
  6
Continuous
 62
     7
370
    15
100
AcDbLine
 10
2152.926919530695
 20
876.1154637731177
 30
0.0
 11
2155.048239874256
 21
877.3400759408518
 31
0.0
  0
ARC
  5
D06
330
C10
100
AcDbEntity
  8
0
  6
Continuous
 62
     7
370
    15
100
AcDbCircle
 10
2154.901464778274
 20
877.5443533376336
 30
0.0
 40
0.2515396263739151
100
AcDbArc
 50
305.6975759694743
 51
5.620891283951313
  0
LINE
  5
D07
330
C10
100
AcDbEntity
  8
0
  6
Continuous
 62
     7
370
    15
100
AcDbLine
 10
2152.88654343401
 20
876.0921487414213
 30
0.0
 11
2155.007863777569
 21
877.3167609091554
 31
0.0
  0
LINE
  5
D08
330
C10
100
AcDbEntity
  8
0
  6
Continuous
 62
     7
370
    15
100
AcDbLine
 10
2155.048239874256
 20
877.3400759408518
 30
0.0
 11
2155.007863777569
 21
877.3167609091554
 31
0.0
  0
LINE
  5
D09
330
C10
100
AcDbEntity
  8
0
  6
Continuous
 62
     7
370
    15
100
AcDbLine
 10
2152.782986504729
 20
875.8632358539475
 30
0.0
 11
2154.904306848289
 21
877.0878477625897
 31
0.0
  0
ARC
  5
D0A
330
C10
100
AcDbEntity
  8
0
  6
Continuous
 62
     7
370
    15
100
AcDbCircle
 10
2155.154634634516
 20
877.112483552913
 30
0.0
 40
0.2515371199692806
100
AcDbArc
 50
125.6967972035452
 51
185.6206148450974
  0
LINE
  5
D0B
330
C10
100
AcDbEntity
  8
0
  6
Continuous
 62
     7
370
    15
100
AcDbLine
 10
2154.904308656126
 20
875.4430322824317
 30
0.0
 11
2152.782988312566
 21
874.2184201146976
 31
0.0
  0
LINE
  5
D0C
330
C10
100
AcDbEntity
  8
0
  6
Continuous
 62
     7
370
    15
100
AcDbLine
 10
2154.904306848289
 20
877.0878477625897
 30
0.0
 11
2154.904308656126
 21
875.4430322824317
 31
0.0
  0
LINE
  5
D0D
330
C10
100
AcDbEntity
  8
0
  6
Continuous
 62
     7
370
    15
100
AcDbLine
 10
2158.688864984168
 20
864.5752527215764
 30
0.0
 11
2156.567536778932
 21
865.7998981698851
 31
0.0
  0
ARC
  5
D0E
330
C10
100
AcDbEntity
  8
0
  6
Continuous
 62
     7
370
    15
100
AcDbCircle
 10
2157.028101609299
 20
865.7789399142453
 30
0.0
 40
0.461041442226778
100
AcDbArc
 50
122.605478337233
 51
177.3945215188625
  0
LINE
  5
D0F
330
C10
100
AcDbEntity
  8
0
  6
Continuous
 62
     7
370
    15
100
AcDbLine
 10
2158.900996866587
 20
864.9426762696439
 30
0.0
 11
2156.779668813288
 21
866.167321630237
 31
0.0
  0
LINE
  5
D10
330
C10
100
AcDbEntity
  8
0
  6
Continuous
 62
     7
370
    15
100
AcDbLine
 10
2158.934798248747
 20
864.9621913611309
 30
0.0
 11
2156.813473606103
 21
866.1868347527862
 31
0.0
  0
ARC
  5
D11
330
C10
100
AcDbEntity
  8
0
  6
Continuous
 62
     7
370
    15
100
AcDbCircle
 10
2156.565051951151
 20
866.5752122079533
 30
0.0
 40
0.4610318495845229
100
AcDbArc
 50
302.6045973000293
 51
357.3948761075436
  0
LINE
  5
D12
330
C10
100
AcDbEntity
  8
0
  6
Continuous
 62
     7
370
    15
100
AcDbLine
 10
2158.449275590155
 20
858.4702945993148
 30
0.0
 11
2158.688861421576
 21
859.9010317555135
 31
0.0
  0
SPLINE
  5
D13
330
C10
100
AcDbEntity
  8
0
  6
Continuous
 62
     7
370
    15
100
AcDbSpline
210
0.0
220
0.0
230
1.0
 70
     8
 71
     3
 72
    10
 73
     6
 74
     0
 42
0.0000000001
 43
0.0000000001
 40
0.0
 40
0.0
 40
0.0
 40
0.0
 40
0.5
 40
0.5
 40
1.0
 40
1.0
 40
1.0
 40
1.0
 10
2158.449275590155
 20
858.4702945993148
 30
0.0
 10
2158.429273805001
 20
858.3508497346485
 30
0.0
 10
2158.368221776946
 20
858.2639835887844
 30
0.0
 10
2158.191746795212
 20
858.194862952576
 30
0.0
 10
2158.07700647489
 20
858.2128758318692
 30
0.0
 10
2157.961820597234
 20
858.279371223646
 30
0.0
  0
LINE
  5
D14
330
C10
100
AcDbEntity
  8
0
  6
Continuous
 62
     7
370
    15
100
AcDbLine
 10
2157.294577603273
 20
858.6645624050346
 30
0.0
 11
2157.961820597234
 21
858.2793712236458
 31
0.0
  0
SPLINE
  5
D15
330
C10
100
AcDbEntity
  8
0
  6
Continuous
 62
     7
370
    15
100
AcDbSpline
210
0.0
220
0.0
230
1.0
 70
     8
 71
     3
 72
    10
 73
     6
 74
     0
 42
0.0000000001
 43
0.0000000001
 40
0.0
 40
0.0
 40
0.0
 40
0.0
 40
0.5
 40
0.5
 40
1.0
 40
1.0
 40
1.0
 40
1.0
 10
2157.294577603273
 20
858.6645624050346
 30
0.0
 10
2157.179391725617
 20
858.7310577968114
 30
0.0
 10
2157.064651405296
 20
858.8455212715231
 30
0.0
 10
2156.888176423561
 20
859.1183955846236
 30
0.0
 10
2156.827124395507
 20
859.2757509016751
 30
0.0
 10
2156.807122610353
 20
859.4182893359196
 30
0.0
  0
LINE
  5
D16
330
C10
100
AcDbEntity
  8
0
  6
Continuous
 62
     7
370
    15
100
AcDbLine
 10
2156.567536778932
 20
861.1256464050565
 30
0.0
 11
2156.807122610353
 21
859.4182893359196
 31
0.0
  0
LINE
  5
D17
330
C10
100
AcDbEntity
  8
0
  6
Continuous
 62
     7
370
    15
100
AcDbLine
 10
2156.567536778932
 20
865.7998981698851
 30
0.0
 11
2156.567536778932
 21
861.1256464050565
 31
0.0
  0
LINE
  5
D18
330
C10
100
AcDbEntity
  8
0
  6
Continuous
 62
     7
370
    15
100
AcDbLine
 10
2156.813473606103
 20
866.1868347527862
 30
0.0
 11
2156.779668813288
 21
866.167321630237
 31
0.0
  0
LINE
  5
D19
330
C10
100
AcDbEntity
  8
0
  6
Continuous
 62
     7
370
    15
100
AcDbLine
 10
2152.53550201811
 20
874.075502873179
 30
0.0
 11
2154.656822361669
 21
875.3001150409131
 31
0.0
  0
LINE
  5
D1A
330
C10
100
AcDbEntity
  8
0
  6
Continuous
 62
     7
370
    15
100
AcDbLine
 10
2154.904308656126
 20
875.4430322824317
 30
0.0
 11
2154.656822361669
 21
875.3001150409131
 31
0.0
  0
LINE
  5
D1B
330
C10
100
AcDbEntity
  8
0
  6
Continuous
 62
     7
370
    15
100
AcDbLine
 10
2153.560780690564
 20
869.6973569027106
 30
0.0
 11
2153.594583778052
 21
869.7168710097479
 31
0.0
  0
ARC
  5
D1C
330
C10
100
AcDbEntity
  8
0
  6
Continuous
 62
     7
370
    15
100
AcDbCircle
 10
2153.677396632616
 20
869.6153453019038
 30
0.0
 40
0.13101315879228
100
AcDbArc
 50
350.7863151496915
 51
129.2029331087153
  0
LINE
  5
D1D
330
C10
100
AcDbEntity
  8
0
  6
Continuous
 62
     7
370
    15
100
AcDbLine
 10
2153.806722365487
 20
864.9201431772143
 30
0.0
 11
2153.806719466182
 21
869.5943678736727
 31
0.0
  0
LINE
  5
D1E
330
C10
100
AcDbEntity
  8
0
  6
Continuous
 62
     7
370
    15
100
AcDbLine
 10
2151.900636322185
 20
863.8197906922625
 30
0.0
 11
2153.806715812407
 21
864.9201469602264
 31
0.0
  0
LINE
  5
D1F
330
C10
100
AcDbEntity
  8
0
  6
Continuous
 62
     7
370
    15
100
AcDbLine
 10
2151.900639975942
 20
868.4940116056949
 30
0.0
 11
2151.900642875264
 21
863.8197869092506
 31
0.0
  0
ARC
  5
D20
330
C10
100
AcDbEntity
  8
0
  6
Continuous
 62
     7
370
    15
100
AcDbCircle
 10
2152.361192397663
 20
868.473060709638
 30
0.0
 40
0.461028711903384
100
AcDbArc
 50
122.6046821356038
 51
177.3953651058657
  0
LINE
  5
D21
330
C10
100
AcDbEntity
  8
0
  6
Continuous
 62
     7
370
    15
100
AcDbLine
 10
2152.112771858362
 20
868.8614351537678
 30
0.0
 11
2152.146574945851
 21
868.8809492607859
 31
0.0
  0
ARC
  5
D22
330
C10
100
AcDbEntity
  8
0
  6
Continuous
 62
     7
370
    15
100
AcDbCircle
 10
2151.898141894489
 20
869.269330909193
 30
0.0
 40
0.4610415228897083
100
AcDbArc
 50
302.6055095954877
 51
357.3945423838505
  0
LINE
  5
D23
330
C10
100
AcDbEntity
  8
0
  6
Continuous
 62
     7
370
    15
100
AcDbLine
 10
2152.358706880151
 20
874.1775645338792
 30
0.0
 11
2152.358706813068
 21
869.2483728176069
 31
0.0
  0
LINE
  5
D24
330
C10
100
AcDbEntity
  8
0
  6
Continuous
 62
     7
370
    15
100
AcDbLine
 10
2153.348651914919
 20
869.8198560482671
 30
0.0
 11
2153.348651914919
 21
874.5449243166905
 31
0.0
  0
SPLINE
  5
D25
330
C10
100
AcDbEntity
  8
0
  6
Continuous
 62
     7
370
    15
100
AcDbSpline
210
0.0
220
0.0
230
1.0
 70
     8
 71
     3
 72
    14
 73
    10
 74
     0
 42
0.0000000001
 43
0.0000000001
 40
0.0
 40
0.0
 40
0.0
 40
0.0
 40
0.0840876777391322
 40
0.1672016938460899
 40
0.250755854568427
 40
0.5000979028892965
 40
0.7494399512101743
 40
0.8738244721235327
 40
1.0
 40
1.0
 40
1.0
 40
1.0
 10
2153.560784192386
 20
869.6973548811518
 30
0.0
 10
2153.55147437912
 20
869.6924032491162
 30
0.0
 10
2153.532962552066
 20
869.6825573206053
 30
0.0
 10
2153.505665728316
 20
869.6732968368431
 30
0.0
 10
2153.461984026405
 20
869.6650562953459
 30
0.0
 10
2153.406755104405
 20
869.675660035276
 30
0.0
 10
2153.367789127025
 20
869.7212391120187
 30
0.0
 10
2153.351025748944
 20
869.7729977252405
 30
0.0
 10
2153.349447015309
 20
869.8041623171823
 30
0.0
 10
2153.348652006086
 20
869.8198559956367
 30
0.0
  0
LINE
  5
D26
330
C10
100
AcDbEntity
  8
0
  6
Continuous
 62
     7
370
    15
100
AcDbLine
 10
2150.237382229095
 20
870.4730161753868
 30
0.0
 11
2150.237382229095
 21
875.4021791882781
 31
0.0
  0
LINE
  5
D27
330
C10
100
AcDbEntity
  8
0
  6
Continuous
 62
     7
370
    15
100
AcDbLine
 10
2152.358706813068
 20
869.2483728176069
 30
0.0
 11
2150.237382229095
 21
870.4730161753868
 31
0.0
  0
LINE
  5
D28
330
C10
100
AcDbEntity
  8
0
  6
Continuous
 62
     7
370
    15
100
AcDbLine
 10
2148.363569840599
 20
881.4877495179707
 30
0.0
 11
2146.242249497039
 21
880.2631373502368
 31
0.0
  0
LINE
  5
D29
330
C10
100
AcDbEntity
  8
0
  6
Continuous
 62
     7
370
    15
100
AcDbLine
 10
2148.363569840599
 20
881.9563453376426
 30
0.0
 11
2148.363569840599
 21
881.4877495179707
 31
0.0
  0
LINE
  5
D2A
330
C10
100
AcDbEntity
  8
0
  6
Continuous
 62
     7
370
    15
100
AcDbLine
 10
2160.355355080378
 20
859.5706508672785
 30
0.0
 11
2158.449275590155
 21
858.4702945993148
 31
0.0
  0
LINE
  5
D2B
330
C10
100
AcDbEntity
  8
0
  6
Continuous
 62
     7
370
    15
100
AcDbLine
 10
2160.594940911799
 20
861.0013880234774
 30
0.0
 11
2160.355355080378
 21
859.5706508672785
 31
0.0
  0
LINE
  5
D2C
330
C10
100
AcDbEntity
  8
0
  6
Continuous
 62
     7
370
    15
100
AcDbLine
 10
2145.004812629963
 20
882.1778170566769
 30
0.0
 11
2144.721969917488
 21
882.0145354343125
 31
0.0
  0
LINE
  5
D2D
330
C10
100
AcDbEntity
  8
0
  6
Continuous
 62
     7
370
    15
100
AcDbLine
 10
2144.721969917488
 20
882.0145354343125
 30
0.0
 11
2145.004812629963
 21
881.1163140012254
 31
0.0
  0
LINE
  5
D2E
330
C10
100
AcDbEntity
  8
0
  6
Continuous
 62
     7
370
    15
100
AcDbLine
 10
2142.600649573928
 20
883.2391476020465
 30
0.0
 11
2144.721969917488
 21
882.0145354343125
 31
0.0
  0
LINE
  5
D2F
330
C10
100
AcDbEntity
  8
0
  6
Continuous
 62
     7
370
    15
100
AcDbLine
 10
2142.883492286403
 20
883.4024292244109
 30
0.0
 11
2142.600649573928
 21
883.2391476020465
 31
0.0
  0
LINE
  5
D30
330
C10
100
AcDbEntity
  8
0
  6
Continuous
 62
     7
370
    15
100
AcDbLine
 10
2142.600649573928
 20
883.2391476020465
 30
0.0
 11
2142.883492286403
 21
882.3409261689596
 31
0.0
  0
LINE
  5
D31
330
C10
100
AcDbEntity
  8
0
  6
Continuous
 62
     7
370
    15
100
AcDbLine
 10
2146.138694431305
 20
880.0342227098667
 30
0.0
 11
2148.260014774864
 21
881.2588348776008
 31
0.0
  0
ARC
  5
D32
330
C10
100
AcDbEntity
  8
0
  6
Continuous
 62
     7
370
    15
100
AcDbCircle
 10
2148.113239678883
 20
881.4631122743826
 30
0.0
 40
0.25153962637368
100
AcDbArc
 50
305.6975759694274
 51
5.620891283964278
  0
LINE
  5
D33
330
C10
100
AcDbEntity
  8
0
  6
Continuous
 62
     7
370
    15
100
AcDbLine
 10
2146.098318334619
 20
880.0109076781705
 30
0.0
 11
2148.219638678178
 21
881.2355198459044
 31
0.0
  0
LINE
  5
D34
330
C10
100
AcDbEntity
  8
0
  6
Continuous
 62
     7
370
    15
100
AcDbLine
 10
2148.260014774864
 20
881.2588348776008
 30
0.0
 11
2148.219638678178
 21
881.2355198459044
 31
0.0
  0
LINE
  5
D35
330
C10
100
AcDbEntity
  8
0
  6
Continuous
 62
     7
370
    15
100
AcDbLine
 10
2145.994761405338
 20
879.7819947906965
 30
0.0
 11
2148.116081748898
 21
881.0066066993387
 31
0.0
  0
ARC
  5
D36
330
C10
100
AcDbEntity
  8
0
  6
Continuous
 62
     7
370
    15
100
AcDbCircle
 10
2148.366409535125
 20
881.0312424896622
 30
0.0
 40
0.2515371199687455
100
AcDbArc
 50
125.6967972034983
 51
185.6206148451829
  0
LINE
  5
D37
330
C10
100
AcDbEntity
  8
0
  6
Continuous
 62
     7
370
    15
100
AcDbLine
 10
2148.116083556735
 20
879.3617912191805
 30
0.0
 11
2145.994763213176
 21
878.1371790514466
 31
0.0
  0
LINE
  5
D38
330
C10
100
AcDbEntity
  8
0
  6
Continuous
 62
     7
370
    15
100
AcDbLine
 10
2148.116081748898
 20
881.0066066993387
 30
0.0
 11
2148.116083556735
 21
879.3617912191805
 31
0.0
  0
SPLINE
  5
D39
330
C10
100
AcDbEntity
  8
0
  6
Continuous
 62
     7
370
    15
100
AcDbSpline
210
0.0
220
0.0
230
1.0
 70
     8
 71
     3
 72
     9
 73
     5
 74
     0
 42
0.0000000001
 43
0.0000000001
 40
0.0
 40
0.0
 40
0.0
 40
0.0
 40
0.4289592542054201
 40
0.9999999999999998
 40
0.9999999999999998
 40
0.9999999999999998
 40
0.9999999999999998
 10
2160.213556715401
 20
859.3517438085626
 30
0.0
 10
2160.244001453303
 20
859.3703937898105
 30
0.0
 10
2160.314974949279
 20
859.4138710689806
 30
0.0
 10
2160.340677739742
 20
859.5136646604057
 30
0.0
 10
2160.355355080378
 20
859.5706508672785
 30
0.0
  0
LINE
  5
D3A
330
C10
100
AcDbEntity
  8
0
  6
Continuous
 62
     7
370
    15
100
AcDbLine
 10
2151.900639975941
 20
868.4940116056944
 30
0.0
 11
2149.779311679541
 21
869.7186571066342
 31
0.0
  0
ARC
  5
D3B
330
C10
100
AcDbEntity
  8
0
  6
Continuous
 62
     7
370
    15
100
AcDbCircle
 10
2150.239876509908
 20
869.6976988509945
 30
0.0
 40
0.4610414422266449
100
AcDbArc
 50
122.605478337233
 51
177.3945215188625
  0
LINE
  5
D3C
330
C10
100
AcDbEntity
  8
0
  6
Continuous
 62
     7
370
    15
100
AcDbLine
 10
2152.112771858362
 20
868.8614351537678
 30
0.0
 11
2149.991443713897
 21
870.086080566986
 31
0.0
  0
LINE
  5
D3D
330
C10
100
AcDbEntity
  8
0
  6
Continuous
 62
     7
370
    15
100
AcDbLine
 10
2152.146574945851
 20
868.8809492607859
 30
0.0
 11
2150.025248506712
 21
870.1055936895352
 31
0.0
  0
ARC
  5
D3E
330
C10
100
AcDbEntity
  8
0
  6
Continuous
 62
     7
370
    15
100
AcDbCircle
 10
2149.77682685176
 20
870.4939711447021
 30
0.0
 40
0.4610318495840758
100
AcDbArc
 50
302.6045973000148
 51
357.3948761075826
  0
LINE
  5
D3F
330
C10
100
AcDbEntity
  8
0
  6
Continuous
 62
     7
370
    15
100
AcDbLine
 10
2151.661050490764
 20
862.3890535360638
 30
0.0
 11
2151.900636322185
 21
863.8197906922625
 31
0.0
  0
SPLINE
  5
D40
330
C10
100
AcDbEntity
  8
0
  6
Continuous
 62
     7
370
    15
100
AcDbSpline
210
0.0
220
0.0
230
1.0
 70
     8
 71
     3
 72
    10
 73
     6
 74
     0
 42
0.0000000001
 43
0.0000000001
 40
0.0
 40
0.0
 40
0.0
 40
0.0
 40
0.5
 40
0.5
 40
1.0
 40
1.0
 40
1.0
 40
1.0
 10
2151.661050490764
 20
862.3890535360638
 30
0.0
 10
2151.64104870561
 20
862.2696086713977
 30
0.0
 10
2151.579996677556
 20
862.1827425255334
 30
0.0
 10
2151.403521695821
 20
862.1136218893248
 30
0.0
 10
2151.288781375499
 20
862.1316347686184
 30
0.0
 10
2151.173595497843
 20
862.198130160395
 30
0.0
  0
LINE
  5
D41
330
C10
100
AcDbEntity
  8
0
  6
Continuous
 62
     7
370
    15
100
AcDbLine
 10
2150.506352503882
 20
862.5833213417836
 30
0.0
 11
2151.173595497843
 21
862.1981301603948
 31
0.0
  0
ARC
  5
D42
330
C10
100
AcDbEntity
  8
0
  6
Continuous
 62
     7
370
    15
100
AcDbCircle
 10
2151.101128505727
 20
863.5024670318383
 30
0.0
 40
1.094800115051132
100
AcDbArc
 50
188.6903853336126
 51
237.093233599564
  0
LINE
  5
D43
330
C10
100
AcDbEntity
  8
0
  6
Continuous
 62
     7
370
    15
100
AcDbLine
 10
2149.779311679541
 20
865.0444053418056
 30
0.0
 11
2150.018897510961
 21
863.3370482726686
 31
0.0
  0
LINE
  5
D44
330
C10
100
AcDbEntity
  8
0
  6
Continuous
 62
     7
370
    15
100
AcDbLine
 10
2149.779311679541
 20
869.7186571066342
 30
0.0
 11
2149.779311679541
 21
865.0444053418056
 31
0.0
  0
LINE
  5
D45
330
C10
100
AcDbEntity
  8
0
  6
Continuous
 62
     7
370
    15
100
AcDbLine
 10
2150.025248506712
 20
870.1055936895352
 30
0.0
 11
2149.991443713897
 21
870.086080566986
 31
0.0
  0
LINE
  5
D46
330
C10
100
AcDbEntity
  8
0
  6
Continuous
 62
     7
370
    15
100
AcDbLine
 10
2145.74727691872
 20
877.994261809928
 30
0.0
 11
2147.868597262279
 21
879.2188739776621
 31
0.0
  0
LINE
  5
D47
330
C10
100
AcDbEntity
  8
0
  6
Continuous
 62
     7
370
    15
100
AcDbLine
 10
2148.116083556735
 20
879.3617912191805
 30
0.0
 11
2147.868597262279
 21
879.2188739776621
 31
0.0
  0
LINE
  5
D48
330
C10
100
AcDbEntity
  8
0
  6
Continuous
 62
     7
370
    15
100
AcDbLine
 10
2146.772555591173
 20
873.6161158394596
 30
0.0
 11
2146.806358678661
 21
873.6356299464969
 31
0.0
  0
ARC
  5
D49
330
C10
100
AcDbEntity
  8
0
  6
Continuous
 62
     7
370
    15
100
AcDbCircle
 10
2146.889171533225
 20
873.5341042386528
 30
0.0
 40
0.1310131587923088
100
AcDbArc
 50
350.7863151497708
 51
129.2029331086786
  0
LINE
  5
D4A
330
C10
100
AcDbEntity
  8
0
  6
Continuous
 62
     7
370
    15
100
AcDbLine
 10
2147.018497266096
 20
868.8389021139634
 30
0.0
 11
2147.018494366791
 21
873.5131268104217
 31
0.0
  0
LINE
  5
D4B
330
C10
100
AcDbEntity
  8
0
  6
Continuous
 62
     7
370
    15
100
AcDbLine
 10
2145.112411222794
 20
867.7385496290117
 30
0.0
 11
2147.018490713017
 21
868.8389058969754
 31
0.0
  0
LINE
  5
D4C
330
C10
100
AcDbEntity
  8
0
  6
Continuous
 62
     7
370
    15
100
AcDbLine
 10
2145.112414876551
 20
872.4127705424439
 30
0.0
 11
2145.112417775874
 21
867.7385458459994
 31
0.0
  0
ARC
  5
D4D
330
C10
100
AcDbEntity
  8
0
  6
Continuous
 62
     7
370
    15
100
AcDbCircle
 10
2145.572967298272
 20
872.391819646387
 30
0.0
 40
0.4610287119033014
100
AcDbArc
 50
122.6046821355893
 51
177.3953651058657
  0
LINE
  5
D4E
330
C10
100
AcDbEntity
  8
0
  6
Continuous
 62
     7
370
    15
100
AcDbLine
 10
2145.324546758972
 20
872.7801940905166
 30
0.0
 11
2145.35834984646
 21
872.7997081975349
 31
0.0
  0
ARC
  5
D4F
330
C10
100
AcDbEntity
  8
0
  6
Continuous
 62
     7
370
    15
100
AcDbCircle
 10
2145.109916795098
 20
873.1880898459419
 30
0.0
 40
0.4610415228891999
100
AcDbArc
 50
302.6055095954587
 51
357.3945423838766
  0
LINE
  5
D50
330
C10
100
AcDbEntity
  8
0
  6
Continuous
 62
     7
370
    15
100
AcDbLine
 10
2145.57048178076
 20
878.0963234706282
 30
0.0
 11
2145.570481713677
 21
873.1671317543559
 31
0.0
  0
LINE
  5
D51
330
C10
100
AcDbEntity
  8
0
  6
Continuous
 62
     7
370
    15
100
AcDbLine
 10
2146.560426815528
 20
873.7386149850163
 30
0.0
 11
2146.560426815528
 21
878.4636832534395
 31
0.0
  0
SPLINE
  5
D52
330
C10
100
AcDbEntity
  8
0
  6
Continuous
 62
     7
370
    15
100
AcDbSpline
210
0.0
220
0.0
230
1.0
 70
     8
 71
     3
 72
    14
 73
    10
 74
     0
 42
0.0000000001
 43
0.0000000001
 40
0.0
 40
0.0
 40
0.0
 40
0.0
 40
0.0840876777391322
 40
0.1672016938460899
 40
0.250755854568427
 40
0.5000979028892965
 40
0.7494399512101743
 40
0.8738244721235327
 40
1.0
 40
1.0
 40
1.0
 40
1.0
 10
2146.772559092996
 20
873.6161138179008
 30
0.0
 10
2146.763249279729
 20
873.6111621858652
 30
0.0
 10
2146.744737452676
 20
873.6013162573545
 30
0.0
 10
2146.717440628925
 20
873.5920557735921
 30
0.0
 10
2146.673758927014
 20
873.5838152320948
 30
0.0
 10
2146.618530005014
 20
873.594418972025
 30
0.0
 10
2146.579564027634
 20
873.6399980487675
 30
0.0
 10
2146.562800649553
 20
873.6917566619897
 30
0.0
 10
2146.561221915918
 20
873.7229212539315
 30
0.0
 10
2146.560426906695
 20
873.7386149323858
 30
0.0
  0
LINE
  5
D53
330
C10
100
AcDbEntity
  8
0
  6
Continuous
 62
     7
370
    15
100
AcDbLine
 10
2143.449157129704
 20
874.3917751121358
 30
0.0
 11
2143.449157129704
 21
879.3209381250271
 31
0.0
  0
LINE
  5
D54
330
C10
100
AcDbEntity
  8
0
  6
Continuous
 62
     7
370
    15
100
AcDbLine
 10
2145.570481713677
 20
873.1671317543559
 30
0.0
 11
2143.449157129704
 21
874.3917751121358
 31
0.0
  0
LINE
  5
D55
330
C10
100
AcDbEntity
  8
0
  6
Continuous
 62
     7
370
    15
100
AcDbLine
 10
2141.575344741208
 20
885.4065084547199
 30
0.0
 11
2139.454024397648
 21
884.1818962869858
 31
0.0
  0
LINE
  5
D56
330
C10
100
AcDbEntity
  8
0
  6
Continuous
 62
     7
370
    15
100
AcDbLine
 10
2141.575344741208
 20
885.8751042743918
 30
0.0
 11
2141.575344741208
 21
885.4065084547199
 31
0.0
  0
LINE
  5
D57
330
C10
100
AcDbEntity
  8
0
  6
Continuous
 62
     7
370
    15
100
AcDbLine
 10
2153.567129980987
 20
863.4894098040277
 30
0.0
 11
2151.661050490764
 21
862.3890535360638
 31
0.0
  0
LINE
  5
D58
330
C10
100
AcDbEntity
  8
0
  6
Continuous
 62
     7
370
    15
100
AcDbLine
 10
2153.806715812407
 20
864.9201469602264
 30
0.0
 11
2153.567129980987
 21
863.4894098040277
 31
0.0
  0
LINE
  5
D59
330
C10
100
AcDbEntity
  8
0
  6
Continuous
 62
     7
370
    15
100
AcDbLine
 10
2138.216587530572
 20
886.0965759934261
 30
0.0
 11
2137.933744818097
 21
885.9332943710615
 31
0.0
  0
LINE
  5
D5A
330
C10
100
AcDbEntity
  8
0
  6
Continuous
 62
     7
370
    15
100
AcDbLine
 10
2137.933744818097
 20
885.9332943710615
 30
0.0
 11
2138.216587530572
 21
885.0350729379744
 31
0.0
  0
LINE
  5
D5B
330
C10
100
AcDbEntity
  8
0
  6
Continuous
 62
     7
370
    15
100
AcDbLine
 10
2135.812424474538
 20
887.1579065387955
 30
0.0
 11
2136.095267187013
 21
886.2596851057086
 31
0.0
  0
LINE
  5
D5C
330
C10
100
AcDbEntity
  8
0
  6
Continuous
 62
     7
370
    15
100
AcDbLine
 10
2135.812424474538
 20
887.1579065387955
 30
0.0
 11
2137.933744818097
 21
885.9332943710615
 31
0.0
  0
LINE
  5
D5D
330
C10
100
AcDbEntity
  8
0
  6
Continuous
 62
     7
370
    15
100
AcDbLine
 10
2136.095267187013
 20
887.3211881611601
 30
0.0
 11
2135.812424474538
 21
887.1579065387955
 31
0.0
  0
LINE
  5
D5E
330
C10
100
AcDbEntity
  8
0
  6
Continuous
 62
     7
370
    15
100
AcDbLine
 10
2139.350469331914
 20
883.9529816466159
 30
0.0
 11
2141.471789675474
 21
885.1775938143498
 31
0.0
  0
ARC
  5
D5F
330
C10
100
AcDbEntity
  8
0
  6
Continuous
 62
     7
370
    15
100
AcDbCircle
 10
2141.325014579492
 20
885.3818712111317
 30
0.0
 40
0.2515396263741632
100
AcDbArc
 50
305.6975759694925
 51
5.620891283918901
  0
LINE
  5
D60
330
C10
100
AcDbEntity
  8
0
  6
Continuous
 62
     7
370
    15
100
AcDbLine
 10
2139.310093235228
 20
883.9296666149195
 30
0.0
 11
2141.431413578787
 21
885.1542787826536
 31
0.0
  0
LINE
  5
D61
330
C10
100
AcDbEntity
  8
0
  6
Continuous
 62
     7
370
    15
100
AcDbLine
 10
2141.471789675474
 20
885.1775938143498
 30
0.0
 11
2141.431413578787
 21
885.1542787826536
 31
0.0
  0
LINE
  5
D62
330
C10
100
AcDbEntity
  8
0
  6
Continuous
 62
     7
370
    15
100
AcDbLine
 10
2139.206536305947
 20
883.7007537274455
 30
0.0
 11
2141.327856649507
 21
884.9253656360877
 31
0.0
  0
ARC
  5
D63
330
C10
100
AcDbEntity
  8
0
  6
Continuous
 62
     7
370
    15
100
AcDbCircle
 10
2141.578184435734
 20
884.9500014264114
 30
0.0
 40
0.2515371199684235
100
AcDbArc
 50
125.6967972034188
 51
185.6206148451894
  0
LINE
  5
D64
330
C10
100
AcDbEntity
  8
0
  6
Continuous
 62
     7
370
    15
100
AcDbLine
 10
2141.327858457344
 20
883.2805501559297
 30
0.0
 11
2139.206538113784
 21
882.0559379881956
 31
0.0
  0
LINE
  5
D65
330
C10
100
AcDbEntity
  8
0
  6
Continuous
 62
     7
370
    15
100
AcDbLine
 10
2141.327856649507
 20
884.9253656360877
 30
0.0
 11
2141.327858457344
 21
883.2805501559297
 31
0.0
  0
SPLINE
  5
D66
330
C10
100
AcDbEntity
  8
0
  6
Continuous
 62
     7
370
    15
100
AcDbSpline
210
0.0
220
0.0
230
1.0
 70
     8
 71
     3
 72
     9
 73
     5
 74
     0
 42
0.0000000001
 43
0.0000000001
 40
0.0
 40
0.0
 40
0.0
 40
0.0
 40
0.4289592542052287
 40
1.0
 40
1.0
 40
1.0
 40
1.0
 10
2153.425331616011
 20
863.2705027453116
 30
0.0
 10
2153.455776353912
 20
863.2891527265595
 30
0.0
 10
2153.526749849888
 20
863.3326300057298
 30
0.0
 10
2153.552452640352
 20
863.4324235971549
 30
0.0
 10
2153.567129980987
 20
863.4894098040277
 30
0.0
  0
LINE
  5
D67
330
C10
100
AcDbEntity
  8
0
  6
Continuous
 62
     7
370
    15
100
AcDbLine
 10
2145.11241487655
 20
872.4127705424436
 30
0.0
 11
2142.99108658015
 21
873.6374160433832
 31
0.0
  0
ARC
  5
D68
330
C10
100
AcDbEntity
  8
0
  6
Continuous
 62
     7
370
    15
100
AcDbCircle
 10
2143.451651410517
 20
873.6164577877435
 30
0.0
 40
0.4610414422268331
100
AcDbArc
 50
122.6054783372439
 51
177.3945215188559
  0
LINE
  5
D69
330
C10
100
AcDbEntity
  8
0
  6
Continuous
 62
     7
370
    15
100
AcDbLine
 10
2145.324546758972
 20
872.7801940905166
 30
0.0
 11
2143.203218614506
 21
874.004839503735
 31
0.0
  0
LINE
  5
D6A
330
C10
100
AcDbEntity
  8
0
  6
Continuous
 62
     7
370
    15
100
AcDbLine
 10
2145.35834984646
 20
872.7997081975349
 30
0.0
 11
2143.237023407321
 21
874.0243526262842
 31
0.0
  0
ARC
  5
D6B
330
C10
100
AcDbEntity
  8
0
  6
Continuous
 62
     7
370
    15
100
AcDbCircle
 10
2142.988601752369
 20
874.4127300814513
 30
0.0
 40
0.4610318495845864
100
AcDbArc
 50
302.6045973000293
 51
357.3948761075371
  0
LINE
  5
D6C
330
C10
100
AcDbEntity
  8
0
  6
Continuous
 62
     7
370
    15
100
AcDbLine
 10
2144.872825391373
 20
866.3078124728128
 30
0.0
 11
2145.112411222794
 21
867.7385496290117
 31
0.0
  0
SPLINE
  5
D6D
330
C10
100
AcDbEntity
  8
0
  6
Continuous
 62
     7
370
    15
100
AcDbSpline
210
0.0
220
0.0
230
1.0
 70
     8
 71
     3
 72
    10
 73
     6
 74
     0
 42
0.0000000001
 43
0.0000000001
 40
0.0
 40
0.0
 40
0.0
 40
0.0
 40
0.5
 40
0.5
 40
1.0
 40
1.0
 40
1.0
 40
1.0
 10
2144.872825391373
 20
866.3078124728128
 30
0.0
 10
2144.852823606219
 20
866.1883676081467
 30
0.0
 10
2144.791771578165
 20
866.1015014622824
 30
0.0
 10
2144.61529659643
 20
866.032380826074
 30
0.0
 10
2144.500556276109
 20
866.0503937053674
 30
0.0
 10
2144.385370398453
 20
866.1168890971438
 30
0.0
  0
LINE
  5
D6E
330
C10
100
AcDbEntity
  8
0
  6
Continuous
 62
     7
370
    15
100
AcDbLine
 10
2143.718127404492
 20
866.5020802785328
 30
0.0
 11
2144.385370398453
 21
866.1168890971438
 31
0.0
  0
ARC
  5
D6F
330
C10
100
AcDbEntity
  8
0
  6
Continuous
 62
     7
370
    15
100
AcDbCircle
 10
2144.312903406337
 20
867.4212259685877
 30
0.0
 40
1.094800115051871
100
AcDbArc
 50
188.6903853336255
 51
237.0932335995351
  0
LINE
  5
D70
330
C10
100
AcDbEntity
  8
0
  6
Continuous
 62
     7
370
    15
100
AcDbLine
 10
2142.99108658015
 20
868.9631642785547
 30
0.0
 11
2143.23067241157
 21
867.2558072094176
 31
0.0
  0
LINE
  5
D71
330
C10
100
AcDbEntity
  8
0
  6
Continuous
 62
     7
370
    15
100
AcDbLine
 10
2142.99108658015
 20
873.6374160433832
 30
0.0
 11
2142.99108658015
 21
868.9631642785547
 31
0.0
  0
LINE
  5
D72
330
C10
100
AcDbEntity
  8
0
  6
Continuous
 62
     7
370
    15
100
AcDbLine
 10
2143.237023407321
 20
874.0243526262842
 30
0.0
 11
2143.203218614506
 21
874.004839503735
 31
0.0
  0
LINE
  5
D73
330
C10
100
AcDbEntity
  8
0
  6
Continuous
 62
     7
370
    15
100
AcDbLine
 10
2138.959051819328
 20
881.9130207466772
 30
0.0
 11
2141.080372162888
 21
883.1376329144111
 31
0.0
  0
LINE
  5
D74
330
C10
100
AcDbEntity
  8
0
  6
Continuous
 62
     7
370
    15
100
AcDbLine
 10
2141.327858457344
 20
883.2805501559297
 30
0.0
 11
2141.080372162888
 21
883.1376329144111
 31
0.0
  0
LINE
  5
D75
330
C10
100
AcDbEntity
  8
0
  6
Continuous
 62
     7
370
    15
100
AcDbLine
 10
2139.984330491783
 20
877.5348747762087
 30
0.0
 11
2140.01813357927
 21
877.5543888832457
 31
0.0
  0
ARC
  5
D76
330
C10
100
AcDbEntity
  8
0
  6
Continuous
 62
     7
370
    15
100
AcDbCircle
 10
2140.100946433834
 20
877.4528631754018
 30
0.0
 40
0.1310131587922708
100
AcDbArc
 50
350.7863151496915
 51
129.2029331087336
  0
LINE
  5
D77
330
C10
100
AcDbEntity
  8
0
  6
Continuous
 62
     7
370
    15
100
AcDbLine
 10
2140.230272166705
 20
872.7576610507124
 30
0.0
 11
2140.2302692674
 21
877.4318857471707
 31
0.0
  0
LINE
  5
D78
330
C10
100
AcDbEntity
  8
0
  6
Continuous
 62
     7
370
    15
100
AcDbLine
 10
2138.324186123403
 20
871.6573085657607
 30
0.0
 11
2140.230265613626
 21
872.7576648337244
 31
0.0
  0
LINE
  5
D79
330
C10
100
AcDbEntity
  8
0
  6
Continuous
 62
     7
370
    15
100
AcDbLine
 10
2138.32418977716
 20
876.3315294791931
 30
0.0
 11
2138.324192676482
 21
871.6573047827484
 31
0.0
  0
ARC
  5
D7A
330
C10
100
AcDbEntity
  8
0
  6
Continuous
 62
     7
370
    15
100
AcDbCircle
 10
2138.784742198882
 20
876.3105785831355
 30
0.0
 40
0.4610287119040188
100
AcDbArc
 50
122.6046821356218
 51
177.3953651058196
  0
LINE
  5
D7B
330
C10
100
AcDbEntity
  8
0
  6
Continuous
 62
     7
370
    15
100
AcDbLine
 10
2138.536321659581
 20
876.6989530272658
 30
0.0
 11
2138.570124747069
 21
876.7184671342839
 31
0.0
  0
ARC
  5
D7C
330
C10
100
AcDbEntity
  8
0
  6
Continuous
 62
     7
370
    15
100
AcDbCircle
 10
2138.321691695707
 20
877.106848782691
 30
0.0
 40
0.4610415228897083
100
AcDbArc
 50
302.6055095954877
 51
357.394542383844
  0
LINE
  5
D7D
330
C10
100
AcDbEntity
  8
0
  6
Continuous
 62
     7
370
    15
100
AcDbLine
 10
2138.782256681369
 20
882.0150824073774
 30
0.0
 11
2138.782256614286
 21
877.0858906911051
 31
0.0
  0
LINE
  5
D7E
330
C10
100
AcDbEntity
  8
0
  6
Continuous
 62
     7
370
    15
100
AcDbLine
 10
2139.772201716137
 20
877.6573739217653
 30
0.0
 11
2139.772201716137
 21
882.3824421901885
 31
0.0
  0
SPLINE
  5
D7F
330
C10
100
AcDbEntity
  8
0
  6
Continuous
 62
     7
370
    15
100
AcDbSpline
210
0.0
220
0.0
230
1.0
 70
     8
 71
     3
 72
    14
 73
    10
 74
     0
 42
0.0000000001
 43
0.0000000001
 40
0.0
 40
0.0
 40
0.0
 40
0.0
 40
0.0840876777391322
 40
0.1672016938460899
 40
0.250755854568427
 40
0.5000979028892965
 40
0.7494399512101743
 40
0.8738244721235327
 40
1.0
 40
1.0
 40
1.0
 40
1.0
 10
2139.984333993604
 20
877.53487275465
 30
0.0
 10
2139.975024180338
 20
877.5299211226142
 30
0.0
 10
2139.956512353285
 20
877.5200751941035
 30
0.0
 10
2139.929215529534
 20
877.5108147103411
 30
0.0
 10
2139.885533827623
 20
877.5025741688439
 30
0.0
 10
2139.830304905624
 20
877.513177908774
 30
0.0
 10
2139.791338928244
 20
877.5587569855167
 30
0.0
 10
2139.774575550163
 20
877.6105155987387
 30
0.0
 10
2139.772996816527
 20
877.6416801906803
 30
0.0
 10
2139.772201807304
 20
877.6573738691348
 30
0.0
  0
LINE
  5
D80
330
C10
100
AcDbEntity
  8
0
  6
Continuous
 62
     7
370
    15
100
AcDbLine
 10
2136.660932030313
 20
878.3105340488848
 30
0.0
 11
2136.660932030313
 21
883.2396970617761
 31
0.0
  0
LINE
  5
D81
330
C10
100
AcDbEntity
  8
0
  6
Continuous
 62
     7
370
    15
100
AcDbLine
 10
2138.782256614286
 20
877.0858906911051
 30
0.0
 11
2136.660932030313
 21
878.3105340488848
 31
0.0
  0
LINE
  5
D82
330
C10
100
AcDbEntity
  8
0
  6
Continuous
 62
     7
370
    15
100
AcDbLine
 10
2134.787119641817
 20
889.3252673914687
 30
0.0
 11
2132.665799298258
 21
888.1006552237346
 31
0.0
  0
LINE
  5
D83
330
C10
100
AcDbEntity
  8
0
  6
Continuous
 62
     7
370
    15
100
AcDbLine
 10
2134.787119641817
 20
889.7938632111406
 30
0.0
 11
2134.787119641817
 21
889.3252673914687
 31
0.0
  0
LINE
  5
D84
330
C10
100
AcDbEntity
  8
0
  6
Continuous
 62
     7
370
    15
100
AcDbLine
 10
2146.778904881596
 20
867.4081687407767
 30
0.0
 11
2144.872825391373
 21
866.3078124728128
 31
0.0
  0
LINE
  5
D85
330
C10
100
AcDbEntity
  8
0
  6
Continuous
 62
     7
370
    15
100
AcDbLine
 10
2147.018490713017
 20
868.8389058969756
 30
0.0
 11
2146.778904881596
 21
867.4081687407767
 31
0.0
  0
LINE
  5
D86
330
C10
100
AcDbEntity
  8
0
  6
Continuous
 62
     7
370
    15
100
AcDbLine
 10
2131.428362431181
 20
890.0153349301749
 30
0.0
 11
2131.145519718707
 21
889.8520533078105
 31
0.0
  0
LINE
  5
D87
330
C10
100
AcDbEntity
  8
0
  6
Continuous
 62
     7
370
    15
100
AcDbLine
 10
2131.145519718707
 20
889.8520533078105
 30
0.0
 11
2131.428362431181
 21
888.9538318747234
 31
0.0
  0
LINE
  5
D88
330
C10
100
AcDbEntity
  8
0
  6
Continuous
 62
     7
370
    15
100
AcDbLine
 10
2129.024199375147
 20
891.0766654755445
 30
0.0
 11
2131.145519718707
 21
889.8520533078105
 31
0.0
  0
LINE
  5
D89
330
C10
100
AcDbEntity
  8
0
  6
Continuous
 62
     7
370
    15
100
AcDbLine
 10
2129.307042087622
 20
891.2399470979089
 30
0.0
 11
2129.024199375147
 21
891.0766654755445
 31
0.0
  0
LINE
  5
D8A
330
C10
100
AcDbEntity
  8
0
  6
Continuous
 62
     7
370
    15
100
AcDbLine
 10
2129.024199375147
 20
891.0766654755445
 30
0.0
 11
2129.307042087622
 21
890.1784440424576
 31
0.0
  0
LINE
  5
D8B
330
C10
100
AcDbEntity
  8
0
  6
Continuous
 62
     7
370
    15
100
AcDbLine
 10
2132.562244232524
 20
887.8717405833647
 30
0.0
 11
2134.683564576083
 21
889.0963527510988
 31
0.0
  0
ARC
  5
D8C
330
C10
100
AcDbEntity
  8
0
  6
Continuous
 62
     7
370
    15
100
AcDbCircle
 10
2134.536789480101
 20
889.3006301478807
 30
0.0
 40
0.2515396263743661
100
AcDbArc
 50
305.6975759695069
 51
5.62089128389297
  0
LINE
  5
D8D
330
C10
100
AcDbEntity
  8
0
  6
Continuous
 62
     7
370
    15
100
AcDbLine
 10
2132.521868135837
 20
887.8484255516685
 30
0.0
 11
2134.643188479397
 21
889.0730377194024
 31
0.0
  0
LINE
  5
D8E
330
C10
100
AcDbEntity
  8
0
  6
Continuous
 62
     7
370
    15
100
AcDbLine
 10
2134.683564576083
 20
889.0963527510988
 30
0.0
 11
2134.643188479397
 21
889.0730377194024
 31
0.0
  0
LINE
  5
D8F
330
C10
100
AcDbEntity
  8
0
  6
Continuous
 62
     7
370
    15
100
AcDbLine
 10
2132.418311206556
 20
887.6195126641945
 30
0.0
 11
2134.539631550117
 21
888.8441245728367
 31
0.0
  0
ARC
  5
D90
330
C10
100
AcDbEntity
  8
0
  6
Continuous
 62
     7
370
    15
100
AcDbCircle
 10
2134.789959336344
 20
888.8687603631604
 30
0.0
 40
0.2515371199686434
100
AcDbArc
 50
125.6967972034983
 51
185.6206148452088
  0
LINE
  5
D91
330
C10
100
AcDbEntity
  8
0
  6
Continuous
 62
     7
370
    15
100
AcDbLine
 10
2134.539633357953
 20
887.1993090926785
 30
0.0
 11
2132.418313014393
 21
885.9746969249444
 31
0.0
  0
LINE
  5
D92
330
C10
100
AcDbEntity
  8
0
  6
Continuous
 62
     7
370
    15
100
AcDbLine
 10
2134.539631550117
 20
888.8441245728367
 30
0.0
 11
2134.539633357953
 21
887.1993090926785
 31
0.0
  0
SPLINE
  5
D93
330
C10
100
AcDbEntity
  8
0
  6
Continuous
 62
     7
370
    15
100
AcDbSpline
210
0.0
220
0.0
230
1.0
 70
     8
 71
     3
 72
     9
 73
     5
 74
     0
 42
0.0000000001
 43
0.0000000001
 40
0.0
 40
0.0
 40
0.0
 40
0.0
 40
0.4289592542052287
 40
1.0
 40
1.0
 40
1.0
 40
1.0
 10
2146.63710651662
 20
867.1892616820608
 30
0.0
 10
2146.667551254521
 20
867.2079116633083
 30
0.0
 10
2146.738524750497
 20
867.251388942479
 30
0.0
 10
2146.764227540961
 20
867.3511825339039
 30
0.0
 10
2146.778904881596
 20
867.4081687407767
 30
0.0
  0
LINE
  5
D94
330
C10
100
AcDbEntity
  8
0
  6
Continuous
 62
     7
370
    15
100
AcDbLine
 10
2138.32418977716
 20
876.3315294791926
 30
0.0
 11
2136.202861480759
 21
877.5561749801324
 31
0.0
  0
ARC
  5
D95
330
C10
100
AcDbEntity
  8
0
  6
Continuous
 62
     7
370
    15
100
AcDbCircle
 10
2136.663426311126
 20
877.5352167244925
 30
0.0
 40
0.461041442226802
100
AcDbArc
 50
122.605478337233
 51
177.3945215188559
  0
LINE
  5
D96
330
C10
100
AcDbEntity
  8
0
  6
Continuous
 62
     7
370
    15
100
AcDbLine
 10
2138.536321659581
 20
876.6989530272658
 30
0.0
 11
2136.414993515115
 21
877.923598440484
 31
0.0
  0
LINE
  5
D97
330
C10
100
AcDbEntity
  8
0
  6
Continuous
 62
     7
370
    15
100
AcDbLine
 10
2138.570124747069
 20
876.7184671342839
 30
0.0
 11
2136.44879830793
 21
877.9431115630332
 31
0.0
  0
ARC
  5
D98
330
C10
100
AcDbEntity
  8
0
  6
Continuous
 62
     7
370
    15
100
AcDbCircle
 10
2136.200376652979
 20
878.3314890182003
 30
0.0
 40
0.4610318495842366
100
AcDbArc
 50
302.6045972999968
 51
357.3948761075566
  0
LINE
  5
D99
330
C10
100
AcDbEntity
  8
0
  6
Continuous
 62
     7
370
    15
100
AcDbLine
 10
2138.084600291982
 20
870.2265714095618
 30
0.0
 11
2138.324186123403
 21
871.6573085657607
 31
0.0
  0
SPLINE
  5
D9A
330
C10
100
AcDbEntity
  8
0
  6
Continuous
 62
     7
370
    15
100
AcDbSpline
210
0.0
220
0.0
230
1.0
 70
     8
 71
     3
 72
    10
 73
     6
 74
     0
 42
0.0000000001
 43
0.0000000001
 40
0.0
 40
0.0
 40
0.0
 40
0.0
 40
0.5
 40
0.5
 40
1.0
 40
1.0
 40
1.0
 40
1.0
 10
2138.084600291982
 20
870.2265714095618
 30
0.0
 10
2138.064598506828
 20
870.1071265448959
 30
0.0
 10
2138.003546478774
 20
870.0202603990318
 30
0.0
 10
2137.827071497039
 20
869.951139762823
 30
0.0
 10
2137.712331176718
 20
869.9691526421164
 30
0.0
 10
2137.597145299062
 20
870.035648033893
 30
0.0
  0
LINE
  5
D9B
330
C10
100
AcDbEntity
  8
0
  6
Continuous
 62
     7
370
    15
100
AcDbLine
 10
2136.929902305101
 20
870.4208392152818
 30
0.0
 11
2137.597145299062
 21
870.0356480338928
 31
0.0
  0
ARC
  5
D9C
330
C10
100
AcDbEntity
  8
0
  6
Continuous
 62
     7
370
    15
100
AcDbCircle
 10
2137.524678306945
 20
871.3399849053363
 30
0.0
 40
1.094800115051034
100
AcDbArc
 50
188.6903853336126
 51
237.093233599564
  0
LINE
  5
D9D
330
C10
100
AcDbEntity
  8
0
  6
Continuous
 62
     7
370
    15
100
AcDbLine
 10
2136.202861480759
 20
872.8819232153037
 30
0.0
 11
2136.44244731218
 21
871.1745661461666
 31
0.0
  0
LINE
  5
D9E
330
C10
100
AcDbEntity
  8
0
  6
Continuous
 62
     7
370
    15
100
AcDbLine
 10
2136.202861480759
 20
877.5561749801324
 30
0.0
 11
2136.202861480759
 21
872.8819232153037
 31
0.0
  0
LINE
  5
D9F
330
C10
100
AcDbEntity
  8
0
  6
Continuous
 62
     7
370
    15
100
AcDbLine
 10
2136.44879830793
 20
877.9431115630332
 30
0.0
 11
2136.414993515115
 21
877.923598440484
 31
0.0
  0
LINE
  5
DA0
330
C10
100
AcDbEntity
  8
0
  6
Continuous
 62
     7
370
    15
100
AcDbLine
 10
2132.170826719937
 20
885.831779683426
 30
0.0
 11
2134.292147063497
 21
887.0563918511601
 31
0.0
  0
LINE
  5
DA1
330
C10
100
AcDbEntity
  8
0
  6
Continuous
 62
     7
370
    15
100
AcDbLine
 10
2134.539633357953
 20
887.1993090926785
 30
0.0
 11
2134.292147063497
 21
887.0563918511601
 31
0.0
  0
LINE
  5
DA2
330
C10
100
AcDbEntity
  8
0
  6
Continuous
 62
     7
370
    15
100
AcDbLine
 10
2133.196105392392
 20
881.4536337129576
 30
0.0
 11
2133.229908479879
 21
881.4731478199947
 31
0.0
  0
ARC
  5
DA3
330
C10
100
AcDbEntity
  8
0
  6
Continuous
 62
     7
370
    15
100
AcDbCircle
 10
2133.312721334443
 20
881.3716221121508
 30
0.0
 40
0.1310131587922664
100
AcDbArc
 50
350.7863151497237
 51
129.2029331086603
  0
LINE
  5
DA4
330
C10
100
AcDbEntity
  8
0
  6
Continuous
 62
     7
370
    15
100
AcDbLine
 10
2133.442047067315
 20
876.6764199874613
 30
0.0
 11
2133.442044168009
 21
881.3506446839197
 31
0.0
  0
LINE
  5
DA5
330
C10
100
AcDbEntity
  8
0
  6
Continuous
 62
     7
370
    15
100
AcDbLine
 10
2131.535961024012
 20
875.5760675025097
 30
0.0
 11
2133.442040514236
 21
876.6764237704734
 31
0.0
  0
LINE
  5
DA6
330
C10
100
AcDbEntity
  8
0
  6
Continuous
 62
     7
370
    15
100
AcDbLine
 10
2131.53596467777
 20
880.2502884159419
 30
0.0
 11
2131.535967577092
 21
875.5760637194974
 31
0.0
  0
ARC
  5
DA7
330
C10
100
AcDbEntity
  8
0
  6
Continuous
 62
     7
370
    15
100
AcDbCircle
 10
2131.996517099491
 20
880.2293375198848
 30
0.0
 40
0.4610287119036808
100
AcDbArc
 50
122.6046821356218
 51
177.3953651058527
  0
LINE
  5
DA8
330
C10
100
AcDbEntity
  8
0
  6
Continuous
 62
     7
370
    15
100
AcDbLine
 10
2131.74809656019
 20
880.6177119640146
 30
0.0
 11
2131.781899647678
 21
880.6372260710329
 31
0.0
  0
ARC
  5
DA9
330
C10
100
AcDbEntity
  8
0
  6
Continuous
 62
     7
370
    15
100
AcDbCircle
 10
2131.533466596316
 20
881.0256077194397
 30
0.0
 40
0.4610415228889509
100
AcDbArc
 50
302.6055095954407
 51
357.3945423838961
  0
LINE
  5
DAA
330
C10
100
AcDbEntity
  8
0
  6
Continuous
 62
     7
370
    15
100
AcDbLine
 10
2131.994031581978
 20
885.933841344126
 30
0.0
 11
2131.994031514895
 21
881.0046496278539
 31
0.0
  0
LINE
  5
DAB
330
C10
100
AcDbEntity
  8
0
  6
Continuous
 62
     7
370
    15
100
AcDbLine
 10
2132.983976616747
 20
881.5761328585143
 30
0.0
 11
2132.983976616747
 21
886.3012011269375
 31
0.0
  0
SPLINE
  5
DAC
330
C10
100
AcDbEntity
  8
0
  6
Continuous
 62
     7
370
    15
100
AcDbSpline
210
0.0
220
0.0
230
1.0
 70
     8
 71
     3
 72
    14
 73
    10
 74
     0
 42
0.0000000001
 43
0.0000000001
 40
0.0
 40
0.0
 40
0.0
 40
0.0
 40
0.0840876777391322
 40
0.1672016938460899
 40
0.250755854568427
 40
0.5000979028892965
 40
0.7494399512101743
 40
0.8738244721235327
 40
1.0
 40
1.0
 40
1.0
 40
1.0
 10
2133.196108894214
 20
881.4536316913988
 30
0.0
 10
2133.186799080947
 20
881.448680059363
 30
0.0
 10
2133.168287253894
 20
881.4388341308523
 30
0.0
 10
2133.140990430143
 20
881.4295736470901
 30
0.0
 10
2133.097308728232
 20
881.4213331055928
 30
0.0
 10
2133.042079806233
 20
881.431936845523
 30
0.0
 10
2133.003113828853
 20
881.4775159222653
 30
0.0
 10
2132.986350450772
 20
881.5292745354877
 30
0.0
 10
2132.984771717136
 20
881.5604391274293
 30
0.0
 10
2132.983976707913
 20
881.5761328058837
 30
0.0
  0
LINE
  5
DAD
330
C10
100
AcDbEntity
  8
0
  6
Continuous
 62
     7
370
    15
100
AcDbLine
 10
2129.872706930922
 20
882.2292929856338
 30
0.0
 11
2129.872706930922
 21
887.1584559985249
 31
0.0
  0
LINE
  5
DAE
330
C10
100
AcDbEntity
  8
0
  6
Continuous
 62
     7
370
    15
100
AcDbLine
 10
2131.994031514895
 20
881.0046496278539
 30
0.0
 11
2129.872706930922
 21
882.2292929856338
 31
0.0
  0
LINE
  5
DAF
330
C10
100
AcDbEntity
  8
0
  6
Continuous
 62
     7
370
    15
100
AcDbLine
 10
2127.998894542426
 20
893.2440263282177
 30
0.0
 11
2125.877574198867
 21
892.0194141604836
 31
0.0
  0
LINE
  5
DB0
330
C10
100
AcDbEntity
  8
0
  6
Continuous
 62
     7
370
    15
100
AcDbLine
 10
2127.998894542426
 20
893.7126221478898
 30
0.0
 11
2127.998894542426
 21
893.2440263282177
 31
0.0
  0
LINE
  5
DB1
330
C10
100
AcDbEntity
  8
0
  6
Continuous
 62
     7
370
    15
100
AcDbLine
 10
2139.990679782205
 20
871.3269276775257
 30
0.0
 11
2138.084600291982
 21
870.2265714095618
 31
0.0
  0
LINE
  5
DB2
330
C10
100
AcDbEntity
  8
0
  6
Continuous
 62
     7
370
    15
100
AcDbLine
 10
2140.230265613626
 20
872.7576648337246
 30
0.0
 11
2139.990679782205
 21
871.3269276775257
 31
0.0
  0
LINE
  5
DB3
330
C10
100
AcDbEntity
  8
0
  6
Continuous
 62
     7
370
    15
100
AcDbLine
 10
2122.235974275756
 20
894.9954244122935
 30
0.0
 11
2124.357294619316
 21
893.7708122445595
 31
0.0
  0
LINE
  5
DB4
330
C10
100
AcDbEntity
  8
0
  6
Continuous
 62
     7
370
    15
100
AcDbLine
 10
2122.518816988231
 20
895.1587060346581
 30
0.0
 11
2122.235974275756
 21
894.9954244122935
 31
0.0
  0
LINE
  5
DB5
330
C10
100
AcDbEntity
  8
0
  6
Continuous
 62
     7
370
    15
100
AcDbLine
 10
2124.640137331791
 20
893.9340938669241
 30
0.0
 11
2124.357294619316
 21
893.7708122445595
 31
0.0
  0
LINE
  5
DB6
330
C10
100
AcDbEntity
  8
0
  6
Continuous
 62
     7
370
    15
100
AcDbLine
 10
2122.235974275756
 20
894.9954244122935
 30
0.0
 11
2122.518816988231
 21
894.0972029792064
 31
0.0
  0
LINE
  5
DB7
330
C10
100
AcDbEntity
  8
0
  6
Continuous
 62
     7
370
    15
100
AcDbLine
 10
2124.357294619316
 20
893.7708122445595
 30
0.0
 11
2124.640137331791
 21
892.8725908114724
 31
0.0
  0
LINE
  5
DB8
330
C10
100
AcDbEntity
  8
0
  6
Continuous
 62
     7
370
    15
100
AcDbLine
 10
2125.774019133132
 20
891.7904995201139
 30
0.0
 11
2127.895339476692
 21
893.0151116878478
 31
0.0
  0
ARC
  5
DB9
330
C10
100
AcDbEntity
  8
0
  6
Continuous
 62
     7
370
    15
100
AcDbCircle
 10
2127.748564380711
 20
893.2193890846296
 30
0.0
 40
0.2515396263739281
100
AcDbArc
 50
305.6975759694456
 51
5.620891283938348
  0
LINE
  5
DBA
330
C10
100
AcDbEntity
  8
0
  6
Continuous
 62
     7
370
    15
100
AcDbLine
 10
2125.733643036447
 20
891.7671844884175
 30
0.0
 11
2127.854963380006
 21
892.9917966561516
 31
0.0
  0
LINE
  5
DBB
330
C10
100
AcDbEntity
  8
0
  6
Continuous
 62
     7
370
    15
100
AcDbLine
 10
2127.895339476692
 20
893.0151116878478
 30
0.0
 11
2127.854963380006
 21
892.9917966561516
 31
0.0
  0
LINE
  5
DBC
330
C10
100
AcDbEntity
  8
0
  6
Continuous
 62
     7
370
    15
100
AcDbLine
 10
2125.630086107166
 20
891.5382716009435
 30
0.0
 11
2127.751406450726
 21
892.7628835095857
 31
0.0
  0
ARC
  5
DBD
330
C10
100
AcDbEntity
  8
0
  6
Continuous
 62
     7
370
    15
100
AcDbCircle
 10
2128.001734236953
 20
892.7875192999094
 30
0.0
 40
0.2515371199685231
100
AcDbArc
 50
125.6967972034513
 51
185.6206148452024
  0
LINE
  5
DBE
330
C10
100
AcDbEntity
  8
0
  6
Continuous
 62
     7
370
    15
100
AcDbLine
 10
2127.751408258562
 20
891.1180680294275
 30
0.0
 11
2125.630087915002
 21
889.8934558616936
 31
0.0
  0
LINE
  5
DBF
330
C10
100
AcDbEntity
  8
0
  6
Continuous
 62
     7
370
    15
100
AcDbLine
 10
2127.751406450726
 20
892.7628835095857
 30
0.0
 11
2127.751408258562
 21
891.1180680294275
 31
0.0
  0
SPLINE
  5
DC0
330
C10
100
AcDbEntity
  8
0
  6
Continuous
 62
     7
370
    15
100
AcDbSpline
210
0.0
220
0.0
230
1.0
 70
     8
 71
     3
 72
     9
 73
     5
 74
     0
 42
0.0000000001
 43
0.0000000001
 40
0.0
 40
0.0
 40
0.0
 40
0.0
 40
0.4289592542052287
 40
1.0
 40
1.0
 40
1.0
 40
1.0
 10
2139.848881417229
 20
871.1080206188098
 30
0.0
 10
2139.879326155131
 20
871.1266706000575
 30
0.0
 10
2139.950299651106
 20
871.170147879228
 30
0.0
 10
2139.97600244157
 20
871.2699414706529
 30
0.0
 10
2139.990679782205
 20
871.3269276775257
 30
0.0
  0
LINE
  5
DC1
330
C10
100
AcDbEntity
  8
0
  6
Continuous
 62
     7
370
    15
100
AcDbLine
 10
2131.535964677769
 20
880.2502884159414
 30
0.0
 11
2129.414636381369
 21
881.4749339168812
 31
0.0
  0
ARC
  5
DC2
330
C10
100
AcDbEntity
  8
0
  6
Continuous
 62
     7
370
    15
100
AcDbCircle
 10
2129.875201211735
 20
881.4539756612413
 30
0.0
 40
0.4610414422267221
100
AcDbArc
 50
122.6054783372149
 51
177.3945215188488
  0
LINE
  5
DC3
330
C10
100
AcDbEntity
  8
0
  6
Continuous
 62
     7
370
    15
100
AcDbLine
 10
2131.74809656019
 20
880.6177119640146
 30
0.0
 11
2129.626768415724
 21
881.842357377233
 31
0.0
  0
LINE
  5
DC4
330
C10
100
AcDbEntity
  8
0
  6
Continuous
 62
     7
370
    15
100
AcDbLine
 10
2131.781899647678
 20
880.6372260710329
 30
0.0
 11
2129.66057320854
 21
881.8618704997822
 31
0.0
  0
ARC
  5
DC5
330
C10
100
AcDbEntity
  8
0
  6
Continuous
 62
     7
370
    15
100
AcDbCircle
 10
2129.412151553587
 20
882.2502479549493
 30
0.0
 40
0.461031849584585
100
AcDbArc
 50
302.6045973000293
 51
357.3948761075371
  0
LINE
  5
DC6
330
C10
100
AcDbEntity
  8
0
  6
Continuous
 62
     7
370
    15
100
AcDbLine
 10
2131.296375192592
 20
874.1453303463108
 30
0.0
 11
2131.535961024012
 21
875.5760675025097
 31
0.0
  0
SPLINE
  5
DC7
330
C10
100
AcDbEntity
  8
0
  6
Continuous
 62
     7
370
    15
100
AcDbSpline
210
0.0
220
0.0
230
1.0
 70
     8
 71
     3
 72
    10
 73
     6
 74
     0
 42
0.0000000001
 43
0.0000000001
 40
0.0
 40
0.0
 40
0.0
 40
0.0
 40
0.5
 40
0.5
 40
1.0
 40
1.0
 40
1.0
 40
1.0
 10
2131.296375192592
 20
874.1453303463108
 30
0.0
 10
2131.276373407438
 20
874.0258854816445
 30
0.0
 10
2131.215321379383
 20
873.9390193357806
 30
0.0
 10
2131.038846397649
 20
873.8698986995718
 30
0.0
 10
2130.924106077327
 20
873.8879115788654
 30
0.0
 10
2130.808920199671
 20
873.9544069706418
 30
0.0
  0
LINE
  5
DC8
330
C10
100
AcDbEntity
  8
0
  6
Continuous
 62
     7
370
    15
100
AcDbLine
 10
2130.14167720571
 20
874.3395981520306
 30
0.0
 11
2130.808920199671
 21
873.9544069706418
 31
0.0
  0
ARC
  5
DC9
330
C10
100
AcDbEntity
  8
0
  6
Continuous
 62
     7
370
    15
100
AcDbCircle
 10
2130.736453207555
 20
875.2587438420855
 30
0.0
 40
1.09480011505156
100
AcDbArc
 50
188.690385333619
 51
237.0932335995461
  0
LINE
  5
DCA
330
C10
100
AcDbEntity
  8
0
  6
Continuous
 62
     7
370
    15
100
AcDbLine
 10
2129.414636381369
 20
876.8006821520526
 30
0.0
 11
2129.654222212789
 21
875.0933250829156
 31
0.0
  0
LINE
  5
DCB
330
C10
100
AcDbEntity
  8
0
  6
Continuous
 62
     7
370
    15
100
AcDbLine
 10
2129.414636381369
 20
881.4749339168812
 30
0.0
 11
2129.414636381369
 21
876.8006821520526
 31
0.0
  0
LINE
  5
DCC
330
C10
100
AcDbEntity
  8
0
  6
Continuous
 62
     7
370
    15
100
AcDbLine
 10
2129.66057320854
 20
881.8618704997822
 30
0.0
 11
2129.626768415724
 21
881.842357377233
 31
0.0
  0
LINE
  5
DCD
330
C10
100
AcDbEntity
  8
0
  6
Continuous
 62
     7
370
    15
100
AcDbLine
 10
2125.382601620547
 20
889.7505386201752
 30
0.0
 11
2127.503921964106
 21
890.9751507879091
 31
0.0
  0
LINE
  5
DCE
330
C10
100
AcDbEntity
  8
0
  6
Continuous
 62
     7
370
    15
100
AcDbLine
 10
2127.751408258562
 20
891.1180680294275
 30
0.0
 11
2127.503921964106
 21
890.9751507879091
 31
0.0
  0
LINE
  5
DCF
330
C10
100
AcDbEntity
  8
0
  6
Continuous
 62
     7
370
    15
100
AcDbLine
 10
2126.407880293001
 20
885.3723926497066
 30
0.0
 11
2126.441683380488
 21
885.3919067567437
 31
0.0
  0
ARC
  5
DD0
330
C10
100
AcDbEntity
  8
0
  6
Continuous
 62
     7
370
    15
100
AcDbCircle
 10
2126.524496235052
 20
885.2903810488996
 30
0.0
 40
0.1310131587923695
100
AcDbArc
 50
350.7863151497579
 51
129.2029331086603
  0
LINE
  5
DD1
330
C10
100
AcDbEntity
  8
0
  6
Continuous
 62
     7
370
    15
100
AcDbLine
 10
2126.653821967924
 20
880.5951789242103
 30
0.0
 11
2126.653819068618
 21
885.2694036206687
 31
0.0
  0
LINE
  5
DD2
330
C10
100
AcDbEntity
  8
0
  6
Continuous
 62
     7
370
    15
100
AcDbLine
 10
2124.747735924621
 20
879.4948264392585
 30
0.0
 11
2126.653815414844
 21
880.5951827072224
 31
0.0
  0
LINE
  5
DD3
330
C10
100
AcDbEntity
  8
0
  6
Continuous
 62
     7
370
    15
100
AcDbLine
 10
2124.747739578379
 20
884.1690473526909
 30
0.0
 11
2124.747742477701
 21
879.4948226562464
 31
0.0
  0
ARC
  5
DD4
330
C10
100
AcDbEntity
  8
0
  6
Continuous
 62
     7
370
    15
100
AcDbCircle
 10
2125.208292000099
 20
884.1480964566342
 30
0.0
 40
0.4610287119032337
100
AcDbArc
 50
122.6046821356038
 51
177.3953651058788
  0
LINE
  5
DD5
330
C10
100
AcDbEntity
  8
0
  6
Continuous
 62
     7
370
    15
100
AcDbLine
 10
2124.959871460799
 20
884.5364709007638
 30
0.0
 11
2124.993674548287
 21
884.5559850077817
 31
0.0
  0
ARC
  5
DD6
330
C10
100
AcDbEntity
  8
0
  6
Continuous
 62
     7
370
    15
100
AcDbCircle
 10
2124.745241496925
 20
884.9443666561894
 30
0.0
 40
0.4610415228901668
100
AcDbArc
 50
302.6055095955022
 51
357.394542383805
  0
LINE
  5
DD7
330
C10
100
AcDbEntity
  8
0
  6
Continuous
 62
     7
370
    15
100
AcDbLine
 10
2125.205806482588
 20
889.8526002808752
 30
0.0
 11
2125.205806415504
 21
884.9234085646029
 31
0.0
  0
LINE
  5
DD8
330
C10
100
AcDbEntity
  8
0
  6
Continuous
 62
     7
370
    15
100
AcDbLine
 10
2126.195751517356
 20
885.4948917952633
 30
0.0
 11
2126.195751517356
 21
890.2199600636865
 31
0.0
  0
SPLINE
  5
DD9
330
C10
100
AcDbEntity
  8
0
  6
Continuous
 62
     7
370
    15
100
AcDbSpline
210
0.0
220
0.0
230
1.0
 70
     8
 71
     3
 72
    14
 73
    10
 74
     0
 42
0.0000000001
 43
0.0000000001
 40
0.0
 40
0.0
 40
0.0
 40
0.0
 40
0.0840876777391322
 40
0.1672016938460899
 40
0.250755854568427
 40
0.5000979028892965
 40
0.7494399512101743
 40
0.8738244721235327
 40
1.0
 40
1.0
 40
1.0
 40
1.0
 10
2126.407883794823
 20
885.372390628148
 30
0.0
 10
2126.398573981556
 20
885.3674389961122
 30
0.0
 10
2126.380062154503
 20
885.3575930676013
 30
0.0
 10
2126.352765330752
 20
885.3483325838393
 30
0.0
 10
2126.309083628842
 20
885.3400920423419
 30
0.0
 10
2126.253854706842
 20
885.350695782272
 30
0.0
 10
2126.214888729462
 20
885.3962748590145
 30
0.0
 10
2126.198125351381
 20
885.4480334722367
 30
0.0
 10
2126.196546617746
 20
885.4791980641783
 30
0.0
 10
2126.195751608523
 20
885.4948917426328
 30
0.0
  0
LINE
  5
DDA
330
C10
100
AcDbEntity
  8
0
  6
Continuous
 62
     7
370
    15
100
AcDbLine
 10
2123.084481831531
 20
886.1480519223828
 30
0.0
 11
2123.084481831531
 21
891.0772149352741
 31
0.0
  0
LINE
  5
DDB
330
C10
100
AcDbEntity
  8
0
  6
Continuous
 62
     7
370
    15
100
AcDbLine
 10
2125.205806415504
 20
884.9234085646029
 30
0.0
 11
2123.084481831531
 21
886.1480519223828
 31
0.0
  0
LINE
  5
DDC
330
C10
100
AcDbEntity
  8
0
  6
Continuous
 62
     7
370
    15
100
AcDbLine
 10
2121.210669443035
 20
897.1627852649668
 30
0.0
 11
2119.089349099476
 21
895.9381730972326
 31
0.0
  0
LINE
  5
DDD
330
C10
100
AcDbEntity
  8
0
  6
Continuous
 62
     7
370
    15
100
AcDbLine
 10
2121.210669443035
 20
897.6313810846388
 30
0.0
 11
2121.210669443035
 21
897.1627852649668
 31
0.0
  0
LINE
  5
DDE
330
C10
100
AcDbEntity
  8
0
  6
Continuous
 62
     7
370
    15
100
AcDbLine
 10
2133.202454682815
 20
875.2456866142747
 30
0.0
 11
2131.296375192592
 21
874.1453303463108
 31
0.0
  0
LINE
  5
DDF
330
C10
100
AcDbEntity
  8
0
  6
Continuous
 62
     7
370
    15
100
AcDbLine
 10
2133.442040514236
 20
876.6764237704736
 30
0.0
 11
2133.202454682815
 21
875.2456866142747
 31
0.0
  0
LINE
  5
DE0
330
C10
100
AcDbEntity
  8
0
  6
Continuous
 62
     7
370
    15
100
AcDbLine
 10
2115.447749176365
 20
898.9141833490425
 30
0.0
 11
2117.569069519925
 21
897.6895711813085
 31
0.0
  0
LINE
  5
DE1
330
C10
100
AcDbEntity
  8
0
  6
Continuous
 62
     7
370
    15
100
AcDbLine
 10
2115.73059188884
 20
899.0774649714071
 30
0.0
 11
2115.447749176365
 21
898.9141833490425
 31
0.0
  0
LINE
  5
DE2
330
C10
100
AcDbEntity
  8
0
  6
Continuous
 62
     7
370
    15
100
AcDbLine
 10
2117.8519122324
 20
897.8528528036731
 30
0.0
 11
2117.569069519925
 21
897.6895711813085
 31
0.0
  0
LINE
  5
DE3
330
C10
100
AcDbEntity
  8
0
  6
Continuous
 62
     7
370
    15
100
AcDbLine
 10
2115.447749176365
 20
898.9141833490425
 30
0.0
 11
2115.73059188884
 21
898.0159619159556
 31
0.0
  0
LINE
  5
DE4
330
C10
100
AcDbEntity
  8
0
  6
Continuous
 62
     7
370
    15
100
AcDbLine
 10
2117.569069519925
 20
897.6895711813085
 30
0.0
 11
2117.8519122324
 21
896.7913497482216
 31
0.0
  0
LINE
  5
DE5
330
C10
100
AcDbEntity
  8
0
  6
Continuous
 62
     7
370
    15
100
AcDbLine
 10
2118.985794033742
 20
895.7092584568627
 30
0.0
 11
2121.107114377301
 21
896.9338706245968
 31
0.0
  0
ARC
  5
DE6
330
C10
100
AcDbEntity
  8
0
  6
Continuous
 62
     7
370
    15
100
AcDbCircle
 10
2120.96033928132
 20
897.1381480213786
 30
0.0
 40
0.2515396263738589
100
AcDbArc
 50
305.6975759694599
 51
5.620891283964278
  0
LINE
  5
DE7
330
C10
100
AcDbEntity
  8
0
  6
Continuous
 62
     7
370
    15
100
AcDbLine
 10
2118.945417937055
 20
895.6859434251665
 30
0.0
 11
2121.066738280615
 21
896.9105555929004
 31
0.0
  0
LINE
  5
DE8
330
C10
100
AcDbEntity
  8
0
  6
Continuous
 62
     7
370
    15
100
AcDbLine
 10
2121.107114377301
 20
896.9338706245968
 30
0.0
 11
2121.066738280615
 21
896.9105555929004
 31
0.0
  0
LINE
  5
DE9
330
C10
100
AcDbEntity
  8
0
  6
Continuous
 62
     7
370
    15
100
AcDbLine
 10
2118.841861007775
 20
895.4570305376925
 30
0.0
 11
2120.963181351335
 21
896.6816424463347
 31
0.0
  0
ARC
  5
DEA
330
C10
100
AcDbEntity
  8
0
  6
Continuous
 62
     7
370
    15
100
AcDbCircle
 10
2121.213509137562
 20
896.706278236658
 30
0.0
 40
0.2515371199693567
100
AcDbArc
 50
125.6967972035452
 51
185.6206148450844
  0
LINE
  5
DEB
330
C10
100
AcDbEntity
  8
0
  6
Continuous
 62
     7
370
    15
100
AcDbLine
 10
2120.963183159171
 20
895.0368269661767
 30
0.0
 11
2118.841862815612
 21
893.8122147984428
 31
0.0
  0
LINE
  5
DEC
330
C10
100
AcDbEntity
  8
0
  6
Continuous
 62
     7
370
    15
100
AcDbLine
 10
2120.963181351335
 20
896.6816424463347
 30
0.0
 11
2120.963183159171
 21
895.0368269661767
 31
0.0
  0
SPLINE
  5
DED
330
C10
100
AcDbEntity
  8
0
  6
Continuous
 62
     7
370
    15
100
AcDbSpline
210
0.0
220
0.0
230
1.0
 70
     8
 71
     3
 72
     9
 73
     5
 74
     0
 42
0.0000000001
 43
0.0000000001
 40
0.0
 40
0.0
 40
0.0
 40
0.0
 40
0.4289592542052287
 40
1.0
 40
1.0
 40
1.0
 40
1.0
 10
2133.060656317838
 20
875.0267795555586
 30
0.0
 10
2133.09110105574
 20
875.0454295368063
 30
0.0
 10
2133.162074551715
 20
875.0889068159768
 30
0.0
 10
2133.187777342179
 20
875.1887004074019
 30
0.0
 10
2133.202454682815
 20
875.2456866142747
 30
0.0
  0
LINE
  5
DEE
330
C10
100
AcDbEntity
  8
0
  6
Continuous
 62
     7
370
    15
100
AcDbLine
 10
2124.747739578378
 20
884.1690473526906
 30
0.0
 11
2122.626411281977
 21
885.3936928536302
 31
0.0
  0
ARC
  5
DEF
330
C10
100
AcDbEntity
  8
0
  6
Continuous
 62
     7
370
    15
100
AcDbCircle
 10
2123.086976112344
 20
885.3727345979903
 30
0.0
 40
0.461041442226778
100
AcDbArc
 50
122.605478337233
 51
177.3945215188559
  0
LINE
  5
DF0
330
C10
100
AcDbEntity
  8
0
  6
Continuous
 62
     7
370
    15
100
AcDbLine
 10
2124.959871460799
 20
884.5364709007638
 30
0.0
 11
2122.838543316333
 21
885.761116313982
 31
0.0
  0
LINE
  5
DF1
330
C10
100
AcDbEntity
  8
0
  6
Continuous
 62
     7
370
    15
100
AcDbLine
 10
2124.993674548287
 20
884.5559850077817
 30
0.0
 11
2122.872348109149
 21
885.7806294365312
 31
0.0
  0
ARC
  5
DF2
330
C10
100
AcDbEntity
  8
0
  6
Continuous
 62
     7
370
    15
100
AcDbCircle
 10
2122.623926454196
 20
886.1690068916985
 30
0.0
 40
0.4610318495845775
100
AcDbArc
 50
302.6045973000293
 51
357.3948761075436
  0
LINE
  5
DF3
330
C10
100
AcDbEntity
  8
0
  6
Continuous
 62
     7
370
    15
100
AcDbLine
 10
2124.508150093201
 20
878.0640892830598
 30
0.0
 11
2124.747735924621
 21
879.4948264392585
 31
0.0
  0
SPLINE
  5
DF4
330
C10
100
AcDbEntity
  8
0
  6
Continuous
 62
     7
370
    15
100
AcDbSpline
210
0.0
220
0.0
230
1.0
 70
     8
 71
     3
 72
    10
 73
     6
 74
     0
 42
0.0000000001
 43
0.0000000001
 40
0.0
 40
0.0
 40
0.0
 40
0.0
 40
0.5
 40
0.5
 40
1.0
 40
1.0
 40
1.0
 40
1.0
 10
2124.508150093201
 20
878.0640892830598
 30
0.0
 10
2124.488148308047
 20
877.9446444183939
 30
0.0
 10
2124.427096279992
 20
877.8577782725296
 30
0.0
 10
2124.250621298258
 20
877.788657636321
 30
0.0
 10
2124.135880977936
 20
877.8066705156144
 30
0.0
 10
2124.02069510028
 20
877.873165907391
 30
0.0
  0
LINE
  5
DF5
330
C10
100
AcDbEntity
  8
0
  6
Continuous
 62
     7
370
    15
100
AcDbLine
 10
2123.353452106319
 20
878.2583570887796
 30
0.0
 11
2124.02069510028
 21
877.8731659073908
 31
0.0
  0
ARC
  5
DF6
330
C10
100
AcDbEntity
  8
0
  6
Continuous
 62
     7
370
    15
100
AcDbCircle
 10
2123.948228108164
 20
879.1775027788345
 30
0.0
 40
1.094800115051391
100
AcDbArc
 50
188.690385333619
 51
237.0932335995496
  0
LINE
  5
DF7
330
C10
100
AcDbEntity
  8
0
  6
Continuous
 62
     7
370
    15
100
AcDbLine
 10
2122.626411281977
 20
880.7194410888016
 30
0.0
 11
2122.865997113398
 21
879.0120840196646
 31
0.0
  0
LINE
  5
DF8
330
C10
100
AcDbEntity
  8
0
  6
Continuous
 62
     7
370
    15
100
AcDbLine
 10
2122.626411281977
 20
885.3936928536302
 30
0.0
 11
2122.626411281977
 21
880.7194410888016
 31
0.0
  0
LINE
  5
DF9
330
C10
100
AcDbEntity
  8
0
  6
Continuous
 62
     7
370
    15
100
AcDbLine
 10
2122.872348109149
 20
885.7806294365312
 30
0.0
 11
2122.838543316333
 21
885.761116313982
 31
0.0
  0
LINE
  5
DFA
330
C10
100
AcDbEntity
  8
0
  6
Continuous
 62
     7
370
    15
100
AcDbLine
 10
2118.594376521155
 20
893.6692975569242
 30
0.0
 11
2120.715696864715
 21
894.8939097246581
 31
0.0
  0
LINE
  5
DFB
330
C10
100
AcDbEntity
  8
0
  6
Continuous
 62
     7
370
    15
100
AcDbLine
 10
2120.963183159171
 20
895.0368269661767
 30
0.0
 11
2120.715696864715
 21
894.8939097246581
 31
0.0
  0
LINE
  5
DFC
330
C10
100
AcDbEntity
  8
0
  6
Continuous
 62
     7
370
    15
100
AcDbLine
 10
2119.61965519361
 20
889.2911515864557
 30
0.0
 11
2119.653458281097
 21
889.3106656934929
 31
0.0
  0
ARC
  5
DFD
330
C10
100
AcDbEntity
  8
0
  6
Continuous
 62
     7
370
    15
100
AcDbCircle
 10
2119.736271135661
 20
889.2091399856489
 30
0.0
 40
0.1310131587922348
100
AcDbArc
 50
350.7863151496979
 51
129.2029331087153
  0
LINE
  5
DFE
330
C10
100
AcDbEntity
  8
0
  6
Continuous
 62
     7
370
    15
100
AcDbLine
 10
2119.865596868533
 20
884.5139378609594
 30
0.0
 11
2119.865593969227
 21
889.1881625574177
 31
0.0
  0
LINE
  5
DFF
330
C10
100
AcDbEntity
  8
0
  6
Continuous
 62
     7
370
    15
100
AcDbLine
 10
2117.959510825231
 20
883.4135853760075
 30
0.0
 11
2119.865590315454
 21
884.5139416439716
 31
0.0
  0
LINE
  5
E00
330
C10
100
AcDbEntity
  8
0
  6
Continuous
 62
     7
370
    15
100
AcDbLine
 10
2117.959514478988
 20
888.0878062894401
 30
0.0
 11
2117.95951737831
 21
883.4135815929954
 31
0.0
  0
ARC
  5
E01
330
C10
100
AcDbEntity
  8
0
  6
Continuous
 62
     7
370
    15
100
AcDbCircle
 10
2118.420066900709
 20
888.0668553933828
 30
0.0
 40
0.4610287119036472
100
AcDbArc
 50
122.6046821356218
 51
177.3953651058527
  0
LINE
  5
E02
330
C10
100
AcDbEntity
  8
0
  6
Continuous
 62
     7
370
    15
100
AcDbLine
 10
2118.171646361409
 20
888.4552298375128
 30
0.0
 11
2118.205449448896
 21
888.4747439445309
 31
0.0
  0
ARC
  5
E03
330
C10
100
AcDbEntity
  8
0
  6
Continuous
 62
     7
370
    15
100
AcDbCircle
 10
2117.957016397534
 20
888.863125592938
 30
0.0
 40
0.4610415228896402
100
AcDbArc
 50
302.6055095954877
 51
357.394542383844
  0
LINE
  5
E04
330
C10
100
AcDbEntity
  8
0
  6
Continuous
 62
     7
370
    15
100
AcDbLine
 10
2118.417581383197
 20
893.7713592176242
 30
0.0
 11
2118.417581316113
 21
888.8421675013519
 31
0.0
  0
LINE
  5
E05
330
C10
100
AcDbEntity
  8
0
  6
Continuous
 62
     7
370
    15
100
AcDbLine
 10
2119.407526417965
 20
889.4136507320123
 30
0.0
 11
2119.407526417965
 21
894.1387190004357
 31
0.0
  0
SPLINE
  5
E06
330
C10
100
AcDbEntity
  8
0
  6
Continuous
 62
     7
370
    15
100
AcDbSpline
210
0.0
220
0.0
230
1.0
 70
     8
 71
     3
 72
    14
 73
    10
 74
     0
 42
0.0000000001
 43
0.0000000001
 40
0.0
 40
0.0
 40
0.0
 40
0.0
 40
0.0840876777391322
 40
0.1672016938460899
 40
0.250755854568427
 40
0.5000979028892965
 40
0.7494399512101743
 40
0.8738244721235327
 40
1.0
 40
1.0
 40
1.0
 40
1.0
 10
2119.619658695432
 20
889.291149564897
 30
0.0
 10
2119.610348882166
 20
889.2861979328612
 30
0.0
 10
2119.591837055113
 20
889.2763520043505
 30
0.0
 10
2119.564540231362
 20
889.2670915205881
 30
0.0
 10
2119.520858529451
 20
889.2588509790909
 30
0.0
 10
2119.465629607451
 20
889.2694547190211
 30
0.0
 10
2119.426663630071
 20
889.3150337957635
 30
0.0
 10
2119.40990025199
 20
889.3667924089857
 30
0.0
 10
2119.408321518355
 20
889.3979570009273
 30
0.0
 10
2119.407526509132
 20
889.4136506793818
 30
0.0
  0
LINE
  5
E07
330
C10
100
AcDbEntity
  8
0
  6
Continuous
 62
     7
370
    15
100
AcDbLine
 10
2116.296256732141
 20
890.0668108591318
 30
0.0
 11
2116.296256732141
 21
894.9959738720231
 31
0.0
  0
LINE
  5
E08
330
C10
100
AcDbEntity
  8
0
  6
Continuous
 62
     7
370
    15
100
AcDbLine
 10
2118.417581316113
 20
888.8421675013519
 30
0.0
 11
2116.296256732141
 21
890.0668108591318
 31
0.0
  0
LINE
  5
E09
330
C10
100
AcDbEntity
  8
0
  6
Continuous
 62
     7
370
    15
100
AcDbLine
 10
2114.422444343645
 20
901.0815442017158
 30
0.0
 11
2112.301124000085
 21
899.8569320339818
 31
0.0
  0
LINE
  5
E0A
330
C10
100
AcDbEntity
  8
0
  6
Continuous
 62
     7
370
    15
100
AcDbLine
 10
2114.422444343645
 20
901.5501400213876
 30
0.0
 11
2114.422444343645
 21
901.0815442017158
 31
0.0
  0
LINE
  5
E0B
330
C10
100
AcDbEntity
  8
0
  6
Continuous
 62
     7
370
    15
100
AcDbLine
 10
2126.414229583424
 20
879.1644455510235
 30
0.0
 11
2124.508150093201
 21
878.0640892830598
 31
0.0
  0
LINE
  5
E0C
330
C10
100
AcDbEntity
  8
0
  6
Continuous
 62
     7
370
    15
100
AcDbLine
 10
2126.653815414844
 20
880.5951827072226
 30
0.0
 11
2126.414229583424
 21
879.1644455510235
 31
0.0
  0
LINE
  5
E0D
330
C10
100
AcDbEntity
  8
0
  6
Continuous
 62
     7
370
    15
100
AcDbLine
 10
2108.659524076974
 20
902.8329422857915
 30
0.0
 11
2110.780844420534
 21
901.6083301180575
 31
0.0
  0
LINE
  5
E0E
330
C10
100
AcDbEntity
  8
0
  6
Continuous
 62
     7
370
    15
100
AcDbLine
 10
2108.942366789449
 20
902.9962239081561
 30
0.0
 11
2108.659524076974
 21
902.8329422857915
 31
0.0
  0
LINE
  5
E0F
330
C10
100
AcDbEntity
  8
0
  6
Continuous
 62
     7
370
    15
100
AcDbLine
 10
2111.063687133008
 20
901.7716117404219
 30
0.0
 11
2110.780844420534
 21
901.6083301180575
 31
0.0
  0
LINE
  5
E10
330
C10
100
AcDbEntity
  8
0
  6
Continuous
 62
     7
370
    15
100
AcDbLine
 10
2108.659524076974
 20
902.8329422857915
 30
0.0
 11
2108.942366789449
 21
901.9347208527046
 31
0.0
  0
LINE
  5
E11
330
C10
100
AcDbEntity
  8
0
  6
Continuous
 62
     7
370
    15
100
AcDbLine
 10
2110.780844420534
 20
901.6083301180575
 30
0.0
 11
2111.063687133008
 21
900.7101086849706
 31
0.0
  0
LINE
  5
E12
330
C10
100
AcDbEntity
  8
0
  6
Continuous
 62
     7
370
    15
100
AcDbLine
 10
2112.197568934351
 20
899.6280173936119
 30
0.0
 11
2114.31888927791
 21
900.8526295613458
 31
0.0
  0
ARC
  5
E13
330
C10
100
AcDbEntity
  8
0
  6
Continuous
 62
     7
370
    15
100
AcDbCircle
 10
2114.172114181929
 20
901.0569069581276
 30
0.0
 40
0.2515396263738255
100
AcDbArc
 50
305.6975759694561
 51
5.620891283964278
  0
LINE
  5
E14
330
C10
100
AcDbEntity
  8
0
  6
Continuous
 62
     7
370
    15
100
AcDbLine
 10
2112.157192837665
 20
899.6047023619155
 30
0.0
 11
2114.278513181224
 21
900.8293145296494
 31
0.0
  0
LINE
  5
E15
330
C10
100
AcDbEntity
  8
0
  6
Continuous
 62
     7
370
    15
100
AcDbLine
 10
2114.31888927791
 20
900.8526295613458
 30
0.0
 11
2114.278513181224
 21
900.8293145296494
 31
0.0
  0
LINE
  5
E16
330
C10
100
AcDbEntity
  8
0
  6
Continuous
 62
     7
370
    15
100
AcDbLine
 10
2112.053635908384
 20
899.3757894744415
 30
0.0
 11
2114.174956251944
 21
900.6004013830839
 31
0.0
  0
ARC
  5
E17
330
C10
100
AcDbEntity
  8
0
  6
Continuous
 62
     7
370
    15
100
AcDbCircle
 10
2114.425284038171
 20
900.6250371734074
 30
0.0
 40
0.2515371199685331
100
AcDbArc
 50
125.6967972034801
 51
185.6206148452218
  0
LINE
  5
E18
330
C10
100
AcDbEntity
  8
0
  6
Continuous
 62
     7
370
    15
100
AcDbLine
 10
2114.174958059781
 20
898.9555859029257
 30
0.0
 11
2112.053637716221
 21
897.7309737351916
 31
0.0
  0
LINE
  5
E19
330
C10
100
AcDbEntity
  8
0
  6
Continuous
 62
     7
370
    15
100
AcDbLine
 10
2114.174956251944
 20
900.6004013830839
 30
0.0
 11
2114.174958059781
 21
898.9555859029257
 31
0.0
  0
SPLINE
  5
E1A
330
C10
100
AcDbEntity
  8
0
  6
Continuous
 62
     7
370
    15
100
AcDbSpline
210
0.0
220
0.0
230
1.0
 70
     8
 71
     3
 72
     9
 73
     5
 74
     0
 42
0.0000000001
 43
0.0000000001
 40
0.0
 40
0.0
 40
0.0
 40
0.0
 40
0.4289592542052287
 40
1.0
 40
1.0
 40
1.0
 40
1.0
 10
2126.272431218447
 20
878.9455384923076
 30
0.0
 10
2126.30287595635
 20
878.9641884735553
 30
0.0
 10
2126.373849452324
 20
879.0076657527258
 30
0.0
 10
2126.399552242788
 20
879.1074593441509
 30
0.0
 10
2126.414229583424
 20
879.1644455510237
 30
0.0
  0
LINE
  5
E1B
330
C10
100
AcDbEntity
  8
0
  6
Continuous
 62
     7
370
    15
100
AcDbLine
 10
2117.959514478987
 20
888.0878062894394
 30
0.0
 11
2115.838186182587
 21
889.3124517903792
 31
0.0
  0
ARC
  5
E1C
330
C10
100
AcDbEntity
  8
0
  6
Continuous
 62
     7
370
    15
100
AcDbCircle
 10
2116.298751012953
 20
889.2914935347395
 30
0.0
 40
0.4610414422266383
100
AcDbArc
 50
122.6054783372295
 51
177.3945215188625
  0
LINE
  5
E1D
330
C10
100
AcDbEntity
  8
0
  6
Continuous
 62
     7
370
    15
100
AcDbLine
 10
2118.171646361409
 20
888.4552298375128
 30
0.0
 11
2116.050318216943
 21
889.6798752507312
 31
0.0
  0
LINE
  5
E1E
330
C10
100
AcDbEntity
  8
0
  6
Continuous
 62
     7
370
    15
100
AcDbLine
 10
2118.205449448896
 20
888.4747439445309
 30
0.0
 11
2116.084123009758
 21
889.6993883732802
 31
0.0
  0
ARC
  5
E1F
330
C10
100
AcDbEntity
  8
0
  6
Continuous
 62
     7
370
    15
100
AcDbCircle
 10
2115.835701354805
 20
890.0877658284475
 30
0.0
 40
0.4610318495847891
100
AcDbArc
 50
302.6045973000438
 51
357.3948761075241
  0
LINE
  5
E20
330
C10
100
AcDbEntity
  8
0
  6
Continuous
 62
     7
370
    15
100
AcDbLine
 10
2117.71992499381
 20
881.9828482198088
 30
0.0
 11
2117.959510825231
 21
883.4135853760075
 31
0.0
  0
SPLINE
  5
E21
330
C10
100
AcDbEntity
  8
0
  6
Continuous
 62
     7
370
    15
100
AcDbSpline
210
0.0
220
0.0
230
1.0
 70
     8
 71
     3
 72
    10
 73
     6
 74
     0
 42
0.0000000001
 43
0.0000000001
 40
0.0
 40
0.0
 40
0.0
 40
0.0
 40
0.5
 40
0.5
 40
1.0
 40
1.0
 40
1.0
 40
1.0
 10
2117.71992499381
 20
881.9828482198088
 30
0.0
 10
2117.699923208656
 20
881.8634033551429
 30
0.0
 10
2117.638871180601
 20
881.7765372092786
 30
0.0
 10
2117.462396198867
 20
881.70741657307
 30
0.0
 10
2117.347655878545
 20
881.7254294523634
 30
0.0
 10
2117.232470000889
 20
881.79192484414
 30
0.0
  0
LINE
  5
E22
330
C10
100
AcDbEntity
  8
0
  6
Continuous
 62
     7
370
    15
100
AcDbLine
 10
2116.565227006928
 20
882.1771160255286
 30
0.0
 11
2117.232470000889
 21
881.7919248441398
 31
0.0
  0
ARC
  5
E23
330
C10
100
AcDbEntity
  8
0
  6
Continuous
 62
     7
370
    15
100
AcDbCircle
 10
2117.160003008773
 20
883.0962617155838
 30
0.0
 40
1.094800115052037
100
AcDbArc
 50
188.6903853336383
 51
237.0932335995351
  0
LINE
  5
E24
330
C10
100
AcDbEntity
  8
0
  6
Continuous
 62
     7
370
    15
100
AcDbLine
 10
2115.838186182587
 20
884.6382000255507
 30
0.0
 11
2116.077772014007
 21
882.9308429564136
 31
0.0
  0
LINE
  5
E25
330
C10
100
AcDbEntity
  8
0
  6
Continuous
 62
     7
370
    15
100
AcDbLine
 10
2115.838186182587
 20
889.3124517903792
 30
0.0
 11
2115.838186182587
 21
884.6382000255507
 31
0.0
  0
LINE
  5
E26
330
C10
100
AcDbEntity
  8
0
  6
Continuous
 62
     7
370
    15
100
AcDbLine
 10
2116.084123009758
 20
889.6993883732802
 30
0.0
 11
2116.050318216943
 21
889.6798752507312
 31
0.0
  0
LINE
  5
E27
330
C10
100
AcDbEntity
  8
0
  6
Continuous
 62
     7
370
    15
100
AcDbLine
 10
2111.806151421765
 20
897.5880564936732
 30
0.0
 11
2113.927471765324
 21
898.8126686614073
 31
0.0
  0
LINE
  5
E28
330
C10
100
AcDbEntity
  8
0
  6
Continuous
 62
     7
370
    15
100
AcDbLine
 10
2114.174958059781
 20
898.9555859029257
 30
0.0
 11
2113.927471765324
 21
898.8126686614073
 31
0.0
  0
LINE
  5
E29
330
C10
100
AcDbEntity
  8
0
  6
Continuous
 62
     7
370
    15
100
AcDbLine
 10
2112.831430094219
 20
893.2099105232047
 30
0.0
 11
2112.865233181707
 21
893.2294246302419
 31
0.0
  0
ARC
  5
E2A
330
C10
100
AcDbEntity
  8
0
  6
Continuous
 62
     7
370
    15
100
AcDbCircle
 10
2112.948046036271
 20
893.1278989223978
 30
0.0
 40
0.1310131587922789
100
AcDbArc
 50
350.7863151497387
 51
129.202933108697
  0
LINE
  5
E2B
330
C10
100
AcDbEntity
  8
0
  6
Continuous
 62
     7
370
    15
100
AcDbLine
 10
2113.077371769142
 20
888.4326967977084
 30
0.0
 11
2113.077368869836
 21
893.1069214941667
 31
0.0
  0
LINE
  5
E2C
330
C10
100
AcDbEntity
  8
0
  6
Continuous
 62
     7
370
    15
100
AcDbLine
 10
2111.17128572584
 20
887.3323443127567
 30
0.0
 11
2113.077365216063
 21
888.4327005807206
 31
0.0
  0
LINE
  5
E2D
330
C10
100
AcDbEntity
  8
0
  6
Continuous
 62
     7
370
    15
100
AcDbLine
 10
2111.171289379597
 20
892.0065652261891
 30
0.0
 11
2111.171292278919
 21
887.3323405297446
 31
0.0
  0
ARC
  5
E2E
330
C10
100
AcDbEntity
  8
0
  6
Continuous
 62
     7
370
    15
100
AcDbCircle
 10
2111.631841801318
 20
891.9856143301318
 30
0.0
 40
0.4610287119036741
100
AcDbArc
 50
122.6046821356073
 51
177.3953651058462
  0
LINE
  5
E2F
330
C10
100
AcDbEntity
  8
0
  6
Continuous
 62
     7
370
    15
100
AcDbLine
 10
2111.383421262018
 20
892.3739887742618
 30
0.0
 11
2111.417224349505
 21
892.3935028812799
 31
0.0
  0
ARC
  5
E30
330
C10
100
AcDbEntity
  8
0
  6
Continuous
 62
     7
370
    15
100
AcDbCircle
 10
2111.168791298144
 20
892.7818845296867
 30
0.0
 40
0.4610415228888964
100
AcDbArc
 50
302.6055095954262
 51
357.3945423839026
  0
LINE
  5
E31
330
C10
100
AcDbEntity
  8
0
  6
Continuous
 62
     7
370
    15
100
AcDbLine
 10
2111.629356283806
 20
897.6901181543732
 30
0.0
 11
2111.629356216722
 21
892.7609264381009
 31
0.0
  0
LINE
  5
E32
330
C10
100
AcDbEntity
  8
0
  6
Continuous
 62
     7
370
    15
100
AcDbLine
 10
2112.619301318574
 20
893.3324096687613
 30
0.0
 11
2112.619301318574
 21
898.0574779371847
 31
0.0
  0
SPLINE
  5
E33
330
C10
100
AcDbEntity
  8
0
  6
Continuous
 62
     7
370
    15
100
AcDbSpline
210
0.0
220
0.0
230
1.0
 70
     8
 71
     3
 72
    14
 73
    10
 74
     0
 42
0.0000000001
 43
0.0000000001
 40
0.0
 40
0.0
 40
0.0
 40
0.0
 40
0.0840876777391322
 40
0.1672016938460899
 40
0.250755854568427
 40
0.5000979028892965
 40
0.7494399512101743
 40
0.8738244721235327
 40
1.0
 40
1.0
 40
1.0
 40
1.0
 10
2112.831433596042
 20
893.2099085016458
 30
0.0
 10
2112.822123782774
 20
893.2049568696102
 30
0.0
 10
2112.803611955721
 20
893.1951109410995
 30
0.0
 10
2112.77631513197
 20
893.1858504573371
 30
0.0
 10
2112.73263343006
 20
893.1776099158398
 30
0.0
 10
2112.67740450806
 20
893.18821365577
 30
0.0
 10
2112.63843853068
 20
893.2337927325125
 30
0.0
 10
2112.621675152599
 20
893.2855513457347
 30
0.0
 10
2112.620096418964
 20
893.3167159376763
 30
0.0
 10
2112.619301409741
 20
893.3324096161308
 30
0.0
  0
LINE
  5
E34
330
C10
100
AcDbEntity
  8
0
  6
Continuous
 62
     7
370
    15
100
AcDbLine
 10
2109.508031632749
 20
893.9855697958808
 30
0.0
 11
2109.508031632749
 21
898.9147328087723
 31
0.0
  0
LINE
  5
E35
330
C10
100
AcDbEntity
  8
0
  6
Continuous
 62
     7
370
    15
100
AcDbLine
 10
2111.629356216722
 20
892.7609264381009
 30
0.0
 11
2109.508031632749
 21
893.9855697958808
 31
0.0
  0
LINE
  5
E36
330
C10
100
AcDbEntity
  8
0
  6
Continuous
 62
     7
370
    15
100
AcDbLine
 10
2107.634219244254
 20
905.0003031384646
 30
0.0
 11
2105.512898900695
 21
903.7756909707306
 31
0.0
  0
LINE
  5
E37
330
C10
100
AcDbEntity
  8
0
  6
Continuous
 62
     7
370
    15
100
AcDbLine
 10
2107.634219244254
 20
905.4688989581366
 30
0.0
 11
2107.634219244254
 21
905.0003031384646
 31
0.0
  0
LINE
  5
E38
330
C10
100
AcDbEntity
  8
0
  6
Continuous
 62
     7
370
    15
100
AcDbLine
 10
2119.626004484033
 20
883.0832044877727
 30
0.0
 11
2117.71992499381
 21
881.9828482198088
 31
0.0
  0
LINE
  5
E39
330
C10
100
AcDbEntity
  8
0
  6
Continuous
 62
     7
370
    15
100
AcDbLine
 10
2119.865590315454
 20
884.5139416439716
 30
0.0
 11
2119.626004484033
 21
883.0832044877727
 31
0.0
  0
LINE
  5
E3A
330
C10
100
AcDbEntity
  8
0
  6
Continuous
 62
     7
370
    15
100
AcDbLine
 10
2101.871298977584
 20
906.7517012225405
 30
0.0
 11
2103.992619321143
 21
905.5270890548065
 31
0.0
  0
LINE
  5
E3B
330
C10
100
AcDbEntity
  8
0
  6
Continuous
 62
     7
370
    15
100
AcDbLine
 10
2102.154141690058
 20
906.9149828449051
 30
0.0
 11
2101.871298977584
 21
906.7517012225405
 31
0.0
  0
LINE
  5
E3C
330
C10
100
AcDbEntity
  8
0
  6
Continuous
 62
     7
370
    15
100
AcDbLine
 10
2104.275462033618
 20
905.6903706771709
 30
0.0
 11
2103.992619321143
 21
905.5270890548065
 31
0.0
  0
LINE
  5
E3D
330
C10
100
AcDbEntity
  8
0
  6
Continuous
 62
     7
370
    15
100
AcDbLine
 10
2101.871298977584
 20
906.7517012225405
 30
0.0
 11
2102.154141690058
 21
905.8534797894536
 31
0.0
  0
LINE
  5
E3E
330
C10
100
AcDbEntity
  8
0
  6
Continuous
 62
     7
370
    15
100
AcDbLine
 10
2103.992619321143
 20
905.5270890548065
 30
0.0
 11
2104.275462033618
 21
904.6288676217196
 31
0.0
  0
LINE
  5
E3F
330
C10
100
AcDbEntity
  8
0
  6
Continuous
 62
     7
370
    15
100
AcDbLine
 10
2105.40934383496
 20
903.5467763303607
 30
0.0
 11
2107.53066417852
 21
904.7713884980948
 31
0.0
  0
ARC
  5
E40
330
C10
100
AcDbEntity
  8
0
  6
Continuous
 62
     7
370
    15
100
AcDbCircle
 10
2107.383889082537
 20
904.9756658948767
 30
0.0
 40
0.2515396263745108
100
AcDbArc
 50
305.6975759695432
 51
5.620891283873523
  0
LINE
  5
E41
330
C10
100
AcDbEntity
  8
0
  6
Continuous
 62
     7
370
    15
100
AcDbLine
 10
2105.368967738274
 20
903.5234612986643
 30
0.0
 11
2107.490288081834
 21
904.7480734663984
 31
0.0
  0
LINE
  5
E42
330
C10
100
AcDbEntity
  8
0
  6
Continuous
 62
     7
370
    15
100
AcDbLine
 10
2107.53066417852
 20
904.7713884980948
 30
0.0
 11
2107.490288081834
 21
904.7480734663984
 31
0.0
  0
LINE
  5
E43
330
C10
100
AcDbEntity
  8
0
  6
Continuous
 62
     7
370
    15
100
AcDbLine
 10
2105.265410808993
 20
903.2945484111905
 30
0.0
 11
2107.386731152553
 21
904.5191603198329
 31
0.0
  0
ARC
  5
E44
330
C10
100
AcDbEntity
  8
0
  6
Continuous
 62
     7
370
    15
100
AcDbCircle
 10
2107.63705893878
 20
904.5437961101564
 30
0.0
 40
0.2515371199685894
100
AcDbArc
 50
125.6967972034801
 51
185.6206148451829
  0
LINE
  5
E45
330
C10
100
AcDbEntity
  8
0
  6
Continuous
 62
     7
370
    15
100
AcDbLine
 10
2107.38673296039
 20
902.8743448396747
 30
0.0
 11
2105.26541261683
 21
901.6497326719406
 31
0.0
  0
LINE
  5
E46
330
C10
100
AcDbEntity
  8
0
  6
Continuous
 62
     7
370
    15
100
AcDbLine
 10
2107.386731152553
 20
904.5191603198329
 30
0.0
 11
2107.38673296039
 21
902.8743448396747
 31
0.0
  0
SPLINE
  5
E47
330
C10
100
AcDbEntity
  8
0
  6
Continuous
 62
     7
370
    15
100
AcDbSpline
210
0.0
220
0.0
230
1.0
 70
     8
 71
     3
 72
     9
 73
     5
 74
     0
 42
0.0000000001
 43
0.0000000001
 40
0.0
 40
0.0
 40
0.0
 40
0.0
 40
0.4289592542052287
 40
1.0
 40
1.0
 40
1.0
 40
1.0
 10
2119.484206119057
 20
882.8642974290566
 30
0.0
 10
2119.514650856958
 20
882.8829474103045
 30
0.0
 10
2119.585624352934
 20
882.926424689475
 30
0.0
 10
2119.611327143397
 20
883.0262182808997
 30
0.0
 10
2119.626004484033
 20
883.0832044877727
 30
0.0
  0
LINE
  5
E48
330
C10
100
AcDbEntity
  8
0
  6
Continuous
 62
     7
370
    15
100
AcDbLine
 10
2111.171289379596
 20
892.0065652261886
 30
0.0
 11
2109.049961083196
 21
893.2312107271284
 31
0.0
  0
ARC
  5
E49
330
C10
100
AcDbEntity
  8
0
  6
Continuous
 62
     7
370
    15
100
AcDbCircle
 10
2109.510525913563
 20
893.2102524714885
 30
0.0
 40
0.461041442226778
100
AcDbArc
 50
122.605478337233
 51
177.3945215188559
  0
LINE
  5
E4A
330
C10
100
AcDbEntity
  8
0
  6
Continuous
 62
     7
370
    15
100
AcDbLine
 10
2111.383421262018
 20
892.3739887742618
 30
0.0
 11
2109.262093117552
 21
893.5986341874802
 31
0.0
  0
LINE
  5
E4B
330
C10
100
AcDbEntity
  8
0
  6
Continuous
 62
     7
370
    15
100
AcDbLine
 10
2111.417224349505
 20
892.3935028812799
 30
0.0
 11
2109.295897910367
 21
893.6181473100294
 31
0.0
  0
ARC
  5
E4C
330
C10
100
AcDbEntity
  8
0
  6
Continuous
 62
     7
370
    15
100
AcDbCircle
 10
2109.047476255414
 20
894.0065247651967
 30
0.0
 40
0.4610318495847652
100
AcDbArc
 50
302.6045973000438
 51
357.3948761075241
  0
LINE
  5
E4D
330
C10
100
AcDbEntity
  8
0
  6
Continuous
 62
     7
370
    15
100
AcDbLine
 10
2110.931699894419
 20
885.9016071565578
 30
0.0
 11
2111.17128572584
 21
887.3323443127567
 31
0.0
  0
SPLINE
  5
E4E
330
C10
100
AcDbEntity
  8
0
  6
Continuous
 62
     7
370
    15
100
AcDbSpline
210
0.0
220
0.0
230
1.0
 70
     8
 71
     3
 72
    10
 73
     6
 74
     0
 42
0.0000000001
 43
0.0000000001
 40
0.0
 40
0.0
 40
0.0
 40
0.0
 40
0.5
 40
0.5
 40
1.0
 40
1.0
 40
1.0
 40
1.0
 10
2110.931699894419
 20
885.9016071565578
 30
0.0
 10
2110.911698109265
 20
885.7821622918917
 30
0.0
 10
2110.85064608121
 20
885.6952961460276
 30
0.0
 10
2110.674171099476
 20
885.626175509819
 30
0.0
 10
2110.559430779154
 20
885.6441883891124
 30
0.0
 10
2110.444244901498
 20
885.710683780889
 30
0.0
  0
LINE
  5
E4F
330
C10
100
AcDbEntity
  8
0
  6
Continuous
 62
     7
370
    15
100
AcDbLine
 10
2109.777001907537
 20
886.0958749622778
 30
0.0
 11
2110.444244901498
 21
885.710683780889
 31
0.0
  0
ARC
  5
E50
330
C10
100
AcDbEntity
  8
0
  6
Continuous
 62
     7
370
    15
100
AcDbCircle
 10
2110.371777909382
 20
887.0150206523327
 30
0.0
 40
1.094800115051625
100
AcDbArc
 50
188.6903853336255
 51
237.0932335995351
  0
LINE
  5
E51
330
C10
100
AcDbEntity
  8
0
  6
Continuous
 62
     7
370
    15
100
AcDbLine
 10
2109.049961083196
 20
888.5569589622997
 30
0.0
 11
2109.289546914617
 21
886.8496018931626
 31
0.0
  0
LINE
  5
E52
330
C10
100
AcDbEntity
  8
0
  6
Continuous
 62
     7
370
    15
100
AcDbLine
 10
2109.049961083196
 20
893.2312107271284
 30
0.0
 11
2109.049961083196
 21
888.5569589622997
 31
0.0
  0
LINE
  5
E53
330
C10
100
AcDbEntity
  8
0
  6
Continuous
 62
     7
370
    15
100
AcDbLine
 10
2109.295897910367
 20
893.6181473100294
 30
0.0
 11
2109.262093117552
 21
893.5986341874802
 31
0.0
  0
LINE
  5
E54
330
C10
100
AcDbEntity
  8
0
  6
Continuous
 62
     7
370
    15
100
AcDbLine
 10
2105.017926322374
 20
901.506815430422
 30
0.0
 11
2107.139246665933
 21
902.7314275981561
 31
0.0
  0
LINE
  5
E55
330
C10
100
AcDbEntity
  8
0
  6
Continuous
 62
     7
370
    15
100
AcDbLine
 10
2107.38673296039
 20
902.8743448396747
 30
0.0
 11
2107.139246665933
 21
902.7314275981561
 31
0.0
  0
LINE
  5
E56
330
C10
100
AcDbEntity
  8
0
  6
Continuous
 62
     7
370
    15
100
AcDbLine
 10
2106.043204994829
 20
897.1286694599537
 30
0.0
 11
2106.077008082316
 21
897.1481835669909
 31
0.0
  0
ARC
  5
E57
330
C10
100
AcDbEntity
  8
0
  6
Continuous
 62
     7
370
    15
100
AcDbCircle
 10
2106.15982093688
 20
897.0466578591468
 30
0.0
 40
0.1310131587921769
100
AcDbArc
 50
350.7863151496593
 51
129.2029331087112
  0
LINE
  5
E58
330
C10
100
AcDbEntity
  8
0
  6
Continuous
 62
     7
370
    15
100
AcDbLine
 10
2106.289146669751
 20
892.3514557344573
 30
0.0
 11
2106.289143770446
 21
897.0256804309157
 31
0.0
  0
LINE
  5
E59
330
C10
100
AcDbEntity
  8
0
  6
Continuous
 62
     7
370
    15
100
AcDbLine
 10
2104.383060626449
 20
891.2511032495055
 30
0.0
 11
2106.289140116672
 21
892.3514595174694
 31
0.0
  0
LINE
  5
E5A
330
C10
100
AcDbEntity
  8
0
  6
Continuous
 62
     7
370
    15
100
AcDbLine
 10
2104.383064280206
 20
895.9253241629381
 30
0.0
 11
2104.383067179528
 21
891.2510994664934
 31
0.0
  0
ARC
  5
E5B
330
C10
100
AcDbEntity
  8
0
  6
Continuous
 62
     7
370
    15
100
AcDbCircle
 10
2104.843616701927
 20
895.9043732668808
 30
0.0
 40
0.4610287119035171
100
AcDbArc
 50
122.6046821356073
 51
177.3953651058462
  0
LINE
  5
E5C
330
C10
100
AcDbEntity
  8
0
  6
Continuous
 62
     7
370
    15
100
AcDbLine
 10
2104.595196162627
 20
896.2927477110108
 30
0.0
 11
2104.628999250115
 21
896.3122618180289
 31
0.0
  0
ARC
  5
E5D
330
C10
100
AcDbEntity
  8
0
  6
Continuous
 62
     7
370
    15
100
AcDbCircle
 10
2104.380566198753
 20
896.7006434664359
 30
0.0
 40
0.4610415228892312
100
AcDbArc
 50
302.6055095954552
 51
357.3945423838766
  0
LINE
  5
E5E
330
C10
100
AcDbEntity
  8
0
  6
Continuous
 62
     7
370
    15
100
AcDbLine
 10
2104.841131184415
 20
901.6088770911222
 30
0.0
 11
2104.841131117332
 21
896.6796853748499
 31
0.0
  0
LINE
  5
E5F
330
C10
100
AcDbEntity
  8
0
  6
Continuous
 62
     7
370
    15
100
AcDbLine
 10
2105.831076219184
 20
897.2511686055103
 30
0.0
 11
2105.831076219184
 21
901.9762368739336
 31
0.0
  0
SPLINE
  5
E60
330
C10
100
AcDbEntity
  8
0
  6
Continuous
 62
     7
370
    15
100
AcDbSpline
210
0.0
220
0.0
230
1.0
 70
     8
 71
     3
 72
    14
 73
    10
 74
     0
 42
0.0000000001
 43
0.0000000001
 40
0.0
 40
0.0
 40
0.0
 40
0.0
 40
0.0840876777391322
 40
0.1672016938460899
 40
0.250755854568427
 40
0.5000979028892965
 40
0.7494399512101743
 40
0.8738244721235327
 40
1.0
 40
1.0
 40
1.0
 40
1.0
 10
2106.043208496651
 20
897.1286674383948
 30
0.0
 10
2106.033898683384
 20
897.1237158063592
 30
0.0
 10
2106.015386856331
 20
897.1138698778485
 30
0.0
 10
2105.98809003258
 20
897.1046093940861
 30
0.0
 10
2105.944408330669
 20
897.0963688525888
 30
0.0
 10
2105.88917940867
 20
897.106972592519
 30
0.0
 10
2105.85021343129
 20
897.1525516692615
 30
0.0
 10
2105.833450053208
 20
897.2043102824837
 30
0.0
 10
2105.831871319573
 20
897.2354748744253
 30
0.0
 10
2105.83107631035
 20
897.2511685528798
 30
0.0
  0
LINE
  5
E61
330
C10
100
AcDbEntity
  8
0
  6
Continuous
 62
     7
370
    15
100
AcDbLine
 10
2102.719806533359
 20
897.9043287326298
 30
0.0
 11
2102.719806533359
 21
902.8334917455211
 31
0.0
  0
LINE
  5
E62
330
C10
100
AcDbEntity
  8
0
  6
Continuous
 62
     7
370
    15
100
AcDbLine
 10
2104.841131117332
 20
896.6796853748499
 30
0.0
 11
2102.719806533359
 21
897.9043287326298
 31
0.0
  0
LINE
  5
E63
330
C10
100
AcDbEntity
  8
0
  6
Continuous
 62
     7
370
    15
100
AcDbLine
 10
2100.845994144863
 20
908.9190620752138
 30
0.0
 11
2098.724673801303
 21
907.6944499074798
 31
0.0
  0
LINE
  5
E64
330
C10
100
AcDbEntity
  8
0
  6
Continuous
 62
     7
370
    15
100
AcDbLine
 10
2100.845994144863
 20
909.3876578948856
 30
0.0
 11
2100.845994144863
 21
908.9190620752138
 31
0.0
  0
LINE
  5
E65
330
C10
100
AcDbEntity
  8
0
  6
Continuous
 62
     7
370
    15
100
AcDbLine
 10
2112.837779384642
 20
887.0019634245217
 30
0.0
 11
2110.931699894419
 21
885.9016071565578
 31
0.0
  0
LINE
  5
E66
330
C10
100
AcDbEntity
  8
0
  6
Continuous
 62
     7
370
    15
100
AcDbLine
 10
2113.077365216063
 20
888.4327005807206
 30
0.0
 11
2112.837779384642
 21
887.0019634245217
 31
0.0
  0
LINE
  5
E67
330
C10
100
AcDbEntity
  8
0
  6
Continuous
 62
     7
370
    15
100
AcDbLine
 10
2097.487236934227
 20
909.6091296139199
 30
0.0
 11
2097.204394221753
 21
909.4458479915555
 31
0.0
  0
LINE
  5
E68
330
C10
100
AcDbEntity
  8
0
  6
Continuous
 62
     7
370
    15
100
AcDbLine
 10
2097.204394221753
 20
909.4458479915555
 30
0.0
 11
2097.487236934227
 21
908.5476265584686
 31
0.0
  0
LINE
  5
E69
330
C10
100
AcDbEntity
  8
0
  6
Continuous
 62
     7
370
    15
100
AcDbLine
 10
2095.083073878193
 20
910.6704601592895
 30
0.0
 11
2097.204394221753
 21
909.4458479915555
 31
0.0
  0
LINE
  5
E6A
330
C10
100
AcDbEntity
  8
0
  6
Continuous
 62
     7
370
    15
100
AcDbLine
 10
2095.365916590667
 20
910.8337417816541
 30
0.0
 11
2095.083073878193
 21
910.6704601592895
 31
0.0
  0
LINE
  5
E6B
330
C10
100
AcDbEntity
  8
0
  6
Continuous
 62
     7
370
    15
100
AcDbLine
 10
2095.083073878193
 20
910.6704601592895
 30
0.0
 11
2095.365916590667
 21
909.7722387262026
 31
0.0
  0
LINE
  5
E6C
330
C10
100
AcDbEntity
  8
0
  6
Continuous
 62
     7
370
    15
100
AcDbLine
 10
2098.621118735569
 20
907.4655352671097
 30
0.0
 11
2100.742439079129
 21
908.6901474348438
 31
0.0
  0
ARC
  5
E6D
330
C10
100
AcDbEntity
  8
0
  6
Continuous
 62
     7
370
    15
100
AcDbCircle
 10
2100.595663983147
 20
908.8944248316257
 30
0.0
 40
0.2515396263743219
100
AcDbArc
 50
305.6975759694925
 51
5.620891283886487
  0
LINE
  5
E6E
330
C10
100
AcDbEntity
  8
0
  6
Continuous
 62
     7
370
    15
100
AcDbLine
 10
2098.580742638883
 20
907.4422202354135
 30
0.0
 11
2100.702062982443
 21
908.6668324031474
 31
0.0
  0
LINE
  5
E6F
330
C10
100
AcDbEntity
  8
0
  6
Continuous
 62
     7
370
    15
100
AcDbLine
 10
2100.742439079129
 20
908.6901474348438
 30
0.0
 11
2100.702062982443
 21
908.6668324031474
 31
0.0
  0
LINE
  5
E70
330
C10
100
AcDbEntity
  8
0
  6
Continuous
 62
     7
370
    15
100
AcDbLine
 10
2098.477185709603
 20
907.2133073479395
 30
0.0
 11
2100.598506053163
 21
908.4379192565817
 31
0.0
  0
ARC
  5
E71
330
C10
100
AcDbEntity
  8
0
  6
Continuous
 62
     7
370
    15
100
AcDbCircle
 10
2100.848833839389
 20
908.4625550469054
 30
0.0
 40
0.2515371199683551
100
AcDbArc
 50
125.6967972034188
 51
185.6206148452024
  0
LINE
  5
E72
330
C10
100
AcDbEntity
  8
0
  6
Continuous
 62
     7
370
    15
100
AcDbLine
 10
2100.598507860999
 20
906.7931037764237
 30
0.0
 11
2098.477187517439
 21
905.5684916086896
 31
0.0
  0
LINE
  5
E73
330
C10
100
AcDbEntity
  8
0
  6
Continuous
 62
     7
370
    15
100
AcDbLine
 10
2100.598506053163
 20
908.4379192565817
 30
0.0
 11
2100.598507860999
 21
906.7931037764237
 31
0.0
  0
SPLINE
  5
E74
330
C10
100
AcDbEntity
  8
0
  6
Continuous
 62
     7
370
    15
100
AcDbSpline
210
0.0
220
0.0
230
1.0
 70
     8
 71
     3
 72
     9
 73
     5
 74
     0
 42
0.0000000001
 43
0.0000000001
 40
0.0
 40
0.0
 40
0.0
 40
0.0
 40
0.4289592542054201
 40
0.9999999999999998
 40
0.9999999999999998
 40
0.9999999999999998
 40
0.9999999999999998
 10
2112.695981019665
 20
886.7830563658058
 30
0.0
 10
2112.726425757567
 20
886.8017063470537
 30
0.0
 10
2112.797399253542
 20
886.845183626224
 30
0.0
 10
2112.823102044006
 20
886.9449772176489
 30
0.0
 10
2112.837779384642
 20
887.0019634245219
 30
0.0
  0
LINE
  5
E75
330
C10
100
AcDbEntity
  8
0
  6
Continuous
 62
     7
370
    15
100
AcDbLine
 10
2104.383064280205
 20
895.9253241629376
 30
0.0
 11
2102.261735983805
 21
897.1499696638773
 31
0.0
  0
ARC
  5
E76
330
C10
100
AcDbEntity
  8
0
  6
Continuous
 62
     7
370
    15
100
AcDbCircle
 10
2102.722300814172
 20
897.1290114082375
 30
0.0
 40
0.461041442226778
100
AcDbArc
 50
122.605478337233
 51
177.3945215188559
  0
LINE
  5
E77
330
C10
100
AcDbEntity
  8
0
  6
Continuous
 62
     7
370
    15
100
AcDbLine
 10
2104.595196162627
 20
896.2927477110108
 30
0.0
 11
2102.473868018161
 21
897.5173931242292
 31
0.0
  0
LINE
  5
E78
330
C10
100
AcDbEntity
  8
0
  6
Continuous
 62
     7
370
    15
100
AcDbLine
 10
2104.628999250115
 20
896.3122618180289
 30
0.0
 11
2102.507672810976
 21
897.5369062467782
 31
0.0
  0
ARC
  5
E79
330
C10
100
AcDbEntity
  8
0
  6
Continuous
 62
     7
370
    15
100
AcDbCircle
 10
2102.259251156024
 20
897.9252837019453
 30
0.0
 40
0.4610318495844138
100
AcDbArc
 50
302.6045973000148
 51
357.3948761075631
  0
LINE
  5
E7A
330
C10
100
AcDbEntity
  8
0
  6
Continuous
 62
     7
370
    15
100
AcDbLine
 10
2104.143474795028
 20
889.8203660933068
 30
0.0
 11
2104.383060626449
 21
891.2511032495055
 31
0.0
  0
SPLINE
  5
E7B
330
C10
100
AcDbEntity
  8
0
  6
Continuous
 62
     7
370
    15
100
AcDbSpline
210
0.0
220
0.0
230
1.0
 70
     8
 71
     3
 72
    10
 73
     6
 74
     0
 42
0.0000000001
 43
0.0000000001
 40
0.0
 40
0.0
 40
0.0
 40
0.0
 40
0.5
 40
0.5
 40
1.0
 40
1.0
 40
1.0
 40
1.0
 10
2104.143474795028
 20
889.8203660933068
 30
0.0
 10
2104.123473009874
 20
889.7009212286407
 30
0.0
 10
2104.06242098182
 20
889.6140550827766
 30
0.0
 10
2103.885946000085
 20
889.5449344465678
 30
0.0
 10
2103.771205679764
 20
889.5629473258614
 30
0.0
 10
2103.656019802107
 20
889.629442717638
 30
0.0
  0
LINE
  5
E7C
330
C10
100
AcDbEntity
  8
0
  6
Continuous
 62
     7
370
    15
100
AcDbLine
 10
2102.988776808146
 20
890.0146338990266
 30
0.0
 11
2103.656019802107
 21
889.6294427176378
 31
0.0
  0
ARC
  5
E7D
330
C10
100
AcDbEntity
  8
0
  6
Continuous
 62
     7
370
    15
100
AcDbCircle
 10
2103.583552809991
 20
890.9337795890815
 30
0.0
 40
1.094800115051551
100
AcDbArc
 50
188.690385333619
 51
237.0932335995351
  0
LINE
  5
E7E
330
C10
100
AcDbEntity
  8
0
  6
Continuous
 62
     7
370
    15
100
AcDbLine
 10
2102.261735983805
 20
892.4757178990487
 30
0.0
 11
2102.501321815226
 21
890.7683608299116
 31
0.0
  0
LINE
  5
E7F
330
C10
100
AcDbEntity
  8
0
  6
Continuous
 62
     7
370
    15
100
AcDbLine
 10
2102.261735983805
 20
897.1499696638773
 30
0.0
 11
2102.261735983805
 21
892.4757178990487
 31
0.0
  0
LINE
  5
E80
330
C10
100
AcDbEntity
  8
0
  6
Continuous
 62
     7
370
    15
100
AcDbLine
 10
2102.507672810976
 20
897.5369062467782
 30
0.0
 11
2102.473868018161
 21
897.5173931242292
 31
0.0
  0
LINE
  5
E81
330
C10
100
AcDbEntity
  8
0
  6
Continuous
 62
     7
370
    15
100
AcDbLine
 10
2098.229701222983
 20
905.4255743671712
 30
0.0
 11
2100.351021566543
 21
906.6501865349051
 31
0.0
  0
LINE
  5
E82
330
C10
100
AcDbEntity
  8
0
  6
Continuous
 62
     7
370
    15
100
AcDbLine
 10
2100.598507860999
 20
906.7931037764237
 30
0.0
 11
2100.351021566543
 21
906.6501865349051
 31
0.0
  0
LINE
  5
E83
330
C10
100
AcDbEntity
  8
0
  6
Continuous
 62
     7
370
    15
100
AcDbLine
 10
2099.254979895437
 20
901.0474283967026
 30
0.0
 11
2099.288782982925
 21
901.0669425037399
 31
0.0
  0
ARC
  5
E84
330
C10
100
AcDbEntity
  8
0
  6
Continuous
 62
     7
370
    15
100
AcDbCircle
 10
2099.371595837489
 20
900.9654167958958
 30
0.0
 40
0.1310131587922709
100
AcDbArc
 50
350.7863151497108
 51
129.2029331086786
  0
LINE
  5
E85
330
C10
100
AcDbEntity
  8
0
  6
Continuous
 62
     7
370
    15
100
AcDbLine
 10
2099.50092157036
 20
896.2702146712064
 30
0.0
 11
2099.500918671055
 21
900.9444393676647
 31
0.0
  0
LINE
  5
E86
330
C10
100
AcDbEntity
  8
0
  6
Continuous
 62
     7
370
    15
100
AcDbLine
 10
2097.594835527058
 20
895.1698621862547
 30
0.0
 11
2099.500915017281
 21
896.2702184542184
 31
0.0
  0
LINE
  5
E87
330
C10
100
AcDbEntity
  8
0
  6
Continuous
 62
     7
370
    15
100
AcDbLine
 10
2097.594839180815
 20
899.8440830996871
 30
0.0
 11
2097.594842080138
 21
895.1698584032424
 31
0.0
  0
ARC
  5
E88
330
C10
100
AcDbEntity
  8
0
  6
Continuous
 62
     7
370
    15
100
AcDbCircle
 10
2098.055391602536
 20
899.82313220363
 30
0.0
 40
0.4610287119035477
100
AcDbArc
 50
122.6046821356183
 51
177.3953651058462
  0
LINE
  5
E89
330
C10
100
AcDbEntity
  8
0
  6
Continuous
 62
     7
370
    15
100
AcDbLine
 10
2097.806971063236
 20
900.2115066477598
 30
0.0
 11
2097.840774150724
 21
900.2310207547779
 31
0.0
  0
ARC
  5
E8A
330
C10
100
AcDbEntity
  8
0
  6
Continuous
 62
     7
370
    15
100
AcDbCircle
 10
2097.592341099362
 20
900.6194024031852
 30
0.0
 40
0.4610415228895551
100
AcDbArc
 50
302.6055095954552
 51
357.394542383844
  0
LINE
  5
E8B
330
C10
100
AcDbEntity
  8
0
  6
Continuous
 62
     7
370
    15
100
AcDbLine
 10
2098.052906085024
 20
905.5276360278714
 30
0.0
 11
2098.052906017941
 21
900.5984443115989
 31
0.0
  0
LINE
  5
E8C
330
C10
100
AcDbEntity
  8
0
  6
Continuous
 62
     7
370
    15
100
AcDbLine
 10
2099.042851119793
 20
901.1699275422593
 30
0.0
 11
2099.042851119793
 21
905.8949958106826
 31
0.0
  0
SPLINE
  5
E8D
330
C10
100
AcDbEntity
  8
0
  6
Continuous
 62
     7
370
    15
100
AcDbSpline
210
0.0
220
0.0
230
1.0
 70
     8
 71
     3
 72
    14
 73
    10
 74
     0
 42
0.0000000001
 43
0.0000000001
 40
0.0
 40
0.0
 40
0.0
 40
0.0
 40
0.0840876777391322
 40
0.1672016938460899
 40
0.250755854568427
 40
0.5000979028892965
 40
0.7494399512101743
 40
0.8738244721235327
 40
1.0
 40
1.0
 40
1.0
 40
1.0
 10
2099.254983397259
 20
901.0474263751438
 30
0.0
 10
2099.245673583993
 20
901.0424747431082
 30
0.0
 10
2099.22716175694
 20
901.0326288145975
 30
0.0
 10
2099.199864933189
 20
901.0233683308351
 30
0.0
 10
2099.156183231278
 20
901.0151277893378
 30
0.0
 10
2099.100954309278
 20
901.0257315292681
 30
0.0
 10
2099.061988331898
 20
901.0713106060105
 30
0.0
 10
2099.045224953818
 20
901.1230692192327
 30
0.0
 10
2099.043646220183
 20
901.1542338111743
 30
0.0
 10
2099.042851210959
 20
901.1699274896288
 30
0.0
  0
LINE
  5
E8E
330
C10
100
AcDbEntity
  8
0
  6
Continuous
 62
     7
370
    15
100
AcDbLine
 10
2095.931581433968
 20
901.8230876693788
 30
0.0
 11
2095.931581433968
 21
906.7522506822701
 31
0.0
  0
LINE
  5
E8F
330
C10
100
AcDbEntity
  8
0
  6
Continuous
 62
     7
370
    15
100
AcDbLine
 10
2098.052906017941
 20
900.5984443115989
 30
0.0
 11
2095.931581433968
 21
901.8230876693788
 31
0.0
  0
LINE
  5
E90
330
C10
100
AcDbEntity
  8
0
  6
Continuous
 62
     7
370
    15
100
AcDbLine
 10
2106.049554285251
 20
890.9207223612707
 30
0.0
 11
2104.143474795028
 21
889.8203660933068
 31
0.0
  0
LINE
  5
E91
330
C10
100
AcDbEntity
  8
0
  6
Continuous
 62
     7
370
    15
100
AcDbLine
 10
2106.289140116672
 20
892.3514595174694
 30
0.0
 11
2106.049554285251
 21
890.9207223612707
 31
0.0
  0
SPLINE
  5
E92
330
C10
100
AcDbEntity
  8
0
  6
Continuous
 62
     7
370
    15
100
AcDbSpline
210
0.0
220
0.0
230
1.0
 70
     8
 71
     3
 72
     9
 73
     5
 74
     0
 42
0.0000000001
 43
0.0000000001
 40
0.0
 40
0.0
 40
0.0
 40
0.0
 40
0.4289592542052287
 40
1.0
 40
1.0
 40
1.0
 40
1.0
 10
2105.907755920275
 20
890.7018153025546
 30
0.0
 10
2105.938200658177
 20
890.7204652838025
 30
0.0
 10
2106.009174154152
 20
890.763942562973
 30
0.0
 10
2106.034876944615
 20
890.8637361543979
 30
0.0
 10
2106.049554285251
 20
890.9207223612707
 30
0.0
  0
LINE
  5
E93
330
C10
100
AcDbEntity
  8
0
  6
Continuous
 62
     7
370
    15
100
AcDbLine
 10
2097.594839180814
 20
899.8440830996866
 30
0.0
 11
2095.473510884414
 21
901.0687286006263
 31
0.0
  0
ARC
  5
E94
330
C10
100
AcDbEntity
  8
0
  6
Continuous
 62
     7
370
    15
100
AcDbCircle
 10
2095.934075714781
 20
901.0477703449865
 30
0.0
 40
0.4610414422267764
100
AcDbArc
 50
122.6054783372295
 51
177.3945215188559
  0
LINE
  5
E95
330
C10
100
AcDbEntity
  8
0
  6
Continuous
 62
     7
370
    15
100
AcDbLine
 10
2097.806971063236
 20
900.2115066477598
 30
0.0
 11
2095.68564291877
 21
901.436152060978
 31
0.0
  0
LINE
  5
E96
330
C10
100
AcDbEntity
  8
0
  6
Continuous
 62
     7
370
    15
100
AcDbLine
 10
2097.840774150724
 20
900.2310207547779
 30
0.0
 11
2095.719447711585
 21
901.4556651835274
 31
0.0
  0
ARC
  5
E97
330
C10
100
AcDbEntity
  8
0
  6
Continuous
 62
     7
370
    15
100
AcDbCircle
 10
2095.471026056633
 20
901.8440426386943
 30
0.0
 40
0.4610318495843592
100
AcDbArc
 50
302.6045973000148
 51
357.3948761075501
  0
LINE
  5
E98
330
C10
100
AcDbEntity
  8
0
  6
Continuous
 62
     7
370
    15
100
AcDbLine
 10
2097.355249695637
 20
893.7391250300558
 30
0.0
 11
2097.594835527058
 21
895.1698621862547
 31
0.0
  0
SPLINE
  5
E99
330
C10
100
AcDbEntity
  8
0
  6
Continuous
 62
     7
370
    15
100
AcDbSpline
210
0.0
220
0.0
230
1.0
 70
     8
 71
     3
 72
    10
 73
     6
 74
     0
 42
0.0000000001
 43
0.0000000001
 40
0.0
 40
0.0
 40
0.0
 40
0.0
 40
0.5
 40
0.5
 40
1.0
 40
1.0
 40
1.0
 40
1.0
 10
2097.355249695637
 20
893.7391250300558
 30
0.0
 10
2097.335247910483
 20
893.6196801653897
 30
0.0
 10
2097.274195882429
 20
893.5328140195256
 30
0.0
 10
2097.097720900694
 20
893.463693383317
 30
0.0
 10
2096.982980580373
 20
893.4817062626104
 30
0.0
 10
2096.867794702717
 20
893.548201654387
 30
0.0
  0
LINE
  5
E9A
330
C10
100
AcDbEntity
  8
0
  6
Continuous
 62
     7
370
    15
100
AcDbLine
 10
2096.200551708756
 20
893.9333928357758
 30
0.0
 11
2096.867794702717
 21
893.548201654387
 31
0.0
  0
ARC
  5
E9B
330
C10
100
AcDbEntity
  8
0
  6
Continuous
 62
     7
370
    15
100
AcDbCircle
 10
2096.7953277106
 20
894.8525385258305
 30
0.0
 40
1.094800115051439
100
AcDbArc
 50
188.690385333619
 51
237.0932335995496
  0
LINE
  5
E9C
330
C10
100
AcDbEntity
  8
0
  6
Continuous
 62
     7
370
    15
100
AcDbLine
 10
2095.473510884414
 20
896.3944768357977
 30
0.0
 11
2095.713096715835
 21
894.6871197666606
 31
0.0
  0
LINE
  5
E9D
330
C10
100
AcDbEntity
  8
0
  6
Continuous
 62
     7
370
    15
100
AcDbLine
 10
2095.473510884414
 20
901.0687286006263
 30
0.0
 11
2095.473510884414
 21
896.3944768357977
 31
0.0
  0
LINE
  5
E9E
330
C10
100
AcDbEntity
  8
0
  6
Continuous
 62
     7
370
    15
100
AcDbLine
 10
2095.719447711585
 20
901.4556651835274
 30
0.0
 11
2095.68564291877
 21
901.436152060978
 31
0.0
  0
LINE
  5
E9F
330
C10
100
AcDbEntity
  8
0
  6
Continuous
 62
     7
370
    15
100
AcDbLine
 10
2099.261329185861
 20
894.8394812980197
 30
0.0
 11
2097.355249695637
 21
893.7391250300558
 31
0.0
  0
LINE
  5
EA0
330
C10
100
AcDbEntity
  8
0
  6
Continuous
 62
     7
370
    15
100
AcDbLine
 10
2099.500915017281
 20
896.2702184542186
 30
0.0
 11
2099.261329185861
 21
894.8394812980197
 31
0.0
  0
SPLINE
  5
EA1
330
C10
100
AcDbEntity
  8
0
  6
Continuous
 62
     7
370
    15
100
AcDbSpline
210
0.0
220
0.0
230
1.0
 70
     8
 71
     3
 72
     9
 73
     5
 74
     0
 42
0.0000000001
 43
0.0000000001
 40
0.0
 40
0.0
 40
0.0
 40
0.0
 40
0.4289592542052287
 40
1.0
 40
1.0
 40
1.0
 40
1.0
 10
2099.119530820884
 20
894.6205742393038
 30
0.0
 10
2099.149975558786
 20
894.6392242205515
 30
0.0
 10
2099.220949054761
 20
894.682701499722
 30
0.0
 10
2099.246651845225
 20
894.7824950911469
 30
0.0
 10
2099.261329185861
 20
894.8394812980197
 30
0.0
  0
LINE
  5
EA2
330
C10
100
AcDbEntity
  8
0
  6
Continuous
 62
     8
370
    15
100
AcDbLine
 10
2160.136873758011
 20
865.9010620555479
 30
0.0
 11
2160.349009200611
 21
865.7785959970363
 31
0.0
  0
LINE
  5
EA3
330
C10
100
AcDbEntity
  8
0
  6
Continuous
 62
     8
370
    15
100
AcDbLine
 10
2160.1368770143
 20
865.9400888477957
 30
0.0
 11
2160.382812288098
 21
865.7981101040578
 31
0.0
  0
LINE
  5
EA4
330
C10
100
AcDbEntity
  8
0
  6
Continuous
 62
     8
370
    15
100
AcDbLine
 10
2153.348659086568
 20
869.8198149722296
 30
0.0
 11
2153.560780690564
 21
869.6973569027106
 31
0.0
  0
LINE
  5
EA5
330
C10
100
AcDbEntity
  8
0
  6
Continuous
 62
     8
370
    15
100
AcDbLine
 10
2153.348651914919
 20
869.8588477845433
 30
0.0
 11
2153.594587279874
 21
869.7168689881808
 31
0.0
  0
LINE
  5
EA6
330
C10
100
AcDbEntity
  8
0
  6
Continuous
 62
     8
370
    15
100
AcDbLine
 10
2146.560433987177
 20
873.7385739089786
 30
0.0
 11
2146.772555591173
 21
873.6161158394596
 31
0.0
  0
LINE
  5
EA7
330
C10
100
AcDbEntity
  8
0
  6
Continuous
 62
     8
370
    15
100
AcDbLine
 10
2146.560426815528
 20
873.7776067212923
 30
0.0
 11
2146.806362180483
 21
873.6356279249298
 31
0.0
  0
LINE
  5
EA8
330
C10
100
AcDbEntity
  8
0
  6
Continuous
 62
     8
370
    15
100
AcDbLine
 10
2139.772208887786
 20
877.6573328457278
 30
0.0
 11
2139.984330491783
 21
877.5348747762087
 31
0.0
  0
LINE
  5
EA9
330
C10
100
AcDbEntity
  8
0
  6
Continuous
 62
     8
370
    15
100
AcDbLine
 10
2139.772201716137
 20
877.6963656580413
 30
0.0
 11
2140.018137081092
 21
877.5543868616788
 31
0.0
  0
LINE
  5
EAA
330
C10
100
AcDbEntity
  8
0
  6
Continuous
 62
     8
370
    15
100
AcDbLine
 10
2132.983983788395
 20
881.5760917824766
 30
0.0
 11
2133.196105392392
 21
881.4536337129576
 31
0.0
  0
LINE
  5
EAB
330
C10
100
AcDbEntity
  8
0
  6
Continuous
 62
     8
370
    15
100
AcDbLine
 10
2132.983976616747
 20
881.6151245947903
 30
0.0
 11
2133.229911981702
 21
881.4731457984278
 31
0.0
  0
LINE
  5
EAC
330
C10
100
AcDbEntity
  8
0
  6
Continuous
 62
     8
370
    15
100
AcDbLine
 10
2126.195758689005
 20
885.4948507192258
 30
0.0
 11
2126.407880293001
 21
885.3723926497066
 31
0.0
  0
LINE
  5
EAD
330
C10
100
AcDbEntity
  8
0
  6
Continuous
 62
     8
370
    15
100
AcDbLine
 10
2126.195751517356
 20
885.5338835315391
 30
0.0
 11
2126.44168688231
 21
885.3919047351768
 31
0.0
  0
LINE
  5
EAE
330
C10
100
AcDbEntity
  8
0
  6
Continuous
 62
     8
370
    15
100
AcDbLine
 10
2119.407533589614
 20
889.4136096559746
 30
0.0
 11
2119.61965519361
 21
889.2911515864557
 31
0.0
  0
LINE
  5
EAF
330
C10
100
AcDbEntity
  8
0
  6
Continuous
 62
     8
370
    15
100
AcDbLine
 10
2119.407526417965
 20
889.4526424682883
 30
0.0
 11
2119.65346178292
 21
889.3106636719258
 31
0.0
  0
LINE
  5
EB0
330
C10
100
AcDbEntity
  8
0
  6
Continuous
 62
     8
370
    15
100
AcDbLine
 10
2112.619308490223
 20
893.3323685927236
 30
0.0
 11
2112.831430094219
 21
893.2099105232047
 31
0.0
  0
LINE
  5
EB1
330
C10
100
AcDbEntity
  8
0
  6
Continuous
 62
     8
370
    15
100
AcDbLine
 10
2112.619301318574
 20
893.3714014050373
 30
0.0
 11
2112.865236683529
 21
893.2294226086748
 31
0.0
  0
LINE
  5
EB2
330
C10
100
AcDbEntity
  8
0
  6
Continuous
 62
     8
370
    15
100
AcDbLine
 10
2105.831083390832
 20
897.2511275294726
 30
0.0
 11
2106.043204994829
 21
897.1286694599537
 31
0.0
  0
LINE
  5
EB3
330
C10
100
AcDbEntity
  8
0
  6
Continuous
 62
     8
370
    15
100
AcDbLine
 10
2105.831076219184
 20
897.2901603417863
 30
0.0
 11
2106.077011584138
 21
897.1481815454238
 31
0.0
  0
LINE
  5
EB4
330
C10
100
AcDbEntity
  8
0
  6
Continuous
 62
     8
370
    15
100
AcDbLine
 10
2099.042858291441
 20
901.1698864662216
 30
0.0
 11
2099.254979895437
 21
901.0474283967026
 31
0.0
  0
LINE
  5
EB5
330
C10
100
AcDbEntity
  8
0
  6
Continuous
 62
     8
370
    15
100
AcDbLine
 10
2099.042851119793
 20
901.2089192785353
 30
0.0
 11
2099.288786484747
 21
901.0669404821728
 31
0.0
  0
ENDBLK
  5
C12
330
C10
100
AcDbEntity
  8
0
100
AcDbBlockEnd
  0
ENDSEC
  0
SECTION
  2
ENTITIES
  0
INSERT
  5
B89
330
1F
100
AcDbEntity
  8
0
100
AcDbBlockReference
  2
1
 10
0.0
 20
0.0
 30
0.0
  0
INSERT
  5
C07
330
1F
100
AcDbEntity
  8
0
100
AcDbBlockReference
  2
2
 10
0.0
 20
0.0
 30
0.0
  0
INSERT
  5
C0F
330
1F
100
AcDbEntity
  8
0
100
AcDbBlockReference
  2
3
 10
0.0
 20
0.0
 30
0.0
  0
INSERT
  5
EB6
330
1F
100
AcDbEntity
  8
0
100
AcDbBlockReference
  2
4
 10
0.0
 20
0.0
 30
0.0
  0
ENDSEC
  0
SECTION
  2
OBJECTS
  0
DICTIONARY
  5
C
330
0
100
AcDbDictionary
281
     1
  3
ACAD_COLOR
350
6B
  3
ACAD_GROUP
350
D
  3
ACAD_LAYOUT
350
1A
  3
ACAD_MATERIAL
350
6A
  3
ACAD_MLEADERSTYLE
350
12D
  3
ACAD_MLINESTYLE
350
17
  3
ACAD_PLOTSETTINGS
350
19
  3
ACAD_PLOTSTYLENAME
350
E
  3
ACAD_SCALELIST
350
10C
  3
ACAD_TABLESTYLE
350
7E
  3
ACAD_VISUALSTYLE
350
EF
  3
ACDB_RECOMPOSE_DATA
350
15D
  3
AcDbVariableDictionary
350
5E
  3
DWGPROPS
350
EC4
  0
DICTIONARY
  5
13C
330
10
100
AcDbDictionary
280
     1
281
     1
  3
ADSK_XREC_LAYER_RECONCILED
360
EB7
  0
DICTIONARY
  5
6B
102
{ACAD_REACTORS
330
C
102
}
330
C
100
AcDbDictionary
281
     1
  0
DICTIONARY
  5
D
102
{ACAD_REACTORS
330
C
102
}
330
C
100
AcDbDictionary
281
     1
  0
DICTIONARY
  5
1A
102
{ACAD_REACTORS
330
C
102
}
330
C
100
AcDbDictionary
281
     1
  3
Layout1
350
D3
  3
Layout2
350
D7
  3
Model
350
22
  0
DICTIONARY
  5
6A
102
{ACAD_REACTORS
330
C
102
}
330
C
100
AcDbDictionary
281
     1
  3
ByBlock
350
ED
  3
ByLayer
350
EC
  3
Global
350
EE
  0
DICTIONARY
  5
12D
102
{ACAD_REACTORS
330
C
102
}
330
C
100
AcDbDictionary
281
     1
  3
Annotative
350
13B
  3
Standard
350
12E
  0
DICTIONARY
  5
17
102
{ACAD_REACTORS
330
C
102
}
330
C
100
AcDbDictionary
281
     1
  3
Standard
350
18
  0
DICTIONARY
  5
19
102
{ACAD_REACTORS
330
C
102
}
330
C
100
AcDbDictionary
281
     1
  0
ACDBDICTIONARYWDFLT
  5
E
102
{ACAD_REACTORS
330
C
102
}
330
C
100
AcDbDictionary
281
     1
  3
Normal
350
F
100
AcDbDictionaryWithDefault
340
F
  0
DICTIONARY
  5
10C
102
{ACAD_REACTORS
330
C
102
}
330
C
100
AcDbDictionary
281
     1
  3
A0
350
10D
  3
A1
350
188
  3
A2
350
189
  3
A3
350
18A
  3
A4
350
18B
  3
A5
350
18C
  3
A6
350
18D
  3
A7
350
18E
  3
A8
350
18F
  3
A9
350
190
  3
B0
350
191
  3
B1
350
192
  3
B2
350
193
  3
B3
350
194
  3
B4
350
195
  3
B5
350
196
  3
B6
350
197
  3
B7
350
198
  3
B8
350
199
  3
B9
350
19A
  3
C0
350
19B
  3
C1
350
19C
  3
C2
350
19D
  3
C3
350
19E
  3
C4
350
19F
  3
C5
350
1A0
  3
C6
350
1A1
  3
C7
350
1A2
  3
C8
350
1A3
  3
C9
350
1A4
  3
D0
350
1A5
  3
D1
350
1A6
  3
D2
350
1A7
  0
DICTIONARY
  5
7E
102
{ACAD_REACTORS
330
C
102
}
330
C
100
AcDbDictionary
281
     1
  3
Standard
350
7F
  0
DICTIONARY
  5
EF
102
{ACAD_REACTORS
330
C
102
}
330
C
100
AcDbDictionary
281
     1
  3
2dWireframe
350
F5
  3
3D Hidden
350
F7
  3
3dWireframe
350
F6
  3
Basic
350
F4
  3
Brighten
350
FB
  3
ColorChange
350
FF
  3
Conceptual
350
F8
  3
Dim
350
FA
  3
Facepattern
350
FE
  3
Flat
350
F0
  3
FlatWithEdges
350
F1
  3
Gouraud
350
F2
  3
GouraudWithEdges
350
F3
  3
Linepattern
350
FD
  3
Realistic
350
F9
  3
Thicken
350
FC
  0
XRECORD
  5
15D
102
{ACAD_REACTORS
330
C
102
}
330
C
100
AcDbXrecord
280
     1
 90
        1
330
7F
  0
DICTIONARY
  5
5E
102
{ACAD_REACTORS
330
C
102
}
330
C
100
AcDbDictionary
281
     1
  3
CANNOSCALE
350
146
  3
CMLEADERSTYLE
350
145
  3
CTABLESTYLE
350
84
  3
DIMASSOC
350
5F
  3
HIDETEXT
350
63
  3
INDEXCTL
350
EC0
  3
LIGHTINGUNITS
350
EBE
  3
MSLTSCALE
350
EBD
  3
PSOLHEIGHT
350
EC2
  3
PSOLWIDTH
350
EC1
  3
SORTENTS
350
EBF
  0
XRECORD
  5
EC4
102
{ACAD_REACTORS
330
C
102
}
330
C
100
AcDbXrecord
280
     1
  1
DWGPROPS COOKIE
  2

  3

  4

  6

  7

  8
orhan kara
  9

300
=
301
=
302
=
303
=
304
=
305
=
306
=
307
=
308
=
309
=
 40
0.0005260416666667
 41
2458933.722671586
 42
2458956.451337384
  1

 90
        0
  0
XRECORD
  5
EB7
102
{ACAD_REACTORS
330
13C
102
}
330
13C
100
AcDbXrecord
280
     1
290
     1
  0
LAYOUT
  5
D3
102
{ACAD_XDICTIONARY
360
EC8
102
}
102
{ACAD_REACTORS
330
1A
102
}
330
1A
100
AcDbPlotSettings
  1

  2
C:\Documents and Settings\basas\Application Data\Autodesk\AutoCAD 2005\R16.1\enu\plotters\Default Windows System Printer.pc3
  4

  6

 40
0.0
 41
0.0
 42
0.0
 43
0.0
 44
0.0
 45
0.0
 46
0.0
 47
0.0
 48
0.0
 49
0.0
140
0.0
141
0.0
142
1.0
143
1.0
 70
   688
 72
     0
 73
     0
 74
     5
  7

 75
    16
147
1.0
148
0.0
149
0.0
100
AcDbLayout
  1
Layout1
 70
     1
 71
     1
 10
0.0
 20
0.0
 11
12.0
 21
9.0
 12
0.0
 22
0.0
 32
0.0
 14
0.0
 24
0.0
 34
0.0
 15
0.0
 25
0.0
 35
0.0
146
0.0
 13
0.0
 23
0.0
 33
0.0
 16
1.0
 26
0.0
 36
0.0
 17
0.0
 27
1.0
 37
0.0
 76
     0
330
D2
  0
LAYOUT
  5
D7
102
{ACAD_XDICTIONARY
360
ECA
102
}
102
{ACAD_REACTORS
330
1A
102
}
330
1A
100
AcDbPlotSettings
  1

  2
C:\Documents and Settings\basas\Application Data\Autodesk\AutoCAD 2005\R16.1\enu\plotters\Default Windows System Printer.pc3
  4

  6

 40
0.0
 41
0.0
 42
0.0
 43
0.0
 44
0.0
 45
0.0
 46
0.0
 47
0.0
 48
0.0
 49
0.0
140
0.0
141
0.0
142
1.0
143
1.0
 70
   688
 72
     0
 73
     0
 74
     5
  7

 75
    16
147
1.0
148
0.0
149
0.0
100
AcDbLayout
  1
Layout2
 70
     1
 71
     2
 10
0.0
 20
0.0
 11
12.0
 21
9.0
 12
0.0
 22
0.0
 32
0.0
 14
0.0
 24
0.0
 34
0.0
 15
0.0
 25
0.0
 35
0.0
146
0.0
 13
0.0
 23
0.0
 33
0.0
 16
1.0
 26
0.0
 36
0.0
 17
0.0
 27
1.0
 37
0.0
 76
     0
330
D6
  0
LAYOUT
  5
22
102
{ACAD_XDICTIONARY
360
EC5
102
}
102
{ACAD_REACTORS
330
1A
102
}
330
1A
100
AcDbPlotSettings
  1

  2
none_device
  4
ISO_A4_(210.00_x_297.00_MM)
  6

 40
7.5
 41
20.0
 42
7.5
 43
20.0
 44
210.0
 45
297.0
 46
11.54999923706054
 47
-13.65000009536743
 48
0.0
 49
0.0
140
0.0
141
0.0
142
1.0
143
8.704084754739808
 70
 11952
 72
     1
 73
     0
 74
     0
  7

 75
     0
147
0.1148885871608098
148
0.0
149
0.0
100
AcDbLayout
  1
Model
 70
     1
 71
     0
 10
0.0
 20
0.0
 11
12.0
 21
9.0
 12
0.0
 22
0.0
 32
0.0
 14
0.0
 24
0.0
 34
0.0
 15
0.0
 25
0.0
 35
0.0
146
0.0
 13
0.0
 23
0.0
 33
0.0
 16
1.0
 26
0.0
 36
0.0
 17
0.0
 27
1.0
 37
0.0
 76
     0
330
1F
331
EA
1001
ACAD_PSEXT
1000
None
1000
None
1000
Not applicable
1000
The layout will not be plotted unless a new plotter configuration name is selected.
1070
     0
  0
MATERIAL
  5
ED
102
{ACAD_XDICTIONARY
360
ECE
102
}
102
{ACAD_REACTORS
330
6A
102
}
330
6A
100
AcDbMaterial
  1
ByBlock
  0
MATERIAL
  5
EC
102
{ACAD_XDICTIONARY
360
ECC
102
}
102
{ACAD_REACTORS
330
6A
102
}
330
6A
100
AcDbMaterial
  1
ByLayer
  0
MATERIAL
  5
EE
102
{ACAD_XDICTIONARY
360
173
102
}
102
{ACAD_REACTORS
330
6A
102
}
330
6A
100
AcDbMaterial
  1
Global
 43
0.0007999999797903
 43
0.0
 43
0.0
 43
0.0
 43
0.0
 43
0.0007999999797903
 43
0.0
 43
0.0
 43
0.0
 43
0.0
 43
1.0
 43
0.0
 43
0.0
 43
0.0
 43
0.0
 43
1.0
 49
0.0007999999797903
 49
0.0
 49
0.0
 49
0.0
 49
0.0
 49
0.0007999999797903
 49
0.0
 49
0.0
 49
0.0
 49
0.0
 49
1.0
 49
0.0
 49
0.0
 49
0.0
 49
0.0
 49
1.0
142
0.0007999999797903
142
0.0
142
0.0
142
0.0
142
0.0
142
0.0007999999797903
142
0.0
142
0.0
142
0.0
142
0.0
142
1.0
142
0.0
142
0.0
142
0.0
142
0.0
142
1.0
144
0.0007999999797903
144
0.0
144
0.0
144
0.0
144
0.0
144
0.0007999999797903
144
0.0
144
0.0
144
0.0
144
0.0
144
1.0
144
0.0
144
0.0
144
0.0
144
0.0
144
1.0
1001
ACAD
1070
    -1
1070
     3
1070
     0
1000

1071
        0
1070
     0
  0
MLEADERSTYLE
  5
13B
102
{ACAD_REACTORS
330
12D
102
}
330
12D
100
AcDbMLeaderStyle
170
     2
171
     1
172
     0
 90
        2
 40
0.0
 41
0.0
173
     1
 91
-1056964608
340
14
 92
       -2
290
     1
 42
2.0
291
     1
 43
8.0
  3
Standard
 44
4.0
300

342
11
174
     1
178
     1
175
     1
176
     0
 93
-1056964608
 45
4.0
292
     0
297
     0
 46
4.0
 94
-1056964608
 47
1.0
 49
1.0
140
1.0
293
     1
141
0.0
294
     1
177
     0
142
1.0
295
     0
296
     1
143
3.75
1001
ACAD_MLEADERVER
1070
     2
  0
MLEADERSTYLE
  5
12E
102
{ACAD_REACTORS
330
12D
102
}
330
12D
100
AcDbMLeaderStyle
170
     2
171
     1
172
     0
 90
        2
 40
0.0
 41
0.0
173
     1
 91
-1056964608
340
14
 92
       -2
290
     1
 42
2.0
291
     1
 43
8.0
  3
Standard
 44
4.0
300

342
11
174
     1
178
     1
175
     1
176
     0
 93
-1056964608
 45
4.0
292
     0
297
     0
 46
4.0
 94
-1056964608
 47
1.0
 49
1.0
140
1.0
293
     1
141
0.0
294
     1
177
     0
142
1.0
295
     0
296
     0
143
3.75
1001
ACAD_MLEADERVER
1070
     2
  0
MLINESTYLE
  5
18
102
{ACAD_REACTORS
330
17
102
}
330
17
100
AcDbMlineStyle
  2
STANDARD
 70
     0
  3

 62
   256
 51
90.0
 52
90.0
 71
     2
 49
0.5
 62
   256
  6
BYLAYER
 49
-0.5
 62
   256
  6
BYLAYER
  0
ACDBPLACEHOLDER
  5
F
102
{ACAD_REACTORS
330
E
102
}
330
E
  0
SCALE
  5
10D
102
{ACAD_REACTORS
330
10C
102
}
330
10C
100
AcDbScale
 70
     0
300
1:1
140
1.0
141
1.0
290
     1
  0
SCALE
  5
188
102
{ACAD_REACTORS
330
10C
102
}
330
10C
100
AcDbScale
 70
     0
300
1:2
140
1.0
141
2.0
290
     0
  0
SCALE
  5
189
102
{ACAD_REACTORS
330
10C
102
}
330
10C
100
AcDbScale
 70
     0
300
1:4
140
1.0
141
4.0
290
     0
  0
SCALE
  5
18A
102
{ACAD_REACTORS
330
10C
102
}
330
10C
100
AcDbScale
 70
     0
300
1:5
140
1.0
141
5.0
290
     0
  0
SCALE
  5
18B
102
{ACAD_REACTORS
330
10C
102
}
330
10C
100
AcDbScale
 70
     0
300
1:8
140
1.0
141
8.0
290
     0
  0
SCALE
  5
18C
102
{ACAD_REACTORS
330
10C
102
}
330
10C
100
AcDbScale
 70
     0
300
1:10
140
1.0
141
10.0
290
     0
  0
SCALE
  5
18D
102
{ACAD_REACTORS
330
10C
102
}
330
10C
100
AcDbScale
 70
     0
300
1:16
140
1.0
141
16.0
290
     0
  0
SCALE
  5
18E
102
{ACAD_REACTORS
330
10C
102
}
330
10C
100
AcDbScale
 70
     0
300
1:20
140
1.0
141
20.0
290
     0
  0
SCALE
  5
18F
102
{ACAD_REACTORS
330
10C
102
}
330
10C
100
AcDbScale
 70
     0
300
1:30
140
1.0
141
30.0
290
     0
  0
SCALE
  5
190
102
{ACAD_REACTORS
330
10C
102
}
330
10C
100
AcDbScale
 70
     0
300
1:40
140
1.0
141
40.0
290
     0
  0
SCALE
  5
191
102
{ACAD_REACTORS
330
10C
102
}
330
10C
100
AcDbScale
 70
     0
300
1:50
140
1.0
141
50.0
290
     0
  0
SCALE
  5
192
102
{ACAD_REACTORS
330
10C
102
}
330
10C
100
AcDbScale
 70
     0
300
1:100
140
1.0
141
100.0
290
     0
  0
SCALE
  5
193
102
{ACAD_REACTORS
330
10C
102
}
330
10C
100
AcDbScale
 70
     0
300
2:1
140
2.0
141
1.0
290
     0
  0
SCALE
  5
194
102
{ACAD_REACTORS
330
10C
102
}
330
10C
100
AcDbScale
 70
     0
300
4:1
140
4.0
141
1.0
290
     0
  0
SCALE
  5
195
102
{ACAD_REACTORS
330
10C
102
}
330
10C
100
AcDbScale
 70
     0
300
8:1
140
8.0
141
1.0
290
     0
  0
SCALE
  5
196
102
{ACAD_REACTORS
330
10C
102
}
330
10C
100
AcDbScale
 70
     0
300
10:1
140
10.0
141
1.0
290
     0
  0
SCALE
  5
197
102
{ACAD_REACTORS
330
10C
102
}
330
10C
100
AcDbScale
 70
     0
300
100:1
140
100.0
141
1.0
290
     0
  0
SCALE
  5
198
102
{ACAD_REACTORS
330
10C
102
}
330
10C
100
AcDbScale
 70
     0
300
1/128" = 1'-0"
140
0.0078125
141
12.0
290
     0
  0
SCALE
  5
199
102
{ACAD_REACTORS
330
10C
102
}
330
10C
100
AcDbScale
 70
     0
300
1/64" = 1'-0"
140
0.015625
141
12.0
290
     0
  0
SCALE
  5
19A
102
{ACAD_REACTORS
330
10C
102
}
330
10C
100
AcDbScale
 70
     0
300
1/32" = 1'-0"
140
0.03125
141
12.0
290
     0
  0
SCALE
  5
19B
102
{ACAD_REACTORS
330
10C
102
}
330
10C
100
AcDbScale
 70
     0
300
1/16" = 1'-0"
140
0.0625
141
12.0
290
     0
  0
SCALE
  5
19C
102
{ACAD_REACTORS
330
10C
102
}
330
10C
100
AcDbScale
 70
     0
300
3/32" = 1'-0"
140
0.09375
141
12.0
290
     0
  0
SCALE
  5
19D
102
{ACAD_REACTORS
330
10C
102
}
330
10C
100
AcDbScale
 70
     0
300
1/8" = 1'-0"
140
0.125
141
12.0
290
     0
  0
SCALE
  5
19E
102
{ACAD_REACTORS
330
10C
102
}
330
10C
100
AcDbScale
 70
     0
300
3/16" = 1'-0"
140
0.1875
141
12.0
290
     0
  0
SCALE
  5
19F
102
{ACAD_REACTORS
330
10C
102
}
330
10C
100
AcDbScale
 70
     0
300
1/4" = 1'-0"
140
0.25
141
12.0
290
     0
  0
SCALE
  5
1A0
102
{ACAD_REACTORS
330
10C
102
}
330
10C
100
AcDbScale
 70
     0
300
3/8" = 1'-0"
140
0.375
141
12.0
290
     0
  0
SCALE
  5
1A1
102
{ACAD_REACTORS
330
10C
102
}
330
10C
100
AcDbScale
 70
     0
300
1/2" = 1'-0"
140
0.5
141
12.0
290
     0
  0
SCALE
  5
1A2
102
{ACAD_REACTORS
330
10C
102
}
330
10C
100
AcDbScale
 70
     0
300
3/4" = 1'-0"
140
0.75
141
12.0
290
     0
  0
SCALE
  5
1A3
102
{ACAD_REACTORS
330
10C
102
}
330
10C
100
AcDbScale
 70
     0
300
1" = 1'-0"
140
1.0
141
12.0
290
     0
  0
SCALE
  5
1A4
102
{ACAD_REACTORS
330
10C
102
}
330
10C
100
AcDbScale
 70
     0
300
1-1/2" = 1'-0"
140
1.5
141
12.0
290
     0
  0
SCALE
  5
1A5
102
{ACAD_REACTORS
330
10C
102
}
330
10C
100
AcDbScale
 70
     0
300
3" = 1'-0"
140
3.0
141
12.0
290
     0
  0
SCALE
  5
1A6
102
{ACAD_REACTORS
330
10C
102
}
330
10C
100
AcDbScale
 70
     0
300
6" = 1'-0"
140
6.0
141
12.0
290
     0
  0
SCALE
  5
1A7
102
{ACAD_REACTORS
330
10C
102
}
330
10C
100
AcDbScale
 70
     0
300
1'-0" = 1'-0"
140
12.0
141
12.0
290
     0
  0
TABLESTYLE
  5
7F
102
{ACAD_XDICTIONARY
360
162
102
}
102
{ACAD_REACTORS
330
7E
102
}
330
7E
100
AcDbTableStyle
  3
Standard
 70
     0
 71
     0
 40
1.5
 41
1.5
280
     0
281
     0
  7
Standard
140
4.5
170
     2
 62
     0
 63
     7
283
     0
274
    -2
284
     1
 64
     0
275
    -2
285
     1
 65
     0
276
    -2
286
     1
 66
     0
277
    -2
287
     1
 67
     0
278
    -2
288
     1
 68
     0
279
    -2
289
     1
 69
     0
  7
Standard
140
6.0
170
     5
 62
     0
 63
     7
283
     0
274
    -2
284
     1
 64
     0
275
    -2
285
     1
 65
     0
276
    -2
286
     1
 66
     0
277
    -2
287
     1
 67
     0
278
    -2
288
     1
 68
     0
279
    -2
289
     1
 69
     0
  7
Standard
140
4.5
170
     5
 62
     0
 63
     7
283
     0
274
    -2
284
     1
 64
     0
275
    -2
285
     1
 65
     0
276
    -2
286
     1
 66
     0
277
    -2
287
     1
 67
     0
278
    -2
288
     1
 68
     0
279
    -2
289
     1
 69
     0
  0
VISUALSTYLE
  5
F5
102
{ACAD_REACTORS
330
EF
102
}
330
EF
100
AcDbVisualStyle
  2
2dWireframe
 70
     4
 71
     0
 72
     2
 73
     1
 90
        0
 40
-0.6
 41
-30.0
 62
     5
 63
     7
 74
     1
 91
        4
 64
     7
 65
   257
 75
     1
175
     1
 42
1.0
 92
        0
 66
   257
 43
1.0
 76
     1
 77
     6
 78
     2
 67
     7
 79
     5
170
     0
171
     0
290
     0
174
     0
 93
        1
 44
0.0
173
     0
291
     0
 45
0.0
1001
ACAD
1000
AcDbSavedByObjectVersion
1070
     0
  0
VISUALSTYLE
  5
F7
102
{ACAD_REACTORS
330
EF
102
}
330
EF
100
AcDbVisualStyle
  2
3D Hidden
 70
     6
 71
     1
 72
     2
 73
     2
 90
        0
 40
-0.6
 41
-30.0
 62
     5
 63
     7
 74
     2
 91
        2
 64
     7
 65
   257
 75
     2
175
     1
 42
40.0
 92
        0
 66
   257
 43
1.0
 76
     1
 77
     6
 78
     2
 67
     7
 79
     3
170
     0
171
     0
290
     0
174
     0
 93
        1
 44
0.0
173
     0
291
     0
 45
0.0
1001
ACAD
1000
AcDbSavedByObjectVersion
1070
     0
  0
VISUALSTYLE
  5
F6
102
{ACAD_REACTORS
330
EF
102
}
330
EF
100
AcDbVisualStyle
  2
3dWireframe
 70
     5
 71
     0
 72
     2
 73
     1
 90
        0
 40
-0.6
 41
-30.0
 62
     5
 63
     7
 74
     1
 91
        4
 64
     7
 65
   257
 75
     1
175
     1
 42
1.0
 92
        0
 66
   257
 43
1.0
 76
     1
 77
     6
 78
     2
 67
     7
 79
     5
170
     0
171
     0
290
     0
174
     0
 93
        1
 44
0.0
173
     0
291
     0
 45
0.0
1001
ACAD
1000
AcDbSavedByObjectVersion
1070
     0
  0
VISUALSTYLE
  5
F4
102
{ACAD_REACTORS
330
EF
102
}
330
EF
100
AcDbVisualStyle
  2
Basic
 70
     7
 71
     1
 72
     0
 73
     1
 90
        0
 40
-0.6
 41
-30.0
 62
     5
 63
     7
 74
     0
 91
        4
 64
     7
 65
   257
 75
     1
175
     1
 42
1.0
 92
        8
 66
     7
 43
1.0
 76
     1
 77
     6
 78
     2
 67
     7
 79
     5
170
     0
171
     0
290
     0
174
     0
 93
        1
 44
0.0
173
     0
291
     1
 45
0.0
1001
ACAD
1000
AcDbSavedByObjectVersion
1070
     0
  0
VISUALSTYLE
  5
FB
102
{ACAD_REACTORS
330
EF
102
}
330
EF
100
AcDbVisualStyle
  2
Brighten
 70
    12
 71
     2
 72
     2
 73
     1
 90
        0
 40
-0.6
 41
-30.0
 62
     5
 63
     7
 74
     1
 91
        4
 64
     7
 65
   257
 75
     1
175
     1
 42
1.0
 92
        8
 66
     7
 43
1.0
 76
     1
 77
     6
 78
     2
 67
     7
 79
     5
170
     0
171
     0
290
     0
174
     0
 93
        1
 44
50.0
173
     0
291
     1
 45
0.0
1001
ACAD
1000
AcDbSavedByObjectVersion
1070
     0
  0
VISUALSTYLE
  5
FF
102
{ACAD_REACTORS
330
EF
102
}
330
EF
100
AcDbVisualStyle
  2
ColorChange
 70
    16
 71
     2
 72
     2
 73
     3
 90
        0
 40
-0.6
 41
-30.0
 62
     5
 63
     8
 74
     1
 91
        4
 64
     7
 65
   257
 75
     1
175
     1
 42
1.0
 92
        8
 66
     8
 43
1.0
 76
     1
 77
     6
 78
     2
 67
     7
 79
     5
170
     0
171
     0
290
     0
174
     0
 93
        1
 44
0.0
173
     0
291
     1
 45
0.0
1001
ACAD
1000
AcDbSavedByObjectVersion
1070
     0
  0
VISUALSTYLE
  5
F8
102
{ACAD_REACTORS
330
EF
102
}
330
EF
100
AcDbVisualStyle
  2
Conceptual
 70
     9
 71
     3
 72
     2
 73
     1
 90
        0
 40
-0.6
 41
-30.0
 62
     5
 63
     7
 74
     2
 91
        2
 64
     7
 65
   257
 75
     1
175
     1
 42
40.0
 92
        8
 66
     7
 43
1.0
 76
     1
 77
     6
 78
     2
 67
     7
 79
     3
170
     0
171
     0
290
     0
174
     0
 93
        1
 44
0.0
173
     0
291
     0
 45
0.0
1001
ACAD
1000
AcDbSavedByObjectVersion
1070
     0
  0
VISUALSTYLE
  5
FA
102
{ACAD_REACTORS
330
EF
102
}
330
EF
100
AcDbVisualStyle
  2
Dim
 70
    11
 71
     2
 72
     2
 73
     1
 90
        0
 40
-0.6
 41
-30.0
 62
     5
 63
     7
 74
     1
 91
        4
 64
     7
 65
   257
 75
     1
175
     1
 42
1.0
 92
        8
 66
     7
 43
1.0
 76
     1
 77
     6
 78
     2
 67
     7
 79
     5
170
     0
171
     0
290
     0
174
     0
 93
        1
 44
-50.0
173
     0
291
     1
 45
0.0
1001
ACAD
1000
AcDbSavedByObjectVersion
1070
     0
  0
VISUALSTYLE
  5
FE
102
{ACAD_REACTORS
330
EF
102
}
330
EF
100
AcDbVisualStyle
  2
Facepattern
 70
    15
 71
     2
 72
     2
 73
     1
 90
        0
 40
-0.6
 41
-30.0
 62
     5
 63
     7
 74
     1
 91
        4
 64
     7
 65
   257
 75
     1
175
     1
 42
1.0
 92
        8
 66
     7
 43
1.0
 76
     1
 77
     6
 78
     2
 67
     7
 79
     5
170
     0
171
     0
290
     0
174
     0
 93
        1
 44
0.0
173
     0
291
     1
 45
0.0
1001
ACAD
1000
AcDbSavedByObjectVersion
1070
     0
  0
VISUALSTYLE
  5
F0
102
{ACAD_REACTORS
330
EF
102
}
330
EF
100
AcDbVisualStyle
  2
Flat
 70
     0
 71
     2
 72
     1
 73
     1
 90
        2
 40
-0.6
 41
30.0
 62
     5
 63
     7
 74
     0
 91
        4
 64
     7
 65
   257
 75
     1
175
     1
 42
1.0
 92
        8
 66
     7
 43
1.0
 76
     1
 77
     6
 78
     2
 67
     7
 79
     5
170
     0
171
     0
290
     0
174
     0
 93
        1
 44
0.0
173
     0
291
     1
 45
0.0
1001
ACAD
1000
AcDbSavedByObjectVersion
1070
     0
  0
VISUALSTYLE
  5
F1
102
{ACAD_REACTORS
330
EF
102
}
330
EF
100
AcDbVisualStyle
  2
FlatWithEdges
 70
     1
 71
     2
 72
     1
 73
     1
 90
        2
 40
-0.6
 41
30.0
 62
     5
 63
     7
 74
     1
 91
        4
 64
     7
 65
   257
 75
     1
175
     1
 42
1.0
 92
        0
 66
   257
 43
1.0
 76
     1
 77
     6
 78
     2
 67
     7
 79
     5
170
     0
171
     0
290
     0
174
     0
 93
        1
 44
0.0
173
     0
291
     1
 45
0.0
1001
ACAD
1000
AcDbSavedByObjectVersion
1070
     0
  0
VISUALSTYLE
  5
F2
102
{ACAD_REACTORS
330
EF
102
}
330
EF
100
AcDbVisualStyle
  2
Gouraud
 70
     2
 71
     2
 72
     2
 73
     1
 90
        2
 40
-0.6
 41
30.0
 62
     5
 63
     7
 74
     0
 91
        4
 64
     7
 65
   257
 75
     1
175
     1
 42
1.0
 92
        0
 66
     7
 43
1.0
 76
     1
 77
     6
 78
     2
 67
     7
 79
     5
170
     0
171
     0
290
     0
174
     0
 93
        1
 44
0.0
173
     0
291
     1
 45
0.0
1001
ACAD
1000
AcDbSavedByObjectVersion
1070
     0
  0
VISUALSTYLE
  5
F3
102
{ACAD_REACTORS
330
EF
102
}
330
EF
100
AcDbVisualStyle
  2
GouraudWithEdges
 70
     3
 71
     2
 72
     2
 73
     1
 90
        2
 40
-0.6
 41
30.0
 62
     5
 63
     7
 74
     1
 91
        4
 64
     7
 65
   257
 75
     1
175
     1
 42
1.0
 92
        0
 66
   257
 43
1.0
 76
     1
 77
     6
 78
     2
 67
     7
 79
     5
170
     0
171
     0
290
     0
174
     0
 93
        1
 44
0.0
173
     0
291
     1
 45
0.0
1001
ACAD
1000
AcDbSavedByObjectVersion
1070
     0
  0
VISUALSTYLE
  5
FD
102
{ACAD_REACTORS
330
EF
102
}
330
EF
100
AcDbVisualStyle
  2
Linepattern
 70
    14
 71
     2
 72
     2
 73
     1
 90
        0
 40
-0.6
 41
-30.0
 62
     5
 63
     7
 74
     1
 91
        4
 64
     7
 65
   257
 75
     7
175
     7
 42
1.0
 92
        8
 66
     7
 43
1.0
 76
     1
 77
     6
 78
     2
 67
     7
 79
     5
170
     0
171
     0
290
     0
174
     0
 93
        1
 44
0.0
173
     0
291
     1
 45
0.0
1001
ACAD
1000
AcDbSavedByObjectVersion
1070
     0
  0
VISUALSTYLE
  5
F9
102
{ACAD_REACTORS
330
EF
102
}
330
EF
100
AcDbVisualStyle
  2
Realistic
 70
     8
 71
     2
 72
     2
 73
     1
 90
        0
 40
-0.6
 41
-30.0
 62
     5
 63
     7
 74
     1
 91
        0
 64
     7
 65
   257
 75
     1
175
     1
 42
1.0
 92
        8
 66
     8
 43
1.0
 76
     1
 77
     6
 78
     2
 67
     7
 79
     5
170
     0
171
     0
290
     0
174
     0
 93
       13
 44
0.0
173
     0
291
     0
 45
0.0
1001
ACAD
1000
AcDbSavedByObjectVersion
1070
     0
  0
VISUALSTYLE
  5
FC
102
{ACAD_REACTORS
330
EF
102
}
330
EF
100
AcDbVisualStyle
  2
Thicken
 70
    13
 71
     2
 72
     2
 73
     1
 90
        0
 40
-0.6
 41
-30.0
 62
     5
 63
     7
 74
     1
 91
        4
 64
     7
 65
   257
 75
     1
175
     1
 42
1.0
 92
       12
 66
     7
 43
1.0
 76
     1
 77
     6
 78
     2
 67
     7
 79
     5
170
     0
171
     0
290
     0
174
     0
 93
        1
 44
0.0
173
     0
291
     1
 45
0.0
1001
ACAD
1000
AcDbSavedByObjectVersion
1070
     0
  0
DICTIONARYVAR
  5
146
102
{ACAD_REACTORS
330
5E
102
}
330
5E
100
DictionaryVariables
280
     0
  1
1:1
  0
DICTIONARYVAR
  5
145
102
{ACAD_REACTORS
330
5E
102
}
330
5E
100
DictionaryVariables
280
     0
  1
STANDARD
  0
DICTIONARYVAR
  5
84
102
{ACAD_REACTORS
330
5E
102
}
330
5E
100
DictionaryVariables
280
     0
  1
STANDARD
  0
DICTIONARYVAR
  5
5F
102
{ACAD_REACTORS
330
5E
102
}
330
5E
100
DictionaryVariables
280
     0
  1
2
  0
DICTIONARYVAR
  5
63
102
{ACAD_REACTORS
330
5E
102
}
330
5E
100
DictionaryVariables
280
     0
  1
1
  0
DICTIONARYVAR
  5
EC0
102
{ACAD_REACTORS
330
5E
102
}
330
5E
100
DictionaryVariables
280
     0
  1
0
  0
DICTIONARYVAR
  5
EBE
102
{ACAD_REACTORS
330
5E
102
}
330
5E
100
DictionaryVariables
280
     0
  1
2
  0
DICTIONARYVAR
  5
EBD
102
{ACAD_REACTORS
330
5E
102
}
330
5E
100
DictionaryVariables
280
     0
  1
1
  0
DICTIONARYVAR
  5
EC2
102
{ACAD_REACTORS
330
5E
102
}
330
5E
100
DictionaryVariables
280
     0
  1
80.000000
  0
DICTIONARYVAR
  5
EC1
102
{ACAD_REACTORS
330
5E
102
}
330
5E
100
DictionaryVariables
280
     0
  1
5.000000
  0
DICTIONARYVAR
  5
EBF
102
{ACAD_REACTORS
330
5E
102
}
330
5E
100
DictionaryVariables
280
     0
  1
127
  0
DICTIONARY
  5
EC8
330
D3
100
AcDbDictionary
280
     1
281
     1
  3
ACAD_XREC_ROUNDTRIP
360
EC9
  0
DICTIONARY
  5
ECA
330
D7
100
AcDbDictionary
280
     1
281
     1
  3
ACAD_XREC_ROUNDTRIP
360
ECB
  0
DICTIONARY
  5
EC5
330
22
100
AcDbDictionary
280
     1
281
     1
  3
ACAD_XREC_ROUNDTRIP
360
EC6
  0
DICTIONARY
  5
ECE
330
ED
100
AcDbDictionary
280
     1
281
     1
  3
ACAD_XREC_ROUNDTRIP
360
ECF
  0
DICTIONARY
  5
ECC
330
EC
100
AcDbDictionary
280
     1
281
     1
  3
ACAD_XREC_ROUNDTRIP
360
ECD
  0
DICTIONARY
  5
173
330
EE
100
AcDbDictionary
280
     1
281
     1
  3
ACAD_XREC_ROUNDTRIP
360
ED0
  3
BUMPTILE
360
175
  3
DIFFUSETILE
360
174
  3
OPACITYTILE
360
176
  3
REFLECTIONTILE
360
177
  0
DICTIONARY
  5
162
330
7F
100
AcDbDictionary
280
     1
281
     1
  3
ACAD_ROUNDTRIP_2008_TABLESTYLE_CELLSTYLEMAP
360
EC3
  3
ACAD_XREC_ROUNDTRIP
360
EC7
  0
XRECORD
  5
EC9
102
{ACAD_REACTORS
330
EC8
102
}
330
EC8
100
AcDbXrecord
280
     1
102
SHADEPLOT
 70
     0
102
SHADEPLOTRESLEVEL
 70
     2
102
SHADEPLOTCUSTOMDPI
 70
   300
  0
XRECORD
  5
ECB
102
{ACAD_REACTORS
330
ECA
102
}
330
ECA
100
AcDbXrecord
280
     1
102
SHADEPLOT
 70
     0
102
SHADEPLOTRESLEVEL
 70
     2
102
SHADEPLOTCUSTOMDPI
 70
   300
  0
XRECORD
  5
EC6
102
{ACAD_REACTORS
330
EC5
102
}
330
EC5
100
AcDbXrecord
280
     1
102
SHADEPLOT
 70
     0
102
SHADEPLOTRESLEVEL
 70
     2
102
SHADEPLOTCUSTOMDPI
 70
   300
  0
XRECORD
  5
ECF
102
{ACAD_REACTORS
330
ECE
102
}
330
ECE
100
AcDbXrecord
280
     1
102
MATERIAL
148
0.0
149
0.0
149
0.0
 93
        0
 94
       63
282
     0
 72
     1
 77
     1
171
     1
175
     1
179
     1
273
     0
  0
XRECORD
  5
ECD
102
{ACAD_REACTORS
330
ECC
102
}
330
ECC
100
AcDbXrecord
280
     1
102
MATERIAL
148
0.0
149
0.0
149
0.0
 93
        0
 94
       63
282
     0
 72
     1
 77
     1
171
     1
175
     1
179
     1
273
     0
  0
XRECORD
  5
ED0
102
{ACAD_REACTORS
330
173
102
}
330
173
100
AcDbXrecord
280
     1
102
MATERIAL
148
0.0
149
0.0
149
0.0
 93
        0
 94
       63
282
     0
 72
     1
 77
     1
171
     1
175
     1
179
     1
273
     0
  0
XRECORD
  5
175
102
{ACAD_REACTORS
330
173
102
}
330
173
100
AcDbXrecord
280
     1
270
     1
271
     1
  0
XRECORD
  5
174
102
{ACAD_REACTORS
330
173
102
}
330
173
100
AcDbXrecord
280
     1
270
     1
271
     1
  0
XRECORD
  5
176
102
{ACAD_REACTORS
330
173
102
}
330
173
100
AcDbXrecord
280
     1
270
     1
271
     1
  0
XRECORD
  5
177
102
{ACAD_REACTORS
330
173
102
}
330
173
100
AcDbXrecord
280
     1
270
     1
271
     1
  0
CELLSTYLEMAP
  5
EC3
102
{ACAD_REACTORS
330
162
102
}
330
162
100
AcDbCellStyleMap
 90
        3
300
CELLSTYLE
  1
TABLEFORMAT_BEGIN
 90
        5
170
     1
 91
        0
 92
    32768
 62
   257
 93
        1
300
CONTENTFORMAT
  1
CONTENTFORMAT_BEGIN
 90
        0
 91
        0
 92
      512
 93
        0
300

 40
0.0
140
1.0
 94
        5
 62
     0
340
11
144
6.0
309
CONTENTFORMAT_END
171
     1
301
MARGIN
  1
CELLMARGIN_BEGIN
 40
1.5
 40
1.5
 40
1.5
 40
1.5
 40
4.5
 40
4.5
309
CELLMARGIN_END
 94
        6
 95
        1
302
GRIDFORMAT
  1
GRIDFORMAT_BEGIN
 90
        0
 91
        1
 62
     0
 92
       -2
340
14
 93
        0
 40
1.125
309
GRIDFORMAT_END
 95
        2
302
GRIDFORMAT
  1
GRIDFORMAT_BEGIN
 90
        0
 91
        1
 62
     0
 92
       -2
340
14
 93
        0
 40
1.125
309
GRIDFORMAT_END
 95
        4
302
GRIDFORMAT
  1
GRIDFORMAT_BEGIN
 90
        0
 91
        1
 62
     0
 92
       -2
340
14
 93
        0
 40
1.125
309
GRIDFORMAT_END
 95
        8
302
GRIDFORMAT
  1
GRIDFORMAT_BEGIN
 90
        0
 91
        1
 62
     0
 92
       -2
340
14
 93
        0
 40
1.125
309
GRIDFORMAT_END
 95
       16
302
GRIDFORMAT
  1
GRIDFORMAT_BEGIN
 90
        0
 91
        1
 62
     0
 92
       -2
340
14
 93
        0
 40
1.125
309
GRIDFORMAT_END
 95
       32
302
GRIDFORMAT
  1
GRIDFORMAT_BEGIN
 90
        0
 91
        1
 62
     0
 92
       -2
340
14
 93
        0
 40
1.125
309
GRIDFORMAT_END
309
TABLEFORMAT_END
  1
CELLSTYLE_BEGIN
 90
        1
 91
        1
300
_TITLE
309
CELLSTYLE_END
300
CELLSTYLE
  1
TABLEFORMAT_BEGIN
 90
        5
170
     1
 91
        0
 92
        0
 62
   257
 93
        1
300
CONTENTFORMAT
  1
CONTENTFORMAT_BEGIN
 90
        0
 91
        0
 92
      512
 93
        0
300

 40
0.0
140
1.0
 94
        5
 62
     0
340
11
144
4.5
309
CONTENTFORMAT_END
171
     1
301
MARGIN
  1
CELLMARGIN_BEGIN
 40
1.5
 40
1.5
 40
1.5
 40
1.5
 40
4.5
 40
4.5
309
CELLMARGIN_END
 94
        6
 95
        1
302
GRIDFORMAT
  1
GRIDFORMAT_BEGIN
 90
        0
 91
        1
 62
     0
 92
       -2
340
14
 93
        0
 40
1.125
309
GRIDFORMAT_END
 95
        2
302
GRIDFORMAT
  1
GRIDFORMAT_BEGIN
 90
        0
 91
        1
 62
     0
 92
       -2
340
14
 93
        0
 40
1.125
309
GRIDFORMAT_END
 95
        4
302
GRIDFORMAT
  1
GRIDFORMAT_BEGIN
 90
        0
 91
        1
 62
     0
 92
       -2
340
14
 93
        0
 40
1.125
309
GRIDFORMAT_END
 95
        8
302
GRIDFORMAT
  1
GRIDFORMAT_BEGIN
 90
        0
 91
        1
 62
     0
 92
       -2
340
14
 93
        0
 40
1.125
309
GRIDFORMAT_END
 95
       16
302
GRIDFORMAT
  1
GRIDFORMAT_BEGIN
 90
        0
 91
        1
 62
     0
 92
       -2
340
14
 93
        0
 40
1.125
309
GRIDFORMAT_END
 95
       32
302
GRIDFORMAT
  1
GRIDFORMAT_BEGIN
 90
        0
 91
        1
 62
     0
 92
       -2
340
14
 93
        0
 40
1.125
309
GRIDFORMAT_END
309
TABLEFORMAT_END
  1
CELLSTYLE_BEGIN
 90
        2
 91
        1
300
_HEADER
309
CELLSTYLE_END
300
CELLSTYLE
  1
TABLEFORMAT_BEGIN
 90
        5
170
     1
 91
        0
 92
        0
 62
   257
 93
        1
300
CONTENTFORMAT
  1
CONTENTFORMAT_BEGIN
 90
        0
 91
        0
 92
      512
 93
        0
300

 40
0.0
140
1.0
 94
        2
 62
     0
340
11
144
4.5
309
CONTENTFORMAT_END
171
     1
301
MARGIN
  1
CELLMARGIN_BEGIN
 40
1.5
 40
1.5
 40
1.5
 40
1.5
 40
4.5
 40
4.5
309
CELLMARGIN_END
 94
        6
 95
        1
302
GRIDFORMAT
  1
GRIDFORMAT_BEGIN
 90
        0
 91
        1
 62
     0
 92
       -2
340
14
 93
        0
 40
1.125
309
GRIDFORMAT_END
 95
        2
302
GRIDFORMAT
  1
GRIDFORMAT_BEGIN
 90
        0
 91
        1
 62
     0
 92
       -2
340
14
 93
        0
 40
1.125
309
GRIDFORMAT_END
 95
        4
302
GRIDFORMAT
  1
GRIDFORMAT_BEGIN
 90
        0
 91
        1
 62
     0
 92
       -2
340
14
 93
        0
 40
1.125
309
GRIDFORMAT_END
 95
        8
302
GRIDFORMAT
  1
GRIDFORMAT_BEGIN
 90
        0
 91
        1
 62
     0
 92
       -2
340
14
 93
        0
 40
1.125
309
GRIDFORMAT_END
 95
       16
302
GRIDFORMAT
  1
GRIDFORMAT_BEGIN
 90
        0
 91
        1
 62
     0
 92
       -2
340
14
 93
        0
 40
1.125
309
GRIDFORMAT_END
 95
       32
302
GRIDFORMAT
  1
GRIDFORMAT_BEGIN
 90
        0
 91
        1
 62
     0
 92
       -2
340
14
 93
        0
 40
1.125
309
GRIDFORMAT_END
309
TABLEFORMAT_END
  1
CELLSTYLE_BEGIN
 90
        3
 91
        2
300
_DATA
309
CELLSTYLE_END
  0
XRECORD
  5
EC7
102
{ACAD_REACTORS
330
162
102
}
330
162
100
AcDbXrecord
280
     1
102
ACAD_ROUNDTRIP_PRE2007_TABLESTYLE
 90
      512
 91
        0
  1

 92
      512
 93
        0
  2

 94
      512
 95
        0
  3

  0
ENDSEC
  0
EOF
