  0
SECTION
  2
HEADER
  9
$ACADVER
  1
AC1015
  9
$ACADMAINTVER
 70
    20
  9
$DWGCODEPAGE
  3
ANSI_1254
  9
$INSBASE
 10
0.0
 20
0.0
 30
0.0
  9
$EXTMIN
 10
2173.817421311513
 20
876.3902806063532
 30
0.0
  9
$EXTMAX
 10
2280.773435258683
 20
926.5963275994575
 30
0.0
  9
$LIMMIN
 10
0.0
 20
0.0
  9
$LIMMAX
 10
420.0
 20
297.0
  9
$ORTHOMODE
 70
     0
  9
$REGENMODE
 70
     1
  9
$FILLMODE
 70
     1
  9
$QTEXTMODE
 70
     0
  9
$MIRRTEXT
 70
     0
  9
$LTSCALE
 40
1.0
  9
$ATTMODE
 70
     1
  9
$TEXTSIZE
 40
2.5
  9
$TRACEWID
 40
1.0
  9
$TEXTSTYLE
  7
Standard
  9
$CLAYER
  8
0
  9
$CELTYPE
  6
ByLayer
  9
$CECOLOR
 62
   256
  9
$CELTSCALE
 40
1.0
  9
$DISPSILH
 70
     0
  9
$DIMSCALE
 40
1.0
  9
$DIMASZ
 40
2.5
  9
$DIMEXO
 40
0.625
  9
$DIMDLI
 40
3.75
  9
$DIMRND
 40
0.0
  9
$DIMDLE
 40
0.0
  9
$DIMEXE
 40
1.25
  9
$DIMTP
 40
0.0
  9
$DIMTM
 40
0.0
  9
$DIMTXT
 40
2.5
  9
$DIMCEN
 40
2.5
  9
$DIMTSZ
 40
0.0
  9
$DIMTOL
 70
     0
  9
$DIMLIM
 70
     0
  9
$DIMTIH
 70
     0
  9
$DIMTOH
 70
     0
  9
$DIMSE1
 70
     0
  9
$DIMSE2
 70
     0
  9
$DIMTAD
 70
     1
  9
$DIMZIN
 70
     8
  9
$DIMBLK
  1

  9
$DIMASO
 70
     1
  9
$DIMSHO
 70
     1
  9
$DIMPOST
  1

  9
$DIMAPOST
  1

  9
$DIMALT
 70
     0
  9
$DIMALTD
 70
     3
  9
$DIMALTF
 40
0.03937007874016
  9
$DIMLFAC
 40
1.0
  9
$DIMTOFL
 70
     1
  9
$DIMTVP
 40
0.0
  9
$DIMTIX
 70
     0
  9
$DIMSOXD
 70
     0
  9
$DIMSAH
 70
     0
  9
$DIMBLK1
  1

  9
$DIMBLK2
  1

  9
$DIMSTYLE
  2
ISO-25
  9
$DIMCLRD
 70
     0
  9
$DIMCLRE
 70
     0
  9
$DIMCLRT
 70
     0
  9
$DIMTFAC
 40
1.0
  9
$DIMGAP
 40
0.625
  9
$DIMJUST
 70
     0
  9
$DIMSD1
 70
     0
  9
$DIMSD2
 70
     0
  9
$DIMTOLJ
 70
     0
  9
$DIMTZIN
 70
     8
  9
$DIMALTZ
 70
     0
  9
$DIMALTTZ
 70
     0
  9
$DIMUPT
 70
     0
  9
$DIMDEC
 70
     2
  9
$DIMTDEC
 70
     2
  9
$DIMALTU
 70
     2
  9
$DIMALTTD
 70
     3
  9
$DIMTXSTY
  7
Standard
  9
$DIMAUNIT
 70
     0
  9
$DIMADEC
 70
     0
  9
$DIMALTRND
 40
0.0
  9
$DIMAZIN
 70
     0
  9
$DIMDSEP
 70
    44
  9
$DIMATFIT
 70
     3
  9
$DIMFRAC
 70
     0
  9
$DIMLDRBLK
  1

  9
$DIMLUNIT
 70
     2
  9
$DIMLWD
 70
    -2
  9
$DIMLWE
 70
    -2
  9
$DIMTMOVE
 70
     0
  9
$LUNITS
 70
     2
  9
$LUPREC
 70
     4
  9
$SKETCHINC
 40
1.0
  9
$FILLETRAD
 40
0.0
  9
$AUNITS
 70
     0
  9
$AUPREC
 70
     0
  9
$MENU
  1
.
  9
$ELEVATION
 40
0.0
  9
$PELEVATION
 40
0.0
  9
$THICKNESS
 40
0.0
  9
$LIMCHECK
 70
     0
  9
$CHAMFERA
 40
0.0
  9
$CHAMFERB
 40
0.0
  9
$CHAMFERC
 40
0.0
  9
$CHAMFERD
 40
0.0
  9
$SKPOLY
 70
     0
  9
$TDCREATE
 40
2458933.720215660
  9
$TDUCREATE
 40
2458933.595215660
  9
$TDUPDATE
 40
2458956.451167026
  9
$TDUUPDATE
 40
2458956.326167026
  9
$TDINDWG
 40
0.0003239352
  9
$TDUSRTIMER
 40
0.0003239352
  9
$USRTIMER
 70
     1
  9
$ANGBASE
 50
0.0
  9
$ANGDIR
 70
     0
  9
$PDMODE
 70
     0
  9
$PDSIZE
 40
0.0
  9
$PLINEWID
 40
0.0
  9
$SPLFRAME
 70
     0
  9
$SPLINETYPE
 70
     6
  9
$SPLINESEGS
 70
     8
  9
$HANDSEED
  5
78A
  9
$SURFTAB1
 70
     6
  9
$SURFTAB2
 70
     6
  9
$SURFTYPE
 70
     6
  9
$SURFU
 70
     6
  9
$SURFV
 70
     6
  9
$UCSBASE
  2

  9
$UCSNAME
  2

  9
$UCSORG
 10
0.0
 20
0.0
 30
0.0
  9
$UCSXDIR
 10
1.0
 20
0.0
 30
0.0
  9
$UCSYDIR
 10
0.0
 20
1.0
 30
0.0
  9
$UCSORTHOREF
  2

  9
$UCSORTHOVIEW
 70
     0
  9
$UCSORGTOP
 10
0.0
 20
0.0
 30
0.0
  9
$UCSORGBOTTOM
 10
0.0
 20
0.0
 30
0.0
  9
$UCSORGLEFT
 10
0.0
 20
0.0
 30
0.0
  9
$UCSORGRIGHT
 10
0.0
 20
0.0
 30
0.0
  9
$UCSORGFRONT
 10
0.0
 20
0.0
 30
0.0
  9
$UCSORGBACK
 10
0.0
 20
0.0
 30
0.0
  9
$PUCSBASE
  2

  9
$PUCSNAME
  2

  9
$PUCSORG
 10
0.0
 20
0.0
 30
0.0
  9
$PUCSXDIR
 10
1.0
 20
0.0
 30
0.0
  9
$PUCSYDIR
 10
0.0
 20
1.0
 30
0.0
  9
$PUCSORTHOREF
  2

  9
$PUCSORTHOVIEW
 70
     0
  9
$PUCSORGTOP
 10
0.0
 20
0.0
 30
0.0
  9
$PUCSORGBOTTOM
 10
0.0
 20
0.0
 30
0.0
  9
$PUCSORGLEFT
 10
0.0
 20
0.0
 30
0.0
  9
$PUCSORGRIGHT
 10
0.0
 20
0.0
 30
0.0
  9
$PUCSORGFRONT
 10
0.0
 20
0.0
 30
0.0
  9
$PUCSORGBACK
 10
0.0
 20
0.0
 30
0.0
  9
$USERI1
 70
     0
  9
$USERI2
 70
     0
  9
$USERI3
 70
     0
  9
$USERI4
 70
     0
  9
$USERI5
 70
     0
  9
$USERR1
 40
0.0
  9
$USERR2
 40
0.0
  9
$USERR3
 40
0.0
  9
$USERR4
 40
0.0
  9
$USERR5
 40
0.0
  9
$WORLDVIEW
 70
     1
  9
$SHADEDGE
 70
     3
  9
$SHADEDIF
 70
    70
  9
$TILEMODE
 70
     1
  9
$MAXACTVP
 70
    64
  9
$PINSBASE
 10
0.0
 20
0.0
 30
0.0
  9
$PLIMCHECK
 70
     0
  9
$PEXTMIN
 10
0.0
 20
0.0
 30
0.0
  9
$PEXTMAX
 10
0.0
 20
0.0
 30
0.0
  9
$PLIMMIN
 10
0.0
 20
0.0
  9
$PLIMMAX
 10
12.0
 20
9.0
  9
$UNITMODE
 70
     0
  9
$VISRETAIN
 70
     1
  9
$PLINEGEN
 70
     0
  9
$PSLTSCALE
 70
     1
  9
$TREEDEPTH
 70
  3020
  9
$CMLSTYLE
  2
Standard
  9
$CMLJUST
 70
     0
  9
$CMLSCALE
 40
20.0
  9
$PROXYGRAPHICS
 70
     1
  9
$MEASUREMENT
 70
     1
  9
$CELWEIGHT
370
    -1
  9
$ENDCAPS
280
     0
  9
$JOINSTYLE
280
     0
  9
$LWDISPLAY
290
     0
  9
$INSUNITS
 70
     4
  9
$HYPERLINKBASE
  1

  9
$STYLESHEET
  1

  9
$XEDIT
290
     1
  9
$CEPSNTYPE
380
     0
  9
$PSTYLEMODE
290
     1
  9
$FINGERPRINTGUID
  2
{F1C685BD-4736-418F-8152-E7E885EA96FE}
  9
$VERSIONGUID
  2
{95DD4FA0-69D3-4405-B5B5-3336E8A1C2BF}
  9
$EXTNAMES
290
     1
  9
$PSVPSCALE
 40
0.0
  9
$OLESTARTUP
290
     0
  0
ENDSEC
  0
SECTION
  2
CLASSES
  0
CLASS
  1
ACDBDICTIONARYWDFLT
  2
AcDbDictionaryWithDefault
  3
ObjectDBX Classes
 90
        0
280
     0
281
     0
  0
CLASS
  1
ACDBPLACEHOLDER
  2
AcDbPlaceHolder
  3
ObjectDBX Classes
 90
        0
280
     0
281
     0
  0
CLASS
  1
LAYOUT
  2
AcDbLayout
  3
ObjectDBX Classes
 90
        0
280
     0
281
     0
  0
CLASS
  1
DICTIONARYVAR
  2
AcDbDictionaryVar
  3
ObjectDBX Classes
 90
        0
280
     0
281
     0
  0
CLASS
  1
TABLESTYLE
  2
AcDbTableStyle
  3
ObjectDBX Classes
 90
     4095
280
     0
281
     0
  0
CLASS
  1
MATERIAL
  2
AcDbMaterial
  3
ObjectDBX Classes
 90
     1153
280
     0
281
     0
  0
CLASS
  1
VISUALSTYLE
  2
AcDbVisualStyle
  3
ObjectDBX Classes
 90
     4095
280
     0
281
     0
  0
CLASS
  1
SCALE
  2
AcDbScale
  3
ObjectDBX Classes
 90
     1153
280
     0
281
     0
  0
CLASS
  1
MLEADERSTYLE
  2
AcDbMLeaderStyle
  3
ACDB_MLEADERSTYLE_CLASS
 90
     4095
280
     0
281
     0
  0
CLASS
  1
CELLSTYLEMAP
  2
AcDbCellStyleMap
  3
ObjectDBX Classes
 90
     1152
280
     0
281
     0
  0
ENDSEC
  0
SECTION
  2
TABLES
  0
TABLE
  2
VPORT
  5
8
330
0
100
AcDbSymbolTable
 70
     1
  0
VPORT
  5
EA
330
8
100
AcDbSymbolTableRecord
100
AcDbViewportTableRecord
  2
*Active
 70
     0
 10
0.0
 20
0.0
 11
1.0
 21
1.0
 12
2224.2661495404
 22
907.6372556559345
 13
0.0
 23
0.0
 14
10.0
 24
10.0
 15
10.0
 25
10.0
 16
0.0
 26
0.0
 36
1.0
 17
0.0
 27
0.0
 37
0.0
 40
144.3440074866755
 41
1.903110047846889
 42
50.0
 43
0.0
 44
0.0
 50
0.0
 51
0.0
 71
     0
 72
  1000
 73
     1
 74
     3
 75
     0
 76
     0
 77
     0
 78
     0
281
     0
 65
     1
110
0.0
120
0.0
130
0.0
111
1.0
121
0.0
131
0.0
112
0.0
122
1.0
132
0.0
 79
     0
146
0.0
  0
ENDTAB
  0
TABLE
  2
LTYPE
  5
5
330
0
100
AcDbSymbolTable
 70
     1
  0
LTYPE
  5
14
330
5
100
AcDbSymbolTableRecord
100
AcDbLinetypeTableRecord
  2
ByBlock
 70
     0
  3

 72
    65
 73
     0
 40
0.0
  0
LTYPE
  5
15
330
5
100
AcDbSymbolTableRecord
100
AcDbLinetypeTableRecord
  2
ByLayer
 70
     0
  3

 72
    65
 73
     0
 40
0.0
  0
LTYPE
  5
16
330
5
100
AcDbSymbolTableRecord
100
AcDbLinetypeTableRecord
  2
Continuous
 70
     0
  3
Solid line
 72
    65
 73
     0
 40
0.0
  0
ENDTAB
  0
TABLE
  2
LAYER
  5
2
330
0
100
AcDbSymbolTable
 70
     1
  0
LAYER
  5
10
102
{ACAD_XDICTIONARY
360
13C
102
}
330
2
100
AcDbSymbolTableRecord
100
AcDbLayerTableRecord
  2
0
 70
     0
 62
     7
  6
Continuous
370
    -3
390
F
  0
ENDTAB
  0
TABLE
  2
STYLE
  5
3
330
0
100
AcDbSymbolTable
 70
     2
  0
STYLE
  5
11
330
3
100
AcDbSymbolTableRecord
100
AcDbTextStyleTableRecord
  2
Standard
 70
     0
 40
0.0
 41
1.0
 50
0.0
 71
     0
 42
2.5
  3
txt
  4

  0
STYLE
  5
132
330
3
100
AcDbSymbolTableRecord
100
AcDbTextStyleTableRecord
  2
Annotative
 70
     0
 40
0.0
 41
1.0
 50
0.0
 71
     0
 42
2.5
  3
txt.shx
  4

1001
AcadAnnotative
1000
AnnotativeData
1002
{
1070
     1
1070
     1
1002
}
  0
ENDTAB
  0
TABLE
  2
VIEW
  5
6
330
0
100
AcDbSymbolTable
 70
     0
  0
ENDTAB
  0
TABLE
  2
UCS
  5
7
330
0
100
AcDbSymbolTable
 70
     0
  0
ENDTAB
  0
TABLE
  2
APPID
  5
9
330
0
100
AcDbSymbolTable
 70
     7
  0
APPID
  5
12
330
9
100
AcDbSymbolTableRecord
100
AcDbRegAppTableRecord
  2
ACAD
 70
     0
  0
APPID
  5
9E
330
9
100
AcDbSymbolTableRecord
100
AcDbRegAppTableRecord
  2
ACAD_PSEXT
 70
     0
  0
APPID
  5
133
330
9
100
AcDbSymbolTableRecord
100
AcDbRegAppTableRecord
  2
AcadAnnoPO
 70
     0
  0
APPID
  5
134
330
9
100
AcDbSymbolTableRecord
100
AcDbRegAppTableRecord
  2
AcadAnnotative
 70
     0
  0
APPID
  5
135
330
9
100
AcDbSymbolTableRecord
100
AcDbRegAppTableRecord
  2
ACAD_DSTYLE_DIMJAG
 70
     0
  0
APPID
  5
136
330
9
100
AcDbSymbolTableRecord
100
AcDbRegAppTableRecord
  2
ACAD_DSTYLE_DIMTALN
 70
     0
  0
APPID
  5
165
330
9
100
AcDbSymbolTableRecord
100
AcDbRegAppTableRecord
  2
ACAD_MLEADERVER
 70
     0
  0
ENDTAB
  0
TABLE
  2
DIMSTYLE
  5
A
330
0
100
AcDbSymbolTable
 70
     2
100
AcDbDimStyleTable
 71
     2
340
27
340
137
  0
DIMSTYLE
105
27
330
A
100
AcDbSymbolTableRecord
100
AcDbDimStyleTableRecord
  2
ISO-25
 70
     0
 41
2.5
 42
0.625
 43
3.75
 44
1.25
 73
     0
 74
     0
 77
     1
 78
     8
140
2.5
141
2.5
143
0.03937007874016
147
0.625
171
     3
172
     1
271
     2
272
     2
274
     3
278
    44
283
     0
284
     8
340
11
  0
DIMSTYLE
105
137
330
A
100
AcDbSymbolTableRecord
100
AcDbDimStyleTableRecord
  2
Annotative
 70
     0
 40
0.0
 41
2.5
 42
0.625
 43
3.75
 44
1.25
 73
     0
 74
     0
 77
     1
 78
     8
140
2.5
141
2.5
143
0.03937007874016
147
0.625
171
     3
172
     1
271
     2
272
     2
274
     3
278
    44
283
     0
284
     8
340
11
1001
AcadAnnotative
1000
AnnotativeData
1002
{
1070
     1
1070
     1
1002
}
1001
ACAD_DSTYLE_DIMJAG
1070
   388
1040
1.5
1001
ACAD_DSTYLE_DIMTALN
1070
   392
1070
     0
  0
ENDTAB
  0
TABLE
  2
BLOCK_RECORD
  5
1
330
0
100
AcDbSymbolTable
 70
     5
  0
BLOCK_RECORD
  5
1F
330
1
100
AcDbSymbolTableRecord
100
AcDbBlockTableRecord
  2
*Model_Space
340
22
  0
BLOCK_RECORD
  5
D2
330
1
100
AcDbSymbolTableRecord
100
AcDbBlockTableRecord
  2
*Paper_Space
340
D3
  0
BLOCK_RECORD
  5
D6
330
1
100
AcDbSymbolTableRecord
100
AcDbBlockTableRecord
  2
*Paper_Space0
340
D7
  0
BLOCK_RECORD
  5
57B
330
1
100
AcDbSymbolTableRecord
100
AcDbBlockTableRecord
  2
1
340
0
310
2800000020000000200000000100080000000000000400000000000000000000000000000000000000000000000080000080000000808000800000008000800080800000C0C0C000C0DCC000F0CAA6000020400000206000002080000020A0000020C0000020E00000400000004020000040400000406000004080000040A0
310
000040C0000040E00000600000006020000060400000606000006080000060A0000060C0000060E00000800000008020000080400000806000008080000080A0000080C0000080E00000A0000000A0200000A0400000A0600000A0800000A0A00000A0C00000A0E00000C0000000C0200000C0400000C0600000C0800000C0
310
A00000C0C00000C0E00000E0000000E0200000E0400000E0600000E0800000E0A00000E0C00000E0E00040000000400020004000400040006000400080004000A0004000C0004000E00040200000402020004020400040206000402080004020A0004020C0004020E000404000004040200040404000404060004040800040
310
40A0004040C0004040E00040600000406020004060400040606000406080004060A0004060C0004060E00040800000408020004080400040806000408080004080A0004080C0004080E00040A0000040A0200040A0400040A0600040A0800040A0A00040A0C00040A0E00040C0000040C0200040C0400040C0600040C08000
310
40C0A00040C0C00040C0E00040E0000040E0200040E0400040E0600040E0800040E0A00040E0C00040E0E00080000000800020008000400080006000800080008000A0008000C0008000E00080200000802020008020400080206000802080008020A0008020C0008020E00080400000804020008040400080406000804080
310
008040A0008040C0008040E00080600000806020008060400080606000806080008060A0008060C0008060E00080800000808020008080400080806000808080008080A0008080C0008080E00080A0000080A0200080A0400080A0600080A0800080A0A00080A0C00080A0E00080C0000080C0200080C0400080C0600080C0
310
800080C0A00080C0C00080C0E00080E0000080E0200080E0400080E0600080E0800080E0A00080E0C00080E0E000C0000000C0002000C0004000C0006000C0008000C000A000C000C000C000E000C0200000C0202000C0204000C0206000C0208000C020A000C020C000C020E000C0400000C0402000C0404000C0406000C0
310
408000C040A000C040C000C040E000C0600000C0602000C0604000C0606000C0608000C060A000C060C000C060E000C0800000C0802000C0804000C0806000C0808000C080A000C080C000C080E000C0A00000C0A02000C0A04000C0A06000C0A08000C0A0A000C0A0C000C0A0E000C0C00000C0C02000C0C04000C0C06000
310
C0C08000C0C0A000F0FBFF00A4A0A000808080000000FF0000FF000000FFFF00FF000000FF00FF00FFFF0000FFFFFF0000000000000000000000000000000000000000000000000000000000000000000000000000000000000000000000000000000000000000000000000000000000000000000000000000000000000000
310
0000000000000000000000000000000000000000000000000000000000000000000000000000000000000000000000000000000000FFFFFF0000000000FFFF0000000000FFFF00000000FFFFFF0000000000000000FF00FF00000000FF00FF00000000FF00FF00000000FF00FF0000000000000000FF00FF00000000FF00FF
310
00000000FF00FF00000000FF00FF0000000000000000FF00FF00000000FF00FF00000000FF00FF00000000FF00FF0000000000000000FF00FF00000000FF00FF00000000FF00FF00000000FF00FF0000000000000000FF00FF00000000FF00FF00000000FF00FF00000000FF00FF0000000000000000FFFFFF00000000FFFF
310
FF00000000FFFFFF00000000FFFFFF0000000000000000FFFFFF00000000FFFFFF00000000FFFFFF00000000FFFFFF0000000000000000FF00FF00000000FF00FF00000000FF00FF00000000FF00FF0000000000000000FF00FF00000000FF00FF00000000FF00FF00000000FF00FF0000000000000000FF00FF00000000FF
310
00FF00000000FF00FF00000000FF00FF0000000000000000FF00FF00000000FF00FF00000000FF00FF00000000FF00FF00000000000000FFFFFFFFFF0000FFFFFFFFFF0000FFFFFFFFFF0000FFFFFFFFFF000000000000FF000000FF0000FF000000FF0000FF000000FF0000FF000000FF0000000000FFFFFFFFFFFF00FFFF
310
FFFFFFFF0000FFFFFFFFFFFF00FFFFFFFFFFFF00000000FF00FFFFFFFF00FF00FFFFFFFF0000FFFFFFFF00FF00FFFFFFFF00FF00000000FF00000000FF00FF00000000FF0000FF00000000FF00FF00000000FF000000FFFF00000000FFFFFF00000000FFFFFFFF00000000FFFFFF00000000FFFF0000FF0000000000000000
310
0000000000000000000000000000000000000000FF0000FF00000000000000000000000000000000000000000000000000000000FF0000FF00000000000000000000000000000000000000000000000000000000FF0000FF00000000000000000000000000000000000000000000000000000000FF0000FFFFFFFFFFFFFFFF
310
FFFFFFFFFFFFFFFFFFFFFFFFFFFFFFFFFFFFFFFFFFFF0000FFFFFFFFFFFFFFFFFFFFFFFFFFFFFFFFFFFFFFFFFFFFFFFFFFFFFFFFFFFF00000000000000000000000000000000000000000000000000000000000000000000000000000000000000000000000000000000000000000000000000000000000000000000000000
310
0000000000000000000000000000000000000000000000000000000000000000000000000000000000000000000000000000000000000000
102
{BLKREFS
331
60D
102
}
1001
ACAD
1000
DesignCenter Data
1002
{
1070
     1
1070
     4
1002
}
  0
BLOCK_RECORD
  5
60E
330
1
100
AcDbSymbolTableRecord
100
AcDbBlockTableRecord
  2
2
340
0
310
2800000020000000200000000100080000000000000400000000000000000000000000000000000000000000000080000080000000808000800000008000800080800000C0C0C000C0DCC000F0CAA6000020400000206000002080000020A0000020C0000020E00000400000004020000040400000406000004080000040A0
310
000040C0000040E00000600000006020000060400000606000006080000060A0000060C0000060E00000800000008020000080400000806000008080000080A0000080C0000080E00000A0000000A0200000A0400000A0600000A0800000A0A00000A0C00000A0E00000C0000000C0200000C0400000C0600000C0800000C0
310
A00000C0C00000C0E00000E0000000E0200000E0400000E0600000E0800000E0A00000E0C00000E0E00040000000400020004000400040006000400080004000A0004000C0004000E00040200000402020004020400040206000402080004020A0004020C0004020E000404000004040200040404000404060004040800040
310
40A0004040C0004040E00040600000406020004060400040606000406080004060A0004060C0004060E00040800000408020004080400040806000408080004080A0004080C0004080E00040A0000040A0200040A0400040A0600040A0800040A0A00040A0C00040A0E00040C0000040C0200040C0400040C0600040C08000
310
40C0A00040C0C00040C0E00040E0000040E0200040E0400040E0600040E0800040E0A00040E0C00040E0E00080000000800020008000400080006000800080008000A0008000C0008000E00080200000802020008020400080206000802080008020A0008020C0008020E00080400000804020008040400080406000804080
310
008040A0008040C0008040E00080600000806020008060400080606000806080008060A0008060C0008060E00080800000808020008080400080806000808080008080A0008080C0008080E00080A0000080A0200080A0400080A0600080A0800080A0A00080A0C00080A0E00080C0000080C0200080C0400080C0600080C0
310
800080C0A00080C0C00080C0E00080E0000080E0200080E0400080E0600080E0800080E0A00080E0C00080E0E000C0000000C0002000C0004000C0006000C0008000C000A000C000C000C000E000C0200000C0202000C0204000C0206000C0208000C020A000C020C000C020E000C0400000C0402000C0404000C0406000C0
310
408000C040A000C040C000C040E000C0600000C0602000C0604000C0606000C0608000C060A000C060C000C060E000C0800000C0802000C0804000C0806000C0808000C080A000C080C000C080E000C0A00000C0A02000C0A04000C0A06000C0A08000C0A0A000C0A0C000C0A0E000C0C00000C0C02000C0C04000C0C06000
310
C0C08000C0C0A000F0FBFF00A4A0A000808080000000FF0000FF000000FFFF00FF000000FF00FF00FFFF0000FFFFFF0000000000000000000000000000000000000000000000000000000000000000000000000000000000000000000000FFFFFFFF00000000000000000000000000000000000000000000000000000000FF
310
FFFFFF00000000000000000000000000000000000000000000000000000000FF0000FF00000000000000000000000000000000000000000000000000000000FFFFFFFF00000000000000000000000000000000000000000000000000000000FF0000FF00000000000000000000000000000000000000000000000000000000
310
FF0000FF00000000000000000000000000000000000000000000000000000000FF0000FF00000000000000000000000000000000000000000000000000000000FF0000FF00000000000000000000000000000000000000000000000000000000FFFFFFFF000000000000000000000000000000000000000000000000000000
310
0000FFFF000000000000000000000000000000000000000000000000000000000000FFFF000000000000000000000000000000000000000000000000000000000000FFFF000000000000000000000000000000000000000000000000000000000000FFFF000000000000000000000000000000000000000000000000000000
310
000000FFFF000000000000000000000000000000000000000000000000000000000000FFFF0000000000000000000000000000000000000000000000000000000000FFFFFFFF00000000000000000000000000000000000000000000000000000000FF0000FF00000000000000000000000000000000000000000000000000
310
000000FFFFFFFF00000000000000000000000000000000000000000000000000000000FFFFFFFF00000000000000000000000000000000000000000000000000000000FF0000FF00000000000000000000000000000000000000000000000000000000FF0000FF000000000000000000000000000000000000000000000000
310
00000000FFFFFFFF00000000000000000000000000000000000000000000000000000000FF0000FF00000000000000000000000000000000000000000000000000000000FF0000FF00000000000000000000000000000000000000000000000000000000FF0000FF0000000000000000000000000000000000000000000000
310
0000000000FF0000FF00000000000000000000000000000000000000000000000000000000FF0000FF000000000000000000000000000000000000000000000000000000FFFF0000FFFF0000000000000000000000000000000000000000000000000000FF00000000FF000000000000000000000000000000000000000000
310
0000000000FFFFFFFFFFFF000000000000000000000000000000000000000000000000000000000000000000000000000000000000000000
102
{BLKREFS
331
64C
102
}
1001
ACAD
1000
DesignCenter Data
1002
{
1070
     1
1070
     4
1002
}
  0
BLOCK_RECORD
  5
64D
330
1
100
AcDbSymbolTableRecord
100
AcDbBlockTableRecord
  2
3
340
0
310
2800000020000000200000000100080000000000000400000000000000000000000000000000000000000000000080000080000000808000800000008000800080800000C0C0C000C0DCC000F0CAA6000020400000206000002080000020A0000020C0000020E00000400000004020000040400000406000004080000040A0
310
000040C0000040E00000600000006020000060400000606000006080000060A0000060C0000060E00000800000008020000080400000806000008080000080A0000080C0000080E00000A0000000A0200000A0400000A0600000A0800000A0A00000A0C00000A0E00000C0000000C0200000C0400000C0600000C0800000C0
310
A00000C0C00000C0E00000E0000000E0200000E0400000E0600000E0800000E0A00000E0C00000E0E00040000000400020004000400040006000400080004000A0004000C0004000E00040200000402020004020400040206000402080004020A0004020C0004020E000404000004040200040404000404060004040800040
310
40A0004040C0004040E00040600000406020004060400040606000406080004060A0004060C0004060E00040800000408020004080400040806000408080004080A0004080C0004080E00040A0000040A0200040A0400040A0600040A0800040A0A00040A0C00040A0E00040C0000040C0200040C0400040C0600040C08000
310
40C0A00040C0C00040C0E00040E0000040E0200040E0400040E0600040E0800040E0A00040E0C00040E0E00080000000800020008000400080006000800080008000A0008000C0008000E00080200000802020008020400080206000802080008020A0008020C0008020E00080400000804020008040400080406000804080
310
008040A0008040C0008040E00080600000806020008060400080606000806080008060A0008060C0008060E00080800000808020008080400080806000808080008080A0008080C0008080E00080A0000080A0200080A0400080A0600080A0800080A0A00080A0C00080A0E00080C0000080C0200080C0400080C0600080C0
310
800080C0A00080C0C00080C0E00080E0000080E0200080E0400080E0600080E0800080E0A00080E0C00080E0E000C0000000C0002000C0004000C0006000C0008000C000A000C000C000C000E000C0200000C0202000C0204000C0206000C0208000C020A000C020C000C020E000C0400000C0402000C0404000C0406000C0
310
408000C040A000C040C000C040E000C0600000C0602000C0604000C0606000C0608000C060A000C060C000C060E000C0800000C0802000C0804000C0806000C0808000C080A000C080C000C080E000C0A00000C0A02000C0A04000C0A06000C0A08000C0A0A000C0A0C000C0A0E000C0C00000C0C02000C0C04000C0C06000
310
C0C08000C0C0A000F0FBFF00A4A0A000808080000000FF0000FF000000FFFF00FF000000FF00FF00FFFF0000FFFFFF0000000000000000000000000000000000000000000000000000000000000000000000000000000000000000000000000000000000000000000000000000000000000000000000000000000000000000
310
00000000000000000000000000000000000000000000000000000000000000000000000000000000000000000000000000000000000000000000000000000000000000000000000000000000000000000000000000000000000000000000000000000000000000000000000000000000000000000000000000000000000000
310
00000000000000000000000000000000000000000000000000000000000000000000000000000000000000000000000000000000000000000000000000000000000000000000000000000000000000000000000000000000000000000000000000000000000000000000000000000000000000000000000000000000000000
310
0000000000000000000000000000000000000000000000000000000000000000000000000000000000000000000000000000000000000000000000000000000000000000000000000000000000000000000000000000000000000000000000000000000000000000000000000000000000000000FFFFFFFFFFFFFFFFFFFFFF
310
FFFFFFFFFFFFFFFFFFFFFFFFFFFFFFFFFFFFFF0000FF00000000000000000000000000000000000000000000000000000000FF0000FF00000000000000000000000000000000000000000000000000000000FF0000FFFFFFFFFFFFFFFFFFFFFFFFFFFFFFFFFFFFFFFFFFFFFFFFFFFFFFFFFFFF000000000000000000000000
310
00000000000000000000000000000000000000000000000000000000000000000000000000000000000000000000000000000000000000000000000000000000000000000000000000000000000000000000000000000000000000000000000000000000000000000000000000000000000000000000000000000000000000
310
00000000000000000000000000000000000000000000000000000000000000000000000000000000000000000000000000000000000000000000000000000000000000000000000000000000000000000000000000000000000000000000000000000000000000000000000000000000000000000000000000000000000000
310
00000000000000000000000000000000000000000000000000000000000000000000000000000000000000000000000000000000000000000000000000000000000000000000000000000000000000000000000000000000000000000000000000000000000000000000000000000000000000000000000000000000000000
310
0000000000000000000000000000000000000000000000000000000000000000000000000000000000000000000000000000000000000000
102
{BLKREFS
331
654
102
}
1001
ACAD
1000
DesignCenter Data
1002
{
1070
     1
1070
     4
1002
}
  0
BLOCK_RECORD
  5
655
330
1
100
AcDbSymbolTableRecord
100
AcDbBlockTableRecord
  2
4
340
0
310
2800000020000000200000000100080000000000000400000000000000000000000000000000000000000000000080000080000000808000800000008000800080800000C0C0C000C0DCC000F0CAA6000020400000206000002080000020A0000020C0000020E00000400000004020000040400000406000004080000040A0
310
000040C0000040E00000600000006020000060400000606000006080000060A0000060C0000060E00000800000008020000080400000806000008080000080A0000080C0000080E00000A0000000A0200000A0400000A0600000A0800000A0A00000A0C00000A0E00000C0000000C0200000C0400000C0600000C0800000C0
310
A00000C0C00000C0E00000E0000000E0200000E0400000E0600000E0800000E0A00000E0C00000E0E00040000000400020004000400040006000400080004000A0004000C0004000E00040200000402020004020400040206000402080004020A0004020C0004020E000404000004040200040404000404060004040800040
310
40A0004040C0004040E00040600000406020004060400040606000406080004060A0004060C0004060E00040800000408020004080400040806000408080004080A0004080C0004080E00040A0000040A0200040A0400040A0600040A0800040A0A00040A0C00040A0E00040C0000040C0200040C0400040C0600040C08000
310
40C0A00040C0C00040C0E00040E0000040E0200040E0400040E0600040E0800040E0A00040E0C00040E0E00080000000800020008000400080006000800080008000A0008000C0008000E00080200000802020008020400080206000802080008020A0008020C0008020E00080400000804020008040400080406000804080
310
008040A0008040C0008040E00080600000806020008060400080606000806080008060A0008060C0008060E00080800000808020008080400080806000808080008080A0008080C0008080E00080A0000080A0200080A0400080A0600080A0800080A0A00080A0C00080A0E00080C0000080C0200080C0400080C0600080C0
310
800080C0A00080C0C00080C0E00080E0000080E0200080E0400080E0600080E0800080E0A00080E0C00080E0E000C0000000C0002000C0004000C0006000C0008000C000A000C000C000C000E000C0200000C0202000C0204000C0206000C0208000C020A000C020C000C020E000C0400000C0402000C0404000C0406000C0
310
408000C040A000C040C000C040E000C0600000C0602000C0604000C0606000C0608000C060A000C060C000C060E000C0800000C0802000C0804000C0806000C0808000C080A000C080C000C080E000C0A00000C0A02000C0A04000C0A06000C0A08000C0A0A000C0A0C000C0A0E000C0C00000C0C02000C0C04000C0C06000
310
C0C08000C0C0A000F0FBFF00A4A0A000808080000000FF0000FF000000FFFF00FF000000FF00FF00FFFF0000FFFFFF00000000000000000000000000000000000000000000000000000000000000000000000000000000000000000000000000000000000000FFFF0000000000000000000000000000000000000000000000
310
000000000000FFFFFFFF00000000000000000000000000000000000000000000000000000000FF00FFFF000000000000000000000000000000000000000000000000FFFF0000FF00FFFF000000000000000000000000000000000000000000000000FFFFFF00FF00FFFF000000000000000000000000000000000000000000
310
0000FF00FFFF00FF00FFFF00000000000000000000000000000000000000FFFF0000FF00FFFF00FFFFFFFF00000000000000000000000000000000000000FFFFFF00FF00FFFF0000FFFFFF00000000000000000000000000000000000000FFFFFFFFFF00FFFF0000FFFFFF0000000000000000000000000000FFFF000000FF
310
FF00FFFFFFFFFF0000FFFFFF0000000000000000000000000000FFFFFFFF00FFFF00FF00FFFFFF00FFFFFFFFFF00000000000000000000000000FFFFFFFF00FFFFFFFF00FFFFFFFF0000FFFFFF00000000000000000000000000FFFF00FF00FFFFFF0000FFFFFFFFFFFFFFFFFF00000000000000000000000000FFFFFFFF00
310
FF00FF00FFFF00FFFFFFFF00FFFFFF000000000000000000000000FFFFFFFF00FF00FF00FF00FFFFFF000000FF00FF000000000000000000000000FFFFFF0000FFFFFFFFFFFFFFFF00000000FF00FF000000000000000000000000FF00FF00FF0000FFFFFF00000000000000FF00FF000000000000000000000000FF00FF00
310
FFFFFFFFFFFF0000000000FFFF00FFFF000000000000000000000000FFFFFFFFFFFF00FFFF00000000FFFF00000000FF0000000000000000000000FF00FFFFFFFF000000000000FFFF00000000FFFF000000000000000000000000FFFFFFFFFFFF0000000000FF00000000FFFF0000000000000000000000000000FFFF00FF
310
FF00000000FFFF000000FFFF00000000000000000000000000000000FF000000000000FFFF00000000FF0000000000000000000000000000000000FFFF0000000000FF00000000FFFF000000000000000000000000000000000000FF00000000FFFF000000FFFF0000000000000000000000000000000000000000FF0000FF
310
FF00000000FF00000000000000000000000000000000000000000000FFFFFF00000000FFFF0000000000000000000000000000000000000000000000FF00000000FFFF0000000000000000000000000000000000000000000000000000FF00FFFF0000000000000000000000000000000000000000000000000000000000FF
310
0000000000000000000000000000000000000000000000000000000000000000000000000000000000000000000000000000000000000000
102
{BLKREFS
331
76F
102
}
1001
ACAD
1000
DesignCenter Data
1002
{
1070
     1
1070
     4
1002
}
  0
ENDTAB
  0
ENDSEC
  0
SECTION
  2
BLOCKS
  0
BLOCK
  5
20
330
1F
100
AcDbEntity
  8
0
100
AcDbBlockBegin
  2
*Model_Space
 70
     0
 10
0.0
 20
0.0
 30
0.0
  3
*Model_Space
  1

  0
ENDBLK
  5
21
330
1F
100
AcDbEntity
  8
0
100
AcDbBlockEnd
  0
BLOCK
  5
D4
330
D2
100
AcDbEntity
 67
     1
  8
0
100
AcDbBlockBegin
  2
*Paper_Space
 70
     0
 10
0.0
 20
0.0
 30
0.0
  3
*Paper_Space
  1

  0
ENDBLK
  5
D5
330
D2
100
AcDbEntity
 67
     1
  8
0
100
AcDbBlockEnd
  0
BLOCK
  5
D8
330
D6
100
AcDbEntity
 67
     1
  8
0
100
AcDbBlockBegin
  2
*Paper_Space0
 70
     0
 10
0.0
 20
0.0
 30
0.0
  3
*Paper_Space0
  1

  0
ENDBLK
  5
D9
330
D6
100
AcDbEntity
 67
     1
  8
0
100
AcDbBlockEnd
  0
BLOCK
  5
57C
330
57B
100
AcDbEntity
  8
0
100
AcDbBlockBegin
  2
1
 70
     0
 10
0.0
 20
0.0
 30
0.0
  3
1
  1

  0
LINE
  5
57E
330
57B
100
AcDbEntity
  8
0
  6
Continuous
 62
     7
370
    15
100
AcDbLine
 10
2227.590560652496
 20
923.7658545282318
 30
0.0
 11
2227.590560652496
 21
924.9658545282317
 31
0.0
  0
LINE
  5
57F
330
57B
100
AcDbEntity
  8
0
  6
Continuous
 62
     7
370
    15
100
AcDbLine
 10
2189.990566422226
 20
924.9658545282317
 30
0.0
 11
2189.990566422226
 21
923.7658545282318
 31
0.0
  0
LINE
  5
580
330
57B
100
AcDbEntity
  8
0
  6
Continuous
 62
     7
370
    15
100
AcDbLine
 10
2227.590560652496
 20
924.9658545282317
 30
0.0
 11
2189.990566422226
 21
924.9658545282317
 31
0.0
  0
LINE
  5
581
330
57B
100
AcDbEntity
  8
0
  6
Continuous
 62
     7
370
    15
100
AcDbLine
 10
2227.590560652496
 20
923.7658545282318
 30
0.0
 11
2189.990566422226
 21
923.7658545282318
 31
0.0
  0
LINE
  5
582
330
57B
100
AcDbEntity
  8
0
  6
Continuous
 62
     7
370
    15
100
AcDbLine
 10
2221.690563537361
 20
913.7658545282318
 30
0.0
 11
2224.690563537361
 21
913.7658545282318
 31
0.0
  0
LINE
  5
583
330
57B
100
AcDbEntity
  8
0
  6
Continuous
 62
     7
370
    15
100
AcDbLine
 10
2221.690563537361
 20
915.0658545282317
 30
0.0
 11
2221.690563537361
 21
913.7658545282318
 31
0.0
  0
LINE
  5
584
330
57B
100
AcDbEntity
  8
0
  6
Continuous
 62
     7
370
    15
100
AcDbLine
 10
2221.690563537361
 20
915.0658545282317
 30
0.0
 11
2224.690563537361
 21
915.0658545282317
 31
0.0
  0
LINE
  5
585
330
57B
100
AcDbEntity
  8
0
  6
Continuous
 62
     7
370
    15
100
AcDbLine
 10
2224.690563537361
 20
915.0658545282317
 30
0.0
 11
2224.690563537361
 21
913.7658545282318
 31
0.0
  0
LINE
  5
586
330
57B
100
AcDbEntity
  8
0
  6
Continuous
 62
     7
370
    15
100
AcDbLine
 10
2192.890563537361
 20
913.7658545282318
 30
0.0
 11
2195.890563537361
 21
913.7658545282318
 31
0.0
  0
LINE
  5
587
330
57B
100
AcDbEntity
  8
0
  6
Continuous
 62
     7
370
    15
100
AcDbLine
 10
2192.890563537361
 20
915.0658545282317
 30
0.0
 11
2192.890563537361
 21
913.7658545282318
 31
0.0
  0
LINE
  5
588
330
57B
100
AcDbEntity
  8
0
  6
Continuous
 62
     7
370
    15
100
AcDbLine
 10
2192.890563537361
 20
915.0658545282317
 30
0.0
 11
2195.890563537361
 21
915.0658545282317
 31
0.0
  0
LINE
  5
589
330
57B
100
AcDbEntity
  8
0
  6
Continuous
 62
     7
370
    15
100
AcDbLine
 10
2195.890563537361
 20
915.0658545282317
 30
0.0
 11
2195.890563537361
 21
913.7658545282318
 31
0.0
  0
LINE
  5
58A
330
57B
100
AcDbEntity
  8
0
  6
Continuous
 62
     7
370
    15
100
AcDbLine
 10
2212.090563537361
 20
913.7658545282318
 30
0.0
 11
2215.090563537361
 21
913.7658545282318
 31
0.0
  0
LINE
  5
58B
330
57B
100
AcDbEntity
  8
0
  6
Continuous
 62
     7
370
    15
100
AcDbLine
 10
2212.090563537361
 20
915.0658545282317
 30
0.0
 11
2212.090563537361
 21
913.7658545282318
 31
0.0
  0
LINE
  5
58C
330
57B
100
AcDbEntity
  8
0
  6
Continuous
 62
     7
370
    15
100
AcDbLine
 10
2215.090563537361
 20
915.0658545282317
 30
0.0
 11
2215.090563537361
 21
913.7658545282318
 31
0.0
  0
LINE
  5
58D
330
57B
100
AcDbEntity
  8
0
  6
Continuous
 62
     7
370
    15
100
AcDbLine
 10
2212.090563537361
 20
915.0658545282317
 30
0.0
 11
2215.090563537361
 21
915.0658545282317
 31
0.0
  0
LINE
  5
58E
330
57B
100
AcDbEntity
  8
0
  6
Continuous
 62
     7
370
    15
100
AcDbLine
 10
2202.490563537361
 20
913.7658545282318
 30
0.0
 11
2205.490563537361
 21
913.7658545282318
 31
0.0
  0
LINE
  5
58F
330
57B
100
AcDbEntity
  8
0
  6
Continuous
 62
     7
370
    15
100
AcDbLine
 10
2202.490563537361
 20
915.0658545282317
 30
0.0
 11
2202.490563537361
 21
913.7658545282318
 31
0.0
  0
LINE
  5
590
330
57B
100
AcDbEntity
  8
0
  6
Continuous
 62
     7
370
    15
100
AcDbLine
 10
2202.490563537361
 20
915.0658545282317
 30
0.0
 11
2205.490563537361
 21
915.0658545282317
 31
0.0
  0
LINE
  5
591
330
57B
100
AcDbEntity
  8
0
  6
Continuous
 62
     7
370
    15
100
AcDbLine
 10
2205.490563537361
 20
915.0658545282317
 30
0.0
 11
2205.490563537361
 21
913.7658545282318
 31
0.0
  0
LINE
  5
592
330
57B
100
AcDbEntity
  8
0
  6
Continuous
 62
     7
370
    15
100
AcDbLine
 10
2197.64056353736
 20
917.1692368963194
 30
0.0
 11
2197.64056353736
 21
913.5958452021535
 31
0.0
  0
ARC
  5
593
330
57B
100
AcDbEntity
  8
0
  6
Continuous
 62
     7
370
    15
100
AcDbCircle
 10
2197.14056302199
 20
913.5958417411726
 30
0.0
 40
0.5000005153882467
100
AcDbArc
 50
314.9996405476098
 51
0.0003965987939631
  0
LINE
  5
594
330
57B
100
AcDbEntity
  8
0
  6
Continuous
 62
     7
370
    15
100
AcDbLine
 10
2197.437014135418
 20
913.185186777447
 30
0.0
 11
2197.494114558947
 21
913.2422857680872
 31
0.0
  0
ARC
  5
595
330
57B
100
AcDbEntity
  8
0
  6
Continuous
 62
     7
370
    15
100
AcDbCircle
 10
2197.790563028198
 20
912.8316281726025
 30
0.0
 40
0.5000005066464439
100
AcDbArc
 50
134.9992130470782
 51
180.0
  0
LINE
  5
596
330
57B
100
AcDbEntity
  8
0
  6
Continuous
 62
     7
370
    15
100
AcDbLine
 10
2197.290562521551
 20
912.8316281726025
 30
0.0
 11
2197.290562521551
 21
910.8172563747832
 31
0.0
  0
LINE
  5
597
330
57B
100
AcDbEntity
  8
0
  6
Continuous
 62
     7
370
    15
100
AcDbLine
 10
2196.940566604098
 20
910.4672604573293
 30
0.0
 11
2197.290565078219
 21
910.8172589314504
 31
0.0
  0
LINE
  5
598
330
57B
100
AcDbEntity
  8
0
  6
Continuous
 62
     7
370
    15
100
AcDbLine
 10
2196.940566604098
 20
910.4672604573293
 30
0.0
 11
2191.840560470624
 21
910.4672604573293
 31
0.0
  0
LINE
  5
599
330
57B
100
AcDbEntity
  8
0
  6
Continuous
 62
     7
370
    15
100
AcDbLine
 10
2191.490561996503
 20
910.8172589314504
 30
0.0
 11
2191.840560470624
 21
910.4672604573293
 31
0.0
  0
LINE
  5
59A
330
57B
100
AcDbEntity
  8
0
  6
Continuous
 62
     7
370
    15
100
AcDbLine
 10
2191.490561996503
 20
910.8172589314504
 30
0.0
 11
2191.490563274836
 21
912.8316281726025
 31
0.0
  0
ARC
  5
59B
330
57B
100
AcDbEntity
  8
0
  6
Continuous
 62
     7
370
    15
100
AcDbCircle
 10
2190.990564046524
 20
912.8316281726025
 30
0.0
 40
0.5000005066453508
100
AcDbArc
 50
0.0
 51
45.0007869529218
  0
LINE
  5
59C
330
57B
100
AcDbEntity
  8
0
  6
Continuous
 62
     7
370
    15
100
AcDbLine
 10
2191.287012515774
 20
913.2422857680872
 30
0.0
 11
2191.344112939304
 21
913.185186777447
 31
0.0
  0
ARC
  5
59D
330
57B
100
AcDbEntity
  8
0
  6
Continuous
 62
     7
370
    15
100
AcDbCircle
 10
2191.640564052731
 20
913.5958417411726
 30
0.0
 40
0.5000005153938787
100
AcDbArc
 50
180.0
 51
225.0003594523902
  0
LINE
  5
59E
330
57B
100
AcDbEntity
  8
0
  6
Continuous
 62
     7
370
    15
100
AcDbLine
 10
2191.140563537337
 20
913.5958417411726
 30
0.0
 11
2191.140563537361
 21
917.1692368963194
 31
0.0
  0
LINE
  5
59F
330
57B
100
AcDbEntity
  8
0
  6
Continuous
 62
     7
370
    15
100
AcDbLine
 10
2189.990566422226
 20
917.1692368963194
 30
0.0
 11
2191.140563537361
 21
917.1692368963194
 31
0.0
  0
LINE
  5
5A0
330
57B
100
AcDbEntity
  8
0
  6
Continuous
 62
     7
370
    15
100
AcDbLine
 10
2226.44056353736
 20
917.1692368963194
 30
0.0
 11
2227.590560652496
 21
917.1692368963194
 31
0.0
  0
LINE
  5
5A1
330
57B
100
AcDbEntity
  8
0
  6
Continuous
 62
     7
370
    15
100
AcDbLine
 10
2226.44056353736
 20
917.1692368963194
 30
0.0
 11
2226.44056353736
 21
913.6158452021538
 31
0.0
  0
ARC
  5
5A2
330
57B
100
AcDbEntity
  8
0
  6
Continuous
 62
     7
370
    15
100
AcDbCircle
 10
2225.940563021991
 20
913.6158417411726
 30
0.0
 40
0.500000515388307
100
AcDbArc
 50
314.9996405476237
 51
0.0003965988069907
  0
LINE
  5
5A3
330
57B
100
AcDbEntity
  8
0
  6
Continuous
 62
     7
370
    15
100
AcDbLine
 10
2226.237014135418
 20
913.2051867774471
 30
0.0
 11
2226.294114558947
 21
913.2622857680873
 31
0.0
  0
ARC
  5
5A4
330
57B
100
AcDbEntity
  8
0
  6
Continuous
 62
     7
370
    15
100
AcDbCircle
 10
2226.590563028198
 20
912.8516281726025
 30
0.0
 40
0.5000005066464439
100
AcDbArc
 50
134.9992130470782
 51
180.0
  0
LINE
  5
5A5
330
57B
100
AcDbEntity
  8
0
  6
Continuous
 62
     7
370
    15
100
AcDbLine
 10
2226.090562521552
 20
912.8516281726025
 30
0.0
 11
2226.090562521552
 21
910.8372563747829
 31
0.0
  0
LINE
  5
5A6
330
57B
100
AcDbEntity
  8
0
  6
Continuous
 62
     7
370
    15
100
AcDbLine
 10
2225.720566604098
 20
910.4672604573293
 30
0.0
 11
2226.090564225996
 21
910.8372580792277
 31
0.0
  0
LINE
  5
5A7
330
57B
100
AcDbEntity
  8
0
  6
Continuous
 62
     7
370
    15
100
AcDbLine
 10
2225.720566604098
 20
910.4672604573293
 30
0.0
 11
2220.660560470624
 21
910.4672604573293
 31
0.0
  0
LINE
  5
5A8
330
57B
100
AcDbEntity
  8
0
  6
Continuous
 62
     7
370
    15
100
AcDbLine
 10
2220.290561996502
 20
910.8372589314505
 30
0.0
 11
2220.660560470624
 21
910.4672604573293
 31
0.0
  0
LINE
  5
5A9
330
57B
100
AcDbEntity
  8
0
  6
Continuous
 62
     7
370
    15
100
AcDbLine
 10
2220.290561996502
 20
910.8372589314505
 30
0.0
 11
2220.290563274836
 21
912.8516281726025
 31
0.0
  0
ARC
  5
5AA
330
57B
100
AcDbEntity
  8
0
  6
Continuous
 62
     7
370
    15
100
AcDbCircle
 10
2219.790564046524
 20
912.8516281726025
 30
0.0
 40
0.5000005066455921
100
AcDbArc
 50
0.0
 51
45.0007869529218
  0
LINE
  5
5AB
330
57B
100
AcDbEntity
  8
0
  6
Continuous
 62
     7
370
    15
100
AcDbLine
 10
2220.087012515775
 20
913.2622857680873
 30
0.0
 11
2220.144112939304
 21
913.2051867774471
 31
0.0
  0
ARC
  5
5AC
330
57B
100
AcDbEntity
  8
0
  6
Continuous
 62
     7
370
    15
100
AcDbCircle
 10
2220.440564052731
 20
913.6158417411726
 30
0.0
 40
0.5000005153938787
100
AcDbArc
 50
180.0
 51
225.0003594523763
  0
LINE
  5
5AD
330
57B
100
AcDbEntity
  8
0
  6
Continuous
 62
     7
370
    15
100
AcDbLine
 10
2219.940563537337
 20
913.6158417411726
 30
0.0
 11
2219.940563537361
 21
917.1692368963194
 31
0.0
  0
LINE
  5
5AE
330
57B
100
AcDbEntity
  8
0
  6
Continuous
 62
     7
370
    15
100
AcDbLine
 10
2219.940563537361
 20
917.1692368963194
 30
0.0
 11
2216.840563537361
 21
917.1692368963194
 31
0.0
  0
LINE
  5
5AF
330
57B
100
AcDbEntity
  8
0
  6
Continuous
 62
     7
370
    15
100
AcDbLine
 10
2216.840563537361
 20
917.1692368963194
 30
0.0
 11
2216.840563537361
 21
913.5958452021535
 31
0.0
  0
ARC
  5
5B0
330
57B
100
AcDbEntity
  8
0
  6
Continuous
 62
     7
370
    15
100
AcDbCircle
 10
2216.340563021991
 20
913.5958417411726
 30
0.0
 40
0.5000005153882467
100
AcDbArc
 50
314.9996405476098
 51
0.0003965987939631
  0
LINE
  5
5B1
330
57B
100
AcDbEntity
  8
0
  6
Continuous
 62
     7
370
    15
100
AcDbLine
 10
2216.637014135418
 20
913.185186777447
 30
0.0
 11
2216.694114558947
 21
913.2422857680872
 31
0.0
  0
ARC
  5
5B2
330
57B
100
AcDbEntity
  8
0
  6
Continuous
 62
     7
370
    15
100
AcDbCircle
 10
2216.990563028198
 20
912.8316281726025
 30
0.0
 40
0.5000005066464439
100
AcDbArc
 50
134.9992130470782
 51
180.0
  0
LINE
  5
5B3
330
57B
100
AcDbEntity
  8
0
  6
Continuous
 62
     7
370
    15
100
AcDbLine
 10
2216.490562521551
 20
912.8316281726025
 30
0.0
 11
2216.490562521551
 21
910.8172563747832
 31
0.0
  0
LINE
  5
5B4
330
57B
100
AcDbEntity
  8
0
  6
Continuous
 62
     7
370
    15
100
AcDbLine
 10
2216.140566604098
 20
910.4672604573293
 30
0.0
 11
2216.490565078219
 21
910.8172589314504
 31
0.0
  0
LINE
  5
5B5
330
57B
100
AcDbEntity
  8
0
  6
Continuous
 62
     7
370
    15
100
AcDbLine
 10
2216.140566604098
 20
910.4672604573293
 30
0.0
 11
2211.040560470624
 21
910.4672604573293
 31
0.0
  0
LINE
  5
5B6
330
57B
100
AcDbEntity
  8
0
  6
Continuous
 62
     7
370
    15
100
AcDbLine
 10
2210.690561996503
 20
910.8172589314504
 30
0.0
 11
2211.040560470624
 21
910.4672604573293
 31
0.0
  0
LINE
  5
5B7
330
57B
100
AcDbEntity
  8
0
  6
Continuous
 62
     7
370
    15
100
AcDbLine
 10
2210.690561996503
 20
910.8172589314504
 30
0.0
 11
2210.690563274836
 21
912.8316281726025
 31
0.0
  0
ARC
  5
5B8
330
57B
100
AcDbEntity
  8
0
  6
Continuous
 62
     7
370
    15
100
AcDbCircle
 10
2210.190564046524
 20
912.8316281726025
 30
0.0
 40
0.5000005066453508
100
AcDbArc
 50
0.0
 51
45.0007869529218
  0
LINE
  5
5B9
330
57B
100
AcDbEntity
  8
0
  6
Continuous
 62
     7
370
    15
100
AcDbLine
 10
2210.487012515775
 20
913.2422857680872
 30
0.0
 11
2210.544112939304
 21
913.185186777447
 31
0.0
  0
ARC
  5
5BA
330
57B
100
AcDbEntity
  8
0
  6
Continuous
 62
     7
370
    15
100
AcDbCircle
 10
2210.840564052731
 20
913.5958417411726
 30
0.0
 40
0.5000005153938787
100
AcDbArc
 50
180.0
 51
225.0003594524085
  0
LINE
  5
5BB
330
57B
100
AcDbEntity
  8
0
  6
Continuous
 62
     7
370
    15
100
AcDbLine
 10
2210.340563537337
 20
913.5958417411726
 30
0.0
 11
2210.340563537361
 21
917.1692368963194
 31
0.0
  0
LINE
  5
5BC
330
57B
100
AcDbEntity
  8
0
  6
Continuous
 62
     7
370
    15
100
AcDbLine
 10
2210.340563537361
 20
917.1692368963194
 30
0.0
 11
2207.240563537361
 21
917.1692368963194
 31
0.0
  0
LINE
  5
5BD
330
57B
100
AcDbEntity
  8
0
  6
Continuous
 62
     7
370
    15
100
AcDbLine
 10
2207.240563537361
 20
917.1692368963194
 30
0.0
 11
2207.240563537361
 21
913.5958452021535
 31
0.0
  0
ARC
  5
5BE
330
57B
100
AcDbEntity
  8
0
  6
Continuous
 62
     7
370
    15
100
AcDbCircle
 10
2206.740563021991
 20
913.5958417411726
 30
0.0
 40
0.5000005153882467
100
AcDbArc
 50
314.9996405476098
 51
0.0003965987939631
  0
LINE
  5
5BF
330
57B
100
AcDbEntity
  8
0
  6
Continuous
 62
     7
370
    15
100
AcDbLine
 10
2207.037014135418
 20
913.185186777447
 30
0.0
 11
2207.094114558947
 21
913.2422857680872
 31
0.0
  0
ARC
  5
5C0
330
57B
100
AcDbEntity
  8
0
  6
Continuous
 62
     7
370
    15
100
AcDbCircle
 10
2207.390563028198
 20
912.8316281726025
 30
0.0
 40
0.5000005066464439
100
AcDbArc
 50
134.9992130470782
 51
180.0
  0
LINE
  5
5C1
330
57B
100
AcDbEntity
  8
0
  6
Continuous
 62
     7
370
    15
100
AcDbLine
 10
2206.890562521551
 20
912.8316281726025
 30
0.0
 11
2206.890562521551
 21
910.8172563747832
 31
0.0
  0
LINE
  5
5C2
330
57B
100
AcDbEntity
  8
0
  6
Continuous
 62
     7
370
    15
100
AcDbLine
 10
2206.540566604097
 20
910.4672604573293
 30
0.0
 11
2206.890565078218
 21
910.8172589314504
 31
0.0
  0
LINE
  5
5C3
330
57B
100
AcDbEntity
  8
0
  6
Continuous
 62
     7
370
    15
100
AcDbLine
 10
2206.540566604097
 20
910.4672604573293
 30
0.0
 11
2201.440560470624
 21
910.4672604573293
 31
0.0
  0
LINE
  5
5C4
330
57B
100
AcDbEntity
  8
0
  6
Continuous
 62
     7
370
    15
100
AcDbLine
 10
2201.090561996503
 20
910.8172589314504
 30
0.0
 11
2201.440560470624
 21
910.4672604573293
 31
0.0
  0
LINE
  5
5C5
330
57B
100
AcDbEntity
  8
0
  6
Continuous
 62
     7
370
    15
100
AcDbLine
 10
2201.090561996503
 20
910.8172589314504
 30
0.0
 11
2201.090563274837
 21
912.8316281726025
 31
0.0
  0
ARC
  5
5C6
330
57B
100
AcDbEntity
  8
0
  6
Continuous
 62
     7
370
    15
100
AcDbCircle
 10
2200.590564046524
 20
912.8316281726025
 30
0.0
 40
0.5000005066453508
100
AcDbArc
 50
0.0
 51
45.0007869529218
  0
LINE
  5
5C7
330
57B
100
AcDbEntity
  8
0
  6
Continuous
 62
     7
370
    15
100
AcDbLine
 10
2200.887012515774
 20
913.2422857680872
 30
0.0
 11
2200.944112939303
 21
913.185186777447
 31
0.0
  0
ARC
  5
5C8
330
57B
100
AcDbEntity
  8
0
  6
Continuous
 62
     7
370
    15
100
AcDbCircle
 10
2201.240564052731
 20
913.5958417411726
 30
0.0
 40
0.5000005153938787
100
AcDbArc
 50
180.0
 51
225.0003594524085
  0
LINE
  5
5C9
330
57B
100
AcDbEntity
  8
0
  6
Continuous
 62
     7
370
    15
100
AcDbLine
 10
2200.740563537337
 20
913.5958417411726
 30
0.0
 11
2200.740563537361
 21
917.1692368963194
 31
0.0
  0
LINE
  5
5CA
330
57B
100
AcDbEntity
  8
0
  6
Continuous
 62
     7
370
    15
100
AcDbLine
 10
2197.64056353736
 20
917.1692368963194
 30
0.0
 11
2200.740563537361
 21
917.1692368963194
 31
0.0
  0
LINE
  5
5CB
330
57B
100
AcDbEntity
  8
0
  6
Continuous
 62
     7
370
    15
100
AcDbLine
 10
2227.590560652496
 20
923.7658545282318
 30
0.0
 11
2227.590560652496
 21
917.1692368963194
 31
0.0
  0
LINE
  5
5CC
330
57B
100
AcDbEntity
  8
0
  6
Continuous
 62
     7
370
    15
100
AcDbLine
 10
2189.990566422226
 20
917.1692368963194
 30
0.0
 11
2189.990566422226
 21
923.7658545282318
 31
0.0
  0
LINE
  5
5CD
330
57B
100
AcDbEntity
  8
0
  6
Continuous
 62
     7
370
    15
100
AcDbLine
 10
2213.118720625769
 20
894.8062698073936
 30
0.0
 11
2214.062344717227
 21
894.8062698073936
 31
0.0
  0
ARC
  5
5CE
330
57B
100
AcDbEntity
  8
0
  6
Continuous
 62
     7
370
    15
100
AcDbCircle
 10
2213.118720625769
 20
895.5062698073936
 30
0.0
 40
0.6999999999999386
100
AcDbArc
 50
189.9999835369507
 51
270.0
  0
LINE
  5
5CF
330
57B
100
AcDbEntity
  8
0
  6
Continuous
 62
     7
370
    15
100
AcDbLine
 10
2212.090529631586
 20
897.3062945902707
 30
0.0
 11
2212.429355163734
 21
895.3847162811053
 31
0.0
  0
LINE
  5
5D0
330
57B
100
AcDbEntity
  8
0
  6
Continuous
 62
     7
370
    15
100
AcDbLine
 10
2212.090529631586
 20
903.030750363686
 30
0.0
 11
2212.090529631586
 21
897.3062945902707
 31
0.0
  0
LINE
  5
5D1
330
57B
100
AcDbEntity
  8
0
  6
Continuous
 62
     7
370
    15
100
AcDbLine
 10
2215.090540878616
 20
903.0307151638329
 30
0.0
 11
2212.090529631586
 21
903.030750363686
 31
0.0
  0
LINE
  5
5D2
330
57B
100
AcDbEntity
  8
0
  6
Continuous
 62
     7
370
    15
100
AcDbLine
 10
2215.090540878616
 20
903.0307151638329
 30
0.0
 11
2215.090544978863
 21
897.3062945902704
 31
0.0
  0
SPLINE
  5
5D3
330
57B
100
AcDbEntity
  8
0
  6
Continuous
 62
     7
370
    15
100
AcDbSpline
210
0.0
220
0.0
230
1.0
 70
     8
 71
     3
 72
    10
 73
     6
 74
     0
 42
0.0000000001
 43
0.0000000001
 40
0.0
 40
0.0
 40
0.0
 40
0.0
 40
0.5
 40
0.5
 40
1.0
 40
1.0
 40
1.0
 40
1.0
 10
2214.751710179262
 20
895.3847162811053
 30
0.0
 10
2214.723423383426
 20
895.2242936205982
 30
0.0
 10
2214.637082777341
 20
895.0747472296765
 30
0.0
 10
2214.387509464752
 20
894.8653302940309
 30
0.0
 10
2214.225242147602
 20
894.8062698073938
 30
0.0
 10
2214.062344717227
 20
894.8062698073938
 30
0.0
  0
LINE
  5
5D4
330
57B
100
AcDbEntity
  8
0
  6
Continuous
 62
     7
370
    15
100
AcDbLine
 10
2214.751710179262
 20
895.3847162811053
 30
0.0
 11
2215.09053571141
 21
897.3062945902704
 31
0.0
  0
SPLINE
  5
5D5
330
57B
100
AcDbEntity
  8
0
  6
Continuous
 62
     7
370
    15
100
AcDbSpline
210
0.0
220
0.0
230
1.0
 70
     8
 71
     3
 72
    10
 73
     6
 74
     0
 42
0.0000000001
 43
0.0000000001
 40
0.0
 40
0.0
 40
0.0
 40
0.0
 40
0.5
 40
0.5
 40
1.0
 40
1.0
 40
1.0
 40
1.0
 10
2205.151710179262
 20
895.3847162811053
 30
0.0
 10
2205.123423383426
 20
895.2242936205982
 30
0.0
 10
2205.03708277734
 20
895.0747472296765
 30
0.0
 10
2204.787509464752
 20
894.8653302940309
 30
0.0
 10
2204.625242147602
 20
894.8062698073938
 30
0.0
 10
2204.462344717227
 20
894.8062698073938
 30
0.0
  0
LINE
  5
5D6
330
57B
100
AcDbEntity
  8
0
  6
Continuous
 62
     7
370
    15
100
AcDbLine
 10
2203.518720625769
 20
894.8062698073936
 30
0.0
 11
2204.462344717227
 21
894.8062698073936
 31
0.0
  0
ARC
  5
5D7
330
57B
100
AcDbEntity
  8
0
  6
Continuous
 62
     7
370
    15
100
AcDbCircle
 10
2203.518720625769
 20
895.5062698073936
 30
0.0
 40
0.6999999999999386
100
AcDbArc
 50
189.9999835369507
 51
270.0
  0
LINE
  5
5D8
330
57B
100
AcDbEntity
  8
0
  6
Continuous
 62
     7
370
    15
100
AcDbLine
 10
2202.490529631586
 20
897.3062945902707
 30
0.0
 11
2202.829355163734
 21
895.3847162811053
 31
0.0
  0
LINE
  5
5D9
330
57B
100
AcDbEntity
  8
0
  6
Continuous
 62
     7
370
    15
100
AcDbLine
 10
2202.490529631586
 20
903.030750363686
 30
0.0
 11
2202.490529631586
 21
897.3062945902707
 31
0.0
  0
LINE
  5
5DA
330
57B
100
AcDbEntity
  8
0
  6
Continuous
 62
     7
370
    15
100
AcDbLine
 10
2205.490540878616
 20
903.0307151638329
 30
0.0
 11
2202.490529631586
 21
903.030750363686
 31
0.0
  0
LINE
  5
5DB
330
57B
100
AcDbEntity
  8
0
  6
Continuous
 62
     7
370
    15
100
AcDbLine
 10
2205.490540878616
 20
903.0307151638329
 30
0.0
 11
2205.490544978863
 21
897.3062945902704
 31
0.0
  0
LINE
  5
5DC
330
57B
100
AcDbEntity
  8
0
  6
Continuous
 62
     7
370
    15
100
AcDbLine
 10
2205.151710179262
 20
895.3847162811053
 30
0.0
 11
2205.49053571141
 21
897.3062945902704
 31
0.0
  0
SPLINE
  5
5DD
330
57B
100
AcDbEntity
  8
0
  6
Continuous
 62
     7
370
    15
100
AcDbSpline
210
0.0
220
0.0
230
1.0
 70
     8
 71
     3
 72
    10
 73
     6
 74
     0
 42
0.0000000001
 43
0.0000000001
 40
0.0
 40
0.0
 40
0.0
 40
0.0
 40
0.5
 40
0.5
 40
1.0
 40
1.0
 40
1.0
 40
1.0
 10
2195.551710179262
 20
895.3847162811053
 30
0.0
 10
2195.523423383425
 20
895.2242936205982
 30
0.0
 10
2195.437082777341
 20
895.0747472296765
 30
0.0
 10
2195.187509464751
 20
894.8653302940309
 30
0.0
 10
2195.025242147602
 20
894.8062698073938
 30
0.0
 10
2194.862344717227
 20
894.8062698073938
 30
0.0
  0
LINE
  5
5DE
330
57B
100
AcDbEntity
  8
0
  6
Continuous
 62
     7
370
    15
100
AcDbLine
 10
2193.918720625769
 20
894.8062698073936
 30
0.0
 11
2194.862344717227
 21
894.8062698073936
 31
0.0
  0
ARC
  5
5DF
330
57B
100
AcDbEntity
  8
0
  6
Continuous
 62
     7
370
    15
100
AcDbCircle
 10
2193.918720625769
 20
895.5062698073936
 30
0.0
 40
0.6999999999999386
100
AcDbArc
 50
189.9999835369507
 51
270.0
  0
LINE
  5
5E0
330
57B
100
AcDbEntity
  8
0
  6
Continuous
 62
     7
370
    15
100
AcDbLine
 10
2192.890529631586
 20
897.3062945902707
 30
0.0
 11
2193.229355163734
 21
895.3847162811053
 31
0.0
  0
LINE
  5
5E1
330
57B
100
AcDbEntity
  8
0
  6
Continuous
 62
     7
370
    15
100
AcDbLine
 10
2192.890529631586
 20
903.030750363686
 30
0.0
 11
2192.890529631586
 21
897.3062945902707
 31
0.0
  0
LINE
  5
5E2
330
57B
100
AcDbEntity
  8
0
  6
Continuous
 62
     7
370
    15
100
AcDbLine
 10
2195.890540878616
 20
903.0307151638329
 30
0.0
 11
2192.890529631586
 21
903.030750363686
 31
0.0
  0
LINE
  5
5E3
330
57B
100
AcDbEntity
  8
0
  6
Continuous
 62
     7
370
    15
100
AcDbLine
 10
2195.890540878616
 20
903.0307151638329
 30
0.0
 11
2195.890544978864
 21
897.3062945902704
 31
0.0
  0
LINE
  5
5E4
330
57B
100
AcDbEntity
  8
0
  6
Continuous
 62
     7
370
    15
100
AcDbLine
 10
2195.551710179262
 20
895.3847162811053
 30
0.0
 11
2195.89053571141
 21
897.3062945902704
 31
0.0
  0
LINE
  5
5E5
330
57B
100
AcDbEntity
  8
0
  6
Continuous
 62
     7
370
    15
100
AcDbLine
 10
2224.351710179262
 20
895.3847162811053
 30
0.0
 11
2224.69053571141
 21
897.3062945902704
 31
0.0
  0
LINE
  5
5E6
330
57B
100
AcDbEntity
  8
0
  6
Continuous
 62
     7
370
    15
100
AcDbLine
 10
2222.718720625769
 20
894.8062698073936
 30
0.0
 11
2223.662344717227
 21
894.8062698073936
 31
0.0
  0
SPLINE
  5
5E7
330
57B
100
AcDbEntity
  8
0
  6
Continuous
 62
     7
370
    15
100
AcDbSpline
210
0.0
220
0.0
230
1.0
 70
     8
 71
     3
 72
    10
 73
     6
 74
     0
 42
0.0000000001
 43
0.0000000001
 40
0.0
 40
0.0
 40
0.0
 40
0.0
 40
0.5
 40
0.5
 40
1.0
 40
1.0
 40
1.0
 40
1.0
 10
2222.718720625769
 20
894.8062698073938
 30
0.0
 10
2222.555823195394
 20
894.806269807394
 30
0.0
 10
2222.393555878244
 20
894.8653302940309
 30
0.0
 10
2222.143982565655
 20
895.0747472296765
 30
0.0
 10
2222.057641959571
 20
895.2242936205982
 30
0.0
 10
2222.029355163734
 20
895.3847162811053
 30
0.0
  0
LINE
  5
5E8
330
57B
100
AcDbEntity
  8
0
  6
Continuous
 62
     7
370
    15
100
AcDbLine
 10
2221.690529631587
 20
897.3062945902707
 30
0.0
 11
2222.029355163734
 21
895.3847162811053
 31
0.0
  0
LINE
  5
5E9
330
57B
100
AcDbEntity
  8
0
  6
Continuous
 62
     7
370
    15
100
AcDbLine
 10
2221.690529631587
 20
903.030750363686
 30
0.0
 11
2221.690529631587
 21
897.3062945902707
 31
0.0
  0
LINE
  5
5EA
330
57B
100
AcDbEntity
  8
0
  6
Continuous
 62
     7
370
    15
100
AcDbLine
 10
2224.690540749687
 20
903.0307151638329
 30
0.0
 11
2221.690529631587
 21
903.030750363686
 31
0.0
  0
LINE
  5
5EB
330
57B
100
AcDbEntity
  8
0
  6
Continuous
 62
     7
370
    15
100
AcDbLine
 10
2224.690540749687
 20
903.0307151638329
 30
0.0
 11
2224.690544849935
 21
897.306294590272
 31
0.0
  0
SPLINE
  5
5EC
330
57B
100
AcDbEntity
  8
0
  6
Continuous
 62
     7
370
    15
100
AcDbSpline
210
0.0
220
0.0
230
1.0
 70
     8
 71
     3
 72
    10
 73
     6
 74
     0
 42
0.0000000001
 43
0.0000000001
 40
0.0
 40
0.0
 40
0.0
 40
0.0
 40
0.5
 40
0.5
 40
1.0
 40
1.0
 40
1.0
 40
1.0
 10
2224.351710179262
 20
895.3847162811053
 30
0.0
 10
2224.323423383426
 20
895.2242936205982
 30
0.0
 10
2224.237082777341
 20
895.0747472296765
 30
0.0
 10
2223.987509464752
 20
894.8653302940309
 30
0.0
 10
2223.825242147603
 20
894.8062698073938
 30
0.0
 10
2223.662344717227
 20
894.8062698073938
 30
0.0
  0
LINE
  5
5ED
330
57B
100
AcDbEntity
  8
0
  6
Continuous
 62
     7
370
    15
100
AcDbLine
 10
2212.090529631586
 20
903.3307503637015
 30
0.0
 11
2212.090529631586
 21
903.030750363686
 31
0.0
  0
LINE
  5
5EE
330
57B
100
AcDbEntity
  8
0
  6
Continuous
 62
     7
370
    15
100
AcDbLine
 10
2215.090540663734
 20
903.3307151638483
 30
0.0
 11
2212.090529631586
 21
903.3307503637015
 31
0.0
  0
LWPOLYLINE
  5
5EF
330
57B
100
AcDbEntity
  8
0
  6
Continuous
 62
     7
370
    15
100
AcDbPolyline
 90
        9
 70
   128
 43
0.0
 10
2215.090540878616
 20
903.0307151638329
 10
2215.090540779329
 20
903.0892422604301
 10
2215.090540485286
 20
903.1455201935282
 10
2215.090540007785
 20
903.1973862337201
 10
2215.090539365176
 20
903.2428471981686
 10
2215.090538582156
 20
903.2801560475059
 10
2215.090537688814
 20
903.3078790235748
 10
2215.090536719482
 20
903.3249507479531
 10
2215.090540663734
 20
903.3307151638483
  0
LINE
  5
5F0
330
57B
100
AcDbEntity
  8
0
  6
Continuous
 62
     7
370
    15
100
AcDbLine
 10
2202.490529631586
 20
903.3307503637015
 30
0.0
 11
2202.490529631586
 21
903.030750363686
 31
0.0
  0
LINE
  5
5F1
330
57B
100
AcDbEntity
  8
0
  6
Continuous
 62
     7
370
    15
100
AcDbLine
 10
2205.490540663734
 20
903.3307151638483
 30
0.0
 11
2202.490529631586
 21
903.3307503637015
 31
0.0
  0
LWPOLYLINE
  5
5F2
330
57B
100
AcDbEntity
  8
0
  6
Continuous
 62
     7
370
    15
100
AcDbPolyline
 90
        9
 70
   128
 43
0.0
 10
2205.490540878616
 20
903.0307151638329
 10
2205.490540779329
 20
903.0892422604301
 10
2205.490540485286
 20
903.1455201935282
 10
2205.490540007785
 20
903.1973862337201
 10
2205.490539365176
 20
903.2428471981686
 10
2205.490538582156
 20
903.2801560475059
 10
2205.490537688814
 20
903.3078790235748
 10
2205.490536719482
 20
903.3249507479531
 10
2205.490540663734
 20
903.3307151638483
  0
LINE
  5
5F3
330
57B
100
AcDbEntity
  8
0
  6
Continuous
 62
     7
370
    15
100
AcDbLine
 10
2221.690529631587
 20
903.3307503637015
 30
0.0
 11
2221.690529631587
 21
903.030750363686
 31
0.0
  0
LINE
  5
5F4
330
57B
100
AcDbEntity
  8
0
  6
Continuous
 62
     7
370
    15
100
AcDbLine
 10
2224.690540534805
 20
903.3307151638432
 30
0.0
 11
2221.690529631587
 21
903.3307503637015
 31
0.0
  0
LWPOLYLINE
  5
5F5
330
57B
100
AcDbEntity
  8
0
  6
Continuous
 62
     7
370
    15
100
AcDbPolyline
 90
        9
 70
   128
 43
0.0
 10
2224.690540749687
 20
903.0307151638329
 10
2224.690540652878
 20
903.0892422604297
 10
2224.690540366171
 20
903.1455201935276
 10
2224.690539900584
 20
903.1973862337192
 10
2224.69053927401
 20
903.2428471981674
 10
2224.690538510527
 20
903.2801560475041
 10
2224.690537639474
 20
903.3078790235725
 10
2224.690536694329
 20
903.3249507479501
 10
2224.690540534805
 20
903.3307151638432
  0
LINE
  5
5F6
330
57B
100
AcDbEntity
  8
0
  6
Continuous
 62
     7
370
    15
100
AcDbLine
 10
2192.890529631586
 20
903.3307503637015
 30
0.0
 11
2192.890529631586
 21
903.030750363686
 31
0.0
  0
LINE
  5
5F7
330
57B
100
AcDbEntity
  8
0
  6
Continuous
 62
     7
370
    15
100
AcDbLine
 10
2195.890540663734
 20
903.3307151638483
 30
0.0
 11
2192.890529631586
 21
903.3307503637015
 31
0.0
  0
LWPOLYLINE
  5
5F8
330
57B
100
AcDbEntity
  8
0
  6
Continuous
 62
     7
370
    15
100
AcDbPolyline
 90
        9
 70
   128
 43
0.0
 10
2195.890540878616
 20
903.0307151638329
 10
2195.89054077933
 20
903.0892422604301
 10
2195.890540485286
 20
903.1455201935282
 10
2195.890540007785
 20
903.1973862337201
 10
2195.890539365176
 20
903.2428471981686
 10
2195.890538582156
 20
903.2801560475059
 10
2195.890537688814
 20
903.3078790235748
 10
2195.890536719482
 20
903.3249507479531
 10
2195.890540663734
 20
903.3307151638483
  0
LWPOLYLINE
  5
5F9
330
57B
100
AcDbEntity
  8
0
  6
Continuous
 62
     7
370
    15
100
AcDbPolyline
 90
        9
 70
   128
 43
0.0
 10
2221.690534430514
 20
903.6307503636603
 10
2221.690534435288
 20
903.5722232670563
 10
2221.690534439877
 20
903.5159453339526
 10
2221.690534444107
 20
903.4640792937571
 10
2221.690534447815
 20
903.4186183293078
 10
2221.690534450858
 20
903.3813094799738
 10
2221.690534453119
 20
903.3535865039118
 10
2221.690534454511
 20
903.3365147795448
 10
2221.690532043284
 20
903.3307503636731
  0
LINE
  5
5FA
330
57B
100
AcDbEntity
  8
0
  6
Continuous
 62
     7
370
    15
100
AcDbLine
 10
2224.690540427364
 20
903.6307151638187
 30
0.0
 11
2221.690534430514
 21
903.6307503636603
 31
0.0
  0
LWPOLYLINE
  5
5FB
330
57B
100
AcDbEntity
  8
0
  6
Continuous
 62
     7
370
    15
100
AcDbPolyline
 90
        9
 70
   128
 43
0.0
 10
2224.690540427364
 20
903.6307151638187
 10
2224.690540467221
 20
903.572188067214
 10
2224.690540501417
 20
903.5159101341093
 10
2224.690540528639
 20
903.4640440939133
 10
2224.69054054784
 20
903.4185831294635
 10
2224.690540558282
 20
903.3812742801288
 10
2224.690540559564
 20
903.3535513040664
 10
2224.690540551637
 20
903.3364795796991
 10
2224.690538123107
 20
903.3307151638252
  0
LWPOLYLINE
  5
5FC
330
57B
100
AcDbEntity
  8
0
  6
Continuous
 62
     7
370
    15
100
AcDbPolyline
 90
        9
 70
   128
 43
0.0
 10
2192.890534430514
 20
903.6307503636603
 10
2192.890534435287
 20
903.5722232670563
 10
2192.890534439877
 20
903.5159453339526
 10
2192.890534444107
 20
903.4640792937571
 10
2192.890534447815
 20
903.4186183293078
 10
2192.890534450858
 20
903.3813094799738
 10
2192.890534453119
 20
903.3535865039118
 10
2192.890534454511
 20
903.3365147795448
 10
2192.890532043284
 20
903.3307503636731
  0
LINE
  5
5FD
330
57B
100
AcDbEntity
  8
0
  6
Continuous
 62
     7
370
    15
100
AcDbLine
 10
2195.890540427364
 20
903.6307151638187
 30
0.0
 11
2192.890534430514
 21
903.6307503636603
 31
0.0
  0
LWPOLYLINE
  5
5FE
330
57B
100
AcDbEntity
  8
0
  6
Continuous
 62
     7
370
    15
100
AcDbPolyline
 90
        9
 70
   128
 43
0.0
 10
2195.890540427364
 20
903.6307151638187
 10
2195.890540467221
 20
903.5721880672141
 10
2195.890540501417
 20
903.5159101341095
 10
2195.890540528639
 20
903.4640440939135
 10
2195.890540547839
 20
903.4185831294639
 10
2195.890540558282
 20
903.3812742801291
 10
2195.890540559564
 20
903.3535513040666
 10
2195.890540551637
 20
903.3364795796993
 10
2195.890540663734
 20
903.3307151638252
  0
LWPOLYLINE
  5
5FF
330
57B
100
AcDbEntity
  8
0
  6
Continuous
 62
     7
370
    15
100
AcDbPolyline
 90
        9
 70
   128
 43
0.0
 10
2212.090534430514
 20
903.6307503636603
 10
2212.090534435287
 20
903.5722232670563
 10
2212.090534439878
 20
903.5159453339526
 10
2212.090534444107
 20
903.4640792937571
 10
2212.090534447815
 20
903.4186183293078
 10
2212.090534450858
 20
903.3813094799738
 10
2212.090534453119
 20
903.3535865039118
 10
2212.090534454512
 20
903.3365147795448
 10
2212.090532043284
 20
903.3307503636731
  0
LINE
  5
600
330
57B
100
AcDbEntity
  8
0
  6
Continuous
 62
     7
370
    15
100
AcDbLine
 10
2215.090540427364
 20
903.6307151638187
 30
0.0
 11
2212.090534430514
 21
903.6307503636603
 31
0.0
  0
LWPOLYLINE
  5
601
330
57B
100
AcDbEntity
  8
0
  6
Continuous
 62
     7
370
    15
100
AcDbPolyline
 90
        9
 70
   128
 43
0.0
 10
2215.090540427364
 20
903.6307151638187
 10
2215.090540467221
 20
903.5721880672141
 10
2215.090540501417
 20
903.5159101341095
 10
2215.090540528639
 20
903.4640440939135
 10
2215.09054054784
 20
903.4185831294639
 10
2215.090540558282
 20
903.3812742801291
 10
2215.090540559564
 20
903.3535513040666
 10
2215.090540551637
 20
903.3364795796993
 10
2215.090540663734
 20
903.3307151638252
  0
LWPOLYLINE
  5
602
330
57B
100
AcDbEntity
  8
0
  6
Continuous
 62
     7
370
    15
100
AcDbPolyline
 90
        9
 70
   128
 43
0.0
 10
2202.490534430514
 20
903.6307503636603
 10
2202.490534435288
 20
903.5722232670563
 10
2202.490534439877
 20
903.5159453339526
 10
2202.490534444107
 20
903.4640792937571
 10
2202.490534447815
 20
903.4186183293078
 10
2202.490534450858
 20
903.3813094799738
 10
2202.490534453119
 20
903.3535865039118
 10
2202.490534454511
 20
903.3365147795448
 10
2202.490532043284
 20
903.3307503636731
  0
LINE
  5
603
330
57B
100
AcDbEntity
  8
0
  6
Continuous
 62
     7
370
    15
100
AcDbLine
 10
2205.490540427364
 20
903.6307151638187
 30
0.0
 11
2202.490534430514
 21
903.6307503636603
 31
0.0
  0
LWPOLYLINE
  5
604
330
57B
100
AcDbEntity
  8
0
  6
Continuous
 62
     7
370
    15
100
AcDbPolyline
 90
        9
 70
   128
 43
0.0
 10
2205.490540427364
 20
903.6307151638187
 10
2205.490540467221
 20
903.5721880672141
 10
2205.490540501418
 20
903.5159101341095
 10
2205.490540528639
 20
903.4640440939135
 10
2205.490540547839
 20
903.4185831294639
 10
2205.490540558282
 20
903.3812742801291
 10
2205.490540559564
 20
903.3535513040666
 10
2205.490540551636
 20
903.3364795796993
 10
2205.490540663734
 20
903.3307151638252
  0
LINE
  5
605
330
57B
100
AcDbEntity
  8
0
  6
Continuous
 62
     7
370
    15
100
AcDbLine
 10
2202.490534430514
 20
903.6307503636603
 30
0.0
 11
2202.490534430514
 21
910.4672604573293
 31
0.0
  0
LINE
  5
606
330
57B
100
AcDbEntity
  8
0
  6
Continuous
 62
     7
370
    15
100
AcDbLine
 10
2205.490540534805
 20
910.4672604573293
 30
0.0
 11
2205.490540427364
 21
903.6307151638187
 31
0.0
  0
LINE
  5
607
330
57B
100
AcDbEntity
  8
0
  6
Continuous
 62
     7
370
    15
100
AcDbLine
 10
2192.890534430514
 20
903.6307503636603
 30
0.0
 11
2192.890534430514
 21
910.4672604573293
 31
0.0
  0
LINE
  5
608
330
57B
100
AcDbEntity
  8
0
  6
Continuous
 62
     7
370
    15
100
AcDbLine
 10
2195.890540534805
 20
910.4672604573293
 30
0.0
 11
2195.890540427364
 21
903.6307151638187
 31
0.0
  0
LINE
  5
609
330
57B
100
AcDbEntity
  8
0
  6
Continuous
 62
     7
370
    15
100
AcDbLine
 10
2212.090534430514
 20
903.6307503636603
 30
0.0
 11
2212.090534430514
 21
910.4672604573293
 31
0.0
  0
LINE
  5
60A
330
57B
100
AcDbEntity
  8
0
  6
Continuous
 62
     7
370
    15
100
AcDbLine
 10
2215.090540534805
 20
910.4672604573293
 30
0.0
 11
2215.090540427364
 21
903.6307151638187
 31
0.0
  0
LINE
  5
60B
330
57B
100
AcDbEntity
  8
0
  6
Continuous
 62
     7
370
    15
100
AcDbLine
 10
2221.690534430514
 20
903.6307503636603
 30
0.0
 11
2221.690534430514
 21
910.4672604573293
 31
0.0
  0
LINE
  5
60C
330
57B
100
AcDbEntity
  8
0
  6
Continuous
 62
     7
370
    15
100
AcDbLine
 10
2224.690540534805
 20
910.4672604573293
 30
0.0
 11
2224.690540427364
 21
903.6307151638187
 31
0.0
  0
ENDBLK
  5
57D
330
57B
100
AcDbEntity
  8
0
100
AcDbBlockEnd
  0
BLOCK
  5
60F
330
60E
100
AcDbEntity
  8
0
100
AcDbBlockBegin
  2
2
 70
     0
 10
0.0
 20
0.0
 30
0.0
  3
2
  1

  0
LINE
  5
611
330
60E
100
AcDbEntity
  8
0
  6
Continuous
 62
     7
370
    15
100
AcDbLine
 10
2177.567421311513
 20
923.7658545282318
 30
0.0
 11
2177.567421311513
 21
917.1692368963194
 31
0.0
  0
LINE
  5
612
330
60E
100
AcDbEntity
  8
0
  6
Continuous
 62
     7
370
    15
100
AcDbLine
 10
2177.567421311513
 20
917.1692368963194
 30
0.0
 11
2174.567421311513
 21
917.1692368963194
 31
0.0
  0
LINE
  5
613
330
60E
100
AcDbEntity
  8
0
  6
Continuous
 62
     7
370
    15
100
AcDbLine
 10
2174.567421311513
 20
923.7658545282318
 30
0.0
 11
2174.567421311513
 21
917.1692368963194
 31
0.0
  0
LINE
  5
614
330
60E
100
AcDbEntity
  8
0
  6
Continuous
 62
     7
370
    15
100
AcDbLine
 10
2178.317421311513
 20
923.7658545282318
 30
0.0
 11
2177.567421311513
 21
923.7658545282318
 31
0.0
  0
LINE
  5
615
330
60E
100
AcDbEntity
  8
0
  6
Continuous
 62
     7
370
    15
100
AcDbLine
 10
2178.317421311513
 20
923.7658545282318
 30
0.0
 11
2178.317421311513
 21
924.9658545282317
 31
0.0
  0
LINE
  5
616
330
60E
100
AcDbEntity
  8
0
  6
Continuous
 62
     7
370
    15
100
AcDbLine
 10
2173.817421311513
 20
924.9658545282317
 30
0.0
 11
2178.317421311513
 21
924.9658545282317
 31
0.0
  0
LINE
  5
617
330
60E
100
AcDbEntity
  8
0
  6
Continuous
 62
     7
370
    15
100
AcDbLine
 10
2173.817421311513
 20
923.7658545282318
 30
0.0
 11
2173.817421311513
 21
924.9658545282317
 31
0.0
  0
LINE
  5
618
330
60E
100
AcDbEntity
  8
0
  6
Continuous
 62
     7
370
    15
100
AcDbLine
 10
2174.567421311513
 20
923.7658545282318
 30
0.0
 11
2173.817421311513
 21
923.7658545282318
 31
0.0
  0
LINE
  5
619
330
60E
100
AcDbEntity
  8
0
  6
Continuous
 62
     7
370
    15
100
AcDbLine
 10
2177.567421311513
 20
913.6158452021538
 30
0.0
 11
2174.567421311513
 21
913.6158452021538
 31
0.0
  0
LINE
  5
61A
330
60E
100
AcDbEntity
  8
0
  6
Continuous
 62
     7
370
    15
100
AcDbLine
 10
2174.567421311513
 20
913.2622857680873
 30
0.0
 11
2177.567421311513
 21
913.2622857680873
 31
0.0
  0
LINE
  5
61B
330
60E
100
AcDbEntity
  8
0
  6
Continuous
 62
     7
370
    15
100
AcDbLine
 10
2174.567421311513
 20
913.6158452021538
 30
0.0
 11
2174.567421311513
 21
913.2622857680873
 31
0.0
  0
LINE
  5
61C
330
60E
100
AcDbEntity
  8
0
  6
Continuous
 62
     7
370
    15
100
AcDbLine
 10
2177.567421311513
 20
913.6158452021538
 30
0.0
 11
2177.567421311513
 21
913.2622857680873
 31
0.0
  0
LINE
  5
61D
330
60E
100
AcDbEntity
  8
0
  6
Continuous
 62
     7
370
    15
100
AcDbLine
 10
2174.567421311513
 20
917.1692368963194
 30
0.0
 11
2174.567421311513
 21
913.6158452021538
 31
0.0
  0
LINE
  5
61E
330
60E
100
AcDbEntity
  8
0
  6
Continuous
 62
     7
370
    15
100
AcDbLine
 10
2177.567421311513
 20
917.1692368963194
 30
0.0
 11
2177.567421311513
 21
913.6158452021538
 31
0.0
  0
LINE
  5
61F
330
60E
100
AcDbEntity
  8
0
  6
Continuous
 62
     7
370
    15
100
AcDbLine
 10
2174.567421311513
 20
913.2051867774471
 30
0.0
 11
2177.567421311513
 21
913.2051867774471
 31
0.0
  0
LINE
  5
620
330
60E
100
AcDbEntity
  8
0
  6
Continuous
 62
     7
370
    15
100
AcDbLine
 10
2174.567421311513
 20
913.2051867774471
 30
0.0
 11
2174.567421311513
 21
913.2622857680873
 31
0.0
  0
LINE
  5
621
330
60E
100
AcDbEntity
  8
0
  6
Continuous
 62
     7
370
    15
100
AcDbLine
 10
2177.567421311513
 20
913.2622857680873
 30
0.0
 11
2177.567421311513
 21
913.2051867774471
 31
0.0
  0
LINE
  5
622
330
60E
100
AcDbEntity
  8
0
  6
Continuous
 62
     7
370
    15
100
AcDbLine
 10
2174.567421311513
 20
912.8516281726025
 30
0.0
 11
2177.567421311513
 21
912.8516278552984
 31
0.0
  0
LINE
  5
623
330
60E
100
AcDbEntity
  8
0
  6
Continuous
 62
     7
370
    15
100
AcDbLine
 10
2174.567421311513
 20
912.8516281726025
 30
0.0
 11
2174.567421311513
 21
913.2051867774471
 31
0.0
  0
LINE
  5
624
330
60E
100
AcDbEntity
  8
0
  6
Continuous
 62
     7
370
    15
100
AcDbLine
 10
2177.567421311513
 20
913.2051867774471
 30
0.0
 11
2177.567421311513
 21
912.8516278552984
 31
0.0
  0
LINE
  5
625
330
60E
100
AcDbEntity
  8
0
  6
Continuous
 62
     7
370
    15
100
AcDbLine
 10
2177.567421311513
 20
910.8372589314505
 30
0.0
 11
2174.567421311513
 21
910.8372589314505
 31
0.0
  0
LINE
  5
626
330
60E
100
AcDbEntity
  8
0
  6
Continuous
 62
     7
370
    15
100
AcDbLine
 10
2174.567421311513
 20
912.8516281726025
 30
0.0
 11
2174.567421311513
 21
910.8372563747829
 31
0.0
  0
LINE
  5
627
330
60E
100
AcDbEntity
  8
0
  6
Continuous
 62
     7
370
    15
100
AcDbLine
 10
2177.567421311513
 20
912.8516278552984
 30
0.0
 11
2177.567421311513
 21
910.8372589314505
 31
0.0
  0
LINE
  5
628
330
60E
100
AcDbEntity
  8
0
  6
Continuous
 62
     7
370
    15
100
AcDbLine
 10
2177.567421311513
 20
910.4672604573293
 30
0.0
 11
2174.567421311513
 21
910.4672604573293
 31
0.0
  0
LINE
  5
629
330
60E
100
AcDbEntity
  8
0
  6
Continuous
 62
     7
370
    15
100
AcDbLine
 10
2174.567421311513
 20
910.4672604573293
 30
0.0
 11
2174.567421311513
 21
910.8372580792277
 31
0.0
  0
LINE
  5
62A
330
60E
100
AcDbEntity
  8
0
  6
Continuous
 62
     7
370
    15
100
AcDbLine
 10
2177.567421311513
 20
910.8372589314503
 30
0.0
 11
2177.567421311513
 21
910.4672604573293
 31
0.0
  0
LINE
  5
62B
330
60E
100
AcDbEntity
  8
0
  6
Continuous
 62
     7
370
    15
100
AcDbLine
 10
2177.067415207997
 20
903.3307151638586
 30
0.0
 11
2177.115219992772
 21
903.3307151638393
 31
0.0
  0
ARC
  5
62C
330
60E
100
AcDbEntity
  8
0
  6
Continuous
 62
     7
370
    15
100
AcDbCircle
 10
2177.115219992772
 20
903.0307151638329
 30
0.0
 40
0.3000000000474343
100
AcDbArc
 50
0.0009622400083525
 51
89.99999999997395
  0
LINE
  5
62D
330
60E
100
AcDbEntity
  8
0
  6
Continuous
 62
     7
370
    15
100
AcDbLine
 10
2177.415219992772
 20
897.3062945902707
 30
0.0
 11
2177.415219992777
 21
903.030715163838
 31
0.0
  0
LINE
  5
62E
330
60E
100
AcDbEntity
  8
0
  6
Continuous
 62
     7
370
    15
100
AcDbLine
 10
2174.719616526738
 20
897.3062945902704
 30
0.0
 11
2177.415219992772
 21
897.3062945902704
 31
0.0
  0
LINE
  5
62F
330
60E
100
AcDbEntity
  8
0
  6
Continuous
 62
     7
370
    15
100
AcDbLine
 10
2174.719616526727
 20
903.0307151638329
 30
0.0
 11
2174.719616526738
 21
897.306294590272
 31
0.0
  0
ARC
  5
630
330
60E
100
AcDbEntity
  8
0
  6
Continuous
 62
     7
370
    15
100
AcDbCircle
 10
2175.019616526737
 20
903.0307151638329
 30
0.0
 40
0.3000000000526071
100
AcDbArc
 50
90.0
 51
179.9990377599916
  0
LINE
  5
631
330
60E
100
AcDbEntity
  8
0
  6
Continuous
 62
     7
370
    15
100
AcDbLine
 10
2175.019616526737
 20
903.3307151638432
 30
0.0
 11
2175.067421311513
 21
903.3307151638252
 31
0.0
  0
ARC
  5
632
330
60E
100
AcDbEntity
  8
0
  6
Continuous
 62
     7
370
    15
100
AcDbCircle
 10
2175.067421311513
 20
903.6307151638199
 30
0.0
 40
0.3000000000029104
100
AcDbArc
 50
270.0
 51
359.9999794802508
  0
LINE
  5
633
330
60E
100
AcDbEntity
  8
0
  6
Continuous
 62
     7
370
    15
100
AcDbLine
 10
2175.367421311512
 20
910.4672604573293
 30
0.0
 11
2175.367421311512
 21
903.6307151638187
 31
0.0
  0
LINE
  5
634
330
60E
100
AcDbEntity
  8
0
  6
Continuous
 62
     7
370
    15
100
AcDbLine
 10
2176.767415207983
 20
903.6307151638471
 30
0.0
 11
2176.767415207997
 21
910.4672604573293
 31
0.0
  0
ARC
  5
635
330
60E
100
AcDbEntity
  8
0
  6
Continuous
 62
     7
370
    15
100
AcDbCircle
 10
2177.067415207997
 20
903.6307151638741
 30
0.0
 40
0.3000000000543049
100
AcDbArc
 50
180.0008801611743
 51
270.0
  0
LINE
  5
636
330
60E
100
AcDbEntity
  8
0
  6
Continuous
 62
     7
370
    15
100
AcDbLine
 10
2177.415219992772
 20
895.3847162811053
 30
0.0
 11
2174.719616526738
 21
895.3847162811053
 31
0.0
  0
LINE
  5
637
330
60E
100
AcDbEntity
  8
0
  6
Continuous
 62
     7
370
    15
100
AcDbLine
 10
2174.719616526738
 20
895.3847162811053
 30
0.0
 11
2174.719616526738
 21
897.3062945902704
 31
0.0
  0
LINE
  5
638
330
60E
100
AcDbEntity
  8
0
  6
Continuous
 62
     7
370
    15
100
AcDbLine
 10
2177.415219992772
 20
897.3062945902707
 30
0.0
 11
2177.415219992772
 21
895.3847162811053
 31
0.0
  0
LINE
  5
639
330
60E
100
AcDbEntity
  8
0
  6
Continuous
 62
     7
370
    15
100
AcDbLine
 10
2174.167421311512
 20
915.0658545282317
 30
0.0
 11
2174.567421311513
 21
913.7658545282318
 31
0.0
  0
LINE
  5
63A
330
60E
100
AcDbEntity
  8
0
  6
Continuous
 62
     7
370
    15
100
AcDbLine
 10
2174.567421311513
 20
915.0658545282317
 30
0.0
 11
2174.167421311512
 21
915.0658545282317
 31
0.0
  0
LINE
  5
63B
330
60E
100
AcDbEntity
  8
0
  6
Continuous
 62
     7
370
    15
100
AcDbLine
 10
2177.567421311513
 20
913.7658545282318
 30
0.0
 11
2177.967421311512
 21
915.0658545282317
 31
0.0
  0
LINE
  5
63C
330
60E
100
AcDbEntity
  8
0
  6
Continuous
 62
     7
370
    15
100
AcDbLine
 10
2177.967421311512
 20
915.0658545282317
 30
0.0
 11
2177.567421311513
 21
915.0658545282317
 31
0.0
  0
LINE
  5
63D
330
60E
100
AcDbEntity
  8
0
  6
Continuous
 62
     7
370
    15
100
AcDbLine
 10
2175.067421311513
 20
903.3307151638252
 30
0.0
 11
2175.067421311513
 21
903.3307503636731
 31
0.0
  0
ARC
  5
63E
330
60E
100
AcDbEntity
  8
0
  6
Continuous
 62
     7
370
    15
100
AcDbCircle
 10
2175.067421311513
 20
903.6307503636658
 30
0.0
 40
0.3000000000021483
100
AcDbArc
 50
270.0
 51
359.9999999989773
  0
LINE
  5
63F
330
60E
100
AcDbEntity
  8
0
  6
Continuous
 62
     7
370
    15
100
AcDbLine
 10
2175.067421311513
 20
903.3307503636731
 30
0.0
 11
2175.019616526737
 21
903.3307503637015
 31
0.0
  0
LINE
  5
640
330
60E
100
AcDbEntity
  8
0
  6
Continuous
 62
     7
370
    15
100
AcDbLine
 10
2175.019616526737
 20
903.3307151638432
 30
0.0
 11
2175.019616526737
 21
903.3307503637015
 31
0.0
  0
ARC
  5
641
330
60E
100
AcDbEntity
  8
0
  6
Continuous
 62
     7
370
    15
100
AcDbCircle
 10
2177.067415207997
 20
903.6307503636658
 30
0.0
 40
0.3000000000021483
100
AcDbArc
 50
179.9999480024674
 51
270.0
  0
LINE
  5
642
330
60E
100
AcDbEntity
  8
0
  6
Continuous
 62
     7
370
    15
100
AcDbLine
 10
2177.067415207997
 20
903.3307503636731
 30
0.0
 11
2177.067415207997
 21
903.3307151638586
 31
0.0
  0
LINE
  5
643
330
60E
100
AcDbEntity
  8
0
  6
Continuous
 62
     7
370
    15
100
AcDbLine
 10
2177.115219992772
 20
903.3307503637015
 30
0.0
 11
2177.067415207997
 21
903.3307503636731
 31
0.0
  0
LINE
  5
644
330
60E
100
AcDbEntity
  8
0
  6
Continuous
 62
     7
370
    15
100
AcDbLine
 10
2177.115219992772
 20
903.3307503637015
 30
0.0
 11
2177.115219992772
 21
903.3307151638393
 31
0.0
  0
ARC
  5
645
330
60E
100
AcDbEntity
  8
0
  6
Continuous
 62
     7
370
    15
100
AcDbCircle
 10
2177.115219992772
 20
903.0307503636807
 30
0.0
 40
0.3000000000206171
100
AcDbArc
 50
0.0000000000195413
 51
90.0
  0
LINE
  5
646
330
60E
100
AcDbEntity
  8
0
  6
Continuous
 62
     7
370
    15
100
AcDbLine
 10
2177.415219992772
 20
903.0307503636809
 30
0.0
 11
2177.415219992777
 21
903.030715163838
 31
0.0
  0
ARC
  5
647
330
60E
100
AcDbEntity
  8
0
  6
Continuous
 62
     7
370
    15
100
AcDbCircle
 10
2175.019616526737
 20
903.0307503636807
 30
0.0
 40
0.3000000000207308
100
AcDbArc
 50
90.0
 51
179.9999999990034
  0
LINE
  5
648
330
60E
100
AcDbEntity
  8
0
  6
Continuous
 62
     7
370
    15
100
AcDbLine
 10
2174.719616526727
 20
903.0307151638329
 30
0.0
 11
2174.719616526738
 21
903.030750363686
 31
0.0
  0
LINE
  5
649
330
60E
100
AcDbEntity
  8
0
  6
Continuous
 62
     7
370
    15
100
AcDbLine
 10
2174.719616526738
 20
894.8062698073938
 30
0.0
 11
2177.415219992772
 21
894.8062698073938
 31
0.0
  0
SPLINE
  5
64A
330
60E
100
AcDbEntity
  8
0
  6
Continuous
 62
     7
370
    15
100
AcDbSpline
210
0.0
220
0.0
230
1.0
 70
    24
 71
     3
 72
    10
 73
     6
 74
     0
 42
0.0000000001
 43
0.0000000001
 40
0.0
 40
0.0
 40
0.0
 40
0.0
 40
0.5
 40
0.5
 40
1.0
 40
1.0
 40
1.0
 40
1.0
 10
2174.719616526738
 20
895.3847162811053
 30
0.0
 10
2174.719616526738
 20
895.2242936205982
 30
0.0
 10
2174.719616526738
 20
895.0747472296765
 30
0.0
 10
2174.719616526738
 20
894.8653302940309
 30
0.0
 10
2174.719616526738
 20
894.8062698073938
 30
0.0
 10
2174.719616526738
 20
894.8062698073938
 30
0.0
  0
SPLINE
  5
64B
330
60E
100
AcDbEntity
  8
0
  6
Continuous
 62
     7
370
    15
100
AcDbSpline
210
0.0
220
0.0
230
1.0
 70
    24
 71
     3
 72
    10
 73
     6
 74
     0
 42
0.0000000001
 43
0.0000000001
 40
0.0
 40
0.0
 40
0.0
 40
0.0
 40
0.5
 40
0.5
 40
1.0
 40
1.0
 40
1.0
 40
1.0
 10
2177.415219992772
 20
894.8062698073938
 30
0.0
 10
2177.415219992772
 20
894.8062698073938
 30
0.0
 10
2177.415219992772
 20
894.8653302940313
 30
0.0
 10
2177.415219992772
 20
895.0747472296761
 30
0.0
 10
2177.415219992772
 20
895.2242936205982
 30
0.0
 10
2177.415219992772
 20
895.3847162811053
 30
0.0
  0
ENDBLK
  5
610
330
60E
100
AcDbEntity
  8
0
100
AcDbBlockEnd
  0
BLOCK
  5
64E
330
64D
100
AcDbEntity
  8
0
100
AcDbBlockBegin
  2
3
 70
     0
 10
0.0
 20
0.0
 30
0.0
  3
3
  1

  0
LINE
  5
650
330
64D
100
AcDbEntity
  8
0
  6
Continuous
 62
     7
370
    15
100
AcDbLine
 10
2227.590560652496
 20
876.3902806063532
 30
0.0
 11
2189.990566422226
 21
876.3902806063532
 31
0.0
  0
LINE
  5
651
330
64D
100
AcDbEntity
  8
0
  6
Continuous
 62
     7
370
    15
100
AcDbLine
 10
2189.990566422226
 20
880.8902806063532
 30
0.0
 11
2189.990566422226
 21
876.3902806063532
 31
0.0
  0
LINE
  5
652
330
64D
100
AcDbEntity
  8
0
  6
Continuous
 62
     7
370
    15
100
AcDbLine
 10
2189.990566422226
 20
880.8902806063532
 30
0.0
 11
2227.590560652496
 21
880.8902806063532
 31
0.0
  0
LINE
  5
653
330
64D
100
AcDbEntity
  8
0
  6
Continuous
 62
     7
370
    15
100
AcDbLine
 10
2227.590560652496
 20
876.3902806063532
 30
0.0
 11
2227.590560652496
 21
880.8902806063532
 31
0.0
  0
ENDBLK
  5
64F
330
64D
100
AcDbEntity
  8
0
100
AcDbBlockEnd
  0
BLOCK
  5
656
330
655
100
AcDbEntity
  8
0
100
AcDbBlockBegin
  2
4
 70
     0
 10
0.0
 20
0.0
 30
0.0
  3
4
  1

  0
LINE
  5
658
330
655
100
AcDbEntity
  8
0
  6
Continuous
 62
     7
370
    15
100
AcDbLine
 10
2278.02271194249
 20
894.2897935864413
 30
0.0
 11
2277.626791389256
 21
894.518359021166
 31
0.0
  0
LINE
  5
659
330
655
100
AcDbEntity
  8
0
  6
Continuous
 62
     7
370
    15
100
AcDbLine
 10
2275.79993876166
 20
886.7205246845909
 30
0.0
 11
2277.709553785788
 21
887.8229219728343
 31
0.0
  0
LINE
  5
65A
330
655
100
AcDbEntity
  8
0
  6
Continuous
 62
     7
370
    15
100
AcDbLine
 10
2271.234486843099
 20
898.2085525231903
 30
0.0
 11
2270.838566289875
 21
898.4371179579095
 31
0.0
  0
LINE
  5
65B
330
655
100
AcDbEntity
  8
0
  6
Continuous
 62
     7
370
    15
100
AcDbLine
 10
2269.011713662269
 20
890.6392836213399
 30
0.0
 11
2270.921328686398
 21
891.7416809095833
 31
0.0
  0
LINE
  5
65C
330
655
100
AcDbEntity
  8
0
  6
Continuous
 62
     7
370
    15
100
AcDbLine
 10
2264.446261743708
 20
902.1273114599393
 30
0.0
 11
2264.050341190484
 21
902.3558768946585
 31
0.0
  0
LINE
  5
65D
330
655
100
AcDbEntity
  8
0
  6
Continuous
 62
     7
370
    15
100
AcDbLine
 10
2262.223488562878
 20
894.5580425580891
 30
0.0
 11
2264.133103587007
 21
895.6604398463323
 31
0.0
  0
LINE
  5
65E
330
655
100
AcDbEntity
  8
0
  6
Continuous
 62
     7
370
    15
100
AcDbLine
 10
2257.658036644317
 20
906.0460703966885
 30
0.0
 11
2257.262116091093
 21
906.2746358314075
 31
0.0
  0
LINE
  5
65F
330
655
100
AcDbEntity
  8
0
  6
Continuous
 62
     7
370
    15
100
AcDbLine
 10
2255.435263463487
 20
898.4768014948381
 30
0.0
 11
2257.344878487616
 21
899.5791987830815
 31
0.0
  0
LINE
  5
660
330
655
100
AcDbEntity
  8
0
  6
Continuous
 62
     7
370
    15
100
AcDbLine
 10
2277.591454743344
 20
909.4109392008164
 30
0.0
 11
2251.004243850545
 21
924.7594093478564
 31
0.0
  0
LINE
  5
661
330
655
100
AcDbEntity
  8
0
  6
Continuous
 62
     7
370
    15
100
AcDbLine
 10
2254.186224365884
 20
926.5963275994575
 30
0.0
 11
2251.004243850545
 21
924.7594093478564
 31
0.0
  0
LINE
  5
662
330
655
100
AcDbEntity
  8
0
  6
Continuous
 62
     7
370
    15
100
AcDbLine
 10
2254.186224365884
 20
926.5963275994575
 30
0.0
 11
2280.773435258683
 21
911.2478574524175
 31
0.0
  0
LINE
  5
663
330
655
100
AcDbEntity
  8
0
  6
Continuous
 62
     7
370
    15
100
AcDbLine
 10
2277.591454743344
 20
909.4109392008164
 30
0.0
 11
2280.773435258683
 21
911.2478574524175
 31
0.0
  0
LINE
  5
664
330
655
100
AcDbEntity
  8
0
  6
Continuous
 62
     7
370
    15
100
AcDbLine
 10
2277.591454743344
 20
908.4310902265535
 30
0.0
 11
2277.591454743344
 21
909.4109392008164
 31
0.0
  0
LINE
  5
665
330
655
100
AcDbEntity
  8
0
  6
Continuous
 62
     7
370
    15
100
AcDbLine
 10
2277.591454743344
 20
908.4310902265535
 30
0.0
 11
2251.004243850545
 21
923.7795603735936
 31
0.0
  0
LINE
  5
666
330
655
100
AcDbEntity
  8
0
  6
Continuous
 62
     7
370
    15
100
AcDbLine
 10
2251.004243850545
 20
924.7594093478564
 30
0.0
 11
2251.004243850545
 21
923.7795603735936
 31
0.0
  0
LINE
  5
667
330
655
100
AcDbEntity
  8
0
  6
Continuous
 62
     7
370
    15
100
AcDbLine
 10
2280.243105172794
 20
909.9618554362212
 30
0.0
 11
2280.243105172794
 21
904.5754479193597
 31
0.0
  0
LINE
  5
668
330
655
100
AcDbEntity
  8
0
  6
Continuous
 62
     7
370
    15
100
AcDbLine
 10
2280.243105172794
 20
904.5754479193597
 30
0.0
 11
2278.121784829234
 21
903.3508357516257
 31
0.0
  0
LINE
  5
669
330
655
100
AcDbEntity
  8
0
  6
Continuous
 62
     7
370
    15
100
AcDbLine
 10
2278.121784829234
 20
908.7372432684871
 30
0.0
 11
2278.121784829234
 21
903.3508357516257
 31
0.0
  0
LINE
  5
66A
330
655
100
AcDbEntity
  8
0
  6
Continuous
 62
     7
370
    15
100
AcDbLine
 10
2278.121784829234
 20
908.7372432684871
 30
0.0
 11
2277.591454743344
 21
908.4310902265535
 31
0.0
  0
LINE
  5
66B
330
655
100
AcDbEntity
  8
0
  6
Continuous
 62
     7
370
    15
100
AcDbLine
 10
2280.773435258683
 20
910.2680084781546
 30
0.0
 11
2280.773435258683
 21
911.2478574524175
 31
0.0
  0
LINE
  5
66C
330
655
100
AcDbEntity
  8
0
  6
Continuous
 62
     7
370
    15
100
AcDbLine
 10
2280.773435258683
 20
910.2680084781546
 30
0.0
 11
2280.243105172794
 21
909.9618554362212
 31
0.0
  0
LINE
  5
66D
330
655
100
AcDbEntity
  8
0
  6
Continuous
 62
     7
370
    15
100
AcDbLine
 10
2255.706501905528
 20
913.511902544406
 30
0.0
 11
2255.706501905528
 21
914.5734055998575
 31
0.0
  0
LINE
  5
66E
330
655
100
AcDbEntity
  8
0
  6
Continuous
 62
     7
370
    15
100
AcDbLine
 10
2253.585181561969
 20
915.7980177675915
 30
0.0
 11
2255.706501905528
 21
914.5734055998575
 31
0.0
  0
LINE
  5
66F
330
655
100
AcDbEntity
  8
0
  6
Continuous
 62
     7
370
    15
100
AcDbLine
 10
2253.585181561969
 20
914.73651471214
 30
0.0
 11
2255.706501905528
 21
913.511902544406
 31
0.0
  0
LINE
  5
670
330
655
100
AcDbEntity
  8
0
  6
Continuous
 62
     7
370
    15
100
AcDbLine
 10
2276.0711772037
 20
901.7556257341588
 30
0.0
 11
2276.0711772037
 21
902.8171287896103
 31
0.0
  0
LINE
  5
671
330
655
100
AcDbEntity
  8
0
  6
Continuous
 62
     7
370
    15
100
AcDbLine
 10
2273.949856860141
 20
904.0417409573443
 30
0.0
 11
2276.0711772037
 21
902.8171287896103
 31
0.0
  0
LINE
  5
672
330
655
100
AcDbEntity
  8
0
  6
Continuous
 62
     7
370
    15
100
AcDbLine
 10
2273.949856860141
 20
902.980237901893
 30
0.0
 11
2276.0711772037
 21
901.7556257341588
 31
0.0
  0
LINE
  5
673
330
655
100
AcDbEntity
  8
0
  6
Continuous
 62
     7
370
    15
100
AcDbLine
 10
2269.28295210431
 20
905.6743846709078
 30
0.0
 11
2269.28295210431
 21
906.7358877263593
 31
0.0
  0
LINE
  5
674
330
655
100
AcDbEntity
  8
0
  6
Continuous
 62
     7
370
    15
100
AcDbLine
 10
2267.16163176075
 20
907.9604998940935
 30
0.0
 11
2269.28295210431
 21
906.7358877263593
 31
0.0
  0
LINE
  5
675
330
655
100
AcDbEntity
  8
0
  6
Continuous
 62
     7
370
    15
100
AcDbLine
 10
2267.16163176075
 20
906.8989968386418
 30
0.0
 11
2269.28295210431
 21
905.6743846709078
 31
0.0
  0
LINE
  5
676
330
655
100
AcDbEntity
  8
0
  6
Continuous
 62
     7
370
    15
100
AcDbLine
 10
2262.494727004919
 20
909.5931436076568
 30
0.0
 11
2262.494727004919
 21
910.6546466631085
 31
0.0
  0
LINE
  5
677
330
655
100
AcDbEntity
  8
0
  6
Continuous
 62
     7
370
    15
100
AcDbLine
 10
2260.37340666136
 20
911.8792588308425
 30
0.0
 11
2262.494727004919
 21
910.6546466631085
 31
0.0
  0
LINE
  5
678
330
655
100
AcDbEntity
  8
0
  6
Continuous
 62
     7
370
    15
100
AcDbLine
 10
2260.37340666136
 20
910.817755775391
 30
0.0
 11
2262.494727004919
 21
909.5931436076568
 31
0.0
  0
LINE
  5
679
330
655
100
AcDbEntity
  8
0
  6
Continuous
 62
     7
370
    15
100
AcDbLine
 10
2256.943938772604
 20
915.5765460485572
 30
0.0
 11
2256.943938772604
 21
912.658725893417
 31
0.0
  0
ARC
  5
67A
330
655
100
AcDbEntity
  8
0
  6
Continuous
 62
     7
370
    15
100
AcDbCircle
 10
2256.693608610888
 20
912.634088649829
 30
0.0
 40
0.2515396263740717
100
AcDbArc
 50
305.6975759694781
 51
5.620891283939624
  0
LINE
  5
67B
330
655
100
AcDbEntity
  8
0
  6
Continuous
 62
     7
370
    15
100
AcDbLine
 10
2256.800007610184
 20
912.4064962213509
 30
0.0
 11
2256.84038370687
 21
912.4298112530473
 31
0.0
  0
ARC
  5
67C
330
655
100
AcDbEntity
  8
0
  6
Continuous
 62
     7
370
    15
100
AcDbCircle
 10
2256.946778357411
 20
912.2022189426274
 30
0.0
 40
0.2515369929933878
100
AcDbArc
 50
125.6967872098796
 51
185.6205761325866
  0
LINE
  5
67D
330
655
100
AcDbEntity
  8
0
  6
Continuous
 62
     7
370
    15
100
AcDbLine
 10
2256.696450680903
 20
912.1775833338769
 30
0.0
 11
2256.696450680903
 21
910.5327665506459
 31
0.0
  0
LINE
  5
67E
330
655
100
AcDbEntity
  8
0
  6
Continuous
 62
     7
370
    15
100
AcDbLine
 10
2256.448966194284
 20
910.3898503531084
 30
0.0
 11
2256.69645248874
 21
910.532767594627
 31
0.0
  0
LINE
  5
67F
330
655
100
AcDbEntity
  8
0
  6
Continuous
 62
     7
370
    15
100
AcDbLine
 10
2256.448966194284
 20
910.3898503531084
 30
0.0
 11
2252.842717273212
 21
912.4716935419654
 31
0.0
  0
LINE
  5
680
330
655
100
AcDbEntity
  8
0
  6
Continuous
 62
     7
370
    15
100
AcDbLine
 10
2252.595230978756
 20
912.9003523768819
 30
0.0
 11
2252.842717273212
 21
912.4716935419654
 31
0.0
  0
LINE
  5
681
330
655
100
AcDbEntity
  8
0
  6
Continuous
 62
     7
370
    15
100
AcDbLine
 10
2252.595230978756
 20
912.9003523768819
 30
0.0
 11
2252.595231882674
 21
914.5451665506689
 31
0.0
  0
ARC
  5
682
330
655
100
AcDbEntity
  8
0
  6
Continuous
 62
     7
370
    15
100
AcDbCircle
 10
2251.874262524946
 20
914.5205427841885
 30
0.0
 40
0.721389731462363
100
AcDbArc
 50
1.956102148582125
 51
31.14440153449856
  0
LINE
  5
683
330
655
100
AcDbEntity
  8
0
  6
Continuous
 62
     7
370
    15
100
AcDbLine
 10
2252.451299760626
 20
914.9635754825258
 30
0.0
 11
2252.491675857312
 21
914.8936432018718
 31
0.0
  0
ARC
  5
684
330
655
100
AcDbEntity
  8
0
  6
Continuous
 62
     7
370
    15
100
AcDbCircle
 10
2253.068729428274
 20
915.3366789601536
 30
0.0
 40
0.7214052948993667
100
AcDbArc
 50
181.9565178986541
 51
211.1439385293941
  0
LINE
  5
685
330
655
100
AcDbEntity
  8
0
  6
Continuous
 62
     7
370
    15
100
AcDbLine
 10
2252.347744694874
 20
915.3120494308184
 30
0.0
 11
2252.347744694892
 21
918.229872411981
 31
0.0
  0
LINE
  5
686
330
655
100
AcDbEntity
  8
0
  6
Continuous
 62
     7
370
    15
100
AcDbLine
 10
2251.534573936435
 20
918.6993058986656
 30
0.0
 11
2252.347744694892
 21
918.229872411981
 31
0.0
  0
LINE
  5
687
330
655
100
AcDbEntity
  8
0
  6
Continuous
 62
     7
370
    15
100
AcDbLine
 10
2251.534573936435
 20
918.6993058986656
 30
0.0
 11
2251.534573936435
 21
923.47340733166
 31
0.0
  0
LINE
  5
688
330
655
100
AcDbEntity
  8
0
  6
Continuous
 62
     7
370
    15
100
AcDbLine
 10
2277.308614070777
 20
903.8202692383102
 30
0.0
 11
2278.121784829234
 21
903.3508357516257
 31
0.0
  0
LINE
  5
689
330
655
100
AcDbEntity
  8
0
  6
Continuous
 62
     7
370
    15
100
AcDbLine
 10
2277.308614070777
 20
903.8202692383102
 30
0.0
 11
2277.308614070777
 21
900.9187798994078
 31
0.0
  0
ARC
  5
68A
330
655
100
AcDbEntity
  8
0
  6
Continuous
 62
     7
370
    15
100
AcDbCircle
 10
2277.058283909061
 20
900.8941426558195
 30
0.0
 40
0.2515396263742036
100
AcDbArc
 50
305.6975759695432
 51
5.620891283972035
  0
LINE
  5
68B
330
655
100
AcDbEntity
  8
0
  6
Continuous
 62
     7
370
    15
100
AcDbLine
 10
2277.164682908356
 20
900.6665502273417
 30
0.0
 11
2277.205059005043
 21
900.6898652590379
 31
0.0
  0
ARC
  5
68C
330
655
100
AcDbEntity
  8
0
  6
Continuous
 62
     7
370
    15
100
AcDbCircle
 10
2277.311453655586
 20
900.4622729486175
 30
0.0
 40
0.2515369929950755
100
AcDbArc
 50
125.696787210165
 51
185.620576132422
  0
LINE
  5
68D
330
655
100
AcDbEntity
  8
0
  6
Continuous
 62
     7
370
    15
100
AcDbLine
 10
2277.061125979076
 20
900.4376373398677
 30
0.0
 11
2277.061125979076
 21
898.7928205566364
 31
0.0
  0
LINE
  5
68E
330
655
100
AcDbEntity
  8
0
  6
Continuous
 62
     7
370
    15
100
AcDbLine
 10
2276.799499356833
 20
898.6417376239796
 30
0.0
 11
2277.061127184301
 21
898.7928212526238
 31
0.0
  0
LINE
  5
68F
330
655
100
AcDbEntity
  8
0
  6
Continuous
 62
     7
370
    15
100
AcDbLine
 10
2276.799499356833
 20
898.6417376239796
 30
0.0
 11
2273.221534707008
 21
900.7072526505998
 31
0.0
  0
LINE
  5
690
330
655
100
AcDbEntity
  8
0
  6
Continuous
 62
     7
370
    15
100
AcDbLine
 10
2272.959906276929
 20
901.1604063828725
 30
0.0
 11
2273.221534707008
 21
900.7072526505998
 31
0.0
  0
LINE
  5
691
330
655
100
AcDbEntity
  8
0
  6
Continuous
 62
     7
370
    15
100
AcDbLine
 10
2272.959906276929
 20
901.1604063828725
 30
0.0
 11
2272.959907180847
 21
902.8052205566595
 31
0.0
  0
ARC
  5
692
330
655
100
AcDbEntity
  8
0
  6
Continuous
 62
     7
370
    15
100
AcDbCircle
 10
2272.23893782312
 20
902.7805967901796
 30
0.0
 40
0.7213897314610663
100
AcDbArc
 50
1.956102148543065
 51
31.14440153452875
  0
LINE
  5
693
330
655
100
AcDbEntity
  8
0
  6
Continuous
 62
     7
370
    15
100
AcDbLine
 10
2272.815975058799
 20
903.2236294885167
 30
0.0
 11
2272.856351155485
 21
903.1536972078626
 31
0.0
  0
ARC
  5
694
330
655
100
AcDbEntity
  8
0
  6
Continuous
 62
     7
370
    15
100
AcDbCircle
 10
2273.433404726445
 20
903.5967329661438
 30
0.0
 40
0.7214052948986827
100
AcDbArc
 50
181.9565178986346
 51
211.1439385293829
  0
LINE
  5
695
330
655
100
AcDbEntity
  8
0
  6
Continuous
 62
     7
370
    15
100
AcDbLine
 10
2272.712419993048
 20
903.5721034368091
 30
0.0
 11
2272.712419993065
 21
906.4735956017338
 31
0.0
  0
LINE
  5
696
330
655
100
AcDbEntity
  8
0
  6
Continuous
 62
     7
370
    15
100
AcDbLine
 10
2272.712419993065
 20
906.4735956017338
 30
0.0
 11
2270.520388971386
 21
907.7390281750592
 31
0.0
  0
LINE
  5
697
330
655
100
AcDbEntity
  8
0
  6
Continuous
 62
     7
370
    15
100
AcDbLine
 10
2270.520388971386
 20
907.7390281750592
 30
0.0
 11
2270.520388971386
 21
904.821208019919
 31
0.0
  0
ARC
  5
698
330
655
100
AcDbEntity
  8
0
  6
Continuous
 62
     7
370
    15
100
AcDbCircle
 10
2270.27005880967
 20
904.7965707763308
 30
0.0
 40
0.2515396263738482
100
AcDbArc
 50
305.6975759694418
 51
5.620891283952588
  0
LINE
  5
699
330
655
100
AcDbEntity
  8
0
  6
Continuous
 62
     7
370
    15
100
AcDbLine
 10
2270.376457808966
 20
904.5689783478529
 30
0.0
 11
2270.416833905652
 21
904.5922933795493
 31
0.0
  0
ARC
  5
69A
330
655
100
AcDbEntity
  8
0
  6
Continuous
 62
     7
370
    15
100
AcDbCircle
 10
2270.523228556193
 20
904.3647010691291
 30
0.0
 40
0.251536992994102
100
AcDbArc
 50
125.6967872099773
 51
185.6205761324804
  0
LINE
  5
69B
330
655
100
AcDbEntity
  8
0
  6
Continuous
 62
     7
370
    15
100
AcDbLine
 10
2270.272900879685
 20
904.3400654603789
 30
0.0
 11
2270.272900879685
 21
902.6952486771477
 31
0.0
  0
LINE
  5
69C
330
655
100
AcDbEntity
  8
0
  6
Continuous
 62
     7
370
    15
100
AcDbLine
 10
2270.025416393066
 20
902.5523324796104
 30
0.0
 11
2270.272902687522
 21
902.695249721129
 31
0.0
  0
LINE
  5
69D
330
655
100
AcDbEntity
  8
0
  6
Continuous
 62
     7
370
    15
100
AcDbLine
 10
2270.025416393066
 20
902.5523324796104
 30
0.0
 11
2266.419167471994
 21
904.6341756684672
 31
0.0
  0
LINE
  5
69E
330
655
100
AcDbEntity
  8
0
  6
Continuous
 62
     7
370
    15
100
AcDbLine
 10
2266.171681177538
 20
905.0628345033837
 30
0.0
 11
2266.419167471994
 21
904.6341756684672
 31
0.0
  0
LINE
  5
69F
330
655
100
AcDbEntity
  8
0
  6
Continuous
 62
     7
370
    15
100
AcDbLine
 10
2266.171681177538
 20
905.0628345033837
 30
0.0
 11
2266.171682081456
 21
906.7076486771709
 31
0.0
  0
ARC
  5
6A0
330
655
100
AcDbEntity
  8
0
  6
Continuous
 62
     7
370
    15
100
AcDbCircle
 10
2265.450712723728
 20
906.6830249106907
 30
0.0
 40
0.7213897314620656
100
AcDbArc
 50
1.956102148569105
 51
31.14440153450413
  0
LINE
  5
6A1
330
655
100
AcDbEntity
  8
0
  6
Continuous
 62
     7
370
    15
100
AcDbLine
 10
2266.027749959408
 20
907.1260576090278
 30
0.0
 11
2266.068126056094
 21
907.0561253283738
 31
0.0
  0
ARC
  5
6A2
330
655
100
AcDbEntity
  8
0
  6
Continuous
 62
     7
370
    15
100
AcDbCircle
 10
2266.645179627055
 20
907.4991610866556
 30
0.0
 40
0.7214052948993138
100
AcDbArc
 50
181.9565178986606
 51
211.1439385293996
  0
LINE
  5
6A3
330
655
100
AcDbEntity
  8
0
  6
Continuous
 62
     7
370
    15
100
AcDbLine
 10
2265.924194893656
 20
907.4745315573204
 30
0.0
 11
2265.924194893674
 21
910.3923545384828
 31
0.0
  0
LINE
  5
6A4
330
655
100
AcDbEntity
  8
0
  6
Continuous
 62
     7
370
    15
100
AcDbLine
 10
2265.924194893674
 20
910.3923545384828
 30
0.0
 11
2263.732163871995
 21
911.6577871118082
 31
0.0
  0
LINE
  5
6A5
330
655
100
AcDbEntity
  8
0
  6
Continuous
 62
     7
370
    15
100
AcDbLine
 10
2263.732163871995
 20
911.6577871118082
 30
0.0
 11
2263.732163871995
 21
908.739966956668
 31
0.0
  0
ARC
  5
6A6
330
655
100
AcDbEntity
  8
0
  6
Continuous
 62
     7
370
    15
100
AcDbCircle
 10
2263.48183371028
 20
908.71532971308
 30
0.0
 40
0.2515396263740406
100
AcDbArc
 50
305.6975759694743
 51
5.620891283930589
  0
LINE
  5
6A7
330
655
100
AcDbEntity
  8
0
  6
Continuous
 62
     7
370
    15
100
AcDbLine
 10
2263.588232709575
 20
908.4877372846019
 30
0.0
 11
2263.628608806261
 21
908.5110523162981
 31
0.0
  0
ARC
  5
6A8
330
655
100
AcDbEntity
  8
0
  6
Continuous
 62
     7
370
    15
100
AcDbCircle
 10
2263.735003456802
 20
908.2834600058784
 30
0.0
 40
0.2515369929936556
100
AcDbArc
 50
125.6967872099447
 51
185.6205761325802
  0
LINE
  5
6A9
330
655
100
AcDbEntity
  8
0
  6
Continuous
 62
     7
370
    15
100
AcDbLine
 10
2263.484675780294
 20
908.2588243971279
 30
0.0
 11
2263.484675780294
 21
906.6140076138967
 31
0.0
  0
LINE
  5
6AA
330
655
100
AcDbEntity
  8
0
  6
Continuous
 62
     7
370
    15
100
AcDbLine
 10
2263.237191293675
 20
906.4710914163596
 30
0.0
 11
2263.484677588131
 21
906.614008657878
 31
0.0
  0
LINE
  5
6AB
330
655
100
AcDbEntity
  8
0
  6
Continuous
 62
     7
370
    15
100
AcDbLine
 10
2263.237191293675
 20
906.4710914163596
 30
0.0
 11
2259.630942372603
 21
908.5529346052164
 31
0.0
  0
LINE
  5
6AC
330
655
100
AcDbEntity
  8
0
  6
Continuous
 62
     7
370
    15
100
AcDbLine
 10
2259.383456078147
 20
908.9815934401329
 30
0.0
 11
2259.630942372603
 21
908.5529346052164
 31
0.0
  0
LINE
  5
6AD
330
655
100
AcDbEntity
  8
0
  6
Continuous
 62
     7
370
    15
100
AcDbLine
 10
2259.383456078147
 20
908.9815934401329
 30
0.0
 11
2259.383456982065
 21
910.6264076139197
 31
0.0
  0
ARC
  5
6AE
330
655
100
AcDbEntity
  8
0
  6
Continuous
 62
     7
370
    15
100
AcDbCircle
 10
2258.662487624338
 20
910.60178384744
 30
0.0
 40
0.7213897314607359
100
AcDbArc
 50
1.956102148543065
 51
31.14440153453433
  0
LINE
  5
6AF
330
655
100
AcDbEntity
  8
0
  6
Continuous
 62
     7
370
    15
100
AcDbLine
 10
2259.239524860017
 20
911.0448165457768
 30
0.0
 11
2259.279900956703
 21
910.9748842651228
 31
0.0
  0
ARC
  5
6B0
330
655
100
AcDbEntity
  8
0
  6
Continuous
 62
     7
370
    15
100
AcDbCircle
 10
2259.856954527664
 20
911.4179200234042
 30
0.0
 40
0.7214052948988342
100
AcDbArc
 50
181.956517898628
 51
211.1439385293885
  0
LINE
  5
6B1
330
655
100
AcDbEntity
  8
0
  6
Continuous
 62
     7
370
    15
100
AcDbLine
 10
2259.135969794266
 20
911.3932904940694
 30
0.0
 11
2259.135969794283
 21
914.311113475232
 31
0.0
  0
LINE
  5
6B2
330
655
100
AcDbEntity
  8
0
  6
Continuous
 62
     7
370
    15
100
AcDbLine
 10
2256.943938772604
 20
915.5765460485572
 30
0.0
 11
2259.135969794283
 21
914.311113475232
 31
0.0
  0
LINE
  5
6B3
330
655
100
AcDbEntity
  8
0
  6
Continuous
 62
     7
370
    15
100
AcDbLine
 10
2279.429934414336
 20
902.143392067142
 30
0.0
 11
2277.308614070777
 21
900.9187798994078
 31
0.0
  0
LINE
  5
6B4
330
655
100
AcDbEntity
  8
0
  6
Continuous
 62
     7
370
    15
100
AcDbLine
 10
2279.429934414336
 20
904.1060144326753
 30
0.0
 11
2279.429934414336
 21
902.143392067142
 31
0.0
  0
LINE
  5
6B5
330
655
100
AcDbEntity
  8
0
  6
Continuous
 62
     7
370
    15
100
AcDbLine
 10
2273.667014147666
 20
903.8784593349799
 30
0.0
 11
2275.788334491226
 21
902.6538471672459
 31
0.0
  0
LINE
  5
6B6
330
655
100
AcDbEntity
  8
0
  6
Continuous
 62
     7
370
    15
100
AcDbLine
 10
2273.949856860141
 20
904.0417409573443
 30
0.0
 11
2273.667014147666
 21
903.8784593349799
 31
0.0
  0
LINE
  5
6B7
330
655
100
AcDbEntity
  8
0
  6
Continuous
 62
     7
370
    15
100
AcDbLine
 10
2276.0711772037
 20
902.8171287896103
 30
0.0
 11
2275.788334491226
 21
902.6538471672459
 31
0.0
  0
LINE
  5
6B8
330
655
100
AcDbEntity
  8
0
  6
Continuous
 62
     7
370
    15
100
AcDbLine
 10
2275.788334491226
 20
902.6538471672459
 30
0.0
 11
2276.0711772037
 21
901.7556257341588
 31
0.0
  0
LINE
  5
6B9
330
655
100
AcDbEntity
  8
0
  6
Continuous
 62
     7
370
    15
100
AcDbLine
 10
2273.667014147666
 20
903.8784593349799
 30
0.0
 11
2273.949856860141
 21
902.980237901893
 31
0.0
  0
LINE
  5
6BA
330
655
100
AcDbEntity
  8
0
  6
Continuous
 62
     7
370
    15
100
AcDbLine
 10
2277.205059005043
 20
900.6898652590379
 30
0.0
 11
2279.326379348603
 21
901.914477426772
 31
0.0
  0
ARC
  5
6BB
330
655
100
AcDbEntity
  8
0
  6
Continuous
 62
     7
370
    15
100
AcDbCircle
 10
2279.17960425262
 20
902.1187548235536
 30
0.0
 40
0.2515396263743063
100
AcDbArc
 50
305.6975759695682
 51
5.620891283952588
  0
LINE
  5
6BC
330
655
100
AcDbEntity
  8
0
  6
Continuous
 62
     7
370
    15
100
AcDbLine
 10
2277.164682908356
 20
900.6665502273417
 30
0.0
 11
2279.286003251916
 21
901.8911623950756
 31
0.0
  0
LINE
  5
6BD
330
655
100
AcDbEntity
  8
0
  6
Continuous
 62
     7
370
    15
100
AcDbLine
 10
2279.326379348603
 20
901.914477426772
 30
0.0
 11
2279.286003251916
 21
901.8911623950756
 31
0.0
  0
LINE
  5
6BE
330
655
100
AcDbEntity
  8
0
  6
Continuous
 62
     7
370
    15
100
AcDbLine
 10
2277.061125979076
 20
900.4376373398677
 30
0.0
 11
2279.182446322636
 21
901.6622492485097
 31
0.0
  0
ARC
  5
6BF
330
655
100
AcDbEntity
  8
0
  6
Continuous
 62
     7
370
    15
100
AcDbCircle
 10
2279.432774108862
 20
901.6868850388338
 30
0.0
 40
0.2515371199683514
100
AcDbArc
 50
125.6967972034657
 51
185.6206148453074
  0
LINE
  5
6C0
330
655
100
AcDbEntity
  8
0
  6
Continuous
 62
     7
370
    15
100
AcDbLine
 10
2279.182448130473
 20
900.0174337683517
 30
0.0
 11
2277.061127786913
 21
898.7928216006176
 31
0.0
  0
LINE
  5
6C1
330
655
100
AcDbEntity
  8
0
  6
Continuous
 62
     7
370
    15
100
AcDbLine
 10
2279.182446322636
 20
901.6622492485097
 30
0.0
 11
2279.182448130473
 21
900.0174337683517
 31
0.0
  0
LINE
  5
6C2
330
655
100
AcDbEntity
  8
0
  6
Continuous
 62
     7
370
    15
100
AcDbLine
 10
2278.920819700393
 20
899.8663497917137
 30
0.0
 11
2276.799499356833
 21
898.6417376239796
 31
0.0
  0
LINE
  5
6C3
330
655
100
AcDbEntity
  8
0
  6
Continuous
 62
     7
370
    15
100
AcDbLine
 10
2279.182448130473
 20
900.0174337683516
 30
0.0
 11
2278.920819700393
 21
899.8663497917137
 31
0.0
  0
LINE
  5
6C4
330
655
100
AcDbEntity
  8
0
  6
Continuous
 62
     7
370
    15
100
AcDbLine
 10
2277.838923575567
 20
894.2554256034677
 30
0.0
 11
2277.872726663054
 21
894.2749397104892
 31
0.0
  0
ARC
  5
6C5
330
655
100
AcDbEntity
  8
0
  6
Continuous
 62
     7
370
    15
100
AcDbCircle
 10
2277.955536025476
 20
894.1734160409801
 30
0.0
 40
0.1310131519175935
100
AcDbArc
 50
350.7863072336514
 51
129.20294102444
  0
LINE
  5
6C6
330
655
100
AcDbEntity
  8
0
  6
Continuous
 62
     7
370
    15
100
AcDbLine
 10
2278.084861748667
 20
889.4782138995262
 30
0.0
 11
2278.084858849358
 21
894.1524385959823
 31
0.0
  0
LINE
  5
6C7
330
655
100
AcDbEntity
  8
0
  6
Continuous
 62
     7
370
    15
100
AcDbLine
 10
2276.178775796532
 20
888.3778613619449
 30
0.0
 11
2278.084855286754
 21
889.4782176299088
 31
0.0
  0
LINE
  5
6C8
330
655
100
AcDbEntity
  8
0
  6
Continuous
 62
     7
370
    15
100
AcDbLine
 10
2276.178779359124
 20
893.0520823280078
 30
0.0
 11
2276.178782258444
 21
888.3778576315634
 31
0.0
  0
ARC
  5
6C9
330
655
100
AcDbEntity
  8
0
  6
Continuous
 62
     7
370
    15
100
AcDbCircle
 10
2276.639332111383
 20
893.0311312411118
 30
0.0
 40
0.4610290507707997
100
AcDbArc
 50
122.6047039613437
 51
177.3953432799829
  0
LINE
  5
6CA
330
655
100
AcDbEntity
  8
0
  6
Continuous
 62
     7
370
    15
100
AcDbLine
 10
2276.390911241543
 20
893.4195058760753
 30
0.0
 11
2276.424712623703
 21
893.4390209675623
 31
0.0
  0
ARC
  5
6CB
330
655
100
AcDbEntity
  8
0
  6
Continuous
 62
     7
370
    15
100
AcDbCircle
 10
2276.176291294706
 20
893.8273981590619
 30
0.0
 40
0.4610314518312702
100
AcDbArc
 50
302.60458083157
 51
357.3949108745365
  0
LINE
  5
6CC
330
655
100
AcDbEntity
  8
0
  6
Continuous
 62
     7
370
    15
100
AcDbLine
 10
2276.636846354498
 20
898.7356352035616
 30
0.0
 11
2276.636846287415
 21
893.8064434872892
 31
0.0
  0
LINE
  5
6CD
330
655
100
AcDbEntity
  8
0
  6
Continuous
 62
     7
370
    15
100
AcDbLine
 10
2277.626791389256
 20
894.3779267179607
 30
0.0
 11
2277.626791389264
 21
899.1193231486082
 31
0.0
  0
ARC
  5
6CE
330
655
100
AcDbEntity
  8
0
  6
Continuous
 62
     7
370
    15
100
AcDbCircle
 10
2277.75611419682
 20
894.3569492447121
 30
0.0
 40
0.131013140333236
100
AcDbArc
 50
170.7862938954838
 51
309.2029543697712
  0
LINE
  5
6CF
330
655
100
AcDbEntity
  8
0
  6
Continuous
 62
     7
370
    15
100
AcDbLine
 10
2274.515521703442
 20
895.0310868450692
 30
0.0
 11
2274.515521703442
 21
899.9602498579605
 31
0.0
  0
LINE
  5
6D0
330
655
100
AcDbEntity
  8
0
  6
Continuous
 62
     7
370
    15
100
AcDbLine
 10
2276.636846287415
 20
893.8064434872892
 30
0.0
 11
2274.515521703442
 21
895.0310868450692
 31
0.0
  0
LINE
  5
6D1
330
655
100
AcDbEntity
  8
0
  6
Continuous
 62
     7
370
    15
100
AcDbLine
 10
2272.641709314946
 20
906.0458201876532
 30
0.0
 11
2270.520388971386
 21
904.821208019919
 31
0.0
  0
LINE
  5
6D2
330
655
100
AcDbEntity
  8
0
  6
Continuous
 62
     7
370
    15
100
AcDbLine
 10
2272.641709314946
 20
906.514416007325
 30
0.0
 11
2272.641709314946
 21
906.0458201876532
 31
0.0
  0
LINE
  5
6D3
330
655
100
AcDbEntity
  8
0
  6
Continuous
 62
     7
370
    15
100
AcDbLine
 10
2266.878789048275
 20
907.7972182717289
 30
0.0
 11
2269.000109391835
 21
906.5726061039949
 31
0.0
  0
LINE
  5
6D4
330
655
100
AcDbEntity
  8
0
  6
Continuous
 62
     7
370
    15
100
AcDbLine
 10
2267.16163176075
 20
907.9604998940935
 30
0.0
 11
2266.878789048275
 21
907.7972182717289
 31
0.0
  0
LINE
  5
6D5
330
655
100
AcDbEntity
  8
0
  6
Continuous
 62
     7
370
    15
100
AcDbLine
 10
2269.28295210431
 20
906.7358877263593
 30
0.0
 11
2269.000109391835
 21
906.5726061039949
 31
0.0
  0
LINE
  5
6D6
330
655
100
AcDbEntity
  8
0
  6
Continuous
 62
     7
370
    15
100
AcDbLine
 10
2269.000109391835
 20
906.5726061039949
 30
0.0
 11
2269.28295210431
 21
905.6743846709078
 31
0.0
  0
LINE
  5
6D7
330
655
100
AcDbEntity
  8
0
  6
Continuous
 62
     7
370
    15
100
AcDbLine
 10
2266.878789048275
 20
907.7972182717289
 30
0.0
 11
2267.16163176075
 21
906.8989968386418
 31
0.0
  0
LINE
  5
6D8
330
655
100
AcDbEntity
  8
0
  6
Continuous
 62
     7
370
    15
100
AcDbLine
 10
2270.416833905652
 20
904.5922933795493
 30
0.0
 11
2272.538154249212
 21
905.8169055472832
 31
0.0
  0
ARC
  5
6D9
330
655
100
AcDbEntity
  8
0
  6
Continuous
 62
     7
370
    15
100
AcDbCircle
 10
2272.39137915323
 20
906.0211829440648
 30
0.0
 40
0.2515396263738323
100
AcDbArc
 50
305.6975759694418
 51
5.620891283965553
  0
LINE
  5
6DA
330
655
100
AcDbEntity
  8
0
  6
Continuous
 62
     7
370
    15
100
AcDbLine
 10
2270.376457808966
 20
904.5689783478529
 30
0.0
 11
2272.497778152525
 21
905.7935905155868
 31
0.0
  0
LINE
  5
6DB
330
655
100
AcDbEntity
  8
0
  6
Continuous
 62
     7
370
    15
100
AcDbLine
 10
2272.538154249212
 20
905.8169055472832
 30
0.0
 11
2272.497778152525
 21
905.7935905155868
 31
0.0
  0
LINE
  5
6DC
330
655
100
AcDbEntity
  8
0
  6
Continuous
 62
     7
370
    15
100
AcDbLine
 10
2270.272900879685
 20
904.3400654603789
 30
0.0
 11
2272.394221223245
 21
905.5646773690211
 31
0.0
  0
ARC
  5
6DD
330
655
100
AcDbEntity
  8
0
  6
Continuous
 62
     7
370
    15
100
AcDbCircle
 10
2272.644549009473
 20
905.5893131593444
 30
0.0
 40
0.2515371199691981
100
AcDbArc
 50
125.6967972035346
 51
185.6206148451039
  0
LINE
  5
6DE
330
655
100
AcDbEntity
  8
0
  6
Continuous
 62
     7
370
    15
100
AcDbLine
 10
2272.394223031081
 20
903.9198618888631
 30
0.0
 11
2270.272902687522
 21
902.695249721129
 31
0.0
  0
LINE
  5
6DF
330
655
100
AcDbEntity
  8
0
  6
Continuous
 62
     7
370
    15
100
AcDbLine
 10
2272.394221223245
 20
905.5646773690211
 30
0.0
 11
2272.394223031081
 21
903.9198618888631
 31
0.0
  0
LINE
  5
6E0
330
655
100
AcDbEntity
  8
0
  6
Continuous
 62
     7
370
    15
100
AcDbLine
 10
2276.178779359124
 20
893.0520823280078
 30
0.0
 11
2274.057451153888
 21
894.2767277763167
 31
0.0
  0
ARC
  5
6E1
330
655
100
AcDbEntity
  8
0
  6
Continuous
 62
     7
370
    15
100
AcDbCircle
 10
2274.518015984255
 20
894.2557695206767
 30
0.0
 40
0.4610414422268107
100
AcDbArc
 50
122.6054783372404
 51
177.3945215188559
  0
LINE
  5
6E2
330
655
100
AcDbEntity
  8
0
  6
Continuous
 62
     7
370
    15
100
AcDbLine
 10
2276.390911241543
 20
893.4195058760753
 30
0.0
 11
2274.269583188243
 21
894.6441512366684
 31
0.0
  0
LINE
  5
6E3
330
655
100
AcDbEntity
  8
0
  6
Continuous
 62
     7
370
    15
100
AcDbLine
 10
2276.424712623703
 20
893.4390209675623
 30
0.0
 11
2274.303387981059
 21
894.6636643592176
 31
0.0
  0
ARC
  5
6E4
330
655
100
AcDbEntity
  8
0
  6
Continuous
 62
     7
370
    15
100
AcDbCircle
 10
2274.054966326107
 20
895.0520418143847
 30
0.0
 40
0.4610318495843525
100
AcDbArc
 50
302.6045973000113
 51
357.3948761075501
  0
LINE
  5
6E5
330
655
100
AcDbEntity
  8
0
  6
Continuous
 62
     7
370
    15
100
AcDbLine
 10
2275.939189965111
 20
886.9471242057462
 30
0.0
 11
2276.178775796532
 21
888.3778613619451
 31
0.0
  0
SPLINE
  5
6E6
330
655
100
AcDbEntity
  8
0
  6
Continuous
 62
     7
370
    15
100
AcDbSpline
210
0.0
220
0.0
230
1.0
 70
     8
 71
     3
 72
    10
 73
     6
 74
     0
 42
0.0000000001
 43
0.0000000001
 40
0.0
 40
0.0
 40
0.0
 40
0.0
 40
0.5
 40
0.5
 40
1.0
 40
1.0
 40
1.0
 40
1.0
 10
2275.939189965111
 20
886.9471242057462
 30
0.0
 10
2275.919188179957
 20
886.8276793410799
 30
0.0
 10
2275.858136151903
 20
886.7408131952158
 30
0.0
 10
2275.681661170168
 20
886.6716925590072
 30
0.0
 10
2275.566920849846
 20
886.6897054383008
 30
0.0
 10
2275.45173497219
 20
886.7562008300774
 30
0.0
  0
LINE
  5
6E7
330
655
100
AcDbEntity
  8
0
  6
Continuous
 62
     7
370
    15
100
AcDbLine
 10
2274.784491978229
 20
887.141392011466
 30
0.0
 11
2275.45173497219
 21
886.7562008300772
 31
0.0
  0
SPLINE
  5
6E8
330
655
100
AcDbEntity
  8
0
  6
Continuous
 62
     7
370
    15
100
AcDbSpline
210
0.0
220
0.0
230
1.0
 70
     8
 71
     3
 72
    10
 73
     6
 74
     0
 42
0.0000000001
 43
0.0000000001
 40
0.0
 40
0.0
 40
0.0
 40
0.0
 40
0.5
 40
0.5
 40
1.0
 40
1.0
 40
1.0
 40
1.0
 10
2274.784491978229
 20
887.141392011466
 30
0.0
 10
2274.669306100574
 20
887.2078874032428
 30
0.0
 10
2274.554565780251
 20
887.3223508779544
 30
0.0
 10
2274.378090798517
 20
887.5952251910549
 30
0.0
 10
2274.317038770462
 20
887.7525805081065
 30
0.0
 10
2274.297036985308
 20
887.895118942351
 30
0.0
  0
LINE
  5
6E9
330
655
100
AcDbEntity
  8
0
  6
Continuous
 62
     7
370
    15
100
AcDbLine
 10
2274.057451153888
 20
889.6024760114881
 30
0.0
 11
2274.297036985308
 21
887.895118942351
 31
0.0
  0
LINE
  5
6EA
330
655
100
AcDbEntity
  8
0
  6
Continuous
 62
     7
370
    15
100
AcDbLine
 10
2274.057451153888
 20
894.2767277763167
 30
0.0
 11
2274.057451153888
 21
889.6024760114881
 31
0.0
  0
LINE
  5
6EB
330
655
100
AcDbEntity
  8
0
  6
Continuous
 62
     7
370
    15
100
AcDbLine
 10
2274.303387981059
 20
894.6636643592176
 30
0.0
 11
2274.269583188243
 21
894.6441512366684
 31
0.0
  0
LINE
  5
6EC
330
655
100
AcDbEntity
  8
0
  6
Continuous
 62
     7
370
    15
100
AcDbLine
 10
2270.025416393066
 20
902.5523324796104
 30
0.0
 11
2272.146736736626
 21
903.7769446473445
 31
0.0
  0
LINE
  5
6ED
330
655
100
AcDbEntity
  8
0
  6
Continuous
 62
     7
370
    15
100
AcDbLine
 10
2272.394223031081
 20
903.9198618888631
 30
0.0
 11
2272.146736736626
 21
903.7769446473445
 31
0.0
  0
LINE
  5
6EE
330
655
100
AcDbEntity
  8
0
  6
Continuous
 62
     7
370
    15
100
AcDbLine
 10
2271.05069506552
 20
898.1741865091422
 30
0.0
 11
2271.084498153008
 21
898.1937006161791
 31
0.0
  0
ARC
  5
6EF
330
655
100
AcDbEntity
  8
0
  6
Continuous
 62
     7
370
    15
100
AcDbCircle
 10
2271.167311007571
 20
898.0921749083352
 30
0.0
 40
0.1310131587922474
100
AcDbArc
 50
350.7863151496979
 51
129.2029331087437
  0
LINE
  5
6F0
330
655
100
AcDbEntity
  8
0
  6
Continuous
 62
     7
370
    15
100
AcDbLine
 10
2271.296636740443
 20
893.3969727836457
 30
0.0
 11
2271.296633841137
 21
898.0711974801041
 31
0.0
  0
LINE
  5
6F1
330
655
100
AcDbEntity
  8
0
  6
Continuous
 62
     7
370
    15
100
AcDbLine
 10
2269.390550697141
 20
892.2966202986939
 30
0.0
 11
2271.296630187364
 21
893.3969765666578
 31
0.0
  0
LINE
  5
6F2
330
655
100
AcDbEntity
  8
0
  6
Continuous
 62
     7
370
    15
100
AcDbLine
 10
2269.390554350898
 20
896.9708412121265
 30
0.0
 11
2269.39055725022
 21
892.2966165156818
 31
0.0
  0
ARC
  5
6F3
330
655
100
AcDbEntity
  8
0
  6
Continuous
 62
     7
370
    15
100
AcDbCircle
 10
2269.851106772619
 20
896.9498903160696
 30
0.0
 40
0.4610287119031877
100
AcDbArc
 50
122.6046821355928
 51
177.3953651058846
  0
LINE
  5
6F4
330
655
100
AcDbEntity
  8
0
  6
Continuous
 62
     7
370
    15
100
AcDbLine
 10
2269.602686233319
 20
897.3382647601992
 30
0.0
 11
2269.636489320806
 21
897.3577788672171
 31
0.0
  0
ARC
  5
6F5
330
655
100
AcDbEntity
  8
0
  6
Continuous
 62
     7
370
    15
100
AcDbCircle
 10
2269.388056269445
 20
897.7461605156246
 30
0.0
 40
0.461041522889901
100
AcDbArc
 50
302.6055095954877
 51
357.394542383831
  0
LINE
  5
6F6
330
655
100
AcDbEntity
  8
0
  6
Continuous
 62
     7
370
    15
100
AcDbLine
 10
2269.848621255107
 20
902.6543941403106
 30
0.0
 11
2269.848621188023
 21
897.7252024240383
 31
0.0
  0
LINE
  5
6F7
330
655
100
AcDbEntity
  8
0
  6
Continuous
 62
     7
370
    15
100
AcDbLine
 10
2270.838566289875
 20
898.2966856546987
 30
0.0
 11
2270.838566289875
 21
903.021753923122
 31
0.0
  0
SPLINE
  5
6F8
330
655
100
AcDbEntity
  8
0
  6
Continuous
 62
     7
370
    15
100
AcDbSpline
210
0.0
220
0.0
230
1.0
 70
     8
 71
     3
 72
    14
 73
    10
 74
     0
 42
0.0000000001
 43
0.0000000001
 40
0.0
 40
0.0
 40
0.0
 40
0.0
 40
0.0840876777391322
 40
0.1672016938460899
 40
0.250755854568427
 40
0.5000979028892965
 40
0.7494399512101743
 40
0.8738244721235327
 40
1.0
 40
1.0
 40
1.0
 40
1.0
 10
2271.050698567342
 20
898.1741844875832
 30
0.0
 10
2271.041388754075
 20
898.1692328555476
 30
0.0
 10
2271.022876927023
 20
898.1593869270367
 30
0.0
 10
2270.995580103272
 20
898.1501264432745
 30
0.0
 10
2270.951898401361
 20
898.1418859017773
 30
0.0
 10
2270.896669479361
 20
898.1524896417074
 30
0.0
 10
2270.857703501981
 20
898.1980687184501
 30
0.0
 10
2270.8409401239
 20
898.249827331672
 30
0.0
 10
2270.839361390265
 20
898.2809919236137
 30
0.0
 10
2270.838566381042
 20
898.2966856020683
 30
0.0
  0
LINE
  5
6F9
330
655
100
AcDbEntity
  8
0
  6
Continuous
 62
     7
370
    15
100
AcDbLine
 10
2267.72729660405
 20
898.9498457818182
 30
0.0
 11
2267.72729660405
 21
903.8790087947095
 31
0.0
  0
LINE
  5
6FA
330
655
100
AcDbEntity
  8
0
  6
Continuous
 62
     7
370
    15
100
AcDbLine
 10
2269.848621188023
 20
897.7252024240383
 30
0.0
 11
2267.72729660405
 21
898.9498457818182
 31
0.0
  0
LINE
  5
6FB
330
655
100
AcDbEntity
  8
0
  6
Continuous
 62
     7
370
    15
100
AcDbLine
 10
2265.853484215555
 20
909.9645791244022
 30
0.0
 11
2263.732163871995
 21
908.739966956668
 31
0.0
  0
LINE
  5
6FC
330
655
100
AcDbEntity
  8
0
  6
Continuous
 62
     7
370
    15
100
AcDbLine
 10
2265.853484215555
 20
910.4331749440742
 30
0.0
 11
2265.853484215555
 21
909.9645791244022
 31
0.0
  0
LINE
  5
6FD
330
655
100
AcDbEntity
  8
0
  6
Continuous
 62
     7
370
    15
100
AcDbLine
 10
2277.845269455334
 20
888.0474804737101
 30
0.0
 11
2275.939189965111
 21
886.9471242057462
 31
0.0
  0
LINE
  5
6FE
330
655
100
AcDbEntity
  8
0
  6
Continuous
 62
     7
370
    15
100
AcDbLine
 10
2278.084855286754
 20
889.478217629909
 30
0.0
 11
2277.845269455334
 21
888.0474804737101
 31
0.0
  0
LINE
  5
6FF
330
655
100
AcDbEntity
  8
0
  6
Continuous
 62
     7
370
    15
100
AcDbLine
 10
2262.494727004919
 20
910.6546466631085
 30
0.0
 11
2262.211884292444
 21
910.4913650407437
 31
0.0
  0
LINE
  5
700
330
655
100
AcDbEntity
  8
0
  6
Continuous
 62
     7
370
    15
100
AcDbLine
 10
2262.211884292444
 20
910.4913650407437
 30
0.0
 11
2262.494727004919
 21
909.5931436076568
 31
0.0
  0
LINE
  5
701
330
655
100
AcDbEntity
  8
0
  6
Continuous
 62
     7
370
    15
100
AcDbLine
 10
2260.090563948885
 20
911.7159772084779
 30
0.0
 11
2262.211884292444
 21
910.4913650407437
 31
0.0
  0
LINE
  5
702
330
655
100
AcDbEntity
  8
0
  6
Continuous
 62
     7
370
    15
100
AcDbLine
 10
2260.37340666136
 20
911.8792588308425
 30
0.0
 11
2260.090563948885
 21
911.7159772084779
 31
0.0
  0
LINE
  5
703
330
655
100
AcDbEntity
  8
0
  6
Continuous
 62
     7
370
    15
100
AcDbLine
 10
2260.090563948885
 20
911.7159772084779
 30
0.0
 11
2260.37340666136
 21
910.817755775391
 31
0.0
  0
LINE
  5
704
330
655
100
AcDbEntity
  8
0
  6
Continuous
 62
     7
370
    15
100
AcDbLine
 10
2263.628608806261
 20
908.5110523162981
 30
0.0
 11
2265.749929149821
 21
909.7356644840322
 31
0.0
  0
ARC
  5
705
330
655
100
AcDbEntity
  8
0
  6
Continuous
 62
     7
370
    15
100
AcDbCircle
 10
2265.603154053839
 20
909.939941880814
 30
0.0
 40
0.2515396263740123
100
AcDbArc
 50
305.6975759694743
 51
5.620891283930589
  0
LINE
  5
706
330
655
100
AcDbEntity
  8
0
  6
Continuous
 62
     7
370
    15
100
AcDbLine
 10
2263.588232709575
 20
908.4877372846019
 30
0.0
 11
2265.709553053135
 21
909.7123494523358
 31
0.0
  0
LINE
  5
707
330
655
100
AcDbEntity
  8
0
  6
Continuous
 62
     7
370
    15
100
AcDbLine
 10
2265.749929149821
 20
909.7356644840322
 30
0.0
 11
2265.709553053135
 21
909.7123494523358
 31
0.0
  0
LINE
  5
708
330
655
100
AcDbEntity
  8
0
  6
Continuous
 62
     7
370
    15
100
AcDbLine
 10
2263.484675780294
 20
908.2588243971279
 30
0.0
 11
2265.605996123854
 21
909.4834363057701
 31
0.0
  0
ARC
  5
709
330
655
100
AcDbEntity
  8
0
  6
Continuous
 62
     7
370
    15
100
AcDbCircle
 10
2265.856323910082
 20
909.5080720960938
 30
0.0
 40
0.25153711996872
100
AcDbArc
 50
125.6967972034983
 51
185.6206148451907
  0
LINE
  5
70A
330
655
100
AcDbEntity
  8
0
  6
Continuous
 62
     7
370
    15
100
AcDbLine
 10
2265.605997931691
 20
907.8386208256121
 30
0.0
 11
2263.484677588131
 21
906.614008657878
 31
0.0
  0
LINE
  5
70B
330
655
100
AcDbEntity
  8
0
  6
Continuous
 62
     7
370
    15
100
AcDbLine
 10
2265.605996123854
 20
909.4834363057701
 30
0.0
 11
2265.605997931691
 21
907.8386208256121
 31
0.0
  0
SPLINE
  5
70C
330
655
100
AcDbEntity
  8
0
  6
Continuous
 62
     7
370
    15
100
AcDbSpline
210
0.0
220
0.0
230
1.0
 70
     8
 71
     3
 72
     9
 73
     5
 74
     0
 42
0.0000000001
 43
0.0000000001
 40
0.0
 40
0.0
 40
0.0
 40
0.0
 40
0.4289592542054201
 40
0.9999999999999998
 40
0.9999999999999998
 40
0.9999999999999998
 40
0.9999999999999998
 10
2277.703471090357
 20
887.828573414994
 30
0.0
 10
2277.733915828259
 20
887.8472233962421
 30
0.0
 10
2277.804889324235
 20
887.890700675412
 30
0.0
 10
2277.830592114698
 20
887.9904942668371
 30
0.0
 10
2277.845269455334
 20
888.0474804737101
 30
0.0
  0
LINE
  5
70D
330
655
100
AcDbEntity
  8
0
  6
Continuous
 62
     7
370
    15
100
AcDbLine
 10
2269.390554350897
 20
896.970841212126
 30
0.0
 11
2267.269226054497
 21
898.1954867130657
 31
0.0
  0
ARC
  5
70E
330
655
100
AcDbEntity
  8
0
  6
Continuous
 62
     7
370
    15
100
AcDbCircle
 10
2267.729790884864
 20
898.1745284574257
 30
0.0
 40
0.4610414422268412
100
AcDbArc
 50
122.6054783372439
 51
177.3945215188494
  0
LINE
  5
70F
330
655
100
AcDbEntity
  8
0
  6
Continuous
 62
     7
370
    15
100
AcDbLine
 10
2269.602686233319
 20
897.3382647601992
 30
0.0
 11
2267.481358088852
 21
898.5629101734174
 31
0.0
  0
LINE
  5
710
330
655
100
AcDbEntity
  8
0
  6
Continuous
 62
     7
370
    15
100
AcDbLine
 10
2269.636489320806
 20
897.3577788672171
 30
0.0
 11
2267.515162881668
 21
898.5824232959666
 31
0.0
  0
ARC
  5
711
330
655
100
AcDbEntity
  8
0
  6
Continuous
 62
     7
370
    15
100
AcDbCircle
 10
2267.266741226716
 20
898.9708007511337
 30
0.0
 40
0.4610318495843487
100
AcDbArc
 50
302.6045973000403
 51
357.3948761075631
  0
LINE
  5
712
330
655
100
AcDbEntity
  8
0
  6
Continuous
 62
     7
370
    15
100
AcDbLine
 10
2269.15096486572
 20
890.8658831424952
 30
0.0
 11
2269.390550697141
 21
892.2966202986939
 31
0.0
  0
SPLINE
  5
713
330
655
100
AcDbEntity
  8
0
  6
Continuous
 62
     7
370
    15
100
AcDbSpline
210
0.0
220
0.0
230
1.0
 70
     8
 71
     3
 72
    10
 73
     6
 74
     0
 42
0.0000000001
 43
0.0000000001
 40
0.0
 40
0.0
 40
0.0
 40
0.0
 40
0.5
 40
0.5
 40
1.0
 40
1.0
 40
1.0
 40
1.0
 10
2269.15096486572
 20
890.8658831424952
 30
0.0
 10
2269.130963080566
 20
890.746438277829
 30
0.0
 10
2269.069911052512
 20
890.6595721319648
 30
0.0
 10
2268.893436070777
 20
890.5904514957562
 30
0.0
 10
2268.778695750455
 20
890.6084643750498
 30
0.0
 10
2268.6635098728
 20
890.6749597668264
 30
0.0
  0
LINE
  5
714
330
655
100
AcDbEntity
  8
0
  6
Continuous
 62
     7
370
    15
100
AcDbLine
 10
2267.996266878839
 20
891.060150948215
 30
0.0
 11
2268.6635098728
 21
890.6749597668262
 31
0.0
  0
ARC
  5
715
330
655
100
AcDbEntity
  8
0
  6
Continuous
 62
     7
370
    15
100
AcDbCircle
 10
2268.591042880683
 20
891.9792966382699
 30
0.0
 40
1.094800115051516
100
AcDbArc
 50
188.6903853336234
 51
237.0932335995496
  0
LINE
  5
716
330
655
100
AcDbEntity
  8
0
  6
Continuous
 62
     7
370
    15
100
AcDbLine
 10
2267.269226054497
 20
893.521234948237
 30
0.0
 11
2267.508811885917
 21
891.8138778791
 31
0.0
  0
LINE
  5
717
330
655
100
AcDbEntity
  8
0
  6
Continuous
 62
     7
370
    15
100
AcDbLine
 10
2267.269226054497
 20
898.1954867130657
 30
0.0
 11
2267.269226054497
 21
893.521234948237
 31
0.0
  0
LINE
  5
718
330
655
100
AcDbEntity
  8
0
  6
Continuous
 62
     7
370
    15
100
AcDbLine
 10
2267.515162881668
 20
898.5824232959666
 30
0.0
 11
2267.481358088852
 21
898.5629101734174
 31
0.0
  0
LINE
  5
719
330
655
100
AcDbEntity
  8
0
  6
Continuous
 62
     7
370
    15
100
AcDbLine
 10
2263.237191293675
 20
906.4710914163596
 30
0.0
 11
2265.358511637235
 21
907.6957035840935
 31
0.0
  0
LINE
  5
71A
330
655
100
AcDbEntity
  8
0
  6
Continuous
 62
     7
370
    15
100
AcDbLine
 10
2265.605997931691
 20
907.8386208256121
 30
0.0
 11
2265.358511637235
 21
907.6957035840935
 31
0.0
  0
LINE
  5
71B
330
655
100
AcDbEntity
  8
0
  6
Continuous
 62
     7
370
    15
100
AcDbLine
 10
2264.26246996613
 20
902.0929454458912
 30
0.0
 11
2264.296273053617
 21
902.1124595529281
 31
0.0
  0
ARC
  5
71C
330
655
100
AcDbEntity
  8
0
  6
Continuous
 62
     7
370
    15
100
AcDbCircle
 10
2264.37908590818
 20
902.010933845084
 30
0.0
 40
0.1310131587922853
100
AcDbArc
 50
350.7863151497494
 51
129.2029331086786
  0
LINE
  5
71D
330
655
100
AcDbEntity
  8
0
  6
Continuous
 62
     7
370
    15
100
AcDbLine
 10
2264.508411641052
 20
897.3157317203947
 30
0.0
 11
2264.508408741747
 21
901.9899564168531
 31
0.0
  0
LINE
  5
71E
330
655
100
AcDbEntity
  8
0
  6
Continuous
 62
     7
370
    15
100
AcDbLine
 10
2262.60232559775
 20
896.2153792354429
 30
0.0
 11
2264.508405087973
 21
897.3157355034068
 31
0.0
  0
LINE
  5
71F
330
655
100
AcDbEntity
  8
0
  6
Continuous
 62
     7
370
    15
100
AcDbLine
 10
2262.602329251508
 20
900.8896001488755
 30
0.0
 11
2262.602332150829
 21
896.2153754524308
 31
0.0
  0
ARC
  5
720
330
655
100
AcDbEntity
  8
0
  6
Continuous
 62
     7
370
    15
100
AcDbCircle
 10
2263.062881673228
 20
900.8686492528182
 30
0.0
 40
0.4610287119036189
100
AcDbArc
 50
122.6046821356218
 51
177.3953651058521
  0
LINE
  5
721
330
655
100
AcDbEntity
  8
0
  6
Continuous
 62
     7
370
    15
100
AcDbLine
 10
2262.814461133928
 20
901.2570236969482
 30
0.0
 11
2262.848264221415
 21
901.2765378039663
 31
0.0
  0
ARC
  5
722
330
655
100
AcDbEntity
  8
0
  6
Continuous
 62
     7
370
    15
100
AcDbCircle
 10
2262.599831170054
 20
901.6649194523733
 30
0.0
 40
0.4610415228892906
100
AcDbArc
 50
302.6055095954552
 51
357.39454238387
  0
LINE
  5
723
330
655
100
AcDbEntity
  8
0
  6
Continuous
 62
     7
370
    15
100
AcDbLine
 10
2263.060396155716
 20
906.5731530770596
 30
0.0
 11
2263.060396088633
 21
901.6439613607873
 31
0.0
  0
LINE
  5
724
330
655
100
AcDbEntity
  8
0
  6
Continuous
 62
     7
370
    15
100
AcDbLine
 10
2264.050341190484
 20
902.2154445914477
 30
0.0
 11
2264.050341190484
 21
906.940512859871
 31
0.0
  0
SPLINE
  5
725
330
655
100
AcDbEntity
  8
0
  6
Continuous
 62
     7
370
    15
100
AcDbSpline
210
0.0
220
0.0
230
1.0
 70
     8
 71
     3
 72
    14
 73
    10
 74
     0
 42
0.0000000001
 43
0.0000000001
 40
0.0
 40
0.0
 40
0.0
 40
0.0
 40
0.0840876777391322
 40
0.1672016938460899
 40
0.250755854568427
 40
0.5000979028892965
 40
0.7494399512101743
 40
0.8738244721235327
 40
1.0
 40
1.0
 40
1.0
 40
1.0
 10
2264.262473467951
 20
902.0929434243324
 30
0.0
 10
2264.253163654684
 20
902.0879917922966
 30
0.0
 10
2264.234651827631
 20
902.0781458637857
 30
0.0
 10
2264.207355003881
 20
902.0688853800235
 30
0.0
 10
2264.16367330197
 20
902.0606448385263
 30
0.0
 10
2264.10844437997
 20
902.0712485784564
 30
0.0
 10
2264.06947840259
 20
902.1168276551989
 30
0.0
 10
2264.05271502451
 20
902.1685862684211
 30
0.0
 10
2264.051136290874
 20
902.1997508603627
 30
0.0
 10
2264.050341281651
 20
902.2154445388173
 30
0.0
  0
LINE
  5
726
330
655
100
AcDbEntity
  8
0
  6
Continuous
 62
     7
370
    15
100
AcDbLine
 10
2260.93907150466
 20
902.8686047185672
 30
0.0
 11
2260.93907150466
 21
907.7977677314587
 31
0.0
  0
LINE
  5
727
330
655
100
AcDbEntity
  8
0
  6
Continuous
 62
     7
370
    15
100
AcDbLine
 10
2263.060396088633
 20
901.6439613607873
 30
0.0
 11
2260.93907150466
 21
902.8686047185672
 31
0.0
  0
LINE
  5
728
330
655
100
AcDbEntity
  8
0
  6
Continuous
 62
     7
370
    15
100
AcDbLine
 10
2259.065259116164
 20
913.8833380611512
 30
0.0
 11
2256.943938772604
 21
912.658725893417
 31
0.0
  0
LINE
  5
729
330
655
100
AcDbEntity
  8
0
  6
Continuous
 62
     7
370
    15
100
AcDbLine
 10
2259.065259116164
 20
914.351933880823
 30
0.0
 11
2259.065259116164
 21
913.8833380611512
 31
0.0
  0
LINE
  5
72A
330
655
100
AcDbEntity
  8
0
  6
Continuous
 62
     7
370
    15
100
AcDbLine
 10
2271.057044355943
 20
891.9662394104589
 30
0.0
 11
2269.15096486572
 21
890.8658831424952
 31
0.0
  0
LINE
  5
72B
330
655
100
AcDbEntity
  8
0
  6
Continuous
 62
     7
370
    15
100
AcDbLine
 10
2271.296630187364
 20
893.396976566658
 30
0.0
 11
2271.057044355943
 21
891.9662394104589
 31
0.0
  0
LINE
  5
72C
330
655
100
AcDbEntity
  8
0
  6
Continuous
 62
     7
370
    15
100
AcDbLine
 10
2253.302338849493
 20
915.6347361452269
 30
0.0
 11
2253.585181561969
 21
914.73651471214
 31
0.0
  0
LINE
  5
72D
330
655
100
AcDbEntity
  8
0
  6
Continuous
 62
     7
370
    15
100
AcDbLine
 10
2253.302338849493
 20
915.6347361452269
 30
0.0
 11
2255.423659193053
 21
914.4101239774929
 31
0.0
  0
LINE
  5
72E
330
655
100
AcDbEntity
  8
0
  6
Continuous
 62
     7
370
    15
100
AcDbLine
 10
2255.423659193053
 20
914.4101239774929
 30
0.0
 11
2255.706501905528
 21
913.511902544406
 31
0.0
  0
LINE
  5
72F
330
655
100
AcDbEntity
  8
0
  6
Continuous
 62
     7
370
    15
100
AcDbLine
 10
2253.585181561969
 20
915.7980177675915
 30
0.0
 11
2253.302338849493
 21
915.6347361452269
 31
0.0
  0
LINE
  5
730
330
655
100
AcDbEntity
  8
0
  6
Continuous
 62
     7
370
    15
100
AcDbLine
 10
2255.706501905528
 20
914.5734055998575
 30
0.0
 11
2255.423659193053
 21
914.4101239774929
 31
0.0
  0
LINE
  5
731
330
655
100
AcDbEntity
  8
0
  6
Continuous
 62
     7
370
    15
100
AcDbLine
 10
2256.84038370687
 20
912.4298112530473
 30
0.0
 11
2258.961704050429
 21
913.6544234207812
 31
0.0
  0
ARC
  5
732
330
655
100
AcDbEntity
  8
0
  6
Continuous
 62
     7
370
    15
100
AcDbCircle
 10
2258.814928954448
 20
913.858700817563
 30
0.0
 40
0.2515396263739944
100
AcDbArc
 50
305.6975759694743
 51
5.620891283939624
  0
LINE
  5
733
330
655
100
AcDbEntity
  8
0
  6
Continuous
 62
     7
370
    15
100
AcDbLine
 10
2256.800007610184
 20
912.4064962213509
 30
0.0
 11
2258.921327953744
 21
913.631108389085
 31
0.0
  0
LINE
  5
734
330
655
100
AcDbEntity
  8
0
  6
Continuous
 62
     7
370
    15
100
AcDbLine
 10
2258.961704050429
 20
913.6544234207812
 30
0.0
 11
2258.921327953744
 21
913.631108389085
 31
0.0
  0
LINE
  5
735
330
655
100
AcDbEntity
  8
0
  6
Continuous
 62
     7
370
    15
100
AcDbLine
 10
2256.696450680903
 20
912.1775833338769
 30
0.0
 11
2258.817771024463
 21
913.4021952425193
 31
0.0
  0
ARC
  5
736
330
655
100
AcDbEntity
  8
0
  6
Continuous
 62
     7
370
    15
100
AcDbCircle
 10
2259.06809881069
 20
913.4268310328428
 30
0.0
 40
0.2515371199684682
100
AcDbArc
 50
125.696797203437
 51
185.6206148452036
  0
LINE
  5
737
330
655
100
AcDbEntity
  8
0
  6
Continuous
 62
     7
370
    15
100
AcDbLine
 10
2258.8177728323
 20
911.7573797623611
 30
0.0
 11
2256.69645248874
 21
910.532767594627
 31
0.0
  0
LINE
  5
738
330
655
100
AcDbEntity
  8
0
  6
Continuous
 62
     7
370
    15
100
AcDbLine
 10
2258.817771024463
 20
913.4021952425193
 30
0.0
 11
2258.8177728323
 21
911.7573797623611
 31
0.0
  0
SPLINE
  5
739
330
655
100
AcDbEntity
  8
0
  6
Continuous
 62
     7
370
    15
100
AcDbSpline
210
0.0
220
0.0
230
1.0
 70
     8
 71
     3
 72
     9
 73
     5
 74
     0
 42
0.0000000001
 43
0.0000000001
 40
0.0
 40
0.0
 40
0.0
 40
0.0
 40
0.4289592542052287
 40
1.0
 40
1.0
 40
1.0
 40
1.0
 10
2270.915245990966
 20
891.747332351743
 30
0.0
 10
2270.945690728868
 20
891.7659823329909
 30
0.0
 10
2271.016664224844
 20
891.8094596121612
 30
0.0
 10
2271.042367015307
 20
891.9092532035861
 30
0.0
 10
2271.057044355943
 20
891.9662394104589
 30
0.0
  0
LINE
  5
73A
330
655
100
AcDbEntity
  8
0
  6
Continuous
 62
     7
370
    15
100
AcDbLine
 10
2262.602329251506
 20
900.8896001488748
 30
0.0
 11
2260.481000955106
 21
902.1142456498147
 31
0.0
  0
ARC
  5
73B
330
655
100
AcDbEntity
  8
0
  6
Continuous
 62
     7
370
    15
100
AcDbCircle
 10
2260.941565785473
 20
902.0932873941747
 30
0.0
 40
0.461041442226778
100
AcDbArc
 50
122.6054783372439
 51
177.3945215188559
  0
LINE
  5
73C
330
655
100
AcDbEntity
  8
0
  6
Continuous
 62
     7
370
    15
100
AcDbLine
 10
2262.814461133928
 20
901.2570236969482
 30
0.0
 11
2260.693132989462
 21
902.4816691101664
 31
0.0
  0
LINE
  5
73D
330
655
100
AcDbEntity
  8
0
  6
Continuous
 62
     7
370
    15
100
AcDbLine
 10
2262.848264221415
 20
901.2765378039663
 30
0.0
 11
2260.726937782277
 21
902.5011822327158
 31
0.0
  0
ARC
  5
73E
330
655
100
AcDbEntity
  8
0
  6
Continuous
 62
     7
370
    15
100
AcDbCircle
 10
2260.478516127325
 20
902.8895596878829
 30
0.0
 40
0.4610318495845077
100
AcDbArc
 50
302.6045973000183
 51
357.3948761075436
  0
LINE
  5
73F
330
655
100
AcDbEntity
  8
0
  6
Continuous
 62
     7
370
    15
100
AcDbLine
 10
2262.362739766329
 20
894.7846420792442
 30
0.0
 11
2262.60232559775
 21
896.2153792354429
 31
0.0
  0
SPLINE
  5
740
330
655
100
AcDbEntity
  8
0
  6
Continuous
 62
     7
370
    15
100
AcDbSpline
210
0.0
220
0.0
230
1.0
 70
     8
 71
     3
 72
    10
 73
     6
 74
     0
 42
0.0000000001
 43
0.0000000001
 40
0.0
 40
0.0
 40
0.0
 40
0.0
 40
0.5
 40
0.5
 40
1.0
 40
1.0
 40
1.0
 40
1.0
 10
2262.362739766329
 20
894.7846420792442
 30
0.0
 10
2262.342737981175
 20
894.6651972145783
 30
0.0
 10
2262.281685953121
 20
894.578331068714
 30
0.0
 10
2262.105210971387
 20
894.5092104325052
 30
0.0
 10
2261.990470651065
 20
894.5272233117988
 30
0.0
 10
2261.875284773408
 20
894.5937187035754
 30
0.0
  0
LINE
  5
741
330
655
100
AcDbEntity
  8
0
  6
Continuous
 62
     7
370
    15
100
AcDbLine
 10
2261.208041779447
 20
894.9789098849642
 30
0.0
 11
2261.875284773408
 21
894.5937187035752
 31
0.0
  0
ARC
  5
742
330
655
100
AcDbEntity
  8
0
  6
Continuous
 62
     7
370
    15
100
AcDbCircle
 10
2261.802817781293
 20
895.8980555750189
 30
0.0
 40
1.094800115051534
100
AcDbArc
 50
188.6903853336234
 51
237.0932335995461
  0
LINE
  5
743
330
655
100
AcDbEntity
  8
0
  6
Continuous
 62
     7
370
    15
100
AcDbLine
 10
2260.481000955106
 20
897.439993884986
 30
0.0
 11
2260.720586786527
 21
895.732636815849
 31
0.0
  0
LINE
  5
744
330
655
100
AcDbEntity
  8
0
  6
Continuous
 62
     7
370
    15
100
AcDbLine
 10
2260.481000955106
 20
902.1142456498147
 30
0.0
 11
2260.481000955106
 21
897.439993884986
 31
0.0
  0
LINE
  5
745
330
655
100
AcDbEntity
  8
0
  6
Continuous
 62
     7
370
    15
100
AcDbLine
 10
2260.726937782277
 20
902.5011822327158
 30
0.0
 11
2260.693132989462
 21
902.4816691101664
 31
0.0
  0
LINE
  5
746
330
655
100
AcDbEntity
  8
0
  6
Continuous
 62
     7
370
    15
100
AcDbLine
 10
2256.448966194284
 20
910.3898503531084
 30
0.0
 11
2258.570286537844
 21
911.6144625208425
 31
0.0
  0
LINE
  5
747
330
655
100
AcDbEntity
  8
0
  6
Continuous
 62
     7
370
    15
100
AcDbLine
 10
2258.8177728323
 20
911.7573797623611
 30
0.0
 11
2258.570286537844
 21
911.6144625208425
 31
0.0
  0
LINE
  5
748
330
655
100
AcDbEntity
  8
0
  6
Continuous
 62
     7
370
    15
100
AcDbLine
 10
2257.474244866739
 20
906.0117043826402
 30
0.0
 11
2257.508047954226
 21
906.0312184896773
 31
0.0
  0
ARC
  5
749
330
655
100
AcDbEntity
  8
0
  6
Continuous
 62
     7
370
    15
100
AcDbCircle
 10
2257.59086080879
 20
905.9296927818332
 30
0.0
 40
0.1310131587922709
100
AcDbArc
 50
350.7863151497108
 51
129.2029331087071
  0
LINE
  5
74A
330
655
100
AcDbEntity
  8
0
  6
Continuous
 62
     7
370
    15
100
AcDbLine
 10
2257.720186541662
 20
901.2344906571438
 30
0.0
 11
2257.720183642355
 21
905.9087153536021
 31
0.0
  0
LINE
  5
74B
330
655
100
AcDbEntity
  8
0
  6
Continuous
 62
     7
370
    15
100
AcDbLine
 10
2255.814100498359
 20
900.1341381721921
 30
0.0
 11
2257.720179988582
 21
901.234494440156
 31
0.0
  0
LINE
  5
74C
330
655
100
AcDbEntity
  8
0
  6
Continuous
 62
     7
370
    15
100
AcDbLine
 10
2255.814104152117
 20
904.8083590856245
 30
0.0
 11
2255.814107051438
 21
900.1341343891798
 31
0.0
  0
ARC
  5
74D
330
655
100
AcDbEntity
  8
0
  6
Continuous
 62
     7
370
    15
100
AcDbCircle
 10
2256.274656573837
 20
904.7874081895672
 30
0.0
 40
0.461028711903624
100
AcDbArc
 50
122.6046821355928
 51
177.3953651058391
  0
LINE
  5
74E
330
655
100
AcDbEntity
  8
0
  6
Continuous
 62
     7
370
    15
100
AcDbLine
 10
2256.026236034537
 20
905.1757826336972
 30
0.0
 11
2256.060039122024
 21
905.1952967407153
 31
0.0
  0
ARC
  5
74F
330
655
100
AcDbEntity
  8
0
  6
Continuous
 62
     7
370
    15
100
AcDbCircle
 10
2255.811606070663
 20
905.5836783891225
 30
0.0
 40
0.4610415228896843
100
AcDbArc
 50
302.6055095954877
 51
357.394542383844
  0
LINE
  5
750
330
655
100
AcDbEntity
  8
0
  6
Continuous
 62
     7
370
    15
100
AcDbLine
 10
2256.272171056325
 20
910.4919120138086
 30
0.0
 11
2256.272170989242
 21
905.5627202975363
 31
0.0
  0
LINE
  5
751
330
655
100
AcDbEntity
  8
0
  6
Continuous
 62
     7
370
    15
100
AcDbLine
 10
2257.262116091093
 20
906.1342035281967
 30
0.0
 11
2257.262116091093
 21
910.8592717966201
 31
0.0
  0
SPLINE
  5
752
330
655
100
AcDbEntity
  8
0
  6
Continuous
 62
     7
370
    15
100
AcDbSpline
210
0.0
220
0.0
230
1.0
 70
     8
 71
     3
 72
    14
 73
    10
 74
     0
 42
0.0000000001
 43
0.0000000001
 40
0.0
 40
0.0
 40
0.0
 40
0.0
 40
0.0840876777391322
 40
0.1672016938460899
 40
0.250755854568427
 40
0.5000979028892965
 40
0.7494399512101743
 40
0.8738244721235327
 40
1.0
 40
1.0
 40
1.0
 40
1.0
 10
2257.474248368561
 20
906.0117023610812
 30
0.0
 10
2257.464938555294
 20
906.0067507290456
 30
0.0
 10
2257.446426728241
 20
905.9969048005347
 30
0.0
 10
2257.41912990449
 20
905.9876443167725
 30
0.0
 10
2257.375448202579
 20
905.9794037752753
 30
0.0
 10
2257.320219280579
 20
905.9900075152054
 30
0.0
 10
2257.281253303199
 20
906.0355865919479
 30
0.0
 10
2257.264489925118
 20
906.0873452051701
 30
0.0
 10
2257.262911191483
 20
906.1185097971117
 30
0.0
 10
2257.26211618226
 20
906.1342034755663
 30
0.0
  0
LINE
  5
753
330
655
100
AcDbEntity
  8
0
  6
Continuous
 62
     7
370
    15
100
AcDbLine
 10
2254.150846405269
 20
906.7873636553162
 30
0.0
 11
2254.150846405269
 21
911.7165266682075
 31
0.0
  0
LINE
  5
754
330
655
100
AcDbEntity
  8
0
  6
Continuous
 62
     7
370
    15
100
AcDbLine
 10
2256.272170989242
 20
905.5627202975363
 30
0.0
 11
2254.150846405269
 21
906.7873636553162
 31
0.0
  0
LINE
  5
755
330
655
100
AcDbEntity
  8
0
  6
Continuous
 62
     7
370
    15
100
AcDbLine
 10
2264.268819256552
 20
895.8849983472081
 30
0.0
 11
2262.362739766329
 21
894.7846420792442
 31
0.0
  0
LINE
  5
756
330
655
100
AcDbEntity
  8
0
  6
Continuous
 62
     7
370
    15
100
AcDbLine
 10
2264.508405087973
 20
897.315735503407
 30
0.0
 11
2264.268819256552
 21
895.8849983472081
 31
0.0
  0
SPLINE
  5
757
330
655
100
AcDbEntity
  8
0
  6
Continuous
 62
     7
370
    15
100
AcDbSpline
210
0.0
220
0.0
230
1.0
 70
     8
 71
     3
 72
     9
 73
     5
 74
     0
 42
0.0000000001
 43
0.0000000001
 40
0.0
 40
0.0
 40
0.0
 40
0.0
 40
0.4289592542052287
 40
1.0
 40
1.0
 40
1.0
 40
1.0
 10
2264.127020891576
 20
895.666091288492
 30
0.0
 10
2264.157465629478
 20
895.6847412697399
 30
0.0
 10
2264.228439125453
 20
895.7282185489104
 30
0.0
 10
2264.254141915917
 20
895.8280121403353
 30
0.0
 10
2264.268819256552
 20
895.8849983472081
 30
0.0
  0
LINE
  5
758
330
655
100
AcDbEntity
  8
0
  6
Continuous
 62
     7
370
    15
100
AcDbLine
 10
2255.814104152115
 20
904.808359085624
 30
0.0
 11
2253.692775855715
 21
906.0330045865637
 31
0.0
  0
ARC
  5
759
330
655
100
AcDbEntity
  8
0
  6
Continuous
 62
     7
370
    15
100
AcDbCircle
 10
2254.153340686082
 20
906.0120463309237
 30
0.0
 40
0.4610414422268173
100
AcDbArc
 50
122.6054783372439
 51
177.3945215188559
  0
LINE
  5
75A
330
655
100
AcDbEntity
  8
0
  6
Continuous
 62
     7
370
    15
100
AcDbLine
 10
2256.026236034537
 20
905.1757826336972
 30
0.0
 11
2253.904907890071
 21
906.4004280469156
 31
0.0
  0
LINE
  5
75B
330
655
100
AcDbEntity
  8
0
  6
Continuous
 62
     7
370
    15
100
AcDbLine
 10
2256.060039122024
 20
905.1952967407153
 30
0.0
 11
2253.938712682886
 21
906.4199411694648
 31
0.0
  0
ARC
  5
75C
330
655
100
AcDbEntity
  8
0
  6
Continuous
 62
     7
370
    15
100
AcDbCircle
 10
2253.690291027934
 20
906.8083186246315
 30
0.0
 40
0.4610318495841562
100
AcDbArc
 50
302.6045973000113
 51
357.3948761075631
  0
LINE
  5
75D
330
655
100
AcDbEntity
  8
0
  6
Continuous
 62
     7
370
    15
100
AcDbLine
 10
2255.574514666939
 20
898.7034010159932
 30
0.0
 11
2255.814100498359
 21
900.1341381721921
 31
0.0
  0
SPLINE
  5
75E
330
655
100
AcDbEntity
  8
0
  6
Continuous
 62
     7
370
    15
100
AcDbSpline
210
0.0
220
0.0
230
1.0
 70
     8
 71
     3
 72
    10
 73
     6
 74
     0
 42
0.0000000001
 43
0.0000000001
 40
0.0
 40
0.0
 40
0.0
 40
0.0
 40
0.5
 40
0.5
 40
1.0
 40
1.0
 40
1.0
 40
1.0
 10
2255.574514666939
 20
898.7034010159932
 30
0.0
 10
2255.554512881785
 20
898.5839561513271
 30
0.0
 10
2255.49346085373
 20
898.497090005463
 30
0.0
 10
2255.316985871995
 20
898.4279693692544
 30
0.0
 10
2255.202245551673
 20
898.4459822485478
 30
0.0
 10
2255.087059674018
 20
898.5124776403244
 30
0.0
  0
LINE
  5
75F
330
655
100
AcDbEntity
  8
0
  6
Continuous
 62
     7
370
    15
100
AcDbLine
 10
2254.419816680057
 20
898.8976688217132
 30
0.0
 11
2255.087059674018
 21
898.5124776403242
 31
0.0
  0
ARC
  5
760
330
655
100
AcDbEntity
  8
0
  6
Continuous
 62
     7
370
    15
100
AcDbCircle
 10
2255.014592681901
 20
899.8168145117677
 30
0.0
 40
1.094800115051145
100
AcDbArc
 50
188.6903853336106
 51
237.0932335995531
  0
LINE
  5
761
330
655
100
AcDbEntity
  8
0
  6
Continuous
 62
     7
370
    15
100
AcDbLine
 10
2253.692775855715
 20
901.3587528217351
 30
0.0
 11
2253.932361687136
 21
899.651395752598
 31
0.0
  0
LINE
  5
762
330
655
100
AcDbEntity
  8
0
  6
Continuous
 62
     7
370
    15
100
AcDbLine
 10
2253.692775855715
 20
906.0330045865637
 30
0.0
 11
2253.692775855715
 21
901.3587528217351
 31
0.0
  0
LINE
  5
763
330
655
100
AcDbEntity
  8
0
  6
Continuous
 62
     7
370
    15
100
AcDbLine
 10
2253.938712682886
 20
906.4199411694648
 30
0.0
 11
2253.904907890071
 21
906.4004280469156
 31
0.0
  0
LINE
  5
764
330
655
100
AcDbEntity
  8
0
  6
Continuous
 62
     7
370
    15
100
AcDbLine
 10
2257.480594157161
 20
899.8037572839571
 30
0.0
 11
2255.574514666939
 21
898.7034010159932
 31
0.0
  0
LINE
  5
765
330
655
100
AcDbEntity
  8
0
  6
Continuous
 62
     7
370
    15
100
AcDbLine
 10
2257.720179988582
 20
901.234494440156
 30
0.0
 11
2257.480594157161
 21
899.8037572839571
 31
0.0
  0
SPLINE
  5
766
330
655
100
AcDbEntity
  8
0
  6
Continuous
 62
     7
370
    15
100
AcDbSpline
210
0.0
220
0.0
230
1.0
 70
     8
 71
     3
 72
     9
 73
     5
 74
     0
 42
0.0000000001
 43
0.0000000001
 40
0.0
 40
0.0
 40
0.0
 40
0.0
 40
0.4289592542052287
 40
1.0
 40
1.0
 40
1.0
 40
1.0
 10
2257.338795792185
 20
899.584850225241
 30
0.0
 10
2257.369240530087
 20
899.6035002064889
 30
0.0
 10
2257.440214026062
 20
899.6469774856594
 30
0.0
 10
2257.465916816526
 20
899.7467710770843
 30
0.0
 10
2257.480594157161
 20
899.8037572839571
 30
0.0
  0
LINE
  5
767
330
655
100
AcDbEntity
  8
0
  6
Continuous
 62
     8
370
    15
100
AcDbLine
 10
2277.626788132967
 20
894.3778916619795
 30
0.0
 11
2277.838923575567
 21
894.2554256034677
 31
0.0
  0
LINE
  5
768
330
655
100
AcDbEntity
  8
0
  6
Continuous
 62
     8
370
    15
100
AcDbLine
 10
2277.626791389256
 20
894.4169184542273
 30
0.0
 11
2277.872726663054
 21
894.2749397104892
 31
0.0
  0
LINE
  5
769
330
655
100
AcDbEntity
  8
0
  6
Continuous
 62
     8
370
    15
100
AcDbLine
 10
2270.838573461524
 20
898.296644578661
 30
0.0
 11
2271.05069506552
 21
898.1741865091422
 31
0.0
  0
LINE
  5
76A
330
655
100
AcDbEntity
  8
0
  6
Continuous
 62
     8
370
    15
100
AcDbLine
 10
2270.838566289875
 20
898.3356773909745
 30
0.0
 11
2271.08450165483
 21
898.193698594612
 31
0.0
  0
LINE
  5
76B
330
655
100
AcDbEntity
  8
0
  6
Continuous
 62
     8
370
    15
100
AcDbLine
 10
2264.050348362133
 20
902.21540351541
 30
0.0
 11
2264.26246996613
 21
902.0929454458912
 31
0.0
  0
LINE
  5
76C
330
655
100
AcDbEntity
  8
0
  6
Continuous
 62
     8
370
    15
100
AcDbLine
 10
2264.050341190484
 20
902.2544363277237
 30
0.0
 11
2264.296276555439
 21
902.112457531361
 31
0.0
  0
LINE
  5
76D
330
655
100
AcDbEntity
  8
0
  6
Continuous
 62
     8
370
    15
100
AcDbLine
 10
2257.262123262743
 20
906.134162452159
 30
0.0
 11
2257.474244866739
 21
906.0117043826402
 31
0.0
  0
LINE
  5
76E
330
655
100
AcDbEntity
  8
0
  6
Continuous
 62
     8
370
    15
100
AcDbLine
 10
2257.262116091093
 20
906.1731952644727
 30
0.0
 11
2257.508051456048
 21
906.0312164681102
 31
0.0
  0
ENDBLK
  5
657
330
655
100
AcDbEntity
  8
0
100
AcDbBlockEnd
  0
ENDSEC
  0
SECTION
  2
ENTITIES
  0
INSERT
  5
60D
330
1F
100
AcDbEntity
  8
0
100
AcDbBlockReference
  2
1
 10
0.0
 20
0.0
 30
0.0
  0
INSERT
  5
64C
330
1F
100
AcDbEntity
  8
0
100
AcDbBlockReference
  2
2
 10
0.0
 20
0.0
 30
0.0
  0
INSERT
  5
654
330
1F
100
AcDbEntity
  8
0
100
AcDbBlockReference
  2
3
 10
0.0
 20
0.0
 30
0.0
  0
INSERT
  5
76F
330
1F
100
AcDbEntity
  8
0
100
AcDbBlockReference
  2
4
 10
0.0
 20
0.0
 30
0.0
  0
ENDSEC
  0
SECTION
  2
OBJECTS
  0
DICTIONARY
  5
C
330
0
100
AcDbDictionary
281
     1
  3
ACAD_COLOR
350
6B
  3
ACAD_GROUP
350
D
  3
ACAD_LAYOUT
350
1A
  3
ACAD_MATERIAL
350
6A
  3
ACAD_MLEADERSTYLE
350
12D
  3
ACAD_MLINESTYLE
350
17
  3
ACAD_PLOTSETTINGS
350
19
  3
ACAD_PLOTSTYLENAME
350
E
  3
ACAD_SCALELIST
350
10C
  3
ACAD_TABLESTYLE
350
7E
  3
ACAD_VISUALSTYLE
350
EF
  3
ACDB_RECOMPOSE_DATA
350
15D
  3
AcDbVariableDictionary
350
5E
  3
DWGPROPS
350
77D
  0
DICTIONARY
  5
13C
330
10
100
AcDbDictionary
280
     1
281
     1
  3
ADSK_XREC_LAYER_RECONCILED
360
770
  0
DICTIONARY
  5
6B
102
{ACAD_REACTORS
330
C
102
}
330
C
100
AcDbDictionary
281
     1
  0
DICTIONARY
  5
D
102
{ACAD_REACTORS
330
C
102
}
330
C
100
AcDbDictionary
281
     1
  0
DICTIONARY
  5
1A
102
{ACAD_REACTORS
330
C
102
}
330
C
100
AcDbDictionary
281
     1
  3
Layout1
350
D3
  3
Layout2
350
D7
  3
Model
350
22
  0
DICTIONARY
  5
6A
102
{ACAD_REACTORS
330
C
102
}
330
C
100
AcDbDictionary
281
     1
  3
ByBlock
350
ED
  3
ByLayer
350
EC
  3
Global
350
EE
  0
DICTIONARY
  5
12D
102
{ACAD_REACTORS
330
C
102
}
330
C
100
AcDbDictionary
281
     1
  3
Annotative
350
13B
  3
Standard
350
12E
  0
DICTIONARY
  5
17
102
{ACAD_REACTORS
330
C
102
}
330
C
100
AcDbDictionary
281
     1
  3
Standard
350
18
  0
DICTIONARY
  5
19
102
{ACAD_REACTORS
330
C
102
}
330
C
100
AcDbDictionary
281
     1
  0
ACDBDICTIONARYWDFLT
  5
E
102
{ACAD_REACTORS
330
C
102
}
330
C
100
AcDbDictionary
281
     1
  3
Normal
350
F
100
AcDbDictionaryWithDefault
340
F
  0
DICTIONARY
  5
10C
102
{ACAD_REACTORS
330
C
102
}
330
C
100
AcDbDictionary
281
     1
  3
A0
350
10D
  3
A1
350
188
  3
A2
350
189
  3
A3
350
18A
  3
A4
350
18B
  3
A5
350
18C
  3
A6
350
18D
  3
A7
350
18E
  3
A8
350
18F
  3
A9
350
190
  3
B0
350
191
  3
B1
350
192
  3
B2
350
193
  3
B3
350
194
  3
B4
350
195
  3
B5
350
196
  3
B6
350
197
  3
B7
350
198
  3
B8
350
199
  3
B9
350
19A
  3
C0
350
19B
  3
C1
350
19C
  3
C2
350
19D
  3
C3
350
19E
  3
C4
350
19F
  3
C5
350
1A0
  3
C6
350
1A1
  3
C7
350
1A2
  3
C8
350
1A3
  3
C9
350
1A4
  3
D0
350
1A5
  3
D1
350
1A6
  3
D2
350
1A7
  0
DICTIONARY
  5
7E
102
{ACAD_REACTORS
330
C
102
}
330
C
100
AcDbDictionary
281
     1
  3
Standard
350
7F
  0
DICTIONARY
  5
EF
102
{ACAD_REACTORS
330
C
102
}
330
C
100
AcDbDictionary
281
     1
  3
2dWireframe
350
F5
  3
3D Hidden
350
F7
  3
3dWireframe
350
F6
  3
Basic
350
F4
  3
Brighten
350
FB
  3
ColorChange
350
FF
  3
Conceptual
350
F8
  3
Dim
350
FA
  3
Facepattern
350
FE
  3
Flat
350
F0
  3
FlatWithEdges
350
F1
  3
Gouraud
350
F2
  3
GouraudWithEdges
350
F3
  3
Linepattern
350
FD
  3
Realistic
350
F9
  3
Thicken
350
FC
  0
XRECORD
  5
15D
102
{ACAD_REACTORS
330
C
102
}
330
C
100
AcDbXrecord
280
     1
 90
        1
330
7F
  0
DICTIONARY
  5
5E
102
{ACAD_REACTORS
330
C
102
}
330
C
100
AcDbDictionary
281
     1
  3
CANNOSCALE
350
146
  3
CMLEADERSTYLE
350
145
  3
CTABLESTYLE
350
84
  3
DIMASSOC
350
5F
  3
HIDETEXT
350
63
  3
INDEXCTL
350
779
  3
LIGHTINGUNITS
350
777
  3
MSLTSCALE
350
776
  3
PSOLHEIGHT
350
77B
  3
PSOLWIDTH
350
77A
  3
SORTENTS
350
778
  0
XRECORD
  5
77D
102
{ACAD_REACTORS
330
C
102
}
330
C
100
AcDbXrecord
280
     1
  1
DWGPROPS COOKIE
  2

  3

  4

  6

  7

  8
orhan kara
  9

300
=
301
=
302
=
303
=
304
=
305
=
306
=
307
=
308
=
309
=
 40
0.0003239351851852
 41
2458933.72021566
 42
2458956.451167026
  1

 90
        0
  0
XRECORD
  5
770
102
{ACAD_REACTORS
330
13C
102
}
330
13C
100
AcDbXrecord
280
     1
290
     1
  0
LAYOUT
  5
D3
102
{ACAD_XDICTIONARY
360
781
102
}
102
{ACAD_REACTORS
330
1A
102
}
330
1A
100
AcDbPlotSettings
  1

  2
C:\Documents and Settings\basas\Application Data\Autodesk\AutoCAD 2005\R16.1\enu\plotters\Default Windows System Printer.pc3
  4

  6

 40
0.0
 41
0.0
 42
0.0
 43
0.0
 44
0.0
 45
0.0
 46
0.0
 47
0.0
 48
0.0
 49
0.0
140
0.0
141
0.0
142
1.0
143
1.0
 70
   688
 72
     0
 73
     0
 74
     5
  7

 75
    16
147
1.0
148
0.0
149
0.0
100
AcDbLayout
  1
Layout1
 70
     1
 71
     1
 10
0.0
 20
0.0
 11
12.0
 21
9.0
 12
0.0
 22
0.0
 32
0.0
 14
0.0
 24
0.0
 34
0.0
 15
0.0
 25
0.0
 35
0.0
146
0.0
 13
0.0
 23
0.0
 33
0.0
 16
1.0
 26
0.0
 36
0.0
 17
0.0
 27
1.0
 37
0.0
 76
     0
330
D2
  0
LAYOUT
  5
D7
102
{ACAD_XDICTIONARY
360
783
102
}
102
{ACAD_REACTORS
330
1A
102
}
330
1A
100
AcDbPlotSettings
  1

  2
C:\Documents and Settings\basas\Application Data\Autodesk\AutoCAD 2005\R16.1\enu\plotters\Default Windows System Printer.pc3
  4

  6

 40
0.0
 41
0.0
 42
0.0
 43
0.0
 44
0.0
 45
0.0
 46
0.0
 47
0.0
 48
0.0
 49
0.0
140
0.0
141
0.0
142
1.0
143
1.0
 70
   688
 72
     0
 73
     0
 74
     5
  7

 75
    16
147
1.0
148
0.0
149
0.0
100
AcDbLayout
  1
Layout2
 70
     1
 71
     2
 10
0.0
 20
0.0
 11
12.0
 21
9.0
 12
0.0
 22
0.0
 32
0.0
 14
0.0
 24
0.0
 34
0.0
 15
0.0
 25
0.0
 35
0.0
146
0.0
 13
0.0
 23
0.0
 33
0.0
 16
1.0
 26
0.0
 36
0.0
 17
0.0
 27
1.0
 37
0.0
 76
     0
330
D6
  0
LAYOUT
  5
22
102
{ACAD_XDICTIONARY
360
77E
102
}
102
{ACAD_REACTORS
330
1A
102
}
330
1A
100
AcDbPlotSettings
  1

  2
none_device
  4
ISO_A4_(210.00_x_297.00_MM)
  6

 40
7.5
 41
20.0
 42
7.5
 43
20.0
 44
210.0
 45
297.0
 46
11.54999923706054
 47
-13.65000009536743
 48
0.0
 49
0.0
140
0.0
141
0.0
142
1.0
143
8.704084754739808
 70
 11952
 72
     1
 73
     0
 74
     0
  7

 75
     0
147
0.1148885871608098
148
0.0
149
0.0
100
AcDbLayout
  1
Model
 70
     1
 71
     0
 10
0.0
 20
0.0
 11
12.0
 21
9.0
 12
0.0
 22
0.0
 32
0.0
 14
0.0
 24
0.0
 34
0.0
 15
0.0
 25
0.0
 35
0.0
146
0.0
 13
0.0
 23
0.0
 33
0.0
 16
1.0
 26
0.0
 36
0.0
 17
0.0
 27
1.0
 37
0.0
 76
     0
330
1F
331
EA
1001
ACAD_PSEXT
1000
None
1000
None
1000
Not applicable
1000
The layout will not be plotted unless a new plotter configuration name is selected.
1070
     0
  0
MATERIAL
  5
ED
102
{ACAD_XDICTIONARY
360
787
102
}
102
{ACAD_REACTORS
330
6A
102
}
330
6A
100
AcDbMaterial
  1
ByBlock
  0
MATERIAL
  5
EC
102
{ACAD_XDICTIONARY
360
785
102
}
102
{ACAD_REACTORS
330
6A
102
}
330
6A
100
AcDbMaterial
  1
ByLayer
  0
MATERIAL
  5
EE
102
{ACAD_XDICTIONARY
360
173
102
}
102
{ACAD_REACTORS
330
6A
102
}
330
6A
100
AcDbMaterial
  1
Global
 43
0.0007999999797903
 43
0.0
 43
0.0
 43
0.0
 43
0.0
 43
0.0007999999797903
 43
0.0
 43
0.0
 43
0.0
 43
0.0
 43
1.0
 43
0.0
 43
0.0
 43
0.0
 43
0.0
 43
1.0
 49
0.0007999999797903
 49
0.0
 49
0.0
 49
0.0
 49
0.0
 49
0.0007999999797903
 49
0.0
 49
0.0
 49
0.0
 49
0.0
 49
1.0
 49
0.0
 49
0.0
 49
0.0
 49
0.0
 49
1.0
142
0.0007999999797903
142
0.0
142
0.0
142
0.0
142
0.0
142
0.0007999999797903
142
0.0
142
0.0
142
0.0
142
0.0
142
1.0
142
0.0
142
0.0
142
0.0
142
0.0
142
1.0
144
0.0007999999797903
144
0.0
144
0.0
144
0.0
144
0.0
144
0.0007999999797903
144
0.0
144
0.0
144
0.0
144
0.0
144
1.0
144
0.0
144
0.0
144
0.0
144
0.0
144
1.0
1001
ACAD
1070
    -1
1070
     3
1070
     0
1000

1071
        0
1070
     0
  0
MLEADERSTYLE
  5
13B
102
{ACAD_REACTORS
330
12D
102
}
330
12D
100
AcDbMLeaderStyle
170
     2
171
     1
172
     0
 90
        2
 40
0.0
 41
0.0
173
     1
 91
-1056964608
340
14
 92
       -2
290
     1
 42
2.0
291
     1
 43
8.0
  3
Standard
 44
4.0
300

342
11
174
     1
178
     1
175
     1
176
     0
 93
-1056964608
 45
4.0
292
     0
297
     0
 46
4.0
 94
-1056964608
 47
1.0
 49
1.0
140
1.0
293
     1
141
0.0
294
     1
177
     0
142
1.0
295
     0
296
     1
143
3.75
1001
ACAD_MLEADERVER
1070
     2
  0
MLEADERSTYLE
  5
12E
102
{ACAD_REACTORS
330
12D
102
}
330
12D
100
AcDbMLeaderStyle
170
     2
171
     1
172
     0
 90
        2
 40
0.0
 41
0.0
173
     1
 91
-1056964608
340
14
 92
       -2
290
     1
 42
2.0
291
     1
 43
8.0
  3
Standard
 44
4.0
300

342
11
174
     1
178
     1
175
     1
176
     0
 93
-1056964608
 45
4.0
292
     0
297
     0
 46
4.0
 94
-1056964608
 47
1.0
 49
1.0
140
1.0
293
     1
141
0.0
294
     1
177
     0
142
1.0
295
     0
296
     0
143
3.75
1001
ACAD_MLEADERVER
1070
     2
  0
MLINESTYLE
  5
18
102
{ACAD_REACTORS
330
17
102
}
330
17
100
AcDbMlineStyle
  2
STANDARD
 70
     0
  3

 62
   256
 51
90.0
 52
90.0
 71
     2
 49
0.5
 62
   256
  6
BYLAYER
 49
-0.5
 62
   256
  6
BYLAYER
  0
ACDBPLACEHOLDER
  5
F
102
{ACAD_REACTORS
330
E
102
}
330
E
  0
SCALE
  5
10D
102
{ACAD_REACTORS
330
10C
102
}
330
10C
100
AcDbScale
 70
     0
300
1:1
140
1.0
141
1.0
290
     1
  0
SCALE
  5
188
102
{ACAD_REACTORS
330
10C
102
}
330
10C
100
AcDbScale
 70
     0
300
1:2
140
1.0
141
2.0
290
     0
  0
SCALE
  5
189
102
{ACAD_REACTORS
330
10C
102
}
330
10C
100
AcDbScale
 70
     0
300
1:4
140
1.0
141
4.0
290
     0
  0
SCALE
  5
18A
102
{ACAD_REACTORS
330
10C
102
}
330
10C
100
AcDbScale
 70
     0
300
1:5
140
1.0
141
5.0
290
     0
  0
SCALE
  5
18B
102
{ACAD_REACTORS
330
10C
102
}
330
10C
100
AcDbScale
 70
     0
300
1:8
140
1.0
141
8.0
290
     0
  0
SCALE
  5
18C
102
{ACAD_REACTORS
330
10C
102
}
330
10C
100
AcDbScale
 70
     0
300
1:10
140
1.0
141
10.0
290
     0
  0
SCALE
  5
18D
102
{ACAD_REACTORS
330
10C
102
}
330
10C
100
AcDbScale
 70
     0
300
1:16
140
1.0
141
16.0
290
     0
  0
SCALE
  5
18E
102
{ACAD_REACTORS
330
10C
102
}
330
10C
100
AcDbScale
 70
     0
300
1:20
140
1.0
141
20.0
290
     0
  0
SCALE
  5
18F
102
{ACAD_REACTORS
330
10C
102
}
330
10C
100
AcDbScale
 70
     0
300
1:30
140
1.0
141
30.0
290
     0
  0
SCALE
  5
190
102
{ACAD_REACTORS
330
10C
102
}
330
10C
100
AcDbScale
 70
     0
300
1:40
140
1.0
141
40.0
290
     0
  0
SCALE
  5
191
102
{ACAD_REACTORS
330
10C
102
}
330
10C
100
AcDbScale
 70
     0
300
1:50
140
1.0
141
50.0
290
     0
  0
SCALE
  5
192
102
{ACAD_REACTORS
330
10C
102
}
330
10C
100
AcDbScale
 70
     0
300
1:100
140
1.0
141
100.0
290
     0
  0
SCALE
  5
193
102
{ACAD_REACTORS
330
10C
102
}
330
10C
100
AcDbScale
 70
     0
300
2:1
140
2.0
141
1.0
290
     0
  0
SCALE
  5
194
102
{ACAD_REACTORS
330
10C
102
}
330
10C
100
AcDbScale
 70
     0
300
4:1
140
4.0
141
1.0
290
     0
  0
SCALE
  5
195
102
{ACAD_REACTORS
330
10C
102
}
330
10C
100
AcDbScale
 70
     0
300
8:1
140
8.0
141
1.0
290
     0
  0
SCALE
  5
196
102
{ACAD_REACTORS
330
10C
102
}
330
10C
100
AcDbScale
 70
     0
300
10:1
140
10.0
141
1.0
290
     0
  0
SCALE
  5
197
102
{ACAD_REACTORS
330
10C
102
}
330
10C
100
AcDbScale
 70
     0
300
100:1
140
100.0
141
1.0
290
     0
  0
SCALE
  5
198
102
{ACAD_REACTORS
330
10C
102
}
330
10C
100
AcDbScale
 70
     0
300
1/128" = 1'-0"
140
0.0078125
141
12.0
290
     0
  0
SCALE
  5
199
102
{ACAD_REACTORS
330
10C
102
}
330
10C
100
AcDbScale
 70
     0
300
1/64" = 1'-0"
140
0.015625
141
12.0
290
     0
  0
SCALE
  5
19A
102
{ACAD_REACTORS
330
10C
102
}
330
10C
100
AcDbScale
 70
     0
300
1/32" = 1'-0"
140
0.03125
141
12.0
290
     0
  0
SCALE
  5
19B
102
{ACAD_REACTORS
330
10C
102
}
330
10C
100
AcDbScale
 70
     0
300
1/16" = 1'-0"
140
0.0625
141
12.0
290
     0
  0
SCALE
  5
19C
102
{ACAD_REACTORS
330
10C
102
}
330
10C
100
AcDbScale
 70
     0
300
3/32" = 1'-0"
140
0.09375
141
12.0
290
     0
  0
SCALE
  5
19D
102
{ACAD_REACTORS
330
10C
102
}
330
10C
100
AcDbScale
 70
     0
300
1/8" = 1'-0"
140
0.125
141
12.0
290
     0
  0
SCALE
  5
19E
102
{ACAD_REACTORS
330
10C
102
}
330
10C
100
AcDbScale
 70
     0
300
3/16" = 1'-0"
140
0.1875
141
12.0
290
     0
  0
SCALE
  5
19F
102
{ACAD_REACTORS
330
10C
102
}
330
10C
100
AcDbScale
 70
     0
300
1/4" = 1'-0"
140
0.25
141
12.0
290
     0
  0
SCALE
  5
1A0
102
{ACAD_REACTORS
330
10C
102
}
330
10C
100
AcDbScale
 70
     0
300
3/8" = 1'-0"
140
0.375
141
12.0
290
     0
  0
SCALE
  5
1A1
102
{ACAD_REACTORS
330
10C
102
}
330
10C
100
AcDbScale
 70
     0
300
1/2" = 1'-0"
140
0.5
141
12.0
290
     0
  0
SCALE
  5
1A2
102
{ACAD_REACTORS
330
10C
102
}
330
10C
100
AcDbScale
 70
     0
300
3/4" = 1'-0"
140
0.75
141
12.0
290
     0
  0
SCALE
  5
1A3
102
{ACAD_REACTORS
330
10C
102
}
330
10C
100
AcDbScale
 70
     0
300
1" = 1'-0"
140
1.0
141
12.0
290
     0
  0
SCALE
  5
1A4
102
{ACAD_REACTORS
330
10C
102
}
330
10C
100
AcDbScale
 70
     0
300
1-1/2" = 1'-0"
140
1.5
141
12.0
290
     0
  0
SCALE
  5
1A5
102
{ACAD_REACTORS
330
10C
102
}
330
10C
100
AcDbScale
 70
     0
300
3" = 1'-0"
140
3.0
141
12.0
290
     0
  0
SCALE
  5
1A6
102
{ACAD_REACTORS
330
10C
102
}
330
10C
100
AcDbScale
 70
     0
300
6" = 1'-0"
140
6.0
141
12.0
290
     0
  0
SCALE
  5
1A7
102
{ACAD_REACTORS
330
10C
102
}
330
10C
100
AcDbScale
 70
     0
300
1'-0" = 1'-0"
140
12.0
141
12.0
290
     0
  0
TABLESTYLE
  5
7F
102
{ACAD_XDICTIONARY
360
162
102
}
102
{ACAD_REACTORS
330
7E
102
}
330
7E
100
AcDbTableStyle
  3
Standard
 70
     0
 71
     0
 40
1.5
 41
1.5
280
     0
281
     0
  7
Standard
140
4.5
170
     2
 62
     0
 63
     7
283
     0
274
    -2
284
     1
 64
     0
275
    -2
285
     1
 65
     0
276
    -2
286
     1
 66
     0
277
    -2
287
     1
 67
     0
278
    -2
288
     1
 68
     0
279
    -2
289
     1
 69
     0
  7
Standard
140
6.0
170
     5
 62
     0
 63
     7
283
     0
274
    -2
284
     1
 64
     0
275
    -2
285
     1
 65
     0
276
    -2
286
     1
 66
     0
277
    -2
287
     1
 67
     0
278
    -2
288
     1
 68
     0
279
    -2
289
     1
 69
     0
  7
Standard
140
4.5
170
     5
 62
     0
 63
     7
283
     0
274
    -2
284
     1
 64
     0
275
    -2
285
     1
 65
     0
276
    -2
286
     1
 66
     0
277
    -2
287
     1
 67
     0
278
    -2
288
     1
 68
     0
279
    -2
289
     1
 69
     0
  0
VISUALSTYLE
  5
F5
102
{ACAD_REACTORS
330
EF
102
}
330
EF
100
AcDbVisualStyle
  2
2dWireframe
 70
     4
 71
     0
 72
     2
 73
     1
 90
        0
 40
-0.6
 41
-30.0
 62
     5
 63
     7
 74
     1
 91
        4
 64
     7
 65
   257
 75
     1
175
     1
 42
1.0
 92
        0
 66
   257
 43
1.0
 76
     1
 77
     6
 78
     2
 67
     7
 79
     5
170
     0
171
     0
290
     0
174
     0
 93
        1
 44
0.0
173
     0
291
     0
 45
0.0
1001
ACAD
1000
AcDbSavedByObjectVersion
1070
     0
  0
VISUALSTYLE
  5
F7
102
{ACAD_REACTORS
330
EF
102
}
330
EF
100
AcDbVisualStyle
  2
3D Hidden
 70
     6
 71
     1
 72
     2
 73
     2
 90
        0
 40
-0.6
 41
-30.0
 62
     5
 63
     7
 74
     2
 91
        2
 64
     7
 65
   257
 75
     2
175
     1
 42
40.0
 92
        0
 66
   257
 43
1.0
 76
     1
 77
     6
 78
     2
 67
     7
 79
     3
170
     0
171
     0
290
     0
174
     0
 93
        1
 44
0.0
173
     0
291
     0
 45
0.0
1001
ACAD
1000
AcDbSavedByObjectVersion
1070
     0
  0
VISUALSTYLE
  5
F6
102
{ACAD_REACTORS
330
EF
102
}
330
EF
100
AcDbVisualStyle
  2
3dWireframe
 70
     5
 71
     0
 72
     2
 73
     1
 90
        0
 40
-0.6
 41
-30.0
 62
     5
 63
     7
 74
     1
 91
        4
 64
     7
 65
   257
 75
     1
175
     1
 42
1.0
 92
        0
 66
   257
 43
1.0
 76
     1
 77
     6
 78
     2
 67
     7
 79
     5
170
     0
171
     0
290
     0
174
     0
 93
        1
 44
0.0
173
     0
291
     0
 45
0.0
1001
ACAD
1000
AcDbSavedByObjectVersion
1070
     0
  0
VISUALSTYLE
  5
F4
102
{ACAD_REACTORS
330
EF
102
}
330
EF
100
AcDbVisualStyle
  2
Basic
 70
     7
 71
     1
 72
     0
 73
     1
 90
        0
 40
-0.6
 41
-30.0
 62
     5
 63
     7
 74
     0
 91
        4
 64
     7
 65
   257
 75
     1
175
     1
 42
1.0
 92
        8
 66
     7
 43
1.0
 76
     1
 77
     6
 78
     2
 67
     7
 79
     5
170
     0
171
     0
290
     0
174
     0
 93
        1
 44
0.0
173
     0
291
     1
 45
0.0
1001
ACAD
1000
AcDbSavedByObjectVersion
1070
     0
  0
VISUALSTYLE
  5
FB
102
{ACAD_REACTORS
330
EF
102
}
330
EF
100
AcDbVisualStyle
  2
Brighten
 70
    12
 71
     2
 72
     2
 73
     1
 90
        0
 40
-0.6
 41
-30.0
 62
     5
 63
     7
 74
     1
 91
        4
 64
     7
 65
   257
 75
     1
175
     1
 42
1.0
 92
        8
 66
     7
 43
1.0
 76
     1
 77
     6
 78
     2
 67
     7
 79
     5
170
     0
171
     0
290
     0
174
     0
 93
        1
 44
50.0
173
     0
291
     1
 45
0.0
1001
ACAD
1000
AcDbSavedByObjectVersion
1070
     0
  0
VISUALSTYLE
  5
FF
102
{ACAD_REACTORS
330
EF
102
}
330
EF
100
AcDbVisualStyle
  2
ColorChange
 70
    16
 71
     2
 72
     2
 73
     3
 90
        0
 40
-0.6
 41
-30.0
 62
     5
 63
     8
 74
     1
 91
        4
 64
     7
 65
   257
 75
     1
175
     1
 42
1.0
 92
        8
 66
     8
 43
1.0
 76
     1
 77
     6
 78
     2
 67
     7
 79
     5
170
     0
171
     0
290
     0
174
     0
 93
        1
 44
0.0
173
     0
291
     1
 45
0.0
1001
ACAD
1000
AcDbSavedByObjectVersion
1070
     0
  0
VISUALSTYLE
  5
F8
102
{ACAD_REACTORS
330
EF
102
}
330
EF
100
AcDbVisualStyle
  2
Conceptual
 70
     9
 71
     3
 72
     2
 73
     1
 90
        0
 40
-0.6
 41
-30.0
 62
     5
 63
     7
 74
     2
 91
        2
 64
     7
 65
   257
 75
     1
175
     1
 42
40.0
 92
        8
 66
     7
 43
1.0
 76
     1
 77
     6
 78
     2
 67
     7
 79
     3
170
     0
171
     0
290
     0
174
     0
 93
        1
 44
0.0
173
     0
291
     0
 45
0.0
1001
ACAD
1000
AcDbSavedByObjectVersion
1070
     0
  0
VISUALSTYLE
  5
FA
102
{ACAD_REACTORS
330
EF
102
}
330
EF
100
AcDbVisualStyle
  2
Dim
 70
    11
 71
     2
 72
     2
 73
     1
 90
        0
 40
-0.6
 41
-30.0
 62
     5
 63
     7
 74
     1
 91
        4
 64
     7
 65
   257
 75
     1
175
     1
 42
1.0
 92
        8
 66
     7
 43
1.0
 76
     1
 77
     6
 78
     2
 67
     7
 79
     5
170
     0
171
     0
290
     0
174
     0
 93
        1
 44
-50.0
173
     0
291
     1
 45
0.0
1001
ACAD
1000
AcDbSavedByObjectVersion
1070
     0
  0
VISUALSTYLE
  5
FE
102
{ACAD_REACTORS
330
EF
102
}
330
EF
100
AcDbVisualStyle
  2
Facepattern
 70
    15
 71
     2
 72
     2
 73
     1
 90
        0
 40
-0.6
 41
-30.0
 62
     5
 63
     7
 74
     1
 91
        4
 64
     7
 65
   257
 75
     1
175
     1
 42
1.0
 92
        8
 66
     7
 43
1.0
 76
     1
 77
     6
 78
     2
 67
     7
 79
     5
170
     0
171
     0
290
     0
174
     0
 93
        1
 44
0.0
173
     0
291
     1
 45
0.0
1001
ACAD
1000
AcDbSavedByObjectVersion
1070
     0
  0
VISUALSTYLE
  5
F0
102
{ACAD_REACTORS
330
EF
102
}
330
EF
100
AcDbVisualStyle
  2
Flat
 70
     0
 71
     2
 72
     1
 73
     1
 90
        2
 40
-0.6
 41
30.0
 62
     5
 63
     7
 74
     0
 91
        4
 64
     7
 65
   257
 75
     1
175
     1
 42
1.0
 92
        8
 66
     7
 43
1.0
 76
     1
 77
     6
 78
     2
 67
     7
 79
     5
170
     0
171
     0
290
     0
174
     0
 93
        1
 44
0.0
173
     0
291
     1
 45
0.0
1001
ACAD
1000
AcDbSavedByObjectVersion
1070
     0
  0
VISUALSTYLE
  5
F1
102
{ACAD_REACTORS
330
EF
102
}
330
EF
100
AcDbVisualStyle
  2
FlatWithEdges
 70
     1
 71
     2
 72
     1
 73
     1
 90
        2
 40
-0.6
 41
30.0
 62
     5
 63
     7
 74
     1
 91
        4
 64
     7
 65
   257
 75
     1
175
     1
 42
1.0
 92
        0
 66
   257
 43
1.0
 76
     1
 77
     6
 78
     2
 67
     7
 79
     5
170
     0
171
     0
290
     0
174
     0
 93
        1
 44
0.0
173
     0
291
     1
 45
0.0
1001
ACAD
1000
AcDbSavedByObjectVersion
1070
     0
  0
VISUALSTYLE
  5
F2
102
{ACAD_REACTORS
330
EF
102
}
330
EF
100
AcDbVisualStyle
  2
Gouraud
 70
     2
 71
     2
 72
     2
 73
     1
 90
        2
 40
-0.6
 41
30.0
 62
     5
 63
     7
 74
     0
 91
        4
 64
     7
 65
   257
 75
     1
175
     1
 42
1.0
 92
        0
 66
     7
 43
1.0
 76
     1
 77
     6
 78
     2
 67
     7
 79
     5
170
     0
171
     0
290
     0
174
     0
 93
        1
 44
0.0
173
     0
291
     1
 45
0.0
1001
ACAD
1000
AcDbSavedByObjectVersion
1070
     0
  0
VISUALSTYLE
  5
F3
102
{ACAD_REACTORS
330
EF
102
}
330
EF
100
AcDbVisualStyle
  2
GouraudWithEdges
 70
     3
 71
     2
 72
     2
 73
     1
 90
        2
 40
-0.6
 41
30.0
 62
     5
 63
     7
 74
     1
 91
        4
 64
     7
 65
   257
 75
     1
175
     1
 42
1.0
 92
        0
 66
   257
 43
1.0
 76
     1
 77
     6
 78
     2
 67
     7
 79
     5
170
     0
171
     0
290
     0
174
     0
 93
        1
 44
0.0
173
     0
291
     1
 45
0.0
1001
ACAD
1000
AcDbSavedByObjectVersion
1070
     0
  0
VISUALSTYLE
  5
FD
102
{ACAD_REACTORS
330
EF
102
}
330
EF
100
AcDbVisualStyle
  2
Linepattern
 70
    14
 71
     2
 72
     2
 73
     1
 90
        0
 40
-0.6
 41
-30.0
 62
     5
 63
     7
 74
     1
 91
        4
 64
     7
 65
   257
 75
     7
175
     7
 42
1.0
 92
        8
 66
     7
 43
1.0
 76
     1
 77
     6
 78
     2
 67
     7
 79
     5
170
     0
171
     0
290
     0
174
     0
 93
        1
 44
0.0
173
     0
291
     1
 45
0.0
1001
ACAD
1000
AcDbSavedByObjectVersion
1070
     0
  0
VISUALSTYLE
  5
F9
102
{ACAD_REACTORS
330
EF
102
}
330
EF
100
AcDbVisualStyle
  2
Realistic
 70
     8
 71
     2
 72
     2
 73
     1
 90
        0
 40
-0.6
 41
-30.0
 62
     5
 63
     7
 74
     1
 91
        0
 64
     7
 65
   257
 75
     1
175
     1
 42
1.0
 92
        8
 66
     8
 43
1.0
 76
     1
 77
     6
 78
     2
 67
     7
 79
     5
170
     0
171
     0
290
     0
174
     0
 93
       13
 44
0.0
173
     0
291
     0
 45
0.0
1001
ACAD
1000
AcDbSavedByObjectVersion
1070
     0
  0
VISUALSTYLE
  5
FC
102
{ACAD_REACTORS
330
EF
102
}
330
EF
100
AcDbVisualStyle
  2
Thicken
 70
    13
 71
     2
 72
     2
 73
     1
 90
        0
 40
-0.6
 41
-30.0
 62
     5
 63
     7
 74
     1
 91
        4
 64
     7
 65
   257
 75
     1
175
     1
 42
1.0
 92
       12
 66
     7
 43
1.0
 76
     1
 77
     6
 78
     2
 67
     7
 79
     5
170
     0
171
     0
290
     0
174
     0
 93
        1
 44
0.0
173
     0
291
     1
 45
0.0
1001
ACAD
1000
AcDbSavedByObjectVersion
1070
     0
  0
DICTIONARYVAR
  5
146
102
{ACAD_REACTORS
330
5E
102
}
330
5E
100
DictionaryVariables
280
     0
  1
1:1
  0
DICTIONARYVAR
  5
145
102
{ACAD_REACTORS
330
5E
102
}
330
5E
100
DictionaryVariables
280
     0
  1
STANDARD
  0
DICTIONARYVAR
  5
84
102
{ACAD_REACTORS
330
5E
102
}
330
5E
100
DictionaryVariables
280
     0
  1
STANDARD
  0
DICTIONARYVAR
  5
5F
102
{ACAD_REACTORS
330
5E
102
}
330
5E
100
DictionaryVariables
280
     0
  1
2
  0
DICTIONARYVAR
  5
63
102
{ACAD_REACTORS
330
5E
102
}
330
5E
100
DictionaryVariables
280
     0
  1
1
  0
DICTIONARYVAR
  5
779
102
{ACAD_REACTORS
330
5E
102
}
330
5E
100
DictionaryVariables
280
     0
  1
0
  0
DICTIONARYVAR
  5
777
102
{ACAD_REACTORS
330
5E
102
}
330
5E
100
DictionaryVariables
280
     0
  1
2
  0
DICTIONARYVAR
  5
776
102
{ACAD_REACTORS
330
5E
102
}
330
5E
100
DictionaryVariables
280
     0
  1
1
  0
DICTIONARYVAR
  5
77B
102
{ACAD_REACTORS
330
5E
102
}
330
5E
100
DictionaryVariables
280
     0
  1
80.000000
  0
DICTIONARYVAR
  5
77A
102
{ACAD_REACTORS
330
5E
102
}
330
5E
100
DictionaryVariables
280
     0
  1
5.000000
  0
DICTIONARYVAR
  5
778
102
{ACAD_REACTORS
330
5E
102
}
330
5E
100
DictionaryVariables
280
     0
  1
127
  0
DICTIONARY
  5
781
330
D3
100
AcDbDictionary
280
     1
281
     1
  3
ACAD_XREC_ROUNDTRIP
360
782
  0
DICTIONARY
  5
783
330
D7
100
AcDbDictionary
280
     1
281
     1
  3
ACAD_XREC_ROUNDTRIP
360
784
  0
DICTIONARY
  5
77E
330
22
100
AcDbDictionary
280
     1
281
     1
  3
ACAD_XREC_ROUNDTRIP
360
77F
  0
DICTIONARY
  5
787
330
ED
100
AcDbDictionary
280
     1
281
     1
  3
ACAD_XREC_ROUNDTRIP
360
788
  0
DICTIONARY
  5
785
330
EC
100
AcDbDictionary
280
     1
281
     1
  3
ACAD_XREC_ROUNDTRIP
360
786
  0
DICTIONARY
  5
173
330
EE
100
AcDbDictionary
280
     1
281
     1
  3
ACAD_XREC_ROUNDTRIP
360
789
  3
BUMPTILE
360
175
  3
DIFFUSETILE
360
174
  3
OPACITYTILE
360
176
  3
REFLECTIONTILE
360
177
  0
DICTIONARY
  5
162
330
7F
100
AcDbDictionary
280
     1
281
     1
  3
ACAD_ROUNDTRIP_2008_TABLESTYLE_CELLSTYLEMAP
360
77C
  3
ACAD_XREC_ROUNDTRIP
360
780
  0
XRECORD
  5
782
102
{ACAD_REACTORS
330
781
102
}
330
781
100
AcDbXrecord
280
     1
102
SHADEPLOT
 70
     0
102
SHADEPLOTRESLEVEL
 70
     2
102
SHADEPLOTCUSTOMDPI
 70
   300
  0
XRECORD
  5
784
102
{ACAD_REACTORS
330
783
102
}
330
783
100
AcDbXrecord
280
     1
102
SHADEPLOT
 70
     0
102
SHADEPLOTRESLEVEL
 70
     2
102
SHADEPLOTCUSTOMDPI
 70
   300
  0
XRECORD
  5
77F
102
{ACAD_REACTORS
330
77E
102
}
330
77E
100
AcDbXrecord
280
     1
102
SHADEPLOT
 70
     0
102
SHADEPLOTRESLEVEL
 70
     2
102
SHADEPLOTCUSTOMDPI
 70
   300
  0
XRECORD
  5
788
102
{ACAD_REACTORS
330
787
102
}
330
787
100
AcDbXrecord
280
     1
102
MATERIAL
148
0.0
149
0.0
149
0.0
 93
        0
 94
       63
282
     0
 72
     1
 77
     1
171
     1
175
     1
179
     1
273
     0
  0
XRECORD
  5
786
102
{ACAD_REACTORS
330
785
102
}
330
785
100
AcDbXrecord
280
     1
102
MATERIAL
148
0.0
149
0.0
149
0.0
 93
        0
 94
       63
282
     0
 72
     1
 77
     1
171
     1
175
     1
179
     1
273
     0
  0
XRECORD
  5
789
102
{ACAD_REACTORS
330
173
102
}
330
173
100
AcDbXrecord
280
     1
102
MATERIAL
148
0.0
149
0.0
149
0.0
 93
        0
 94
       63
282
     0
 72
     1
 77
     1
171
     1
175
     1
179
     1
273
     0
  0
XRECORD
  5
175
102
{ACAD_REACTORS
330
173
102
}
330
173
100
AcDbXrecord
280
     1
270
     1
271
     1
  0
XRECORD
  5
174
102
{ACAD_REACTORS
330
173
102
}
330
173
100
AcDbXrecord
280
     1
270
     1
271
     1
  0
XRECORD
  5
176
102
{ACAD_REACTORS
330
173
102
}
330
173
100
AcDbXrecord
280
     1
270
     1
271
     1
  0
XRECORD
  5
177
102
{ACAD_REACTORS
330
173
102
}
330
173
100
AcDbXrecord
280
     1
270
     1
271
     1
  0
CELLSTYLEMAP
  5
77C
102
{ACAD_REACTORS
330
162
102
}
330
162
100
AcDbCellStyleMap
 90
        3
300
CELLSTYLE
  1
TABLEFORMAT_BEGIN
 90
        5
170
     1
 91
        0
 92
    32768
 62
   257
 93
        1
300
CONTENTFORMAT
  1
CONTENTFORMAT_BEGIN
 90
        0
 91
        0
 92
      512
 93
        0
300

 40
0.0
140
1.0
 94
        5
 62
     0
340
11
144
6.0
309
CONTENTFORMAT_END
171
     1
301
MARGIN
  1
CELLMARGIN_BEGIN
 40
1.5
 40
1.5
 40
1.5
 40
1.5
 40
4.5
 40
4.5
309
CELLMARGIN_END
 94
        6
 95
        1
302
GRIDFORMAT
  1
GRIDFORMAT_BEGIN
 90
        0
 91
        1
 62
     0
 92
       -2
340
14
 93
        0
 40
1.125
309
GRIDFORMAT_END
 95
        2
302
GRIDFORMAT
  1
GRIDFORMAT_BEGIN
 90
        0
 91
        1
 62
     0
 92
       -2
340
14
 93
        0
 40
1.125
309
GRIDFORMAT_END
 95
        4
302
GRIDFORMAT
  1
GRIDFORMAT_BEGIN
 90
        0
 91
        1
 62
     0
 92
       -2
340
14
 93
        0
 40
1.125
309
GRIDFORMAT_END
 95
        8
302
GRIDFORMAT
  1
GRIDFORMAT_BEGIN
 90
        0
 91
        1
 62
     0
 92
       -2
340
14
 93
        0
 40
1.125
309
GRIDFORMAT_END
 95
       16
302
GRIDFORMAT
  1
GRIDFORMAT_BEGIN
 90
        0
 91
        1
 62
     0
 92
       -2
340
14
 93
        0
 40
1.125
309
GRIDFORMAT_END
 95
       32
302
GRIDFORMAT
  1
GRIDFORMAT_BEGIN
 90
        0
 91
        1
 62
     0
 92
       -2
340
14
 93
        0
 40
1.125
309
GRIDFORMAT_END
309
TABLEFORMAT_END
  1
CELLSTYLE_BEGIN
 90
        1
 91
        1
300
_TITLE
309
CELLSTYLE_END
300
CELLSTYLE
  1
TABLEFORMAT_BEGIN
 90
        5
170
     1
 91
        0
 92
        0
 62
   257
 93
        1
300
CONTENTFORMAT
  1
CONTENTFORMAT_BEGIN
 90
        0
 91
        0
 92
      512
 93
        0
300

 40
0.0
140
1.0
 94
        5
 62
     0
340
11
144
4.5
309
CONTENTFORMAT_END
171
     1
301
MARGIN
  1
CELLMARGIN_BEGIN
 40
1.5
 40
1.5
 40
1.5
 40
1.5
 40
4.5
 40
4.5
309
CELLMARGIN_END
 94
        6
 95
        1
302
GRIDFORMAT
  1
GRIDFORMAT_BEGIN
 90
        0
 91
        1
 62
     0
 92
       -2
340
14
 93
        0
 40
1.125
309
GRIDFORMAT_END
 95
        2
302
GRIDFORMAT
  1
GRIDFORMAT_BEGIN
 90
        0
 91
        1
 62
     0
 92
       -2
340
14
 93
        0
 40
1.125
309
GRIDFORMAT_END
 95
        4
302
GRIDFORMAT
  1
GRIDFORMAT_BEGIN
 90
        0
 91
        1
 62
     0
 92
       -2
340
14
 93
        0
 40
1.125
309
GRIDFORMAT_END
 95
        8
302
GRIDFORMAT
  1
GRIDFORMAT_BEGIN
 90
        0
 91
        1
 62
     0
 92
       -2
340
14
 93
        0
 40
1.125
309
GRIDFORMAT_END
 95
       16
302
GRIDFORMAT
  1
GRIDFORMAT_BEGIN
 90
        0
 91
        1
 62
     0
 92
       -2
340
14
 93
        0
 40
1.125
309
GRIDFORMAT_END
 95
       32
302
GRIDFORMAT
  1
GRIDFORMAT_BEGIN
 90
        0
 91
        1
 62
     0
 92
       -2
340
14
 93
        0
 40
1.125
309
GRIDFORMAT_END
309
TABLEFORMAT_END
  1
CELLSTYLE_BEGIN
 90
        2
 91
        1
300
_HEADER
309
CELLSTYLE_END
300
CELLSTYLE
  1
TABLEFORMAT_BEGIN
 90
        5
170
     1
 91
        0
 92
        0
 62
   257
 93
        1
300
CONTENTFORMAT
  1
CONTENTFORMAT_BEGIN
 90
        0
 91
        0
 92
      512
 93
        0
300

 40
0.0
140
1.0
 94
        2
 62
     0
340
11
144
4.5
309
CONTENTFORMAT_END
171
     1
301
MARGIN
  1
CELLMARGIN_BEGIN
 40
1.5
 40
1.5
 40
1.5
 40
1.5
 40
4.5
 40
4.5
309
CELLMARGIN_END
 94
        6
 95
        1
302
GRIDFORMAT
  1
GRIDFORMAT_BEGIN
 90
        0
 91
        1
 62
     0
 92
       -2
340
14
 93
        0
 40
1.125
309
GRIDFORMAT_END
 95
        2
302
GRIDFORMAT
  1
GRIDFORMAT_BEGIN
 90
        0
 91
        1
 62
     0
 92
       -2
340
14
 93
        0
 40
1.125
309
GRIDFORMAT_END
 95
        4
302
GRIDFORMAT
  1
GRIDFORMAT_BEGIN
 90
        0
 91
        1
 62
     0
 92
       -2
340
14
 93
        0
 40
1.125
309
GRIDFORMAT_END
 95
        8
302
GRIDFORMAT
  1
GRIDFORMAT_BEGIN
 90
        0
 91
        1
 62
     0
 92
       -2
340
14
 93
        0
 40
1.125
309
GRIDFORMAT_END
 95
       16
302
GRIDFORMAT
  1
GRIDFORMAT_BEGIN
 90
        0
 91
        1
 62
     0
 92
       -2
340
14
 93
        0
 40
1.125
309
GRIDFORMAT_END
 95
       32
302
GRIDFORMAT
  1
GRIDFORMAT_BEGIN
 90
        0
 91
        1
 62
     0
 92
       -2
340
14
 93
        0
 40
1.125
309
GRIDFORMAT_END
309
TABLEFORMAT_END
  1
CELLSTYLE_BEGIN
 90
        3
 91
        2
300
_DATA
309
CELLSTYLE_END
  0
XRECORD
  5
780
102
{ACAD_REACTORS
330
162
102
}
330
162
100
AcDbXrecord
280
     1
102
ACAD_ROUNDTRIP_PRE2007_TABLESTYLE
 90
      512
 91
        0
  1

 92
      512
 93
        0
  2

 94
      512
 95
        0
  3

  0
ENDSEC
  0
EOF
