  0
SECTION
  2
HEADER
  9
$ACADVER
  1
AC1015
  9
$ACADMAINTVER
 70
    20
  9
$DWGCODEPAGE
  3
ANSI_1254
  9
$INSBASE
 10
0.0
 20
0.0
 30
0.0
  9
$EXTMIN
 10
2166.021305567533
 20
1058.160118287994
 30
0.0
  9
$EXTMAX
 10
2254.925988006887
 20
1110.263946496868
 30
0.0
  9
$LIMMIN
 10
0.0
 20
0.0
  9
$LIMMAX
 10
420.0
 20
297.0
  9
$ORTHOMODE
 70
     0
  9
$REGENMODE
 70
     1
  9
$FILLMODE
 70
     1
  9
$QTEXTMODE
 70
     0
  9
$MIRRTEXT
 70
     0
  9
$LTSCALE
 40
1.0
  9
$ATTMODE
 70
     1
  9
$TEXTSIZE
 40
2.5
  9
$TRACEWID
 40
1.0
  9
$TEXTSTYLE
  7
Standard
  9
$CLAYER
  8
0
  9
$CELTYPE
  6
ByLayer
  9
$CECOLOR
 62
   256
  9
$CELTSCALE
 40
1.0
  9
$DISPSILH
 70
     0
  9
$DIMSCALE
 40
1.0
  9
$DIMASZ
 40
2.5
  9
$DIMEXO
 40
0.625
  9
$DIMDLI
 40
3.75
  9
$DIMRND
 40
0.0
  9
$DIMDLE
 40
0.0
  9
$DIMEXE
 40
1.25
  9
$DIMTP
 40
0.0
  9
$DIMTM
 40
0.0
  9
$DIMTXT
 40
2.5
  9
$DIMCEN
 40
2.5
  9
$DIMTSZ
 40
0.0
  9
$DIMTOL
 70
     0
  9
$DIMLIM
 70
     0
  9
$DIMTIH
 70
     0
  9
$DIMTOH
 70
     0
  9
$DIMSE1
 70
     0
  9
$DIMSE2
 70
     0
  9
$DIMTAD
 70
     1
  9
$DIMZIN
 70
     8
  9
$DIMBLK
  1

  9
$DIMASO
 70
     1
  9
$DIMSHO
 70
     1
  9
$DIMPOST
  1

  9
$DIMAPOST
  1

  9
$DIMALT
 70
     0
  9
$DIMALTD
 70
     3
  9
$DIMALTF
 40
0.03937007874016
  9
$DIMLFAC
 40
1.0
  9
$DIMTOFL
 70
     1
  9
$DIMTVP
 40
0.0
  9
$DIMTIX
 70
     0
  9
$DIMSOXD
 70
     0
  9
$DIMSAH
 70
     0
  9
$DIMBLK1
  1

  9
$DIMBLK2
  1

  9
$DIMSTYLE
  2
ISO-25
  9
$DIMCLRD
 70
     0
  9
$DIMCLRE
 70
     0
  9
$DIMCLRT
 70
     0
  9
$DIMTFAC
 40
1.0
  9
$DIMGAP
 40
0.625
  9
$DIMJUST
 70
     0
  9
$DIMSD1
 70
     0
  9
$DIMSD2
 70
     0
  9
$DIMTOLJ
 70
     0
  9
$DIMTZIN
 70
     8
  9
$DIMALTZ
 70
     0
  9
$DIMALTTZ
 70
     0
  9
$DIMUPT
 70
     0
  9
$DIMDEC
 70
     2
  9
$DIMTDEC
 70
     2
  9
$DIMALTU
 70
     2
  9
$DIMALTTD
 70
     3
  9
$DIMTXSTY
  7
Standard
  9
$DIMAUNIT
 70
     0
  9
$DIMADEC
 70
     0
  9
$DIMALTRND
 40
0.0
  9
$DIMAZIN
 70
     0
  9
$DIMDSEP
 70
    44
  9
$DIMATFIT
 70
     3
  9
$DIMFRAC
 70
     0
  9
$DIMLDRBLK
  1

  9
$DIMLUNIT
 70
     2
  9
$DIMLWD
 70
    -2
  9
$DIMLWE
 70
    -2
  9
$DIMTMOVE
 70
     0
  9
$LUNITS
 70
     2
  9
$LUPREC
 70
     4
  9
$SKETCHINC
 40
1.0
  9
$FILLETRAD
 40
0.0
  9
$AUNITS
 70
     0
  9
$AUPREC
 70
     0
  9
$MENU
  1
.
  9
$ELEVATION
 40
0.0
  9
$PELEVATION
 40
0.0
  9
$THICKNESS
 40
0.0
  9
$LIMCHECK
 70
     0
  9
$CHAMFERA
 40
0.0
  9
$CHAMFERB
 40
0.0
  9
$CHAMFERC
 40
0.0
  9
$CHAMFERD
 40
0.0
  9
$SKPOLY
 70
     0
  9
$TDCREATE
 40
2458933.718618391
  9
$TDUCREATE
 40
2458933.593618391
  9
$TDUPDATE
 40
2458956.450985811
  9
$TDUUPDATE
 40
2458956.325985810
  9
$TDINDWG
 40
0.0003132176
  9
$TDUSRTIMER
 40
0.0003132176
  9
$USRTIMER
 70
     1
  9
$ANGBASE
 50
0.0
  9
$ANGDIR
 70
     0
  9
$PDMODE
 70
     0
  9
$PDSIZE
 40
0.0
  9
$PLINEWID
 40
0.0
  9
$SPLFRAME
 70
     0
  9
$SPLINETYPE
 70
     6
  9
$SPLINESEGS
 70
     8
  9
$HANDSEED
  5
65E
  9
$SURFTAB1
 70
     6
  9
$SURFTAB2
 70
     6
  9
$SURFTYPE
 70
     6
  9
$SURFU
 70
     6
  9
$SURFV
 70
     6
  9
$UCSBASE
  2

  9
$UCSNAME
  2

  9
$UCSORG
 10
0.0
 20
0.0
 30
0.0
  9
$UCSXDIR
 10
1.0
 20
0.0
 30
0.0
  9
$UCSYDIR
 10
0.0
 20
1.0
 30
0.0
  9
$UCSORTHOREF
  2

  9
$UCSORTHOVIEW
 70
     0
  9
$UCSORGTOP
 10
0.0
 20
0.0
 30
0.0
  9
$UCSORGBOTTOM
 10
0.0
 20
0.0
 30
0.0
  9
$UCSORGLEFT
 10
0.0
 20
0.0
 30
0.0
  9
$UCSORGRIGHT
 10
0.0
 20
0.0
 30
0.0
  9
$UCSORGFRONT
 10
0.0
 20
0.0
 30
0.0
  9
$UCSORGBACK
 10
0.0
 20
0.0
 30
0.0
  9
$PUCSBASE
  2

  9
$PUCSNAME
  2

  9
$PUCSORG
 10
0.0
 20
0.0
 30
0.0
  9
$PUCSXDIR
 10
1.0
 20
0.0
 30
0.0
  9
$PUCSYDIR
 10
0.0
 20
1.0
 30
0.0
  9
$PUCSORTHOREF
  2

  9
$PUCSORTHOVIEW
 70
     0
  9
$PUCSORGTOP
 10
0.0
 20
0.0
 30
0.0
  9
$PUCSORGBOTTOM
 10
0.0
 20
0.0
 30
0.0
  9
$PUCSORGLEFT
 10
0.0
 20
0.0
 30
0.0
  9
$PUCSORGRIGHT
 10
0.0
 20
0.0
 30
0.0
  9
$PUCSORGFRONT
 10
0.0
 20
0.0
 30
0.0
  9
$PUCSORGBACK
 10
0.0
 20
0.0
 30
0.0
  9
$USERI1
 70
     0
  9
$USERI2
 70
     0
  9
$USERI3
 70
     0
  9
$USERI4
 70
     0
  9
$USERI5
 70
     0
  9
$USERR1
 40
0.0
  9
$USERR2
 40
0.0
  9
$USERR3
 40
0.0
  9
$USERR4
 40
0.0
  9
$USERR5
 40
0.0
  9
$WORLDVIEW
 70
     1
  9
$SHADEDGE
 70
     3
  9
$SHADEDIF
 70
    70
  9
$TILEMODE
 70
     1
  9
$MAXACTVP
 70
    64
  9
$PINSBASE
 10
0.0
 20
0.0
 30
0.0
  9
$PLIMCHECK
 70
     0
  9
$PEXTMIN
 10
0.0
 20
0.0
 30
0.0
  9
$PEXTMAX
 10
0.0
 20
0.0
 30
0.0
  9
$PLIMMIN
 10
0.0
 20
0.0
  9
$PLIMMAX
 10
12.0
 20
9.0
  9
$UNITMODE
 70
     0
  9
$VISRETAIN
 70
     1
  9
$PLINEGEN
 70
     0
  9
$PSLTSCALE
 70
     1
  9
$TREEDEPTH
 70
  3020
  9
$CMLSTYLE
  2
Standard
  9
$CMLJUST
 70
     0
  9
$CMLSCALE
 40
20.0
  9
$PROXYGRAPHICS
 70
     1
  9
$MEASUREMENT
 70
     1
  9
$CELWEIGHT
370
    -1
  9
$ENDCAPS
280
     0
  9
$JOINSTYLE
280
     0
  9
$LWDISPLAY
290
     0
  9
$INSUNITS
 70
     4
  9
$HYPERLINKBASE
  1

  9
$STYLESHEET
  1

  9
$XEDIT
290
     1
  9
$CEPSNTYPE
380
     0
  9
$PSTYLEMODE
290
     1
  9
$FINGERPRINTGUID
  2
{C23B0A1F-4AAC-4413-9DD4-9878CD545BFE}
  9
$VERSIONGUID
  2
{FB1628EB-DABF-4C84-9945-9CD1644EDC40}
  9
$EXTNAMES
290
     1
  9
$PSVPSCALE
 40
0.0
  9
$OLESTARTUP
290
     0
  0
ENDSEC
  0
SECTION
  2
CLASSES
  0
CLASS
  1
ACDBDICTIONARYWDFLT
  2
AcDbDictionaryWithDefault
  3
ObjectDBX Classes
 90
        0
280
     0
281
     0
  0
CLASS
  1
ACDBPLACEHOLDER
  2
AcDbPlaceHolder
  3
ObjectDBX Classes
 90
        0
280
     0
281
     0
  0
CLASS
  1
LAYOUT
  2
AcDbLayout
  3
ObjectDBX Classes
 90
        0
280
     0
281
     0
  0
CLASS
  1
DICTIONARYVAR
  2
AcDbDictionaryVar
  3
ObjectDBX Classes
 90
        0
280
     0
281
     0
  0
CLASS
  1
TABLESTYLE
  2
AcDbTableStyle
  3
ObjectDBX Classes
 90
     4095
280
     0
281
     0
  0
CLASS
  1
MATERIAL
  2
AcDbMaterial
  3
ObjectDBX Classes
 90
     1153
280
     0
281
     0
  0
CLASS
  1
VISUALSTYLE
  2
AcDbVisualStyle
  3
ObjectDBX Classes
 90
     4095
280
     0
281
     0
  0
CLASS
  1
SCALE
  2
AcDbScale
  3
ObjectDBX Classes
 90
     1153
280
     0
281
     0
  0
CLASS
  1
MLEADERSTYLE
  2
AcDbMLeaderStyle
  3
ACDB_MLEADERSTYLE_CLASS
 90
     4095
280
     0
281
     0
  0
CLASS
  1
CELLSTYLEMAP
  2
AcDbCellStyleMap
  3
ObjectDBX Classes
 90
     1152
280
     0
281
     0
  0
ENDSEC
  0
SECTION
  2
TABLES
  0
TABLE
  2
VPORT
  5
8
330
0
100
AcDbSymbolTable
 70
     1
  0
VPORT
  5
EA
330
8
100
AcDbSymbolTableRecord
100
AcDbViewportTableRecord
  2
*Active
 70
     0
 10
0.0
 20
0.0
 11
1.0
 21
1.0
 12
2233.389535404304
 22
1086.571896500475
 13
0.0
 23
0.0
 14
10.0
 24
10.0
 15
10.0
 25
10.0
 16
0.0
 26
0.0
 36
1.0
 17
0.0
 27
0.0
 37
0.0
 40
105.0356844976056
 41
1.903110047846889
 42
50.0
 43
0.0
 44
0.0
 50
0.0
 51
0.0
 71
     0
 72
  1000
 73
     1
 74
     3
 75
     0
 76
     0
 77
     0
 78
     0
281
     0
 65
     1
110
0.0
120
0.0
130
0.0
111
1.0
121
0.0
131
0.0
112
0.0
122
1.0
132
0.0
 79
     0
146
0.0
  0
ENDTAB
  0
TABLE
  2
LTYPE
  5
5
330
0
100
AcDbSymbolTable
 70
     1
  0
LTYPE
  5
14
330
5
100
AcDbSymbolTableRecord
100
AcDbLinetypeTableRecord
  2
ByBlock
 70
     0
  3

 72
    65
 73
     0
 40
0.0
  0
LTYPE
  5
15
330
5
100
AcDbSymbolTableRecord
100
AcDbLinetypeTableRecord
  2
ByLayer
 70
     0
  3

 72
    65
 73
     0
 40
0.0
  0
LTYPE
  5
16
330
5
100
AcDbSymbolTableRecord
100
AcDbLinetypeTableRecord
  2
Continuous
 70
     0
  3
Solid line
 72
    65
 73
     0
 40
0.0
  0
ENDTAB
  0
TABLE
  2
LAYER
  5
2
330
0
100
AcDbSymbolTable
 70
     1
  0
LAYER
  5
10
102
{ACAD_XDICTIONARY
360
13C
102
}
330
2
100
AcDbSymbolTableRecord
100
AcDbLayerTableRecord
  2
0
 70
     0
 62
     7
  6
Continuous
370
    -3
390
F
  0
ENDTAB
  0
TABLE
  2
STYLE
  5
3
330
0
100
AcDbSymbolTable
 70
     2
  0
STYLE
  5
11
330
3
100
AcDbSymbolTableRecord
100
AcDbTextStyleTableRecord
  2
Standard
 70
     0
 40
0.0
 41
1.0
 50
0.0
 71
     0
 42
2.5
  3
txt
  4

  0
STYLE
  5
132
330
3
100
AcDbSymbolTableRecord
100
AcDbTextStyleTableRecord
  2
Annotative
 70
     0
 40
0.0
 41
1.0
 50
0.0
 71
     0
 42
2.5
  3
txt.shx
  4

1001
AcadAnnotative
1000
AnnotativeData
1002
{
1070
     1
1070
     1
1002
}
  0
ENDTAB
  0
TABLE
  2
VIEW
  5
6
330
0
100
AcDbSymbolTable
 70
     0
  0
ENDTAB
  0
TABLE
  2
UCS
  5
7
330
0
100
AcDbSymbolTable
 70
     0
  0
ENDTAB
  0
TABLE
  2
APPID
  5
9
330
0
100
AcDbSymbolTable
 70
     7
  0
APPID
  5
12
330
9
100
AcDbSymbolTableRecord
100
AcDbRegAppTableRecord
  2
ACAD
 70
     0
  0
APPID
  5
9E
330
9
100
AcDbSymbolTableRecord
100
AcDbRegAppTableRecord
  2
ACAD_PSEXT
 70
     0
  0
APPID
  5
133
330
9
100
AcDbSymbolTableRecord
100
AcDbRegAppTableRecord
  2
AcadAnnoPO
 70
     0
  0
APPID
  5
134
330
9
100
AcDbSymbolTableRecord
100
AcDbRegAppTableRecord
  2
AcadAnnotative
 70
     0
  0
APPID
  5
135
330
9
100
AcDbSymbolTableRecord
100
AcDbRegAppTableRecord
  2
ACAD_DSTYLE_DIMJAG
 70
     0
  0
APPID
  5
136
330
9
100
AcDbSymbolTableRecord
100
AcDbRegAppTableRecord
  2
ACAD_DSTYLE_DIMTALN
 70
     0
  0
APPID
  5
165
330
9
100
AcDbSymbolTableRecord
100
AcDbRegAppTableRecord
  2
ACAD_MLEADERVER
 70
     0
  0
ENDTAB
  0
TABLE
  2
DIMSTYLE
  5
A
330
0
100
AcDbSymbolTable
 70
     2
100
AcDbDimStyleTable
 71
     2
340
27
340
137
  0
DIMSTYLE
105
27
330
A
100
AcDbSymbolTableRecord
100
AcDbDimStyleTableRecord
  2
ISO-25
 70
     0
 41
2.5
 42
0.625
 43
3.75
 44
1.25
 73
     0
 74
     0
 77
     1
 78
     8
140
2.5
141
2.5
143
0.03937007874016
147
0.625
171
     3
172
     1
271
     2
272
     2
274
     3
278
    44
283
     0
284
     8
340
11
  0
DIMSTYLE
105
137
330
A
100
AcDbSymbolTableRecord
100
AcDbDimStyleTableRecord
  2
Annotative
 70
     0
 40
0.0
 41
2.5
 42
0.625
 43
3.75
 44
1.25
 73
     0
 74
     0
 77
     1
 78
     8
140
2.5
141
2.5
143
0.03937007874016
147
0.625
171
     3
172
     1
271
     2
272
     2
274
     3
278
    44
283
     0
284
     8
340
11
1001
AcadAnnotative
1000
AnnotativeData
1002
{
1070
     1
1070
     1
1002
}
1001
ACAD_DSTYLE_DIMJAG
1070
   388
1040
1.5
1001
ACAD_DSTYLE_DIMTALN
1070
   392
1070
     0
  0
ENDTAB
  0
TABLE
  2
BLOCK_RECORD
  5
1
330
0
100
AcDbSymbolTable
 70
     5
  0
BLOCK_RECORD
  5
1F
330
1
100
AcDbSymbolTableRecord
100
AcDbBlockTableRecord
  2
*Model_Space
340
22
  0
BLOCK_RECORD
  5
D2
330
1
100
AcDbSymbolTableRecord
100
AcDbBlockTableRecord
  2
*Paper_Space
340
D3
  0
BLOCK_RECORD
  5
D6
330
1
100
AcDbSymbolTableRecord
100
AcDbBlockTableRecord
  2
*Paper_Space0
340
D7
  0
BLOCK_RECORD
  5
4B3
330
1
100
AcDbSymbolTableRecord
100
AcDbBlockTableRecord
  2
1
340
0
310
2800000020000000200000000100080000000000000400000000000000000000000000000000000000000000000080000080000000808000800000008000800080800000C0C0C000C0DCC000F0CAA6000020400000206000002080000020A0000020C0000020E00000400000004020000040400000406000004080000040A0
310
000040C0000040E00000600000006020000060400000606000006080000060A0000060C0000060E00000800000008020000080400000806000008080000080A0000080C0000080E00000A0000000A0200000A0400000A0600000A0800000A0A00000A0C00000A0E00000C0000000C0200000C0400000C0600000C0800000C0
310
A00000C0C00000C0E00000E0000000E0200000E0400000E0600000E0800000E0A00000E0C00000E0E00040000000400020004000400040006000400080004000A0004000C0004000E00040200000402020004020400040206000402080004020A0004020C0004020E000404000004040200040404000404060004040800040
310
40A0004040C0004040E00040600000406020004060400040606000406080004060A0004060C0004060E00040800000408020004080400040806000408080004080A0004080C0004080E00040A0000040A0200040A0400040A0600040A0800040A0A00040A0C00040A0E00040C0000040C0200040C0400040C0600040C08000
310
40C0A00040C0C00040C0E00040E0000040E0200040E0400040E0600040E0800040E0A00040E0C00040E0E00080000000800020008000400080006000800080008000A0008000C0008000E00080200000802020008020400080206000802080008020A0008020C0008020E00080400000804020008040400080406000804080
310
008040A0008040C0008040E00080600000806020008060400080606000806080008060A0008060C0008060E00080800000808020008080400080806000808080008080A0008080C0008080E00080A0000080A0200080A0400080A0600080A0800080A0A00080A0C00080A0E00080C0000080C0200080C0400080C0600080C0
310
800080C0A00080C0C00080C0E00080E0000080E0200080E0400080E0600080E0800080E0A00080E0C00080E0E000C0000000C0002000C0004000C0006000C0008000C000A000C000C000C000E000C0200000C0202000C0204000C0206000C0208000C020A000C020C000C020E000C0400000C0402000C0404000C0406000C0
310
408000C040A000C040C000C040E000C0600000C0602000C0604000C0606000C0608000C060A000C060C000C060E000C0800000C0802000C0804000C0806000C0808000C080A000C080C000C080E000C0A00000C0A02000C0A04000C0A06000C0A08000C0A0A000C0A0C000C0A0E000C0C00000C0C02000C0C04000C0C06000
310
C0C08000C0C0A000F0FBFF00A4A0A000808080000000FF0000FF000000FFFF00FF000000FF00FF00FFFF0000FFFFFF000000000000000000000000000000000000000000000000000000000000000000000000000000FFFF00000000000000FFFF00000000000000FFFF0000000000000000000000FF00FFFF0000000000FF
310
00FFFF0000000000FFFFFFFF00000000000000000000FF0000FF0000000000FF0000FF0000000000FF0000FF00000000000000000000FF0000FF0000000000FF0000FF0000000000FF0000FF00000000000000000000FF0000FF0000000000FF0000FF0000000000FF0000FF00000000000000000000FF0000FF0000000000
310
FF0000FF0000000000FF0000FF00000000000000000000FF0000FF0000000000FF0000FF0000000000FF0000FF00000000000000000000FF0000FF0000000000FF0000FF0000000000FF0000FF00000000000000000000FFFFFFFF0000000000FFFFFFFF0000000000FFFFFFFF00000000000000000000FFFFFFFF00000000
310
00FFFFFFFF0000000000FFFFFFFF00000000000000000000FF0000FF0000000000FF0000FF0000000000FF0000FF00000000000000000000FF0000FF0000000000FF0000FF0000000000FF0000FF00000000000000000000FF0000FF0000000000FF0000FF0000000000FF0000FF00000000000000000000FF0000FF000000
310
0000FF0000FF0000000000FF0000FF00000000000000000000FF0000FF0000000000FF0000FF0000000000FF0000FF000000000000000000FFFFFFFFFFFF000000FFFFFFFFFFFF000000FFFFFFFFFFFF0000000000000000FF00000000FF000000FF00000000FF000000FF00000000FF0000000000000000FF00000000FF00
310
0000FF00000000FF000000FF00000000FF00000000000000FFFFFFFFFFFFFFFF00FFFFFFFFFFFFFFFF00FFFFFFFFFFFFFFFF000000000000FF00FFFFFFFF00FF00FF00FFFFFFFF00FF00FF00FFFFFFFF00FF000000000000FF000000000000FF00FF000000000000FF00FF000000000000FF0000000000FFFF000000000000
310
FFFFFF000000000000FFFFFF000000000000FFFF00000000FF0000000000000000000000000000000000000000000000000000FF00000000FF0000000000000000000000000000000000000000000000000000FF00000000FF0000000000000000000000000000000000000000000000000000FF00000000FF000000000000
310
0000000000000000000000000000000000000000FF00000000FF0000000000000000000000000000000000000000000000000000FF00000000FFFFFFFFFFFFFFFFFFFFFFFFFFFFFFFFFFFFFFFFFFFFFFFFFFFFFFFF00000000FF0000000000000000000000000000000000000000000000000000FF00000000FFFFFFFFFFFF
310
FFFFFFFFFFFFFFFFFFFFFFFFFFFFFFFFFFFFFFFFFFFF00000000000000000000000000000000000000000000000000000000000000000000
102
{BLKREFS
331
523
102
}
1001
ACAD
1000
DesignCenter Data
1002
{
1070
     1
1070
     4
1002
}
  0
BLOCK_RECORD
  5
524
330
1
100
AcDbSymbolTableRecord
100
AcDbBlockTableRecord
  2
2
340
0
310
2800000020000000200000000100080000000000000400000000000000000000000000000000000000000000000080000080000000808000800000008000800080800000C0C0C000C0DCC000F0CAA6000020400000206000002080000020A0000020C0000020E00000400000004020000040400000406000004080000040A0
310
000040C0000040E00000600000006020000060400000606000006080000060A0000060C0000060E00000800000008020000080400000806000008080000080A0000080C0000080E00000A0000000A0200000A0400000A0600000A0800000A0A00000A0C00000A0E00000C0000000C0200000C0400000C0600000C0800000C0
310
A00000C0C00000C0E00000E0000000E0200000E0400000E0600000E0800000E0A00000E0C00000E0E00040000000400020004000400040006000400080004000A0004000C0004000E00040200000402020004020400040206000402080004020A0004020C0004020E000404000004040200040404000404060004040800040
310
40A0004040C0004040E00040600000406020004060400040606000406080004060A0004060C0004060E00040800000408020004080400040806000408080004080A0004080C0004080E00040A0000040A0200040A0400040A0600040A0800040A0A00040A0C00040A0E00040C0000040C0200040C0400040C0600040C08000
310
40C0A00040C0C00040C0E00040E0000040E0200040E0400040E0600040E0800040E0A00040E0C00040E0E00080000000800020008000400080006000800080008000A0008000C0008000E00080200000802020008020400080206000802080008020A0008020C0008020E00080400000804020008040400080406000804080
310
008040A0008040C0008040E00080600000806020008060400080606000806080008060A0008060C0008060E00080800000808020008080400080806000808080008080A0008080C0008080E00080A0000080A0200080A0400080A0600080A0800080A0A00080A0C00080A0E00080C0000080C0200080C0400080C0600080C0
310
800080C0A00080C0C00080C0E00080E0000080E0200080E0400080E0600080E0800080E0A00080E0C00080E0E000C0000000C0002000C0004000C0006000C0008000C000A000C000C000C000E000C0200000C0202000C0204000C0206000C0208000C020A000C020C000C020E000C0400000C0402000C0404000C0406000C0
310
408000C040A000C040C000C040E000C0600000C0602000C0604000C0606000C0608000C060A000C060C000C060E000C0800000C0802000C0804000C0806000C0808000C080A000C080C000C080E000C0A00000C0A02000C0A04000C0A06000C0A08000C0A0A000C0A0C000C0A0E000C0C00000C0C02000C0C04000C0C06000
310
C0C08000C0C0A000F0FBFF00A4A0A000808080000000FF0000FF000000FFFF00FF000000FF00FF00FFFF0000FFFFFF0000000000000000000000000000000000000000000000000000000000000000000000000000000000000000000000FFFFFFFF00000000000000000000000000000000000000000000000000000000FF
310
FFFFFF00000000000000000000000000000000000000000000000000000000FF0000FF00000000000000000000000000000000000000000000000000000000FFFFFFFF00000000000000000000000000000000000000000000000000000000FF0000FF00000000000000000000000000000000000000000000000000000000
310
FF0000FF00000000000000000000000000000000000000000000000000000000FF0000FF00000000000000000000000000000000000000000000000000000000FF0000FF00000000000000000000000000000000000000000000000000000000FFFFFFFF000000000000000000000000000000000000000000000000000000
310
0000FFFF000000000000000000000000000000000000000000000000000000000000FFFF000000000000000000000000000000000000000000000000000000000000FFFF000000000000000000000000000000000000000000000000000000000000FFFF000000000000000000000000000000000000000000000000000000
310
000000FFFF000000000000000000000000000000000000000000000000000000000000FFFF0000000000000000000000000000000000000000000000000000000000FFFFFFFF00000000000000000000000000000000000000000000000000000000FF0000FF00000000000000000000000000000000000000000000000000
310
000000FFFFFFFF00000000000000000000000000000000000000000000000000000000FFFFFFFF00000000000000000000000000000000000000000000000000000000FF0000FF00000000000000000000000000000000000000000000000000000000FF0000FF000000000000000000000000000000000000000000000000
310
00000000FFFFFFFF00000000000000000000000000000000000000000000000000000000FF0000FF00000000000000000000000000000000000000000000000000000000FF0000FF00000000000000000000000000000000000000000000000000000000FF0000FF0000000000000000000000000000000000000000000000
310
0000000000FF0000FF00000000000000000000000000000000000000000000000000000000FF0000FF000000000000000000000000000000000000000000000000000000FFFF0000FFFF0000000000000000000000000000000000000000000000000000FF00000000FF000000000000000000000000000000000000000000
310
0000000000FFFFFFFFFFFF000000000000000000000000000000000000000000000000000000000000000000000000000000000000000000
102
{BLKREFS
331
562
102
}
1001
ACAD
1000
DesignCenter Data
1002
{
1070
     1
1070
     4
1002
}
  0
BLOCK_RECORD
  5
563
330
1
100
AcDbSymbolTableRecord
100
AcDbBlockTableRecord
  2
3
340
0
310
2800000020000000200000000100080000000000000400000000000000000000000000000000000000000000000080000080000000808000800000008000800080800000C0C0C000C0DCC000F0CAA6000020400000206000002080000020A0000020C0000020E00000400000004020000040400000406000004080000040A0
310
000040C0000040E00000600000006020000060400000606000006080000060A0000060C0000060E00000800000008020000080400000806000008080000080A0000080C0000080E00000A0000000A0200000A0400000A0600000A0800000A0A00000A0C00000A0E00000C0000000C0200000C0400000C0600000C0800000C0
310
A00000C0C00000C0E00000E0000000E0200000E0400000E0600000E0800000E0A00000E0C00000E0E00040000000400020004000400040006000400080004000A0004000C0004000E00040200000402020004020400040206000402080004020A0004020C0004020E000404000004040200040404000404060004040800040
310
40A0004040C0004040E00040600000406020004060400040606000406080004060A0004060C0004060E00040800000408020004080400040806000408080004080A0004080C0004080E00040A0000040A0200040A0400040A0600040A0800040A0A00040A0C00040A0E00040C0000040C0200040C0400040C0600040C08000
310
40C0A00040C0C00040C0E00040E0000040E0200040E0400040E0600040E0800040E0A00040E0C00040E0E00080000000800020008000400080006000800080008000A0008000C0008000E00080200000802020008020400080206000802080008020A0008020C0008020E00080400000804020008040400080406000804080
310
008040A0008040C0008040E00080600000806020008060400080606000806080008060A0008060C0008060E00080800000808020008080400080806000808080008080A0008080C0008080E00080A0000080A0200080A0400080A0600080A0800080A0A00080A0C00080A0E00080C0000080C0200080C0400080C0600080C0
310
800080C0A00080C0C00080C0E00080E0000080E0200080E0400080E0600080E0800080E0A00080E0C00080E0E000C0000000C0002000C0004000C0006000C0008000C000A000C000C000C000E000C0200000C0202000C0204000C0206000C0208000C020A000C020C000C020E000C0400000C0402000C0404000C0406000C0
310
408000C040A000C040C000C040E000C0600000C0602000C0604000C0606000C0608000C060A000C060C000C060E000C0800000C0802000C0804000C0806000C0808000C080A000C080C000C080E000C0A00000C0A02000C0A04000C0A06000C0A08000C0A0A000C0A0C000C0A0E000C0C00000C0C02000C0C04000C0C06000
310
C0C08000C0C0A000F0FBFF00A4A0A000808080000000FF0000FF000000FFFF00FF000000FF00FF00FFFF0000FFFFFF0000000000000000000000000000000000000000000000000000000000000000000000000000000000000000000000000000000000000000000000000000000000000000000000000000000000000000
310
00000000000000000000000000000000000000000000000000000000000000000000000000000000000000000000000000000000000000000000000000000000000000000000000000000000000000000000000000000000000000000000000000000000000000000000000000000000000000000000000000000000000000
310
00000000000000000000000000000000000000000000000000000000000000000000000000000000000000000000000000000000000000000000000000000000000000000000000000000000000000000000000000000000000000000000000000000000000000000000000000000000000000000000000000000000000000
310
000000000000000000000000000000000000000000000000000000000000000000000000000000000000000000000000000000000000000000000000000000000000000000000000000000000000000000000000FFFFFFFFFFFFFFFFFFFFFFFFFFFFFFFFFFFFFFFFFFFFFFFFFFFFFFFFFFFF0000FF00000000000000000000
310
000000000000000000000000000000000000FF0000FF00000000000000000000000000000000000000000000000000000000FF0000FF00000000000000000000000000000000000000000000000000000000FF0000FF00000000000000000000000000000000000000000000000000000000FF0000FFFFFFFFFFFFFFFFFFFF
310
FFFFFFFFFFFFFFFFFFFFFFFFFFFFFFFFFFFFFFFF0000000000000000000000000000000000000000000000000000000000000000000000000000000000000000000000000000000000000000000000000000000000000000000000000000000000000000000000000000000000000000000000000000000000000000000000
310
00000000000000000000000000000000000000000000000000000000000000000000000000000000000000000000000000000000000000000000000000000000000000000000000000000000000000000000000000000000000000000000000000000000000000000000000000000000000000000000000000000000000000
310
00000000000000000000000000000000000000000000000000000000000000000000000000000000000000000000000000000000000000000000000000000000000000000000000000000000000000000000000000000000000000000000000000000000000000000000000000000000000000000000000000000000000000
310
0000000000000000000000000000000000000000000000000000000000000000000000000000000000000000000000000000000000000000
102
{BLKREFS
331
56A
102
}
1001
ACAD
1000
DesignCenter Data
1002
{
1070
     1
1070
     4
1002
}
  0
BLOCK_RECORD
  5
56B
330
1
100
AcDbSymbolTableRecord
100
AcDbBlockTableRecord
  2
4
340
0
310
2800000020000000200000000100080000000000000400000000000000000000000000000000000000000000000080000080000000808000800000008000800080800000C0C0C000C0DCC000F0CAA6000020400000206000002080000020A0000020C0000020E00000400000004020000040400000406000004080000040A0
310
000040C0000040E00000600000006020000060400000606000006080000060A0000060C0000060E00000800000008020000080400000806000008080000080A0000080C0000080E00000A0000000A0200000A0400000A0600000A0800000A0A00000A0C00000A0E00000C0000000C0200000C0400000C0600000C0800000C0
310
A00000C0C00000C0E00000E0000000E0200000E0400000E0600000E0800000E0A00000E0C00000E0E00040000000400020004000400040006000400080004000A0004000C0004000E00040200000402020004020400040206000402080004020A0004020C0004020E000404000004040200040404000404060004040800040
310
40A0004040C0004040E00040600000406020004060400040606000406080004060A0004060C0004060E00040800000408020004080400040806000408080004080A0004080C0004080E00040A0000040A0200040A0400040A0600040A0800040A0A00040A0C00040A0E00040C0000040C0200040C0400040C0600040C08000
310
40C0A00040C0C00040C0E00040E0000040E0200040E0400040E0600040E0800040E0A00040E0C00040E0E00080000000800020008000400080006000800080008000A0008000C0008000E00080200000802020008020400080206000802080008020A0008020C0008020E00080400000804020008040400080406000804080
310
008040A0008040C0008040E00080600000806020008060400080606000806080008060A0008060C0008060E00080800000808020008080400080806000808080008080A0008080C0008080E00080A0000080A0200080A0400080A0600080A0800080A0A00080A0C00080A0E00080C0000080C0200080C0400080C0600080C0
310
800080C0A00080C0C00080C0E00080E0000080E0200080E0400080E0600080E0800080E0A00080E0C00080E0E000C0000000C0002000C0004000C0006000C0008000C000A000C000C000C000E000C0200000C0202000C0204000C0206000C0208000C020A000C020C000C020E000C0400000C0402000C0404000C0406000C0
310
408000C040A000C040C000C040E000C0600000C0602000C0604000C0606000C0608000C060A000C060C000C060E000C0800000C0802000C0804000C0806000C0808000C080A000C080C000C080E000C0A00000C0A02000C0A04000C0A06000C0A08000C0A0A000C0A0C000C0A0E000C0C00000C0C02000C0C04000C0C06000
310
C0C08000C0C0A000F0FBFF00A4A0A000808080000000FF0000FF000000FFFF00FF000000FF00FF00FFFF0000FFFFFF0000000000000000000000000000000000000000000000000000000000000000000000000000000000000000000000000000000000FFFF00000000000000000000000000000000000000000000000000
310
00000000FFFFFFFF00000000000000000000000000000000000000000000000000000000FF00FFFF000000000000000000000000000000000000000000000000FF000000FF00FFFF0000000000000000000000000000000000000000000000FFFFFFFF00FF00FFFF0000000000000000000000000000000000000000000000
310
FF00FFFF00FF00FFFF0000000000000000000000000000000000000000000000FF00FFFF00FFFFFFFF000000000000000000000000000000000000FFFFFFFF00FF00FFFF00FFFFFFFF000000000000000000000000000000000000FFFFFFFF00FF00FFFF0000FFFFFF000000000000000000000000000000000000FFFFFFFF
310
00FFFFFFFF0000FFFFFF000000000000000000000000000000000000FFFF00FF00FFFFFFFF0000FFFFFF000000000000000000000000000000000000FFFF00FF00FF00FFFF00FFFF00FFFF0000000000000000000000000000000000FFFFFFFF00FF00FFFFFF0000FFFFFF0000000000000000000000000000000000FFFFFF
310
FF00FFFFFFFFFFFFFFFFFFFF0000000000000000000000000000000000FF00FF00FFFF00FFFFFFFFFF00FFFFFF00000000000000000000000000000000FF00FF00FF0000FFFFFF000000FF00FF00000000000000000000000000000000FF00FF00FFFFFFFFFFFF000000FF00FF00000000000000000000000000000000FFFF
310
FFFFFFFFFFFFFF00000000FF00FF000000000000000000000000000000FF00FFFFFFFF000000000000FFFFFF00FF000000000000000000000000000000FFFFFFFFFFFF00000000FFFFFFFF00FFFF000000000000000000000000000000FFFF00FFFF00000000FFFFFF00000000FF000000000000000000000000000000FF00
310
0000000000FFFFFF00000000FFFF000000000000000000000000000000FFFF00000000FFFFFFFF000000FFFF0000000000000000000000000000000000FF00000000FFFFFF00000000FF00000000000000000000000000000000000000FF0000FFFFFF00000000FFFF0000000000000000000000000000000000000000FFFF
310
FFFFFF000000FFFF00000000000000000000000000000000000000000000FFFFFF00000000FF000000000000000000000000000000000000000000000000FF00000000FFFF0000000000000000000000000000000000000000000000000000FF00FFFF00000000000000000000000000000000000000000000000000000000
310
00FF000000000000000000000000000000000000000000000000000000000000000000000000000000000000000000000000000000000000
102
{BLKREFS
331
643
102
}
1001
ACAD
1000
DesignCenter Data
1002
{
1070
     1
1070
     4
1002
}
  0
ENDTAB
  0
ENDSEC
  0
SECTION
  2
BLOCKS
  0
BLOCK
  5
20
330
1F
100
AcDbEntity
  8
0
100
AcDbBlockBegin
  2
*Model_Space
 70
     0
 10
0.0
 20
0.0
 30
0.0
  3
*Model_Space
  1

  0
ENDBLK
  5
21
330
1F
100
AcDbEntity
  8
0
100
AcDbBlockEnd
  0
BLOCK
  5
D4
330
D2
100
AcDbEntity
 67
     1
  8
0
100
AcDbBlockBegin
  2
*Paper_Space
 70
     0
 10
0.0
 20
0.0
 30
0.0
  3
*Paper_Space
  1

  0
ENDBLK
  5
D5
330
D2
100
AcDbEntity
 67
     1
  8
0
100
AcDbBlockEnd
  0
BLOCK
  5
D8
330
D6
100
AcDbEntity
 67
     1
  8
0
100
AcDbBlockBegin
  2
*Paper_Space0
 70
     0
 10
0.0
 20
0.0
 30
0.0
  3
*Paper_Space0
  1

  0
ENDBLK
  5
D9
330
D6
100
AcDbEntity
 67
     1
  8
0
100
AcDbBlockEnd
  0
BLOCK
  5
4B4
330
4B3
100
AcDbEntity
  8
0
100
AcDbBlockBegin
  2
1
 70
     0
 10
0.0
 20
0.0
 30
0.0
  3
1
  1

  0
LINE
  5
4B6
330
4B3
100
AcDbEntity
  8
0
  6
Continuous
 62
     7
370
    15
100
AcDbLine
 10
2213.77733440591
 20
1105.535692209872
 30
0.0
 11
2213.77733440591
 21
1106.735692209872
 31
0.0
  0
LINE
  5
4B7
330
4B3
100
AcDbEntity
  8
0
  6
Continuous
 62
     7
370
    15
100
AcDbLine
 10
2213.77733440591
 20
1105.535692209872
 30
0.0
 11
2185.77734017564
 21
1105.535692209872
 31
0.0
  0
LINE
  5
4B8
330
4B3
100
AcDbEntity
  8
0
  6
Continuous
 62
     7
370
    15
100
AcDbLine
 10
2185.77734017564
 20
1106.735692209872
 30
0.0
 11
2185.77734017564
 21
1105.535692209872
 31
0.0
  0
LINE
  5
4B9
330
4B3
100
AcDbEntity
  8
0
  6
Continuous
 62
     7
370
    15
100
AcDbLine
 10
2213.77733440591
 20
1106.735692209872
 30
0.0
 11
2185.77734017564
 21
1106.735692209872
 31
0.0
  0
LINE
  5
4BA
330
4B3
100
AcDbEntity
  8
0
  6
Continuous
 62
     7
370
    15
100
AcDbLine
 10
2207.877337290776
 20
1095.535692209872
 30
0.0
 11
2210.877337290776
 21
1095.535692209872
 31
0.0
  0
LINE
  5
4BB
330
4B3
100
AcDbEntity
  8
0
  6
Continuous
 62
     7
370
    15
100
AcDbLine
 10
2207.877337290776
 20
1096.835692209872
 30
0.0
 11
2207.877337290776
 21
1095.535692209872
 31
0.0
  0
LINE
  5
4BC
330
4B3
100
AcDbEntity
  8
0
  6
Continuous
 62
     7
370
    15
100
AcDbLine
 10
2207.877337290776
 20
1096.835692209872
 30
0.0
 11
2210.877337290776
 21
1096.835692209872
 31
0.0
  0
LINE
  5
4BD
330
4B3
100
AcDbEntity
  8
0
  6
Continuous
 62
     7
370
    15
100
AcDbLine
 10
2210.877337290776
 20
1096.835692209872
 30
0.0
 11
2210.877337290776
 21
1095.535692209872
 31
0.0
  0
LINE
  5
4BE
330
4B3
100
AcDbEntity
  8
0
  6
Continuous
 62
     7
370
    15
100
AcDbLine
 10
2198.277337290775
 20
1095.535692209872
 30
0.0
 11
2201.277337290775
 21
1095.535692209872
 31
0.0
  0
LINE
  5
4BF
330
4B3
100
AcDbEntity
  8
0
  6
Continuous
 62
     7
370
    15
100
AcDbLine
 10
2198.277337290775
 20
1096.835692209872
 30
0.0
 11
2198.277337290775
 21
1095.535692209872
 31
0.0
  0
LINE
  5
4C0
330
4B3
100
AcDbEntity
  8
0
  6
Continuous
 62
     7
370
    15
100
AcDbLine
 10
2198.277337290775
 20
1096.835692209872
 30
0.0
 11
2201.277337290775
 21
1096.835692209872
 31
0.0
  0
LINE
  5
4C1
330
4B3
100
AcDbEntity
  8
0
  6
Continuous
 62
     7
370
    15
100
AcDbLine
 10
2201.277337290775
 20
1096.835692209872
 30
0.0
 11
2201.277337290775
 21
1095.535692209872
 31
0.0
  0
LINE
  5
4C2
330
4B3
100
AcDbEntity
  8
0
  6
Continuous
 62
     7
370
    15
100
AcDbLine
 10
2188.677337290775
 20
1095.535692209872
 30
0.0
 11
2191.677337290775
 21
1095.535692209872
 31
0.0
  0
LINE
  5
4C3
330
4B3
100
AcDbEntity
  8
0
  6
Continuous
 62
     7
370
    15
100
AcDbLine
 10
2188.677337290775
 20
1096.835692209872
 30
0.0
 11
2188.677337290775
 21
1095.535692209872
 31
0.0
  0
LINE
  5
4C4
330
4B3
100
AcDbEntity
  8
0
  6
Continuous
 62
     7
370
    15
100
AcDbLine
 10
2188.677337290775
 20
1096.835692209872
 30
0.0
 11
2191.677337290775
 21
1096.835692209872
 31
0.0
  0
LINE
  5
4C5
330
4B3
100
AcDbEntity
  8
0
  6
Continuous
 62
     7
370
    15
100
AcDbLine
 10
2191.677337290775
 20
1096.835692209872
 30
0.0
 11
2191.677337290775
 21
1095.535692209872
 31
0.0
  0
LINE
  5
4C6
330
4B3
100
AcDbEntity
  8
0
  6
Continuous
 62
     7
370
    15
100
AcDbLine
 10
2193.427337290775
 20
1098.93907457796
 30
0.0
 11
2193.427337290775
 21
1095.365682883794
 31
0.0
  0
ARC
  5
4C7
330
4B3
100
AcDbEntity
  8
0
  6
Continuous
 62
     7
370
    15
100
AcDbCircle
 10
2192.927336775405
 20
1095.365679422813
 30
0.0
 40
0.5000005153882467
100
AcDbArc
 50
314.9996405476145
 51
0.0003965987939631
  0
LINE
  5
4C8
330
4B3
100
AcDbEntity
  8
0
  6
Continuous
 62
     7
370
    15
100
AcDbLine
 10
2193.223787888832
 20
1094.955024459087
 30
0.0
 11
2193.280888312362
 21
1095.012123449728
 31
0.0
  0
ARC
  5
4C9
330
4B3
100
AcDbEntity
  8
0
  6
Continuous
 62
     7
370
    15
100
AcDbCircle
 10
2193.577336781612
 20
1094.601465854243
 30
0.0
 40
0.5000005066464439
100
AcDbArc
 50
134.9992130470782
 51
180.0
  0
LINE
  5
4CA
330
4B3
100
AcDbEntity
  8
0
  6
Continuous
 62
     7
370
    15
100
AcDbLine
 10
2192.727340357512
 20
1092.23709813897
 30
0.0
 11
2187.627334224038
 21
1092.23709813897
 31
0.0
  0
LINE
  5
4CB
330
4B3
100
AcDbEntity
  8
0
  6
Continuous
 62
     7
370
    15
100
AcDbLine
 10
2187.277335749917
 20
1092.587096613091
 30
0.0
 11
2187.627334224038
 21
1092.23709813897
 31
0.0
  0
LINE
  5
4CC
330
4B3
100
AcDbEntity
  8
0
  6
Continuous
 62
     7
370
    15
100
AcDbLine
 10
2187.277335749917
 20
1092.587096613091
 30
0.0
 11
2187.277337028251
 21
1094.601465854243
 31
0.0
  0
ARC
  5
4CD
330
4B3
100
AcDbEntity
  8
0
  6
Continuous
 62
     7
370
    15
100
AcDbCircle
 10
2186.777337799938
 20
1094.601465854243
 30
0.0
 40
0.5000005066453508
100
AcDbArc
 50
0.0
 51
45.0007869529218
  0
LINE
  5
4CE
330
4B3
100
AcDbEntity
  8
0
  6
Continuous
 62
     7
370
    15
100
AcDbLine
 10
2187.073786269189
 20
1095.012123449728
 30
0.0
 11
2187.130886692718
 21
1094.955024459087
 31
0.0
  0
ARC
  5
4CF
330
4B3
100
AcDbEntity
  8
0
  6
Continuous
 62
     7
370
    15
100
AcDbCircle
 10
2187.427337806145
 20
1095.365679422813
 30
0.0
 40
0.5000005153938787
100
AcDbArc
 50
180.0
 51
225.0003594524132
  0
LINE
  5
4D0
330
4B3
100
AcDbEntity
  8
0
  6
Continuous
 62
     7
370
    15
100
AcDbLine
 10
2186.927337290751
 20
1095.365679422813
 30
0.0
 11
2186.927337290775
 21
1098.93907457796
 31
0.0
  0
LINE
  5
4D1
330
4B3
100
AcDbEntity
  8
0
  6
Continuous
 62
     7
370
    15
100
AcDbLine
 10
2185.77734017564
 20
1098.93907457796
 30
0.0
 11
2186.927337290775
 21
1098.93907457796
 31
0.0
  0
LINE
  5
4D2
330
4B3
100
AcDbEntity
  8
0
  6
Continuous
 62
     7
370
    15
100
AcDbLine
 10
2212.627337290775
 20
1098.93907457796
 30
0.0
 11
2213.77733440591
 21
1098.93907457796
 31
0.0
  0
LINE
  5
4D3
330
4B3
100
AcDbEntity
  8
0
  6
Continuous
 62
     7
370
    15
100
AcDbLine
 10
2212.627337290775
 20
1098.93907457796
 30
0.0
 11
2212.627337290775
 21
1095.385682883794
 31
0.0
  0
ARC
  5
4D4
330
4B3
100
AcDbEntity
  8
0
  6
Continuous
 62
     7
370
    15
100
AcDbCircle
 10
2212.127336775405
 20
1095.385679422813
 30
0.0
 40
0.500000515388307
100
AcDbArc
 50
314.9996405476237
 51
0.0003965988069907
  0
LINE
  5
4D5
330
4B3
100
AcDbEntity
  8
0
  6
Continuous
 62
     7
370
    15
100
AcDbLine
 10
2212.423787888832
 20
1094.975024459087
 30
0.0
 11
2212.480888312362
 21
1095.032123449728
 31
0.0
  0
ARC
  5
4D6
330
4B3
100
AcDbEntity
  8
0
  6
Continuous
 62
     7
370
    15
100
AcDbCircle
 10
2212.777336781612
 20
1094.621465854243
 30
0.0
 40
0.5000005066464439
100
AcDbArc
 50
134.9992130470782
 51
180.0
  0
LINE
  5
4D7
330
4B3
100
AcDbEntity
  8
0
  6
Continuous
 62
     7
370
    15
100
AcDbLine
 10
2212.277336274966
 20
1094.621465854243
 30
0.0
 11
2212.277336274966
 21
1092.607094056424
 31
0.0
  0
LINE
  5
4D8
330
4B3
100
AcDbEntity
  8
0
  6
Continuous
 62
     7
370
    15
100
AcDbLine
 10
2211.907340357512
 20
1092.23709813897
 30
0.0
 11
2212.277337979411
 21
1092.607095760868
 31
0.0
  0
LINE
  5
4D9
330
4B3
100
AcDbEntity
  8
0
  6
Continuous
 62
     7
370
    15
100
AcDbLine
 10
2211.907340357512
 20
1092.23709813897
 30
0.0
 11
2206.847334224038
 21
1092.23709813897
 31
0.0
  0
LINE
  5
4DA
330
4B3
100
AcDbEntity
  8
0
  6
Continuous
 62
     7
370
    15
100
AcDbLine
 10
2206.477335749917
 20
1092.607096613091
 30
0.0
 11
2206.847334224038
 21
1092.23709813897
 31
0.0
  0
LINE
  5
4DB
330
4B3
100
AcDbEntity
  8
0
  6
Continuous
 62
     7
370
    15
100
AcDbLine
 10
2206.477335749917
 20
1092.607096613091
 30
0.0
 11
2206.477337028251
 21
1094.621465854243
 31
0.0
  0
ARC
  5
4DC
330
4B3
100
AcDbEntity
  8
0
  6
Continuous
 62
     7
370
    15
100
AcDbCircle
 10
2205.977337799938
 20
1094.621465854243
 30
0.0
 40
0.5000005066455921
100
AcDbArc
 50
0.0
 51
45.0007869529218
  0
LINE
  5
4DD
330
4B3
100
AcDbEntity
  8
0
  6
Continuous
 62
     7
370
    15
100
AcDbLine
 10
2206.273786269189
 20
1095.032123449728
 30
0.0
 11
2206.330886692718
 21
1094.975024459087
 31
0.0
  0
ARC
  5
4DE
330
4B3
100
AcDbEntity
  8
0
  6
Continuous
 62
     7
370
    15
100
AcDbCircle
 10
2206.627337806145
 20
1095.385679422813
 30
0.0
 40
0.5000005153938787
100
AcDbArc
 50
180.0
 51
225.0003594523763
  0
LINE
  5
4DF
330
4B3
100
AcDbEntity
  8
0
  6
Continuous
 62
     7
370
    15
100
AcDbLine
 10
2206.127337290752
 20
1095.385679422813
 30
0.0
 11
2206.127337290775
 21
1098.93907457796
 31
0.0
  0
LINE
  5
4E0
330
4B3
100
AcDbEntity
  8
0
  6
Continuous
 62
     7
370
    15
100
AcDbLine
 10
2206.127337290775
 20
1098.93907457796
 30
0.0
 11
2203.027337290775
 21
1098.93907457796
 31
0.0
  0
LINE
  5
4E1
330
4B3
100
AcDbEntity
  8
0
  6
Continuous
 62
     7
370
    15
100
AcDbLine
 10
2203.027337290775
 20
1098.93907457796
 30
0.0
 11
2203.027337290775
 21
1095.365682883794
 31
0.0
  0
ARC
  5
4E2
330
4B3
100
AcDbEntity
  8
0
  6
Continuous
 62
     7
370
    15
100
AcDbCircle
 10
2202.527336775405
 20
1095.365679422813
 30
0.0
 40
0.5000005153882467
100
AcDbArc
 50
314.9996405476145
 51
0.0003965987939631
  0
LINE
  5
4E3
330
4B3
100
AcDbEntity
  8
0
  6
Continuous
 62
     7
370
    15
100
AcDbLine
 10
2202.823787888832
 20
1094.955024459087
 30
0.0
 11
2202.880888312361
 21
1095.012123449728
 31
0.0
  0
ARC
  5
4E4
330
4B3
100
AcDbEntity
  8
0
  6
Continuous
 62
     7
370
    15
100
AcDbCircle
 10
2203.177336781612
 20
1094.601465854243
 30
0.0
 40
0.5000005066464439
100
AcDbArc
 50
134.9992130470782
 51
180.0
  0
LINE
  5
4E5
330
4B3
100
AcDbEntity
  8
0
  6
Continuous
 62
     7
370
    15
100
AcDbLine
 10
2202.327340357512
 20
1092.23709813897
 30
0.0
 11
2197.227334224038
 21
1092.23709813897
 31
0.0
  0
LINE
  5
4E6
330
4B3
100
AcDbEntity
  8
0
  6
Continuous
 62
     7
370
    15
100
AcDbLine
 10
2196.877335749917
 20
1092.587096613091
 30
0.0
 11
2197.227334224038
 21
1092.23709813897
 31
0.0
  0
LINE
  5
4E7
330
4B3
100
AcDbEntity
  8
0
  6
Continuous
 62
     7
370
    15
100
AcDbLine
 10
2196.877335749917
 20
1092.587096613091
 30
0.0
 11
2196.877337028251
 21
1094.601465854243
 31
0.0
  0
ARC
  5
4E8
330
4B3
100
AcDbEntity
  8
0
  6
Continuous
 62
     7
370
    15
100
AcDbCircle
 10
2196.377337799939
 20
1094.601465854243
 30
0.0
 40
0.5000005066453508
100
AcDbArc
 50
0.0
 51
45.0007869529218
  0
LINE
  5
4E9
330
4B3
100
AcDbEntity
  8
0
  6
Continuous
 62
     7
370
    15
100
AcDbLine
 10
2196.673786269189
 20
1095.012123449728
 30
0.0
 11
2196.730886692718
 21
1094.955024459087
 31
0.0
  0
ARC
  5
4EA
330
4B3
100
AcDbEntity
  8
0
  6
Continuous
 62
     7
370
    15
100
AcDbCircle
 10
2197.027337806146
 20
1095.365679422813
 30
0.0
 40
0.5000005153938787
100
AcDbArc
 50
180.0
 51
225.0003594524132
  0
LINE
  5
4EB
330
4B3
100
AcDbEntity
  8
0
  6
Continuous
 62
     7
370
    15
100
AcDbLine
 10
2196.527337290751
 20
1095.365679422813
 30
0.0
 11
2196.527337290775
 21
1098.93907457796
 31
0.0
  0
LINE
  5
4EC
330
4B3
100
AcDbEntity
  8
0
  6
Continuous
 62
     7
370
    15
100
AcDbLine
 10
2196.527337290775
 20
1098.93907457796
 30
0.0
 11
2193.427337290775
 21
1098.93907457796
 31
0.0
  0
LINE
  5
4ED
330
4B3
100
AcDbEntity
  8
0
  6
Continuous
 62
     7
370
    15
100
AcDbLine
 10
2202.327340357512
 20
1092.23709813897
 30
0.0
 11
2202.677338831633
 21
1092.587096613091
 31
0.0
  0
LINE
  5
4EE
330
4B3
100
AcDbEntity
  8
0
  6
Continuous
 62
     7
370
    15
100
AcDbLine
 10
2192.727340357512
 20
1092.23709813897
 30
0.0
 11
2193.077338831633
 21
1092.587096613091
 31
0.0
  0
LINE
  5
4EF
330
4B3
100
AcDbEntity
  8
0
  6
Continuous
 62
     7
370
    15
100
AcDbLine
 10
2202.677336274966
 20
1094.601465854243
 30
0.0
 11
2202.677336274966
 21
1092.587094056423
 31
0.0
  0
LINE
  5
4F0
330
4B3
100
AcDbEntity
  8
0
  6
Continuous
 62
     7
370
    15
100
AcDbLine
 10
2193.077336274965
 20
1094.601465854243
 30
0.0
 11
2193.077336274965
 21
1092.587094056423
 31
0.0
  0
LINE
  5
4F1
330
4B3
100
AcDbEntity
  8
0
  6
Continuous
 62
     7
370
    15
100
AcDbLine
 10
2185.77734017564
 20
1098.93907457796
 30
0.0
 11
2185.77734017564
 21
1105.535692209872
 31
0.0
  0
LINE
  5
4F2
330
4B3
100
AcDbEntity
  8
0
  6
Continuous
 62
     7
370
    15
100
AcDbLine
 10
2213.77733440591
 20
1105.535692209872
 30
0.0
 11
2213.77733440591
 21
1098.93907457796
 31
0.0
  0
LINE
  5
4F3
330
4B3
100
AcDbEntity
  8
0
  6
Continuous
 62
     7
370
    15
100
AcDbLine
 10
2210.538483932677
 20
1077.154553962746
 30
0.0
 11
2210.877309464824
 21
1079.076132271911
 31
0.0
  0
SPLINE
  5
4F4
330
4B3
100
AcDbEntity
  8
0
  6
Continuous
 62
     7
370
    15
100
AcDbSpline
210
0.0
220
0.0
230
1.0
 70
     8
 71
     3
 72
    10
 73
     6
 74
     0
 42
0.0000000001
 43
0.0000000001
 40
0.0
 40
0.0
 40
0.0
 40
0.0
 40
0.5
 40
0.5
 40
1.0
 40
1.0
 40
1.0
 40
1.0
 10
2210.538483932677
 20
1077.154553962746
 30
0.0
 10
2210.510197136841
 20
1076.994131302239
 30
0.0
 10
2210.423856530755
 20
1076.844584911317
 30
0.0
 10
2210.174283218167
 20
1076.635167975671
 30
0.0
 10
2210.012015901017
 20
1076.576107489034
 30
0.0
 10
2209.849118470641
 20
1076.576107489034
 30
0.0
  0
LINE
  5
4F5
330
4B3
100
AcDbEntity
  8
0
  6
Continuous
 62
     7
370
    15
100
AcDbLine
 10
2208.905494379183
 20
1076.576107489034
 30
0.0
 11
2209.849118470641
 21
1076.576107489034
 31
0.0
  0
SPLINE
  5
4F6
330
4B3
100
AcDbEntity
  8
0
  6
Continuous
 62
     7
370
    15
100
AcDbSpline
210
0.0
220
0.0
230
1.0
 70
     8
 71
     3
 72
    10
 73
     6
 74
     0
 42
0.0000000001
 43
0.0000000001
 40
0.0
 40
0.0
 40
0.0
 40
0.0
 40
0.5
 40
0.5
 40
1.0
 40
1.0
 40
1.0
 40
1.0
 10
2208.905494379183
 20
1076.576107489034
 30
0.0
 10
2208.742596948809
 20
1076.576107489034
 30
0.0
 10
2208.580329631658
 20
1076.635167975672
 30
0.0
 10
2208.330756319069
 20
1076.844584911317
 30
0.0
 10
2208.244415712985
 20
1076.994131302239
 30
0.0
 10
2208.216128917148
 20
1077.154553962746
 30
0.0
  0
LINE
  5
4F7
330
4B3
100
AcDbEntity
  8
0
  6
Continuous
 62
     7
370
    15
100
AcDbLine
 10
2207.877303385001
 20
1079.076132271911
 30
0.0
 11
2208.216128917148
 21
1077.154553962746
 31
0.0
  0
LINE
  5
4F8
330
4B3
100
AcDbEntity
  8
0
  6
Continuous
 62
     7
370
    15
100
AcDbLine
 10
2207.877303385001
 20
1084.800588045326
 30
0.0
 11
2207.877303385001
 21
1079.076132271911
 31
0.0
  0
LINE
  5
4F9
330
4B3
100
AcDbEntity
  8
0
  6
Continuous
 62
     7
370
    15
100
AcDbLine
 10
2210.877314503102
 20
1084.800552845473
 30
0.0
 11
2207.877303385001
 21
1084.800588045326
 31
0.0
  0
LINE
  5
4FA
330
4B3
100
AcDbEntity
  8
0
  6
Continuous
 62
     7
370
    15
100
AcDbLine
 10
2210.877314503102
 20
1084.800552845473
 30
0.0
 11
2210.877318603349
 21
1079.076132271913
 31
0.0
  0
LINE
  5
4FB
330
4B3
100
AcDbEntity
  8
0
  6
Continuous
 62
     7
370
    15
100
AcDbLine
 10
2200.938483932677
 20
1077.154553962746
 30
0.0
 11
2201.277309464824
 21
1079.076132271911
 31
0.0
  0
LINE
  5
4FC
330
4B3
100
AcDbEntity
  8
0
  6
Continuous
 62
     7
370
    15
100
AcDbLine
 10
2199.305494379184
 20
1076.576107489034
 30
0.0
 11
2200.249118470642
 21
1076.576107489034
 31
0.0
  0
ARC
  5
4FD
330
4B3
100
AcDbEntity
  8
0
  6
Continuous
 62
     7
370
    15
100
AcDbCircle
 10
2199.305494379184
 20
1077.276107489034
 30
0.0
 40
0.6999999999999386
100
AcDbArc
 50
189.9999835369507
 51
270.0
  0
LINE
  5
4FE
330
4B3
100
AcDbEntity
  8
0
  6
Continuous
 62
     7
370
    15
100
AcDbLine
 10
2198.277303385001
 20
1079.076132271911
 30
0.0
 11
2198.616128917148
 21
1077.154553962746
 31
0.0
  0
LINE
  5
4FF
330
4B3
100
AcDbEntity
  8
0
  6
Continuous
 62
     7
370
    15
100
AcDbLine
 10
2198.277303385001
 20
1084.800588045326
 30
0.0
 11
2198.277303385001
 21
1079.076132271911
 31
0.0
  0
LINE
  5
500
330
4B3
100
AcDbEntity
  8
0
  6
Continuous
 62
     7
370
    15
100
AcDbLine
 10
2201.27731463203
 20
1084.800552845473
 30
0.0
 11
2198.277303385001
 21
1084.800588045326
 31
0.0
  0
LINE
  5
501
330
4B3
100
AcDbEntity
  8
0
  6
Continuous
 62
     7
370
    15
100
AcDbLine
 10
2201.27731463203
 20
1084.800552845473
 30
0.0
 11
2201.277318732278
 21
1079.076132271911
 31
0.0
  0
SPLINE
  5
502
330
4B3
100
AcDbEntity
  8
0
  6
Continuous
 62
     7
370
    15
100
AcDbSpline
210
0.0
220
0.0
230
1.0
 70
     8
 71
     3
 72
    10
 73
     6
 74
     0
 42
0.0000000001
 43
0.0000000001
 40
0.0
 40
0.0
 40
0.0
 40
0.0
 40
0.5
 40
0.5
 40
1.0
 40
1.0
 40
1.0
 40
1.0
 10
2200.938483932677
 20
1077.154553962746
 30
0.0
 10
2200.91019713684
 20
1076.994131302239
 30
0.0
 10
2200.823856530755
 20
1076.844584911317
 30
0.0
 10
2200.574283218167
 20
1076.635167975671
 30
0.0
 10
2200.412015901016
 20
1076.576107489034
 30
0.0
 10
2200.249118470642
 20
1076.576107489034
 30
0.0
  0
LINE
  5
503
330
4B3
100
AcDbEntity
  8
0
  6
Continuous
 62
     7
370
    15
100
AcDbLine
 10
2191.338483932677
 20
1077.154553962746
 30
0.0
 11
2191.677309464824
 21
1079.076132271911
 31
0.0
  0
LINE
  5
504
330
4B3
100
AcDbEntity
  8
0
  6
Continuous
 62
     7
370
    15
100
AcDbLine
 10
2189.705494379183
 20
1076.576107489034
 30
0.0
 11
2190.649118470641
 21
1076.576107489034
 31
0.0
  0
ARC
  5
505
330
4B3
100
AcDbEntity
  8
0
  6
Continuous
 62
     7
370
    15
100
AcDbCircle
 10
2189.705494379183
 20
1077.276107489034
 30
0.0
 40
0.6999999999999386
100
AcDbArc
 50
189.9999835369507
 51
270.0
  0
LINE
  5
506
330
4B3
100
AcDbEntity
  8
0
  6
Continuous
 62
     7
370
    15
100
AcDbLine
 10
2188.677303385
 20
1079.076132271911
 30
0.0
 11
2189.016128917149
 21
1077.154553962746
 31
0.0
  0
LINE
  5
507
330
4B3
100
AcDbEntity
  8
0
  6
Continuous
 62
     7
370
    15
100
AcDbLine
 10
2188.677303385
 20
1084.800588045326
 30
0.0
 11
2188.677303385
 21
1079.076132271911
 31
0.0
  0
LINE
  5
508
330
4B3
100
AcDbEntity
  8
0
  6
Continuous
 62
     7
370
    15
100
AcDbLine
 10
2191.67731463203
 20
1084.800552845473
 30
0.0
 11
2188.677303385
 21
1084.800588045326
 31
0.0
  0
LINE
  5
509
330
4B3
100
AcDbEntity
  8
0
  6
Continuous
 62
     7
370
    15
100
AcDbLine
 10
2191.67731463203
 20
1084.800552845473
 30
0.0
 11
2191.677318732278
 21
1079.076132271911
 31
0.0
  0
SPLINE
  5
50A
330
4B3
100
AcDbEntity
  8
0
  6
Continuous
 62
     7
370
    15
100
AcDbSpline
210
0.0
220
0.0
230
1.0
 70
     8
 71
     3
 72
    10
 73
     6
 74
     0
 42
0.0000000001
 43
0.0000000001
 40
0.0
 40
0.0
 40
0.0
 40
0.0
 40
0.5
 40
0.5
 40
1.0
 40
1.0
 40
1.0
 40
1.0
 10
2191.338483932677
 20
1077.154553962746
 30
0.0
 10
2191.31019713684
 20
1076.994131302239
 30
0.0
 10
2191.223856530756
 20
1076.844584911317
 30
0.0
 10
2190.974283218166
 20
1076.635167975671
 30
0.0
 10
2190.812015901017
 20
1076.576107489034
 30
0.0
 10
2190.649118470641
 20
1076.576107489034
 30
0.0
  0
LINE
  5
50B
330
4B3
100
AcDbEntity
  8
0
  6
Continuous
 62
     7
370
    15
100
AcDbLine
 10
2207.877303385001
 20
1085.100588045342
 30
0.0
 11
2207.877303385001
 21
1084.800588045326
 31
0.0
  0
LINE
  5
50C
330
4B3
100
AcDbEntity
  8
0
  6
Continuous
 62
     7
370
    15
100
AcDbLine
 10
2210.877314288219
 20
1085.100552845484
 30
0.0
 11
2207.877303385001
 21
1085.100588045342
 31
0.0
  0
LWPOLYLINE
  5
50D
330
4B3
100
AcDbEntity
  8
0
  6
Continuous
 62
     7
370
    15
100
AcDbPolyline
 90
        9
 70
   128
 43
0.0
 10
2210.877314503102
 20
1084.800552845473
 10
2210.877314406292
 20
1084.85907994207
 10
2210.877314119585
 20
1084.915357875168
 10
2210.877313653998
 20
1084.96722391536
 10
2210.877313027424
 20
1085.012684879808
 10
2210.877312263941
 20
1085.049993729144
 10
2210.877311392889
 20
1085.077716705213
 10
2210.877310447743
 20
1085.094788429591
 10
2210.877314288219
 20
1085.100552845484
  0
LINE
  5
50E
330
4B3
100
AcDbEntity
  8
0
  6
Continuous
 62
     7
370
    15
100
AcDbLine
 10
2188.677303385
 20
1085.100588045342
 30
0.0
 11
2188.677303385
 21
1084.800588045326
 31
0.0
  0
LINE
  5
50F
330
4B3
100
AcDbEntity
  8
0
  6
Continuous
 62
     7
370
    15
100
AcDbLine
 10
2191.677314417148
 20
1085.100552845489
 30
0.0
 11
2188.677303385
 21
1085.100588045342
 31
0.0
  0
LWPOLYLINE
  5
510
330
4B3
100
AcDbEntity
  8
0
  6
Continuous
 62
     7
370
    15
100
AcDbPolyline
 90
        9
 70
   128
 43
0.0
 10
2191.67731463203
 20
1084.800552845473
 10
2191.677314532744
 20
1084.85907994207
 10
2191.6773142387
 20
1084.915357875169
 10
2191.677313761199
 20
1084.967223915361
 10
2191.67731311859
 20
1085.012684879809
 10
2191.677312335571
 20
1085.049993729146
 10
2191.677311442228
 20
1085.077716705215
 10
2191.677310472896
 20
1085.094788429594
 10
2191.677314417148
 20
1085.100552845489
  0
LINE
  5
511
330
4B3
100
AcDbEntity
  8
0
  6
Continuous
 62
     7
370
    15
100
AcDbLine
 10
2198.277303385001
 20
1085.100588045342
 30
0.0
 11
2198.277303385001
 21
1084.800588045326
 31
0.0
  0
LINE
  5
512
330
4B3
100
AcDbEntity
  8
0
  6
Continuous
 62
     7
370
    15
100
AcDbLine
 10
2201.277314417148
 20
1085.100552845489
 30
0.0
 11
2198.277303385001
 21
1085.100588045342
 31
0.0
  0
LWPOLYLINE
  5
513
330
4B3
100
AcDbEntity
  8
0
  6
Continuous
 62
     7
370
    15
100
AcDbPolyline
 90
        9
 70
   128
 43
0.0
 10
2201.27731463203
 20
1084.800552845473
 10
2201.277314532744
 20
1084.85907994207
 10
2201.2773142387
 20
1084.915357875169
 10
2201.277313761199
 20
1084.967223915361
 10
2201.277313118591
 20
1085.012684879809
 10
2201.27731233557
 20
1085.049993729146
 10
2201.277311442229
 20
1085.077716705215
 10
2201.277310472896
 20
1085.094788429594
 10
2201.277314417148
 20
1085.100552845489
  0
LWPOLYLINE
  5
514
330
4B3
100
AcDbEntity
  8
0
  6
Continuous
 62
     7
370
    15
100
AcDbPolyline
 90
        9
 70
   128
 43
0.0
 10
2207.877308183929
 20
1085.400588045301
 10
2207.877308188702
 20
1085.342060948697
 10
2207.877308193292
 20
1085.285783015593
 10
2207.877308197522
 20
1085.233916975397
 10
2207.877308201229
 20
1085.188456010948
 10
2207.877308204272
 20
1085.151147161614
 10
2207.877308206533
 20
1085.123424185552
 10
2207.877308207926
 20
1085.106352461185
 10
2207.877305796698
 20
1085.100588045314
  0
LINE
  5
515
330
4B3
100
AcDbEntity
  8
0
  6
Continuous
 62
     7
370
    15
100
AcDbLine
 10
2210.877314180779
 20
1085.400552845459
 30
0.0
 11
2207.877308183929
 21
1085.400588045301
 31
0.0
  0
LWPOLYLINE
  5
516
330
4B3
100
AcDbEntity
  8
0
  6
Continuous
 62
     7
370
    15
100
AcDbPolyline
 90
        9
 70
   128
 43
0.0
 10
2210.877314180779
 20
1085.400552845459
 10
2210.877314220636
 20
1085.342025748855
 10
2210.877314254831
 20
1085.28574781575
 10
2210.877314282054
 20
1085.233881775554
 10
2210.877314301254
 20
1085.188420811104
 10
2210.877314311696
 20
1085.151111961769
 10
2210.877314312979
 20
1085.123388985707
 10
2210.877314305051
 20
1085.10631726134
 10
2210.877311876522
 20
1085.100552845466
  0
LWPOLYLINE
  5
517
330
4B3
100
AcDbEntity
  8
0
  6
Continuous
 62
     7
370
    15
100
AcDbPolyline
 90
        9
 70
   128
 43
0.0
 10
2188.677308183928
 20
1085.400588045301
 10
2188.677308188702
 20
1085.342060948697
 10
2188.677308193291
 20
1085.285783015593
 10
2188.677308197522
 20
1085.233916975397
 10
2188.67730820123
 20
1085.188456010948
 10
2188.677308204272
 20
1085.151147161614
 10
2188.677308206533
 20
1085.123424185552
 10
2188.677308207926
 20
1085.106352461185
 10
2188.677305796698
 20
1085.100588045314
  0
LINE
  5
518
330
4B3
100
AcDbEntity
  8
0
  6
Continuous
 62
     7
370
    15
100
AcDbLine
 10
2191.677314180779
 20
1085.400552845459
 30
0.0
 11
2188.677308183928
 21
1085.400588045301
 31
0.0
  0
LWPOLYLINE
  5
519
330
4B3
100
AcDbEntity
  8
0
  6
Continuous
 62
     7
370
    15
100
AcDbPolyline
 90
        9
 70
   128
 43
0.0
 10
2191.677314180779
 20
1085.400552845459
 10
2191.677314220635
 20
1085.342025748855
 10
2191.677314254832
 20
1085.28574781575
 10
2191.677314282054
 20
1085.233881775554
 10
2191.677314301254
 20
1085.188420811104
 10
2191.677314311696
 20
1085.15111196177
 10
2191.677314312978
 20
1085.123388985707
 10
2191.677314305051
 20
1085.10631726134
 10
2191.677314417148
 20
1085.100552845466
  0
LWPOLYLINE
  5
51A
330
4B3
100
AcDbEntity
  8
0
  6
Continuous
 62
     7
370
    15
100
AcDbPolyline
 90
        9
 70
   128
 43
0.0
 10
2198.277308183929
 20
1085.400588045301
 10
2198.277308188702
 20
1085.342060948697
 10
2198.277308193292
 20
1085.285783015593
 10
2198.277308197521
 20
1085.233916975397
 10
2198.27730820123
 20
1085.188456010948
 10
2198.277308204272
 20
1085.151147161614
 10
2198.277308206533
 20
1085.123424185552
 10
2198.277308207926
 20
1085.106352461185
 10
2198.277305796698
 20
1085.100588045314
  0
LINE
  5
51B
330
4B3
100
AcDbEntity
  8
0
  6
Continuous
 62
     7
370
    15
100
AcDbLine
 10
2201.277314180778
 20
1085.400552845459
 30
0.0
 11
2198.277308183929
 21
1085.400588045301
 31
0.0
  0
LWPOLYLINE
  5
51C
330
4B3
100
AcDbEntity
  8
0
  6
Continuous
 62
     7
370
    15
100
AcDbPolyline
 90
        9
 70
   128
 43
0.0
 10
2201.277314180778
 20
1085.400552845459
 10
2201.277314220635
 20
1085.342025748855
 10
2201.277314254832
 20
1085.28574781575
 10
2201.277314282053
 20
1085.233881775554
 10
2201.277314301254
 20
1085.188420811104
 10
2201.277314311696
 20
1085.15111196177
 10
2201.277314312978
 20
1085.123388985707
 10
2201.277314305051
 20
1085.10631726134
 10
2201.277314417148
 20
1085.100552845466
  0
LINE
  5
51D
330
4B3
100
AcDbEntity
  8
0
  6
Continuous
 62
     7
370
    15
100
AcDbLine
 10
2188.677308183928
 20
1085.400588045301
 30
0.0
 11
2188.677308183928
 21
1092.23709813897
 31
0.0
  0
LINE
  5
51E
330
4B3
100
AcDbEntity
  8
0
  6
Continuous
 62
     7
370
    15
100
AcDbLine
 10
2191.677314288219
 20
1092.23709813897
 30
0.0
 11
2191.677314180779
 21
1085.400552845459
 31
0.0
  0
LINE
  5
51F
330
4B3
100
AcDbEntity
  8
0
  6
Continuous
 62
     7
370
    15
100
AcDbLine
 10
2198.277308183929
 20
1085.400588045301
 30
0.0
 11
2198.277308183929
 21
1092.23709813897
 31
0.0
  0
LINE
  5
520
330
4B3
100
AcDbEntity
  8
0
  6
Continuous
 62
     7
370
    15
100
AcDbLine
 10
2201.27731428822
 20
1092.23709813897
 30
0.0
 11
2201.277314180778
 21
1085.400552845459
 31
0.0
  0
LINE
  5
521
330
4B3
100
AcDbEntity
  8
0
  6
Continuous
 62
     7
370
    15
100
AcDbLine
 10
2207.877308183929
 20
1085.400588045301
 30
0.0
 11
2207.877308183929
 21
1092.23709813897
 31
0.0
  0
LINE
  5
522
330
4B3
100
AcDbEntity
  8
0
  6
Continuous
 62
     7
370
    15
100
AcDbLine
 10
2210.87731428822
 20
1092.23709813897
 30
0.0
 11
2210.877314180779
 21
1085.400552845459
 31
0.0
  0
ENDBLK
  5
4B5
330
4B3
100
AcDbEntity
  8
0
100
AcDbBlockEnd
  0
BLOCK
  5
525
330
524
100
AcDbEntity
  8
0
100
AcDbBlockBegin
  2
2
 70
     0
 10
0.0
 20
0.0
 30
0.0
  3
2
  1

  0
LINE
  5
527
330
524
100
AcDbEntity
  8
0
  6
Continuous
 62
     7
370
    15
100
AcDbLine
 10
2169.771305567532
 20
1098.93907457796
 30
0.0
 11
2166.771305567533
 21
1098.93907457796
 31
0.0
  0
LINE
  5
528
330
524
100
AcDbEntity
  8
0
  6
Continuous
 62
     7
370
    15
100
AcDbLine
 10
2166.771305567533
 20
1105.535692209872
 30
0.0
 11
2166.771305567533
 21
1098.93907457796
 31
0.0
  0
LINE
  5
529
330
524
100
AcDbEntity
  8
0
  6
Continuous
 62
     7
370
    15
100
AcDbLine
 10
2166.771305567533
 20
1105.535692209872
 30
0.0
 11
2166.021305567533
 21
1105.535692209872
 31
0.0
  0
LINE
  5
52A
330
524
100
AcDbEntity
  8
0
  6
Continuous
 62
     7
370
    15
100
AcDbLine
 10
2169.771305567532
 20
1105.535692209872
 30
0.0
 11
2169.771305567532
 21
1098.93907457796
 31
0.0
  0
LINE
  5
52B
330
524
100
AcDbEntity
  8
0
  6
Continuous
 62
     7
370
    15
100
AcDbLine
 10
2170.521305567532
 20
1105.535692209872
 30
0.0
 11
2170.521305567532
 21
1106.735692209872
 31
0.0
  0
LINE
  5
52C
330
524
100
AcDbEntity
  8
0
  6
Continuous
 62
     7
370
    15
100
AcDbLine
 10
2166.021305567533
 20
1106.735692209872
 30
0.0
 11
2170.521305567532
 21
1106.735692209872
 31
0.0
  0
LINE
  5
52D
330
524
100
AcDbEntity
  8
0
  6
Continuous
 62
     7
370
    15
100
AcDbLine
 10
2166.021305567533
 20
1105.535692209872
 30
0.0
 11
2166.021305567533
 21
1106.735692209872
 31
0.0
  0
LINE
  5
52E
330
524
100
AcDbEntity
  8
0
  6
Continuous
 62
     7
370
    15
100
AcDbLine
 10
2170.521305567532
 20
1105.535692209872
 30
0.0
 11
2169.771305567532
 21
1105.535692209872
 31
0.0
  0
LINE
  5
52F
330
524
100
AcDbEntity
  8
0
  6
Continuous
 62
     7
370
    15
100
AcDbLine
 10
2169.771305567532
 20
1095.385682883794
 30
0.0
 11
2166.771305567533
 21
1095.385682883794
 31
0.0
  0
LINE
  5
530
330
524
100
AcDbEntity
  8
0
  6
Continuous
 62
     7
370
    15
100
AcDbLine
 10
2166.771305567533
 20
1095.032123449728
 30
0.0
 11
2169.771305567532
 21
1095.032123449728
 31
0.0
  0
LINE
  5
531
330
524
100
AcDbEntity
  8
0
  6
Continuous
 62
     7
370
    15
100
AcDbLine
 10
2166.771305567533
 20
1095.385682883794
 30
0.0
 11
2166.771305567533
 21
1095.032123449728
 31
0.0
  0
LINE
  5
532
330
524
100
AcDbEntity
  8
0
  6
Continuous
 62
     7
370
    15
100
AcDbLine
 10
2169.771305567532
 20
1095.385682883794
 30
0.0
 11
2169.771305567532
 21
1095.032123449728
 31
0.0
  0
LINE
  5
533
330
524
100
AcDbEntity
  8
0
  6
Continuous
 62
     7
370
    15
100
AcDbLine
 10
2166.771305567533
 20
1098.93907457796
 30
0.0
 11
2166.771305567533
 21
1095.385682883794
 31
0.0
  0
LINE
  5
534
330
524
100
AcDbEntity
  8
0
  6
Continuous
 62
     7
370
    15
100
AcDbLine
 10
2169.771305567532
 20
1098.93907457796
 30
0.0
 11
2169.771305567532
 21
1095.385682883794
 31
0.0
  0
LINE
  5
535
330
524
100
AcDbEntity
  8
0
  6
Continuous
 62
     7
370
    15
100
AcDbLine
 10
2166.771305567533
 20
1094.975024459087
 30
0.0
 11
2169.771305567532
 21
1094.975024459087
 31
0.0
  0
LINE
  5
536
330
524
100
AcDbEntity
  8
0
  6
Continuous
 62
     7
370
    15
100
AcDbLine
 10
2166.771305567533
 20
1094.975024459087
 30
0.0
 11
2166.771305567533
 21
1095.032123449728
 31
0.0
  0
LINE
  5
537
330
524
100
AcDbEntity
  8
0
  6
Continuous
 62
     7
370
    15
100
AcDbLine
 10
2169.771305567532
 20
1095.032123449728
 30
0.0
 11
2169.771305567532
 21
1094.975024459087
 31
0.0
  0
LINE
  5
538
330
524
100
AcDbEntity
  8
0
  6
Continuous
 62
     7
370
    15
100
AcDbLine
 10
2166.771305567533
 20
1094.621465854243
 30
0.0
 11
2169.771305567532
 21
1094.621465536939
 31
0.0
  0
LINE
  5
539
330
524
100
AcDbEntity
  8
0
  6
Continuous
 62
     7
370
    15
100
AcDbLine
 10
2166.771305567533
 20
1094.621465854243
 30
0.0
 11
2166.771305567533
 21
1094.975024459087
 31
0.0
  0
LINE
  5
53A
330
524
100
AcDbEntity
  8
0
  6
Continuous
 62
     7
370
    15
100
AcDbLine
 10
2169.771305567532
 20
1094.975024459087
 30
0.0
 11
2169.771305567532
 21
1094.621465536939
 31
0.0
  0
LINE
  5
53B
330
524
100
AcDbEntity
  8
0
  6
Continuous
 62
     7
370
    15
100
AcDbLine
 10
2169.771305567532
 20
1092.607096613091
 30
0.0
 11
2166.771305567533
 21
1092.607096613091
 31
0.0
  0
LINE
  5
53C
330
524
100
AcDbEntity
  8
0
  6
Continuous
 62
     7
370
    15
100
AcDbLine
 10
2166.771305567533
 20
1094.621465854243
 30
0.0
 11
2166.771305567533
 21
1092.607094056424
 31
0.0
  0
LINE
  5
53D
330
524
100
AcDbEntity
  8
0
  6
Continuous
 62
     7
370
    15
100
AcDbLine
 10
2169.771305567532
 20
1094.621465536939
 30
0.0
 11
2169.771305567532
 21
1092.607096613091
 31
0.0
  0
LINE
  5
53E
330
524
100
AcDbEntity
  8
0
  6
Continuous
 62
     7
370
    15
100
AcDbLine
 10
2169.771305567532
 20
1092.23709813897
 30
0.0
 11
2166.771305567533
 21
1092.23709813897
 31
0.0
  0
LINE
  5
53F
330
524
100
AcDbEntity
  8
0
  6
Continuous
 62
     7
370
    15
100
AcDbLine
 10
2166.771305567533
 20
1092.23709813897
 30
0.0
 11
2166.771305567533
 21
1092.607095760868
 31
0.0
  0
LINE
  5
540
330
524
100
AcDbEntity
  8
0
  6
Continuous
 62
     7
370
    15
100
AcDbLine
 10
2169.771305567532
 20
1092.607096613091
 30
0.0
 11
2169.771305567532
 21
1092.23709813897
 31
0.0
  0
LINE
  5
541
330
524
100
AcDbEntity
  8
0
  6
Continuous
 62
     7
370
    15
100
AcDbLine
 10
2169.271299464017
 20
1085.100552845499
 30
0.0
 11
2169.319104248792
 21
1085.10055284548
 31
0.0
  0
ARC
  5
542
330
524
100
AcDbEntity
  8
0
  6
Continuous
 62
     7
370
    15
100
AcDbCircle
 10
2169.319104248792
 20
1084.800552845473
 30
0.0
 40
0.3000000000474627
100
AcDbArc
 50
0.0009622400148663
 51
89.99999999997395
  0
LINE
  5
543
330
524
100
AcDbEntity
  8
0
  6
Continuous
 62
     7
370
    15
100
AcDbLine
 10
2169.619104248792
 20
1079.076132271911
 30
0.0
 11
2169.619104248797
 21
1084.800552845479
 31
0.0
  0
LINE
  5
544
330
524
100
AcDbEntity
  8
0
  6
Continuous
 62
     7
370
    15
100
AcDbLine
 10
2166.923500782758
 20
1079.076132271911
 30
0.0
 11
2169.619104248792
 21
1079.076132271911
 31
0.0
  0
LINE
  5
545
330
524
100
AcDbEntity
  8
0
  6
Continuous
 62
     7
370
    15
100
AcDbLine
 10
2166.923500782747
 20
1084.800552845473
 30
0.0
 11
2166.923500782758
 21
1079.076132271913
 31
0.0
  0
ARC
  5
546
330
524
100
AcDbEntity
  8
0
  6
Continuous
 62
     7
370
    15
100
AcDbCircle
 10
2167.223500782758
 20
1084.800552845473
 30
0.0
 40
0.3000000000526071
100
AcDbArc
 50
90.0
 51
179.9990377599851
  0
LINE
  5
547
330
524
100
AcDbEntity
  8
0
  6
Continuous
 62
     7
370
    15
100
AcDbLine
 10
2167.223500782758
 20
1085.100552845484
 30
0.0
 11
2167.271305567533
 21
1085.100552845466
 31
0.0
  0
ARC
  5
548
330
524
100
AcDbEntity
  8
0
  6
Continuous
 62
     7
370
    15
100
AcDbCircle
 10
2167.271305567533
 20
1085.40055284546
 30
0.0
 40
0.3000000000029104
100
AcDbArc
 50
270.0
 51
359.9999794802508
  0
LINE
  5
549
330
524
100
AcDbEntity
  8
0
  6
Continuous
 62
     7
370
    15
100
AcDbLine
 10
2167.571305567533
 20
1092.23709813897
 30
0.0
 11
2167.571305567532
 21
1085.400552845459
 31
0.0
  0
LINE
  5
54A
330
524
100
AcDbEntity
  8
0
  6
Continuous
 62
     7
370
    15
100
AcDbLine
 10
2168.971299464002
 20
1085.400552845487
 30
0.0
 11
2168.971299464017
 21
1092.23709813897
 31
0.0
  0
ARC
  5
54B
330
524
100
AcDbEntity
  8
0
  6
Continuous
 62
     7
370
    15
100
AcDbCircle
 10
2169.271299464017
 20
1085.400552845515
 30
0.0
 40
0.3000000000543049
100
AcDbArc
 50
180.0008801611743
 51
270.0
  0
LINE
  5
54C
330
524
100
AcDbEntity
  8
0
  6
Continuous
 62
     7
370
    15
100
AcDbLine
 10
2169.619104248792
 20
1077.154553962746
 30
0.0
 11
2166.923500782758
 21
1077.154553962746
 31
0.0
  0
LINE
  5
54D
330
524
100
AcDbEntity
  8
0
  6
Continuous
 62
     7
370
    15
100
AcDbLine
 10
2166.923500782758
 20
1077.154553962746
 30
0.0
 11
2166.923500782758
 21
1079.076132271911
 31
0.0
  0
LINE
  5
54E
330
524
100
AcDbEntity
  8
0
  6
Continuous
 62
     7
370
    15
100
AcDbLine
 10
2169.619104248792
 20
1079.076132271911
 30
0.0
 11
2169.619104248792
 21
1077.154553962746
 31
0.0
  0
LINE
  5
54F
330
524
100
AcDbEntity
  8
0
  6
Continuous
 62
     7
370
    15
100
AcDbLine
 10
2166.771305567533
 20
1096.835692209872
 30
0.0
 11
2166.371305567533
 21
1096.835692209872
 31
0.0
  0
LINE
  5
550
330
524
100
AcDbEntity
  8
0
  6
Continuous
 62
     7
370
    15
100
AcDbLine
 10
2166.371305567533
 20
1096.835692209872
 30
0.0
 11
2166.771305567533
 21
1095.535692209872
 31
0.0
  0
LINE
  5
551
330
524
100
AcDbEntity
  8
0
  6
Continuous
 62
     7
370
    15
100
AcDbLine
 10
2170.171305567533
 20
1096.835692209872
 30
0.0
 11
2169.771305567532
 21
1096.835692209872
 31
0.0
  0
LINE
  5
552
330
524
100
AcDbEntity
  8
0
  6
Continuous
 62
     7
370
    15
100
AcDbLine
 10
2169.771305567532
 20
1095.535692209872
 30
0.0
 11
2170.171305567533
 21
1096.835692209872
 31
0.0
  0
LINE
  5
553
330
524
100
AcDbEntity
  8
0
  6
Continuous
 62
     7
370
    15
100
AcDbLine
 10
2167.271305567533
 20
1085.100552845466
 30
0.0
 11
2167.271305567533
 21
1085.100588045314
 31
0.0
  0
ARC
  5
554
330
524
100
AcDbEntity
  8
0
  6
Continuous
 62
     7
370
    15
100
AcDbCircle
 10
2167.271305567533
 20
1085.400588045306
 30
0.0
 40
0.3000000000021483
100
AcDbArc
 50
270.0
 51
359.9999999989839
  0
LINE
  5
555
330
524
100
AcDbEntity
  8
0
  6
Continuous
 62
     7
370
    15
100
AcDbLine
 10
2167.271305567533
 20
1085.100588045314
 30
0.0
 11
2167.223500782758
 21
1085.100588045342
 31
0.0
  0
LINE
  5
556
330
524
100
AcDbEntity
  8
0
  6
Continuous
 62
     7
370
    15
100
AcDbLine
 10
2167.223500782758
 20
1085.100552845484
 30
0.0
 11
2167.223500782758
 21
1085.100588045342
 31
0.0
  0
ARC
  5
557
330
524
100
AcDbEntity
  8
0
  6
Continuous
 62
     7
370
    15
100
AcDbCircle
 10
2169.271299464017
 20
1085.400588045306
 30
0.0
 40
0.3000000000021483
100
AcDbArc
 50
179.9999480024674
 51
270.0
  0
LINE
  5
558
330
524
100
AcDbEntity
  8
0
  6
Continuous
 62
     7
370
    15
100
AcDbLine
 10
2169.271299464017
 20
1085.100588045314
 30
0.0
 11
2169.271299464017
 21
1085.100552845499
 31
0.0
  0
LINE
  5
559
330
524
100
AcDbEntity
  8
0
  6
Continuous
 62
     7
370
    15
100
AcDbLine
 10
2169.319104248792
 20
1085.100588045342
 30
0.0
 11
2169.319104248792
 21
1085.10055284548
 31
0.0
  0
ARC
  5
55A
330
524
100
AcDbEntity
  8
0
  6
Continuous
 62
     7
370
    15
100
AcDbCircle
 10
2169.319104248792
 20
1084.800588045321
 30
0.0
 40
0.3000000000206171
100
AcDbArc
 50
0.0000000000260551
 51
90.0
  0
LINE
  5
55B
330
524
100
AcDbEntity
  8
0
  6
Continuous
 62
     7
370
    15
100
AcDbLine
 10
2169.619104248792
 20
1084.800588045321
 30
0.0
 11
2169.619104248797
 21
1084.800552845479
 31
0.0
  0
LINE
  5
55C
330
524
100
AcDbEntity
  8
0
  6
Continuous
 62
     7
370
    15
100
AcDbLine
 10
2169.319104248792
 20
1085.100588045342
 30
0.0
 11
2169.271299464017
 21
1085.100588045314
 31
0.0
  0
ARC
  5
55D
330
524
100
AcDbEntity
  8
0
  6
Continuous
 62
     7
370
    15
100
AcDbCircle
 10
2167.223500782758
 20
1084.800588045321
 30
0.0
 40
0.3000000000207308
100
AcDbArc
 50
90.0
 51
179.9999999989969
  0
LINE
  5
55E
330
524
100
AcDbEntity
  8
0
  6
Continuous
 62
     7
370
    15
100
AcDbLine
 10
2166.923500782747
 20
1084.800552845473
 30
0.0
 11
2166.923500782758
 21
1084.800588045326
 31
0.0
  0
LINE
  5
55F
330
524
100
AcDbEntity
  8
0
  6
Continuous
 62
     7
370
    15
100
AcDbLine
 10
2166.923500782758
 20
1076.576107489034
 30
0.0
 11
2169.619104248792
 21
1076.576107489034
 31
0.0
  0
SPLINE
  5
560
330
524
100
AcDbEntity
  8
0
  6
Continuous
 62
     7
370
    15
100
AcDbSpline
210
0.0
220
0.0
230
1.0
 70
    24
 71
     3
 72
    10
 73
     6
 74
     0
 42
0.0000000001
 43
0.0000000001
 40
0.0
 40
0.0
 40
0.0
 40
0.0
 40
0.5
 40
0.5
 40
1.0
 40
1.0
 40
1.0
 40
1.0
 10
2166.923500782758
 20
1077.154553962746
 30
0.0
 10
2166.923500782758
 20
1076.994131302239
 30
0.0
 10
2166.923500782758
 20
1076.844584911317
 30
0.0
 10
2166.923500782758
 20
1076.635167975671
 30
0.0
 10
2166.923500782758
 20
1076.576107489034
 30
0.0
 10
2166.923500782758
 20
1076.576107489034
 30
0.0
  0
SPLINE
  5
561
330
524
100
AcDbEntity
  8
0
  6
Continuous
 62
     7
370
    15
100
AcDbSpline
210
0.0
220
0.0
230
1.0
 70
    24
 71
     3
 72
    10
 73
     6
 74
     0
 42
0.0000000001
 43
0.0000000001
 40
0.0
 40
0.0
 40
0.0
 40
0.0
 40
0.5
 40
0.5
 40
1.0
 40
1.0
 40
1.0
 40
1.0
 10
2169.619104248792
 20
1076.576107489034
 30
0.0
 10
2169.619104248792
 20
1076.576107489034
 30
0.0
 10
2169.619104248792
 20
1076.635167975672
 30
0.0
 10
2169.619104248792
 20
1076.844584911317
 30
0.0
 10
2169.619104248792
 20
1076.994131302239
 30
0.0
 10
2169.619104248792
 20
1077.154553962746
 30
0.0
  0
ENDBLK
  5
526
330
524
100
AcDbEntity
  8
0
100
AcDbBlockEnd
  0
BLOCK
  5
564
330
563
100
AcDbEntity
  8
0
100
AcDbBlockBegin
  2
3
 70
     0
 10
0.0
 20
0.0
 30
0.0
  3
3
  1

  0
LINE
  5
566
330
563
100
AcDbEntity
  8
0
  6
Continuous
 62
     7
370
    15
100
AcDbLine
 10
2213.77733440591
 20
1058.160118287994
 30
0.0
 11
2185.77734017564
 21
1058.160118287994
 31
0.0
  0
LINE
  5
567
330
563
100
AcDbEntity
  8
0
  6
Continuous
 62
     7
370
    15
100
AcDbLine
 10
2185.77734017564
 20
1062.660118287994
 30
0.0
 11
2185.77734017564
 21
1058.160118287994
 31
0.0
  0
LINE
  5
568
330
563
100
AcDbEntity
  8
0
  6
Continuous
 62
     7
370
    15
100
AcDbLine
 10
2185.77734017564
 20
1062.660118287994
 30
0.0
 11
2213.77733440591
 21
1062.660118287994
 31
0.0
  0
LINE
  5
569
330
563
100
AcDbEntity
  8
0
  6
Continuous
 62
     7
370
    15
100
AcDbLine
 10
2213.77733440591
 20
1058.160118287994
 30
0.0
 11
2213.77733440591
 21
1062.660118287994
 31
0.0
  0
ENDBLK
  5
565
330
563
100
AcDbEntity
  8
0
100
AcDbBlockEnd
  0
BLOCK
  5
56C
330
56B
100
AcDbEntity
  8
0
100
AcDbBlockBegin
  2
4
 70
     0
 10
0.0
 20
0.0
 30
0.0
  3
4
  1

  0
LINE
  5
56E
330
56B
100
AcDbEntity
  8
0
  6
Continuous
 62
     7
370
    15
100
AcDbLine
 10
2252.175264690693
 20
1081.876171420601
 30
0.0
 11
2251.779344137459
 21
1082.104736855326
 31
0.0
  0
LINE
  5
56F
330
56B
100
AcDbEntity
  8
0
  6
Continuous
 62
     7
370
    15
100
AcDbLine
 10
2249.952491509863
 20
1074.30690251875
 30
0.0
 11
2251.862106533992
 21
1075.409299806994
 31
0.0
  0
LINE
  5
570
330
56B
100
AcDbEntity
  8
0
  6
Continuous
 62
     7
370
    15
100
AcDbLine
 10
2245.387039591302
 20
1085.79493035735
 30
0.0
 11
2244.991119038078
 21
1086.023495792069
 31
0.0
  0
LINE
  5
571
330
56B
100
AcDbEntity
  8
0
  6
Continuous
 62
     7
370
    15
100
AcDbLine
 10
2243.164266410472
 20
1078.225661455499
 30
0.0
 11
2245.073881434601
 21
1079.328058743743
 31
0.0
  0
LINE
  5
572
330
56B
100
AcDbEntity
  8
0
  6
Continuous
 62
     7
370
    15
100
AcDbLine
 10
2238.598814491911
 20
1089.713689294099
 30
0.0
 11
2238.202893938687
 21
1089.942254728818
 31
0.0
  0
LINE
  5
573
330
56B
100
AcDbEntity
  8
0
  6
Continuous
 62
     7
370
    15
100
AcDbLine
 10
2236.376041311081
 20
1082.144420392248
 30
0.0
 11
2238.28565633521
 21
1083.246817680492
 31
0.0
  0
LINE
  5
574
330
56B
100
AcDbEntity
  8
0
  6
Continuous
 62
     7
370
    15
100
AcDbLine
 10
2251.744007491547
 20
1096.997317034976
 30
0.0
 11
2231.945021698138
 21
1108.427028245267
 31
0.0
  0
LINE
  5
575
330
56B
100
AcDbEntity
  8
0
  6
Continuous
 62
     7
370
    15
100
AcDbLine
 10
2235.127002213478
 20
1110.263946496868
 30
0.0
 11
2231.945021698138
 21
1108.427028245267
 31
0.0
  0
LINE
  5
576
330
56B
100
AcDbEntity
  8
0
  6
Continuous
 62
     7
370
    15
100
AcDbLine
 10
2235.127002213478
 20
1110.263946496868
 30
0.0
 11
2254.925988006887
 21
1098.834235286577
 31
0.0
  0
LINE
  5
577
330
56B
100
AcDbEntity
  8
0
  6
Continuous
 62
     7
370
    15
100
AcDbLine
 10
2251.744007491547
 20
1096.997317034976
 30
0.0
 11
2254.925988006887
 21
1098.834235286577
 31
0.0
  0
LINE
  5
578
330
56B
100
AcDbEntity
  8
0
  6
Continuous
 62
     7
370
    15
100
AcDbLine
 10
2251.744007491547
 20
1096.017468060713
 30
0.0
 11
2251.744007491547
 21
1096.997317034976
 31
0.0
  0
LINE
  5
579
330
56B
100
AcDbEntity
  8
0
  6
Continuous
 62
     7
370
    15
100
AcDbLine
 10
2251.744007491547
 20
1096.017468060713
 30
0.0
 11
2231.945021698138
 21
1107.447179271004
 31
0.0
  0
LINE
  5
57A
330
56B
100
AcDbEntity
  8
0
  6
Continuous
 62
     7
370
    15
100
AcDbLine
 10
2231.945021698138
 20
1108.427028245267
 30
0.0
 11
2231.945021698138
 21
1107.447179271004
 31
0.0
  0
LINE
  5
57B
330
56B
100
AcDbEntity
  8
0
  6
Continuous
 62
     7
370
    15
100
AcDbLine
 10
2254.395657920996
 20
1097.54823327038
 30
0.0
 11
2254.395657920996
 21
1092.161825753519
 31
0.0
  0
LINE
  5
57C
330
56B
100
AcDbEntity
  8
0
  6
Continuous
 62
     7
370
    15
100
AcDbLine
 10
2254.395657920996
 20
1092.161825753519
 30
0.0
 11
2252.274337577437
 21
1090.937213585785
 31
0.0
  0
LINE
  5
57D
330
56B
100
AcDbEntity
  8
0
  6
Continuous
 62
     7
370
    15
100
AcDbLine
 10
2252.274337577437
 20
1096.323621102647
 30
0.0
 11
2252.274337577437
 21
1090.937213585785
 31
0.0
  0
LINE
  5
57E
330
56B
100
AcDbEntity
  8
0
  6
Continuous
 62
     7
370
    15
100
AcDbLine
 10
2252.274337577437
 20
1096.323621102647
 30
0.0
 11
2251.744007491547
 21
1096.017468060713
 31
0.0
  0
LINE
  5
57F
330
56B
100
AcDbEntity
  8
0
  6
Continuous
 62
     7
370
    15
100
AcDbLine
 10
2254.925988006887
 20
1097.854386312314
 30
0.0
 11
2254.925988006887
 21
1098.834235286577
 31
0.0
  0
LINE
  5
580
330
56B
100
AcDbEntity
  8
0
  6
Continuous
 62
     7
370
    15
100
AcDbLine
 10
2254.925988006887
 20
1097.854386312314
 30
0.0
 11
2254.395657920996
 21
1097.54823327038
 31
0.0
  0
LINE
  5
581
330
56B
100
AcDbEntity
  8
0
  6
Continuous
 62
     7
370
    15
100
AcDbLine
 10
2236.647279753122
 20
1097.179521441816
 30
0.0
 11
2236.647279753122
 21
1098.241024497268
 31
0.0
  0
LINE
  5
582
330
56B
100
AcDbEntity
  8
0
  6
Continuous
 62
     7
370
    15
100
AcDbLine
 10
2234.525959409562
 20
1099.465636665002
 30
0.0
 11
2236.647279753122
 21
1098.241024497268
 31
0.0
  0
LINE
  5
583
330
56B
100
AcDbEntity
  8
0
  6
Continuous
 62
     7
370
    15
100
AcDbLine
 10
2234.525959409562
 20
1098.40413360955
 30
0.0
 11
2236.647279753122
 21
1097.179521441816
 31
0.0
  0
LINE
  5
584
330
56B
100
AcDbEntity
  8
0
  6
Continuous
 62
     7
370
    15
100
AcDbLine
 10
2243.435504852512
 20
1093.260762505067
 30
0.0
 11
2243.435504852512
 21
1094.322265560519
 31
0.0
  0
LINE
  5
585
330
56B
100
AcDbEntity
  8
0
  6
Continuous
 62
     7
370
    15
100
AcDbLine
 10
2241.314184508953
 20
1095.546877728253
 30
0.0
 11
2243.435504852512
 21
1094.322265560519
 31
0.0
  0
LINE
  5
586
330
56B
100
AcDbEntity
  8
0
  6
Continuous
 62
     7
370
    15
100
AcDbLine
 10
2241.314184508953
 20
1094.485374672801
 30
0.0
 11
2243.435504852512
 21
1093.260762505067
 31
0.0
  0
LINE
  5
587
330
56B
100
AcDbEntity
  8
0
  6
Continuous
 62
     7
370
    15
100
AcDbLine
 10
2250.223729951903
 20
1089.342003568318
 30
0.0
 11
2250.223729951903
 21
1090.40350662377
 31
0.0
  0
LINE
  5
588
330
56B
100
AcDbEntity
  8
0
  6
Continuous
 62
     7
370
    15
100
AcDbLine
 10
2248.102409608344
 20
1091.628118791504
 30
0.0
 11
2250.223729951903
 21
1090.40350662377
 31
0.0
  0
LINE
  5
589
330
56B
100
AcDbEntity
  8
0
  6
Continuous
 62
     7
370
    15
100
AcDbLine
 10
2248.102409608344
 20
1090.566615736052
 30
0.0
 11
2250.223729951903
 21
1089.342003568318
 31
0.0
  0
LINE
  5
58A
330
56B
100
AcDbEntity
  8
0
  6
Continuous
 62
     7
370
    15
100
AcDbLine
 10
2237.884716620198
 20
1099.244164945968
 30
0.0
 11
2237.884716620198
 21
1096.326344790828
 31
0.0
  0
ARC
  5
58B
330
56B
100
AcDbEntity
  8
0
  6
Continuous
 62
     7
370
    15
100
AcDbCircle
 10
2237.634386458482
 20
1096.301707547239
 30
0.0
 40
0.2515396263739047
100
AcDbArc
 50
305.6975759694705
 51
5.620891283952588
  0
LINE
  5
58C
330
56B
100
AcDbEntity
  8
0
  6
Continuous
 62
     7
370
    15
100
AcDbLine
 10
2237.740785457778
 20
1096.074115118761
 30
0.0
 11
2237.781161554464
 21
1096.097430150458
 31
0.0
  0
ARC
  5
58D
330
56B
100
AcDbEntity
  8
0
  6
Continuous
 62
     7
370
    15
100
AcDbCircle
 10
2237.887556205005
 20
1095.869837840038
 30
0.0
 40
0.2515369929936787
100
AcDbArc
 50
125.6967872099409
 51
185.6205761325582
  0
LINE
  5
58E
330
56B
100
AcDbEntity
  8
0
  6
Continuous
 62
     7
370
    15
100
AcDbLine
 10
2237.637228528497
 20
1095.845202231287
 30
0.0
 11
2237.637228528497
 21
1094.200385448056
 31
0.0
  0
LINE
  5
58F
330
56B
100
AcDbEntity
  8
0
  6
Continuous
 62
     7
370
    15
100
AcDbLine
 10
2237.389744041878
 20
1094.057469250519
 30
0.0
 11
2237.637230336334
 21
1094.200386492037
 31
0.0
  0
LINE
  5
590
330
56B
100
AcDbEntity
  8
0
  6
Continuous
 62
     7
370
    15
100
AcDbLine
 10
2237.389744041878
 20
1094.057469250519
 30
0.0
 11
2233.783495120805
 21
1096.139312439376
 31
0.0
  0
LINE
  5
591
330
56B
100
AcDbEntity
  8
0
  6
Continuous
 62
     7
370
    15
100
AcDbLine
 10
2233.53600882635
 20
1096.567971274292
 30
0.0
 11
2233.783495120805
 21
1096.139312439376
 31
0.0
  0
LINE
  5
592
330
56B
100
AcDbEntity
  8
0
  6
Continuous
 62
     7
370
    15
100
AcDbLine
 10
2233.53600882635
 20
1096.567971274292
 30
0.0
 11
2233.536009730268
 21
1098.212785448079
 31
0.0
  0
ARC
  5
593
330
56B
100
AcDbEntity
  8
0
  6
Continuous
 62
     7
370
    15
100
AcDbCircle
 10
2232.815040372541
 20
1098.1881616816
 30
0.0
 40
0.7213897314605522
100
AcDbArc
 50
1.956102148543065
 51
31.14440153453991
  0
LINE
  5
594
330
56B
100
AcDbEntity
  8
0
  6
Continuous
 62
     7
370
    15
100
AcDbLine
 10
2233.39207760822
 20
1098.631194379936
 30
0.0
 11
2233.432453704906
 21
1098.561262099282
 31
0.0
  0
ARC
  5
595
330
56B
100
AcDbEntity
  8
0
  6
Continuous
 62
     7
370
    15
100
AcDbCircle
 10
2234.009507275867
 20
1099.004297857564
 30
0.0
 40
0.7214052948995306
100
AcDbArc
 50
181.9565178986411
 51
211.1439385293773
  0
LINE
  5
596
330
56B
100
AcDbEntity
  8
0
  6
Continuous
 62
     7
370
    15
100
AcDbLine
 10
2233.288522542469
 20
1098.979668328229
 30
0.0
 11
2233.288522542485
 21
1101.897491309391
 31
0.0
  0
LINE
  5
597
330
56B
100
AcDbEntity
  8
0
  6
Continuous
 62
     7
370
    15
100
AcDbLine
 10
2232.475351784028
 20
1102.366924796076
 30
0.0
 11
2233.288522542485
 21
1101.897491309391
 31
0.0
  0
LINE
  5
598
330
56B
100
AcDbEntity
  8
0
  6
Continuous
 62
     7
370
    15
100
AcDbLine
 10
2232.475351784028
 20
1102.366924796076
 30
0.0
 11
2232.475351784028
 21
1107.14102622907
 31
0.0
  0
LINE
  5
599
330
56B
100
AcDbEntity
  8
0
  6
Continuous
 62
     7
370
    15
100
AcDbLine
 10
2251.46116681898
 20
1091.406647072469
 30
0.0
 11
2252.274337577437
 21
1090.937213585785
 31
0.0
  0
LINE
  5
59A
330
56B
100
AcDbEntity
  8
0
  6
Continuous
 62
     7
370
    15
100
AcDbLine
 10
2251.46116681898
 20
1091.406647072469
 30
0.0
 11
2251.46116681898
 21
1088.505157733567
 31
0.0
  0
ARC
  5
59B
330
56B
100
AcDbEntity
  8
0
  6
Continuous
 62
     7
370
    15
100
AcDbCircle
 10
2251.210836657263
 20
1088.480520489979
 30
0.0
 40
0.251539626374278
100
AcDbArc
 50
305.6975759695644
 51
5.620891283952588
  0
LINE
  5
59C
330
56B
100
AcDbEntity
  8
0
  6
Continuous
 62
     7
370
    15
100
AcDbLine
 10
2251.317235656559
 20
1088.252928061501
 30
0.0
 11
2251.357611753246
 21
1088.276243093197
 31
0.0
  0
ARC
  5
59D
330
56B
100
AcDbEntity
  8
0
  6
Continuous
 62
     7
370
    15
100
AcDbCircle
 10
2251.464006403788
 20
1088.048650782777
 30
0.0
 40
0.2515369929948451
100
AcDbArc
 50
125.6967872101286
 51
185.6205761324544
  0
LINE
  5
59E
330
56B
100
AcDbEntity
  8
0
  6
Continuous
 62
     7
370
    15
100
AcDbLine
 10
2251.213678727279
 20
1088.024015174027
 30
0.0
 11
2251.213678727279
 21
1086.379198390796
 31
0.0
  0
LINE
  5
59F
330
56B
100
AcDbEntity
  8
0
  6
Continuous
 62
     7
370
    15
100
AcDbLine
 10
2250.952052105036
 20
1086.228115458139
 30
0.0
 11
2251.213679932503
 21
1086.379199086783
 31
0.0
  0
LINE
  5
5A0
330
56B
100
AcDbEntity
  8
0
  6
Continuous
 62
     7
370
    15
100
AcDbLine
 10
2250.952052105036
 20
1086.228115458139
 30
0.0
 11
2247.374087455211
 21
1088.293630484759
 31
0.0
  0
LINE
  5
5A1
330
56B
100
AcDbEntity
  8
0
  6
Continuous
 62
     7
370
    15
100
AcDbLine
 10
2247.112459025131
 20
1088.746784217032
 30
0.0
 11
2247.374087455211
 21
1088.293630484759
 31
0.0
  0
LINE
  5
5A2
330
56B
100
AcDbEntity
  8
0
  6
Continuous
 62
     7
370
    15
100
AcDbLine
 10
2247.112459025131
 20
1088.746784217032
 30
0.0
 11
2247.11245992905
 21
1090.391598390819
 31
0.0
  0
ARC
  5
5A3
330
56B
100
AcDbEntity
  8
0
  6
Continuous
 62
     7
370
    15
100
AcDbCircle
 10
2246.391490571323
 20
1090.366974624339
 30
0.0
 40
0.7213897314612422
100
AcDbArc
 50
1.956102148543065
 51
31.14440153450413
  0
LINE
  5
5A4
330
56B
100
AcDbEntity
  8
0
  6
Continuous
 62
     7
370
    15
100
AcDbLine
 10
2246.968527807001
 20
1090.810007322676
 30
0.0
 11
2247.008903903688
 21
1090.740075042022
 31
0.0
  0
ARC
  5
5A5
330
56B
100
AcDbEntity
  8
0
  6
Continuous
 62
     7
370
    15
100
AcDbCircle
 10
2247.585957474648
 20
1091.183110800303
 30
0.0
 40
0.7214052948985657
100
AcDbArc
 50
181.956517898628
 51
211.1439385293773
  0
LINE
  5
5A6
330
56B
100
AcDbEntity
  8
0
  6
Continuous
 62
     7
370
    15
100
AcDbLine
 10
2246.864972741251
 20
1091.158481270969
 30
0.0
 11
2246.864972741267
 21
1094.059973435893
 31
0.0
  0
LINE
  5
5A7
330
56B
100
AcDbEntity
  8
0
  6
Continuous
 62
     7
370
    15
100
AcDbLine
 10
2246.864972741267
 20
1094.059973435893
 30
0.0
 11
2244.672941719589
 21
1095.325406009219
 31
0.0
  0
LINE
  5
5A8
330
56B
100
AcDbEntity
  8
0
  6
Continuous
 62
     7
370
    15
100
AcDbLine
 10
2244.672941719589
 20
1095.325406009219
 30
0.0
 11
2244.672941719589
 21
1092.407585854078
 31
0.0
  0
ARC
  5
5A9
330
56B
100
AcDbEntity
  8
0
  6
Continuous
 62
     7
370
    15
100
AcDbCircle
 10
2244.422611557873
 20
1092.38294861049
 30
0.0
 40
0.2515396263737695
100
AcDbArc
 50
305.6975759694418
 51
5.620891283978518
  0
LINE
  5
5AA
330
56B
100
AcDbEntity
  8
0
  6
Continuous
 62
     7
370
    15
100
AcDbLine
 10
2244.529010557169
 20
1092.155356182012
 30
0.0
 11
2244.569386653854
 21
1092.178671213709
 31
0.0
  0
ARC
  5
5AB
330
56B
100
AcDbEntity
  8
0
  6
Continuous
 62
     7
370
    15
100
AcDbCircle
 10
2244.675781304396
 20
1091.951078903289
 30
0.0
 40
0.2515369929940049
100
AcDbArc
 50
125.6967872099696
 51
185.6205761324933
  0
LINE
  5
5AC
330
56B
100
AcDbEntity
  8
0
  6
Continuous
 62
     7
370
    15
100
AcDbLine
 10
2244.425453627888
 20
1091.926443294538
 30
0.0
 11
2244.425453627888
 21
1090.281626511307
 31
0.0
  0
LINE
  5
5AD
330
56B
100
AcDbEntity
  8
0
  6
Continuous
 62
     7
370
    15
100
AcDbLine
 10
2244.177969141269
 20
1090.13871031377
 30
0.0
 11
2244.425455435725
 21
1090.281627555288
 31
0.0
  0
LINE
  5
5AE
330
56B
100
AcDbEntity
  8
0
  6
Continuous
 62
     7
370
    15
100
AcDbLine
 10
2244.177969141269
 20
1090.13871031377
 30
0.0
 11
2240.571720220196
 21
1092.220553502627
 31
0.0
  0
LINE
  5
5AF
330
56B
100
AcDbEntity
  8
0
  6
Continuous
 62
     7
370
    15
100
AcDbLine
 10
2240.32423392574
 20
1092.649212337543
 30
0.0
 11
2240.571720220196
 21
1092.220553502627
 31
0.0
  0
LINE
  5
5B0
330
56B
100
AcDbEntity
  8
0
  6
Continuous
 62
     7
370
    15
100
AcDbLine
 10
2240.32423392574
 20
1092.649212337543
 30
0.0
 11
2240.324234829659
 21
1094.29402651133
 31
0.0
  0
ARC
  5
5B1
330
56B
100
AcDbEntity
  8
0
  6
Continuous
 62
     7
370
    15
100
AcDbCircle
 10
2239.603265471931
 20
1094.26940274485
 30
0.0
 40
0.7213897314620266
100
AcDbArc
 50
1.956102148569105
 51
31.14440153450413
  0
LINE
  5
5B2
330
56B
100
AcDbEntity
  8
0
  6
Continuous
 62
     7
370
    15
100
AcDbLine
 10
2240.18030270761
 20
1094.712435443187
 30
0.0
 11
2240.220678804297
 21
1094.642503162533
 31
0.0
  0
ARC
  5
5B3
330
56B
100
AcDbEntity
  8
0
  6
Continuous
 62
     7
370
    15
100
AcDbCircle
 10
2240.797732375257
 20
1095.085538920815
 30
0.0
 40
0.7214052948991963
100
AcDbArc
 50
181.9565178986541
 51
211.1439385293885
  0
LINE
  5
5B4
330
56B
100
AcDbEntity
  8
0
  6
Continuous
 62
     7
370
    15
100
AcDbLine
 10
2240.076747641859
 20
1095.06090939148
 30
0.0
 11
2240.076747641877
 21
1097.978732372642
 31
0.0
  0
LINE
  5
5B5
330
56B
100
AcDbEntity
  8
0
  6
Continuous
 62
     7
370
    15
100
AcDbLine
 10
2240.076747641877
 20
1097.978732372642
 30
0.0
 11
2237.884716620198
 21
1099.244164945968
 31
0.0
  0
LINE
  5
5B6
330
56B
100
AcDbEntity
  8
0
  6
Continuous
 62
     7
370
    15
100
AcDbLine
 10
2253.582487162539
 20
1089.729769901301
 30
0.0
 11
2251.46116681898
 21
1088.505157733567
 31
0.0
  0
LINE
  5
5B7
330
56B
100
AcDbEntity
  8
0
  6
Continuous
 62
     7
370
    15
100
AcDbLine
 10
2253.582487162539
 20
1091.692392266835
 30
0.0
 11
2253.582487162539
 21
1089.729769901301
 31
0.0
  0
LINE
  5
5B8
330
56B
100
AcDbEntity
  8
0
  6
Continuous
 62
     7
370
    15
100
AcDbLine
 10
2247.819566895869
 20
1091.464837169139
 30
0.0
 11
2248.102409608344
 21
1090.566615736052
 31
0.0
  0
LINE
  5
5B9
330
56B
100
AcDbEntity
  8
0
  6
Continuous
 62
     7
370
    15
100
AcDbLine
 10
2247.819566895869
 20
1091.464837169139
 30
0.0
 11
2249.940887239429
 21
1090.240225001405
 31
0.0
  0
LINE
  5
5BA
330
56B
100
AcDbEntity
  8
0
  6
Continuous
 62
     7
370
    15
100
AcDbLine
 10
2249.940887239429
 20
1090.240225001405
 30
0.0
 11
2250.223729951903
 21
1089.342003568318
 31
0.0
  0
LINE
  5
5BB
330
56B
100
AcDbEntity
  8
0
  6
Continuous
 62
     7
370
    15
100
AcDbLine
 10
2250.223729951903
 20
1090.40350662377
 30
0.0
 11
2249.940887239429
 21
1090.240225001405
 31
0.0
  0
LINE
  5
5BC
330
56B
100
AcDbEntity
  8
0
  6
Continuous
 62
     7
370
    15
100
AcDbLine
 10
2248.102409608344
 20
1091.628118791504
 30
0.0
 11
2247.819566895869
 21
1091.464837169139
 31
0.0
  0
LINE
  5
5BD
330
56B
100
AcDbEntity
  8
0
  6
Continuous
 62
     7
370
    15
100
AcDbLine
 10
2251.357611753246
 20
1088.276243093197
 30
0.0
 11
2253.478932096805
 21
1089.500855260931
 31
0.0
  0
ARC
  5
5BE
330
56B
100
AcDbEntity
  8
0
  6
Continuous
 62
     7
370
    15
100
AcDbCircle
 10
2253.332157000823
 20
1089.705132657713
 30
0.0
 40
0.2515396263741473
100
AcDbArc
 50
305.6975759695432
 51
5.620891283978518
  0
LINE
  5
5BF
330
56B
100
AcDbEntity
  8
0
  6
Continuous
 62
     7
370
    15
100
AcDbLine
 10
2251.317235656559
 20
1088.252928061501
 30
0.0
 11
2253.438556000119
 21
1089.477540229235
 31
0.0
  0
LINE
  5
5C0
330
56B
100
AcDbEntity
  8
0
  6
Continuous
 62
     7
370
    15
100
AcDbLine
 10
2253.478932096805
 20
1089.500855260931
 30
0.0
 11
2253.438556000119
 21
1089.477540229235
 31
0.0
  0
LINE
  5
5C1
330
56B
100
AcDbEntity
  8
0
  6
Continuous
 62
     7
370
    15
100
AcDbLine
 10
2251.213678727279
 20
1088.024015174027
 30
0.0
 11
2253.334999070839
 21
1089.248627082669
 31
0.0
  0
ARC
  5
5C2
330
56B
100
AcDbEntity
  8
0
  6
Continuous
 62
     7
370
    15
100
AcDbCircle
 10
2253.585326857065
 20
1089.273262872993
 30
0.0
 40
0.2515371199681264
100
AcDbArc
 50
125.6967972034408
 51
185.6206148453333
  0
LINE
  5
5C3
330
56B
100
AcDbEntity
  8
0
  6
Continuous
 62
     7
370
    15
100
AcDbLine
 10
2253.335000878675
 20
1087.603811602511
 30
0.0
 11
2251.213680535116
 21
1086.379199434777
 31
0.0
  0
LINE
  5
5C4
330
56B
100
AcDbEntity
  8
0
  6
Continuous
 62
     7
370
    15
100
AcDbLine
 10
2253.334999070839
 20
1089.248627082669
 30
0.0
 11
2253.335000878675
 21
1087.603811602511
 31
0.0
  0
LINE
  5
5C5
330
56B
100
AcDbEntity
  8
0
  6
Continuous
 62
     7
370
    15
100
AcDbLine
 10
2253.073372448596
 20
1087.452727625873
 30
0.0
 11
2250.952052105036
 21
1086.228115458139
 31
0.0
  0
LINE
  5
5C6
330
56B
100
AcDbEntity
  8
0
  6
Continuous
 62
     7
370
    15
100
AcDbLine
 10
2253.335000878675
 20
1087.603811602511
 30
0.0
 11
2253.073372448596
 21
1087.452727625873
 31
0.0
  0
LINE
  5
5C7
330
56B
100
AcDbEntity
  8
0
  6
Continuous
 62
     7
370
    15
100
AcDbLine
 10
2251.99147632377
 20
1081.841803437627
 30
0.0
 11
2252.025279411256
 21
1081.861317544648
 31
0.0
  0
ARC
  5
5C8
330
56B
100
AcDbEntity
  8
0
  6
Continuous
 62
     7
370
    15
100
AcDbCircle
 10
2252.108088773679
 20
1081.759793875139
 30
0.0
 40
0.1310131519175437
100
AcDbArc
 50
350.7863072336514
 51
129.2029410244033
  0
LINE
  5
5C9
330
56B
100
AcDbEntity
  8
0
  6
Continuous
 62
     7
370
    15
100
AcDbLine
 10
2252.23741449687
 20
1077.064591733686
 30
0.0
 11
2252.237411597561
 21
1081.738816430142
 31
0.0
  0
LINE
  5
5CA
330
56B
100
AcDbEntity
  8
0
  6
Continuous
 62
     7
370
    15
100
AcDbLine
 10
2250.331328544735
 20
1075.964239196105
 30
0.0
 11
2252.237408034957
 21
1077.064595464068
 31
0.0
  0
LINE
  5
5CB
330
56B
100
AcDbEntity
  8
0
  6
Continuous
 62
     7
370
    15
100
AcDbLine
 10
2250.331332107327
 20
1080.638460162167
 30
0.0
 11
2250.331335006647
 21
1075.964235465723
 31
0.0
  0
ARC
  5
5CC
330
56B
100
AcDbEntity
  8
0
  6
Continuous
 62
     7
370
    15
100
AcDbCircle
 10
2250.791884859585
 20
1080.617509075271
 30
0.0
 40
0.4610290507707323
100
AcDbArc
 50
122.6047039613218
 51
177.3953432799894
  0
LINE
  5
5CD
330
56B
100
AcDbEntity
  8
0
  6
Continuous
 62
     7
370
    15
100
AcDbLine
 10
2250.543463989746
 20
1081.005883710235
 30
0.0
 11
2250.577265371906
 21
1081.025398801722
 31
0.0
  0
ARC
  5
5CE
330
56B
100
AcDbEntity
  8
0
  6
Continuous
 62
     7
370
    15
100
AcDbCircle
 10
2250.328844042909
 20
1081.413775993222
 30
0.0
 40
0.4610314518312635
100
AcDbArc
 50
302.6045808315629
 51
357.3949108745431
  0
LINE
  5
5CF
330
56B
100
AcDbEntity
  8
0
  6
Continuous
 62
     7
370
    15
100
AcDbLine
 10
2250.7893991027
 20
1086.322013037721
 30
0.0
 11
2250.789399035617
 21
1081.392821321449
 31
0.0
  0
LINE
  5
5D0
330
56B
100
AcDbEntity
  8
0
  6
Continuous
 62
     7
370
    15
100
AcDbLine
 10
2251.779344137459
 20
1081.96430455212
 30
0.0
 11
2251.779344137467
 21
1086.705700982768
 31
0.0
  0
ARC
  5
5D1
330
56B
100
AcDbEntity
  8
0
  6
Continuous
 62
     7
370
    15
100
AcDbCircle
 10
2251.908666945022
 20
1081.943327078871
 30
0.0
 40
0.1310131403332546
100
AcDbArc
 50
170.7862938955031
 51
309.2029543697671
  0
LINE
  5
5D2
330
56B
100
AcDbEntity
  8
0
  6
Continuous
 62
     7
370
    15
100
AcDbLine
 10
2248.668074451645
 20
1082.617464679229
 30
0.0
 11
2248.668074451645
 21
1087.54662769212
 31
0.0
  0
LINE
  5
5D3
330
56B
100
AcDbEntity
  8
0
  6
Continuous
 62
     7
370
    15
100
AcDbLine
 10
2250.789399035617
 20
1081.392821321449
 30
0.0
 11
2248.668074451645
 21
1082.617464679229
 31
0.0
  0
LINE
  5
5D4
330
56B
100
AcDbEntity
  8
0
  6
Continuous
 62
     7
370
    15
100
AcDbLine
 10
2246.794262063148
 20
1093.632198021812
 30
0.0
 11
2244.672941719589
 21
1092.407585854078
 31
0.0
  0
LINE
  5
5D5
330
56B
100
AcDbEntity
  8
0
  6
Continuous
 62
     7
370
    15
100
AcDbLine
 10
2246.794262063148
 20
1094.100793841484
 30
0.0
 11
2246.794262063148
 21
1093.632198021812
 31
0.0
  0
LINE
  5
5D6
330
56B
100
AcDbEntity
  8
0
  6
Continuous
 62
     7
370
    15
100
AcDbLine
 10
2241.031341796478
 20
1095.383596105888
 30
0.0
 11
2241.314184508953
 21
1094.485374672801
 31
0.0
  0
LINE
  5
5D7
330
56B
100
AcDbEntity
  8
0
  6
Continuous
 62
     7
370
    15
100
AcDbLine
 10
2241.031341796478
 20
1095.383596105888
 30
0.0
 11
2243.152662140038
 21
1094.158983938154
 31
0.0
  0
LINE
  5
5D8
330
56B
100
AcDbEntity
  8
0
  6
Continuous
 62
     7
370
    15
100
AcDbLine
 10
2243.152662140038
 20
1094.158983938154
 30
0.0
 11
2243.435504852512
 21
1093.260762505067
 31
0.0
  0
LINE
  5
5D9
330
56B
100
AcDbEntity
  8
0
  6
Continuous
 62
     7
370
    15
100
AcDbLine
 10
2241.314184508953
 20
1095.546877728253
 30
0.0
 11
2241.031341796478
 21
1095.383596105888
 31
0.0
  0
LINE
  5
5DA
330
56B
100
AcDbEntity
  8
0
  6
Continuous
 62
     7
370
    15
100
AcDbLine
 10
2243.435504852512
 20
1094.322265560519
 30
0.0
 11
2243.152662140038
 21
1094.158983938154
 31
0.0
  0
LINE
  5
5DB
330
56B
100
AcDbEntity
  8
0
  6
Continuous
 62
     7
370
    15
100
AcDbLine
 10
2244.569386653854
 20
1092.178671213709
 30
0.0
 11
2246.690706997414
 21
1093.403283381443
 31
0.0
  0
ARC
  5
5DC
330
56B
100
AcDbEntity
  8
0
  6
Continuous
 62
     7
370
    15
100
AcDbCircle
 10
2246.543931901433
 20
1093.607560778224
 30
0.0
 40
0.2515396263738
100
AcDbArc
 50
305.6975759694418
 51
5.620891283965553
  0
LINE
  5
5DD
330
56B
100
AcDbEntity
  8
0
  6
Continuous
 62
     7
370
    15
100
AcDbLine
 10
2244.529010557169
 20
1092.155356182012
 30
0.0
 11
2246.650330900728
 21
1093.379968349746
 31
0.0
  0
LINE
  5
5DE
330
56B
100
AcDbEntity
  8
0
  6
Continuous
 62
     7
370
    15
100
AcDbLine
 10
2246.690706997414
 20
1093.403283381443
 30
0.0
 11
2246.650330900728
 21
1093.379968349746
 31
0.0
  0
LINE
  5
5DF
330
56B
100
AcDbEntity
  8
0
  6
Continuous
 62
     7
370
    15
100
AcDbLine
 10
2244.425453627888
 20
1091.926443294538
 30
0.0
 11
2246.546773971448
 21
1093.151055203181
 31
0.0
  0
ARC
  5
5E0
330
56B
100
AcDbEntity
  8
0
  6
Continuous
 62
     7
370
    15
100
AcDbCircle
 10
2246.797101757675
 20
1093.175690993504
 30
0.0
 40
0.2515371199692296
100
AcDbArc
 50
125.6967972035346
 51
185.6206148451103
  0
LINE
  5
5E1
330
56B
100
AcDbEntity
  8
0
  6
Continuous
 62
     7
370
    15
100
AcDbLine
 10
2246.546775779284
 20
1091.506239723022
 30
0.0
 11
2244.425455435725
 21
1090.281627555288
 31
0.0
  0
LINE
  5
5E2
330
56B
100
AcDbEntity
  8
0
  6
Continuous
 62
     7
370
    15
100
AcDbLine
 10
2246.546773971448
 20
1093.151055203181
 30
0.0
 11
2246.546775779284
 21
1091.506239723022
 31
0.0
  0
LINE
  5
5E3
330
56B
100
AcDbEntity
  8
0
  6
Continuous
 62
     7
370
    15
100
AcDbLine
 10
2250.331332107327
 20
1080.638460162167
 30
0.0
 11
2248.21000390209
 21
1081.863105610476
 31
0.0
  0
ARC
  5
5E4
330
56B
100
AcDbEntity
  8
0
  6
Continuous
 62
     7
370
    15
100
AcDbCircle
 10
2248.670568732458
 20
1081.842147354836
 30
0.0
 40
0.4610414422268331
100
AcDbArc
 50
122.6054783372474
 51
177.3945215188625
  0
LINE
  5
5E5
330
56B
100
AcDbEntity
  8
0
  6
Continuous
 62
     7
370
    15
100
AcDbLine
 10
2250.543463989746
 20
1081.005883710235
 30
0.0
 11
2248.422135936446
 21
1082.230529070828
 31
0.0
  0
LINE
  5
5E6
330
56B
100
AcDbEntity
  8
0
  6
Continuous
 62
     7
370
    15
100
AcDbLine
 10
2250.577265371906
 20
1081.025398801722
 30
0.0
 11
2248.455940729261
 21
1082.250042193377
 31
0.0
  0
ARC
  5
5E7
330
56B
100
AcDbEntity
  8
0
  6
Continuous
 62
     7
370
    15
100
AcDbCircle
 10
2248.20751907431
 20
1082.638419648544
 30
0.0
 40
0.4610318495842894
100
AcDbArc
 50
302.6045973000113
 51
357.3948761075501
  0
LINE
  5
5E8
330
56B
100
AcDbEntity
  8
0
  6
Continuous
 62
     7
370
    15
100
AcDbLine
 10
2250.091742713314
 20
1074.533502039906
 30
0.0
 11
2250.331328544735
 21
1075.964239196105
 31
0.0
  0
SPLINE
  5
5E9
330
56B
100
AcDbEntity
  8
0
  6
Continuous
 62
     7
370
    15
100
AcDbSpline
210
0.0
220
0.0
230
1.0
 70
     8
 71
     3
 72
    10
 73
     6
 74
     0
 42
0.0000000001
 43
0.0000000001
 40
0.0
 40
0.0
 40
0.0
 40
0.0
 40
0.5
 40
0.5
 40
1.0
 40
1.0
 40
1.0
 40
1.0
 10
2250.091742713314
 20
1074.533502039906
 30
0.0
 10
2250.07174092816
 20
1074.414057175239
 30
0.0
 10
2250.010688900105
 20
1074.327191029375
 30
0.0
 10
2249.83421391837
 20
1074.258070393167
 30
0.0
 10
2249.719473598049
 20
1074.27608327246
 30
0.0
 10
2249.604287720393
 20
1074.342578664237
 30
0.0
  0
LINE
  5
5EA
330
56B
100
AcDbEntity
  8
0
  6
Continuous
 62
     7
370
    15
100
AcDbLine
 10
2248.937044726432
 20
1074.727769845625
 30
0.0
 11
2249.604287720393
 21
1074.342578664237
 31
0.0
  0
SPLINE
  5
5EB
330
56B
100
AcDbEntity
  8
0
  6
Continuous
 62
     7
370
    15
100
AcDbSpline
210
0.0
220
0.0
230
1.0
 70
     8
 71
     3
 72
    10
 73
     6
 74
     0
 42
0.0000000001
 43
0.0000000001
 40
0.0
 40
0.0
 40
0.0
 40
0.0
 40
0.5
 40
0.5
 40
1.0
 40
1.0
 40
1.0
 40
1.0
 10
2248.937044726432
 20
1074.727769845625
 30
0.0
 10
2248.821858848776
 20
1074.794265237402
 30
0.0
 10
2248.707118528454
 20
1074.908728712114
 30
0.0
 10
2248.530643546719
 20
1075.181603025214
 30
0.0
 10
2248.469591518665
 20
1075.338958342266
 30
0.0
 10
2248.449589733511
 20
1075.48149677651
 30
0.0
  0
LINE
  5
5EC
330
56B
100
AcDbEntity
  8
0
  6
Continuous
 62
     7
370
    15
100
AcDbLine
 10
2248.21000390209
 20
1077.188853845647
 30
0.0
 11
2248.449589733511
 21
1075.48149677651
 31
0.0
  0
LINE
  5
5ED
330
56B
100
AcDbEntity
  8
0
  6
Continuous
 62
     7
370
    15
100
AcDbLine
 10
2248.21000390209
 20
1081.863105610476
 30
0.0
 11
2248.21000390209
 21
1077.188853845647
 31
0.0
  0
LINE
  5
5EE
330
56B
100
AcDbEntity
  8
0
  6
Continuous
 62
     7
370
    15
100
AcDbLine
 10
2248.455940729261
 20
1082.250042193377
 30
0.0
 11
2248.422135936446
 21
1082.230529070828
 31
0.0
  0
LINE
  5
5EF
330
56B
100
AcDbEntity
  8
0
  6
Continuous
 62
     7
370
    15
100
AcDbLine
 10
2244.177969141269
 20
1090.13871031377
 30
0.0
 11
2246.299289484829
 21
1091.363322481504
 31
0.0
  0
LINE
  5
5F0
330
56B
100
AcDbEntity
  8
0
  6
Continuous
 62
     7
370
    15
100
AcDbLine
 10
2246.546775779284
 20
1091.506239723022
 30
0.0
 11
2246.299289484829
 21
1091.363322481504
 31
0.0
  0
LINE
  5
5F1
330
56B
100
AcDbEntity
  8
0
  6
Continuous
 62
     7
370
    15
100
AcDbLine
 10
2245.203247813723
 20
1085.760564343301
 30
0.0
 11
2245.23705090121
 21
1085.780078450339
 31
0.0
  0
ARC
  5
5F2
330
56B
100
AcDbEntity
  8
0
  6
Continuous
 62
     7
370
    15
100
AcDbCircle
 10
2245.319863755774
 20
1085.678552742495
 30
0.0
 40
0.1310131587921827
100
AcDbArc
 50
350.7863151496851
 51
129.2029331087763
  0
LINE
  5
5F3
330
56B
100
AcDbEntity
  8
0
  6
Continuous
 62
     7
370
    15
100
AcDbLine
 10
2245.449189488646
 20
1080.983350617805
 30
0.0
 11
2245.44918658934
 21
1085.657575314264
 31
0.0
  0
LINE
  5
5F4
330
56B
100
AcDbEntity
  8
0
  6
Continuous
 62
     7
370
    15
100
AcDbLine
 10
2243.543103445344
 20
1079.882998132853
 30
0.0
 11
2245.449182935567
 21
1080.983354400817
 31
0.0
  0
LINE
  5
5F5
330
56B
100
AcDbEntity
  8
0
  6
Continuous
 62
     7
370
    15
100
AcDbLine
 10
2243.543107099101
 20
1084.557219046286
 30
0.0
 11
2243.543109998423
 21
1079.882994349841
 31
0.0
  0
ARC
  5
5F6
330
56B
100
AcDbEntity
  8
0
  6
Continuous
 62
     7
370
    15
100
AcDbCircle
 10
2244.003659520822
 20
1084.536268150229
 30
0.0
 40
0.461028711903415
100
AcDbArc
 50
122.6046821356147
 51
177.3953651058651
  0
LINE
  5
5F7
330
56B
100
AcDbEntity
  8
0
  6
Continuous
 62
     7
370
    15
100
AcDbLine
 10
2243.755238981521
 20
1084.924642594359
 30
0.0
 11
2243.789042069009
 21
1084.944156701377
 31
0.0
  0
ARC
  5
5F8
330
56B
100
AcDbEntity
  8
0
  6
Continuous
 62
     7
370
    15
100
AcDbCircle
 10
2243.540609017648
 20
1085.332538349784
 30
0.0
 40
0.4610415228895599
100
AcDbArc
 50
302.6055095954841
 51
357.3945423838505
  0
LINE
  5
5F9
330
56B
100
AcDbEntity
  8
0
  6
Continuous
 62
     7
370
    15
100
AcDbLine
 10
2244.00117400331
 20
1090.24077197447
 30
0.0
 11
2244.001173936226
 21
1085.311580258198
 31
0.0
  0
LINE
  5
5FA
330
56B
100
AcDbEntity
  8
0
  6
Continuous
 62
     7
370
    15
100
AcDbLine
 10
2244.991119038078
 20
1085.883063488858
 30
0.0
 11
2244.991119038078
 21
1090.608131757281
 31
0.0
  0
SPLINE
  5
5FB
330
56B
100
AcDbEntity
  8
0
  6
Continuous
 62
     7
370
    15
100
AcDbSpline
210
0.0
220
0.0
230
1.0
 70
     8
 71
     3
 72
    14
 73
    10
 74
     0
 42
0.0000000001
 43
0.0000000001
 40
0.0
 40
0.0
 40
0.0
 40
0.0
 40
0.0840876777391322
 40
0.1672016938460899
 40
0.250755854568427
 40
0.5000979028892965
 40
0.7494399512101743
 40
0.8738244721235327
 40
1.0
 40
1.0
 40
1.0
 40
1.0
 10
2245.203251315545
 20
1085.760562321743
 30
0.0
 10
2245.193941502278
 20
1085.755610689707
 30
0.0
 10
2245.175429675225
 20
1085.745764761196
 30
0.0
 10
2245.148132851475
 20
1085.736504277434
 30
0.0
 10
2245.104451149563
 20
1085.728263735937
 30
0.0
 10
2245.049222227564
 20
1085.738867475867
 30
0.0
 10
2245.010256250184
 20
1085.78444655261
 30
0.0
 10
2244.993492872103
 20
1085.836205165831
 30
0.0
 10
2244.991914138468
 20
1085.867369757773
 30
0.0
 10
2244.991119129244
 20
1085.883063436227
 30
0.0
  0
LINE
  5
5FC
330
56B
100
AcDbEntity
  8
0
  6
Continuous
 62
     7
370
    15
100
AcDbLine
 10
2241.879849352254
 20
1086.536223615978
 30
0.0
 11
2241.879849352254
 21
1091.465386628869
 31
0.0
  0
LINE
  5
5FD
330
56B
100
AcDbEntity
  8
0
  6
Continuous
 62
     7
370
    15
100
AcDbLine
 10
2244.001173936226
 20
1085.311580258198
 30
0.0
 11
2241.879849352254
 21
1086.536223615978
 31
0.0
  0
LINE
  5
5FE
330
56B
100
AcDbEntity
  8
0
  6
Continuous
 62
     7
370
    15
100
AcDbLine
 10
2240.006036963757
 20
1097.550956958562
 30
0.0
 11
2237.884716620198
 21
1096.326344790828
 31
0.0
  0
LINE
  5
5FF
330
56B
100
AcDbEntity
  8
0
  6
Continuous
 62
     7
370
    15
100
AcDbLine
 10
2240.006036963757
 20
1098.019552778233
 30
0.0
 11
2240.006036963757
 21
1097.550956958562
 31
0.0
  0
LINE
  5
600
330
56B
100
AcDbEntity
  8
0
  6
Continuous
 62
     7
370
    15
100
AcDbLine
 10
2251.997822203537
 20
1075.633858307869
 30
0.0
 11
2250.091742713314
 21
1074.533502039906
 31
0.0
  0
LINE
  5
601
330
56B
100
AcDbEntity
  8
0
  6
Continuous
 62
     7
370
    15
100
AcDbLine
 10
2252.237408034957
 20
1077.064595464068
 30
0.0
 11
2251.997822203537
 21
1075.633858307869
 31
0.0
  0
LINE
  5
602
330
56B
100
AcDbEntity
  8
0
  6
Continuous
 62
     7
370
    15
100
AcDbLine
 10
2234.243116697087
 20
1099.302355042637
 30
0.0
 11
2236.364437040647
 21
1098.077742874903
 31
0.0
  0
LINE
  5
603
330
56B
100
AcDbEntity
  8
0
  6
Continuous
 62
     7
370
    15
100
AcDbLine
 10
2234.525959409562
 20
1099.465636665002
 30
0.0
 11
2234.243116697087
 21
1099.302355042637
 31
0.0
  0
LINE
  5
604
330
56B
100
AcDbEntity
  8
0
  6
Continuous
 62
     7
370
    15
100
AcDbLine
 10
2236.647279753122
 20
1098.241024497268
 30
0.0
 11
2236.364437040647
 21
1098.077742874903
 31
0.0
  0
LINE
  5
605
330
56B
100
AcDbEntity
  8
0
  6
Continuous
 62
     7
370
    15
100
AcDbLine
 10
2236.364437040647
 20
1098.077742874903
 30
0.0
 11
2236.647279753122
 21
1097.179521441816
 31
0.0
  0
LINE
  5
606
330
56B
100
AcDbEntity
  8
0
  6
Continuous
 62
     7
370
    15
100
AcDbLine
 10
2234.243116697087
 20
1099.302355042637
 30
0.0
 11
2234.525959409562
 21
1098.40413360955
 31
0.0
  0
LINE
  5
607
330
56B
100
AcDbEntity
  8
0
  6
Continuous
 62
     7
370
    15
100
AcDbLine
 10
2237.781161554464
 20
1096.097430150458
 30
0.0
 11
2239.902481898023
 21
1097.322042318192
 31
0.0
  0
ARC
  5
608
330
56B
100
AcDbEntity
  8
0
  6
Continuous
 62
     7
370
    15
100
AcDbCircle
 10
2239.755706802041
 20
1097.526319714973
 30
0.0
 40
0.2515396263740738
100
AcDbArc
 50
305.6975759694781
 51
5.620891283924107
  0
LINE
  5
609
330
56B
100
AcDbEntity
  8
0
  6
Continuous
 62
     7
370
    15
100
AcDbLine
 10
2237.740785457778
 20
1096.074115118761
 30
0.0
 11
2239.862105801337
 21
1097.298727286495
 31
0.0
  0
LINE
  5
60A
330
56B
100
AcDbEntity
  8
0
  6
Continuous
 62
     7
370
    15
100
AcDbLine
 10
2239.902481898023
 20
1097.322042318192
 30
0.0
 11
2239.862105801337
 21
1097.298727286495
 31
0.0
  0
LINE
  5
60B
330
56B
100
AcDbEntity
  8
0
  6
Continuous
 62
     7
370
    15
100
AcDbLine
 10
2237.637228528497
 20
1095.845202231287
 30
0.0
 11
2239.758548872057
 21
1097.069814139929
 31
0.0
  0
ARC
  5
60C
330
56B
100
AcDbEntity
  8
0
  6
Continuous
 62
     7
370
    15
100
AcDbCircle
 10
2240.008876658284
 20
1097.094449930253
 30
0.0
 40
0.2515371199688144
100
AcDbArc
 50
125.6967972034983
 51
185.6206148451622
  0
LINE
  5
60D
330
56B
100
AcDbEntity
  8
0
  6
Continuous
 62
     7
370
    15
100
AcDbLine
 10
2239.758550679893
 20
1095.424998659772
 30
0.0
 11
2237.637230336334
 21
1094.200386492037
 31
0.0
  0
LINE
  5
60E
330
56B
100
AcDbEntity
  8
0
  6
Continuous
 62
     7
370
    15
100
AcDbLine
 10
2239.758548872057
 20
1097.069814139929
 30
0.0
 11
2239.758550679893
 21
1095.424998659772
 31
0.0
  0
SPLINE
  5
60F
330
56B
100
AcDbEntity
  8
0
  6
Continuous
 62
     7
370
    15
100
AcDbSpline
210
0.0
220
0.0
230
1.0
 70
     8
 71
     3
 72
     9
 73
     5
 74
     0
 42
0.0000000001
 43
0.0000000001
 40
0.0
 40
0.0
 40
0.0
 40
0.0
 40
0.4289592542054201
 40
0.9999999999999998
 40
0.9999999999999998
 40
0.9999999999999998
 40
0.9999999999999998
 10
2251.85602383856
 20
1075.414951249153
 30
0.0
 10
2251.886468576462
 20
1075.433601230401
 30
0.0
 10
2251.957442072437
 20
1075.477078509571
 30
0.0
 10
2251.983144862901
 20
1075.576872100997
 30
0.0
 10
2251.997822203537
 20
1075.633858307869
 30
0.0
  0
LINE
  5
610
330
56B
100
AcDbEntity
  8
0
  6
Continuous
 62
     7
370
    15
100
AcDbLine
 10
2243.5431070991
 20
1084.557219046286
 30
0.0
 11
2241.421778802699
 21
1085.781864547225
 31
0.0
  0
ARC
  5
611
330
56B
100
AcDbEntity
  8
0
  6
Continuous
 62
     7
370
    15
100
AcDbCircle
 10
2241.882343633067
 20
1085.760906291585
 30
0.0
 40
0.4610414422269764
100
AcDbArc
 50
122.6054783372474
 51
177.3945215188494
  0
LINE
  5
612
330
56B
100
AcDbEntity
  8
0
  6
Continuous
 62
     7
370
    15
100
AcDbLine
 10
2243.755238981521
 20
1084.924642594359
 30
0.0
 11
2241.633910837055
 21
1086.149288007577
 31
0.0
  0
LINE
  5
613
330
56B
100
AcDbEntity
  8
0
  6
Continuous
 62
     7
370
    15
100
AcDbLine
 10
2243.789042069009
 20
1084.944156701377
 30
0.0
 11
2241.667715629871
 21
1086.168801130126
 31
0.0
  0
ARC
  5
614
330
56B
100
AcDbEntity
  8
0
  6
Continuous
 62
     7
370
    15
100
AcDbCircle
 10
2241.419293974918
 20
1086.557178585293
 30
0.0
 40
0.4610318495846541
100
AcDbArc
 50
302.6045973000472
 51
357.3948761075501
  0
LINE
  5
615
330
56B
100
AcDbEntity
  8
0
  6
Continuous
 62
     7
370
    15
100
AcDbLine
 10
2243.303517613923
 20
1078.452260976654
 30
0.0
 11
2243.543103445344
 21
1079.882998132853
 31
0.0
  0
SPLINE
  5
616
330
56B
100
AcDbEntity
  8
0
  6
Continuous
 62
     7
370
    15
100
AcDbSpline
210
0.0
220
0.0
230
1.0
 70
     8
 71
     3
 72
    10
 73
     6
 74
     0
 42
0.0000000001
 43
0.0000000001
 40
0.0
 40
0.0
 40
0.0
 40
0.0
 40
0.5
 40
0.5
 40
1.0
 40
1.0
 40
1.0
 40
1.0
 10
2243.303517613923
 20
1078.452260976654
 30
0.0
 10
2243.283515828769
 20
1078.332816111988
 30
0.0
 10
2243.222463800714
 20
1078.245949966124
 30
0.0
 10
2243.04598881898
 20
1078.176829329916
 30
0.0
 10
2242.931248498658
 20
1078.194842209209
 30
0.0
 10
2242.816062621002
 20
1078.261337600986
 30
0.0
  0
LINE
  5
617
330
56B
100
AcDbEntity
  8
0
  6
Continuous
 62
     7
370
    15
100
AcDbLine
 10
2242.148819627042
 20
1078.646528782374
 30
0.0
 11
2242.816062621002
 21
1078.261337600986
 31
0.0
  0
ARC
  5
618
330
56B
100
AcDbEntity
  8
0
  6
Continuous
 62
     7
370
    15
100
AcDbCircle
 10
2242.743595628886
 20
1079.56567447243
 30
0.0
 40
1.09480011505167
100
AcDbArc
 50
188.6903853336234
 51
237.0932335995461
  0
LINE
  5
619
330
56B
100
AcDbEntity
  8
0
  6
Continuous
 62
     7
370
    15
100
AcDbLine
 10
2241.421778802699
 20
1081.107612782396
 30
0.0
 11
2241.66136463412
 21
1079.40025571326
 31
0.0
  0
LINE
  5
61A
330
56B
100
AcDbEntity
  8
0
  6
Continuous
 62
     7
370
    15
100
AcDbLine
 10
2241.421778802699
 20
1085.781864547225
 30
0.0
 11
2241.421778802699
 21
1081.107612782396
 31
0.0
  0
LINE
  5
61B
330
56B
100
AcDbEntity
  8
0
  6
Continuous
 62
     7
370
    15
100
AcDbLine
 10
2241.667715629871
 20
1086.168801130126
 30
0.0
 11
2241.633910837055
 21
1086.149288007577
 31
0.0
  0
LINE
  5
61C
330
56B
100
AcDbEntity
  8
0
  6
Continuous
 62
     7
370
    15
100
AcDbLine
 10
2237.389744041878
 20
1094.057469250519
 30
0.0
 11
2239.511064385437
 21
1095.282081418253
 31
0.0
  0
LINE
  5
61D
330
56B
100
AcDbEntity
  8
0
  6
Continuous
 62
     7
370
    15
100
AcDbLine
 10
2239.758550679893
 20
1095.424998659772
 30
0.0
 11
2239.511064385437
 21
1095.282081418253
 31
0.0
  0
LINE
  5
61E
330
56B
100
AcDbEntity
  8
0
  6
Continuous
 62
     7
370
    15
100
AcDbLine
 10
2238.415022714332
 20
1089.679323280051
 30
0.0
 11
2238.448825801819
 21
1089.698837387088
 31
0.0
  0
ARC
  5
61F
330
56B
100
AcDbEntity
  8
0
  6
Continuous
 62
     7
370
    15
100
AcDbCircle
 10
2238.531638656383
 20
1089.597311679244
 30
0.0
 40
0.1310131587922338
100
AcDbArc
 50
350.7863151497365
 51
129.2029331087112
  0
LINE
  5
620
330
56B
100
AcDbEntity
  8
0
  6
Continuous
 62
     7
370
    15
100
AcDbLine
 10
2238.660964389255
 20
1084.902109554554
 30
0.0
 11
2238.66096148995
 21
1089.576334251012
 31
0.0
  0
LINE
  5
621
330
56B
100
AcDbEntity
  8
0
  6
Continuous
 62
     7
370
    15
100
AcDbLine
 10
2236.754878345953
 20
1083.801757069602
 30
0.0
 11
2238.660957836176
 21
1084.902113337566
 31
0.0
  0
LINE
  5
622
330
56B
100
AcDbEntity
  8
0
  6
Continuous
 62
     7
370
    15
100
AcDbLine
 10
2236.75488199971
 20
1088.475977983035
 30
0.0
 11
2236.754884899032
 21
1083.80175328659
 31
0.0
  0
ARC
  5
623
330
56B
100
AcDbEntity
  8
0
  6
Continuous
 62
     7
370
    15
100
AcDbCircle
 10
2237.215434421432
 20
1088.455027086977
 30
0.0
 40
0.461028711903966
100
AcDbArc
 50
122.6046821356507
 51
177.3953651058391
  0
LINE
  5
624
330
56B
100
AcDbEntity
  8
0
  6
Continuous
 62
     7
370
    15
100
AcDbLine
 10
2236.96701388213
 20
1088.843401531107
 30
0.0
 11
2237.000816969618
 21
1088.862915638126
 31
0.0
  0
ARC
  5
625
330
56B
100
AcDbEntity
  8
0
  6
Continuous
 62
     7
370
    15
100
AcDbCircle
 10
2236.752383918257
 20
1089.251297286533
 30
0.0
 40
0.4610415228891989
100
AcDbArc
 50
302.6055095954552
 51
357.3945423838896
  0
LINE
  5
626
330
56B
100
AcDbEntity
  8
0
  6
Continuous
 62
     7
370
    15
100
AcDbLine
 10
2237.212948903919
 20
1094.159530911219
 30
0.0
 11
2237.212948836835
 21
1089.230339194947
 31
0.0
  0
LINE
  5
627
330
56B
100
AcDbEntity
  8
0
  6
Continuous
 62
     7
370
    15
100
AcDbLine
 10
2238.202893938687
 20
1089.801822425607
 30
0.0
 11
2238.202893938687
 21
1094.52689069403
 31
0.0
  0
SPLINE
  5
628
330
56B
100
AcDbEntity
  8
0
  6
Continuous
 62
     7
370
    15
100
AcDbSpline
210
0.0
220
0.0
230
1.0
 70
     8
 71
     3
 72
    14
 73
    10
 74
     0
 42
0.0000000001
 43
0.0000000001
 40
0.0
 40
0.0
 40
0.0
 40
0.0
 40
0.0840876777391322
 40
0.1672016938460899
 40
0.250755854568427
 40
0.5000979028892965
 40
0.7494399512101743
 40
0.8738244721235327
 40
1.0
 40
1.0
 40
1.0
 40
1.0
 10
2238.415026216154
 20
1089.679321258492
 30
0.0
 10
2238.405716402887
 20
1089.674369626456
 30
0.0
 10
2238.387204575834
 20
1089.664523697945
 30
0.0
 10
2238.359907752084
 20
1089.655263214183
 30
0.0
 10
2238.316226050173
 20
1089.647022672686
 30
0.0
 10
2238.260997128173
 20
1089.657626412616
 30
0.0
 10
2238.222031150793
 20
1089.703205489358
 30
0.0
 10
2238.205267772712
 20
1089.75496410258
 30
0.0
 10
2238.203689039077
 20
1089.786128694522
 30
0.0
 10
2238.202894029853
 20
1089.801822372977
 30
0.0
  0
LINE
  5
629
330
56B
100
AcDbEntity
  8
0
  6
Continuous
 62
     7
370
    15
100
AcDbLine
 10
2235.091624252862
 20
1090.454982552727
 30
0.0
 11
2235.091624252862
 21
1095.384145565618
 31
0.0
  0
LINE
  5
62A
330
56B
100
AcDbEntity
  8
0
  6
Continuous
 62
     7
370
    15
100
AcDbLine
 10
2237.212948836835
 20
1089.230339194947
 30
0.0
 11
2235.091624252862
 21
1090.454982552727
 31
0.0
  0
LINE
  5
62B
330
56B
100
AcDbEntity
  8
0
  6
Continuous
 62
     7
370
    15
100
AcDbLine
 10
2245.209597104146
 20
1079.552617244618
 30
0.0
 11
2243.303517613923
 21
1078.452260976654
 31
0.0
  0
LINE
  5
62C
330
56B
100
AcDbEntity
  8
0
  6
Continuous
 62
     7
370
    15
100
AcDbLine
 10
2245.449182935567
 20
1080.983354400817
 30
0.0
 11
2245.209597104146
 21
1079.552617244618
 31
0.0
  0
SPLINE
  5
62D
330
56B
100
AcDbEntity
  8
0
  6
Continuous
 62
     7
370
    15
100
AcDbSpline
210
0.0
220
0.0
230
1.0
 70
     8
 71
     3
 72
     9
 73
     5
 74
     0
 42
0.0000000001
 43
0.0000000001
 40
0.0
 40
0.0
 40
0.0
 40
0.0
 40
0.4289592542052287
 40
1.0
 40
1.0
 40
1.0
 40
1.0
 10
2245.06779873917
 20
1079.333710185903
 30
0.0
 10
2245.098243477071
 20
1079.35236016715
 30
0.0
 10
2245.169216973047
 20
1079.395837446321
 30
0.0
 10
2245.19491976351
 20
1079.495631037746
 30
0.0
 10
2245.209597104146
 20
1079.552617244618
 30
0.0
  0
LINE
  5
62E
330
56B
100
AcDbEntity
  8
0
  6
Continuous
 62
     7
370
    15
100
AcDbLine
 10
2236.75488199971
 20
1088.475977983034
 30
0.0
 11
2234.633553703309
 21
1089.700623483974
 31
0.0
  0
ARC
  5
62F
330
56B
100
AcDbEntity
  8
0
  6
Continuous
 62
     7
370
    15
100
AcDbCircle
 10
2235.094118533676
 20
1089.679665228334
 30
0.0
 40
0.4610414422268616
100
AcDbArc
 50
122.6054783372474
 51
177.3945215188625
  0
LINE
  5
630
330
56B
100
AcDbEntity
  8
0
  6
Continuous
 62
     7
370
    15
100
AcDbLine
 10
2236.96701388213
 20
1088.843401531107
 30
0.0
 11
2234.845685737665
 21
1090.068046944326
 31
0.0
  0
LINE
  5
631
330
56B
100
AcDbEntity
  8
0
  6
Continuous
 62
     7
370
    15
100
AcDbLine
 10
2237.000816969618
 20
1088.862915638126
 30
0.0
 11
2234.87949053048
 21
1090.087560066875
 31
0.0
  0
ARC
  5
632
330
56B
100
AcDbEntity
  8
0
  6
Continuous
 62
     7
370
    15
100
AcDbCircle
 10
2234.631068875527
 20
1090.475937522042
 30
0.0
 40
0.461031849584643
100
AcDbArc
 50
302.6045973000403
 51
357.3948761075371
  0
LINE
  5
633
330
56B
100
AcDbEntity
  8
0
  6
Continuous
 62
     7
370
    15
100
AcDbLine
 10
2236.515292514532
 20
1082.371019913404
 30
0.0
 11
2236.754878345953
 21
1083.801757069602
 31
0.0
  0
SPLINE
  5
634
330
56B
100
AcDbEntity
  8
0
  6
Continuous
 62
     7
370
    15
100
AcDbSpline
210
0.0
220
0.0
230
1.0
 70
     8
 71
     3
 72
    10
 73
     6
 74
     0
 42
0.0000000001
 43
0.0000000001
 40
0.0
 40
0.0
 40
0.0
 40
0.0
 40
0.5
 40
0.5
 40
1.0
 40
1.0
 40
1.0
 40
1.0
 10
2236.515292514532
 20
1082.371019913404
 30
0.0
 10
2236.495290729378
 20
1082.251575048738
 30
0.0
 10
2236.434238701324
 20
1082.164708902873
 30
0.0
 10
2236.257763719589
 20
1082.095588266665
 30
0.0
 10
2236.143023399268
 20
1082.113601145958
 30
0.0
 10
2236.027837521611
 20
1082.180096537735
 30
0.0
  0
LINE
  5
635
330
56B
100
AcDbEntity
  8
0
  6
Continuous
 62
     7
370
    15
100
AcDbLine
 10
2235.36059452765
 20
1082.565287719123
 30
0.0
 11
2236.027837521611
 21
1082.180096537735
 31
0.0
  0
ARC
  5
636
330
56B
100
AcDbEntity
  8
0
  6
Continuous
 62
     7
370
    15
100
AcDbCircle
 10
2235.955370529495
 20
1083.484433409178
 30
0.0
 40
1.094800115051568
100
AcDbArc
 50
188.6903853336234
 51
237.0932335995461
  0
LINE
  5
637
330
56B
100
AcDbEntity
  8
0
  6
Continuous
 62
     7
370
    15
100
AcDbLine
 10
2234.633553703309
 20
1085.026371719145
 30
0.0
 11
2234.87313953473
 21
1083.319014650008
 31
0.0
  0
LINE
  5
638
330
56B
100
AcDbEntity
  8
0
  6
Continuous
 62
     7
370
    15
100
AcDbLine
 10
2234.633553703309
 20
1089.700623483974
 30
0.0
 11
2234.633553703309
 21
1085.026371719145
 31
0.0
  0
LINE
  5
639
330
56B
100
AcDbEntity
  8
0
  6
Continuous
 62
     7
370
    15
100
AcDbLine
 10
2234.87949053048
 20
1090.087560066875
 30
0.0
 11
2234.845685737665
 21
1090.068046944326
 31
0.0
  0
LINE
  5
63A
330
56B
100
AcDbEntity
  8
0
  6
Continuous
 62
     7
370
    15
100
AcDbLine
 10
2238.421372004755
 20
1083.471376181368
 30
0.0
 11
2236.515292514532
 21
1082.371019913404
 31
0.0
  0
LINE
  5
63B
330
56B
100
AcDbEntity
  8
0
  6
Continuous
 62
     7
370
    15
100
AcDbLine
 10
2238.660957836176
 20
1084.902113337566
 30
0.0
 11
2238.421372004755
 21
1083.471376181368
 31
0.0
  0
SPLINE
  5
63C
330
56B
100
AcDbEntity
  8
0
  6
Continuous
 62
     7
370
    15
100
AcDbSpline
210
0.0
220
0.0
230
1.0
 70
     8
 71
     3
 72
     9
 73
     5
 74
     0
 42
0.0000000001
 43
0.0000000001
 40
0.0
 40
0.0
 40
0.0
 40
0.0
 40
0.4289592542052287
 40
1.0
 40
1.0
 40
1.0
 40
1.0
 10
2238.279573639779
 20
1083.252469122651
 30
0.0
 10
2238.31001837768
 20
1083.271119103899
 30
0.0
 10
2238.380991873656
 20
1083.31459638307
 30
0.0
 10
2238.406694664119
 20
1083.414389974495
 30
0.0
 10
2238.421372004755
 20
1083.471376181368
 30
0.0
  0
LINE
  5
63D
330
56B
100
AcDbEntity
  8
0
  6
Continuous
 62
     8
370
    15
100
AcDbLine
 10
2251.779340881169
 20
1081.964269496139
 30
0.0
 11
2251.99147632377
 21
1081.841803437627
 31
0.0
  0
LINE
  5
63E
330
56B
100
AcDbEntity
  8
0
  6
Continuous
 62
     8
370
    15
100
AcDbLine
 10
2251.779344137459
 20
1082.003296288387
 30
0.0
 11
2252.025279411256
 21
1081.861317544648
 31
0.0
  0
LINE
  5
63F
330
56B
100
AcDbEntity
  8
0
  6
Continuous
 62
     8
370
    15
100
AcDbLine
 10
2244.991126209727
 20
1085.883022412821
 30
0.0
 11
2245.203247813723
 21
1085.760564343301
 31
0.0
  0
LINE
  5
640
330
56B
100
AcDbEntity
  8
0
  6
Continuous
 62
     8
370
    15
100
AcDbLine
 10
2244.991119038078
 20
1085.922055225134
 30
0.0
 11
2245.237054403033
 21
1085.780076428771
 31
0.0
  0
LINE
  5
641
330
56B
100
AcDbEntity
  8
0
  6
Continuous
 62
     8
370
    15
100
AcDbLine
 10
2238.202901110336
 20
1089.801781349569
 30
0.0
 11
2238.415022714332
 21
1089.679323280051
 31
0.0
  0
LINE
  5
642
330
56B
100
AcDbEntity
  8
0
  6
Continuous
 62
     8
370
    15
100
AcDbLine
 10
2238.202893938687
 20
1089.840814161883
 30
0.0
 11
2238.448829303642
 21
1089.698835365521
 31
0.0
  0
ENDBLK
  5
56D
330
56B
100
AcDbEntity
  8
0
100
AcDbBlockEnd
  0
ENDSEC
  0
SECTION
  2
ENTITIES
  0
INSERT
  5
523
330
1F
100
AcDbEntity
  8
0
100
AcDbBlockReference
  2
1
 10
0.0
 20
0.0
 30
0.0
  0
INSERT
  5
562
330
1F
100
AcDbEntity
  8
0
100
AcDbBlockReference
  2
2
 10
0.0
 20
0.0
 30
0.0
  0
INSERT
  5
56A
330
1F
100
AcDbEntity
  8
0
100
AcDbBlockReference
  2
3
 10
0.0
 20
0.0
 30
0.0
  0
INSERT
  5
643
330
1F
100
AcDbEntity
  8
0
100
AcDbBlockReference
  2
4
 10
0.0
 20
0.0
 30
0.0
  0
ENDSEC
  0
SECTION
  2
OBJECTS
  0
DICTIONARY
  5
C
330
0
100
AcDbDictionary
281
     1
  3
ACAD_COLOR
350
6B
  3
ACAD_GROUP
350
D
  3
ACAD_LAYOUT
350
1A
  3
ACAD_MATERIAL
350
6A
  3
ACAD_MLEADERSTYLE
350
12D
  3
ACAD_MLINESTYLE
350
17
  3
ACAD_PLOTSETTINGS
350
19
  3
ACAD_PLOTSTYLENAME
350
E
  3
ACAD_SCALELIST
350
10C
  3
ACAD_TABLESTYLE
350
7E
  3
ACAD_VISUALSTYLE
350
EF
  3
ACDB_RECOMPOSE_DATA
350
15D
  3
AcDbVariableDictionary
350
5E
  3
DWGPROPS
350
651
  0
DICTIONARY
  5
13C
330
10
100
AcDbDictionary
280
     1
281
     1
  3
ADSK_XREC_LAYER_RECONCILED
360
644
  0
DICTIONARY
  5
6B
102
{ACAD_REACTORS
330
C
102
}
330
C
100
AcDbDictionary
281
     1
  0
DICTIONARY
  5
D
102
{ACAD_REACTORS
330
C
102
}
330
C
100
AcDbDictionary
281
     1
  0
DICTIONARY
  5
1A
102
{ACAD_REACTORS
330
C
102
}
330
C
100
AcDbDictionary
281
     1
  3
Layout1
350
D3
  3
Layout2
350
D7
  3
Model
350
22
  0
DICTIONARY
  5
6A
102
{ACAD_REACTORS
330
C
102
}
330
C
100
AcDbDictionary
281
     1
  3
ByBlock
350
ED
  3
ByLayer
350
EC
  3
Global
350
EE
  0
DICTIONARY
  5
12D
102
{ACAD_REACTORS
330
C
102
}
330
C
100
AcDbDictionary
281
     1
  3
Annotative
350
13B
  3
Standard
350
12E
  0
DICTIONARY
  5
17
102
{ACAD_REACTORS
330
C
102
}
330
C
100
AcDbDictionary
281
     1
  3
Standard
350
18
  0
DICTIONARY
  5
19
102
{ACAD_REACTORS
330
C
102
}
330
C
100
AcDbDictionary
281
     1
  0
ACDBDICTIONARYWDFLT
  5
E
102
{ACAD_REACTORS
330
C
102
}
330
C
100
AcDbDictionary
281
     1
  3
Normal
350
F
100
AcDbDictionaryWithDefault
340
F
  0
DICTIONARY
  5
10C
102
{ACAD_REACTORS
330
C
102
}
330
C
100
AcDbDictionary
281
     1
  3
A0
350
10D
  3
A1
350
188
  3
A2
350
189
  3
A3
350
18A
  3
A4
350
18B
  3
A5
350
18C
  3
A6
350
18D
  3
A7
350
18E
  3
A8
350
18F
  3
A9
350
190
  3
B0
350
191
  3
B1
350
192
  3
B2
350
193
  3
B3
350
194
  3
B4
350
195
  3
B5
350
196
  3
B6
350
197
  3
B7
350
198
  3
B8
350
199
  3
B9
350
19A
  3
C0
350
19B
  3
C1
350
19C
  3
C2
350
19D
  3
C3
350
19E
  3
C4
350
19F
  3
C5
350
1A0
  3
C6
350
1A1
  3
C7
350
1A2
  3
C8
350
1A3
  3
C9
350
1A4
  3
D0
350
1A5
  3
D1
350
1A6
  3
D2
350
1A7
  0
DICTIONARY
  5
7E
102
{ACAD_REACTORS
330
C
102
}
330
C
100
AcDbDictionary
281
     1
  3
Standard
350
7F
  0
DICTIONARY
  5
EF
102
{ACAD_REACTORS
330
C
102
}
330
C
100
AcDbDictionary
281
     1
  3
2dWireframe
350
F5
  3
3D Hidden
350
F7
  3
3dWireframe
350
F6
  3
Basic
350
F4
  3
Brighten
350
FB
  3
ColorChange
350
FF
  3
Conceptual
350
F8
  3
Dim
350
FA
  3
Facepattern
350
FE
  3
Flat
350
F0
  3
FlatWithEdges
350
F1
  3
Gouraud
350
F2
  3
GouraudWithEdges
350
F3
  3
Linepattern
350
FD
  3
Realistic
350
F9
  3
Thicken
350
FC
  0
XRECORD
  5
15D
102
{ACAD_REACTORS
330
C
102
}
330
C
100
AcDbXrecord
280
     1
 90
        1
330
7F
  0
DICTIONARY
  5
5E
102
{ACAD_REACTORS
330
C
102
}
330
C
100
AcDbDictionary
281
     1
  3
CANNOSCALE
350
146
  3
CMLEADERSTYLE
350
145
  3
CTABLESTYLE
350
84
  3
DIMASSOC
350
5F
  3
HIDETEXT
350
63
  3
INDEXCTL
350
64D
  3
LIGHTINGUNITS
350
64B
  3
MSLTSCALE
350
64A
  3
PSOLHEIGHT
350
64F
  3
PSOLWIDTH
350
64E
  3
SORTENTS
350
64C
  0
XRECORD
  5
651
102
{ACAD_REACTORS
330
C
102
}
330
C
100
AcDbXrecord
280
     1
  1
DWGPROPS COOKIE
  2

  3

  4

  6

  7

  8
orhan kara
  9

300
=
301
=
302
=
303
=
304
=
305
=
306
=
307
=
308
=
309
=
 40
0.0003132175925926
 41
2458933.718618391
 42
2458956.450985811
  1

 90
        0
  0
XRECORD
  5
644
102
{ACAD_REACTORS
330
13C
102
}
330
13C
100
AcDbXrecord
280
     1
290
     1
  0
LAYOUT
  5
D3
102
{ACAD_XDICTIONARY
360
655
102
}
102
{ACAD_REACTORS
330
1A
102
}
330
1A
100
AcDbPlotSettings
  1

  2
C:\Documents and Settings\basas\Application Data\Autodesk\AutoCAD 2005\R16.1\enu\plotters\Default Windows System Printer.pc3
  4

  6

 40
0.0
 41
0.0
 42
0.0
 43
0.0
 44
0.0
 45
0.0
 46
0.0
 47
0.0
 48
0.0
 49
0.0
140
0.0
141
0.0
142
1.0
143
1.0
 70
   688
 72
     0
 73
     0
 74
     5
  7

 75
    16
147
1.0
148
0.0
149
0.0
100
AcDbLayout
  1
Layout1
 70
     1
 71
     1
 10
0.0
 20
0.0
 11
12.0
 21
9.0
 12
0.0
 22
0.0
 32
0.0
 14
0.0
 24
0.0
 34
0.0
 15
0.0
 25
0.0
 35
0.0
146
0.0
 13
0.0
 23
0.0
 33
0.0
 16
1.0
 26
0.0
 36
0.0
 17
0.0
 27
1.0
 37
0.0
 76
     0
330
D2
  0
LAYOUT
  5
D7
102
{ACAD_XDICTIONARY
360
657
102
}
102
{ACAD_REACTORS
330
1A
102
}
330
1A
100
AcDbPlotSettings
  1

  2
C:\Documents and Settings\basas\Application Data\Autodesk\AutoCAD 2005\R16.1\enu\plotters\Default Windows System Printer.pc3
  4

  6

 40
0.0
 41
0.0
 42
0.0
 43
0.0
 44
0.0
 45
0.0
 46
0.0
 47
0.0
 48
0.0
 49
0.0
140
0.0
141
0.0
142
1.0
143
1.0
 70
   688
 72
     0
 73
     0
 74
     5
  7

 75
    16
147
1.0
148
0.0
149
0.0
100
AcDbLayout
  1
Layout2
 70
     1
 71
     2
 10
0.0
 20
0.0
 11
12.0
 21
9.0
 12
0.0
 22
0.0
 32
0.0
 14
0.0
 24
0.0
 34
0.0
 15
0.0
 25
0.0
 35
0.0
146
0.0
 13
0.0
 23
0.0
 33
0.0
 16
1.0
 26
0.0
 36
0.0
 17
0.0
 27
1.0
 37
0.0
 76
     0
330
D6
  0
LAYOUT
  5
22
102
{ACAD_XDICTIONARY
360
652
102
}
102
{ACAD_REACTORS
330
1A
102
}
330
1A
100
AcDbPlotSettings
  1

  2
none_device
  4
ISO_A4_(210.00_x_297.00_MM)
  6

 40
7.5
 41
20.0
 42
7.5
 43
20.0
 44
210.0
 45
297.0
 46
11.54999923706054
 47
-13.65000009536743
 48
0.0
 49
0.0
140
0.0
141
0.0
142
1.0
143
8.704084754739808
 70
 11952
 72
     1
 73
     0
 74
     0
  7

 75
     0
147
0.1148885871608098
148
0.0
149
0.0
100
AcDbLayout
  1
Model
 70
     1
 71
     0
 10
0.0
 20
0.0
 11
12.0
 21
9.0
 12
0.0
 22
0.0
 32
0.0
 14
0.0
 24
0.0
 34
0.0
 15
0.0
 25
0.0
 35
0.0
146
0.0
 13
0.0
 23
0.0
 33
0.0
 16
1.0
 26
0.0
 36
0.0
 17
0.0
 27
1.0
 37
0.0
 76
     0
330
1F
331
EA
1001
ACAD_PSEXT
1000
None
1000
None
1000
Not applicable
1000
The layout will not be plotted unless a new plotter configuration name is selected.
1070
     0
  0
MATERIAL
  5
ED
102
{ACAD_XDICTIONARY
360
65B
102
}
102
{ACAD_REACTORS
330
6A
102
}
330
6A
100
AcDbMaterial
  1
ByBlock
  0
MATERIAL
  5
EC
102
{ACAD_XDICTIONARY
360
659
102
}
102
{ACAD_REACTORS
330
6A
102
}
330
6A
100
AcDbMaterial
  1
ByLayer
  0
MATERIAL
  5
EE
102
{ACAD_XDICTIONARY
360
173
102
}
102
{ACAD_REACTORS
330
6A
102
}
330
6A
100
AcDbMaterial
  1
Global
 43
0.0007999999797903
 43
0.0
 43
0.0
 43
0.0
 43
0.0
 43
0.0007999999797903
 43
0.0
 43
0.0
 43
0.0
 43
0.0
 43
1.0
 43
0.0
 43
0.0
 43
0.0
 43
0.0
 43
1.0
 49
0.0007999999797903
 49
0.0
 49
0.0
 49
0.0
 49
0.0
 49
0.0007999999797903
 49
0.0
 49
0.0
 49
0.0
 49
0.0
 49
1.0
 49
0.0
 49
0.0
 49
0.0
 49
0.0
 49
1.0
142
0.0007999999797903
142
0.0
142
0.0
142
0.0
142
0.0
142
0.0007999999797903
142
0.0
142
0.0
142
0.0
142
0.0
142
1.0
142
0.0
142
0.0
142
0.0
142
0.0
142
1.0
144
0.0007999999797903
144
0.0
144
0.0
144
0.0
144
0.0
144
0.0007999999797903
144
0.0
144
0.0
144
0.0
144
0.0
144
1.0
144
0.0
144
0.0
144
0.0
144
0.0
144
1.0
1001
ACAD
1070
    -1
1070
     3
1070
     0
1000

1071
        0
1070
     0
  0
MLEADERSTYLE
  5
13B
102
{ACAD_REACTORS
330
12D
102
}
330
12D
100
AcDbMLeaderStyle
170
     2
171
     1
172
     0
 90
        2
 40
0.0
 41
0.0
173
     1
 91
-1056964608
340
14
 92
       -2
290
     1
 42
2.0
291
     1
 43
8.0
  3
Standard
 44
4.0
300

342
11
174
     1
178
     1
175
     1
176
     0
 93
-1056964608
 45
4.0
292
     0
297
     0
 46
4.0
 94
-1056964608
 47
1.0
 49
1.0
140
1.0
293
     1
141
0.0
294
     1
177
     0
142
1.0
295
     0
296
     1
143
3.75
1001
ACAD_MLEADERVER
1070
     2
  0
MLEADERSTYLE
  5
12E
102
{ACAD_REACTORS
330
12D
102
}
330
12D
100
AcDbMLeaderStyle
170
     2
171
     1
172
     0
 90
        2
 40
0.0
 41
0.0
173
     1
 91
-1056964608
340
14
 92
       -2
290
     1
 42
2.0
291
     1
 43
8.0
  3
Standard
 44
4.0
300

342
11
174
     1
178
     1
175
     1
176
     0
 93
-1056964608
 45
4.0
292
     0
297
     0
 46
4.0
 94
-1056964608
 47
1.0
 49
1.0
140
1.0
293
     1
141
0.0
294
     1
177
     0
142
1.0
295
     0
296
     0
143
3.75
1001
ACAD_MLEADERVER
1070
     2
  0
MLINESTYLE
  5
18
102
{ACAD_REACTORS
330
17
102
}
330
17
100
AcDbMlineStyle
  2
STANDARD
 70
     0
  3

 62
   256
 51
90.0
 52
90.0
 71
     2
 49
0.5
 62
   256
  6
BYLAYER
 49
-0.5
 62
   256
  6
BYLAYER
  0
ACDBPLACEHOLDER
  5
F
102
{ACAD_REACTORS
330
E
102
}
330
E
  0
SCALE
  5
10D
102
{ACAD_REACTORS
330
10C
102
}
330
10C
100
AcDbScale
 70
     0
300
1:1
140
1.0
141
1.0
290
     1
  0
SCALE
  5
188
102
{ACAD_REACTORS
330
10C
102
}
330
10C
100
AcDbScale
 70
     0
300
1:2
140
1.0
141
2.0
290
     0
  0
SCALE
  5
189
102
{ACAD_REACTORS
330
10C
102
}
330
10C
100
AcDbScale
 70
     0
300
1:4
140
1.0
141
4.0
290
     0
  0
SCALE
  5
18A
102
{ACAD_REACTORS
330
10C
102
}
330
10C
100
AcDbScale
 70
     0
300
1:5
140
1.0
141
5.0
290
     0
  0
SCALE
  5
18B
102
{ACAD_REACTORS
330
10C
102
}
330
10C
100
AcDbScale
 70
     0
300
1:8
140
1.0
141
8.0
290
     0
  0
SCALE
  5
18C
102
{ACAD_REACTORS
330
10C
102
}
330
10C
100
AcDbScale
 70
     0
300
1:10
140
1.0
141
10.0
290
     0
  0
SCALE
  5
18D
102
{ACAD_REACTORS
330
10C
102
}
330
10C
100
AcDbScale
 70
     0
300
1:16
140
1.0
141
16.0
290
     0
  0
SCALE
  5
18E
102
{ACAD_REACTORS
330
10C
102
}
330
10C
100
AcDbScale
 70
     0
300
1:20
140
1.0
141
20.0
290
     0
  0
SCALE
  5
18F
102
{ACAD_REACTORS
330
10C
102
}
330
10C
100
AcDbScale
 70
     0
300
1:30
140
1.0
141
30.0
290
     0
  0
SCALE
  5
190
102
{ACAD_REACTORS
330
10C
102
}
330
10C
100
AcDbScale
 70
     0
300
1:40
140
1.0
141
40.0
290
     0
  0
SCALE
  5
191
102
{ACAD_REACTORS
330
10C
102
}
330
10C
100
AcDbScale
 70
     0
300
1:50
140
1.0
141
50.0
290
     0
  0
SCALE
  5
192
102
{ACAD_REACTORS
330
10C
102
}
330
10C
100
AcDbScale
 70
     0
300
1:100
140
1.0
141
100.0
290
     0
  0
SCALE
  5
193
102
{ACAD_REACTORS
330
10C
102
}
330
10C
100
AcDbScale
 70
     0
300
2:1
140
2.0
141
1.0
290
     0
  0
SCALE
  5
194
102
{ACAD_REACTORS
330
10C
102
}
330
10C
100
AcDbScale
 70
     0
300
4:1
140
4.0
141
1.0
290
     0
  0
SCALE
  5
195
102
{ACAD_REACTORS
330
10C
102
}
330
10C
100
AcDbScale
 70
     0
300
8:1
140
8.0
141
1.0
290
     0
  0
SCALE
  5
196
102
{ACAD_REACTORS
330
10C
102
}
330
10C
100
AcDbScale
 70
     0
300
10:1
140
10.0
141
1.0
290
     0
  0
SCALE
  5
197
102
{ACAD_REACTORS
330
10C
102
}
330
10C
100
AcDbScale
 70
     0
300
100:1
140
100.0
141
1.0
290
     0
  0
SCALE
  5
198
102
{ACAD_REACTORS
330
10C
102
}
330
10C
100
AcDbScale
 70
     0
300
1/128" = 1'-0"
140
0.0078125
141
12.0
290
     0
  0
SCALE
  5
199
102
{ACAD_REACTORS
330
10C
102
}
330
10C
100
AcDbScale
 70
     0
300
1/64" = 1'-0"
140
0.015625
141
12.0
290
     0
  0
SCALE
  5
19A
102
{ACAD_REACTORS
330
10C
102
}
330
10C
100
AcDbScale
 70
     0
300
1/32" = 1'-0"
140
0.03125
141
12.0
290
     0
  0
SCALE
  5
19B
102
{ACAD_REACTORS
330
10C
102
}
330
10C
100
AcDbScale
 70
     0
300
1/16" = 1'-0"
140
0.0625
141
12.0
290
     0
  0
SCALE
  5
19C
102
{ACAD_REACTORS
330
10C
102
}
330
10C
100
AcDbScale
 70
     0
300
3/32" = 1'-0"
140
0.09375
141
12.0
290
     0
  0
SCALE
  5
19D
102
{ACAD_REACTORS
330
10C
102
}
330
10C
100
AcDbScale
 70
     0
300
1/8" = 1'-0"
140
0.125
141
12.0
290
     0
  0
SCALE
  5
19E
102
{ACAD_REACTORS
330
10C
102
}
330
10C
100
AcDbScale
 70
     0
300
3/16" = 1'-0"
140
0.1875
141
12.0
290
     0
  0
SCALE
  5
19F
102
{ACAD_REACTORS
330
10C
102
}
330
10C
100
AcDbScale
 70
     0
300
1/4" = 1'-0"
140
0.25
141
12.0
290
     0
  0
SCALE
  5
1A0
102
{ACAD_REACTORS
330
10C
102
}
330
10C
100
AcDbScale
 70
     0
300
3/8" = 1'-0"
140
0.375
141
12.0
290
     0
  0
SCALE
  5
1A1
102
{ACAD_REACTORS
330
10C
102
}
330
10C
100
AcDbScale
 70
     0
300
1/2" = 1'-0"
140
0.5
141
12.0
290
     0
  0
SCALE
  5
1A2
102
{ACAD_REACTORS
330
10C
102
}
330
10C
100
AcDbScale
 70
     0
300
3/4" = 1'-0"
140
0.75
141
12.0
290
     0
  0
SCALE
  5
1A3
102
{ACAD_REACTORS
330
10C
102
}
330
10C
100
AcDbScale
 70
     0
300
1" = 1'-0"
140
1.0
141
12.0
290
     0
  0
SCALE
  5
1A4
102
{ACAD_REACTORS
330
10C
102
}
330
10C
100
AcDbScale
 70
     0
300
1-1/2" = 1'-0"
140
1.5
141
12.0
290
     0
  0
SCALE
  5
1A5
102
{ACAD_REACTORS
330
10C
102
}
330
10C
100
AcDbScale
 70
     0
300
3" = 1'-0"
140
3.0
141
12.0
290
     0
  0
SCALE
  5
1A6
102
{ACAD_REACTORS
330
10C
102
}
330
10C
100
AcDbScale
 70
     0
300
6" = 1'-0"
140
6.0
141
12.0
290
     0
  0
SCALE
  5
1A7
102
{ACAD_REACTORS
330
10C
102
}
330
10C
100
AcDbScale
 70
     0
300
1'-0" = 1'-0"
140
12.0
141
12.0
290
     0
  0
TABLESTYLE
  5
7F
102
{ACAD_XDICTIONARY
360
162
102
}
102
{ACAD_REACTORS
330
7E
102
}
330
7E
100
AcDbTableStyle
  3
Standard
 70
     0
 71
     0
 40
1.5
 41
1.5
280
     0
281
     0
  7
Standard
140
4.5
170
     2
 62
     0
 63
     7
283
     0
274
    -2
284
     1
 64
     0
275
    -2
285
     1
 65
     0
276
    -2
286
     1
 66
     0
277
    -2
287
     1
 67
     0
278
    -2
288
     1
 68
     0
279
    -2
289
     1
 69
     0
  7
Standard
140
6.0
170
     5
 62
     0
 63
     7
283
     0
274
    -2
284
     1
 64
     0
275
    -2
285
     1
 65
     0
276
    -2
286
     1
 66
     0
277
    -2
287
     1
 67
     0
278
    -2
288
     1
 68
     0
279
    -2
289
     1
 69
     0
  7
Standard
140
4.5
170
     5
 62
     0
 63
     7
283
     0
274
    -2
284
     1
 64
     0
275
    -2
285
     1
 65
     0
276
    -2
286
     1
 66
     0
277
    -2
287
     1
 67
     0
278
    -2
288
     1
 68
     0
279
    -2
289
     1
 69
     0
  0
VISUALSTYLE
  5
F5
102
{ACAD_REACTORS
330
EF
102
}
330
EF
100
AcDbVisualStyle
  2
2dWireframe
 70
     4
 71
     0
 72
     2
 73
     1
 90
        0
 40
-0.6
 41
-30.0
 62
     5
 63
     7
 74
     1
 91
        4
 64
     7
 65
   257
 75
     1
175
     1
 42
1.0
 92
        0
 66
   257
 43
1.0
 76
     1
 77
     6
 78
     2
 67
     7
 79
     5
170
     0
171
     0
290
     0
174
     0
 93
        1
 44
0.0
173
     0
291
     0
 45
0.0
1001
ACAD
1000
AcDbSavedByObjectVersion
1070
     0
  0
VISUALSTYLE
  5
F7
102
{ACAD_REACTORS
330
EF
102
}
330
EF
100
AcDbVisualStyle
  2
3D Hidden
 70
     6
 71
     1
 72
     2
 73
     2
 90
        0
 40
-0.6
 41
-30.0
 62
     5
 63
     7
 74
     2
 91
        2
 64
     7
 65
   257
 75
     2
175
     1
 42
40.0
 92
        0
 66
   257
 43
1.0
 76
     1
 77
     6
 78
     2
 67
     7
 79
     3
170
     0
171
     0
290
     0
174
     0
 93
        1
 44
0.0
173
     0
291
     0
 45
0.0
1001
ACAD
1000
AcDbSavedByObjectVersion
1070
     0
  0
VISUALSTYLE
  5
F6
102
{ACAD_REACTORS
330
EF
102
}
330
EF
100
AcDbVisualStyle
  2
3dWireframe
 70
     5
 71
     0
 72
     2
 73
     1
 90
        0
 40
-0.6
 41
-30.0
 62
     5
 63
     7
 74
     1
 91
        4
 64
     7
 65
   257
 75
     1
175
     1
 42
1.0
 92
        0
 66
   257
 43
1.0
 76
     1
 77
     6
 78
     2
 67
     7
 79
     5
170
     0
171
     0
290
     0
174
     0
 93
        1
 44
0.0
173
     0
291
     0
 45
0.0
1001
ACAD
1000
AcDbSavedByObjectVersion
1070
     0
  0
VISUALSTYLE
  5
F4
102
{ACAD_REACTORS
330
EF
102
}
330
EF
100
AcDbVisualStyle
  2
Basic
 70
     7
 71
     1
 72
     0
 73
     1
 90
        0
 40
-0.6
 41
-30.0
 62
     5
 63
     7
 74
     0
 91
        4
 64
     7
 65
   257
 75
     1
175
     1
 42
1.0
 92
        8
 66
     7
 43
1.0
 76
     1
 77
     6
 78
     2
 67
     7
 79
     5
170
     0
171
     0
290
     0
174
     0
 93
        1
 44
0.0
173
     0
291
     1
 45
0.0
1001
ACAD
1000
AcDbSavedByObjectVersion
1070
     0
  0
VISUALSTYLE
  5
FB
102
{ACAD_REACTORS
330
EF
102
}
330
EF
100
AcDbVisualStyle
  2
Brighten
 70
    12
 71
     2
 72
     2
 73
     1
 90
        0
 40
-0.6
 41
-30.0
 62
     5
 63
     7
 74
     1
 91
        4
 64
     7
 65
   257
 75
     1
175
     1
 42
1.0
 92
        8
 66
     7
 43
1.0
 76
     1
 77
     6
 78
     2
 67
     7
 79
     5
170
     0
171
     0
290
     0
174
     0
 93
        1
 44
50.0
173
     0
291
     1
 45
0.0
1001
ACAD
1000
AcDbSavedByObjectVersion
1070
     0
  0
VISUALSTYLE
  5
FF
102
{ACAD_REACTORS
330
EF
102
}
330
EF
100
AcDbVisualStyle
  2
ColorChange
 70
    16
 71
     2
 72
     2
 73
     3
 90
        0
 40
-0.6
 41
-30.0
 62
     5
 63
     8
 74
     1
 91
        4
 64
     7
 65
   257
 75
     1
175
     1
 42
1.0
 92
        8
 66
     8
 43
1.0
 76
     1
 77
     6
 78
     2
 67
     7
 79
     5
170
     0
171
     0
290
     0
174
     0
 93
        1
 44
0.0
173
     0
291
     1
 45
0.0
1001
ACAD
1000
AcDbSavedByObjectVersion
1070
     0
  0
VISUALSTYLE
  5
F8
102
{ACAD_REACTORS
330
EF
102
}
330
EF
100
AcDbVisualStyle
  2
Conceptual
 70
     9
 71
     3
 72
     2
 73
     1
 90
        0
 40
-0.6
 41
-30.0
 62
     5
 63
     7
 74
     2
 91
        2
 64
     7
 65
   257
 75
     1
175
     1
 42
40.0
 92
        8
 66
     7
 43
1.0
 76
     1
 77
     6
 78
     2
 67
     7
 79
     3
170
     0
171
     0
290
     0
174
     0
 93
        1
 44
0.0
173
     0
291
     0
 45
0.0
1001
ACAD
1000
AcDbSavedByObjectVersion
1070
     0
  0
VISUALSTYLE
  5
FA
102
{ACAD_REACTORS
330
EF
102
}
330
EF
100
AcDbVisualStyle
  2
Dim
 70
    11
 71
     2
 72
     2
 73
     1
 90
        0
 40
-0.6
 41
-30.0
 62
     5
 63
     7
 74
     1
 91
        4
 64
     7
 65
   257
 75
     1
175
     1
 42
1.0
 92
        8
 66
     7
 43
1.0
 76
     1
 77
     6
 78
     2
 67
     7
 79
     5
170
     0
171
     0
290
     0
174
     0
 93
        1
 44
-50.0
173
     0
291
     1
 45
0.0
1001
ACAD
1000
AcDbSavedByObjectVersion
1070
     0
  0
VISUALSTYLE
  5
FE
102
{ACAD_REACTORS
330
EF
102
}
330
EF
100
AcDbVisualStyle
  2
Facepattern
 70
    15
 71
     2
 72
     2
 73
     1
 90
        0
 40
-0.6
 41
-30.0
 62
     5
 63
     7
 74
     1
 91
        4
 64
     7
 65
   257
 75
     1
175
     1
 42
1.0
 92
        8
 66
     7
 43
1.0
 76
     1
 77
     6
 78
     2
 67
     7
 79
     5
170
     0
171
     0
290
     0
174
     0
 93
        1
 44
0.0
173
     0
291
     1
 45
0.0
1001
ACAD
1000
AcDbSavedByObjectVersion
1070
     0
  0
VISUALSTYLE
  5
F0
102
{ACAD_REACTORS
330
EF
102
}
330
EF
100
AcDbVisualStyle
  2
Flat
 70
     0
 71
     2
 72
     1
 73
     1
 90
        2
 40
-0.6
 41
30.0
 62
     5
 63
     7
 74
     0
 91
        4
 64
     7
 65
   257
 75
     1
175
     1
 42
1.0
 92
        8
 66
     7
 43
1.0
 76
     1
 77
     6
 78
     2
 67
     7
 79
     5
170
     0
171
     0
290
     0
174
     0
 93
        1
 44
0.0
173
     0
291
     1
 45
0.0
1001
ACAD
1000
AcDbSavedByObjectVersion
1070
     0
  0
VISUALSTYLE
  5
F1
102
{ACAD_REACTORS
330
EF
102
}
330
EF
100
AcDbVisualStyle
  2
FlatWithEdges
 70
     1
 71
     2
 72
     1
 73
     1
 90
        2
 40
-0.6
 41
30.0
 62
     5
 63
     7
 74
     1
 91
        4
 64
     7
 65
   257
 75
     1
175
     1
 42
1.0
 92
        0
 66
   257
 43
1.0
 76
     1
 77
     6
 78
     2
 67
     7
 79
     5
170
     0
171
     0
290
     0
174
     0
 93
        1
 44
0.0
173
     0
291
     1
 45
0.0
1001
ACAD
1000
AcDbSavedByObjectVersion
1070
     0
  0
VISUALSTYLE
  5
F2
102
{ACAD_REACTORS
330
EF
102
}
330
EF
100
AcDbVisualStyle
  2
Gouraud
 70
     2
 71
     2
 72
     2
 73
     1
 90
        2
 40
-0.6
 41
30.0
 62
     5
 63
     7
 74
     0
 91
        4
 64
     7
 65
   257
 75
     1
175
     1
 42
1.0
 92
        0
 66
     7
 43
1.0
 76
     1
 77
     6
 78
     2
 67
     7
 79
     5
170
     0
171
     0
290
     0
174
     0
 93
        1
 44
0.0
173
     0
291
     1
 45
0.0
1001
ACAD
1000
AcDbSavedByObjectVersion
1070
     0
  0
VISUALSTYLE
  5
F3
102
{ACAD_REACTORS
330
EF
102
}
330
EF
100
AcDbVisualStyle
  2
GouraudWithEdges
 70
     3
 71
     2
 72
     2
 73
     1
 90
        2
 40
-0.6
 41
30.0
 62
     5
 63
     7
 74
     1
 91
        4
 64
     7
 65
   257
 75
     1
175
     1
 42
1.0
 92
        0
 66
   257
 43
1.0
 76
     1
 77
     6
 78
     2
 67
     7
 79
     5
170
     0
171
     0
290
     0
174
     0
 93
        1
 44
0.0
173
     0
291
     1
 45
0.0
1001
ACAD
1000
AcDbSavedByObjectVersion
1070
     0
  0
VISUALSTYLE
  5
FD
102
{ACAD_REACTORS
330
EF
102
}
330
EF
100
AcDbVisualStyle
  2
Linepattern
 70
    14
 71
     2
 72
     2
 73
     1
 90
        0
 40
-0.6
 41
-30.0
 62
     5
 63
     7
 74
     1
 91
        4
 64
     7
 65
   257
 75
     7
175
     7
 42
1.0
 92
        8
 66
     7
 43
1.0
 76
     1
 77
     6
 78
     2
 67
     7
 79
     5
170
     0
171
     0
290
     0
174
     0
 93
        1
 44
0.0
173
     0
291
     1
 45
0.0
1001
ACAD
1000
AcDbSavedByObjectVersion
1070
     0
  0
VISUALSTYLE
  5
F9
102
{ACAD_REACTORS
330
EF
102
}
330
EF
100
AcDbVisualStyle
  2
Realistic
 70
     8
 71
     2
 72
     2
 73
     1
 90
        0
 40
-0.6
 41
-30.0
 62
     5
 63
     7
 74
     1
 91
        0
 64
     7
 65
   257
 75
     1
175
     1
 42
1.0
 92
        8
 66
     8
 43
1.0
 76
     1
 77
     6
 78
     2
 67
     7
 79
     5
170
     0
171
     0
290
     0
174
     0
 93
       13
 44
0.0
173
     0
291
     0
 45
0.0
1001
ACAD
1000
AcDbSavedByObjectVersion
1070
     0
  0
VISUALSTYLE
  5
FC
102
{ACAD_REACTORS
330
EF
102
}
330
EF
100
AcDbVisualStyle
  2
Thicken
 70
    13
 71
     2
 72
     2
 73
     1
 90
        0
 40
-0.6
 41
-30.0
 62
     5
 63
     7
 74
     1
 91
        4
 64
     7
 65
   257
 75
     1
175
     1
 42
1.0
 92
       12
 66
     7
 43
1.0
 76
     1
 77
     6
 78
     2
 67
     7
 79
     5
170
     0
171
     0
290
     0
174
     0
 93
        1
 44
0.0
173
     0
291
     1
 45
0.0
1001
ACAD
1000
AcDbSavedByObjectVersion
1070
     0
  0
DICTIONARYVAR
  5
146
102
{ACAD_REACTORS
330
5E
102
}
330
5E
100
DictionaryVariables
280
     0
  1
1:1
  0
DICTIONARYVAR
  5
145
102
{ACAD_REACTORS
330
5E
102
}
330
5E
100
DictionaryVariables
280
     0
  1
STANDARD
  0
DICTIONARYVAR
  5
84
102
{ACAD_REACTORS
330
5E
102
}
330
5E
100
DictionaryVariables
280
     0
  1
STANDARD
  0
DICTIONARYVAR
  5
5F
102
{ACAD_REACTORS
330
5E
102
}
330
5E
100
DictionaryVariables
280
     0
  1
2
  0
DICTIONARYVAR
  5
63
102
{ACAD_REACTORS
330
5E
102
}
330
5E
100
DictionaryVariables
280
     0
  1
1
  0
DICTIONARYVAR
  5
64D
102
{ACAD_REACTORS
330
5E
102
}
330
5E
100
DictionaryVariables
280
     0
  1
0
  0
DICTIONARYVAR
  5
64B
102
{ACAD_REACTORS
330
5E
102
}
330
5E
100
DictionaryVariables
280
     0
  1
2
  0
DICTIONARYVAR
  5
64A
102
{ACAD_REACTORS
330
5E
102
}
330
5E
100
DictionaryVariables
280
     0
  1
1
  0
DICTIONARYVAR
  5
64F
102
{ACAD_REACTORS
330
5E
102
}
330
5E
100
DictionaryVariables
280
     0
  1
80.000000
  0
DICTIONARYVAR
  5
64E
102
{ACAD_REACTORS
330
5E
102
}
330
5E
100
DictionaryVariables
280
     0
  1
5.000000
  0
DICTIONARYVAR
  5
64C
102
{ACAD_REACTORS
330
5E
102
}
330
5E
100
DictionaryVariables
280
     0
  1
127
  0
DICTIONARY
  5
655
330
D3
100
AcDbDictionary
280
     1
281
     1
  3
ACAD_XREC_ROUNDTRIP
360
656
  0
DICTIONARY
  5
657
330
D7
100
AcDbDictionary
280
     1
281
     1
  3
ACAD_XREC_ROUNDTRIP
360
658
  0
DICTIONARY
  5
652
330
22
100
AcDbDictionary
280
     1
281
     1
  3
ACAD_XREC_ROUNDTRIP
360
653
  0
DICTIONARY
  5
65B
330
ED
100
AcDbDictionary
280
     1
281
     1
  3
ACAD_XREC_ROUNDTRIP
360
65C
  0
DICTIONARY
  5
659
330
EC
100
AcDbDictionary
280
     1
281
     1
  3
ACAD_XREC_ROUNDTRIP
360
65A
  0
DICTIONARY
  5
173
330
EE
100
AcDbDictionary
280
     1
281
     1
  3
ACAD_XREC_ROUNDTRIP
360
65D
  3
BUMPTILE
360
175
  3
DIFFUSETILE
360
174
  3
OPACITYTILE
360
176
  3
REFLECTIONTILE
360
177
  0
DICTIONARY
  5
162
330
7F
100
AcDbDictionary
280
     1
281
     1
  3
ACAD_ROUNDTRIP_2008_TABLESTYLE_CELLSTYLEMAP
360
650
  3
ACAD_XREC_ROUNDTRIP
360
654
  0
XRECORD
  5
656
102
{ACAD_REACTORS
330
655
102
}
330
655
100
AcDbXrecord
280
     1
102
SHADEPLOT
 70
     0
102
SHADEPLOTRESLEVEL
 70
     2
102
SHADEPLOTCUSTOMDPI
 70
   300
  0
XRECORD
  5
658
102
{ACAD_REACTORS
330
657
102
}
330
657
100
AcDbXrecord
280
     1
102
SHADEPLOT
 70
     0
102
SHADEPLOTRESLEVEL
 70
     2
102
SHADEPLOTCUSTOMDPI
 70
   300
  0
XRECORD
  5
653
102
{ACAD_REACTORS
330
652
102
}
330
652
100
AcDbXrecord
280
     1
102
SHADEPLOT
 70
     0
102
SHADEPLOTRESLEVEL
 70
     2
102
SHADEPLOTCUSTOMDPI
 70
   300
  0
XRECORD
  5
65C
102
{ACAD_REACTORS
330
65B
102
}
330
65B
100
AcDbXrecord
280
     1
102
MATERIAL
148
0.0
149
0.0
149
0.0
 93
        0
 94
       63
282
     0
 72
     1
 77
     1
171
     1
175
     1
179
     1
273
     0
  0
XRECORD
  5
65A
102
{ACAD_REACTORS
330
659
102
}
330
659
100
AcDbXrecord
280
     1
102
MATERIAL
148
0.0
149
0.0
149
0.0
 93
        0
 94
       63
282
     0
 72
     1
 77
     1
171
     1
175
     1
179
     1
273
     0
  0
XRECORD
  5
65D
102
{ACAD_REACTORS
330
173
102
}
330
173
100
AcDbXrecord
280
     1
102
MATERIAL
148
0.0
149
0.0
149
0.0
 93
        0
 94
       63
282
     0
 72
     1
 77
     1
171
     1
175
     1
179
     1
273
     0
  0
XRECORD
  5
175
102
{ACAD_REACTORS
330
173
102
}
330
173
100
AcDbXrecord
280
     1
270
     1
271
     1
  0
XRECORD
  5
174
102
{ACAD_REACTORS
330
173
102
}
330
173
100
AcDbXrecord
280
     1
270
     1
271
     1
  0
XRECORD
  5
176
102
{ACAD_REACTORS
330
173
102
}
330
173
100
AcDbXrecord
280
     1
270
     1
271
     1
  0
XRECORD
  5
177
102
{ACAD_REACTORS
330
173
102
}
330
173
100
AcDbXrecord
280
     1
270
     1
271
     1
  0
CELLSTYLEMAP
  5
650
102
{ACAD_REACTORS
330
162
102
}
330
162
100
AcDbCellStyleMap
 90
        3
300
CELLSTYLE
  1
TABLEFORMAT_BEGIN
 90
        5
170
     1
 91
        0
 92
    32768
 62
   257
 93
        1
300
CONTENTFORMAT
  1
CONTENTFORMAT_BEGIN
 90
        0
 91
        0
 92
      512
 93
        0
300

 40
0.0
140
1.0
 94
        5
 62
     0
340
11
144
6.0
309
CONTENTFORMAT_END
171
     1
301
MARGIN
  1
CELLMARGIN_BEGIN
 40
1.5
 40
1.5
 40
1.5
 40
1.5
 40
4.5
 40
4.5
309
CELLMARGIN_END
 94
        6
 95
        1
302
GRIDFORMAT
  1
GRIDFORMAT_BEGIN
 90
        0
 91
        1
 62
     0
 92
       -2
340
14
 93
        0
 40
1.125
309
GRIDFORMAT_END
 95
        2
302
GRIDFORMAT
  1
GRIDFORMAT_BEGIN
 90
        0
 91
        1
 62
     0
 92
       -2
340
14
 93
        0
 40
1.125
309
GRIDFORMAT_END
 95
        4
302
GRIDFORMAT
  1
GRIDFORMAT_BEGIN
 90
        0
 91
        1
 62
     0
 92
       -2
340
14
 93
        0
 40
1.125
309
GRIDFORMAT_END
 95
        8
302
GRIDFORMAT
  1
GRIDFORMAT_BEGIN
 90
        0
 91
        1
 62
     0
 92
       -2
340
14
 93
        0
 40
1.125
309
GRIDFORMAT_END
 95
       16
302
GRIDFORMAT
  1
GRIDFORMAT_BEGIN
 90
        0
 91
        1
 62
     0
 92
       -2
340
14
 93
        0
 40
1.125
309
GRIDFORMAT_END
 95
       32
302
GRIDFORMAT
  1
GRIDFORMAT_BEGIN
 90
        0
 91
        1
 62
     0
 92
       -2
340
14
 93
        0
 40
1.125
309
GRIDFORMAT_END
309
TABLEFORMAT_END
  1
CELLSTYLE_BEGIN
 90
        1
 91
        1
300
_TITLE
309
CELLSTYLE_END
300
CELLSTYLE
  1
TABLEFORMAT_BEGIN
 90
        5
170
     1
 91
        0
 92
        0
 62
   257
 93
        1
300
CONTENTFORMAT
  1
CONTENTFORMAT_BEGIN
 90
        0
 91
        0
 92
      512
 93
        0
300

 40
0.0
140
1.0
 94
        5
 62
     0
340
11
144
4.5
309
CONTENTFORMAT_END
171
     1
301
MARGIN
  1
CELLMARGIN_BEGIN
 40
1.5
 40
1.5
 40
1.5
 40
1.5
 40
4.5
 40
4.5
309
CELLMARGIN_END
 94
        6
 95
        1
302
GRIDFORMAT
  1
GRIDFORMAT_BEGIN
 90
        0
 91
        1
 62
     0
 92
       -2
340
14
 93
        0
 40
1.125
309
GRIDFORMAT_END
 95
        2
302
GRIDFORMAT
  1
GRIDFORMAT_BEGIN
 90
        0
 91
        1
 62
     0
 92
       -2
340
14
 93
        0
 40
1.125
309
GRIDFORMAT_END
 95
        4
302
GRIDFORMAT
  1
GRIDFORMAT_BEGIN
 90
        0
 91
        1
 62
     0
 92
       -2
340
14
 93
        0
 40
1.125
309
GRIDFORMAT_END
 95
        8
302
GRIDFORMAT
  1
GRIDFORMAT_BEGIN
 90
        0
 91
        1
 62
     0
 92
       -2
340
14
 93
        0
 40
1.125
309
GRIDFORMAT_END
 95
       16
302
GRIDFORMAT
  1
GRIDFORMAT_BEGIN
 90
        0
 91
        1
 62
     0
 92
       -2
340
14
 93
        0
 40
1.125
309
GRIDFORMAT_END
 95
       32
302
GRIDFORMAT
  1
GRIDFORMAT_BEGIN
 90
        0
 91
        1
 62
     0
 92
       -2
340
14
 93
        0
 40
1.125
309
GRIDFORMAT_END
309
TABLEFORMAT_END
  1
CELLSTYLE_BEGIN
 90
        2
 91
        1
300
_HEADER
309
CELLSTYLE_END
300
CELLSTYLE
  1
TABLEFORMAT_BEGIN
 90
        5
170
     1
 91
        0
 92
        0
 62
   257
 93
        1
300
CONTENTFORMAT
  1
CONTENTFORMAT_BEGIN
 90
        0
 91
        0
 92
      512
 93
        0
300

 40
0.0
140
1.0
 94
        2
 62
     0
340
11
144
4.5
309
CONTENTFORMAT_END
171
     1
301
MARGIN
  1
CELLMARGIN_BEGIN
 40
1.5
 40
1.5
 40
1.5
 40
1.5
 40
4.5
 40
4.5
309
CELLMARGIN_END
 94
        6
 95
        1
302
GRIDFORMAT
  1
GRIDFORMAT_BEGIN
 90
        0
 91
        1
 62
     0
 92
       -2
340
14
 93
        0
 40
1.125
309
GRIDFORMAT_END
 95
        2
302
GRIDFORMAT
  1
GRIDFORMAT_BEGIN
 90
        0
 91
        1
 62
     0
 92
       -2
340
14
 93
        0
 40
1.125
309
GRIDFORMAT_END
 95
        4
302
GRIDFORMAT
  1
GRIDFORMAT_BEGIN
 90
        0
 91
        1
 62
     0
 92
       -2
340
14
 93
        0
 40
1.125
309
GRIDFORMAT_END
 95
        8
302
GRIDFORMAT
  1
GRIDFORMAT_BEGIN
 90
        0
 91
        1
 62
     0
 92
       -2
340
14
 93
        0
 40
1.125
309
GRIDFORMAT_END
 95
       16
302
GRIDFORMAT
  1
GRIDFORMAT_BEGIN
 90
        0
 91
        1
 62
     0
 92
       -2
340
14
 93
        0
 40
1.125
309
GRIDFORMAT_END
 95
       32
302
GRIDFORMAT
  1
GRIDFORMAT_BEGIN
 90
        0
 91
        1
 62
     0
 92
       -2
340
14
 93
        0
 40
1.125
309
GRIDFORMAT_END
309
TABLEFORMAT_END
  1
CELLSTYLE_BEGIN
 90
        3
 91
        2
300
_DATA
309
CELLSTYLE_END
  0
XRECORD
  5
654
102
{ACAD_REACTORS
330
162
102
}
330
162
100
AcDbXrecord
280
     1
102
ACAD_ROUNDTRIP_PRE2007_TABLESTYLE
 90
      512
 91
        0
  1

 92
      512
 93
        0
  2

 94
      512
 95
        0
  3

  0
ENDSEC
  0
EOF
