  0
SECTION
  2
HEADER
  9
$ACADVER
  1
AC1015
  9
$ACADMAINTVER
 70
    20
  9
$DWGCODEPAGE
  3
ANSI_1254
  9
$INSBASE
 10
0.0
 20
0.0
 30
0.0
  9
$EXTMIN
 10
2051.678247409595
 20
873.793569957488
 30
0.0
  9
$EXTMAX
 10
2120.726465190349
 20
922.3691438793665
 30
0.0
  9
$LIMMIN
 10
0.0
 20
0.0
  9
$LIMMAX
 10
420.0
 20
297.0
  9
$ORTHOMODE
 70
     0
  9
$REGENMODE
 70
     1
  9
$FILLMODE
 70
     1
  9
$QTEXTMODE
 70
     0
  9
$MIRRTEXT
 70
     0
  9
$LTSCALE
 40
1.0
  9
$ATTMODE
 70
     1
  9
$TEXTSIZE
 40
2.5
  9
$TRACEWID
 40
1.0
  9
$TEXTSTYLE
  7
Standard
  9
$CLAYER
  8
0
  9
$CELTYPE
  6
ByLayer
  9
$CECOLOR
 62
   256
  9
$CELTSCALE
 40
1.0
  9
$DISPSILH
 70
     0
  9
$DIMSCALE
 40
1.0
  9
$DIMASZ
 40
2.5
  9
$DIMEXO
 40
0.625
  9
$DIMDLI
 40
3.75
  9
$DIMRND
 40
0.0
  9
$DIMDLE
 40
0.0
  9
$DIMEXE
 40
1.25
  9
$DIMTP
 40
0.0
  9
$DIMTM
 40
0.0
  9
$DIMTXT
 40
2.5
  9
$DIMCEN
 40
2.5
  9
$DIMTSZ
 40
0.0
  9
$DIMTOL
 70
     0
  9
$DIMLIM
 70
     0
  9
$DIMTIH
 70
     0
  9
$DIMTOH
 70
     0
  9
$DIMSE1
 70
     0
  9
$DIMSE2
 70
     0
  9
$DIMTAD
 70
     1
  9
$DIMZIN
 70
     8
  9
$DIMBLK
  1

  9
$DIMASO
 70
     1
  9
$DIMSHO
 70
     1
  9
$DIMPOST
  1

  9
$DIMAPOST
  1

  9
$DIMALT
 70
     0
  9
$DIMALTD
 70
     3
  9
$DIMALTF
 40
0.03937007874016
  9
$DIMLFAC
 40
1.0
  9
$DIMTOFL
 70
     1
  9
$DIMTVP
 40
0.0
  9
$DIMTIX
 70
     0
  9
$DIMSOXD
 70
     0
  9
$DIMSAH
 70
     0
  9
$DIMBLK1
  1

  9
$DIMBLK2
  1

  9
$DIMSTYLE
  2
ISO-25
  9
$DIMCLRD
 70
     0
  9
$DIMCLRE
 70
     0
  9
$DIMCLRT
 70
     0
  9
$DIMTFAC
 40
1.0
  9
$DIMGAP
 40
0.625
  9
$DIMJUST
 70
     0
  9
$DIMSD1
 70
     0
  9
$DIMSD2
 70
     0
  9
$DIMTOLJ
 70
     0
  9
$DIMTZIN
 70
     8
  9
$DIMALTZ
 70
     0
  9
$DIMALTTZ
 70
     0
  9
$DIMUPT
 70
     0
  9
$DIMDEC
 70
     2
  9
$DIMTDEC
 70
     2
  9
$DIMALTU
 70
     2
  9
$DIMALTTD
 70
     3
  9
$DIMTXSTY
  7
Standard
  9
$DIMAUNIT
 70
     0
  9
$DIMADEC
 70
     0
  9
$DIMALTRND
 40
0.0
  9
$DIMAZIN
 70
     0
  9
$DIMDSEP
 70
    44
  9
$DIMATFIT
 70
     3
  9
$DIMFRAC
 70
     0
  9
$DIMLDRBLK
  1

  9
$DIMLUNIT
 70
     2
  9
$DIMLWD
 70
    -2
  9
$DIMLWE
 70
    -2
  9
$DIMTMOVE
 70
     0
  9
$LUNITS
 70
     2
  9
$LUPREC
 70
     4
  9
$SKETCHINC
 40
1.0
  9
$FILLETRAD
 40
0.0
  9
$AUNITS
 70
     0
  9
$AUPREC
 70
     0
  9
$MENU
  1
.
  9
$ELEVATION
 40
0.0
  9
$PELEVATION
 40
0.0
  9
$THICKNESS
 40
0.0
  9
$LIMCHECK
 70
     0
  9
$CHAMFERA
 40
0.0
  9
$CHAMFERB
 40
0.0
  9
$CHAMFERC
 40
0.0
  9
$CHAMFERD
 40
0.0
  9
$SKPOLY
 70
     0
  9
$TDCREATE
 40
2458933.715692928
  9
$TDUCREATE
 40
2458933.590692928
  9
$TDUPDATE
 40
2458956.450791018
  9
$TDUUPDATE
 40
2458956.325791019
  9
$TDINDWG
 40
0.0009882755
  9
$TDUSRTIMER
 40
0.0009880903
  9
$USRTIMER
 70
     1
  9
$ANGBASE
 50
0.0
  9
$ANGDIR
 70
     0
  9
$PDMODE
 70
     0
  9
$PDSIZE
 40
0.0
  9
$PLINEWID
 40
0.0
  9
$SPLFRAME
 70
     0
  9
$SPLINETYPE
 70
     6
  9
$SPLINESEGS
 70
     8
  9
$HANDSEED
  5
532
  9
$SURFTAB1
 70
     6
  9
$SURFTAB2
 70
     6
  9
$SURFTYPE
 70
     6
  9
$SURFU
 70
     6
  9
$SURFV
 70
     6
  9
$UCSBASE
  2

  9
$UCSNAME
  2

  9
$UCSORG
 10
0.0
 20
0.0
 30
0.0
  9
$UCSXDIR
 10
1.0
 20
0.0
 30
0.0
  9
$UCSYDIR
 10
0.0
 20
1.0
 30
0.0
  9
$UCSORTHOREF
  2

  9
$UCSORTHOVIEW
 70
     0
  9
$UCSORGTOP
 10
0.0
 20
0.0
 30
0.0
  9
$UCSORGBOTTOM
 10
0.0
 20
0.0
 30
0.0
  9
$UCSORGLEFT
 10
0.0
 20
0.0
 30
0.0
  9
$UCSORGRIGHT
 10
0.0
 20
0.0
 30
0.0
  9
$UCSORGFRONT
 10
0.0
 20
0.0
 30
0.0
  9
$UCSORGBACK
 10
0.0
 20
0.0
 30
0.0
  9
$PUCSBASE
  2

  9
$PUCSNAME
  2

  9
$PUCSORG
 10
0.0
 20
0.0
 30
0.0
  9
$PUCSXDIR
 10
1.0
 20
0.0
 30
0.0
  9
$PUCSYDIR
 10
0.0
 20
1.0
 30
0.0
  9
$PUCSORTHOREF
  2

  9
$PUCSORTHOVIEW
 70
     0
  9
$PUCSORGTOP
 10
0.0
 20
0.0
 30
0.0
  9
$PUCSORGBOTTOM
 10
0.0
 20
0.0
 30
0.0
  9
$PUCSORGLEFT
 10
0.0
 20
0.0
 30
0.0
  9
$PUCSORGRIGHT
 10
0.0
 20
0.0
 30
0.0
  9
$PUCSORGFRONT
 10
0.0
 20
0.0
 30
0.0
  9
$PUCSORGBACK
 10
0.0
 20
0.0
 30
0.0
  9
$USERI1
 70
     0
  9
$USERI2
 70
     0
  9
$USERI3
 70
     0
  9
$USERI4
 70
     0
  9
$USERI5
 70
     0
  9
$USERR1
 40
0.0
  9
$USERR2
 40
0.0
  9
$USERR3
 40
0.0
  9
$USERR4
 40
0.0
  9
$USERR5
 40
0.0
  9
$WORLDVIEW
 70
     1
  9
$SHADEDGE
 70
     3
  9
$SHADEDIF
 70
    70
  9
$TILEMODE
 70
     1
  9
$MAXACTVP
 70
    64
  9
$PINSBASE
 10
0.0
 20
0.0
 30
0.0
  9
$PLIMCHECK
 70
     0
  9
$PEXTMIN
 10
0.0
 20
0.0
 30
0.0
  9
$PEXTMAX
 10
0.0
 20
0.0
 30
0.0
  9
$PLIMMIN
 10
0.0
 20
0.0
  9
$PLIMMAX
 10
12.0
 20
9.0
  9
$UNITMODE
 70
     0
  9
$VISRETAIN
 70
     1
  9
$PLINEGEN
 70
     0
  9
$PSLTSCALE
 70
     1
  9
$TREEDEPTH
 70
  3020
  9
$CMLSTYLE
  2
Standard
  9
$CMLJUST
 70
     0
  9
$CMLSCALE
 40
20.0
  9
$PROXYGRAPHICS
 70
     1
  9
$MEASUREMENT
 70
     1
  9
$CELWEIGHT
370
    -1
  9
$ENDCAPS
280
     0
  9
$JOINSTYLE
280
     0
  9
$LWDISPLAY
290
     0
  9
$INSUNITS
 70
     4
  9
$HYPERLINKBASE
  1

  9
$STYLESHEET
  1

  9
$XEDIT
290
     1
  9
$CEPSNTYPE
380
     0
  9
$PSTYLEMODE
290
     1
  9
$FINGERPRINTGUID
  2
{42CD0DCB-F391-4F7D-B10E-4286618BB522}
  9
$VERSIONGUID
  2
{52763BE9-DB6A-46E4-A80D-5F692832F34B}
  9
$EXTNAMES
290
     1
  9
$PSVPSCALE
 40
0.0
  9
$OLESTARTUP
290
     0
  0
ENDSEC
  0
SECTION
  2
CLASSES
  0
CLASS
  1
ACDBDICTIONARYWDFLT
  2
AcDbDictionaryWithDefault
  3
ObjectDBX Classes
 90
        0
280
     0
281
     0
  0
CLASS
  1
ACDBPLACEHOLDER
  2
AcDbPlaceHolder
  3
ObjectDBX Classes
 90
        0
280
     0
281
     0
  0
CLASS
  1
LAYOUT
  2
AcDbLayout
  3
ObjectDBX Classes
 90
        0
280
     0
281
     0
  0
CLASS
  1
DICTIONARYVAR
  2
AcDbDictionaryVar
  3
ObjectDBX Classes
 90
        0
280
     0
281
     0
  0
CLASS
  1
TABLESTYLE
  2
AcDbTableStyle
  3
ObjectDBX Classes
 90
     4095
280
     0
281
     0
  0
CLASS
  1
MATERIAL
  2
AcDbMaterial
  3
ObjectDBX Classes
 90
     1153
280
     0
281
     0
  0
CLASS
  1
VISUALSTYLE
  2
AcDbVisualStyle
  3
ObjectDBX Classes
 90
     4095
280
     0
281
     0
  0
CLASS
  1
SCALE
  2
AcDbScale
  3
ObjectDBX Classes
 90
     1153
280
     0
281
     0
  0
CLASS
  1
MLEADERSTYLE
  2
AcDbMLeaderStyle
  3
ACDB_MLEADERSTYLE_CLASS
 90
     4095
280
     0
281
     0
  0
CLASS
  1
CELLSTYLEMAP
  2
AcDbCellStyleMap
  3
ObjectDBX Classes
 90
     1152
280
     0
281
     0
  0
ENDSEC
  0
SECTION
  2
TABLES
  0
TABLE
  2
VPORT
  5
8
330
0
100
AcDbSymbolTable
 70
     1
  0
VPORT
  5
EA
330
8
100
AcDbSymbolTableRecord
100
AcDbViewportTableRecord
  2
*Active
 70
     0
 10
0.0
 20
0.0
 11
1.0
 21
1.0
 12
2086.064195892223
 22
902.020077096061
 13
0.0
 23
0.0
 14
10.0
 24
10.0
 15
10.0
 25
10.0
 16
0.0
 26
0.0
 36
1.0
 17
0.0
 27
0.0
 37
0.0
 40
68.61263133153681
 41
1.903110047846889
 42
50.0
 43
0.0
 44
0.0
 50
0.0
 51
0.0
 71
     0
 72
  1000
 73
     1
 74
     3
 75
     0
 76
     0
 77
     0
 78
     0
281
     0
 65
     1
110
0.0
120
0.0
130
0.0
111
1.0
121
0.0
131
0.0
112
0.0
122
1.0
132
0.0
 79
     0
146
0.0
  0
ENDTAB
  0
TABLE
  2
LTYPE
  5
5
330
0
100
AcDbSymbolTable
 70
     1
  0
LTYPE
  5
14
330
5
100
AcDbSymbolTableRecord
100
AcDbLinetypeTableRecord
  2
ByBlock
 70
     0
  3

 72
    65
 73
     0
 40
0.0
  0
LTYPE
  5
15
330
5
100
AcDbSymbolTableRecord
100
AcDbLinetypeTableRecord
  2
ByLayer
 70
     0
  3

 72
    65
 73
     0
 40
0.0
  0
LTYPE
  5
16
330
5
100
AcDbSymbolTableRecord
100
AcDbLinetypeTableRecord
  2
Continuous
 70
     0
  3
Solid line
 72
    65
 73
     0
 40
0.0
  0
ENDTAB
  0
TABLE
  2
LAYER
  5
2
330
0
100
AcDbSymbolTable
 70
     1
  0
LAYER
  5
10
102
{ACAD_XDICTIONARY
360
13C
102
}
330
2
100
AcDbSymbolTableRecord
100
AcDbLayerTableRecord
  2
0
 70
     0
 62
     7
  6
Continuous
370
    -3
390
F
  0
ENDTAB
  0
TABLE
  2
STYLE
  5
3
330
0
100
AcDbSymbolTable
 70
     2
  0
STYLE
  5
11
330
3
100
AcDbSymbolTableRecord
100
AcDbTextStyleTableRecord
  2
Standard
 70
     0
 40
0.0
 41
1.0
 50
0.0
 71
     0
 42
2.5
  3
txt
  4

  0
STYLE
  5
132
330
3
100
AcDbSymbolTableRecord
100
AcDbTextStyleTableRecord
  2
Annotative
 70
     0
 40
0.0
 41
1.0
 50
0.0
 71
     0
 42
2.5
  3
txt.shx
  4

1001
AcadAnnotative
1000
AnnotativeData
1002
{
1070
     1
1070
     1
1002
}
  0
ENDTAB
  0
TABLE
  2
VIEW
  5
6
330
0
100
AcDbSymbolTable
 70
     0
  0
ENDTAB
  0
TABLE
  2
UCS
  5
7
330
0
100
AcDbSymbolTable
 70
     0
  0
ENDTAB
  0
TABLE
  2
APPID
  5
9
330
0
100
AcDbSymbolTable
 70
     7
  0
APPID
  5
12
330
9
100
AcDbSymbolTableRecord
100
AcDbRegAppTableRecord
  2
ACAD
 70
     0
  0
APPID
  5
9E
330
9
100
AcDbSymbolTableRecord
100
AcDbRegAppTableRecord
  2
ACAD_PSEXT
 70
     0
  0
APPID
  5
133
330
9
100
AcDbSymbolTableRecord
100
AcDbRegAppTableRecord
  2
AcadAnnoPO
 70
     0
  0
APPID
  5
134
330
9
100
AcDbSymbolTableRecord
100
AcDbRegAppTableRecord
  2
AcadAnnotative
 70
     0
  0
APPID
  5
135
330
9
100
AcDbSymbolTableRecord
100
AcDbRegAppTableRecord
  2
ACAD_DSTYLE_DIMJAG
 70
     0
  0
APPID
  5
136
330
9
100
AcDbSymbolTableRecord
100
AcDbRegAppTableRecord
  2
ACAD_DSTYLE_DIMTALN
 70
     0
  0
APPID
  5
165
330
9
100
AcDbSymbolTableRecord
100
AcDbRegAppTableRecord
  2
ACAD_MLEADERVER
 70
     0
  0
ENDTAB
  0
TABLE
  2
DIMSTYLE
  5
A
330
0
100
AcDbSymbolTable
 70
     2
100
AcDbDimStyleTable
 71
     2
340
27
340
137
  0
DIMSTYLE
105
27
330
A
100
AcDbSymbolTableRecord
100
AcDbDimStyleTableRecord
  2
ISO-25
 70
     0
 41
2.5
 42
0.625
 43
3.75
 44
1.25
 73
     0
 74
     0
 77
     1
 78
     8
140
2.5
141
2.5
143
0.03937007874016
147
0.625
171
     3
172
     1
271
     2
272
     2
274
     3
278
    44
283
     0
284
     8
340
11
  0
DIMSTYLE
105
137
330
A
100
AcDbSymbolTableRecord
100
AcDbDimStyleTableRecord
  2
Annotative
 70
     0
 40
0.0
 41
2.5
 42
0.625
 43
3.75
 44
1.25
 73
     0
 74
     0
 77
     1
 78
     8
140
2.5
141
2.5
143
0.03937007874016
147
0.625
171
     3
172
     1
271
     2
272
     2
274
     3
278
    44
283
     0
284
     8
340
11
1001
AcadAnnotative
1000
AnnotativeData
1002
{
1070
     1
1070
     1
1002
}
1001
ACAD_DSTYLE_DIMJAG
1070
   388
1040
1.5
1001
ACAD_DSTYLE_DIMTALN
1070
   392
1070
     0
  0
ENDTAB
  0
TABLE
  2
BLOCK_RECORD
  5
1
330
0
100
AcDbSymbolTable
 70
     5
  0
BLOCK_RECORD
  5
1F
330
1
100
AcDbSymbolTableRecord
100
AcDbBlockTableRecord
  2
*Model_Space
340
22
  0
BLOCK_RECORD
  5
D2
330
1
100
AcDbSymbolTableRecord
100
AcDbBlockTableRecord
  2
*Paper_Space
340
D3
  0
BLOCK_RECORD
  5
D6
330
1
100
AcDbSymbolTableRecord
100
AcDbBlockTableRecord
  2
*Paper_Space0
340
D7
  0
BLOCK_RECORD
  5
3EB
330
1
100
AcDbSymbolTableRecord
100
AcDbBlockTableRecord
  2
1
340
0
310
2800000020000000200000000100080000000000000400000000000000000000000000000000000000000000000080000080000000808000800000008000800080800000C0C0C000C0DCC000F0CAA6000020400000206000002080000020A0000020C0000020E00000400000004020000040400000406000004080000040A0
310
000040C0000040E00000600000006020000060400000606000006080000060A0000060C0000060E00000800000008020000080400000806000008080000080A0000080C0000080E00000A0000000A0200000A0400000A0600000A0800000A0A00000A0C00000A0E00000C0000000C0200000C0400000C0600000C0800000C0
310
A00000C0C00000C0E00000E0000000E0200000E0400000E0600000E0800000E0A00000E0C00000E0E00040000000400020004000400040006000400080004000A0004000C0004000E00040200000402020004020400040206000402080004020A0004020C0004020E000404000004040200040404000404060004040800040
310
40A0004040C0004040E00040600000406020004060400040606000406080004060A0004060C0004060E00040800000408020004080400040806000408080004080A0004080C0004080E00040A0000040A0200040A0400040A0600040A0800040A0A00040A0C00040A0E00040C0000040C0200040C0400040C0600040C08000
310
40C0A00040C0C00040C0E00040E0000040E0200040E0400040E0600040E0800040E0A00040E0C00040E0E00080000000800020008000400080006000800080008000A0008000C0008000E00080200000802020008020400080206000802080008020A0008020C0008020E00080400000804020008040400080406000804080
310
008040A0008040C0008040E00080600000806020008060400080606000806080008060A0008060C0008060E00080800000808020008080400080806000808080008080A0008080C0008080E00080A0000080A0200080A0400080A0600080A0800080A0A00080A0C00080A0E00080C0000080C0200080C0400080C0600080C0
310
800080C0A00080C0C00080C0E00080E0000080E0200080E0400080E0600080E0800080E0A00080E0C00080E0E000C0000000C0002000C0004000C0006000C0008000C000A000C000C000C000E000C0200000C0202000C0204000C0206000C0208000C020A000C020C000C020E000C0400000C0402000C0404000C0406000C0
310
408000C040A000C040C000C040E000C0600000C0602000C0604000C0606000C0608000C060A000C060C000C060E000C0800000C0802000C0804000C0806000C0808000C080A000C080C000C080E000C0A00000C0A02000C0A04000C0A06000C0A08000C0A0A000C0A0C000C0A0E000C0C00000C0C02000C0C04000C0C06000
310
C0C08000C0C0A000F0FBFF00A4A0A000808080000000FF0000FF000000FFFF00FF000000FF00FF00FFFF0000FFFFFF0000000000000000000000000000000000000000000000000000000000000000000000000000000000000000FFFF000000000000FFFFFF0000000000000000000000000000000000000000FF00FF0000
310
00000000FF00FF0000000000000000000000000000000000000000FF00FF000000000000FF00FF0000000000000000000000000000000000000000FF00FF000000000000FF00FF0000000000000000000000000000000000000000FF00FF000000000000FF00FF0000000000000000000000000000000000000000FF00FF00
310
0000000000FF00FF0000000000000000000000000000000000000000FF00FF000000000000FF00FF0000000000000000000000000000000000000000FF00FF000000000000FF00FF0000000000000000000000000000000000000000FFFFFF000000000000FFFFFF0000000000000000000000000000000000000000FFFFFF
310
000000000000FFFFFF0000000000000000000000000000000000000000FF00FF000000000000FF00FF0000000000000000000000000000000000000000FF00FF000000000000FF00FF0000000000000000000000000000000000000000FF00FF000000000000FF00FF0000000000000000000000000000000000000000FF00
310
FF000000000000FF00FF0000000000000000000000000000000000000000FF00FF000000000000FF00FF000000000000000000000000000000000000FFFFFFFFFFFFFF0000FFFFFFFFFFFFFF00000000000000000000000000000000FF0000000000FF0000FF0000000000FF00000000000000000000000000000000FF0000
310
000000FF0000FF0000000000FF00000000000000000000000000000000FF00FFFFFF00FF0000FF00FFFFFF00FF00000000000000000000000000000000FF00FFFFFF00FF0000FF00FFFFFF00FF00000000000000000000000000000000FF0000000000FF0000FF0000000000FF000000000000000000000000000000FFFF00
310
00000000FFFFFFFF0000000000FFFF0000000000000000000000000000FF00000000000000000000000000000000FF0000000000000000000000000000FF00000000000000000000000000000000FF0000000000000000000000000000FF00000000000000000000000000000000FF0000000000000000000000000000FF00
310
000000000000000000000000000000FF0000000000000000000000000000FF00000000000000000000000000000000FF0000000000000000000000000000FFFFFFFFFFFFFFFFFFFFFFFFFFFFFFFFFFFF0000000000000000000000000000FF00000000000000000000000000000000FF0000000000000000000000000000FF
310
FFFFFFFFFFFFFFFFFFFFFFFFFFFFFFFFFF000000000000000000000000000000000000000000000000000000000000000000000000000000
102
{BLKREFS
331
439
102
}
1001
ACAD
1000
DesignCenter Data
1002
{
1070
     1
1070
     4
1002
}
  0
BLOCK_RECORD
  5
43A
330
1
100
AcDbSymbolTableRecord
100
AcDbBlockTableRecord
  2
2
340
0
310
2800000020000000200000000100080000000000000400000000000000000000000000000000000000000000000080000080000000808000800000008000800080800000C0C0C000C0DCC000F0CAA6000020400000206000002080000020A0000020C0000020E00000400000004020000040400000406000004080000040A0
310
000040C0000040E00000600000006020000060400000606000006080000060A0000060C0000060E00000800000008020000080400000806000008080000080A0000080C0000080E00000A0000000A0200000A0400000A0600000A0800000A0A00000A0C00000A0E00000C0000000C0200000C0400000C0600000C0800000C0
310
A00000C0C00000C0E00000E0000000E0200000E0400000E0600000E0800000E0A00000E0C00000E0E00040000000400020004000400040006000400080004000A0004000C0004000E00040200000402020004020400040206000402080004020A0004020C0004020E000404000004040200040404000404060004040800040
310
40A0004040C0004040E00040600000406020004060400040606000406080004060A0004060C0004060E00040800000408020004080400040806000408080004080A0004080C0004080E00040A0000040A0200040A0400040A0600040A0800040A0A00040A0C00040A0E00040C0000040C0200040C0400040C0600040C08000
310
40C0A00040C0C00040C0E00040E0000040E0200040E0400040E0600040E0800040E0A00040E0C00040E0E00080000000800020008000400080006000800080008000A0008000C0008000E00080200000802020008020400080206000802080008020A0008020C0008020E00080400000804020008040400080406000804080
310
008040A0008040C0008040E00080600000806020008060400080606000806080008060A0008060C0008060E00080800000808020008080400080806000808080008080A0008080C0008080E00080A0000080A0200080A0400080A0600080A0800080A0A00080A0C00080A0E00080C0000080C0200080C0400080C0600080C0
310
800080C0A00080C0C00080C0E00080E0000080E0200080E0400080E0600080E0800080E0A00080E0C00080E0E000C0000000C0002000C0004000C0006000C0008000C000A000C000C000C000E000C0200000C0202000C0204000C0206000C0208000C020A000C020C000C020E000C0400000C0402000C0404000C0406000C0
310
408000C040A000C040C000C040E000C0600000C0602000C0604000C0606000C0608000C060A000C060C000C060E000C0800000C0802000C0804000C0806000C0808000C080A000C080C000C080E000C0A00000C0A02000C0A04000C0A06000C0A08000C0A0A000C0A0C000C0A0E000C0C00000C0C02000C0C04000C0C06000
310
C0C08000C0C0A000F0FBFF00A4A0A000808080000000FF0000FF000000FFFF00FF000000FF00FF00FFFF0000FFFFFF0000000000000000000000000000000000000000000000000000000000000000000000000000000000000000000000FFFFFFFF00000000000000000000000000000000000000000000000000000000FF
310
FFFFFF00000000000000000000000000000000000000000000000000000000FF0000FF00000000000000000000000000000000000000000000000000000000FFFFFFFF00000000000000000000000000000000000000000000000000000000FF0000FF00000000000000000000000000000000000000000000000000000000
310
FF0000FF00000000000000000000000000000000000000000000000000000000FF0000FF00000000000000000000000000000000000000000000000000000000FF0000FF00000000000000000000000000000000000000000000000000000000FFFFFFFF000000000000000000000000000000000000000000000000000000
310
0000FFFF000000000000000000000000000000000000000000000000000000000000FFFF000000000000000000000000000000000000000000000000000000000000FFFF000000000000000000000000000000000000000000000000000000000000FFFF000000000000000000000000000000000000000000000000000000
310
000000FFFF000000000000000000000000000000000000000000000000000000000000FFFF0000000000000000000000000000000000000000000000000000000000FFFFFFFF00000000000000000000000000000000000000000000000000000000FF0000FF00000000000000000000000000000000000000000000000000
310
000000FFFFFFFF00000000000000000000000000000000000000000000000000000000FFFFFFFF00000000000000000000000000000000000000000000000000000000FF0000FF00000000000000000000000000000000000000000000000000000000FF0000FF000000000000000000000000000000000000000000000000
310
00000000FFFFFFFF00000000000000000000000000000000000000000000000000000000FF0000FF00000000000000000000000000000000000000000000000000000000FF0000FF00000000000000000000000000000000000000000000000000000000FF0000FF0000000000000000000000000000000000000000000000
310
0000000000FF0000FF00000000000000000000000000000000000000000000000000000000FF0000FF000000000000000000000000000000000000000000000000000000FFFF0000FFFF0000000000000000000000000000000000000000000000000000FF00000000FF000000000000000000000000000000000000000000
310
0000000000FFFFFFFFFFFF000000000000000000000000000000000000000000000000000000000000000000000000000000000000000000
102
{BLKREFS
331
478
102
}
1001
ACAD
1000
DesignCenter Data
1002
{
1070
     1
1070
     4
1002
}
  0
BLOCK_RECORD
  5
479
330
1
100
AcDbSymbolTableRecord
100
AcDbBlockTableRecord
  2
3
340
0
310
2800000020000000200000000100080000000000000400000000000000000000000000000000000000000000000080000080000000808000800000008000800080800000C0C0C000C0DCC000F0CAA6000020400000206000002080000020A0000020C0000020E00000400000004020000040400000406000004080000040A0
310
000040C0000040E00000600000006020000060400000606000006080000060A0000060C0000060E00000800000008020000080400000806000008080000080A0000080C0000080E00000A0000000A0200000A0400000A0600000A0800000A0A00000A0C00000A0E00000C0000000C0200000C0400000C0600000C0800000C0
310
A00000C0C00000C0E00000E0000000E0200000E0400000E0600000E0800000E0A00000E0C00000E0E00040000000400020004000400040006000400080004000A0004000C0004000E00040200000402020004020400040206000402080004020A0004020C0004020E000404000004040200040404000404060004040800040
310
40A0004040C0004040E00040600000406020004060400040606000406080004060A0004060C0004060E00040800000408020004080400040806000408080004080A0004080C0004080E00040A0000040A0200040A0400040A0600040A0800040A0A00040A0C00040A0E00040C0000040C0200040C0400040C0600040C08000
310
40C0A00040C0C00040C0E00040E0000040E0200040E0400040E0600040E0800040E0A00040E0C00040E0E00080000000800020008000400080006000800080008000A0008000C0008000E00080200000802020008020400080206000802080008020A0008020C0008020E00080400000804020008040400080406000804080
310
008040A0008040C0008040E00080600000806020008060400080606000806080008060A0008060C0008060E00080800000808020008080400080806000808080008080A0008080C0008080E00080A0000080A0200080A0400080A0600080A0800080A0A00080A0C00080A0E00080C0000080C0200080C0400080C0600080C0
310
800080C0A00080C0C00080C0E00080E0000080E0200080E0400080E0600080E0800080E0A00080E0C00080E0E000C0000000C0002000C0004000C0006000C0008000C000A000C000C000C000E000C0200000C0202000C0204000C0206000C0208000C020A000C020C000C020E000C0400000C0402000C0404000C0406000C0
310
408000C040A000C040C000C040E000C0600000C0602000C0604000C0606000C0608000C060A000C060C000C060E000C0800000C0802000C0804000C0806000C0808000C080A000C080C000C080E000C0A00000C0A02000C0A04000C0A06000C0A08000C0A0A000C0A0C000C0A0E000C0C00000C0C02000C0C04000C0C06000
310
C0C08000C0C0A000F0FBFF00A4A0A000808080000000FF0000FF000000FFFF00FF000000FF00FF00FFFF0000FFFFFF0000000000000000000000000000000000000000000000000000000000000000000000000000000000000000000000000000000000000000000000000000000000000000000000000000000000000000
310
00000000000000000000000000000000000000000000000000000000000000000000000000000000000000000000000000000000000000000000000000000000000000000000000000000000000000000000000000000000000000000000000000000000000000000000000000000000000000000000000000000000000000
310
00000000000000000000000000000000000000000000000000000000000000000000000000000000000000000000000000000000000000000000000000000000000000000000000000000000000000000000000000000000000000000000000000000000000000000000000000000000000000000000000000000000000000
310
00000000000000000000000000000000000000000000000000000000000000000000000000000000000000000000000000000000FFFFFFFFFFFFFFFFFFFFFFFFFFFFFFFFFFFFFFFFFFFFFFFFFFFFFFFFFFFF0000FF00000000000000000000000000000000000000000000000000000000FF0000FF00000000000000000000
310
000000000000000000000000000000000000FF0000FF00000000000000000000000000000000000000000000000000000000FF0000FF00000000000000000000000000000000000000000000000000000000FF0000FF00000000000000000000000000000000000000000000000000000000FF0000FF000000000000000000
310
00000000000000000000000000000000000000FF0000FFFFFFFFFFFFFFFFFFFFFFFFFFFFFFFFFFFFFFFFFFFFFFFFFFFFFFFFFFFF000000000000000000000000000000000000000000000000000000000000000000000000000000000000000000000000000000000000000000000000000000000000000000000000000000
310
00000000000000000000000000000000000000000000000000000000000000000000000000000000000000000000000000000000000000000000000000000000000000000000000000000000000000000000000000000000000000000000000000000000000000000000000000000000000000000000000000000000000000
310
00000000000000000000000000000000000000000000000000000000000000000000000000000000000000000000000000000000000000000000000000000000000000000000000000000000000000000000000000000000000000000000000000000000000000000000000000000000000000000000000000000000000000
310
0000000000000000000000000000000000000000000000000000000000000000000000000000000000000000000000000000000000000000
102
{BLKREFS
331
480
102
}
1001
ACAD
1000
DesignCenter Data
1002
{
1070
     1
1070
     4
1002
}
  0
BLOCK_RECORD
  5
481
330
1
100
AcDbSymbolTableRecord
100
AcDbBlockTableRecord
  2
4
340
0
310
2800000020000000200000000100080000000000000400000000000000000000000000000000000000000000000080000080000000808000800000008000800080800000C0C0C000C0DCC000F0CAA6000020400000206000002080000020A0000020C0000020E00000400000004020000040400000406000004080000040A0
310
000040C0000040E00000600000006020000060400000606000006080000060A0000060C0000060E00000800000008020000080400000806000008080000080A0000080C0000080E00000A0000000A0200000A0400000A0600000A0800000A0A00000A0C00000A0E00000C0000000C0200000C0400000C0600000C0800000C0
310
A00000C0C00000C0E00000E0000000E0200000E0400000E0600000E0800000E0A00000E0C00000E0E00040000000400020004000400040006000400080004000A0004000C0004000E00040200000402020004020400040206000402080004020A0004020C0004020E000404000004040200040404000404060004040800040
310
40A0004040C0004040E00040600000406020004060400040606000406080004060A0004060C0004060E00040800000408020004080400040806000408080004080A0004080C0004080E00040A0000040A0200040A0400040A0600040A0800040A0A00040A0C00040A0E00040C0000040C0200040C0400040C0600040C08000
310
40C0A00040C0C00040C0E00040E0000040E0200040E0400040E0600040E0800040E0A00040E0C00040E0E00080000000800020008000400080006000800080008000A0008000C0008000E00080200000802020008020400080206000802080008020A0008020C0008020E00080400000804020008040400080406000804080
310
008040A0008040C0008040E00080600000806020008060400080606000806080008060A0008060C0008060E00080800000808020008080400080806000808080008080A0008080C0008080E00080A0000080A0200080A0400080A0600080A0800080A0A00080A0C00080A0E00080C0000080C0200080C0400080C0600080C0
310
800080C0A00080C0C00080C0E00080E0000080E0200080E0400080E0600080E0800080E0A00080E0C00080E0E000C0000000C0002000C0004000C0006000C0008000C000A000C000C000C000E000C0200000C0202000C0204000C0206000C0208000C020A000C020C000C020E000C0400000C0402000C0404000C0406000C0
310
408000C040A000C040C000C040E000C0600000C0602000C0604000C0606000C0608000C060A000C060C000C060E000C0800000C0802000C0804000C0806000C0808000C080A000C080C000C080E000C0A00000C0A02000C0A04000C0A06000C0A08000C0A0A000C0A0C000C0A0E000C0C00000C0C02000C0C04000C0C06000
310
C0C08000C0C0A000F0FBFF00A4A0A000808080000000FF0000FF000000FFFF00FF000000FF00FF00FFFF0000FFFFFF000000000000000000000000000000000000000000000000000000000000000000000000000000000000000000000000000000FF00000000000000000000000000000000000000000000000000000000
310
0000FFFFFFFF00000000000000000000000000000000000000000000000000000000FF00FFFF00000000000000000000000000000000000000000000000000000000FF00FFFF00000000000000000000000000000000000000000000FFFF00000000FF00FFFF00000000000000000000000000000000000000000000FF00FF
310
FF0000FF00FFFF00000000000000000000000000000000000000000000FF00FFFF0000FF00FFFF00000000000000000000000000000000000000000000FF00FFFF0000FFFFFFFF00000000000000000000000000000000000000000000FF00FFFF0000FFFFFFFF00000000000000000000000000000000000000000000FF00
310
FFFF0000FF00FFFF00000000000000000000000000000000000000000000FFFFFFFF0000FF00FFFF00000000000000000000000000000000000000000000FFFFFFFF0000FF00FFFF00000000000000000000000000000000000000000000FF00FFFF0000FFFFFFFFFF000000000000000000000000000000000000000000FF
310
00FFFF00FF0000FFFFFF000000000000000000000000000000000000000000FF00FFFF00FF00FF00FFFF000000000000000000000000000000000000000000FFFFFFFFFFFFFFFF00FFFF0000000000000000000000000000000000000000FFFF00FFFFFFFFFF0000FFFFFF00000000000000000000000000000000000000FF
310
0000FFFFFFFF000000FF00FF00000000000000000000000000000000000000FFFFFFFFFFFFFF000000FF00FF00000000000000000000000000000000000000FFFFFF00FFFF00000000FF00FF00000000000000000000000000000000000000FF000000000000000000FF00FF00000000000000000000000000000000000000
310
FF00000000000000FFFF00FFFFFF0000000000000000000000000000000000FF000000000000FFFF0000000000FF0000000000000000000000000000000000FF00000000FFFF0000000000FFFF000000000000000000000000000000000000FF0000FFFFFF00000000FFFF0000000000000000000000000000000000000000
310
FFFFFFFF00000000FFFF000000000000000000000000000000000000000000FFFFFF0000000000FF0000000000000000000000000000000000000000000000FF0000000000FFFF00000000000000000000000000000000000000000000000000FFFF00FFFF0000000000000000000000000000000000000000000000000000
310
000000FF00000000000000000000000000000000000000000000000000000000000000000000000000000000000000000000000000000000
102
{BLKREFS
331
517
102
}
1001
ACAD
1000
DesignCenter Data
1002
{
1070
     1
1070
     4
1002
}
  0
ENDTAB
  0
ENDSEC
  0
SECTION
  2
BLOCKS
  0
BLOCK
  5
20
330
1F
100
AcDbEntity
  8
0
100
AcDbBlockBegin
  2
*Model_Space
 70
     0
 10
0.0
 20
0.0
 30
0.0
  3
*Model_Space
  1

  0
ENDBLK
  5
21
330
1F
100
AcDbEntity
  8
0
100
AcDbBlockEnd
  0
BLOCK
  5
D4
330
D2
100
AcDbEntity
 67
     1
  8
0
100
AcDbBlockBegin
  2
*Paper_Space
 70
     0
 10
0.0
 20
0.0
 30
0.0
  3
*Paper_Space
  1

  0
ENDBLK
  5
D5
330
D2
100
AcDbEntity
 67
     1
  8
0
100
AcDbBlockEnd
  0
BLOCK
  5
D8
330
D6
100
AcDbEntity
 67
     1
  8
0
100
AcDbBlockBegin
  2
*Paper_Space0
 70
     0
 10
0.0
 20
0.0
 30
0.0
  3
*Paper_Space0
  1

  0
ENDBLK
  5
D9
330
D6
100
AcDbEntity
 67
     1
  8
0
100
AcDbBlockEnd
  0
BLOCK
  5
3EC
330
3EB
100
AcDbEntity
  8
0
100
AcDbBlockBegin
  2
1
 70
     0
 10
0.0
 20
0.0
 30
0.0
  3
1
  1

  0
LINE
  5
3EE
330
3EB
100
AcDbEntity
  8
0
  6
Continuous
 62
     7
370
    15
100
AcDbLine
 10
2086.7983441925
 20
922.3691438793665
 30
0.0
 11
2068.39834996223
 21
922.3691438793665
 31
0.0
  0
LINE
  5
3EF
330
3EB
100
AcDbEntity
  8
0
  6
Continuous
 62
     7
370
    15
100
AcDbLine
 10
2086.7983441925
 20
921.1691438793666
 30
0.0
 11
2086.7983441925
 21
922.3691438793665
 31
0.0
  0
LINE
  5
3F0
330
3EB
100
AcDbEntity
  8
0
  6
Continuous
 62
     7
370
    15
100
AcDbLine
 10
2086.7983441925
 20
921.1691438793666
 30
0.0
 11
2068.39834996223
 21
921.1691438793666
 31
0.0
  0
LINE
  5
3F1
330
3EB
100
AcDbEntity
  8
0
  6
Continuous
 62
     7
370
    15
100
AcDbLine
 10
2068.39834996223
 20
922.3691438793665
 30
0.0
 11
2068.39834996223
 21
921.1691438793666
 31
0.0
  0
LINE
  5
3F2
330
3EB
100
AcDbEntity
  8
0
  6
Continuous
 62
     7
370
    15
100
AcDbLine
 10
2080.898347077365
 20
911.1691438793666
 30
0.0
 11
2083.898347077365
 21
911.1691438793666
 31
0.0
  0
LINE
  5
3F3
330
3EB
100
AcDbEntity
  8
0
  6
Continuous
 62
     7
370
    15
100
AcDbLine
 10
2080.898347077365
 20
912.4691438793666
 30
0.0
 11
2080.898347077365
 21
911.1691438793666
 31
0.0
  0
LINE
  5
3F4
330
3EB
100
AcDbEntity
  8
0
  6
Continuous
 62
     7
370
    15
100
AcDbLine
 10
2083.898347077365
 20
912.4691438793666
 30
0.0
 11
2083.898347077365
 21
911.1691438793666
 31
0.0
  0
LINE
  5
3F5
330
3EB
100
AcDbEntity
  8
0
  6
Continuous
 62
     7
370
    15
100
AcDbLine
 10
2080.898347077365
 20
912.4691438793666
 30
0.0
 11
2083.898347077365
 21
912.4691438793666
 31
0.0
  0
LINE
  5
3F6
330
3EB
100
AcDbEntity
  8
0
  6
Continuous
 62
     7
370
    15
100
AcDbLine
 10
2071.298347077365
 20
911.1691438793666
 30
0.0
 11
2074.298347077365
 21
911.1691438793666
 31
0.0
  0
LINE
  5
3F7
330
3EB
100
AcDbEntity
  8
0
  6
Continuous
 62
     7
370
    15
100
AcDbLine
 10
2071.298347077365
 20
912.4691438793666
 30
0.0
 11
2074.298347077365
 21
912.4691438793666
 31
0.0
  0
LINE
  5
3F8
330
3EB
100
AcDbEntity
  8
0
  6
Continuous
 62
     7
370
    15
100
AcDbLine
 10
2071.298347077365
 20
912.4691438793666
 30
0.0
 11
2071.298347077365
 21
911.1691438793666
 31
0.0
  0
LINE
  5
3F9
330
3EB
100
AcDbEntity
  8
0
  6
Continuous
 62
     7
370
    15
100
AcDbLine
 10
2074.298347077365
 20
912.4691438793666
 30
0.0
 11
2074.298347077365
 21
911.1691438793666
 31
0.0
  0
LINE
  5
3FA
330
3EB
100
AcDbEntity
  8
0
  6
Continuous
 62
     7
370
    15
100
AcDbLine
 10
2079.148347077341
 20
911.0191310923074
 30
0.0
 11
2079.148347077365
 21
914.5725262474543
 31
0.0
  0
LINE
  5
3FB
330
3EB
100
AcDbEntity
  8
0
  6
Continuous
 62
     7
370
    15
100
AcDbLine
 10
2079.148347077365
 20
914.5725262474543
 30
0.0
 11
2076.048347077366
 21
914.5725262474543
 31
0.0
  0
LINE
  5
3FC
330
3EB
100
AcDbEntity
  8
0
  6
Continuous
 62
     7
370
    15
100
AcDbLine
 10
2076.048347077366
 20
914.5725262474543
 30
0.0
 11
2076.048347077366
 21
910.9991345532884
 31
0.0
  0
ARC
  5
3FD
330
3EB
100
AcDbEntity
  8
0
  6
Continuous
 62
     7
370
    15
100
AcDbCircle
 10
2075.548346561995
 20
910.9991310923074
 30
0.0
 40
0.5000005153882467
100
AcDbArc
 50
314.9996405476098
 51
0.0003965987939631
  0
LINE
  5
3FE
330
3EB
100
AcDbEntity
  8
0
  6
Continuous
 62
     7
370
    15
100
AcDbLine
 10
2075.844797675422
 20
910.5884761285819
 30
0.0
 11
2075.901898098951
 21
910.6455751192219
 31
0.0
  0
ARC
  5
3FF
330
3EB
100
AcDbEntity
  8
0
  6
Continuous
 62
     7
370
    15
100
AcDbCircle
 10
2076.198346568203
 20
910.2349175237373
 30
0.0
 40
0.5000005066464439
100
AcDbArc
 50
134.9992130470782
 51
180.0
  0
LINE
  5
400
330
3EB
100
AcDbEntity
  8
0
  6
Continuous
 62
     7
370
    15
100
AcDbLine
 10
2075.348350144102
 20
907.8705498084641
 30
0.0
 11
2075.698348618223
 21
908.2205482825852
 31
0.0
  0
LINE
  5
401
330
3EB
100
AcDbEntity
  8
0
  6
Continuous
 62
     7
370
    15
100
AcDbLine
 10
2075.348350144102
 20
907.8705498084641
 30
0.0
 11
2070.248344010628
 21
907.8705498084641
 31
0.0
  0
LINE
  5
402
330
3EB
100
AcDbEntity
  8
0
  6
Continuous
 62
     7
370
    15
100
AcDbLine
 10
2069.898345536507
 20
908.2205482825852
 30
0.0
 11
2070.248344010628
 21
907.8705498084641
 31
0.0
  0
LINE
  5
403
330
3EB
100
AcDbEntity
  8
0
  6
Continuous
 62
     7
370
    15
100
AcDbLine
 10
2069.898345536507
 20
908.2205482825852
 30
0.0
 11
2069.898346814841
 21
910.2349175237373
 31
0.0
  0
ARC
  5
404
330
3EB
100
AcDbEntity
  8
0
  6
Continuous
 62
     7
370
    15
100
AcDbCircle
 10
2069.398347586528
 20
910.2349175237373
 30
0.0
 40
0.5000005066453508
100
AcDbArc
 50
0.0
 51
45.0007869529218
  0
LINE
  5
405
330
3EB
100
AcDbEntity
  8
0
  6
Continuous
 62
     7
370
    15
100
AcDbLine
 10
2069.694796055779
 20
910.6455751192219
 30
0.0
 11
2069.751896479308
 21
910.5884761285819
 31
0.0
  0
ARC
  5
406
330
3EB
100
AcDbEntity
  8
0
  6
Continuous
 62
     7
370
    15
100
AcDbCircle
 10
2070.048347592735
 20
910.9991310923074
 30
0.0
 40
0.5000005153938787
100
AcDbArc
 50
180.0
 51
225.0003594524085
  0
LINE
  5
407
330
3EB
100
AcDbEntity
  8
0
  6
Continuous
 62
     7
370
    15
100
AcDbLine
 10
2069.548347077341
 20
910.9991310923074
 30
0.0
 11
2069.548347077365
 21
914.5725262474543
 31
0.0
  0
LINE
  5
408
330
3EB
100
AcDbEntity
  8
0
  6
Continuous
 62
     7
370
    15
100
AcDbLine
 10
2068.39834996223
 20
914.5725262474543
 30
0.0
 11
2069.548347077365
 21
914.5725262474543
 31
0.0
  0
LINE
  5
409
330
3EB
100
AcDbEntity
  8
0
  6
Continuous
 62
     7
370
    15
100
AcDbLine
 10
2085.648347077365
 20
914.5725262474543
 30
0.0
 11
2086.7983441925
 21
914.5725262474543
 31
0.0
  0
LINE
  5
40A
330
3EB
100
AcDbEntity
  8
0
  6
Continuous
 62
     7
370
    15
100
AcDbLine
 10
2085.648347077365
 20
914.5725262474543
 30
0.0
 11
2085.648347077365
 21
911.0191345532886
 31
0.0
  0
ARC
  5
40B
330
3EB
100
AcDbEntity
  8
0
  6
Continuous
 62
     7
370
    15
100
AcDbCircle
 10
2085.148346561995
 20
911.0191310923074
 30
0.0
 40
0.500000515388307
100
AcDbArc
 50
314.9996405476237
 51
0.0003965988069907
  0
LINE
  5
40C
330
3EB
100
AcDbEntity
  8
0
  6
Continuous
 62
     7
370
    15
100
AcDbLine
 10
2085.444797675422
 20
910.6084761285819
 30
0.0
 11
2085.501898098952
 21
910.6655751192221
 31
0.0
  0
ARC
  5
40D
330
3EB
100
AcDbEntity
  8
0
  6
Continuous
 62
     7
370
    15
100
AcDbCircle
 10
2085.798346568202
 20
910.2549175237372
 30
0.0
 40
0.5000005066464439
100
AcDbArc
 50
134.9992130470782
 51
180.0
  0
LINE
  5
40E
330
3EB
100
AcDbEntity
  8
0
  6
Continuous
 62
     7
370
    15
100
AcDbLine
 10
2085.298346061556
 20
910.2549175237372
 30
0.0
 11
2085.298346061556
 21
908.2405457259177
 31
0.0
  0
LINE
  5
40F
330
3EB
100
AcDbEntity
  8
0
  6
Continuous
 62
     7
370
    15
100
AcDbLine
 10
2084.928350144102
 20
907.8705498084641
 30
0.0
 11
2085.298347766
 21
908.2405474303627
 31
0.0
  0
LINE
  5
410
330
3EB
100
AcDbEntity
  8
0
  6
Continuous
 62
     7
370
    15
100
AcDbLine
 10
2084.928350144102
 20
907.8705498084641
 30
0.0
 11
2079.868344010629
 21
907.8705498084641
 31
0.0
  0
LINE
  5
411
330
3EB
100
AcDbEntity
  8
0
  6
Continuous
 62
     7
370
    15
100
AcDbLine
 10
2079.498345536507
 20
908.2405482825853
 30
0.0
 11
2079.868344010629
 21
907.8705498084641
 31
0.0
  0
LINE
  5
412
330
3EB
100
AcDbEntity
  8
0
  6
Continuous
 62
     7
370
    15
100
AcDbLine
 10
2079.498345536507
 20
908.2405482825853
 30
0.0
 11
2079.498346814841
 21
910.2549175237372
 31
0.0
  0
ARC
  5
413
330
3EB
100
AcDbEntity
  8
0
  6
Continuous
 62
     7
370
    15
100
AcDbCircle
 10
2078.998347586528
 20
910.2549175237372
 30
0.0
 40
0.5000005066455921
100
AcDbArc
 50
0.0
 51
45.0007869529218
  0
LINE
  5
414
330
3EB
100
AcDbEntity
  8
0
  6
Continuous
 62
     7
370
    15
100
AcDbLine
 10
2079.294796055779
 20
910.6655751192221
 30
0.0
 11
2079.351896479308
 21
910.6084761285819
 31
0.0
  0
ARC
  5
415
330
3EB
100
AcDbEntity
  8
0
  6
Continuous
 62
     7
370
    15
100
AcDbCircle
 10
2079.648347592735
 20
911.0191310923074
 30
0.0
 40
0.5000005153938787
100
AcDbArc
 50
180.0
 51
225.0003594523763
  0
LINE
  5
416
330
3EB
100
AcDbEntity
  8
0
  6
Continuous
 62
     7
370
    15
100
AcDbLine
 10
2075.698346061556
 20
910.2349175237373
 30
0.0
 11
2075.698346061556
 21
908.2205457259179
 31
0.0
  0
LINE
  5
417
330
3EB
100
AcDbEntity
  8
0
  6
Continuous
 62
     7
370
    15
100
AcDbLine
 10
2086.7983441925
 20
921.1691438793666
 30
0.0
 11
2086.7983441925
 21
914.5725262474543
 31
0.0
  0
LINE
  5
418
330
3EB
100
AcDbEntity
  8
0
  6
Continuous
 62
     7
370
    15
100
AcDbLine
 10
2068.39834996223
 20
914.5725262474543
 30
0.0
 11
2068.39834996223
 21
921.1691438793666
 31
0.0
  0
LINE
  5
419
330
3EB
100
AcDbEntity
  8
0
  6
Continuous
 62
     7
370
    15
100
AcDbLine
 10
2083.559493719266
 20
892.7880056322401
 30
0.0
 11
2083.898319251414
 21
894.7095839414053
 31
0.0
  0
SPLINE
  5
41A
330
3EB
100
AcDbEntity
  8
0
  6
Continuous
 62
     7
370
    15
100
AcDbSpline
210
0.0
220
0.0
230
1.0
 70
     8
 71
     3
 72
    10
 73
     6
 74
     0
 42
0.0000000001
 43
0.0000000001
 40
0.0
 40
0.0
 40
0.0
 40
0.0
 40
0.5
 40
0.5
 40
1.0
 40
1.0
 40
1.0
 40
1.0
 10
2083.559493719266
 20
892.7880056322401
 30
0.0
 10
2083.53120692343
 20
892.6275829717331
 30
0.0
 10
2083.444866317345
 20
892.4780365808112
 30
0.0
 10
2083.195293004756
 20
892.2686196451657
 30
0.0
 10
2083.033025687607
 20
892.2095591585287
 30
0.0
 10
2082.870128257232
 20
892.2095591585286
 30
0.0
  0
LINE
  5
41B
330
3EB
100
AcDbEntity
  8
0
  6
Continuous
 62
     7
370
    15
100
AcDbLine
 10
2081.926504165774
 20
892.2095591585284
 30
0.0
 11
2082.870128257232
 21
892.2095591585284
 31
0.0
  0
SPLINE
  5
41C
330
3EB
100
AcDbEntity
  8
0
  6
Continuous
 62
     7
370
    15
100
AcDbSpline
210
0.0
220
0.0
230
1.0
 70
     8
 71
     3
 72
    10
 73
     6
 74
     0
 42
0.0000000001
 43
0.0000000001
 40
0.0
 40
0.0
 40
0.0
 40
0.0
 40
0.5
 40
0.5
 40
1.0
 40
1.0
 40
1.0
 40
1.0
 10
2081.926504165774
 20
892.2095591585286
 30
0.0
 10
2081.763606735399
 20
892.2095591585287
 30
0.0
 10
2081.601339418249
 20
892.2686196451659
 30
0.0
 10
2081.351766105659
 20
892.4780365808112
 30
0.0
 10
2081.265425499575
 20
892.6275829717331
 30
0.0
 10
2081.237138703738
 20
892.7880056322401
 30
0.0
  0
LINE
  5
41D
330
3EB
100
AcDbEntity
  8
0
  6
Continuous
 62
     7
370
    15
100
AcDbLine
 10
2080.898313171591
 20
894.7095839414055
 30
0.0
 11
2081.237138703738
 21
892.7880056322401
 31
0.0
  0
LINE
  5
41E
330
3EB
100
AcDbEntity
  8
0
  6
Continuous
 62
     7
370
    15
100
AcDbLine
 10
2080.898313171591
 20
900.4340397148208
 30
0.0
 11
2080.898313171591
 21
894.7095839414055
 31
0.0
  0
LINE
  5
41F
330
3EB
100
AcDbEntity
  8
0
  6
Continuous
 62
     7
370
    15
100
AcDbLine
 10
2083.898324289691
 20
900.4340045149676
 30
0.0
 11
2080.898313171591
 21
900.4340397148208
 31
0.0
  0
LINE
  5
420
330
3EB
100
AcDbEntity
  8
0
  6
Continuous
 62
     7
370
    15
100
AcDbLine
 10
2083.898324289691
 20
900.4340045149676
 30
0.0
 11
2083.898328389939
 21
894.7095839414068
 31
0.0
  0
LINE
  5
421
330
3EB
100
AcDbEntity
  8
0
  6
Continuous
 62
     7
370
    15
100
AcDbLine
 10
2073.959493719266
 20
892.7880056322401
 30
0.0
 11
2074.298319251414
 21
894.7095839414053
 31
0.0
  0
LINE
  5
422
330
3EB
100
AcDbEntity
  8
0
  6
Continuous
 62
     7
370
    15
100
AcDbLine
 10
2072.326504165773
 20
892.2095591585284
 30
0.0
 11
2073.270128257231
 21
892.2095591585284
 31
0.0
  0
ARC
  5
423
330
3EB
100
AcDbEntity
  8
0
  6
Continuous
 62
     7
370
    15
100
AcDbCircle
 10
2072.326504165773
 20
892.9095591585285
 30
0.0
 40
0.6999999999999386
100
AcDbArc
 50
189.9999835369507
 51
270.0
  0
LINE
  5
424
330
3EB
100
AcDbEntity
  8
0
  6
Continuous
 62
     7
370
    15
100
AcDbLine
 10
2071.29831317159
 20
894.7095839414055
 30
0.0
 11
2071.637138703739
 21
892.7880056322401
 31
0.0
  0
LINE
  5
425
330
3EB
100
AcDbEntity
  8
0
  6
Continuous
 62
     7
370
    15
100
AcDbLine
 10
2071.29831317159
 20
900.4340397148208
 30
0.0
 11
2071.29831317159
 21
894.7095839414055
 31
0.0
  0
LINE
  5
426
330
3EB
100
AcDbEntity
  8
0
  6
Continuous
 62
     7
370
    15
100
AcDbLine
 10
2074.29832441862
 20
900.4340045149676
 30
0.0
 11
2071.29831317159
 21
900.4340397148208
 31
0.0
  0
LINE
  5
427
330
3EB
100
AcDbEntity
  8
0
  6
Continuous
 62
     7
370
    15
100
AcDbLine
 10
2074.29832441862
 20
900.4340045149676
 30
0.0
 11
2074.298328518868
 21
894.7095839414053
 31
0.0
  0
SPLINE
  5
428
330
3EB
100
AcDbEntity
  8
0
  6
Continuous
 62
     7
370
    15
100
AcDbSpline
210
0.0
220
0.0
230
1.0
 70
     8
 71
     3
 72
    10
 73
     6
 74
     0
 42
0.0000000001
 43
0.0000000001
 40
0.0
 40
0.0
 40
0.0
 40
0.0
 40
0.5
 40
0.5
 40
1.0
 40
1.0
 40
1.0
 40
1.0
 10
2073.959493719266
 20
892.7880056322401
 30
0.0
 10
2073.93120692343
 20
892.6275829717331
 30
0.0
 10
2073.844866317345
 20
892.4780365808112
 30
0.0
 10
2073.595293004757
 20
892.2686196451657
 30
0.0
 10
2073.433025687606
 20
892.2095591585287
 30
0.0
 10
2073.270128257231
 20
892.2095591585286
 30
0.0
  0
LINE
  5
429
330
3EB
100
AcDbEntity
  8
0
  6
Continuous
 62
     7
370
    15
100
AcDbLine
 10
2080.898313171591
 20
900.7340397148364
 30
0.0
 11
2080.898313171591
 21
900.4340397148208
 31
0.0
  0
LINE
  5
42A
330
3EB
100
AcDbEntity
  8
0
  6
Continuous
 62
     7
370
    15
100
AcDbLine
 10
2083.898324074809
 20
900.734004514978
 30
0.0
 11
2080.898313171591
 21
900.7340397148364
 31
0.0
  0
LWPOLYLINE
  5
42B
330
3EB
100
AcDbEntity
  8
0
  6
Continuous
 62
     7
370
    15
100
AcDbPolyline
 90
        9
 70
   128
 43
0.0
 10
2083.898324289691
 20
900.4340045149676
 10
2083.898324192882
 20
900.4925316115647
 10
2083.898323906176
 20
900.5488095446624
 10
2083.898323440589
 20
900.6006755848542
 10
2083.898322814014
 20
900.6461365493024
 10
2083.898322050531
 20
900.6834453986389
 10
2083.898321179479
 20
900.7111683747073
 10
2083.898320234334
 20
900.7282400990849
 10
2083.898324074809
 20
900.734004514978
  0
LINE
  5
42C
330
3EB
100
AcDbEntity
  8
0
  6
Continuous
 62
     7
370
    15
100
AcDbLine
 10
2071.29831317159
 20
900.7340397148364
 30
0.0
 11
2071.29831317159
 21
900.4340397148208
 31
0.0
  0
LINE
  5
42D
330
3EB
100
AcDbEntity
  8
0
  6
Continuous
 62
     7
370
    15
100
AcDbLine
 10
2074.298324203739
 20
900.7340045149831
 30
0.0
 11
2071.29831317159
 21
900.7340397148364
 31
0.0
  0
LWPOLYLINE
  5
42E
330
3EB
100
AcDbEntity
  8
0
  6
Continuous
 62
     7
370
    15
100
AcDbPolyline
 90
        9
 70
   128
 43
0.0
 10
2074.29832441862
 20
900.4340045149676
 10
2074.298324319334
 20
900.4925316115649
 10
2074.29832402529
 20
900.5488095446631
 10
2074.298323547789
 20
900.6006755848549
 10
2074.298322905181
 20
900.6461365493034
 10
2074.29832212216
 20
900.6834453986407
 10
2074.298321228818
 20
900.7111683747096
 10
2074.298320259486
 20
900.7282400990879
 10
2074.298324203739
 20
900.7340045149831
  0
LWPOLYLINE
  5
42F
330
3EB
100
AcDbEntity
  8
0
  6
Continuous
 62
     7
370
    15
100
AcDbPolyline
 90
        9
 70
   128
 43
0.0
 10
2080.898317970519
 20
901.0340397147952
 10
2080.898317975292
 20
900.9755126181913
 10
2080.898317979881
 20
900.9192346850873
 10
2080.898317984112
 20
900.8673686448918
 10
2080.898317987819
 20
900.8219076804426
 10
2080.898317990862
 20
900.7845988311087
 10
2080.898317993123
 20
900.7568758550467
 10
2080.898317994516
 20
900.7398041306796
 10
2080.898315583288
 20
900.734039714808
  0
LINE
  5
430
330
3EB
100
AcDbEntity
  8
0
  6
Continuous
 62
     7
370
    15
100
AcDbLine
 10
2083.898323967368
 20
901.0340045149535
 30
0.0
 11
2080.898317970519
 21
901.0340397147952
 31
0.0
  0
LWPOLYLINE
  5
431
330
3EB
100
AcDbEntity
  8
0
  6
Continuous
 62
     7
370
    15
100
AcDbPolyline
 90
        9
 70
   128
 43
0.0
 10
2083.898323967368
 20
901.0340045149535
 10
2083.898324007225
 20
900.9754774183489
 10
2083.898324041422
 20
900.9191994852441
 10
2083.898324068643
 20
900.8673334450481
 10
2083.898324087844
 20
900.8218724805983
 10
2083.898324098286
 20
900.7845636312636
 10
2083.898324099568
 20
900.7568406552012
 10
2083.898324091641
 20
900.7397689308339
 10
2083.898321663112
 20
900.73400451496
  0
LWPOLYLINE
  5
432
330
3EB
100
AcDbEntity
  8
0
  6
Continuous
 62
     7
370
    15
100
AcDbPolyline
 90
        9
 70
   128
 43
0.0
 10
2071.298317970518
 20
901.0340397147952
 10
2071.298317975292
 20
900.9755126181913
 10
2071.298317979882
 20
900.9192346850873
 10
2071.298317984112
 20
900.8673686448918
 10
2071.298317987819
 20
900.8219076804426
 10
2071.298317990863
 20
900.7845988311087
 10
2071.298317993123
 20
900.7568758550467
 10
2071.298317994516
 20
900.7398041306796
 10
2071.298315583288
 20
900.734039714808
  0
LINE
  5
433
330
3EB
100
AcDbEntity
  8
0
  6
Continuous
 62
     7
370
    15
100
AcDbLine
 10
2074.298323967368
 20
901.0340045149535
 30
0.0
 11
2071.298317970518
 21
901.0340397147952
 31
0.0
  0
LWPOLYLINE
  5
434
330
3EB
100
AcDbEntity
  8
0
  6
Continuous
 62
     7
370
    15
100
AcDbPolyline
 90
        9
 70
   128
 43
0.0
 10
2074.298323967368
 20
901.0340045149535
 10
2074.298324007225
 20
900.9754774183489
 10
2074.298324041422
 20
900.9191994852445
 10
2074.298324068643
 20
900.8673334450485
 10
2074.298324087844
 20
900.8218724805987
 10
2074.298324098286
 20
900.7845636312639
 10
2074.298324099568
 20
900.7568406552014
 10
2074.298324091641
 20
900.7397689308341
 10
2074.298324203739
 20
900.73400451496
  0
LINE
  5
435
330
3EB
100
AcDbEntity
  8
0
  6
Continuous
 62
     7
370
    15
100
AcDbLine
 10
2071.298317970518
 20
901.0340397147952
 30
0.0
 11
2071.298317970518
 21
907.8705498084641
 31
0.0
  0
LINE
  5
436
330
3EB
100
AcDbEntity
  8
0
  6
Continuous
 62
     7
370
    15
100
AcDbLine
 10
2074.29832407481
 20
907.8705498084641
 30
0.0
 11
2074.298323967368
 21
901.0340045149535
 31
0.0
  0
LINE
  5
437
330
3EB
100
AcDbEntity
  8
0
  6
Continuous
 62
     7
370
    15
100
AcDbLine
 10
2080.898317970519
 20
901.0340397147952
 30
0.0
 11
2080.898317970519
 21
907.8705498084641
 31
0.0
  0
LINE
  5
438
330
3EB
100
AcDbEntity
  8
0
  6
Continuous
 62
     7
370
    15
100
AcDbLine
 10
2083.898324074809
 20
907.8705498084641
 30
0.0
 11
2083.898323967368
 21
901.0340045149535
 31
0.0
  0
ENDBLK
  5
3ED
330
3EB
100
AcDbEntity
  8
0
100
AcDbBlockEnd
  0
BLOCK
  5
43B
330
43A
100
AcDbEntity
  8
0
100
AcDbBlockBegin
  2
2
 70
     0
 10
0.0
 20
0.0
 30
0.0
  3
2
  1

  0
LINE
  5
43D
330
43A
100
AcDbEntity
  8
0
  6
Continuous
 62
     7
370
    15
100
AcDbLine
 10
2051.678247409595
 20
921.1691438793666
 30
0.0
 11
2051.678247409595
 21
922.3691438793665
 31
0.0
  0
LINE
  5
43E
330
43A
100
AcDbEntity
  8
0
  6
Continuous
 62
     7
370
    15
100
AcDbLine
 10
2051.678247409595
 20
922.3691438793665
 30
0.0
 11
2056.178247409595
 21
922.3691438793665
 31
0.0
  0
LINE
  5
43F
330
43A
100
AcDbEntity
  8
0
  6
Continuous
 62
     7
370
    15
100
AcDbLine
 10
2056.178247409595
 20
921.1691438793666
 30
0.0
 11
2056.178247409595
 21
922.3691438793665
 31
0.0
  0
LINE
  5
440
330
43A
100
AcDbEntity
  8
0
  6
Continuous
 62
     7
370
    15
100
AcDbLine
 10
2056.178247409595
 20
921.1691438793666
 30
0.0
 11
2055.428247409595
 21
921.1691438793666
 31
0.0
  0
LINE
  5
441
330
43A
100
AcDbEntity
  8
0
  6
Continuous
 62
     7
370
    15
100
AcDbLine
 10
2052.428247409595
 20
921.1691438793666
 30
0.0
 11
2051.678247409595
 21
921.1691438793666
 31
0.0
  0
LINE
  5
442
330
43A
100
AcDbEntity
  8
0
  6
Continuous
 62
     7
370
    15
100
AcDbLine
 10
2052.428247409595
 20
921.1691438793666
 30
0.0
 11
2052.428247409595
 21
914.5725262474543
 31
0.0
  0
LINE
  5
443
330
43A
100
AcDbEntity
  8
0
  6
Continuous
 62
     7
370
    15
100
AcDbLine
 10
2055.428247409595
 20
914.5725262474543
 30
0.0
 11
2052.428247409595
 21
914.5725262474543
 31
0.0
  0
LINE
  5
444
330
43A
100
AcDbEntity
  8
0
  6
Continuous
 62
     7
370
    15
100
AcDbLine
 10
2055.428247409595
 20
921.1691438793666
 30
0.0
 11
2055.428247409595
 21
914.5725262474543
 31
0.0
  0
LINE
  5
445
330
43A
100
AcDbEntity
  8
0
  6
Continuous
 62
     7
370
    15
100
AcDbLine
 10
2055.428247409595
 20
911.0191345532886
 30
0.0
 11
2052.428247409595
 21
911.0191345532886
 31
0.0
  0
LINE
  5
446
330
43A
100
AcDbEntity
  8
0
  6
Continuous
 62
     7
370
    15
100
AcDbLine
 10
2052.428247409595
 20
910.6655751192221
 30
0.0
 11
2055.428247409595
 21
910.6655751192221
 31
0.0
  0
LINE
  5
447
330
43A
100
AcDbEntity
  8
0
  6
Continuous
 62
     7
370
    15
100
AcDbLine
 10
2052.428247409595
 20
911.0191345532886
 30
0.0
 11
2052.428247409595
 21
910.6655751192221
 31
0.0
  0
LINE
  5
448
330
43A
100
AcDbEntity
  8
0
  6
Continuous
 62
     7
370
    15
100
AcDbLine
 10
2055.428247409595
 20
911.0191345532886
 30
0.0
 11
2055.428247409595
 21
910.6655751192221
 31
0.0
  0
LINE
  5
449
330
43A
100
AcDbEntity
  8
0
  6
Continuous
 62
     7
370
    15
100
AcDbLine
 10
2052.428247409595
 20
914.5725262474543
 30
0.0
 11
2052.428247409595
 21
911.0191345532886
 31
0.0
  0
LINE
  5
44A
330
43A
100
AcDbEntity
  8
0
  6
Continuous
 62
     7
370
    15
100
AcDbLine
 10
2055.428247409595
 20
914.5725262474543
 30
0.0
 11
2055.428247409595
 21
911.0191345532886
 31
0.0
  0
LINE
  5
44B
330
43A
100
AcDbEntity
  8
0
  6
Continuous
 62
     7
370
    15
100
AcDbLine
 10
2052.428247409595
 20
910.6084761285819
 30
0.0
 11
2055.428247409595
 21
910.6084761285819
 31
0.0
  0
LINE
  5
44C
330
43A
100
AcDbEntity
  8
0
  6
Continuous
 62
     7
370
    15
100
AcDbLine
 10
2052.428247409595
 20
910.6084761285819
 30
0.0
 11
2052.428247409595
 21
910.6655751192221
 31
0.0
  0
LINE
  5
44D
330
43A
100
AcDbEntity
  8
0
  6
Continuous
 62
     7
370
    15
100
AcDbLine
 10
2055.428247409595
 20
910.6655751192221
 30
0.0
 11
2055.428247409595
 21
910.6084761285819
 31
0.0
  0
LINE
  5
44E
330
43A
100
AcDbEntity
  8
0
  6
Continuous
 62
     7
370
    15
100
AcDbLine
 10
2052.428247409595
 20
910.2549175237372
 30
0.0
 11
2055.428247409595
 21
910.2549172064332
 31
0.0
  0
LINE
  5
44F
330
43A
100
AcDbEntity
  8
0
  6
Continuous
 62
     7
370
    15
100
AcDbLine
 10
2052.428247409595
 20
910.2549175237372
 30
0.0
 11
2052.428247409595
 21
910.6084761285819
 31
0.0
  0
LINE
  5
450
330
43A
100
AcDbEntity
  8
0
  6
Continuous
 62
     7
370
    15
100
AcDbLine
 10
2055.428247409595
 20
910.6084761285819
 30
0.0
 11
2055.428247409595
 21
910.2549172064332
 31
0.0
  0
LINE
  5
451
330
43A
100
AcDbEntity
  8
0
  6
Continuous
 62
     7
370
    15
100
AcDbLine
 10
2055.428247409595
 20
908.2405482825853
 30
0.0
 11
2052.428247409595
 21
908.2405482825853
 31
0.0
  0
LINE
  5
452
330
43A
100
AcDbEntity
  8
0
  6
Continuous
 62
     7
370
    15
100
AcDbLine
 10
2052.428247409595
 20
910.2549175237372
 30
0.0
 11
2052.428247409595
 21
908.2405457259177
 31
0.0
  0
LINE
  5
453
330
43A
100
AcDbEntity
  8
0
  6
Continuous
 62
     7
370
    15
100
AcDbLine
 10
2055.428247409595
 20
910.2549172064332
 30
0.0
 11
2055.428247409595
 21
908.2405482825853
 31
0.0
  0
LINE
  5
454
330
43A
100
AcDbEntity
  8
0
  6
Continuous
 62
     7
370
    15
100
AcDbLine
 10
2055.428247409595
 20
907.8705498084641
 30
0.0
 11
2052.428247409595
 21
907.8705498084641
 31
0.0
  0
LINE
  5
455
330
43A
100
AcDbEntity
  8
0
  6
Continuous
 62
     7
370
    15
100
AcDbLine
 10
2052.428247409595
 20
907.8705498084641
 30
0.0
 11
2052.428247409595
 21
908.2405474303627
 31
0.0
  0
LINE
  5
456
330
43A
100
AcDbEntity
  8
0
  6
Continuous
 62
     7
370
    15
100
AcDbLine
 10
2055.428247409595
 20
908.2405482825851
 30
0.0
 11
2055.428247409595
 21
907.8705498084641
 31
0.0
  0
LINE
  5
457
330
43A
100
AcDbEntity
  8
0
  6
Continuous
 62
     7
370
    15
100
AcDbLine
 10
2054.928241306079
 20
900.7340045149934
 30
0.0
 11
2054.976046090854
 21
900.734004514974
 31
0.0
  0
ARC
  5
458
330
43A
100
AcDbEntity
  8
0
  6
Continuous
 62
     7
370
    15
100
AcDbCircle
 10
2054.976046090854
 20
900.4340045149676
 30
0.0
 40
0.3000000000474343
100
AcDbArc
 50
0.0009622400083525
 51
89.99999999997395
  0
LINE
  5
459
330
43A
100
AcDbEntity
  8
0
  6
Continuous
 62
     7
370
    15
100
AcDbLine
 10
2055.276046090854
 20
894.7095839414055
 30
0.0
 11
2055.27604609086
 21
900.434004514973
 31
0.0
  0
LINE
  5
45A
330
43A
100
AcDbEntity
  8
0
  6
Continuous
 62
     7
370
    15
100
AcDbLine
 10
2052.58044262482
 20
894.7095839414053
 30
0.0
 11
2055.276046090854
 21
894.7095839414053
 31
0.0
  0
LINE
  5
45B
330
43A
100
AcDbEntity
  8
0
  6
Continuous
 62
     7
370
    15
100
AcDbLine
 10
2052.58044262481
 20
900.4340045149676
 30
0.0
 11
2052.58044262482
 21
894.7095839414068
 31
0.0
  0
ARC
  5
45C
330
43A
100
AcDbEntity
  8
0
  6
Continuous
 62
     7
370
    15
100
AcDbCircle
 10
2052.88044262482
 20
900.4340045149676
 30
0.0
 40
0.3000000000525786
100
AcDbArc
 50
90.0
 51
179.9990377599916
  0
LINE
  5
45D
330
43A
100
AcDbEntity
  8
0
  6
Continuous
 62
     7
370
    15
100
AcDbLine
 10
2052.88044262482
 20
900.734004514978
 30
0.0
 11
2052.928247409595
 21
900.73400451496
 31
0.0
  0
ARC
  5
45E
330
43A
100
AcDbEntity
  8
0
  6
Continuous
 62
     7
370
    15
100
AcDbCircle
 10
2052.928247409595
 20
901.0340045149549
 30
0.0
 40
0.3000000000029104
100
AcDbArc
 50
270.0
 51
359.9999794802508
  0
LINE
  5
45F
330
43A
100
AcDbEntity
  8
0
  6
Continuous
 62
     7
370
    15
100
AcDbLine
 10
2053.228247409595
 20
907.8705498084641
 30
0.0
 11
2053.228247409595
 21
901.0340045149535
 31
0.0
  0
LINE
  5
460
330
43A
100
AcDbEntity
  8
0
  6
Continuous
 62
     7
370
    15
100
AcDbLine
 10
2054.628241306065
 20
901.0340045149819
 30
0.0
 11
2054.628241306079
 21
907.8705498084641
 31
0.0
  0
ARC
  5
461
330
43A
100
AcDbEntity
  8
0
  6
Continuous
 62
     7
370
    15
100
AcDbCircle
 10
2054.928241306079
 20
901.0340045150089
 30
0.0
 40
0.3000000000543049
100
AcDbArc
 50
180.0008801611743
 51
270.0
  0
LINE
  5
462
330
43A
100
AcDbEntity
  8
0
  6
Continuous
 62
     7
370
    15
100
AcDbLine
 10
2055.276046090854
 20
892.7880056322401
 30
0.0
 11
2052.58044262482
 21
892.7880056322401
 31
0.0
  0
LINE
  5
463
330
43A
100
AcDbEntity
  8
0
  6
Continuous
 62
     7
370
    15
100
AcDbLine
 10
2052.58044262482
 20
892.7880056322401
 30
0.0
 11
2052.58044262482
 21
894.7095839414053
 31
0.0
  0
LINE
  5
464
330
43A
100
AcDbEntity
  8
0
  6
Continuous
 62
     7
370
    15
100
AcDbLine
 10
2055.276046090854
 20
894.7095839414055
 30
0.0
 11
2055.276046090854
 21
892.7880056322401
 31
0.0
  0
LINE
  5
465
330
43A
100
AcDbEntity
  8
0
  6
Continuous
 62
     7
370
    15
100
AcDbLine
 10
2055.828247409595
 20
912.4691438793666
 30
0.0
 11
2055.428247409595
 21
912.4691438793666
 31
0.0
  0
LINE
  5
466
330
43A
100
AcDbEntity
  8
0
  6
Continuous
 62
     7
370
    15
100
AcDbLine
 10
2055.428247409595
 20
911.1691438793666
 30
0.0
 11
2055.828247409595
 21
912.4691438793666
 31
0.0
  0
LINE
  5
467
330
43A
100
AcDbEntity
  8
0
  6
Continuous
 62
     7
370
    15
100
AcDbLine
 10
2052.028247409594
 20
912.4691438793666
 30
0.0
 11
2052.428247409595
 21
911.1691438793666
 31
0.0
  0
LINE
  5
468
330
43A
100
AcDbEntity
  8
0
  6
Continuous
 62
     7
370
    15
100
AcDbLine
 10
2052.428247409595
 20
912.4691438793666
 30
0.0
 11
2052.028247409594
 21
912.4691438793666
 31
0.0
  0
LINE
  5
469
330
43A
100
AcDbEntity
  8
0
  6
Continuous
 62
     7
370
    15
100
AcDbLine
 10
2052.928247409595
 20
900.73400451496
 30
0.0
 11
2052.928247409595
 21
900.734039714808
 31
0.0
  0
ARC
  5
46A
330
43A
100
AcDbEntity
  8
0
  6
Continuous
 62
     7
370
    15
100
AcDbCircle
 10
2052.928247409595
 20
901.0340397148006
 30
0.0
 40
0.3000000000021483
100
AcDbArc
 50
270.0
 51
359.9999999989773
  0
LINE
  5
46B
330
43A
100
AcDbEntity
  8
0
  6
Continuous
 62
     7
370
    15
100
AcDbLine
 10
2052.928247409595
 20
900.734039714808
 30
0.0
 11
2052.88044262482
 21
900.7340397148364
 31
0.0
  0
LINE
  5
46C
330
43A
100
AcDbEntity
  8
0
  6
Continuous
 62
     7
370
    15
100
AcDbLine
 10
2052.88044262482
 20
900.734004514978
 30
0.0
 11
2052.88044262482
 21
900.7340397148364
 31
0.0
  0
ARC
  5
46D
330
43A
100
AcDbEntity
  8
0
  6
Continuous
 62
     7
370
    15
100
AcDbCircle
 10
2054.928241306079
 20
901.0340397148006
 30
0.0
 40
0.3000000000021483
100
AcDbArc
 50
179.9999480024674
 51
270.0
  0
LINE
  5
46E
330
43A
100
AcDbEntity
  8
0
  6
Continuous
 62
     7
370
    15
100
AcDbLine
 10
2054.928241306079
 20
900.734039714808
 30
0.0
 11
2054.928241306079
 21
900.7340045149934
 31
0.0
  0
LINE
  5
46F
330
43A
100
AcDbEntity
  8
0
  6
Continuous
 62
     7
370
    15
100
AcDbLine
 10
2054.976046090854
 20
900.7340397148363
 30
0.0
 11
2054.928241306079
 21
900.734039714808
 31
0.0
  0
LINE
  5
470
330
43A
100
AcDbEntity
  8
0
  6
Continuous
 62
     7
370
    15
100
AcDbLine
 10
2054.976046090854
 20
900.7340397148363
 30
0.0
 11
2054.976046090854
 21
900.734004514974
 31
0.0
  0
ARC
  5
471
330
43A
100
AcDbEntity
  8
0
  6
Continuous
 62
     7
370
    15
100
AcDbCircle
 10
2054.976046090854
 20
900.4340397148157
 30
0.0
 40
0.3000000000206171
100
AcDbArc
 50
0.0000000000195413
 51
90.0
  0
LINE
  5
472
330
43A
100
AcDbEntity
  8
0
  6
Continuous
 62
     7
370
    15
100
AcDbLine
 10
2055.276046090854
 20
900.4340397148157
 30
0.0
 11
2055.27604609086
 21
900.434004514973
 31
0.0
  0
ARC
  5
473
330
43A
100
AcDbEntity
  8
0
  6
Continuous
 62
     7
370
    15
100
AcDbCircle
 10
2052.88044262482
 20
900.4340397148157
 30
0.0
 40
0.3000000000207308
100
AcDbArc
 50
90.0
 51
179.9999999990034
  0
LINE
  5
474
330
43A
100
AcDbEntity
  8
0
  6
Continuous
 62
     7
370
    15
100
AcDbLine
 10
2052.58044262481
 20
900.4340045149676
 30
0.0
 11
2052.58044262482
 21
900.4340397148208
 31
0.0
  0
LINE
  5
475
330
43A
100
AcDbEntity
  8
0
  6
Continuous
 62
     7
370
    15
100
AcDbLine
 10
2052.58044262482
 20
892.2095591585286
 30
0.0
 11
2055.276046090854
 21
892.2095591585286
 31
0.0
  0
SPLINE
  5
476
330
43A
100
AcDbEntity
  8
0
  6
Continuous
 62
     7
370
    15
100
AcDbSpline
210
0.0
220
0.0
230
1.0
 70
    24
 71
     3
 72
    10
 73
     6
 74
     0
 42
0.0000000001
 43
0.0000000001
 40
0.0
 40
0.0
 40
0.0
 40
0.0
 40
0.5
 40
0.5
 40
1.0
 40
1.0
 40
1.0
 40
1.0
 10
2052.58044262482
 20
892.7880056322401
 30
0.0
 10
2052.58044262482
 20
892.6275829717331
 30
0.0
 10
2052.58044262482
 20
892.4780365808112
 30
0.0
 10
2052.58044262482
 20
892.2686196451657
 30
0.0
 10
2052.58044262482
 20
892.2095591585287
 30
0.0
 10
2052.58044262482
 20
892.2095591585286
 30
0.0
  0
SPLINE
  5
477
330
43A
100
AcDbEntity
  8
0
  6
Continuous
 62
     7
370
    15
100
AcDbSpline
210
0.0
220
0.0
230
1.0
 70
    24
 71
     3
 72
    10
 73
     6
 74
     0
 42
0.0000000001
 43
0.0000000001
 40
0.0
 40
0.0
 40
0.0
 40
0.0
 40
0.5
 40
0.5
 40
1.0
 40
1.0
 40
1.0
 40
1.0
 10
2055.276046090854
 20
892.2095591585286
 30
0.0
 10
2055.276046090854
 20
892.2095591585286
 30
0.0
 10
2055.276046090854
 20
892.268619645166
 30
0.0
 10
2055.276046090854
 20
892.4780365808111
 30
0.0
 10
2055.276046090854
 20
892.6275829717331
 30
0.0
 10
2055.276046090854
 20
892.7880056322401
 30
0.0
  0
ENDBLK
  5
43C
330
43A
100
AcDbEntity
  8
0
100
AcDbBlockEnd
  0
BLOCK
  5
47A
330
479
100
AcDbEntity
  8
0
100
AcDbBlockBegin
  2
3
 70
     0
 10
0.0
 20
0.0
 30
0.0
  3
3
  1

  0
LINE
  5
47C
330
479
100
AcDbEntity
  8
0
  6
Continuous
 62
     7
370
    15
100
AcDbLine
 10
2086.7983441925
 20
873.793569957488
 30
0.0
 11
2086.7983441925
 21
878.2935699574879
 31
0.0
  0
LINE
  5
47D
330
479
100
AcDbEntity
  8
0
  6
Continuous
 62
     7
370
    15
100
AcDbLine
 10
2086.7983441925
 20
873.793569957488
 30
0.0
 11
2068.39834996223
 21
873.793569957488
 31
0.0
  0
LINE
  5
47E
330
479
100
AcDbEntity
  8
0
  6
Continuous
 62
     7
370
    15
100
AcDbLine
 10
2068.39834996223
 20
878.2935699574879
 30
0.0
 11
2086.7983441925
 21
878.2935699574879
 31
0.0
  0
LINE
  5
47F
330
479
100
AcDbEntity
  8
0
  6
Continuous
 62
     7
370
    15
100
AcDbLine
 10
2068.39834996223
 20
878.2935699574879
 30
0.0
 11
2068.39834996223
 21
873.793569957488
 31
0.0
  0
ENDBLK
  5
47B
330
479
100
AcDbEntity
  8
0
100
AcDbBlockEnd
  0
BLOCK
  5
482
330
481
100
AcDbEntity
  8
0
100
AcDbBlockBegin
  2
4
 70
     0
 10
0.0
 20
0.0
 30
0.0
  3
4
  1

  0
LINE
  5
484
330
481
100
AcDbEntity
  8
0
  6
Continuous
 62
     7
370
    15
100
AcDbLine
 10
2117.975741874156
 20
895.7044899393133
 30
0.0
 11
2117.579821320922
 21
895.9330553740382
 31
0.0
  0
LINE
  5
485
330
481
100
AcDbEntity
  8
0
  6
Continuous
 62
     7
370
    15
100
AcDbLine
 10
2115.752968693326
 20
888.1352210374629
 30
0.0
 11
2117.662583717455
 21
889.2376183257065
 31
0.0
  0
LINE
  5
486
330
481
100
AcDbEntity
  8
0
  6
Continuous
 62
     7
370
    15
100
AcDbLine
 10
2111.187516774765
 20
899.6232488760623
 30
0.0
 11
2110.791596221541
 21
899.8518143107816
 31
0.0
  0
LINE
  5
487
330
481
100
AcDbEntity
  8
0
  6
Continuous
 62
     7
370
    15
100
AcDbLine
 10
2108.964743593935
 20
892.0539799742119
 30
0.0
 11
2110.874358618064
 21
893.1563772624555
 31
0.0
  0
LINE
  5
488
330
481
100
AcDbEntity
  8
0
  6
Continuous
 62
     7
370
    15
100
AcDbLine
 10
2117.544484675009
 20
909.8457865794257
 30
0.0
 11
2104.533723980992
 21
917.3567388529674
 31
0.0
  0
LINE
  5
489
330
481
100
AcDbEntity
  8
0
  6
Continuous
 62
     7
370
    15
100
AcDbLine
 10
2104.533723980992
 20
918.3365878272303
 30
0.0
 11
2104.533723980992
 21
917.3567388529674
 31
0.0
  0
LINE
  5
48A
330
481
100
AcDbEntity
  8
0
  6
Continuous
 62
     7
370
    15
100
AcDbLine
 10
2117.544484675009
 20
910.8256355536884
 30
0.0
 11
2104.533723980992
 21
918.3365878272303
 31
0.0
  0
LINE
  5
48B
330
481
100
AcDbEntity
  8
0
  6
Continuous
 62
     7
370
    15
100
AcDbLine
 10
2117.544484675009
 20
909.8457865794257
 30
0.0
 11
2117.544484675009
 21
910.8256355536884
 31
0.0
  0
LINE
  5
48C
330
481
100
AcDbEntity
  8
0
  6
Continuous
 62
     7
370
    15
100
AcDbLine
 10
2117.544484675009
 20
910.8256355536884
 30
0.0
 11
2120.726465190349
 21
912.6625538052895
 31
0.0
  0
LINE
  5
48D
330
481
100
AcDbEntity
  8
0
  6
Continuous
 62
     7
370
    15
100
AcDbLine
 10
2107.715704496332
 20
920.1735060788314
 30
0.0
 11
2104.533723980992
 21
918.3365878272303
 31
0.0
  0
LINE
  5
48E
330
481
100
AcDbEntity
  8
0
  6
Continuous
 62
     7
370
    15
100
AcDbLine
 10
2107.715704496332
 20
920.1735060788314
 30
0.0
 11
2120.726465190349
 21
912.6625538052895
 31
0.0
  0
LINE
  5
48F
330
481
100
AcDbEntity
  8
0
  6
Continuous
 62
     7
370
    15
100
AcDbLine
 10
2120.196135104459
 20
911.3765517890932
 30
0.0
 11
2120.196135104459
 21
905.9901442722317
 31
0.0
  0
LINE
  5
490
330
481
100
AcDbEntity
  8
0
  6
Continuous
 62
     7
370
    15
100
AcDbLine
 10
2120.196135104459
 20
905.9901442722317
 30
0.0
 11
2118.0748147609
 21
904.7655321044976
 31
0.0
  0
LINE
  5
491
330
481
100
AcDbEntity
  8
0
  6
Continuous
 62
     7
370
    15
100
AcDbLine
 10
2118.0748147609
 20
910.1519396213591
 30
0.0
 11
2118.0748147609
 21
904.7655321044976
 31
0.0
  0
LINE
  5
492
330
481
100
AcDbEntity
  8
0
  6
Continuous
 62
     7
370
    15
100
AcDbLine
 10
2118.0748147609
 20
910.1519396213591
 30
0.0
 11
2117.544484675009
 21
909.8457865794257
 31
0.0
  0
LINE
  5
493
330
481
100
AcDbEntity
  8
0
  6
Continuous
 62
     7
370
    15
100
AcDbLine
 10
2120.726465190349
 20
911.6827048310268
 30
0.0
 11
2120.726465190349
 21
912.6625538052895
 31
0.0
  0
LINE
  5
494
330
481
100
AcDbEntity
  8
0
  6
Continuous
 62
     7
370
    15
100
AcDbLine
 10
2120.726465190349
 20
911.6827048310268
 30
0.0
 11
2120.196135104459
 21
911.3765517890932
 31
0.0
  0
LINE
  5
495
330
481
100
AcDbEntity
  8
0
  6
Continuous
 62
     7
370
    15
100
AcDbLine
 10
2112.665449924714
 20
904.9867997896813
 30
0.0
 11
2112.66544992473
 21
907.8882919546058
 31
0.0
  0
LINE
  5
496
330
481
100
AcDbEntity
  8
0
  6
Continuous
 62
     7
370
    15
100
AcDbLine
 10
2112.66544992473
 20
907.8882919546058
 30
0.0
 11
2110.473418903052
 21
909.1537245279312
 31
0.0
  0
LINE
  5
497
330
481
100
AcDbEntity
  8
0
  6
Continuous
 62
     7
370
    15
100
AcDbLine
 10
2110.473418903052
 20
909.1537245279312
 30
0.0
 11
2110.473418903052
 21
906.235904372791
 31
0.0
  0
ARC
  5
498
330
481
100
AcDbEntity
  8
0
  6
Continuous
 62
     7
370
    15
100
AcDbCircle
 10
2110.223088741336
 20
906.2112671292029
 30
0.0
 40
0.2515396263736966
100
AcDbArc
 50
305.697575969438
 51
5.620891283972035
  0
LINE
  5
499
330
481
100
AcDbEntity
  8
0
  6
Continuous
 62
     7
370
    15
100
AcDbLine
 10
2110.329487740632
 20
905.9836747007249
 30
0.0
 11
2110.369863837318
 21
906.0069897324213
 31
0.0
  0
ARC
  5
49A
330
481
100
AcDbEntity
  8
0
  6
Continuous
 62
     7
370
    15
100
AcDbCircle
 10
2110.476258487859
 20
905.7793974220011
 30
0.0
 40
0.251536992994087
100
AcDbArc
 50
125.6967872099773
 51
185.6205761324804
  0
LINE
  5
49B
330
481
100
AcDbEntity
  8
0
  6
Continuous
 62
     7
370
    15
100
AcDbLine
 10
2110.225930811351
 20
905.754761813251
 30
0.0
 11
2110.225930811351
 21
904.1099450300198
 31
0.0
  0
LINE
  5
49C
330
481
100
AcDbEntity
  8
0
  6
Continuous
 62
     7
370
    15
100
AcDbLine
 10
2109.978446324731
 20
903.9670288324826
 30
0.0
 11
2110.225932619187
 21
904.109946074001
 31
0.0
  0
LINE
  5
49D
330
481
100
AcDbEntity
  8
0
  6
Continuous
 62
     7
370
    15
100
AcDbLine
 10
2109.978446324731
 20
903.9670288324826
 30
0.0
 11
2106.372197403659
 21
906.0488720213394
 31
0.0
  0
LINE
  5
49E
330
481
100
AcDbEntity
  8
0
  6
Continuous
 62
     7
370
    15
100
AcDbLine
 10
2106.124711109203
 20
906.4775308562559
 30
0.0
 11
2106.372197403659
 21
906.0488720213394
 31
0.0
  0
LINE
  5
49F
330
481
100
AcDbEntity
  8
0
  6
Continuous
 62
     7
370
    15
100
AcDbLine
 10
2106.124711109203
 20
906.4775308562559
 30
0.0
 11
2106.124712013122
 21
908.1223450300429
 31
0.0
  0
ARC
  5
4A0
330
481
100
AcDbEntity
  8
0
  6
Continuous
 62
     7
370
    15
100
AcDbCircle
 10
2105.403742655393
 20
908.0977212635627
 30
0.0
 40
0.7213897314620164
100
AcDbArc
 50
1.956102148569105
 51
31.14440153450413
  0
LINE
  5
4A1
330
481
100
AcDbEntity
  8
0
  6
Continuous
 62
     7
370
    15
100
AcDbLine
 10
2105.980779891073
 20
908.5407539618998
 30
0.0
 11
2106.02115598776
 21
908.4708216812458
 31
0.0
  0
ARC
  5
4A2
330
481
100
AcDbEntity
  8
0
  6
Continuous
 62
     7
370
    15
100
AcDbCircle
 10
2106.598209558721
 20
908.9138574395276
 30
0.0
 40
0.7214052948994823
100
AcDbArc
 50
181.9565178986606
 51
211.1439385293885
  0
LINE
  5
4A3
330
481
100
AcDbEntity
  8
0
  6
Continuous
 62
     7
370
    15
100
AcDbLine
 10
2105.877224825322
 20
908.8892279101925
 30
0.0
 11
2105.877224825339
 21
911.8070508913548
 31
0.0
  0
LINE
  5
4A4
330
481
100
AcDbEntity
  8
0
  6
Continuous
 62
     7
370
    15
100
AcDbLine
 10
2105.064054066883
 20
912.2764843780394
 30
0.0
 11
2105.877224825339
 21
911.8070508913548
 31
0.0
  0
LINE
  5
4A5
330
481
100
AcDbEntity
  8
0
  6
Continuous
 62
     7
370
    15
100
AcDbLine
 10
2105.064054066883
 20
912.2764843780394
 30
0.0
 11
2105.064054066883
 21
917.0505858110338
 31
0.0
  0
LINE
  5
4A6
330
481
100
AcDbEntity
  8
0
  6
Continuous
 62
     7
370
    15
100
AcDbLine
 10
2117.261644002443
 20
905.2349655911822
 30
0.0
 11
2118.0748147609
 21
904.7655321044976
 31
0.0
  0
LINE
  5
4A7
330
481
100
AcDbEntity
  8
0
  6
Continuous
 62
     7
370
    15
100
AcDbLine
 10
2117.261644002443
 20
905.2349655911822
 30
0.0
 11
2117.261644002443
 21
902.33347625228
 31
0.0
  0
ARC
  5
4A8
330
481
100
AcDbEntity
  8
0
  6
Continuous
 62
     7
370
    15
100
AcDbCircle
 10
2117.011313840726
 20
902.3088390086916
 30
0.0
 40
0.2515396263742243
100
AcDbArc
 50
305.6975759695682
 51
5.620891283965553
  0
LINE
  5
4A9
330
481
100
AcDbEntity
  8
0
  6
Continuous
 62
     7
370
    15
100
AcDbLine
 10
2117.117712840022
 20
902.0812465802137
 30
0.0
 11
2117.158088936709
 21
902.1045616119099
 31
0.0
  0
ARC
  5
4AA
330
481
100
AcDbEntity
  8
0
  6
Continuous
 62
     7
370
    15
100
AcDbCircle
 10
2117.264483587251
 20
901.8769693014897
 30
0.0
 40
0.2515369929948734
100
AcDbArc
 50
125.6967872101363
 51
185.6205761324544
  0
LINE
  5
4AB
330
481
100
AcDbEntity
  8
0
  6
Continuous
 62
     7
370
    15
100
AcDbLine
 10
2117.014155910741
 20
901.8523336927398
 30
0.0
 11
2117.014155910741
 21
900.2075169095084
 31
0.0
  0
LINE
  5
4AC
330
481
100
AcDbEntity
  8
0
  6
Continuous
 62
     7
370
    15
100
AcDbLine
 10
2116.752529288499
 20
900.0564339768516
 30
0.0
 11
2117.014157115966
 21
900.2075176054958
 31
0.0
  0
LINE
  5
4AD
330
481
100
AcDbEntity
  8
0
  6
Continuous
 62
     7
370
    15
100
AcDbLine
 10
2116.752529288499
 20
900.0564339768516
 30
0.0
 11
2113.174564638674
 21
902.121949003472
 31
0.0
  0
LINE
  5
4AE
330
481
100
AcDbEntity
  8
0
  6
Continuous
 62
     7
370
    15
100
AcDbLine
 10
2112.912936208594
 20
902.5751027357445
 30
0.0
 11
2113.174564638674
 21
902.1219490034718
 31
0.0
  0
LINE
  5
4AF
330
481
100
AcDbEntity
  8
0
  6
Continuous
 62
     7
370
    15
100
AcDbLine
 10
2112.912936208594
 20
902.5751027357445
 30
0.0
 11
2112.912937112513
 21
904.2199169095315
 31
0.0
  0
ARC
  5
4B0
330
481
100
AcDbEntity
  8
0
  6
Continuous
 62
     7
370
    15
100
AcDbCircle
 10
2112.191967754784
 20
904.1952931430515
 30
0.0
 40
0.7213897314618978
100
AcDbArc
 50
1.956102148556085
 51
31.14440153450413
  0
LINE
  5
4B1
330
481
100
AcDbEntity
  8
0
  6
Continuous
 62
     7
370
    15
100
AcDbLine
 10
2112.769004990464
 20
904.6383258413888
 30
0.0
 11
2112.809381087151
 21
904.5683935607346
 31
0.0
  0
ARC
  5
4B2
330
481
100
AcDbEntity
  8
0
  6
Continuous
 62
     7
370
    15
100
AcDbCircle
 10
2113.386434658111
 20
905.0114293190159
 30
0.0
 40
0.7214052948984717
100
AcDbArc
 50
181.9565178986215
 51
211.1439385293773
  0
LINE
  5
4B3
330
481
100
AcDbEntity
  8
0
  6
Continuous
 62
     7
370
    15
100
AcDbLine
 10
2116.024207135366
 20
903.170322087031
 30
0.0
 11
2116.024207135366
 21
904.2318251424823
 31
0.0
  0
LINE
  5
4B4
330
481
100
AcDbEntity
  8
0
  6
Continuous
 62
     7
370
    15
100
AcDbLine
 10
2113.902886791807
 20
905.4564373102165
 30
0.0
 11
2116.024207135366
 21
904.2318251424823
 31
0.0
  0
LINE
  5
4B5
330
481
100
AcDbEntity
  8
0
  6
Continuous
 62
     7
370
    15
100
AcDbLine
 10
2113.902886791807
 20
904.394934254765
 30
0.0
 11
2116.024207135366
 21
903.170322087031
 31
0.0
  0
LINE
  5
4B6
330
481
100
AcDbEntity
  8
0
  6
Continuous
 62
     7
370
    15
100
AcDbLine
 10
2109.235982035976
 20
907.0890810237798
 30
0.0
 11
2109.235982035976
 21
908.1505840792315
 31
0.0
  0
LINE
  5
4B7
330
481
100
AcDbEntity
  8
0
  6
Continuous
 62
     7
370
    15
100
AcDbLine
 10
2107.114661692416
 20
909.3751962469655
 30
0.0
 11
2109.235982035976
 21
908.1505840792315
 31
0.0
  0
LINE
  5
4B8
330
481
100
AcDbEntity
  8
0
  6
Continuous
 62
     7
370
    15
100
AcDbLine
 10
2107.114661692416
 20
908.313693191514
 30
0.0
 11
2109.235982035976
 21
907.0890810237798
 31
0.0
  0
LINE
  5
4B9
330
481
100
AcDbEntity
  8
0
  6
Continuous
 62
     7
370
    15
100
AcDbLine
 10
2119.382964346002
 20
903.558088420014
 30
0.0
 11
2117.261644002443
 21
902.33347625228
 31
0.0
  0
LINE
  5
4BA
330
481
100
AcDbEntity
  8
0
  6
Continuous
 62
     7
370
    15
100
AcDbLine
 10
2119.382964346002
 20
905.5207107855475
 30
0.0
 11
2119.382964346002
 21
903.558088420014
 31
0.0
  0
LINE
  5
4BB
330
481
100
AcDbEntity
  8
0
  6
Continuous
 62
     7
370
    15
100
AcDbLine
 10
2113.620044079332
 20
905.2931556878519
 30
0.0
 11
2113.902886791807
 21
904.394934254765
 31
0.0
  0
LINE
  5
4BC
330
481
100
AcDbEntity
  8
0
  6
Continuous
 62
     7
370
    15
100
AcDbLine
 10
2113.620044079332
 20
905.2931556878519
 30
0.0
 11
2115.741364422891
 21
904.0685435201179
 31
0.0
  0
LINE
  5
4BD
330
481
100
AcDbEntity
  8
0
  6
Continuous
 62
     7
370
    15
100
AcDbLine
 10
2115.741364422891
 20
904.0685435201179
 30
0.0
 11
2116.024207135366
 21
903.170322087031
 31
0.0
  0
LINE
  5
4BE
330
481
100
AcDbEntity
  8
0
  6
Continuous
 62
     7
370
    15
100
AcDbLine
 10
2113.902886791807
 20
905.4564373102165
 30
0.0
 11
2113.620044079332
 21
905.2931556878519
 31
0.0
  0
LINE
  5
4BF
330
481
100
AcDbEntity
  8
0
  6
Continuous
 62
     7
370
    15
100
AcDbLine
 10
2116.024207135366
 20
904.2318251424823
 30
0.0
 11
2115.741364422891
 21
904.0685435201179
 31
0.0
  0
LINE
  5
4C0
330
481
100
AcDbEntity
  8
0
  6
Continuous
 62
     7
370
    15
100
AcDbLine
 10
2117.158088936709
 20
902.1045616119099
 30
0.0
 11
2119.279409280268
 21
903.3291737796441
 31
0.0
  0
ARC
  5
4C1
330
481
100
AcDbEntity
  8
0
  6
Continuous
 62
     7
370
    15
100
AcDbCircle
 10
2119.132634184286
 20
903.5334511764258
 30
0.0
 40
0.2515396263741705
100
AcDbArc
 50
305.6975759695432
 51
5.620891283972035
  0
LINE
  5
4C2
330
481
100
AcDbEntity
  8
0
  6
Continuous
 62
     7
370
    15
100
AcDbLine
 10
2117.117712840022
 20
902.0812465802137
 30
0.0
 11
2119.239033183582
 21
903.3058587479478
 31
0.0
  0
LINE
  5
4C3
330
481
100
AcDbEntity
  8
0
  6
Continuous
 62
     7
370
    15
100
AcDbLine
 10
2119.279409280268
 20
903.3291737796441
 30
0.0
 11
2119.239033183582
 21
903.3058587479478
 31
0.0
  0
LINE
  5
4C4
330
481
100
AcDbEntity
  8
0
  6
Continuous
 62
     7
370
    15
100
AcDbLine
 10
2117.014155910741
 20
901.8523336927398
 30
0.0
 11
2119.135476254301
 21
903.0769456013818
 31
0.0
  0
ARC
  5
4C5
330
481
100
AcDbEntity
  8
0
  6
Continuous
 62
     7
370
    15
100
AcDbCircle
 10
2119.385804040528
 20
903.1015813917059
 30
0.0
 40
0.2515371199681661
100
AcDbArc
 50
125.696797203437
 51
185.6206148453333
  0
LINE
  5
4C6
330
481
100
AcDbEntity
  8
0
  6
Continuous
 62
     7
370
    15
100
AcDbLine
 10
2119.135478062138
 20
901.4321301212238
 30
0.0
 11
2117.014157718579
 21
900.2075179534896
 31
0.0
  0
LINE
  5
4C7
330
481
100
AcDbEntity
  8
0
  6
Continuous
 62
     7
370
    15
100
AcDbLine
 10
2119.135476254301
 20
903.0769456013818
 30
0.0
 11
2119.135478062138
 21
901.4321301212238
 31
0.0
  0
LINE
  5
4C8
330
481
100
AcDbEntity
  8
0
  6
Continuous
 62
     7
370
    15
100
AcDbLine
 10
2118.873849632059
 20
901.2810461445857
 30
0.0
 11
2116.752529288499
 21
900.0564339768516
 31
0.0
  0
LINE
  5
4C9
330
481
100
AcDbEntity
  8
0
  6
Continuous
 62
     7
370
    15
100
AcDbLine
 10
2119.135478062138
 20
901.4321301212238
 30
0.0
 11
2118.873849632059
 21
901.2810461445857
 31
0.0
  0
LINE
  5
4CA
330
481
100
AcDbEntity
  8
0
  6
Continuous
 62
     7
370
    15
100
AcDbLine
 10
2117.791953507232
 20
895.6701219563397
 30
0.0
 11
2117.82575659472
 21
895.6896360633612
 31
0.0
  0
ARC
  5
4CB
330
481
100
AcDbEntity
  8
0
  6
Continuous
 62
     7
370
    15
100
AcDbCircle
 10
2117.908565957142
 20
895.5881123938521
 30
0.0
 40
0.1310131519175576
100
AcDbArc
 50
350.7863072336514
 51
129.2029410244116
  0
LINE
  5
4CC
330
481
100
AcDbEntity
  8
0
  6
Continuous
 62
     7
370
    15
100
AcDbLine
 10
2118.037891680333
 20
890.8929102523982
 30
0.0
 11
2118.037888781024
 21
895.5671349488543
 31
0.0
  0
LINE
  5
4CD
330
481
100
AcDbEntity
  8
0
  6
Continuous
 62
     7
370
    15
100
AcDbLine
 10
2116.131805728198
 20
889.7925577148171
 30
0.0
 11
2118.03788521842
 21
890.8929139827808
 31
0.0
  0
LINE
  5
4CE
330
481
100
AcDbEntity
  8
0
  6
Continuous
 62
     7
370
    15
100
AcDbLine
 10
2116.13180929079
 20
894.46677868088
 30
0.0
 11
2116.13181219011
 21
889.7925539844354
 31
0.0
  0
ARC
  5
4CF
330
481
100
AcDbEntity
  8
0
  6
Continuous
 62
     7
370
    15
100
AcDbCircle
 10
2116.592362043048
 20
894.4458275939838
 30
0.0
 40
0.4610290507708236
100
AcDbArc
 50
122.6047039613218
 51
177.3953432799764
  0
LINE
  5
4D0
330
481
100
AcDbEntity
  8
0
  6
Continuous
 62
     7
370
    15
100
AcDbLine
 10
2116.343941173209
 20
894.8342022289473
 30
0.0
 11
2116.377742555369
 21
894.8537173204343
 31
0.0
  0
ARC
  5
4D1
330
481
100
AcDbEntity
  8
0
  6
Continuous
 62
     7
370
    15
100
AcDbCircle
 10
2116.129321226372
 20
895.2420945119339
 30
0.0
 40
0.4610314518309693
100
AcDbArc
 50
302.604580831541
 51
357.3949108745561
  0
LINE
  5
4D2
330
481
100
AcDbEntity
  8
0
  6
Continuous
 62
     7
370
    15
100
AcDbLine
 10
2116.589876286163
 20
900.1503315564338
 30
0.0
 11
2116.58987621908
 21
895.2211398401614
 31
0.0
  0
LINE
  5
4D3
330
481
100
AcDbEntity
  8
0
  6
Continuous
 62
     7
370
    15
100
AcDbLine
 10
2117.579821320922
 20
895.7926230708325
 30
0.0
 11
2117.57982132093
 21
900.5340195014802
 31
0.0
  0
ARC
  5
4D4
330
481
100
AcDbEntity
  8
0
  6
Continuous
 62
     7
370
    15
100
AcDbCircle
 10
2117.709144128485
 20
895.7716455975841
 30
0.0
 40
0.1310131403332326
100
AcDbArc
 50
170.7862938954903
 51
309.2029543697712
  0
LINE
  5
4D5
330
481
100
AcDbEntity
  8
0
  6
Continuous
 62
     7
370
    15
100
AcDbLine
 10
2114.468551635107
 20
896.4457831979412
 30
0.0
 11
2114.468551635107
 21
901.3749462108325
 31
0.0
  0
LINE
  5
4D6
330
481
100
AcDbEntity
  8
0
  6
Continuous
 62
     7
370
    15
100
AcDbLine
 10
2116.58987621908
 20
895.2211398401614
 30
0.0
 11
2114.468551635107
 21
896.4457831979412
 31
0.0
  0
LINE
  5
4D7
330
481
100
AcDbEntity
  8
0
  6
Continuous
 62
     7
370
    15
100
AcDbLine
 10
2112.594739246612
 20
907.4605165405252
 30
0.0
 11
2110.473418903052
 21
906.235904372791
 31
0.0
  0
LINE
  5
4D8
330
481
100
AcDbEntity
  8
0
  6
Continuous
 62
     7
370
    15
100
AcDbLine
 10
2112.594739246612
 20
907.9291123601972
 30
0.0
 11
2112.594739246612
 21
907.4605165405252
 31
0.0
  0
LINE
  5
4D9
330
481
100
AcDbEntity
  8
0
  6
Continuous
 62
     7
370
    15
100
AcDbLine
 10
2109.235982035976
 20
908.1505840792315
 30
0.0
 11
2108.953139323501
 21
907.9873024568669
 31
0.0
  0
LINE
  5
4DA
330
481
100
AcDbEntity
  8
0
  6
Continuous
 62
     7
370
    15
100
AcDbLine
 10
2108.953139323501
 20
907.9873024568669
 30
0.0
 11
2109.235982035976
 21
907.0890810237798
 31
0.0
  0
LINE
  5
4DB
330
481
100
AcDbEntity
  8
0
  6
Continuous
 62
     7
370
    15
100
AcDbLine
 10
2106.831818979941
 20
909.2119146246009
 30
0.0
 11
2108.953139323501
 21
907.9873024568669
 31
0.0
  0
LINE
  5
4DC
330
481
100
AcDbEntity
  8
0
  6
Continuous
 62
     7
370
    15
100
AcDbLine
 10
2107.114661692416
 20
909.3751962469655
 30
0.0
 11
2106.831818979941
 21
909.2119146246009
 31
0.0
  0
LINE
  5
4DD
330
481
100
AcDbEntity
  8
0
  6
Continuous
 62
     7
370
    15
100
AcDbLine
 10
2106.831818979941
 20
909.2119146246009
 30
0.0
 11
2107.114661692416
 21
908.313693191514
 31
0.0
  0
LINE
  5
4DE
330
481
100
AcDbEntity
  8
0
  6
Continuous
 62
     7
370
    15
100
AcDbLine
 10
2110.369863837318
 20
906.0069897324213
 30
0.0
 11
2112.491184180877
 21
907.2316019001553
 31
0.0
  0
ARC
  5
4DF
330
481
100
AcDbEntity
  8
0
  6
Continuous
 62
     7
370
    15
100
AcDbCircle
 10
2112.344409084895
 20
907.435879296937
 30
0.0
 40
0.2515396263737529
100
AcDbArc
 50
305.6975759694418
 51
5.620891283972035
  0
LINE
  5
4E0
330
481
100
AcDbEntity
  8
0
  6
Continuous
 62
     7
370
    15
100
AcDbLine
 10
2110.329487740632
 20
905.9836747007249
 30
0.0
 11
2112.450808084191
 21
907.208286868459
 31
0.0
  0
LINE
  5
4E1
330
481
100
AcDbEntity
  8
0
  6
Continuous
 62
     7
370
    15
100
AcDbLine
 10
2112.491184180877
 20
907.2316019001553
 30
0.0
 11
2112.450808084191
 21
907.208286868459
 31
0.0
  0
LINE
  5
4E2
330
481
100
AcDbEntity
  8
0
  6
Continuous
 62
     7
370
    15
100
AcDbLine
 10
2110.225930811351
 20
905.754761813251
 30
0.0
 11
2112.347251154911
 21
906.9793737218931
 31
0.0
  0
ARC
  5
4E3
330
481
100
AcDbEntity
  8
0
  6
Continuous
 62
     7
370
    15
100
AcDbCircle
 10
2112.597578941138
 20
907.0040095122164
 30
0.0
 40
0.2515371199691108
100
AcDbArc
 50
125.696797203527
 51
185.6206148451039
  0
LINE
  5
4E4
330
481
100
AcDbEntity
  8
0
  6
Continuous
 62
     7
370
    15
100
AcDbLine
 10
2112.347252962747
 20
905.334558241735
 30
0.0
 11
2110.225932619187
 21
904.109946074001
 31
0.0
  0
LINE
  5
4E5
330
481
100
AcDbEntity
  8
0
  6
Continuous
 62
     7
370
    15
100
AcDbLine
 10
2112.347251154911
 20
906.9793737218931
 30
0.0
 11
2112.347252962747
 21
905.334558241735
 31
0.0
  0
LINE
  5
4E6
330
481
100
AcDbEntity
  8
0
  6
Continuous
 62
     7
370
    15
100
AcDbLine
 10
2116.13180929079
 20
894.46677868088
 30
0.0
 11
2114.010481085554
 21
895.6914241291887
 31
0.0
  0
ARC
  5
4E7
330
481
100
AcDbEntity
  8
0
  6
Continuous
 62
     7
370
    15
100
AcDbCircle
 10
2114.471045915921
 20
895.6704658735487
 30
0.0
 40
0.4610414422268331
100
AcDbArc
 50
122.6054783372439
 51
177.3945215188559
  0
LINE
  5
4E8
330
481
100
AcDbEntity
  8
0
  6
Continuous
 62
     7
370
    15
100
AcDbLine
 10
2116.343941173209
 20
894.8342022289473
 30
0.0
 11
2114.222613119909
 21
896.0588475895404
 31
0.0
  0
LINE
  5
4E9
330
481
100
AcDbEntity
  8
0
  6
Continuous
 62
     7
370
    15
100
AcDbLine
 10
2116.377742555369
 20
894.8537173204343
 30
0.0
 11
2114.256417912725
 21
896.0783607120898
 31
0.0
  0
ARC
  5
4EA
330
481
100
AcDbEntity
  8
0
  6
Continuous
 62
     7
370
    15
100
AcDbCircle
 10
2114.007996257773
 20
896.4667381672565
 30
0.0
 40
0.4610318495842082
100
AcDbArc
 50
302.6045973000113
 51
357.3948761075566
  0
LINE
  5
4EB
330
481
100
AcDbEntity
  8
0
  6
Continuous
 62
     7
370
    15
100
AcDbLine
 10
2115.892219896776
 20
888.3618205586182
 30
0.0
 11
2116.131805728198
 21
889.7925577148171
 31
0.0
  0
SPLINE
  5
4EC
330
481
100
AcDbEntity
  8
0
  6
Continuous
 62
     7
370
    15
100
AcDbSpline
210
0.0
220
0.0
230
1.0
 70
     8
 71
     3
 72
    10
 73
     6
 74
     0
 42
0.0000000001
 43
0.0000000001
 40
0.0
 40
0.0
 40
0.0
 40
0.0
 40
0.5
 40
0.5
 40
1.0
 40
1.0
 40
1.0
 40
1.0
 10
2115.892219896776
 20
888.3618205586182
 30
0.0
 10
2115.872218111623
 20
888.2423756939521
 30
0.0
 10
2115.811166083568
 20
888.1555095480878
 30
0.0
 10
2115.634691101833
 20
888.0863889118794
 30
0.0
 10
2115.519950781512
 20
888.1044017911726
 30
0.0
 10
2115.404764903856
 20
888.1708971829494
 30
0.0
  0
LINE
  5
4ED
330
481
100
AcDbEntity
  8
0
  6
Continuous
 62
     7
370
    15
100
AcDbLine
 10
2114.737521909895
 20
888.5560883643378
 30
0.0
 11
2115.404764903856
 21
888.1708971829494
 31
0.0
  0
SPLINE
  5
4EE
330
481
100
AcDbEntity
  8
0
  6
Continuous
 62
     7
370
    15
100
AcDbSpline
210
0.0
220
0.0
230
1.0
 70
     8
 71
     3
 72
    10
 73
     6
 74
     0
 42
0.0000000001
 43
0.0000000001
 40
0.0
 40
0.0
 40
0.0
 40
0.0
 40
0.5
 40
0.5
 40
1.0
 40
1.0
 40
1.0
 40
1.0
 10
2114.737521909895
 20
888.5560883643382
 30
0.0
 10
2114.622336032239
 20
888.622583756115
 30
0.0
 10
2114.507595711917
 20
888.7370472308266
 30
0.0
 10
2114.331120730182
 20
889.0099215439271
 30
0.0
 10
2114.270068702128
 20
889.1672768609787
 30
0.0
 10
2114.250066916974
 20
889.3098152952232
 30
0.0
  0
LINE
  5
4EF
330
481
100
AcDbEntity
  8
0
  6
Continuous
 62
     7
370
    15
100
AcDbLine
 10
2114.010481085554
 20
891.01717236436
 30
0.0
 11
2114.250066916974
 21
889.3098152952232
 31
0.0
  0
LINE
  5
4F0
330
481
100
AcDbEntity
  8
0
  6
Continuous
 62
     7
370
    15
100
AcDbLine
 10
2114.010481085554
 20
895.6914241291887
 30
0.0
 11
2114.010481085554
 21
891.01717236436
 31
0.0
  0
LINE
  5
4F1
330
481
100
AcDbEntity
  8
0
  6
Continuous
 62
     7
370
    15
100
AcDbLine
 10
2114.256417912725
 20
896.0783607120898
 30
0.0
 11
2114.222613119909
 21
896.0588475895404
 31
0.0
  0
LINE
  5
4F2
330
481
100
AcDbEntity
  8
0
  6
Continuous
 62
     7
370
    15
100
AcDbLine
 10
2109.978446324731
 20
903.9670288324826
 30
0.0
 11
2112.099766668291
 21
905.1916410002165
 31
0.0
  0
LINE
  5
4F3
330
481
100
AcDbEntity
  8
0
  6
Continuous
 62
     7
370
    15
100
AcDbLine
 10
2112.347252962747
 20
905.334558241735
 30
0.0
 11
2112.099766668291
 21
905.1916410002165
 31
0.0
  0
LINE
  5
4F4
330
481
100
AcDbEntity
  8
0
  6
Continuous
 62
     7
370
    15
100
AcDbLine
 10
2111.003724997186
 20
899.588882862014
 30
0.0
 11
2111.037528084674
 21
899.6083969690513
 31
0.0
  0
ARC
  5
4F5
330
481
100
AcDbEntity
  8
0
  6
Continuous
 62
     7
370
    15
100
AcDbCircle
 10
2111.120340939237
 20
899.5068712612074
 30
0.0
 40
0.1310131587921678
100
AcDbArc
 50
350.7863151496851
 51
129.202933108752
  0
LINE
  5
4F6
330
481
100
AcDbEntity
  8
0
  6
Continuous
 62
     7
370
    15
100
AcDbLine
 10
2111.249666672109
 20
894.8116691365179
 30
0.0
 11
2111.249663772803
 21
899.4858938329763
 31
0.0
  0
LINE
  5
4F7
330
481
100
AcDbEntity
  8
0
  6
Continuous
 62
     7
370
    15
100
AcDbLine
 10
2109.343580628807
 20
893.7113166515661
 30
0.0
 11
2111.24966011903
 21
894.8116729195298
 31
0.0
  0
LINE
  5
4F8
330
481
100
AcDbEntity
  8
0
  6
Continuous
 62
     7
370
    15
100
AcDbLine
 10
2109.343584282564
 20
898.3855375649984
 30
0.0
 11
2109.343587181886
 21
893.7113128685538
 31
0.0
  0
ARC
  5
4F9
330
481
100
AcDbEntity
  8
0
  6
Continuous
 62
     7
370
    15
100
AcDbCircle
 10
2109.804136704285
 20
898.3645866689414
 30
0.0
 40
0.4610287119034717
100
AcDbArc
 50
122.6046821356183
 51
177.3953651058651
  0
LINE
  5
4FA
330
481
100
AcDbEntity
  8
0
  6
Continuous
 62
     7
370
    15
100
AcDbLine
 10
2109.555716164985
 20
898.7529611130712
 30
0.0
 11
2109.589519252472
 21
898.7724752200893
 31
0.0
  0
ARC
  5
4FB
330
481
100
AcDbEntity
  8
0
  6
Continuous
 62
     7
370
    15
100
AcDbCircle
 10
2109.34108620111
 20
899.1608568684965
 30
0.0
 40
0.4610415228897242
100
AcDbArc
 50
302.6055095954877
 51
357.3945423838505
  0
LINE
  5
4FC
330
481
100
AcDbEntity
  8
0
  6
Continuous
 62
     7
370
    15
100
AcDbLine
 10
2109.801651186772
 20
904.0690904931826
 30
0.0
 11
2109.801651119689
 21
899.1398987769105
 31
0.0
  0
LINE
  5
4FD
330
481
100
AcDbEntity
  8
0
  6
Continuous
 62
     7
370
    15
100
AcDbLine
 10
2110.791596221541
 20
899.7113820075707
 30
0.0
 11
2110.791596221541
 21
904.436450275994
 31
0.0
  0
SPLINE
  5
4FE
330
481
100
AcDbEntity
  8
0
  6
Continuous
 62
     7
370
    15
100
AcDbSpline
210
0.0
220
0.0
230
1.0
 70
     8
 71
     3
 72
    14
 73
    10
 74
     0
 42
0.0000000001
 43
0.0000000001
 40
0.0
 40
0.0
 40
0.0
 40
0.0
 40
0.0840876777391322
 40
0.1672016938460899
 40
0.250755854568427
 40
0.5000979028892965
 40
0.7494399512101743
 40
0.8738244721235327
 40
1.0
 40
1.0
 40
1.0
 40
1.0
 10
2111.003728499008
 20
899.5888808404552
 30
0.0
 10
2110.994418685741
 20
899.5839292084196
 30
0.0
 10
2110.975906858688
 20
899.5740832799089
 30
0.0
 10
2110.948610034938
 20
899.5648227961465
 30
0.0
 10
2110.904928333027
 20
899.5565822546494
 30
0.0
 10
2110.849699411027
 20
899.5671859945794
 30
0.0
 10
2110.810733433647
 20
899.6127650713221
 30
0.0
 10
2110.793970055566
 20
899.664523684544
 30
0.0
 10
2110.792391321931
 20
899.6956882764859
 30
0.0
 10
2110.791596312708
 20
899.7113819549403
 30
0.0
  0
LINE
  5
4FF
330
481
100
AcDbEntity
  8
0
  6
Continuous
 62
     7
370
    15
100
AcDbLine
 10
2107.680326535716
 20
900.3645421346902
 30
0.0
 11
2107.680326535716
 21
905.2937051475815
 31
0.0
  0
LINE
  5
500
330
481
100
AcDbEntity
  8
0
  6
Continuous
 62
     7
370
    15
100
AcDbLine
 10
2109.801651119689
 20
899.1398987769105
 30
0.0
 11
2107.680326535716
 21
900.3645421346902
 31
0.0
  0
LINE
  5
501
330
481
100
AcDbEntity
  8
0
  6
Continuous
 62
     7
370
    15
100
AcDbLine
 10
2117.798299387
 20
889.4621768265821
 30
0.0
 11
2115.892219896776
 21
888.3618205586182
 31
0.0
  0
LINE
  5
502
330
481
100
AcDbEntity
  8
0
  6
Continuous
 62
     7
370
    15
100
AcDbLine
 10
2118.03788521842
 20
890.892913982781
 30
0.0
 11
2117.798299387
 21
889.4621768265821
 31
0.0
  0
SPLINE
  5
503
330
481
100
AcDbEntity
  8
0
  6
Continuous
 62
     7
370
    15
100
AcDbSpline
210
0.0
220
0.0
230
1.0
 70
     8
 71
     3
 72
     9
 73
     5
 74
     0
 42
0.0000000001
 43
0.0000000001
 40
0.0
 40
0.0
 40
0.0
 40
0.0
 40
0.4289592542054201
 40
0.9999999999999998
 40
0.9999999999999998
 40
0.9999999999999998
 40
0.9999999999999998
 10
2117.656501022023
 20
889.2432697678662
 30
0.0
 10
2117.686945759925
 20
889.2619197491141
 30
0.0
 10
2117.7579192559
 20
889.305397028284
 30
0.0
 10
2117.783622046364
 20
889.4051906197091
 30
0.0
 10
2117.798299387
 20
889.4621768265821
 30
0.0
  0
LINE
  5
504
330
481
100
AcDbEntity
  8
0
  6
Continuous
 62
     7
370
    15
100
AcDbLine
 10
2109.343584282563
 20
898.385537564998
 30
0.0
 11
2107.222255986163
 21
899.6101830659377
 31
0.0
  0
ARC
  5
505
330
481
100
AcDbEntity
  8
0
  6
Continuous
 62
     7
370
    15
100
AcDbCircle
 10
2107.68282081653
 20
899.5892248102977
 30
0.0
 40
0.461041442226981
100
AcDbArc
 50
122.6054783372474
 51
177.3945215188494
  0
LINE
  5
506
330
481
100
AcDbEntity
  8
0
  6
Continuous
 62
     7
370
    15
100
AcDbLine
 10
2109.555716164985
 20
898.7529611130712
 30
0.0
 11
2107.434388020518
 21
899.9776065262894
 31
0.0
  0
LINE
  5
507
330
481
100
AcDbEntity
  8
0
  6
Continuous
 62
     7
370
    15
100
AcDbLine
 10
2109.589519252472
 20
898.7724752200893
 30
0.0
 11
2107.468192813334
 21
899.9971196488386
 31
0.0
  0
ARC
  5
508
330
481
100
AcDbEntity
  8
0
  6
Continuous
 62
     7
370
    15
100
AcDbCircle
 10
2107.219771158381
 20
900.3854971040057
 30
0.0
 40
0.4610318495846108
100
AcDbArc
 50
302.6045973000438
 51
357.3948761075501
  0
LINE
  5
509
330
481
100
AcDbEntity
  8
0
  6
Continuous
 62
     7
370
    15
100
AcDbLine
 10
2109.103994797386
 20
892.2805794953672
 30
0.0
 11
2109.343580628807
 21
893.7113166515661
 31
0.0
  0
SPLINE
  5
50A
330
481
100
AcDbEntity
  8
0
  6
Continuous
 62
     7
370
    15
100
AcDbSpline
210
0.0
220
0.0
230
1.0
 70
     8
 71
     3
 72
    10
 73
     6
 74
     0
 42
0.0000000001
 43
0.0000000001
 40
0.0
 40
0.0
 40
0.0
 40
0.0
 40
0.5
 40
0.5
 40
1.0
 40
1.0
 40
1.0
 40
1.0
 10
2109.103994797386
 20
892.2805794953672
 30
0.0
 10
2109.083993012232
 20
892.1611346307011
 30
0.0
 10
2109.022940984177
 20
892.0742684848368
 30
0.0
 10
2108.846466002443
 20
892.0051478486284
 30
0.0
 10
2108.731725682121
 20
892.0231607279218
 30
0.0
 10
2108.616539804465
 20
892.0896561196984
 30
0.0
  0
LINE
  5
50B
330
481
100
AcDbEntity
  8
0
  6
Continuous
 62
     7
370
    15
100
AcDbLine
 10
2107.949296810504
 20
892.4748473010872
 30
0.0
 11
2108.616539804465
 21
892.0896561196983
 31
0.0
  0
ARC
  5
50C
330
481
100
AcDbEntity
  8
0
  6
Continuous
 62
     7
370
    15
100
AcDbCircle
 10
2108.544072812349
 20
893.3939929911421
 30
0.0
 40
1.094800115051583
100
AcDbArc
 50
188.6903853336234
 51
237.0932335995496
  0
LINE
  5
50D
330
481
100
AcDbEntity
  8
0
  6
Continuous
 62
     7
370
    15
100
AcDbLine
 10
2107.222255986163
 20
894.9359313011091
 30
0.0
 11
2107.461841817583
 21
893.228574231972
 31
0.0
  0
LINE
  5
50E
330
481
100
AcDbEntity
  8
0
  6
Continuous
 62
     7
370
    15
100
AcDbLine
 10
2107.222255986163
 20
899.6101830659377
 30
0.0
 11
2107.222255986163
 21
894.9359313011091
 31
0.0
  0
LINE
  5
50F
330
481
100
AcDbEntity
  8
0
  6
Continuous
 62
     7
370
    15
100
AcDbLine
 10
2107.468192813334
 20
899.9971196488386
 30
0.0
 11
2107.434388020518
 21
899.9776065262894
 31
0.0
  0
LINE
  5
510
330
481
100
AcDbEntity
  8
0
  6
Continuous
 62
     7
370
    15
100
AcDbLine
 10
2111.010074287609
 20
893.3809357633311
 30
0.0
 11
2109.103994797386
 21
892.2805794953672
 31
0.0
  0
LINE
  5
511
330
481
100
AcDbEntity
  8
0
  6
Continuous
 62
     7
370
    15
100
AcDbLine
 10
2111.24966011903
 20
894.81167291953
 30
0.0
 11
2111.010074287609
 21
893.3809357633311
 31
0.0
  0
SPLINE
  5
512
330
481
100
AcDbEntity
  8
0
  6
Continuous
 62
     7
370
    15
100
AcDbSpline
210
0.0
220
0.0
230
1.0
 70
     8
 71
     3
 72
     9
 73
     5
 74
     0
 42
0.0000000001
 43
0.0000000001
 40
0.0
 40
0.0
 40
0.0
 40
0.0
 40
0.4289592542052287
 40
1.0
 40
1.0
 40
1.0
 40
1.0
 10
2110.868275922632
 20
893.1620287046152
 30
0.0
 10
2110.898720660534
 20
893.1806786858627
 30
0.0
 10
2110.96969415651
 20
893.2241559650332
 30
0.0
 10
2110.995396946973
 20
893.3239495564583
 30
0.0
 10
2111.010074287609
 20
893.3809357633311
 30
0.0
  0
LINE
  5
513
330
481
100
AcDbEntity
  8
0
  6
Continuous
 62
     8
370
    15
100
AcDbLine
 10
2117.579818064633
 20
895.7925880148515
 30
0.0
 11
2117.791953507232
 21
895.6701219563397
 31
0.0
  0
LINE
  5
514
330
481
100
AcDbEntity
  8
0
  6
Continuous
 62
     8
370
    15
100
AcDbLine
 10
2117.579821320922
 20
895.8316148070993
 30
0.0
 11
2117.82575659472
 21
895.6896360633612
 31
0.0
  0
LINE
  5
515
330
481
100
AcDbEntity
  8
0
  6
Continuous
 62
     8
370
    15
100
AcDbLine
 10
2110.79160339319
 20
899.7113409315332
 30
0.0
 11
2111.003724997186
 21
899.588882862014
 31
0.0
  0
LINE
  5
516
330
481
100
AcDbEntity
  8
0
  6
Continuous
 62
     8
370
    15
100
AcDbLine
 10
2110.791596221541
 20
899.7503737438467
 30
0.0
 11
2111.037531586496
 21
899.6083949474842
 31
0.0
  0
ENDBLK
  5
483
330
481
100
AcDbEntity
  8
0
100
AcDbBlockEnd
  0
ENDSEC
  0
SECTION
  2
ENTITIES
  0
INSERT
  5
439
330
1F
100
AcDbEntity
  8
0
100
AcDbBlockReference
  2
1
 10
0.0
 20
0.0
 30
0.0
  0
INSERT
  5
478
330
1F
100
AcDbEntity
  8
0
100
AcDbBlockReference
  2
2
 10
0.0
 20
0.0
 30
0.0
  0
INSERT
  5
480
330
1F
100
AcDbEntity
  8
0
100
AcDbBlockReference
  2
3
 10
0.0
 20
0.0
 30
0.0
  0
INSERT
  5
517
330
1F
100
AcDbEntity
  8
0
100
AcDbBlockReference
  2
4
 10
0.0
 20
0.0
 30
0.0
  0
ENDSEC
  0
SECTION
  2
OBJECTS
  0
DICTIONARY
  5
C
330
0
100
AcDbDictionary
281
     1
  3
ACAD_COLOR
350
6B
  3
ACAD_GROUP
350
D
  3
ACAD_LAYOUT
350
1A
  3
ACAD_MATERIAL
350
6A
  3
ACAD_MLEADERSTYLE
350
12D
  3
ACAD_MLINESTYLE
350
17
  3
ACAD_PLOTSETTINGS
350
19
  3
ACAD_PLOTSTYLENAME
350
E
  3
ACAD_SCALELIST
350
10C
  3
ACAD_TABLESTYLE
350
7E
  3
ACAD_VISUALSTYLE
350
EF
  3
ACDB_RECOMPOSE_DATA
350
15D
  3
AcDbVariableDictionary
350
5E
  3
DWGPROPS
350
525
  0
DICTIONARY
  5
13C
330
10
100
AcDbDictionary
280
     1
281
     1
  3
ADSK_XREC_LAYER_RECONCILED
360
518
  0
DICTIONARY
  5
6B
102
{ACAD_REACTORS
330
C
102
}
330
C
100
AcDbDictionary
281
     1
  0
DICTIONARY
  5
D
102
{ACAD_REACTORS
330
C
102
}
330
C
100
AcDbDictionary
281
     1
  0
DICTIONARY
  5
1A
102
{ACAD_REACTORS
330
C
102
}
330
C
100
AcDbDictionary
281
     1
  3
Layout1
350
D3
  3
Layout2
350
D7
  3
Model
350
22
  0
DICTIONARY
  5
6A
102
{ACAD_REACTORS
330
C
102
}
330
C
100
AcDbDictionary
281
     1
  3
ByBlock
350
ED
  3
ByLayer
350
EC
  3
Global
350
EE
  0
DICTIONARY
  5
12D
102
{ACAD_REACTORS
330
C
102
}
330
C
100
AcDbDictionary
281
     1
  3
Annotative
350
13B
  3
Standard
350
12E
  0
DICTIONARY
  5
17
102
{ACAD_REACTORS
330
C
102
}
330
C
100
AcDbDictionary
281
     1
  3
Standard
350
18
  0
DICTIONARY
  5
19
102
{ACAD_REACTORS
330
C
102
}
330
C
100
AcDbDictionary
281
     1
  0
ACDBDICTIONARYWDFLT
  5
E
102
{ACAD_REACTORS
330
C
102
}
330
C
100
AcDbDictionary
281
     1
  3
Normal
350
F
100
AcDbDictionaryWithDefault
340
F
  0
DICTIONARY
  5
10C
102
{ACAD_REACTORS
330
C
102
}
330
C
100
AcDbDictionary
281
     1
  3
A0
350
10D
  3
A1
350
188
  3
A2
350
189
  3
A3
350
18A
  3
A4
350
18B
  3
A5
350
18C
  3
A6
350
18D
  3
A7
350
18E
  3
A8
350
18F
  3
A9
350
190
  3
B0
350
191
  3
B1
350
192
  3
B2
350
193
  3
B3
350
194
  3
B4
350
195
  3
B5
350
196
  3
B6
350
197
  3
B7
350
198
  3
B8
350
199
  3
B9
350
19A
  3
C0
350
19B
  3
C1
350
19C
  3
C2
350
19D
  3
C3
350
19E
  3
C4
350
19F
  3
C5
350
1A0
  3
C6
350
1A1
  3
C7
350
1A2
  3
C8
350
1A3
  3
C9
350
1A4
  3
D0
350
1A5
  3
D1
350
1A6
  3
D2
350
1A7
  0
DICTIONARY
  5
7E
102
{ACAD_REACTORS
330
C
102
}
330
C
100
AcDbDictionary
281
     1
  3
Standard
350
7F
  0
DICTIONARY
  5
EF
102
{ACAD_REACTORS
330
C
102
}
330
C
100
AcDbDictionary
281
     1
  3
2dWireframe
350
F5
  3
3D Hidden
350
F7
  3
3dWireframe
350
F6
  3
Basic
350
F4
  3
Brighten
350
FB
  3
ColorChange
350
FF
  3
Conceptual
350
F8
  3
Dim
350
FA
  3
Facepattern
350
FE
  3
Flat
350
F0
  3
FlatWithEdges
350
F1
  3
Gouraud
350
F2
  3
GouraudWithEdges
350
F3
  3
Linepattern
350
FD
  3
Realistic
350
F9
  3
Thicken
350
FC
  0
XRECORD
  5
15D
102
{ACAD_REACTORS
330
C
102
}
330
C
100
AcDbXrecord
280
     1
 90
        1
330
7F
  0
DICTIONARY
  5
5E
102
{ACAD_REACTORS
330
C
102
}
330
C
100
AcDbDictionary
281
     1
  3
CANNOSCALE
350
146
  3
CMLEADERSTYLE
350
145
  3
CTABLESTYLE
350
84
  3
DIMASSOC
350
5F
  3
HIDETEXT
350
63
  3
INDEXCTL
350
521
  3
LIGHTINGUNITS
350
51F
  3
MSLTSCALE
350
51E
  3
PSOLHEIGHT
350
523
  3
PSOLWIDTH
350
522
  3
SORTENTS
350
520
  0
XRECORD
  5
525
102
{ACAD_REACTORS
330
C
102
}
330
C
100
AcDbXrecord
280
     1
  1
DWGPROPS COOKIE
  2

  3

  4

  6

  7

  8
orhan kara
  9

300
=
301
=
302
=
303
=
304
=
305
=
306
=
307
=
308
=
309
=
 40
0.000988275462963
 41
2458933.715692928
 42
2458956.450791018
  1

 90
        0
  0
XRECORD
  5
518
102
{ACAD_REACTORS
330
13C
102
}
330
13C
100
AcDbXrecord
280
     1
290
     1
  0
LAYOUT
  5
D3
102
{ACAD_XDICTIONARY
360
529
102
}
102
{ACAD_REACTORS
330
1A
102
}
330
1A
100
AcDbPlotSettings
  1

  2
C:\Documents and Settings\basas\Application Data\Autodesk\AutoCAD 2005\R16.1\enu\plotters\Default Windows System Printer.pc3
  4

  6

 40
0.0
 41
0.0
 42
0.0
 43
0.0
 44
0.0
 45
0.0
 46
0.0
 47
0.0
 48
0.0
 49
0.0
140
0.0
141
0.0
142
1.0
143
1.0
 70
   688
 72
     0
 73
     0
 74
     5
  7

 75
    16
147
1.0
148
0.0
149
0.0
100
AcDbLayout
  1
Layout1
 70
     1
 71
     1
 10
0.0
 20
0.0
 11
12.0
 21
9.0
 12
0.0
 22
0.0
 32
0.0
 14
0.0
 24
0.0
 34
0.0
 15
0.0
 25
0.0
 35
0.0
146
0.0
 13
0.0
 23
0.0
 33
0.0
 16
1.0
 26
0.0
 36
0.0
 17
0.0
 27
1.0
 37
0.0
 76
     0
330
D2
  0
LAYOUT
  5
D7
102
{ACAD_XDICTIONARY
360
52B
102
}
102
{ACAD_REACTORS
330
1A
102
}
330
1A
100
AcDbPlotSettings
  1

  2
C:\Documents and Settings\basas\Application Data\Autodesk\AutoCAD 2005\R16.1\enu\plotters\Default Windows System Printer.pc3
  4

  6

 40
0.0
 41
0.0
 42
0.0
 43
0.0
 44
0.0
 45
0.0
 46
0.0
 47
0.0
 48
0.0
 49
0.0
140
0.0
141
0.0
142
1.0
143
1.0
 70
   688
 72
     0
 73
     0
 74
     5
  7

 75
    16
147
1.0
148
0.0
149
0.0
100
AcDbLayout
  1
Layout2
 70
     1
 71
     2
 10
0.0
 20
0.0
 11
12.0
 21
9.0
 12
0.0
 22
0.0
 32
0.0
 14
0.0
 24
0.0
 34
0.0
 15
0.0
 25
0.0
 35
0.0
146
0.0
 13
0.0
 23
0.0
 33
0.0
 16
1.0
 26
0.0
 36
0.0
 17
0.0
 27
1.0
 37
0.0
 76
     0
330
D6
  0
LAYOUT
  5
22
102
{ACAD_XDICTIONARY
360
526
102
}
102
{ACAD_REACTORS
330
1A
102
}
330
1A
100
AcDbPlotSettings
  1

  2
none_device
  4
ISO_A4_(210.00_x_297.00_MM)
  6

 40
7.5
 41
20.0
 42
7.5
 43
20.0
 44
210.0
 45
297.0
 46
11.54999923706054
 47
-13.65000009536743
 48
0.0
 49
0.0
140
0.0
141
0.0
142
1.0
143
8.704084754739808
 70
 11952
 72
     1
 73
     0
 74
     0
  7

 75
     0
147
0.1148885871608098
148
0.0
149
0.0
100
AcDbLayout
  1
Model
 70
     1
 71
     0
 10
0.0
 20
0.0
 11
12.0
 21
9.0
 12
0.0
 22
0.0
 32
0.0
 14
0.0
 24
0.0
 34
0.0
 15
0.0
 25
0.0
 35
0.0
146
0.0
 13
0.0
 23
0.0
 33
0.0
 16
1.0
 26
0.0
 36
0.0
 17
0.0
 27
1.0
 37
0.0
 76
     0
330
1F
331
EA
1001
ACAD_PSEXT
1000
None
1000
None
1000
Not applicable
1000
The layout will not be plotted unless a new plotter configuration name is selected.
1070
     0
  0
MATERIAL
  5
ED
102
{ACAD_XDICTIONARY
360
52F
102
}
102
{ACAD_REACTORS
330
6A
102
}
330
6A
100
AcDbMaterial
  1
ByBlock
  0
MATERIAL
  5
EC
102
{ACAD_XDICTIONARY
360
52D
102
}
102
{ACAD_REACTORS
330
6A
102
}
330
6A
100
AcDbMaterial
  1
ByLayer
  0
MATERIAL
  5
EE
102
{ACAD_XDICTIONARY
360
173
102
}
102
{ACAD_REACTORS
330
6A
102
}
330
6A
100
AcDbMaterial
  1
Global
 43
0.0007999999797903
 43
0.0
 43
0.0
 43
0.0
 43
0.0
 43
0.0007999999797903
 43
0.0
 43
0.0
 43
0.0
 43
0.0
 43
1.0
 43
0.0
 43
0.0
 43
0.0
 43
0.0
 43
1.0
 49
0.0007999999797903
 49
0.0
 49
0.0
 49
0.0
 49
0.0
 49
0.0007999999797903
 49
0.0
 49
0.0
 49
0.0
 49
0.0
 49
1.0
 49
0.0
 49
0.0
 49
0.0
 49
0.0
 49
1.0
142
0.0007999999797903
142
0.0
142
0.0
142
0.0
142
0.0
142
0.0007999999797903
142
0.0
142
0.0
142
0.0
142
0.0
142
1.0
142
0.0
142
0.0
142
0.0
142
0.0
142
1.0
144
0.0007999999797903
144
0.0
144
0.0
144
0.0
144
0.0
144
0.0007999999797903
144
0.0
144
0.0
144
0.0
144
0.0
144
1.0
144
0.0
144
0.0
144
0.0
144
0.0
144
1.0
1001
ACAD
1070
    -1
1070
     3
1070
     0
1000

1071
        0
1070
     0
  0
MLEADERSTYLE
  5
13B
102
{ACAD_REACTORS
330
12D
102
}
330
12D
100
AcDbMLeaderStyle
170
     2
171
     1
172
     0
 90
        2
 40
0.0
 41
0.0
173
     1
 91
-1056964608
340
14
 92
       -2
290
     1
 42
2.0
291
     1
 43
8.0
  3
Standard
 44
4.0
300

342
11
174
     1
178
     1
175
     1
176
     0
 93
-1056964608
 45
4.0
292
     0
297
     0
 46
4.0
 94
-1056964608
 47
1.0
 49
1.0
140
1.0
293
     1
141
0.0
294
     1
177
     0
142
1.0
295
     0
296
     1
143
3.75
1001
ACAD_MLEADERVER
1070
     2
  0
MLEADERSTYLE
  5
12E
102
{ACAD_REACTORS
330
12D
102
}
330
12D
100
AcDbMLeaderStyle
170
     2
171
     1
172
     0
 90
        2
 40
0.0
 41
0.0
173
     1
 91
-1056964608
340
14
 92
       -2
290
     1
 42
2.0
291
     1
 43
8.0
  3
Standard
 44
4.0
300

342
11
174
     1
178
     1
175
     1
176
     0
 93
-1056964608
 45
4.0
292
     0
297
     0
 46
4.0
 94
-1056964608
 47
1.0
 49
1.0
140
1.0
293
     1
141
0.0
294
     1
177
     0
142
1.0
295
     0
296
     0
143
3.75
1001
ACAD_MLEADERVER
1070
     2
  0
MLINESTYLE
  5
18
102
{ACAD_REACTORS
330
17
102
}
330
17
100
AcDbMlineStyle
  2
STANDARD
 70
     0
  3

 62
   256
 51
90.0
 52
90.0
 71
     2
 49
0.5
 62
   256
  6
BYLAYER
 49
-0.5
 62
   256
  6
BYLAYER
  0
ACDBPLACEHOLDER
  5
F
102
{ACAD_REACTORS
330
E
102
}
330
E
  0
SCALE
  5
10D
102
{ACAD_REACTORS
330
10C
102
}
330
10C
100
AcDbScale
 70
     0
300
1:1
140
1.0
141
1.0
290
     1
  0
SCALE
  5
188
102
{ACAD_REACTORS
330
10C
102
}
330
10C
100
AcDbScale
 70
     0
300
1:2
140
1.0
141
2.0
290
     0
  0
SCALE
  5
189
102
{ACAD_REACTORS
330
10C
102
}
330
10C
100
AcDbScale
 70
     0
300
1:4
140
1.0
141
4.0
290
     0
  0
SCALE
  5
18A
102
{ACAD_REACTORS
330
10C
102
}
330
10C
100
AcDbScale
 70
     0
300
1:5
140
1.0
141
5.0
290
     0
  0
SCALE
  5
18B
102
{ACAD_REACTORS
330
10C
102
}
330
10C
100
AcDbScale
 70
     0
300
1:8
140
1.0
141
8.0
290
     0
  0
SCALE
  5
18C
102
{ACAD_REACTORS
330
10C
102
}
330
10C
100
AcDbScale
 70
     0
300
1:10
140
1.0
141
10.0
290
     0
  0
SCALE
  5
18D
102
{ACAD_REACTORS
330
10C
102
}
330
10C
100
AcDbScale
 70
     0
300
1:16
140
1.0
141
16.0
290
     0
  0
SCALE
  5
18E
102
{ACAD_REACTORS
330
10C
102
}
330
10C
100
AcDbScale
 70
     0
300
1:20
140
1.0
141
20.0
290
     0
  0
SCALE
  5
18F
102
{ACAD_REACTORS
330
10C
102
}
330
10C
100
AcDbScale
 70
     0
300
1:30
140
1.0
141
30.0
290
     0
  0
SCALE
  5
190
102
{ACAD_REACTORS
330
10C
102
}
330
10C
100
AcDbScale
 70
     0
300
1:40
140
1.0
141
40.0
290
     0
  0
SCALE
  5
191
102
{ACAD_REACTORS
330
10C
102
}
330
10C
100
AcDbScale
 70
     0
300
1:50
140
1.0
141
50.0
290
     0
  0
SCALE
  5
192
102
{ACAD_REACTORS
330
10C
102
}
330
10C
100
AcDbScale
 70
     0
300
1:100
140
1.0
141
100.0
290
     0
  0
SCALE
  5
193
102
{ACAD_REACTORS
330
10C
102
}
330
10C
100
AcDbScale
 70
     0
300
2:1
140
2.0
141
1.0
290
     0
  0
SCALE
  5
194
102
{ACAD_REACTORS
330
10C
102
}
330
10C
100
AcDbScale
 70
     0
300
4:1
140
4.0
141
1.0
290
     0
  0
SCALE
  5
195
102
{ACAD_REACTORS
330
10C
102
}
330
10C
100
AcDbScale
 70
     0
300
8:1
140
8.0
141
1.0
290
     0
  0
SCALE
  5
196
102
{ACAD_REACTORS
330
10C
102
}
330
10C
100
AcDbScale
 70
     0
300
10:1
140
10.0
141
1.0
290
     0
  0
SCALE
  5
197
102
{ACAD_REACTORS
330
10C
102
}
330
10C
100
AcDbScale
 70
     0
300
100:1
140
100.0
141
1.0
290
     0
  0
SCALE
  5
198
102
{ACAD_REACTORS
330
10C
102
}
330
10C
100
AcDbScale
 70
     0
300
1/128" = 1'-0"
140
0.0078125
141
12.0
290
     0
  0
SCALE
  5
199
102
{ACAD_REACTORS
330
10C
102
}
330
10C
100
AcDbScale
 70
     0
300
1/64" = 1'-0"
140
0.015625
141
12.0
290
     0
  0
SCALE
  5
19A
102
{ACAD_REACTORS
330
10C
102
}
330
10C
100
AcDbScale
 70
     0
300
1/32" = 1'-0"
140
0.03125
141
12.0
290
     0
  0
SCALE
  5
19B
102
{ACAD_REACTORS
330
10C
102
}
330
10C
100
AcDbScale
 70
     0
300
1/16" = 1'-0"
140
0.0625
141
12.0
290
     0
  0
SCALE
  5
19C
102
{ACAD_REACTORS
330
10C
102
}
330
10C
100
AcDbScale
 70
     0
300
3/32" = 1'-0"
140
0.09375
141
12.0
290
     0
  0
SCALE
  5
19D
102
{ACAD_REACTORS
330
10C
102
}
330
10C
100
AcDbScale
 70
     0
300
1/8" = 1'-0"
140
0.125
141
12.0
290
     0
  0
SCALE
  5
19E
102
{ACAD_REACTORS
330
10C
102
}
330
10C
100
AcDbScale
 70
     0
300
3/16" = 1'-0"
140
0.1875
141
12.0
290
     0
  0
SCALE
  5
19F
102
{ACAD_REACTORS
330
10C
102
}
330
10C
100
AcDbScale
 70
     0
300
1/4" = 1'-0"
140
0.25
141
12.0
290
     0
  0
SCALE
  5
1A0
102
{ACAD_REACTORS
330
10C
102
}
330
10C
100
AcDbScale
 70
     0
300
3/8" = 1'-0"
140
0.375
141
12.0
290
     0
  0
SCALE
  5
1A1
102
{ACAD_REACTORS
330
10C
102
}
330
10C
100
AcDbScale
 70
     0
300
1/2" = 1'-0"
140
0.5
141
12.0
290
     0
  0
SCALE
  5
1A2
102
{ACAD_REACTORS
330
10C
102
}
330
10C
100
AcDbScale
 70
     0
300
3/4" = 1'-0"
140
0.75
141
12.0
290
     0
  0
SCALE
  5
1A3
102
{ACAD_REACTORS
330
10C
102
}
330
10C
100
AcDbScale
 70
     0
300
1" = 1'-0"
140
1.0
141
12.0
290
     0
  0
SCALE
  5
1A4
102
{ACAD_REACTORS
330
10C
102
}
330
10C
100
AcDbScale
 70
     0
300
1-1/2" = 1'-0"
140
1.5
141
12.0
290
     0
  0
SCALE
  5
1A5
102
{ACAD_REACTORS
330
10C
102
}
330
10C
100
AcDbScale
 70
     0
300
3" = 1'-0"
140
3.0
141
12.0
290
     0
  0
SCALE
  5
1A6
102
{ACAD_REACTORS
330
10C
102
}
330
10C
100
AcDbScale
 70
     0
300
6" = 1'-0"
140
6.0
141
12.0
290
     0
  0
SCALE
  5
1A7
102
{ACAD_REACTORS
330
10C
102
}
330
10C
100
AcDbScale
 70
     0
300
1'-0" = 1'-0"
140
12.0
141
12.0
290
     0
  0
TABLESTYLE
  5
7F
102
{ACAD_XDICTIONARY
360
162
102
}
102
{ACAD_REACTORS
330
7E
102
}
330
7E
100
AcDbTableStyle
  3
Standard
 70
     0
 71
     0
 40
1.5
 41
1.5
280
     0
281
     0
  7
Standard
140
4.5
170
     2
 62
     0
 63
     7
283
     0
274
    -2
284
     1
 64
     0
275
    -2
285
     1
 65
     0
276
    -2
286
     1
 66
     0
277
    -2
287
     1
 67
     0
278
    -2
288
     1
 68
     0
279
    -2
289
     1
 69
     0
  7
Standard
140
6.0
170
     5
 62
     0
 63
     7
283
     0
274
    -2
284
     1
 64
     0
275
    -2
285
     1
 65
     0
276
    -2
286
     1
 66
     0
277
    -2
287
     1
 67
     0
278
    -2
288
     1
 68
     0
279
    -2
289
     1
 69
     0
  7
Standard
140
4.5
170
     5
 62
     0
 63
     7
283
     0
274
    -2
284
     1
 64
     0
275
    -2
285
     1
 65
     0
276
    -2
286
     1
 66
     0
277
    -2
287
     1
 67
     0
278
    -2
288
     1
 68
     0
279
    -2
289
     1
 69
     0
  0
VISUALSTYLE
  5
F5
102
{ACAD_REACTORS
330
EF
102
}
330
EF
100
AcDbVisualStyle
  2
2dWireframe
 70
     4
 71
     0
 72
     2
 73
     1
 90
        0
 40
-0.6
 41
-30.0
 62
     5
 63
     7
 74
     1
 91
        4
 64
     7
 65
   257
 75
     1
175
     1
 42
1.0
 92
        0
 66
   257
 43
1.0
 76
     1
 77
     6
 78
     2
 67
     7
 79
     5
170
     0
171
     0
290
     0
174
     0
 93
        1
 44
0.0
173
     0
291
     0
 45
0.0
1001
ACAD
1000
AcDbSavedByObjectVersion
1070
     0
  0
VISUALSTYLE
  5
F7
102
{ACAD_REACTORS
330
EF
102
}
330
EF
100
AcDbVisualStyle
  2
3D Hidden
 70
     6
 71
     1
 72
     2
 73
     2
 90
        0
 40
-0.6
 41
-30.0
 62
     5
 63
     7
 74
     2
 91
        2
 64
     7
 65
   257
 75
     2
175
     1
 42
40.0
 92
        0
 66
   257
 43
1.0
 76
     1
 77
     6
 78
     2
 67
     7
 79
     3
170
     0
171
     0
290
     0
174
     0
 93
        1
 44
0.0
173
     0
291
     0
 45
0.0
1001
ACAD
1000
AcDbSavedByObjectVersion
1070
     0
  0
VISUALSTYLE
  5
F6
102
{ACAD_REACTORS
330
EF
102
}
330
EF
100
AcDbVisualStyle
  2
3dWireframe
 70
     5
 71
     0
 72
     2
 73
     1
 90
        0
 40
-0.6
 41
-30.0
 62
     5
 63
     7
 74
     1
 91
        4
 64
     7
 65
   257
 75
     1
175
     1
 42
1.0
 92
        0
 66
   257
 43
1.0
 76
     1
 77
     6
 78
     2
 67
     7
 79
     5
170
     0
171
     0
290
     0
174
     0
 93
        1
 44
0.0
173
     0
291
     0
 45
0.0
1001
ACAD
1000
AcDbSavedByObjectVersion
1070
     0
  0
VISUALSTYLE
  5
F4
102
{ACAD_REACTORS
330
EF
102
}
330
EF
100
AcDbVisualStyle
  2
Basic
 70
     7
 71
     1
 72
     0
 73
     1
 90
        0
 40
-0.6
 41
-30.0
 62
     5
 63
     7
 74
     0
 91
        4
 64
     7
 65
   257
 75
     1
175
     1
 42
1.0
 92
        8
 66
     7
 43
1.0
 76
     1
 77
     6
 78
     2
 67
     7
 79
     5
170
     0
171
     0
290
     0
174
     0
 93
        1
 44
0.0
173
     0
291
     1
 45
0.0
1001
ACAD
1000
AcDbSavedByObjectVersion
1070
     0
  0
VISUALSTYLE
  5
FB
102
{ACAD_REACTORS
330
EF
102
}
330
EF
100
AcDbVisualStyle
  2
Brighten
 70
    12
 71
     2
 72
     2
 73
     1
 90
        0
 40
-0.6
 41
-30.0
 62
     5
 63
     7
 74
     1
 91
        4
 64
     7
 65
   257
 75
     1
175
     1
 42
1.0
 92
        8
 66
     7
 43
1.0
 76
     1
 77
     6
 78
     2
 67
     7
 79
     5
170
     0
171
     0
290
     0
174
     0
 93
        1
 44
50.0
173
     0
291
     1
 45
0.0
1001
ACAD
1000
AcDbSavedByObjectVersion
1070
     0
  0
VISUALSTYLE
  5
FF
102
{ACAD_REACTORS
330
EF
102
}
330
EF
100
AcDbVisualStyle
  2
ColorChange
 70
    16
 71
     2
 72
     2
 73
     3
 90
        0
 40
-0.6
 41
-30.0
 62
     5
 63
     8
 74
     1
 91
        4
 64
     7
 65
   257
 75
     1
175
     1
 42
1.0
 92
        8
 66
     8
 43
1.0
 76
     1
 77
     6
 78
     2
 67
     7
 79
     5
170
     0
171
     0
290
     0
174
     0
 93
        1
 44
0.0
173
     0
291
     1
 45
0.0
1001
ACAD
1000
AcDbSavedByObjectVersion
1070
     0
  0
VISUALSTYLE
  5
F8
102
{ACAD_REACTORS
330
EF
102
}
330
EF
100
AcDbVisualStyle
  2
Conceptual
 70
     9
 71
     3
 72
     2
 73
     1
 90
        0
 40
-0.6
 41
-30.0
 62
     5
 63
     7
 74
     2
 91
        2
 64
     7
 65
   257
 75
     1
175
     1
 42
40.0
 92
        8
 66
     7
 43
1.0
 76
     1
 77
     6
 78
     2
 67
     7
 79
     3
170
     0
171
     0
290
     0
174
     0
 93
        1
 44
0.0
173
     0
291
     0
 45
0.0
1001
ACAD
1000
AcDbSavedByObjectVersion
1070
     0
  0
VISUALSTYLE
  5
FA
102
{ACAD_REACTORS
330
EF
102
}
330
EF
100
AcDbVisualStyle
  2
Dim
 70
    11
 71
     2
 72
     2
 73
     1
 90
        0
 40
-0.6
 41
-30.0
 62
     5
 63
     7
 74
     1
 91
        4
 64
     7
 65
   257
 75
     1
175
     1
 42
1.0
 92
        8
 66
     7
 43
1.0
 76
     1
 77
     6
 78
     2
 67
     7
 79
     5
170
     0
171
     0
290
     0
174
     0
 93
        1
 44
-50.0
173
     0
291
     1
 45
0.0
1001
ACAD
1000
AcDbSavedByObjectVersion
1070
     0
  0
VISUALSTYLE
  5
FE
102
{ACAD_REACTORS
330
EF
102
}
330
EF
100
AcDbVisualStyle
  2
Facepattern
 70
    15
 71
     2
 72
     2
 73
     1
 90
        0
 40
-0.6
 41
-30.0
 62
     5
 63
     7
 74
     1
 91
        4
 64
     7
 65
   257
 75
     1
175
     1
 42
1.0
 92
        8
 66
     7
 43
1.0
 76
     1
 77
     6
 78
     2
 67
     7
 79
     5
170
     0
171
     0
290
     0
174
     0
 93
        1
 44
0.0
173
     0
291
     1
 45
0.0
1001
ACAD
1000
AcDbSavedByObjectVersion
1070
     0
  0
VISUALSTYLE
  5
F0
102
{ACAD_REACTORS
330
EF
102
}
330
EF
100
AcDbVisualStyle
  2
Flat
 70
     0
 71
     2
 72
     1
 73
     1
 90
        2
 40
-0.6
 41
30.0
 62
     5
 63
     7
 74
     0
 91
        4
 64
     7
 65
   257
 75
     1
175
     1
 42
1.0
 92
        8
 66
     7
 43
1.0
 76
     1
 77
     6
 78
     2
 67
     7
 79
     5
170
     0
171
     0
290
     0
174
     0
 93
        1
 44
0.0
173
     0
291
     1
 45
0.0
1001
ACAD
1000
AcDbSavedByObjectVersion
1070
     0
  0
VISUALSTYLE
  5
F1
102
{ACAD_REACTORS
330
EF
102
}
330
EF
100
AcDbVisualStyle
  2
FlatWithEdges
 70
     1
 71
     2
 72
     1
 73
     1
 90
        2
 40
-0.6
 41
30.0
 62
     5
 63
     7
 74
     1
 91
        4
 64
     7
 65
   257
 75
     1
175
     1
 42
1.0
 92
        0
 66
   257
 43
1.0
 76
     1
 77
     6
 78
     2
 67
     7
 79
     5
170
     0
171
     0
290
     0
174
     0
 93
        1
 44
0.0
173
     0
291
     1
 45
0.0
1001
ACAD
1000
AcDbSavedByObjectVersion
1070
     0
  0
VISUALSTYLE
  5
F2
102
{ACAD_REACTORS
330
EF
102
}
330
EF
100
AcDbVisualStyle
  2
Gouraud
 70
     2
 71
     2
 72
     2
 73
     1
 90
        2
 40
-0.6
 41
30.0
 62
     5
 63
     7
 74
     0
 91
        4
 64
     7
 65
   257
 75
     1
175
     1
 42
1.0
 92
        0
 66
     7
 43
1.0
 76
     1
 77
     6
 78
     2
 67
     7
 79
     5
170
     0
171
     0
290
     0
174
     0
 93
        1
 44
0.0
173
     0
291
     1
 45
0.0
1001
ACAD
1000
AcDbSavedByObjectVersion
1070
     0
  0
VISUALSTYLE
  5
F3
102
{ACAD_REACTORS
330
EF
102
}
330
EF
100
AcDbVisualStyle
  2
GouraudWithEdges
 70
     3
 71
     2
 72
     2
 73
     1
 90
        2
 40
-0.6
 41
30.0
 62
     5
 63
     7
 74
     1
 91
        4
 64
     7
 65
   257
 75
     1
175
     1
 42
1.0
 92
        0
 66
   257
 43
1.0
 76
     1
 77
     6
 78
     2
 67
     7
 79
     5
170
     0
171
     0
290
     0
174
     0
 93
        1
 44
0.0
173
     0
291
     1
 45
0.0
1001
ACAD
1000
AcDbSavedByObjectVersion
1070
     0
  0
VISUALSTYLE
  5
FD
102
{ACAD_REACTORS
330
EF
102
}
330
EF
100
AcDbVisualStyle
  2
Linepattern
 70
    14
 71
     2
 72
     2
 73
     1
 90
        0
 40
-0.6
 41
-30.0
 62
     5
 63
     7
 74
     1
 91
        4
 64
     7
 65
   257
 75
     7
175
     7
 42
1.0
 92
        8
 66
     7
 43
1.0
 76
     1
 77
     6
 78
     2
 67
     7
 79
     5
170
     0
171
     0
290
     0
174
     0
 93
        1
 44
0.0
173
     0
291
     1
 45
0.0
1001
ACAD
1000
AcDbSavedByObjectVersion
1070
     0
  0
VISUALSTYLE
  5
F9
102
{ACAD_REACTORS
330
EF
102
}
330
EF
100
AcDbVisualStyle
  2
Realistic
 70
     8
 71
     2
 72
     2
 73
     1
 90
        0
 40
-0.6
 41
-30.0
 62
     5
 63
     7
 74
     1
 91
        0
 64
     7
 65
   257
 75
     1
175
     1
 42
1.0
 92
        8
 66
     8
 43
1.0
 76
     1
 77
     6
 78
     2
 67
     7
 79
     5
170
     0
171
     0
290
     0
174
     0
 93
       13
 44
0.0
173
     0
291
     0
 45
0.0
1001
ACAD
1000
AcDbSavedByObjectVersion
1070
     0
  0
VISUALSTYLE
  5
FC
102
{ACAD_REACTORS
330
EF
102
}
330
EF
100
AcDbVisualStyle
  2
Thicken
 70
    13
 71
     2
 72
     2
 73
     1
 90
        0
 40
-0.6
 41
-30.0
 62
     5
 63
     7
 74
     1
 91
        4
 64
     7
 65
   257
 75
     1
175
     1
 42
1.0
 92
       12
 66
     7
 43
1.0
 76
     1
 77
     6
 78
     2
 67
     7
 79
     5
170
     0
171
     0
290
     0
174
     0
 93
        1
 44
0.0
173
     0
291
     1
 45
0.0
1001
ACAD
1000
AcDbSavedByObjectVersion
1070
     0
  0
DICTIONARYVAR
  5
146
102
{ACAD_REACTORS
330
5E
102
}
330
5E
100
DictionaryVariables
280
     0
  1
1:1
  0
DICTIONARYVAR
  5
145
102
{ACAD_REACTORS
330
5E
102
}
330
5E
100
DictionaryVariables
280
     0
  1
STANDARD
  0
DICTIONARYVAR
  5
84
102
{ACAD_REACTORS
330
5E
102
}
330
5E
100
DictionaryVariables
280
     0
  1
STANDARD
  0
DICTIONARYVAR
  5
5F
102
{ACAD_REACTORS
330
5E
102
}
330
5E
100
DictionaryVariables
280
     0
  1
2
  0
DICTIONARYVAR
  5
63
102
{ACAD_REACTORS
330
5E
102
}
330
5E
100
DictionaryVariables
280
     0
  1
1
  0
DICTIONARYVAR
  5
521
102
{ACAD_REACTORS
330
5E
102
}
330
5E
100
DictionaryVariables
280
     0
  1
0
  0
DICTIONARYVAR
  5
51F
102
{ACAD_REACTORS
330
5E
102
}
330
5E
100
DictionaryVariables
280
     0
  1
2
  0
DICTIONARYVAR
  5
51E
102
{ACAD_REACTORS
330
5E
102
}
330
5E
100
DictionaryVariables
280
     0
  1
1
  0
DICTIONARYVAR
  5
523
102
{ACAD_REACTORS
330
5E
102
}
330
5E
100
DictionaryVariables
280
     0
  1
80.000000
  0
DICTIONARYVAR
  5
522
102
{ACAD_REACTORS
330
5E
102
}
330
5E
100
DictionaryVariables
280
     0
  1
5.000000
  0
DICTIONARYVAR
  5
520
102
{ACAD_REACTORS
330
5E
102
}
330
5E
100
DictionaryVariables
280
     0
  1
127
  0
DICTIONARY
  5
529
330
D3
100
AcDbDictionary
280
     1
281
     1
  3
ACAD_XREC_ROUNDTRIP
360
52A
  0
DICTIONARY
  5
52B
330
D7
100
AcDbDictionary
280
     1
281
     1
  3
ACAD_XREC_ROUNDTRIP
360
52C
  0
DICTIONARY
  5
526
330
22
100
AcDbDictionary
280
     1
281
     1
  3
ACAD_XREC_ROUNDTRIP
360
527
  0
DICTIONARY
  5
52F
330
ED
100
AcDbDictionary
280
     1
281
     1
  3
ACAD_XREC_ROUNDTRIP
360
530
  0
DICTIONARY
  5
52D
330
EC
100
AcDbDictionary
280
     1
281
     1
  3
ACAD_XREC_ROUNDTRIP
360
52E
  0
DICTIONARY
  5
173
330
EE
100
AcDbDictionary
280
     1
281
     1
  3
ACAD_XREC_ROUNDTRIP
360
531
  3
BUMPTILE
360
175
  3
DIFFUSETILE
360
174
  3
OPACITYTILE
360
176
  3
REFLECTIONTILE
360
177
  0
DICTIONARY
  5
162
330
7F
100
AcDbDictionary
280
     1
281
     1
  3
ACAD_ROUNDTRIP_2008_TABLESTYLE_CELLSTYLEMAP
360
524
  3
ACAD_XREC_ROUNDTRIP
360
528
  0
XRECORD
  5
52A
102
{ACAD_REACTORS
330
529
102
}
330
529
100
AcDbXrecord
280
     1
102
SHADEPLOT
 70
     0
102
SHADEPLOTRESLEVEL
 70
     2
102
SHADEPLOTCUSTOMDPI
 70
   300
  0
XRECORD
  5
52C
102
{ACAD_REACTORS
330
52B
102
}
330
52B
100
AcDbXrecord
280
     1
102
SHADEPLOT
 70
     0
102
SHADEPLOTRESLEVEL
 70
     2
102
SHADEPLOTCUSTOMDPI
 70
   300
  0
XRECORD
  5
527
102
{ACAD_REACTORS
330
526
102
}
330
526
100
AcDbXrecord
280
     1
102
SHADEPLOT
 70
     0
102
SHADEPLOTRESLEVEL
 70
     2
102
SHADEPLOTCUSTOMDPI
 70
   300
  0
XRECORD
  5
530
102
{ACAD_REACTORS
330
52F
102
}
330
52F
100
AcDbXrecord
280
     1
102
MATERIAL
148
0.0
149
0.0
149
0.0
 93
        0
 94
       63
282
     0
 72
     1
 77
     1
171
     1
175
     1
179
     1
273
     0
  0
XRECORD
  5
52E
102
{ACAD_REACTORS
330
52D
102
}
330
52D
100
AcDbXrecord
280
     1
102
MATERIAL
148
0.0
149
0.0
149
0.0
 93
        0
 94
       63
282
     0
 72
     1
 77
     1
171
     1
175
     1
179
     1
273
     0
  0
XRECORD
  5
531
102
{ACAD_REACTORS
330
173
102
}
330
173
100
AcDbXrecord
280
     1
102
MATERIAL
148
0.0
149
0.0
149
0.0
 93
        0
 94
       63
282
     0
 72
     1
 77
     1
171
     1
175
     1
179
     1
273
     0
  0
XRECORD
  5
175
102
{ACAD_REACTORS
330
173
102
}
330
173
100
AcDbXrecord
280
     1
270
     1
271
     1
  0
XRECORD
  5
174
102
{ACAD_REACTORS
330
173
102
}
330
173
100
AcDbXrecord
280
     1
270
     1
271
     1
  0
XRECORD
  5
176
102
{ACAD_REACTORS
330
173
102
}
330
173
100
AcDbXrecord
280
     1
270
     1
271
     1
  0
XRECORD
  5
177
102
{ACAD_REACTORS
330
173
102
}
330
173
100
AcDbXrecord
280
     1
270
     1
271
     1
  0
CELLSTYLEMAP
  5
524
102
{ACAD_REACTORS
330
162
102
}
330
162
100
AcDbCellStyleMap
 90
        3
300
CELLSTYLE
  1
TABLEFORMAT_BEGIN
 90
        5
170
     1
 91
        0
 92
    32768
 62
   257
 93
        1
300
CONTENTFORMAT
  1
CONTENTFORMAT_BEGIN
 90
        0
 91
        0
 92
      512
 93
        0
300

 40
0.0
140
1.0
 94
        5
 62
     0
340
11
144
6.0
309
CONTENTFORMAT_END
171
     1
301
MARGIN
  1
CELLMARGIN_BEGIN
 40
1.5
 40
1.5
 40
1.5
 40
1.5
 40
4.5
 40
4.5
309
CELLMARGIN_END
 94
        6
 95
        1
302
GRIDFORMAT
  1
GRIDFORMAT_BEGIN
 90
        0
 91
        1
 62
     0
 92
       -2
340
14
 93
        0
 40
1.125
309
GRIDFORMAT_END
 95
        2
302
GRIDFORMAT
  1
GRIDFORMAT_BEGIN
 90
        0
 91
        1
 62
     0
 92
       -2
340
14
 93
        0
 40
1.125
309
GRIDFORMAT_END
 95
        4
302
GRIDFORMAT
  1
GRIDFORMAT_BEGIN
 90
        0
 91
        1
 62
     0
 92
       -2
340
14
 93
        0
 40
1.125
309
GRIDFORMAT_END
 95
        8
302
GRIDFORMAT
  1
GRIDFORMAT_BEGIN
 90
        0
 91
        1
 62
     0
 92
       -2
340
14
 93
        0
 40
1.125
309
GRIDFORMAT_END
 95
       16
302
GRIDFORMAT
  1
GRIDFORMAT_BEGIN
 90
        0
 91
        1
 62
     0
 92
       -2
340
14
 93
        0
 40
1.125
309
GRIDFORMAT_END
 95
       32
302
GRIDFORMAT
  1
GRIDFORMAT_BEGIN
 90
        0
 91
        1
 62
     0
 92
       -2
340
14
 93
        0
 40
1.125
309
GRIDFORMAT_END
309
TABLEFORMAT_END
  1
CELLSTYLE_BEGIN
 90
        1
 91
        1
300
_TITLE
309
CELLSTYLE_END
300
CELLSTYLE
  1
TABLEFORMAT_BEGIN
 90
        5
170
     1
 91
        0
 92
        0
 62
   257
 93
        1
300
CONTENTFORMAT
  1
CONTENTFORMAT_BEGIN
 90
        0
 91
        0
 92
      512
 93
        0
300

 40
0.0
140
1.0
 94
        5
 62
     0
340
11
144
4.5
309
CONTENTFORMAT_END
171
     1
301
MARGIN
  1
CELLMARGIN_BEGIN
 40
1.5
 40
1.5
 40
1.5
 40
1.5
 40
4.5
 40
4.5
309
CELLMARGIN_END
 94
        6
 95
        1
302
GRIDFORMAT
  1
GRIDFORMAT_BEGIN
 90
        0
 91
        1
 62
     0
 92
       -2
340
14
 93
        0
 40
1.125
309
GRIDFORMAT_END
 95
        2
302
GRIDFORMAT
  1
GRIDFORMAT_BEGIN
 90
        0
 91
        1
 62
     0
 92
       -2
340
14
 93
        0
 40
1.125
309
GRIDFORMAT_END
 95
        4
302
GRIDFORMAT
  1
GRIDFORMAT_BEGIN
 90
        0
 91
        1
 62
     0
 92
       -2
340
14
 93
        0
 40
1.125
309
GRIDFORMAT_END
 95
        8
302
GRIDFORMAT
  1
GRIDFORMAT_BEGIN
 90
        0
 91
        1
 62
     0
 92
       -2
340
14
 93
        0
 40
1.125
309
GRIDFORMAT_END
 95
       16
302
GRIDFORMAT
  1
GRIDFORMAT_BEGIN
 90
        0
 91
        1
 62
     0
 92
       -2
340
14
 93
        0
 40
1.125
309
GRIDFORMAT_END
 95
       32
302
GRIDFORMAT
  1
GRIDFORMAT_BEGIN
 90
        0
 91
        1
 62
     0
 92
       -2
340
14
 93
        0
 40
1.125
309
GRIDFORMAT_END
309
TABLEFORMAT_END
  1
CELLSTYLE_BEGIN
 90
        2
 91
        1
300
_HEADER
309
CELLSTYLE_END
300
CELLSTYLE
  1
TABLEFORMAT_BEGIN
 90
        5
170
     1
 91
        0
 92
        0
 62
   257
 93
        1
300
CONTENTFORMAT
  1
CONTENTFORMAT_BEGIN
 90
        0
 91
        0
 92
      512
 93
        0
300

 40
0.0
140
1.0
 94
        2
 62
     0
340
11
144
4.5
309
CONTENTFORMAT_END
171
     1
301
MARGIN
  1
CELLMARGIN_BEGIN
 40
1.5
 40
1.5
 40
1.5
 40
1.5
 40
4.5
 40
4.5
309
CELLMARGIN_END
 94
        6
 95
        1
302
GRIDFORMAT
  1
GRIDFORMAT_BEGIN
 90
        0
 91
        1
 62
     0
 92
       -2
340
14
 93
        0
 40
1.125
309
GRIDFORMAT_END
 95
        2
302
GRIDFORMAT
  1
GRIDFORMAT_BEGIN
 90
        0
 91
        1
 62
     0
 92
       -2
340
14
 93
        0
 40
1.125
309
GRIDFORMAT_END
 95
        4
302
GRIDFORMAT
  1
GRIDFORMAT_BEGIN
 90
        0
 91
        1
 62
     0
 92
       -2
340
14
 93
        0
 40
1.125
309
GRIDFORMAT_END
 95
        8
302
GRIDFORMAT
  1
GRIDFORMAT_BEGIN
 90
        0
 91
        1
 62
     0
 92
       -2
340
14
 93
        0
 40
1.125
309
GRIDFORMAT_END
 95
       16
302
GRIDFORMAT
  1
GRIDFORMAT_BEGIN
 90
        0
 91
        1
 62
     0
 92
       -2
340
14
 93
        0
 40
1.125
309
GRIDFORMAT_END
 95
       32
302
GRIDFORMAT
  1
GRIDFORMAT_BEGIN
 90
        0
 91
        1
 62
     0
 92
       -2
340
14
 93
        0
 40
1.125
309
GRIDFORMAT_END
309
TABLEFORMAT_END
  1
CELLSTYLE_BEGIN
 90
        3
 91
        2
300
_DATA
309
CELLSTYLE_END
  0
XRECORD
  5
528
102
{ACAD_REACTORS
330
162
102
}
330
162
100
AcDbXrecord
280
     1
102
ACAD_ROUNDTRIP_PRE2007_TABLESTYLE
 90
      512
 91
        0
  1

 92
      512
 93
        0
  2

 94
      512
 95
        0
  3

  0
ENDSEC
  0
EOF
